  0
SECTION
  2
HEADER
  9
$ACADVER
  1
AC1009
  9
$INSBASE
 10
0.0
 20
0.0
 30
0.0
  9
$EXTMIN
 10
11.461392978448201
 20
8.0929127626292257
 30
-0.0000000000112498
  9
$EXTMAX
 10
661.42703077531723
 20
476.85184060589643
 30
0.0000000000002956
  9
$LIMMIN
 10
0.0
 20
0.0
  9
$LIMMAX
 10
408.0
 20
284.0
  9
$ORTHOMODE
 70
     0
  9
$REGENMODE
 70
     1
  9
$FILLMODE
 70
     1
  9
$QTEXTMODE
 70
     0
  9
$MIRRTEXT
 70
     1
  9
$DRAGMODE
 70
     2
  9
$LTSCALE
 40
1.0
  9
$OSMODE
 70
   551
  9
$ATTMODE
 70
     1
  9
$TEXTSIZE
 40
2.5
  9
$TRACEWID
 40
1.0
  9
$TEXTSTYLE
  7
STANDARD
  9
$CLAYER
  8
AM_0
  9
$CELTYPE
  6
BYLAYER
  9
$CECOLOR
 62
   256
  9
$DIMSCALE
 40
1.0
  9
$DIMASZ
 40
2.5
  9
$DIMEXO
 40
1.0
  9
$DIMDLI
 40
7.0
  9
$DIMRND
 40
0.0
  9
$DIMDLE
 40
0.0
  9
$DIMEXE
 40
1.0
  9
$DIMTP
 40
0.1
  9
$DIMTM
 40
0.1000000001
  9
$DIMTXT
 40
2.5
  9
$DIMCEN
 40
0.0
  9
$DIMTSZ
 40
0.0
  9
$DIMTOL
 70
     0
  9
$DIMLIM
 70
     0
  9
$DIMTIH
 70
     0
  9
$DIMTOH
 70
     0
  9
$DIMSE1
 70
     0
  9
$DIMSE2
 70
     0
  9
$DIMTAD
 70
     3
  9
$DIMZIN
 70
     8
  9
$DIMBLK
  1

  9
$DIMASO
 70
     1
  9
$DIMSHO
 70
     1
  9
$DIMPOST
  1

  9
$DIMAPOST
  1
"
  9
$DIMALT
 70
     0
  9
$DIMALTD
 70
     2
  9
$DIMALTF
 40
0.0393701
  9
$DIMLFAC
 40
1.0
  9
$DIMTOFL
 70
     1
  9
$DIMTVP
 40
0.0
  9
$DIMTIX
 70
     0
  9
$DIMSOXD
 70
     0
  9
$DIMSAH
 70
     0
  9
$DIMBLK1
  1

  9
$DIMBLK2
  1

  9
$DIMSTYLE
  2
AM_JIS
  9
$DIMCLRD
 70
   256
  9
$DIMCLRE
 70
   256
  9
$DIMCLRT
 70
     4
  9
$DIMTFAC
 40
0.71
  9
$DIMGAP
 40
1.0
  9
$LUNITS
 70
     2
  9
$LUPREC
 70
     2
  9
$SKETCHINC
 40
1.0
  9
$FILLETRAD
 40
2.5
  9
$AUNITS
 70
     0
  9
$AUPREC
 70
     3
  9
$MENU
  1
.
  9
$ELEVATION
 40
0.0
  9
$PELEVATION
 40
0.0
  9
$THICKNESS
 40
0.0
  9
$LIMCHECK
 70
     0
  9
$BLIPMODE
 70
     0
  9
$CHAMFERA
 40
2.5
  9
$CHAMFERB
 40
2.5
  9
$SKPOLY
 70
     0
  9
$TDCREATE
 40
2453062.552076458
  9
$TDUPDATE
 40
2458541.365353866
  9
$TDINDWG
 40
0.0614883449
  9
$TDUSRTIMER
 40
0.0614881481
  9
$USRTIMER
 70
     1
  9
$ANGBASE
 50
0.0
  9
$ANGDIR
 70
     0
  9
$PDMODE
 70
     0
  9
$PDSIZE
 40
0.0
  9
$PLINEWID
 40
0.0
  9
$COORDS
 70
     1
  9
$SPLFRAME
 70
     0
  9
$SPLINETYPE
 70
     6
  9
$SPLINESEGS
 70
     8
  9
$ATTDIA
 70
     1
  9
$ATTREQ
 70
     1
  9
$HANDLING
 70
     1
  9
$HANDSEED
  5
9FDD
  9
$SURFTAB1
 70
     6
  9
$SURFTAB2
 70
     6
  9
$SURFTYPE
 70
     6
  9
$SURFU
 70
     6
  9
$SURFV
 70
     6
  9
$UCSNAME
  2

  9
$UCSORG
 10
0.0
 20
0.0
 30
0.0
  9
$UCSXDIR
 10
1.0
 20
0.0
 30
0.0
  9
$UCSYDIR
 10
0.0
 20
1.0
 30
0.0
  9
$PUCSNAME
  2

  9
$PUCSORG
 10
0.0
 20
0.0
 30
0.0
  9
$PUCSXDIR
 10
1.0
 20
0.0
 30
0.0
  9
$PUCSYDIR
 10
0.0
 20
1.0
 30
0.0
  9
$USERI1
 70
     0
  9
$USERI2
 70
     0
  9
$USERI3
 70
     0
  9
$USERI4
 70
     0
  9
$USERI5
 70
     0
  9
$USERR1
 40
0.0
  9
$USERR2
 40
0.0
  9
$USERR3
 40
0.0
  9
$USERR4
 40
0.0
  9
$USERR5
 40
0.0
  9
$WORLDVIEW
 70
     1
  9
$SHADEDGE
 70
     3
  9
$SHADEDIF
 70
    70
  9
$TILEMODE
 70
     1
  9
$MAXACTVP
 70
    48
  9
$PLIMCHECK
 70
     0
  9
$PEXTMIN
 10
1.0000000000000000E+020
 20
1.0000000000000000E+020
 30
1.0000000000000000E+020
  9
$PEXTMAX
 10
-1.0000000000000000E+020
 20
-1.0000000000000000E+020
 30
-1.0000000000000000E+020
  9
$PLIMMIN
 10
0.0
 20
0.0
  9
$PLIMMAX
 10
420.0
 20
297.0
  9
$UNITMODE
 70
     0
  9
$VISRETAIN
 70
     1
  9
$PLINEGEN
 70
     0
  9
$PSLTSCALE
 70
     1
  0
ENDSEC
  0
SECTION
  2
TABLES
  0
TABLE
  2
VPORT
 70
     1
  0
VPORT
  2
*ACTIVE
 70
     0
 10
0.0
 20
0.0
 11
1.0
 21
1.0
 12
336.44421187688272
 22
242.4723766842628
 13
0.0
 23
0.0
 14
1.0
 24
1.0
 15
10.0
 25
10.0
 16
0.0
 26
0.0
 36
1.0
 17
0.0
 27
0.0
 37
0.0
 40
471.97695251953672
 41
1.7571592210767459
 42
50.0
 43
0.0
 44
0.0
 50
0.0
 51
0.0
 71
     0
 72
   100
 73
     1
 74
     1
 75
     0
 76
     0
 77
     0
 78
     0
  0
ENDTAB
  0
TABLE
  2
LTYPE
 70
    25
  0
LTYPE
  2
CONTINUOUS
 70
     0
  3
Solid line
 72
    65
 73
     0
 40
0.0
  0
LTYPE
  2
PHANTOM2
 70
     0
  3
Phantom (.5x) ___ _ _ ___ _ _ ___ _ _ ___ _ _
 72
    65
 73
     6
 40
31.75
 49
15.875
 49
-3.174999999999998
 49
3.174999999999998
 49
-3.174999999999998
 49
3.174999999999998
 49
-3.174999999999998
  0
LTYPE
  2
CENTER
 70
     0
  3
Center ____ _ ____ _ ____ _ ____ _ ____ _ ____
 72
    65
 73
     4
 40
50.799999999999997
 49
31.75
 49
-6.3499999999999979
 49
6.3499999999999979
 49
-6.3499999999999979
  0
LTYPE
  2
ACANSTGBM
 70
     0
  3
__ . . __ . .
 72
    65
 73
     6
 40
9.0
 49
4.0
 49
-1.0
 49
1.0
 49
-1.0
 49
1.0
 49
-1.0
  0
LTYPE
  2
ACANSTGLM
 70
     0
  3
_ _ _ _ _
 72
    65
 73
     2
 40
3.0
 49
2.0
 49
-1.0
  0
LTYPE
  2
GEN7
 70
     0
  3
____ . ____ . ____ . ____ . ____ . ____ . ____
 72
    65
 73
     4
 40
14.25
 49
9.75
 49
-1.5
 49
1.5
 49
-1.5
  0
LTYPE
  2
AM_ISO02W050
 70
     0
  3
__ __ __ __ __ __ __ __ __ __ __ __ __ __ __
 72
    65
 73
     2
 40
7.5
 49
6.0
 49
-1.5
  0
LTYPE
  2
AM_ISO08W050
 70
     0
  3
____ . ____ . ____ . ____ . ____ . ____ . ____
 72
    65
 73
     4
 40
18.0
 49
12.0
 49
-1.5
 49
3.0
 49
-1.5
  0
LTYPE
  2
AM_ISO09W050
 70
     0
  3
_____ . . _____ . . _____ . . ____ .. ____
 72
    65
 73
     6
 40
22.5
 49
12.0
 49
-1.5
 49
3.0
 49
-1.5
 49
3.0
 49
-1.5
  0
LTYPE
  2
AMCONSTR
 70
     0
  3
_______________________
 72
    65
 73
     2
 40
9999.0
 49
9999.0
 49
0.0
  0
LTYPE
  2
AM_ISO02W050X2
 70
     0
  3
 _ _ _ _ _ _ _ _ _ _ _ _
 72
    65
 73
     2
 40
3.75
 49
3.0
 49
-0.75
  0
LTYPE
  2
AM_ISO08W050X2
 70
     0
  3
__ . __ . __ . __ . __ . __
 72
    65
 73
     4
 40
9.0
 49
6.0
 49
-0.75
 49
1.5
 49
-0.75
  0
LTYPE
  2
AMZIGZAG
 70
     0
  3
/\/-/\/-/\/-/\/-/\/-/\/
 72
    65
 73
     2
 40
11.000099999999991
 49
0.0001
 49
-11.0
  0
LTYPE
  2
ACJISTGB
 70
     0
  3
__ . . __ . .
 72
    65
 73
     6
 40
9.0
 49
4.0
 49
-1.0
 49
1.0
 49
-1.0
 49
1.0
 49
-1.0
  0
LTYPE
  2
ACJISTGL
 70
     0
  3
_ _ _ _ _
 72
    65
 73
     2
 40
3.0
 49
2.0
 49
-1.0
  0
LTYPE
  2
ACISOWELD
 70
     0
  3
_ _ _ _ _
 72
    65
 73
     2
 40
2.0
 49
2.0
 49
-1.0
  0
LTYPE
  2
ACISOTGB
 70
     0
  3
__ . . __ . .
 72
    65
 73
     6
 40
9.0
 49
4.0
 49
-1.0
 49
1.0
 49
-1.0
 49
1.0
 49
-1.0
  0
LTYPE
  2
ACISOTGL
 70
     0
  3
_ _ _ _ _
 72
    65
 73
     2
 40
3.0
 49
2.0
 49
-1.0
  0
LTYPE
  2
HIDDEN
 70
     0
  3
Hidden __ __ __ __ __ __ __ __ __ __ __ __ __ _
 72
    65
 73
     2
 40
0.375
 49
0.25
 49
-0.125
  0
LTYPE
  2
CENTER2
 70
     0
  3
Center (.5x) ___ _ ___ _ ___ _ ___ _ ___ _ ___
 72
    65
 73
     4
 40
1.125
 49
0.75
 49
-0.125
 49
0.125
 49
-0.125
  0
LTYPE
  2
HIDDEN2
 70
     0
  3
Hidden (.5x) _ _ _ _ _ _ _ _ _ _ _ _ _ _ _ _ _
 72
    65
 73
     2
 40
0.1875
 49
0.125
 49
-0.0625
  0
LTYPE
  2
AMZIGZAG2
 70
     0
  3
/\/-/\/-/\/-/\/-/\/-/\/
 72
    65
 73
     2
 40
0.4401
 49
0.0001
 49
-0.4400000000000001
  0
LTYPE
  2
ACANSTGB
 70
     0
  3
__ . . __ . .
 72
    65
 73
     6
 40
0.35433070866
 49
0.15748031496
 49
-0.03937007874
 49
0.03937007874
 49
-0.03937007874
 49
0.03937007874
 49
-0.03937007874
  0
LTYPE
  2
ACANSTGL
 70
     0
  3
_ _ _ _ _
 72
    65
 73
     2
 40
0.11811023622
 49
0.07874015748
 49
-0.03937007874
  0
ENDTAB
  0
TABLE
  2
LAYER
 70
     6
  0
LAYER
  2
0
 70
     0
 62
     7
  6
CONTINUOUS
  0
LAYER
  2
AM_0
 70
     0
 62
     7
  6
CONTINUOUS
  0
LAYER
  2
DEFPOINTS
 70
     0
 62
     7
  6
CONTINUOUS
  0
LAYER
  2
ﾁｭｳｼﾝｾﾝ
 70
     0
 62
     1
  6
GEN7
  0
LAYER
  2
AM_0N
 70
     0
 62
     7
  6
CONTINUOUS
  0
LAYER
  2
AM_5
 70
     0
 62
     2
  6
CONTINUOUS
  0
ENDTAB
  0
TABLE
  2
STYLE
 70
    10
  0
STYLE
  2
STANDARD
 70
     0
 40
0.0
 41
0.8299999999999999
 50
0.0
 71
     0
 42
2.5
  3
txt.shx
  4
bigfont.shx
  0
STYLE
  2
ANNOTATIVE
 70
     0
 40
0.0
 41
1.0
 50
0.0
 71
     0
 42
0.2
  3
txt
  4

  0
STYLE
  2
ACANSTS
 70
     0
 40
1.0
 41
1.0
 50
0.0
 71
     0
 42
2.5
  3
romans.shx
  4
bigfont.shx
  0
STYLE
  2
ACANSGDT
 70
     0
 40
0.0
 41
1.0
 50
0.0
 71
     0
 42
2.5
  3
amgdt.shx
  4

  0
STYLE
  2

 70
     1
 40
0.0
 41
1.0
 50
0.0
 71
     0
 42
2.5
  3
ltypeshp.shx
  4

  0
STYLE
  2
ACJISTS
 70
     0
 40
1.0
 41
0.8299999999999999
 50
0.0
 71
     0
 42
2.5
  3
txt.shx
  4
bigfont.shx
  0
STYLE
  2
ACJISGDT
 70
     0
 40
0.0
 41
1.0
 50
0.0
 71
     0
 42
2.5
  3
amgdt.shx
  4

  0
STYLE
  2
ACISOTS
 70
     0
 40
1.0
 41
1.0
 50
0.0
 71
     0
 42
2.5
  3
isocp.shx
  4
extfont.shx
  0
STYLE
  2
ACISOGDT
 70
     0
 40
0.0
 41
1.0
 50
0.0
 71
     0
 42
2.5
  3
amgdt.shx
  4

  0
STYLE
  2

 70
     1
 40
0.0
 41
1.0
 50
0.0
 71
     0
 42
2.5
  3
genltshp.shx
  4

  0
ENDTAB
  0
TABLE
  2
VIEW
 70
    12
  0
VIEW
  2
GEN1
 70
     0
 40
95.824742268041234
 10
71.5
 20
137.08762886597941
 41
143.0
 11
0.0
 21
0.0
 31
1.0
 12
0.0
 22
0.0
 32
0.0
 42
50.0
 43
0.0
 44
0.0
 50
0.0
 71
     0
  0
VIEW
  2
GEN2
 70
     0
 40
95.824742268041234
 10
214.5
 20
137.08762886597941
 41
143.0
 11
0.0
 21
0.0
 31
1.0
 12
0.0
 22
0.0
 32
0.0
 42
50.0
 43
0.0
 44
0.0
 50
0.0
 71
     0
  0
VIEW
  2
GEN3
 70
     0
 40
95.824742268041234
 10
71.5
 20
47.912371134020603
 41
143.0
 11
0.0
 21
0.0
 31
1.0
 12
0.0
 22
0.0
 32
0.0
 42
50.0
 43
0.0
 44
0.0
 50
0.0
 71
     0
  0
VIEW
  2
GEN4
 70
     0
 40
95.824742268041234
 10
214.5
 20
47.912371134020603
 41
143.0
 11
0.0
 21
0.0
 31
1.0
 12
0.0
 22
0.0
 32
0.0
 42
50.0
 43
0.0
 44
0.0
 50
0.0
 71
     0
  0
VIEW
  2
GEN5
 70
     0
 40
95.824742268041234
 10
143.0
 20
92.500000000000057
 41
143.0
 11
0.0
 21
0.0
 31
1.0
 12
0.0
 22
0.0
 32
0.0
 42
50.0
 43
0.0
 44
0.0
 50
0.0
 71
     0
  0
VIEW
  2
GEN6
 70
     0
 40
191.64756804123709
 10
143.0
 20
92.5
 41
285.99713999999989
 11
0.0
 21
0.0
 31
1.0
 12
0.0
 22
0.0
 32
0.0
 42
50.0
 43
0.0
 44
0.0
 50
0.0
 71
     0
  0
VIEW
  2
AM_VIEW1
 70
     0
 40
142.0
 10
119.7777777777777
 20
213.0
 41
239.55555555555549
 11
0.0
 21
0.0
 31
1.0
 12
0.0
 22
0.0
 32
0.0
 42
50.0
 43
0.0
 44
0.0
 50
0.0
 71
     0
  0
VIEW
  2
AM_VIEW2
 70
     0
 40
142.0
 10
288.22222222222211
 20
213.0
 41
239.55555555555549
 11
0.0
 21
0.0
 31
1.0
 12
0.0
 22
0.0
 32
0.0
 42
50.0
 43
0.0
 44
0.0
 50
0.0
 71
     0
  0
VIEW
  2
AM_VIEW3
 70
     0
 40
142.0
 10
119.7777777777777
 20
71.0
 41
239.55555555555549
 11
0.0
 21
0.0
 31
1.0
 12
0.0
 22
0.0
 32
0.0
 42
50.0
 43
0.0
 44
0.0
 50
0.0
 71
     0
  0
VIEW
  2
AM_VIEW4
 70
     0
 40
142.0
 10
288.22222222222211
 20
71.0
 41
239.55555555555549
 11
0.0
 21
0.0
 31
1.0
 12
0.0
 22
0.0
 32
0.0
 42
50.0
 43
0.0
 44
0.0
 50
0.0
 71
     0
  0
VIEW
  2
AM_VIEW5
 70
     0
 40
142.0
 10
204.0
 20
142.0
 41
239.55555555555549
 11
0.0
 21
0.0
 31
1.0
 12
0.0
 22
0.0
 32
0.0
 42
50.0
 43
0.0
 44
0.0
 50
0.0
 71
     0
  0
VIEW
  2
AM_VIEW6
 70
     0
 40
283.99716000000001
 10
204.0
 20
142.0
 41
479.10631999999993
 11
0.0
 21
0.0
 31
1.0
 12
0.0
 22
0.0
 32
0.0
 42
50.0
 43
0.0
 44
0.0
 50
0.0
 71
     0
  0
ENDTAB
  0
TABLE
  2
UCS
 70
     0
  0
ENDTAB
  0
TABLE
  2
APPID
 70
   106
  0
APPID
  2
ACAD
 70
     0
  0
APPID
  2
ACADANNOTATIVE
 70
     0
  0
APPID
  2
MCAD_NO_VIS
 70
     0
  0
APPID
  2
ACAD_TEMP_GRAPHIC
 70
     0
  0
APPID
  2
AD_DRAW
 70
     0
  0
APPID
  2
DESIGNERASSEMBLIES
 70
     0
  0
APPID
  2
ASURF_PCURVE_APPNAME
 70
     0
  0
APPID
  2
GENIUS_GE3SECT_13
 70
     0
  0
APPID
  2
GENIUS_GENCFG_13
 70
     0
  0
APPID
  2
GENIUS_GE3CFG0_13
 70
     0
  0
APPID
  2
GENIUS_GENCFG0_13
 70
     0
  0
APPID
  2
GENIUS_GENCFG1_13
 70
     0
  0
APPID
  2
GENIUS_GENCFG2_13
 70
     0
  0
APPID
  2
GENIUS_GENCFG3_13
 70
     0
  0
APPID
  2
GENIUS_GENCFG4_13
 70
     0
  0
APPID
  2
GENIUS_GEVCFG0_13
 70
     0
  0
APPID
  2
GENIUS_GENOENT_13
 70
     0
  0
APPID
  2
GENIUS_GENREC_14
 70
     0
  0
APPID
  2
GENIUS_GENODEF_13
 70
     0
  0
APPID
  2
GENIUS_GENOBJ-N-REC_13
 70
     0
  0
APPID
  2
GENIUS_GENHINW_13
 70
     0
  0
APPID
  2
GENIUS_FIRSTVISTXT_14
 70
     0
  0
APPID
  2
GENIUS_GENOBJ-N-LEADER_13
 70
     0
  0
APPID
  2
GENIUS_GENOREF_13
 70
     0
  0
APPID
  2
GENIUS_GENOLIS_13
 70
     0
  0
APPID
  2
GEV_VCCNULL_SWITCH_OFF
 70
     0
  0
APPID
  2
GENIUS_GENDTOL_13
 70
     0
  0
APPID
  2
GENIUS_GEFCFG0_13
 70
     0
  0
APPID
  2
GENIUS_GENOBJ-N-TIT_13
 70
     0
  0
APPID
  2
GENIUS_GENTITLE_13
 70
     0
  0
APPID
  2
GENIUS_GENZVEED_13
 70
     0
  0
APPID
  2
GENIUS_GENOBJ-N-SDF_13
 70
     0
  0
APPID
  2
GENIUS_GENSCREG_13
 70
     0
  0
APPID
  2
GENIUS_DUMCFG0_13
 70
     0
  0
APPID
  2
GEVID936201362
 70
     0
  0
APPID
  2
GEVDC
 70
     0
  0
APPID
  2
GEVCON
 70
     0
  0
APPID
  2
VCC
 70
     0
  0
APPID
  2
GEVPT
 70
     0
  0
APPID
  2
GEVIT
 70
     0
  0
APPID
  2
GENBH
 70
     0
  0
APPID
  2
GEVMK
 70
     0
  0
APPID
  2
GENIUS_GENBH_13
 70
     0
  0
APPID
  2
GENIUS_GENOBJ-NBEHI-BHF_13
 70
     0
  0
APPID
  2
GENIUS_GENOBJ-NBEHI-BHB_13
 70
     0
  0
APPID
  2
GENIUS_GENOBJ-F-DESC_13
 70
     0
  0
APPID
  2
GENIUS_GEFDESC_14
 70
     0
  0
APPID
  2
GENIUS_GENOBJ-F-PART_13
 70
     0
  0
APPID
  2
GENIUS_GEFSTDP_13
 70
     0
  0
APPID
  2
GENIUS_GEFPARTINS_13
 70
     0
  0
APPID
  2
GENIUS_GENTRA_14
 70
     0
  0
APPID
  2
GENIUS_GENINF13_13
 70
     0
  0
APPID
  2
GENIUS_GENOBJ-N-INFOPT_13
 70
     0
  0
APPID
  2
GENIUS_GENOBJ-N-RSSYM_13
 70
     0
  0
APPID
  2
GENIUS_GENSYMENT_13
 70
     0
  0
APPID
  2
GENIUS_GENSCSYM_13
 70
     0
  0
APPID
  2
GENIUS_GEFINFNAM_13
 70
     0
  0
APPID
  2
GENIUS_GENSCREG_15
 70
     0
  0
APPID
  2
GENIUS_GENOBJ-N-CEN_13
 70
     0
  0
APPID
  2
GENIUS_GENOBJ-N-CRS_13
 70
     0
  0
APPID
  2
GENIUS_GENOBJ-N-CRC_13
 70
     0
  0
APPID
  2
GENIUS_GENCRC_14
 70
     0
  0
APPID
  2
GEVID942827039
 70
     0
  0
APPID
  2
GEVID942827040
 70
     0
  0
APPID
  2
GEVID942827041
 70
     0
  0
APPID
  2
GENIUS_GENOBJ-F-SCPASSM_13
 70
     0
  0
APPID
  2
GENIUS_GENDIMSH_14
 70
     0
  0
APPID
  2
GENIUS_GENFIL_13
 70
     0
  0
APPID
  2
GENIUS_GENOBJ-N-CHA_13
 70
     0
  0
APPID
  2
GENIUS_GENOBJ-N-FIL_13
 70
     0
  0
APPID
  2
GEVID942827042
 70
     0
  0
APPID
  2
GEVID946020473
 70
     0
  0
APPID
  2
GEVID946020474
 70
     0
  0
APPID
  2
GEVID946020475
 70
     0
  0
APPID
  2
GENIUS_GENOBJ-N-HTC_13
 70
     0
  0
APPID
  2
GENIUS_GENHATCH_13
 70
     0
  0
APPID
  2
GEVID948854295
 70
     0
  0
APPID
  2
GEVID939402019
 70
     0
  0
APPID
  2
GEVID952919491
 70
     0
  0
APPID
  2
GEVID952919492
 70
     0
  0
APPID
  2
GENIUS_GEFWELD_13
 70
     0
  0
APPID
  2
GENIUS_GENOBJ-F-WELS_13
 70
     0
  0
APPID
  2
GEVID952919493
 70
     0
  0
APPID
  2
GENIUS_GENOBJ-N-RSBK_13
 70
     0
  0
APPID
  2
GENIUS_GENOBJ-N-LIB_13
 70
     0
  0
APPID
  2
GENIUS_GENSCALE_13
 70
     0
  0
APPID
  2
GEVID986376691
 70
     0
  0
APPID
  2
ACATTRIBSERVICES
 70
     0
  0
APPID
  2
ACADM_DIM_EDIT
 70
     0
  0
APPID
  2
AMDT_DM_ADJ
 70
     0
  0
APPID
  2
GEVID1057795304
 70
     0
  0
APPID
  2
GENIUS_GEFSH_13
 70
     0
  0
APPID
  2
GENIUS_GENOBJ-F-SHS_13
 70
     0
  0
APPID
  2
GENIUS_GENOBJ-N-ADDLEAD_13
 70
     0
  0
APPID
  2
GENIUS_GENMAINADDLEADER_14
 70
     0
  0
APPID
  2
GENIUS_GENADDLEADER_14
 70
     0
  0
APPID
  2
GENIUS_GENDREL_13
 70
     0
  0
APPID
  2
GEVID1121934822
 70
     0
  0
APPID
  2
GEVID1121934823
 70
     0
  0
APPID
  2
GEVID1121934824
 70
     0
  0
APPID
  2
ACAD_DSTYLE_DIMJAG
 70
     0
  0
APPID
  2
ACAD_DSTYLE_DIMBREAK
 70
     0
  0
APPID
  2
ACAD_NAV_VCDISPLAY
 70
     0
  0
APPID
  2
ACADANNOPO
 70
     0
  0
APPID
  2
ACAD_EXEMPT_FROM_CAD_STANDARDS
 70
     0
  0
APPID
  2
ACAD_MLEADERVER
 70
     0
  0
ENDTAB
  0
TABLE
  2
DIMSTYLE
 70
    29
  0
DIMSTYLE
  2
STANDARD
 70
     0
  3

  4

  5

  6

  7

 40
1.0
 41
0.18
 42
0.0625
 43
0.38
 44
0.18
 45
0.0
 46
0.0
 47
0.0
 48
0.0
140
0.18
141
0.09
142
0.0
143
25.399999999999999
144
1.0
145
0.0
146
1.0
147
0.09
 71
     0
 72
     0
 73
     1
 74
     1
 75
     0
 76
     0
 77
     0
 78
     0
170
     0
171
     2
172
     0
173
     0
174
     0
175
     0
176
     0
177
     0
178
     0
  0
DIMSTYLE
  2
ANNOTATIVE
 70
     0
  3

  4

  5

  6

  7

 40
1.0
 41
0.18
 42
0.0625
 43
0.38
 44
0.18
 45
0.0
 46
0.0
 47
0.0
 48
0.0
140
0.18
141
0.09
142
0.0
143
25.399999999999999
144
1.0
145
0.0
146
1.0
147
0.09
 71
     0
 72
     0
 73
     1
 74
     1
 75
     0
 76
     0
 77
     0
 78
     0
170
     0
171
     2
172
     0
173
     0
174
     0
175
     0
176
     0
177
     0
178
     0
  0
DIMSTYLE
  2
AM_JIS
 70
     0
  3

  4
"
  5

  6

  7

 40
1.0
 41
2.0
 42
1.0
 43
8.0
 44
1.0
 45
0.0
 46
0.0
 47
0.1
 48
0.1
140
2.5
141
0.0
142
0.0
143
0.0393701
144
1.0
145
0.0
146
0.71
147
1.5
 71
     0
 72
     0
 73
     0
 74
     0
 75
     0
 76
     0
 77
     3
 78
     8
170
     0
171
     2
172
     1
173
     0
174
     0
175
     0
176
   256
177
   256
178
     4
  0
DIMSTYLE
  2
AM_JIS$3
 70
     0
  3

  4
"
  5

  6

  7

 40
1.0
 41
2.0
 42
1.0
 43
10.0
 44
1.0
 45
0.0
 46
0.0
 47
0.1
 48
0.1
140
2.5
141
0.0
142
0.0
143
0.0393701
144
1.0
145
0.0
146
0.71
147
1.5
 71
     0
 72
     0
 73
     0
 74
     1
 75
     0
 76
     0
 77
     3
 78
     8
170
     0
171
     2
172
     0
173
     0
174
     0
175
     0
176
   256
177
   256
178
     4
  0
DIMSTYLE
  2
AM_JIS$4
 70
     0
  3

  4
"
  5

  6

  7

 40
1.0
 41
2.0
 42
1.0
 43
10.0
 44
1.0
 45
0.0
 46
0.0
 47
0.1
 48
0.1
140
2.5
141
0.0
142
0.0
143
0.0393701
144
1.0
145
0.0
146
0.71
147
1.5
 71
     0
 72
     0
 73
     0
 74
     0
 75
     0
 76
     0
 77
     3
 78
     8
170
     0
171
     2
172
     0
173
     0
174
     0
175
     0
176
   256
177
   256
178
     4
  0
DIMSTYLE
  2
AM_JIS$6
 70
     0
  3

  4
"
  5

  6

  7

 40
1.0
 41
2.0
 42
1.0
 43
10.0
 44
1.0
 45
0.0
 46
0.0
 47
0.1
 48
0.1
140
2.5
141
0.0
142
0.0
143
0.0393701
144
1.0
145
0.0
146
0.71
147
1.5
 71
     0
 72
     0
 73
     0
 74
     0
 75
     0
 76
     0
 77
     0
 78
     8
170
     0
171
     2
172
     1
173
     0
174
     0
175
     0
176
   256
177
   256
178
     4
  0
DIMSTYLE
  2
AM_JIS$7
 70
     0
  3

  4
"
  5

  6

  7

 40
1.0
 41
2.0
 42
1.0
 43
10.0
 44
1.0
 45
0.0
 46
0.0
 47
0.1
 48
0.1
140
2.5
141
0.0
142
0.0
143
0.0393701
144
1.0
145
0.0
146
0.71
147
1.5
 71
     0
 72
     0
 73
     0
 74
     0
 75
     0
 76
     0
 77
     3
 78
     8
170
     0
171
     2
172
     1
173
     0
174
     0
175
     0
176
   256
177
   256
178
     4
  0
DIMSTYLE
  2
AM_JIS$SF
 70
     0
  3

  4
"
  5

  6

  7

 40
1.0
 41
2.0
 42
1.0
 43
10.0
 44
1.0
 45
0.0
 46
0.0
 47
0.1
 48
0.1
140
2.5
141
0.0
142
0.0
143
0.0393701
144
1.0
145
0.0
146
0.71
147
1.5
 71
     0
 72
     0
 73
     0
 74
     0
 75
     1
 76
     1
 77
     3
 78
     8
170
     0
171
     2
172
     1
173
     0
174
     0
175
     0
176
   256
177
   256
178
     4
  0
DIMSTYLE
  2
AM_JIS$SH
 70
     0
  3

  4
"
  5

  6

  7

 40
1.0
 41
2.0
 42
1.0
 43
10.0
 44
1.0
 45
0.0
 46
0.0
 47
0.1
 48
0.1
140
2.5
141
0.0
142
0.0
143
0.0393701
144
2.0
145
0.0
146
0.71
147
1.5
 71
     0
 72
     0
 73
     0
 74
     0
 75
     1
 76
     1
 77
     3
 78
     8
170
     0
171
     2
172
     1
173
     1
174
     0
175
     0
176
   256
177
   256
178
     4
  0
DIMSTYLE
  2
AM_ISO
 70
     0
  3

  4
"
  5

  6

  7

 40
1.0
 41
2.5
 42
1.0
 43
10.0
 44
1.0
 45
0.0
 46
0.0
 47
0.1
 48
0.1
140
3.5
141
0.0
142
0.0
143
0.0393701
144
1.0
145
0.0
146
0.71
147
1.5
 71
     0
 72
     0
 73
     0
 74
     0
 75
     0
 76
     0
 77
     1
 78
     8
170
     0
171
     2
172
     1
173
     0
174
     0
175
     0
176
   256
177
   256
178
     2
  0
DIMSTYLE
  2
AM_ISO$3
 70
     0
  3

  4
"
  5

  6

  7

 40
1.0
 41
2.5
 42
1.0
 43
10.0
 44
1.0
 45
0.0
 46
0.0
 47
0.1
 48
0.1
140
3.5
141
0.0
142
0.0
143
0.0393701
144
1.0
145
0.0
146
0.71
147
1.5
 71
     0
 72
     0
 73
     0
 74
     1
 75
     0
 76
     0
 77
     1
 78
     8
170
     0
171
     2
172
     0
173
     0
174
     0
175
     0
176
   256
177
   256
178
     2
  0
DIMSTYLE
  2
AM_ISO$4
 70
     0
  3

  4
"
  5

  6

  7

 40
1.0
 41
2.5
 42
1.0
 43
10.0
 44
1.0
 45
0.0
 46
0.0
 47
0.1
 48
0.1
140
3.5
141
0.0
142
0.0
143
0.0393701
144
1.0
145
0.0
146
0.71
147
1.5
 71
     0
 72
     0
 73
     0
 74
     1
 75
     0
 76
     0
 77
     1
 78
     8
170
     0
171
     2
172
     0
173
     0
174
     0
175
     0
176
   256
177
   256
178
     2
  0
DIMSTYLE
  2
AM_ISO$6
 70
     0
  3

  4
"
  5

  6

  7

 40
1.0
 41
2.5
 42
1.0
 43
10.0
 44
1.0
 45
0.0
 46
0.0
 47
0.1
 48
0.1
140
3.5
141
0.0
142
0.0
143
0.0393701
144
1.0
145
0.0
146
0.71
147
1.5
 71
     0
 72
     0
 73
     0
 74
     0
 75
     0
 76
     0
 77
     0
 78
     8
170
     0
171
     2
172
     1
173
     0
174
     0
175
     0
176
   256
177
   256
178
     2
  0
DIMSTYLE
  2
AM_ISO$7
 70
     0
  3

  4
"
  5

  6

  7

 40
1.0
 41
2.5
 42
1.0
 43
10.0
 44
1.0
 45
0.0
 46
0.0
 47
0.1
 48
0.1
140
5.0
141
0.0
142
0.0
143
0.0393701
144
1.0
145
0.0
146
0.71
147
1.5
 71
     0
 72
     0
 73
     0
 74
     0
 75
     0
 76
     0
 77
     1
 78
     8
170
     0
171
     2
172
     1
173
     0
174
     0
175
     0
176
   256
177
   256
178
     2
  0
DIMSTYLE
  2
AM_ISO$SF
 70
     0
  3

  4
"
  5

  6

  7

 40
1.0
 41
2.5
 42
1.0
 43
10.0
 44
1.0
 45
0.0
 46
0.0
 47
0.1
 48
0.1
140
3.5
141
0.0
142
0.0
143
0.0393701
144
1.0
145
0.0
146
0.71
147
1.5
 71
     0
 72
     0
 73
     0
 74
     0
 75
     1
 76
     1
 77
     1
 78
     8
170
     0
171
     2
172
     1
173
     0
174
     0
175
     0
176
   256
177
   256
178
     2
  0
DIMSTYLE
  2
AM_ISO$SH
 70
     0
  3

  4
"
  5

  6

  7

 40
1.0
 41
2.5
 42
1.0
 43
10.0
 44
1.0
 45
0.0
 46
0.0
 47
0.1
 48
0.1
140
3.5
141
0.0
142
0.0
143
0.0393701
144
2.0
145
0.0
146
0.71
147
1.5
 71
     0
 72
     0
 73
     0
 74
     0
 75
     1
 76
     1
 77
     1
 78
     8
170
     0
171
     2
172
     1
173
     1
174
     0
175
     0
176
   256
177
   256
178
     2
  0
DIMSTYLE
  2
GEN-ANSI
 70
     0
  3

  4
"
  5

  6

  7

 40
1.0
 41
2.0
 42
0.5
 43
10.0
 44
0.5
 45
0.0
 46
0.0
 47
0.1
 48
0.1
140
2.5
141
0.0
142
0.0
143
0.0393701
144
1.0
145
0.0
146
0.71
147
1.5
 71
     0
 72
     0
 73
     1
 74
     1
 75
     0
 76
     0
 77
     0
 78
     8
170
     0
171
     2
172
     0
173
     0
174
     0
175
     0
176
   256
177
   256
178
     4
  0
DIMSTYLE
  2
GEN-ANSI$3
 70
     0
  3

  4
"
  5

  6

  7

 40
1.0
 41
2.0
 42
0.5
 43
10.0
 44
0.5
 45
0.0
 46
0.0
 47
0.1
 48
0.1
140
2.5
141
0.0
142
0.0
143
0.0393701
144
1.0
145
0.0
146
0.71
147
1.5
 71
     0
 72
     0
 73
     1
 74
     1
 75
     0
 76
     0
 77
     0
 78
     8
170
     0
171
     2
172
     0
173
     0
174
     0
175
     0
176
   256
177
   256
178
     4
  0
DIMSTYLE
  2
GEN-ANSI$4
 70
     0
  3

  4
"
  5

  6

  7

 40
1.0
 41
2.0
 42
0.5
 43
10.0
 44
0.5
 45
0.0
 46
0.0
 47
0.1
 48
0.1
140
2.5
141
0.0
142
0.0
143
0.0393701
144
1.0
145
0.0
146
0.71
147
1.5
 71
     0
 72
     0
 73
     1
 74
     1
 75
     0
 76
     0
 77
     0
 78
     8
170
     0
171
     2
172
     0
173
     0
174
     0
175
     0
176
   256
177
   256
178
     4
  0
DIMSTYLE
  2
GEN-ANSI$6
 70
     0
  3

  4
"
  5

  6

  7

 40
1.0
 41
2.0
 42
0.5
 43
10.0
 44
0.5
 45
0.0
 46
0.0
 47
0.1
 48
0.1
140
2.5
141
0.0
142
0.0
143
0.0393701
144
1.0
145
0.0
146
0.71
147
1.5
 71
     0
 72
     0
 73
     1
 74
     1
 75
     0
 76
     0
 77
     0
 78
     8
170
     0
171
     2
172
     0
173
     0
174
     0
175
     0
176
   256
177
   256
178
     4
  0
DIMSTYLE
  2
GEN-ANSI-POS
 70
     0
  3

  4
"
  5

  6

  7

 40
1.0
 41
2.5
 42
0.5
 43
10.0
 44
0.5
 45
0.0
 46
0.0
 47
0.1
 48
0.1
140
5.0
141
0.0
142
0.0
143
0.0393701
144
1.0
145
0.0
146
0.71
147
1.5
 71
     0
 72
     0
 73
     0
 74
     0
 75
     0
 76
     0
 77
     0
 78
     8
170
     0
171
     2
172
     0
173
     0
174
     0
175
     0
176
   256
177
   256
178
     4
  0
DIMSTYLE
  2
GEN-ANSI-AXE-F
 70
     0
  3

  4
"
  5

  6

  7

 40
1.0
 41
2.0
 42
0.5
 43
10.0
 44
0.5
 45
0.0
 46
0.0
 47
0.1
 48
0.1
140
2.5
141
0.0
142
0.0
143
0.0393701
144
1.0
145
0.0
146
0.71
147
1.5
 71
     0
 72
     0
 73
     1
 74
     1
 75
     1
 76
     1
 77
     0
 78
     8
170
     0
171
     2
172
     0
173
     1
174
     0
175
     0
176
   256
177
   256
178
     4
  0
DIMSTYLE
  2
GEN-ANSI-AXE-H
 70
     0
  3

  4
"
  5

  6

  7

 40
1.0
 41
2.0
 42
0.5
 43
10.0
 44
0.5
 45
0.0
 46
0.0
 47
0.1
 48
0.1
140
2.5
141
0.0
142
0.0
143
0.0393701
144
2.0
145
0.0
146
0.71
147
1.5
 71
     0
 72
     0
 73
     0
 74
     0
 75
     1
 76
     1
 77
     0
 78
     8
170
     0
171
     2
172
     1
173
     1
174
     0
175
     0
176
   256
177
   256
178
     4
  0
DIMSTYLE
  2
AM_ANSI
 70
     0
  3

  4
mm
  5

  6

  7

 40
1.0
 41
0.12
 42
0.05
 43
0.5
 44
0.1
 45
0.0
 46
0.0
 47
0.1
 48
0.1
140
0.12
141
0.0
142
0.0
143
25.399999999999999
144
1.0
145
0.0
146
0.71
147
0.06
 71
     0
 72
     0
 73
     1
 74
     1
 75
     0
 76
     0
 77
     0
 78
     7
170
     0
171
     2
172
     0
173
     0
174
     0
175
     0
176
   256
177
   256
178
     2
  0
DIMSTYLE
  2
AM_ANSI$3
 70
     0
  3

  4
mm
  5

  6

  7

 40
1.0
 41
0.12
 42
0.05
 43
0.5
 44
0.1
 45
0.0
 46
0.0
 47
0.1
 48
0.1
140
0.12
141
0.0
142
0.0
143
25.399999999999999
144
1.0
145
0.0
146
0.71
147
0.06
 71
     0
 72
     0
 73
     1
 74
     1
 75
     0
 76
     0
 77
     0
 78
     7
170
     0
171
     2
172
     0
173
     0
174
     0
175
     0
176
   256
177
   256
178
     2
  0
DIMSTYLE
  2
AM_ANSI$4
 70
     0
  3

  4
mm
  5

  6

  7

 40
1.0
 41
0.12
 42
0.05
 43
0.5
 44
0.1
 45
0.0
 46
0.0
 47
0.1
 48
0.1
140
0.12
141
0.0
142
0.0
143
25.399999999999999
144
1.0
145
0.0
146
0.71
147
0.06
 71
     0
 72
     0
 73
     1
 74
     1
 75
     0
 76
     0
 77
     0
 78
     7
170
     0
171
     2
172
     0
173
     0
174
     0
175
     0
176
   256
177
   256
178
     2
  0
DIMSTYLE
  2
AM_ANSI$7
 70
     0
  3

  4
mm
  5

  6

  7

 40
1.0
 41
0.12
 42
0.05
 43
0.5
 44
0.1
 45
0.0
 46
0.0
 47
0.1
 48
0.1
140
0.12
141
0.0
142
0.0
143
25.399999999999999
144
1.0
145
0.0
146
0.71
147
0.06
 71
     0
 72
     0
 73
     1
 74
     1
 75
     0
 76
     0
 77
     0
 78
     7
170
     0
171
     2
172
     0
173
     0
174
     0
175
     0
176
   256
177
   256
178
     2
  0
DIMSTYLE
  2
AM_ANSI$SF
 70
     0
  3

  4
mm
  5

  6

  7

 40
1.0
 41
0.12
 42
0.05
 43
0.5
 44
0.1
 45
0.0
 46
0.0
 47
0.1
 48
0.1
140
0.12
141
0.0
142
0.0
143
25.399999999999999
144
1.0
145
0.0
146
0.71
147
0.06
 71
     0
 72
     0
 73
     1
 74
     1
 75
     1
 76
     1
 77
     0
 78
     7
170
     0
171
     2
172
     0
173
     0
174
     0
175
     0
176
   256
177
   256
178
     2
  0
DIMSTYLE
  2
AM_ANSI$SH
 70
     0
  3

  4
mm
  5

  6
GENAXEH
  7

 40
1.0
 41
0.12
 42
0.05
 43
0.5
 44
0.1
 45
0.0
 46
0.0
 47
0.1
 48
0.1
140
0.12
141
0.0
142
0.0
143
25.399999999999999
144
1.0
145
0.0
146
0.71
147
0.06
 71
     0
 72
     0
 73
     1
 74
     1
 75
     1
 76
     1
 77
     0
 78
     7
170
     0
171
     2
172
     0
173
     1
174
     0
175
     0
176
   256
177
   256
178
     2
  0
ENDTAB
  0
ENDSEC
  0
SECTION
  2
BLOCKS
  0
BLOCK
  8
0
  2
$MODEL_SPACE
 70
     0
 10
0.0
 20
0.0
 30
0.0
  3
$MODEL_SPACE
  1

  0
ENDBLK
  5
9E3A
  8
0
  0
BLOCK
 67
     1
  8
0
  2
$PAPER_SPACE
 70
     0
 10
0.0
 20
0.0
 30
0.0
  3
$PAPER_SPACE
  1

  0
ENDBLK
  5
9E36
 67
     1
  8
0
  0
BLOCK
  8
0
  2
GENAXEH
 70
     0
 10
0.0
 20
0.0
 30
0.0
  3
GENAXEH
  1

  0
LINE
  5
9D84
  8
0
 10
-1.0
 20
0.0
 30
0.0
 11
1.0
 21
0.0
 31
0.0
  0
ENDBLK
  5
9D86
  8
0
  0
BLOCK
  8
0
  2
_ACMFILLEDHALF
 70
     0
 10
0.0
 20
0.0
 30
0.0
  3
_ACMFILLEDHALF
  1

  0
TRACE
  5
9F47
  8
AM_0
 62
     0
 10
-0.8
 20
0.0
 30
0.0
 11
-1.0
 21
0.166666666
 31
0.0
 12
0.0
 22
0.0
 32
0.0
 13
0.0
 23
0.0
 33
0.0
  0
LINE
  5
9F48
  8
AM_0
 62
     0
 10
-1.0
 20
0.0
 30
0.0
 11
-0.8
 21
0.0
 31
0.0
  0
ENDBLK
  5
9F46
  8
0
  0
ENDSEC
  0
SECTION
  2
ENTITIES
  0
POINT
  5
1B94
  8
0
 10
0.0
 20
0.0
 30
0.0
1001
GENIUS_GENODEF_13
1002
{
1000
HIER
1070
     1
1002
}
1002
{
1000
MANEDIT
1070
     0
1002
}
1002
{
1000
NOSEL
1070
     0
1002
}
1002
{
1000
BEHIND
1070
     0
1002
}
1002
{
1000
REACTOR
1002
}
1001
GENIUS_GENOBJ-N-SDF_13
1002
{
1000
OWNER
1000
GEN
1002
}
1001
GENIUS_GENOENT_13
1002
{
1000
MYREF
1005
1B94
1002
}
1002
{
1000
GRP
1005
0
1002
}
1001
GENIUS_GENOLIS_13
1002
{
1000
ENT
1005
89
1002
}
  0
ARC
  5
8C34
  8
AM_0
 10
337.578211264049
 20
168.7719279035334
 30
0.0
 40
3.0
 50
179.99998999999889
 51
270.0
  0
ARC
  5
8C35
  8
AM_0
 10
335.57826126404768
 20
47.146695903533328
 30
0.0
 40
3.0
 50
270.0
 51
0.0
  0
ARC
  5
8C36
  8
AM_0
 10
335.57826126404768
 20
187.81902990353331
 30
0.0
 40
3.0
 50
0.0
 51
91.999997999994264
  0
ARC
  5
8C37
  8
AM_0
 10
337.578211264049
 20
63.276075903533403
 30
0.0
 40
3.0
 50
90.000002999984645
 51
180.00001000000091
  0
ARC
  5
8C38
  8
AM_0
 10
337.578211264049
 20
27.9040809035323
 30
0.0
 40
3.0
 50
179.99998999999889
 51
271.99999000000759
  0
LINE
  5
8C39
  8
AM_0
 10
334.578211264049
 20
24.797496903532419
 30
0.0
 11
344.57826126404882
 21
25.146693903531279
 31
0.0
  0
LINE
  5
8C3A
  8
AM_0
 10
336.20724126404912
 20
91.736355903533422
 30
0.0
 11
338.57826126404871
 21
91.736355903533422
 31
0.0
  0
LINE
  5
8C3B
  8
AM_0
 10
336.508441264049
 20
209.8648899035324
 30
0.0
 11
344.57826126404882
 21
210.14667990353331
 31
0.0
  0
LINE
  5
8C3C
  8
ﾁｭｳｼﾝｾﾝ
 10
244.0261938857283
 20
117.64672890353241
 30
0.0
 11
395.52600126404877
 21
117.64672890353241
 31
0.0
  0
ARC
  5
8C3D
  8
AM_0
 10
308.74602126404892
 20
140.69673090353331
 30
0.0
 40
24.832211399999991
 50
349.38168000000093
 51
47.544066000004463
  0
LINE
  5
8C3E
  8
AM_0
 10
334.578211264049
 20
93.736356903533306
 30
0.0
 11
334.578211264049
 21
168.7719279035334
 31
0.0
  0
LINE
  5
8C3F
  8
AM_0
 10
226.0782912640488
 20
157.9467009035333
 30
0.0
 11
226.0782912640488
 21
30.946650903532369
 31
0.0
  0
LINE
  5
8C40
  8
AM_0
 10
262.578211264049
 20
173.2709199035323
 30
0.0
 11
262.578211264049
 21
150.78080790353221
 31
0.0
  0
LINE
  5
8C41
  8
AM_0
 10
252.57822126404881
 20
165.26905890353231
 30
0.0
 11
252.57822126404881
 21
15.97173690353338
 31
0.0
  0
LINE
  5
8C42
  8
AM_0
 10
269.57826126404871
 20
175.4467329035312
 30
0.0
 11
269.57826126404871
 21
13.44671190353233
 31
0.0
  0
LINE
  5
8C43
  8
ﾁｭｳｼﾝｾﾝ
 10
15.857247742134859
 20
94.446729903533424
 30
0.0
 11
247.5654848817907
 21
94.446729903533424
 31
0.0
  0
LINE
  5
8C44
  8
AM_0
 10
262.578211264049
 20
125.59593090353241
 30
0.0
 11
262.578211264049
 21
34.902735903532403
 31
0.0
  0
LINE
  5
8C45
  8
AM_0
 10
269.57826126404871
 20
28.336482903532438
 30
0.0
 11
334.578211264049
 21
28.336482903532438
 31
0.0
  0
LINE
  5
8C46
  8
AM_0
 10
269.57826126404871
 20
13.44669690353339
 30
0.0
 11
312.33216126404881
 21
11.95370190353241
 31
0.0
  0
ARC
  5
8C47
  8
AM_0
 10
254.5782912640488
 20
15.97173690353338
 30
0.0
 40
2.00000007
 50
179.99998999999889
 51
268.0000099999923
  0
LINE
  5
8C48
  8
AM_0
 10
269.57826126404871
 20
13.44671190353233
 30
0.0
 11
254.50845126404869
 21
13.972956903533261
 31
0.0
  0
LINE
  5
8C49
  8
AM_0
 10
226.0782912640488
 20
42.946728903532403
 30
0.0
 11
252.57822126404881
 21
42.946728903532403
 31
0.0
  0
LINE
  5
8C4A
  8
AM_0
 10
226.0782912640488
 20
57.298779903533379
 30
0.0
 11
252.57822126404881
 21
57.298779903533379
 31
0.0
  0
LINE
  5
8C4B
  8
AM_0
 10
226.07823126404901
 20
30.94671390353232
 30
0.0
 11
248.30508126404891
 21
30.17052990353249
 31
0.0
  0
LINE
  5
8C4C
  8
AM_0
 10
219.07827126404891
 20
42.406719903532327
 30
0.0
 11
226.0782912640488
 21
42.406719903532327
 31
0.0
  0
LINE
  5
8C4D
  8
AM_0
 10
219.07827126404891
 20
30.94672890353332
 30
0.0
 11
226.0782912640488
 21
30.94672890353332
 31
0.0
  0
LINE
  5
8C4E
  8
AM_0
 10
218.07822126404881
 20
57.296718903533247
 30
0.0
 11
226.0782912640488
 21
57.296718903533247
 31
0.0
  0
ARC
  5
8C4F
  8
AM_0
 10
254.5782912640488
 20
30.90273690353251
 30
0.0
 40
2.00000007
 50
90.000002999984645
 51
180.00001000000091
  0
ARC
  5
8C50
  8
AM_0
 10
249.57822126404881
 20
26.929425903532319
 30
0.0
 40
3.0
 50
0.0
 51
79.999998000001099
  0
ARC
  5
8C51
  8
AM_0
 10
248.200351264049
 20
27.172374903533399
 30
0.0
 40
3.0
 50
79.999998000001099
 51
87.999999999996476
  0
LINE
  5
8C52
  8
AM_0
 10
248.721301264049
 20
30.126795903533321
 30
0.0
 11
250.09923126404959
 21
29.883831903532379
 31
0.0
  0
ARC
  5
8C53
  8
AM_0
 10
260.57826126404871
 20
34.902735903532403
 30
0.0
 40
2.00000007
 50
270.0
 51
0.0
  0
LINE
  5
8C54
  8
AM_0
 10
254.5782912640488
 20
32.90273790353239
 30
0.0
 11
260.57826126404871
 21
32.90273790353239
 31
0.0
  0
LINE
  5
8C55
  8
AM_0
 10
312.33216126404881
 20
11.95373190353234
 30
0.0
 11
334.578211264049
 21
24.797511903533401
 31
0.0
  0
LINE
  5
8C56
  8
AM_0
 10
294.57822126404881
 20
41.178936903532303
 30
0.0
 11
334.578211264049
 21
41.178936903532303
 31
0.0
  0
LINE
  5
8C57
  8
AM_0
 10
294.57822126404881
 20
55.842252903533343
 30
0.0
 11
334.578211264049
 21
55.842252903533343
 31
0.0
  0
ARC
  5
8C58
  8
AM_0
 10
294.5798712640489
 20
48.51060090353235
 30
0.0
 40
7.331659199999998
 50
90.000002999984645
 51
270.0
  0
LINE
  5
8C59
  8
AM_0
 10
294.57822126404881
 20
42.361935903531268
 30
0.0
 11
294.57822126404881
 21
54.681927903532369
 31
0.0
  0
LINE
  5
8C5A
  8
AM_0
 10
334.578211264049
 20
27.9040809035323
 30
0.0
 11
334.578211264049
 21
63.276075903533403
 31
0.0
  0
LINE
  5
8C5B
  8
AM_0
 10
269.57826126404871
 20
140.69673090353331
 30
0.0
 11
331.52358126404891
 21
140.69673090353331
 31
0.0
  0
LINE
  5
8C5C
  8
AM_0
 10
226.0782912640488
 20
131.59466490353239
 30
0.0
 11
252.57822126404881
 21
131.59466490353239
 31
0.0
  0
LINE
  5
8C5D
  8
AM_0
 10
226.0782912640488
 20
145.9467309035324
 30
0.0
 11
252.57822126404881
 21
145.9467309035324
 31
0.0
  0
LINE
  5
8C5E
  8
AM_0
 10
219.07827126404891
 20
146.48670990353219
 30
0.0
 11
226.0782912640488
 21
146.48670990353219
 31
0.0
  0
LINE
  5
8C5F
  8
AM_0
 10
218.07822126404881
 20
131.5967259035323
 30
0.0
 11
226.0782912640488
 21
131.5967259035323
 31
0.0
  0
ARC
  5
8C60
  8
AM_0
 10
254.5782912640488
 20
129.5959299035332
 30
0.0
 40
2.00000007
 50
179.99998999999889
 51
270.0
  0
ARC
  5
8C61
  8
AM_0
 10
260.57826126404871
 20
119.1188049035313
 30
0.0
 40
2.00000007
 50
0.0
 51
90.000002999984645
  0
ARC
  5
8C62
  8
AM_0
 10
260.57826126404871
 20
125.59593090353241
 30
0.0
 40
2.00000007
 50
0.0
 51
90.000002999984645
  0
LINE
  5
8C63
  8
AM_0
 10
253.49370126404889
 20
121.1188179035323
 30
0.0
 11
260.57826126404871
 21
121.1188179035323
 31
0.0
  0
LINE
  5
8C64
  8
AM_0
 10
254.5782912640488
 20
127.59594690353239
 30
0.0
 11
260.57826126404871
 21
127.59594690353239
 31
0.0
  0
ARC
  5
8C65
  8
AM_0
 10
254.5782912640488
 20
146.78080590353119
 30
0.0
 40
2.00000007
 50
90.000002999984645
 51
180.00001000000091
  0
ARC
  5
8C66
  8
AM_0
 10
260.57826126404871
 20
150.78080790353221
 30
0.0
 40
2.00000007
 50
270.0
 51
0.0
  0
LINE
  5
8C67
  8
AM_0
 10
254.5782912640488
 20
148.7808069035334
 30
0.0
 11
260.57826126404871
 21
148.7808069035334
 31
0.0
  0
ARC
  5
8C68
  8
AM_0
 10
353.22351126404868
 20
108.4145049035332
 30
0.0
 40
24.832211399999991
 50
169.38168000000101
 51
218.7932100000003
  0
ARC
  5
8C69
  8
AM_0
 10
336.20724126404912
 20
94.736355903533422
 30
0.0
 40
3.0
 50
218.7932199999963
 51
270.0
  0
LINE
  5
8C6A
  8
AM_0
 10
333.15300126404878
 20
136.1210019035334
 30
0.0
 11
328.81653126404888
 21
112.9902189035333
 31
0.0
  0
LINE
  5
8C6B
  8
AM_0
 10
269.57823126404901
 20
175.44670290353329
 30
0.0
 11
304.97454126404949
 21
176.68275390353321
 31
0.0
  0
LINE
  5
8C6C
  8
AM_0
 10
226.07823126404901
 20
157.9467009035333
 30
0.0
 11
248.1653112640488
 21
158.71800390353329
 31
0.0
  0
LINE
  5
8C6D
  8
AM_0
 10
219.07827126404891
 20
157.94673090353331
 30
0.0
 11
226.0782912640488
 21
157.94673090353331
 31
0.0
  0
ARC
  5
8C6E
  8
AM_0
 10
264.57822126404869
 20
173.2709199035323
 30
0.0
 40
2.00000007
 50
91.999997999994264
 51
163.2736499999933
  0
ARC
  5
8C6F
  8
AM_0
 10
257.57826126404871
 20
165.26905890353231
 30
0.0
 40
5.0000000999999967
 50
91.999997999994264
 51
180.00001000000091
  0
ARC
  5
8C70
  8
AM_0
 10
249.57822126404881
 20
161.9640339035324
 30
0.0
 40
3.0
 50
280.00000000000608
 51
0.0
  0
ARC
  5
8C71
  8
AM_0
 10
247.99089126404891
 20
163.71498090353131
 30
0.0
 40
5.0000000999999967
 50
272.00000000000341
 51
280.00000000000608
  0
LINE
  5
8C72
  8
AM_0
 10
248.8590912640488
 20
158.79087990353241
 30
0.0
 11
250.09923126404959
 21
159.00953790353239
 31
0.0
  0
ARC
  5
8C73
  8
AM_0
 10
257.87442126404898
 20
175.2855069035333
 30
0.0
 40
5.0000000999999967
 50
272.00000000000341
 51
343.2736599999991
  0
LINE
  5
8C74
  8
AM_0
 10
257.40372126404878
 20
170.26600590353331
 30
0.0
 11
258.0489312640488
 21
170.2885599035323
 31
0.0
  0
LINE
  5
8C75
  8
AM_0
 10
269.57823126404901
 20
175.44670290353329
 30
0.0
 11
264.50844126404888
 21
175.2696699035323
 31
0.0
  0
LINE
  5
8C76
  8
AM_0
 10
334.578211264049
 20
168.7719279035334
 30
0.0
 11
334.578211264049
 21
207.86613990353331
 31
0.0
  0
LINE
  5
8C77
  8
AM_0
 10
306.99117126404877
 20
177.55964790353229
 30
0.0
 11
334.578211264049
 21
205.14669990353329
 31
0.0
  0
LINE
  5
8C78
  8
AM_0
 10
306.15555126404882
 20
176.72398590353311
 30
0.0
 11
325.50834126404868
 21
159.01780590353329
 31
0.0
  0
LINE
  5
8C79
  8
AM_0
 10
325.50834126404868
 20
159.01780590353329
 30
0.0
 11
325.50834126404868
 21
159.01780590353329
 31
0.0
  0
ARC
  5
8C7A
  8
AM_0
 10
304.86984126404877
 20
179.6809539035323
 30
0.0
 40
3.0
 50
272.00000000000341
 51
315.00000000000921
  0
ARC
  5
8C7B
  8
AM_0
 10
336.57822126404881
 20
207.86613990353331
 30
0.0
 40
2.00000007
 50
91.999997999994264
 51
180.00001000000091
  0
LINE
  5
8C7C
  8
AM_0
 10
344.57826126404882
 20
117.64672890353241
 30
0.0
 11
344.57826126404882
 21
210.1467099035323
 31
0.0
  0
LINE
  5
8C7D
  8
AM_0
 10
338.57826126404871
 20
47.146695903533328
 30
0.0
 11
338.57826126404871
 21
187.81902990353331
 31
0.0
  0
LINE
  5
8C7E
  8
AM_0
 10
348.57822126404892
 20
202.64670990353329
 30
0.0
 11
348.57822126404892
 21
32.646708903533408
 31
0.0
  0
LINE
  5
8C7F
  8
AM_0
 10
344.57826126404882
 20
25.146693903531279
 30
0.0
 11
344.57826126404882
 21
117.64672890353241
 31
0.0
  0
LINE
  5
8C80
  8
AM_0
 10
344.57826126404882
 20
32.646708903533408
 30
0.0
 11
348.57822126404892
 21
32.646708903533408
 31
0.0
  0
LINE
  5
8C82
  8
AM_0
 10
390.57822126404778
 20
134.64674190353219
 30
0.0
 11
390.57822126404778
 21
103.64672790353229
 31
0.0
  0
LINE
  5
8C83
  8
AM_0
 10
348.57822126404892
 20
103.64672790353229
 30
0.0
 11
390.57822126404778
 21
103.64672790353229
 31
0.0
  0
LINE
  5
8C84
  8
AM_0
 10
358.578211264049
 20
134.64674190353219
 30
0.0
 11
390.57822126404778
 21
134.64674190353219
 31
0.0
  0
LINE
  5
8C85
  8
AM_0
 10
348.57822126404892
 20
131.64674190353219
 30
0.0
 11
390.57822126404778
 21
131.64674190353219
 31
0.0
  0
LINE
  5
8C86
  8
AM_0
 10
358.578211264049
 20
134.64674190353219
 30
0.0
 11
358.578211264049
 21
131.64674190353219
 31
0.0
  0
LINE
  5
8C8A
  8
AM_0
 10
344.57826126404882
 20
202.64670990353329
 30
0.0
 11
348.57822126404892
 21
202.64670990353329
 31
0.0
  0
CIRCLE
  5
8C8B
  8
AM_0
 10
564.14744522069157
 20
117.64672890353241
 30
0.0
 40
85.000001999999981
  0
ARC
  5
8C8C
  8
AM_0
 10
564.14744522069157
 20
94.446729903533424
 30
0.0
 40
81.000003000000035
 50
24.588775000004379
 51
54.525829999993682
  0
CIRCLE
  5
8C8D
  8
AM_0
 10
564.14744522069157
 20
117.64672890353241
 30
0.0
 40
80.000000999999983
  0
ARC
  5
8C8E
  8
AM_0
 10
564.14744522069157
 20
117.64672890353241
 30
0.0
 40
39.000011999999998
 50
53.213208000005267
 51
126.78678999999759
  0
ARC
  5
8C8F
  8
AM_0
 10
564.14744522069157
 20
94.446729903533424
 30
0.0
 40
81.000003000000035
 50
125.4741700000063
 51
155.41123000000221
  0
LINE
  5
8C90
  8
AM_0
 10
591.41999822069124
 20
149.16191190353331
 30
0.0
 11
616.30778522069124
 21
174.04969890353229
 31
0.0
  0
LINE
  5
8C91
  8
AM_0
 10
595.66264322069151
 20
144.9192669035323
 30
0.0
 11
620.55043322069116
 21
169.80705390353339
 31
0.0
  0
LINE
  5
8C92
  8
ﾁｭｳｼﾝｾﾝ
 10
564.14744522069157
 20
8.1119799035323013
 30
0.0
 11
564.14744522069157
 21
213.10056145035921
 31
0.0
  0
LINE
  5
8C93
  8
AM_0
 10
532.63223222069041
 20
144.9192669035323
 30
0.0
 11
507.74444522069172
 21
169.80705390353339
 31
0.0
  0
LINE
  5
8C94
  8
AM_0
 10
536.87487722069204
 20
149.16191190353331
 30
0.0
 11
511.98709022069153
 21
174.04969890353229
 31
0.0
  0
LINE
  5
8C95
  8
AM_0
 10
656.64743222069137
 20
147.64671390353229
 30
0.0
 11
654.24190922069033
 21
193.5467799035323
 31
0.0
  0
LINE
  5
8C96
  8
AM_0
 10
471.64744322069117
 20
147.64671390353229
 30
0.0
 11
474.05296022069138
 21
193.54680990353239
 31
0.0
  0
ARC
  5
8C97
  8
AM_0
 10
564.14744522069157
 20
94.446729903533424
 30
0.0
 40
81.000003000000035
 50
270.0
 51
291.36620000000931
  0
CIRCLE
  5
8C98
  8
AM_0
 10
564.14744522069157
 20
117.64672890353241
 30
0.0
 40
29.000001000000001
  0
ARC
  5
8C99
  8
AM_0
 10
564.14744522069157
 20
117.64672890353241
 30
0.0
 40
14.000001299999999
 50
106.601539999997
 51
73.398451999991579
  0
LINE
  5
8C9A
  8
ﾁｭｳｼﾝｾﾝ
 10
468.2879469604448
 20
117.64672890353241
 30
0.0
 11
660.00694348093805
 21
117.64672890353241
 31
0.0
  0
LINE
  5
8C9B
  8
AM_0
 10
564.14744522069157
 20
25.146708903532492
 30
0.0
 11
594.14744522069145
 21
25.146708903532492
 31
0.0
  0
LINE
  5
8C9C
  8
AM_0
 10
471.64741322069142
 20
87.646695903531267
 30
0.0
 11
474.05296022069138
 21
41.746638903532357
 31
0.0
  0
LINE
  5
8C9D
  8
AM_0
 10
534.14744522069145
 20
25.146693903531279
 30
0.0
 11
488.2473582206913
 21
27.552210903532341
 31
0.0
  0
ARC
  5
8C9E
  8
AM_0
 10
489.03239222069129
 20
42.531672903532353
 30
0.0
 40
15.000000299999989
 50
183.00000999999281
 51
266.9999999999946
  0
ARC
  5
8C9F
  8
AM_0
 10
489.03239222069129
 20
42.531672903532353
 30
0.0
 40
15.000000299999989
 50
183.00000999999281
 51
266.9999999999946
  0
CIRCLE
  5
8CA0
  8
AM_0
 10
488.13343622069129
 20
41.632731903533347
 30
0.0
 40
6.0000002999999991
  0
ARC
  5
8CA3
  8
AM_0
 10
522.39742922069127
 20
22.133586903532422
 30
0.0
 40
8.0000000999999976
 50
156.73874000000049
 51
323.26126999999951
  0
ARC
  5
8CA4
  8
AM_0
 10
564.14744522069157
 20
94.446729903533424
 30
0.0
 40
81.000003000000035
 50
248.6337999999908
 51
270.0
  0
ARC
  5
8CA5
  8
AM_0
 10
532.81526222069135
 20
14.357418903532331
 30
0.0
 40
5.0000000999999967
 50
68.633798000012135
 51
143.2612599999932
  0
LINE
  5
8CA6
  8
AM_0
 10
564.14744522069157
 20
25.146708903532492
 30
0.0
 11
534.14743022069115
 21
25.146708903532492
 31
0.0
  0
LINE
  5
8CA7
  8
AM_0
 10
489.28246922069212
 20
89.446713903532313
 30
0.0
 11
520.1474142206913
 21
89.446713903532313
 31
0.0
  0
ARC
  5
8CA8
  8
AM_0
 10
564.14744522069157
 20
94.446729903533424
 30
0.0
 40
76.000001999999981
 50
167.23979999999921
 51
181.3935400000023
  0
LINE
  5
8CA9
  8
AM_0
 10
471.64741322069142
 20
87.646695903537164
 30
0.0
 11
471.64741322069142
 21
147.64671390353229
 31
0.0
  0
LINE
  5
8CAA
  8
AM_0
 10
525.14739722069135
 20
117.64672890353241
 30
0.0
 11
525.14739722069135
 21
94.446729903533424
 31
0.0
  0
ARC
  5
8CAB
  8
AM_0
 10
520.1474142206913
 20
94.446729903533424
 30
0.0
 40
5.0000000999999967
 50
270.0
 51
0.0
  0
ARC
  5
8CAC
  8
AM_0
 10
564.14744522069157
 20
117.64672890353241
 30
0.0
 40
39.000011999999998
 50
143.21321000000231
 51
180.00001000000091
  0
ARC
  5
8CAD
  8
AM_0
 10
530.51090822069136
 20
142.79795790353131
 30
0.0
 40
3.0
 50
323.21321000000228
 51
45.000000999994569
  0
ARC
  5
8CAE
  8
AM_0
 10
538.99616822069152
 20
151.2832479035323
 30
0.0
 40
3.0
 50
224.99999999999079
 51
306.78678999999761
  0
LINE
  5
8CAF
  8
AM_0
 10
560.14743122069115
 20
127.64672790353229
 30
0.0
 11
560.14743122069115
 21
134.64674190353219
 31
0.0
  0
LINE
  5
8CB0
  8
AM_0
 10
568.14742922069149
 20
127.64672790353229
 30
0.0
 11
568.14742922069149
 21
134.64674190353219
 31
0.0
  0
CIRCLE
  5
8CB1
  8
AM_5
 10
564.14744522069157
 20
117.64672890353241
 30
0.0
 40
4.000000199999997
  0
LINE
  5
8CB2
  8
AM_0
 10
560.14743122069115
 20
127.64672790353229
 30
0.0
 11
568.14742922069149
 21
127.64672790353229
 31
0.0
  0
CIRCLE
  5
8CB3
  8
AM_0
 10
564.14744522069157
 20
117.64672890353241
 30
0.0
 40
3.0
  0
POINT
  5
8CB4
  8
AM_0
 10
564.14744522069157
 20
117.64672890353241
 30
0.0
  0
LINE
  5
8CB5
  8
AM_0
 10
560.14743122069115
 20
134.64674190353219
 30
0.0
 11
568.14742922069149
 21
134.64674190353219
 31
0.0
  0
LINE
  5
8CB6
  8
AM_0
 10
656.64743222069137
 20
87.646725903533266
 30
0.0
 11
654.24191522069157
 21
41.74662390353248
 31
0.0
  0
CIRCLE
  5
8CB8
  8
AM_0
 10
640.16140922069019
 20
41.632731903533347
 30
0.0
 40
6.0000002999999991
  0
ARC
  5
8CB9
  8
AM_0
 10
639.26246222069153
 20
42.531672903532353
 30
0.0
 40
15.000000299999989
 50
273.0000000000054
 51
356.9999999999938
  0
ARC
  5
8CBA
  8
AM_0
 10
639.26246222069153
 20
42.531672903532353
 30
0.0
 40
15.000000299999989
 50
273.0000000000054
 51
356.9999999999938
  0
ARC
  5
8CBC
  8
AM_0
 10
605.89741622069187
 20
22.133586903532422
 30
0.0
 40
8.0000000999999976
 50
216.73874000000669
 51
23.261258000000769
  0
ARC
  5
8CBD
  8
AM_0
 10
595.47960122069117
 20
14.357418903532331
 30
0.0
 40
5.0000000999999967
 50
36.738736999993421
 51
111.3662099999938
  0
LINE
  5
8CBE
  8
AM_0
 10
594.14741522069119
 20
25.146708903532492
 30
0.0
 11
640.04750222069117
 21
27.552225903533319
 31
0.0
  0
ARC
  5
8CBF
  8
AM_0
 10
564.14744522069157
 20
94.446729903533424
 30
0.0
 40
76.000001999999981
 50
358.60644999999602
 51
12.76020199999623
  0
LINE
  5
8CC0
  8
AM_0
 10
603.14744822069133
 20
117.64672890353241
 30
0.0
 11
603.14744822069133
 21
94.446729903533424
 31
0.0
  0
LINE
  5
8CC1
  8
AM_0
 10
639.01237622069152
 20
89.446713903532313
 30
0.0
 11
608.14744622069134
 21
89.446713903532313
 31
0.0
  0
ARC
  5
8CC2
  8
AM_0
 10
608.14744622069134
 20
94.446729903533424
 30
0.0
 40
5.0000000999999967
 50
179.99998999999889
 51
270.0
  0
ARC
  5
8CC3
  8
AM_0
 10
564.14744522069157
 20
117.64672890353241
 30
0.0
 40
39.000011999999998
 50
0.0
 51
36.786790999988384
  0
ARC
  5
8CC4
  8
AM_0
 10
589.29869222069124
 20
151.2832479035323
 30
0.0
 40
3.0
 50
233.21321000000231
 51
315.00000000000921
  0
ARC
  5
8CC5
  8
AM_0
 10
597.78396722069124
 20
142.79795790353131
 30
0.0
 40
3.0
 50
135.00000000000921
 51
216.78678999999761
  0
ARC
  5
8CC6
  8
AM_0
 10
564.14744522069157
 20
117.64672890353241
 30
0.0
 40
74.400002999999998
 50
355.0545799999968
 51
8.116549400005665
  0
LINE
  5
8CC7
  8
AM_0
 10
656.64743222069137
 20
117.64672890353241
 30
0.0
 11
656.64743222069137
 21
87.646725903533266
 31
0.0
  0
LINE
  5
8CC8
  8
AM_0
 10
656.64743222069137
 20
117.64672890353241
 30
0.0
 11
656.64743222069137
 21
147.64671390353229
 31
0.0
  0
ARC
  5
8CC9
  8
AM_0
 10
564.14744522069157
 20
94.446729903533424
 30
0.0
 40
81.000003000000035
 50
58.8609450000028
 51
86.245802999997153
  0
LINE
  5
8CCA
  8
AM_0
 10
564.14744522069157
 20
210.1467099035323
 30
0.0
 11
594.14744522069145
 21
210.1467099035323
 31
0.0
  0
LINE
  5
8CCB
  8
AM_0
 10
534.14741522069016
 20
210.1467099035323
 30
0.0
 11
488.24734322069122
 21
207.74115990353241
 31
0.0
  0
ARC
  5
8CCC
  8
AM_0
 10
489.03239222069129
 20
192.76176990353241
 30
0.0
 40
15.000000299999989
 50
92.999998999995157
 51
176.9999900000071
  0
CIRCLE
  5
8CCE
  8
AM_0
 10
488.13343622069129
 20
193.6606899035323
 30
0.0
 40
6.0000002999999991
  0
ARC
  5
8CCF
  8
AM_0
 10
489.03239222069129
 20
192.76176990353241
 30
0.0
 40
15.000000299999989
 50
92.999998999995157
 51
176.9999900000071
  0
ARC
  5
8CD1
  8
AM_0
 10
505.6231212206913
 20
167.6857449035312
 30
0.0
 40
3.0
 50
45.000000999994569
 51
139.4691400000068
  0
ARC
  5
8CD2
  8
AM_0
 10
514.1083812206914
 20
176.17103790353229
 30
0.0
 40
3.0
 50
130.5308600000115
 51
224.99999999999079
  0
ARC
  5
8CD3
  8
AM_0
 10
558.64743122069115
 20
178.2664659035313
 30
0.0
 40
3.0
 50
273.75419999998962
 51
0.0
  0
ARC
  5
8CD4
  8
AM_0
 10
558.64743122069115
 20
188.83455990353241
 30
0.0
 40
3.0
 50
0.0
 51
94.417918999990405
  0
ARC
  5
8CD5
  8
AM_0
 10
564.14745869406806
 20
94.446717903532317
 30
0.0
 40
81.000003000000035
 50
93.754194999994354
 51
121.13906545408931
  0
LINE
  5
8CD6
  8
AM_0
 10
561.64743122069115
 20
178.2664659035313
 30
0.0
 11
561.64743122069115
 21
188.83455990353241
 31
0.0
  0
LINE
  5
8CD7
  8
AM_0
 10
566.64744422069145
 20
178.2664659035313
 30
0.0
 11
566.64744422069145
 21
188.83455990353241
 31
0.0
  0
ARC
  5
8CD8
  8
AM_0
 10
569.64744722069122
 20
178.2664659035313
 30
0.0
 40
3.0
 50
180.00001000000091
 51
266.24580000001032
  0
ARC
  5
8CD9
  8
AM_0
 10
569.64744722069122
 20
188.83455990353241
 30
0.0
 40
3.0
 50
85.582086000015536
 51
180.00001000000091
  0
LINE
  5
8CDA
  8
AM_0
 10
564.14744522069157
 20
210.1467099035323
 30
0.0
 11
534.14743022069115
 21
210.1467099035323
 31
0.0
  0
CIRCLE
  5
8CDC
  8
AM_0
 10
640.16140922069019
 20
193.6606899035323
 30
0.0
 40
6.0000002999999991
  0
ARC
  5
8CDD
  8
ﾁｭｳｼﾝｾﾝ
 10
564.14744522069452
 20
117.6467289035354
 30
0.0
 40
107.5000109999969
 50
38.600865192740521
 51
51.399132546000338
  0
ARC
  5
8CDE
  8
AM_0
 10
639.26246222069153
 20
192.76176990353241
 30
0.0
 40
15.000000299999989
 50
3.0000000999981662
 51
86.999998999983646
  0
ARC
  5
8CDF
  8
AM_0
 10
639.26246222069153
 20
192.76176990353241
 30
0.0
 40
15.000000299999989
 50
3.0000000999981662
 51
86.999998999983646
  0
LINE
  5
8CE0
  8
ﾁｭｳｼﾝｾﾝ
 10
631.67612560285556
 20
185.17541077289039
 30
0.0
 11
648.64670163790493
 21
202.1459602347804
 31
0.0
  0
ARC
  5
8CE1
  8
AM_0
 10
614.18646422069116
 20
176.17103790353229
 30
0.0
 40
3.0
 50
315.00000000000921
 51
49.469136999994006
  0
ARC
  5
8CE2
  8
AM_0
 10
622.6717482206916
 20
167.6857449035312
 30
0.0
 40
3.0
 50
40.530865000005093
 51
135.00000000000921
  0
LINE
  5
8CE3
  8
AM_0
 10
594.14743022068978
 20
210.1467099035323
 30
0.0
 11
640.04751122069149
 21
207.7411899035323
 31
0.0
  0
LINE
  5
8CE5
  8
AM_0
 10
218.07828126404911
 20
156.9467439035333
 30
0.0
 11
218.07828126404911
 21
31.946727903533422
 31
0.0
  0
LINE
  5
8CE6
  8
AM_0
 10
21.078331264048749
 20
62.76675390353239
 30
0.0
 11
21.078331264048749
 21
128.97672990353331
 31
0.0
  0
LINE
  5
8CE7
  8
AM_0
 10
23.57829126404885
 20
37.446744903531219
 30
0.0
 11
23.57829126404885
 21
54.278399086103271
 31
0.0
  0
LINE
  5
8CE8
  8
AM_0
 10
71.07828126404911
 20
151.87671390353231
 30
0.0
 11
71.07828126404911
 21
94.446729903533424
 31
0.0
  0
LINE
  5
8CE9
  8
AM_0
 10
207.8483112640487
 20
124.44673290353219
 30
0.0
 11
207.8483112640487
 21
64.446744903532363
 31
0.0
  0
LINE
  5
8CEA
  8
ﾁｭｳｼﾝｾﾝ
 10
167.07828126404911
 20
135.0717294035334
 30
0.0
 11
167.07828126404911
 21
53.821730403533358
 31
0.0
  0
ARC
  5
8CEB
  8
AM_0
 10
54.079021264049061
 20
94.444839903532525
 30
0.0
 40
8.0019083999999978
 50
90.005172999990876
 51
161.7801600000048
  0
ARC
  5
8CEC
  8
AM_0
 10
54.073261264049037
 20
94.440750903533413
 30
0.0
 40
7.9940046000000002
 50
198.17884000000481
 51
270.03581999999773
  0
LINE
  5
8CED
  8
AM_0
 10
23.57829126404885
 20
50.556744903532497
 30
0.0
 11
71.078281264047746
 21
50.556744903532497
 31
0.0
  0
LINE
  5
8CEE
  8
AM_0
 10
38.718301264048932
 20
96.946731903533404
 30
0.0
 11
48.57828126404911
 21
96.946731903533404
 31
0.0
  0
LINE
  5
8CEF
  8
AM_0
 10
38.718301264048932
 20
91.946730903532369
 30
0.0
 11
48.57828126404911
 21
91.946730903532369
 31
0.0
  0
LINE
  5
8CF0
  8
AM_0
 10
23.07828126404911
 20
37.446744903531219
 30
0.0
 11
71.07828126404911
 21
37.446744903531219
 31
0.0
  0
LINE
  5
8CF1
  8
AM_0
 10
30.15828126404903
 20
90.726729903533396
 30
0.0
 11
15.698281264048999
 21
46.21673490353237
 31
0.0
  0
LINE
  5
8CF2
  8
AM_0
 10
34.918291264049003
 20
89.176740903531226
 30
0.0
 11
20.45829126404896
 21
44.676738903532382
 31
0.0
  0
ARC
  5
8CF3
  8
AM_0
 10
18.078331264048739
 20
45.446730903532391
 30
0.0
 40
2.5014680099999991
 50
162.0720800000052
 51
342.07206999999983
  0
ARC
  5
8CF4
  8
AM_0
 10
18.077431264048752
 20
45.441312903533337
 30
0.0
 40
3.0008441999999982
 50
185.05818999999411
 51
0.1035440000078684
  0
LINE
  5
8CF5
  8
AM_0
 10
21.078331264048749
 20
46.586742903533377
 30
0.0
 11
21.078331264048749
 21
39.446727903532512
 31
0.0
  0
ARC
  5
8CF6
  8
AM_0
 10
23.07303126404895
 20
39.441450903532321
 30
0.0
 40
1.994720039999998
 50
179.84812999999991
 51
270.15187999998409
  0
LINE
  5
8CF7
  8
AM_0
 10
23.57829126404885
 20
54.286740903533428
 30
0.0
 11
23.57829126404885
 21
50.556744903532497
 31
0.0
  0
ARC
  5
8CF8
  8
AM_0
 10
14.78592126404874
 20
45.142407903532323
 30
0.0
 40
0.304344
 50
6.47775910000429
 51
89.547816999989394
  0
ARC
  5
8CF9
  8
AM_0
 10
14.786701264049039
 20
45.141660903532497
 30
0.0
 40
0.8050760400000001
 50
5.3506318999939149
 51
89.888465999985428
  0
LINE
  5
8CFA
  8
AM_0
 10
14.57829126404885
 20
45.946743903533381
 30
0.0
 11
14.57829126404885
 21
45.446730903532391
 31
0.0
  0
LINE
  5
8CFB
  8
AM_0
 10
14.57829126404885
 20
45.946743903533381
 30
0.0
 11
14.78829126404889
 21
45.946743903533381
 31
0.0
  0
ARC
  5
8CFC
  8
AM_0
 10
21.12636126404913
 20
56.94685290353231
 30
0.0
 40
4.0504481999999991
 50
99.063520000000551
 51
224.92059999999211
  0
ARC
  5
8CFD
  8
AM_0
 10
38.720731264048929
 20
87.943221903533384
 30
0.0
 40
9.0035201999999952
 50
90.015528000017568
 51
161.99145000000701
  0
ARC
  5
8CFE
  8
AM_0
 10
38.72487126404895
 20
87.946212903532356
 30
0.0
 40
4.0005161999999981
 50
90.094088000021216
 51
162.0860700000022
  0
LINE
  5
8CFF
  8
AM_0
 10
116.0782812640491
 20
48.09675390353231
 30
0.0
 11
218.07828126404911
 21
48.09675390353231
 31
0.0
  0
LINE
  5
8D00
  8
AM_0
 10
211.42833126404909
 20
58.446744903532363
 30
0.0
 11
76.628341264049141
 21
58.446744903532363
 31
0.0
  0
LINE
  5
8D01
  8
AM_0
 10
94.078291264048843
 20
32.58672990353125
 30
0.0
 11
210.8882712640488
 21
32.58672990353125
 31
0.0
  0
LINE
  5
8D02
  8
AM_0
 10
167.07828126404911
 20
57.726744903532321
 30
0.0
 11
214.89828126404879
 21
57.726744903532321
 31
0.0
  0
LINE
  5
8D03
  8
AM_0
 10
116.0782812640491
 20
48.096738903533357
 30
0.0
 11
81.078271264048894
 21
50.12673690353131
 31
0.0
  0
LINE
  5
8D04
  8
AM_0
 10
75.348301264049041
 20
88.176711903532365
 30
0.0
 11
116.0782812640491
 21
88.176711903532365
 31
0.0
  0
LINE
  5
8D05
  8
AM_0
 10
115.5782812640491
 20
68.446743903533388
 30
0.0
 11
76.628341264049141
 21
68.446743903533388
 31
0.0
  0
LINE
  5
8D06
  8
AM_0
 10
75.538291264048908
 20
70.886748903532407
 30
0.0
 11
115.5782812640491
 21
70.886748903532407
 31
0.0
  0
LINE
  5
8D07
  8
AM_0
 10
115.5782812640491
 20
70.446744903532363
 30
0.0
 11
76.628341264049141
 21
70.446744903531211
 31
0.0
  0
LINE
  5
8D08
  8
AM_0
 10
75.408301264048987
 20
78.106734903533365
 30
0.0
 11
116.0782812640491
 21
78.106734903533365
 31
0.0
  0
LINE
  5
8D09
  8
AM_0
 10
116.0782812640491
 20
78.446730903532369
 30
0.0
 11
76.638271264048839
 21
78.446730903532369
 31
0.0
  0
LINE
  5
8D0A
  8
AM_0
 10
75.408301264048987
 20
80.766753903533285
 30
0.0
 11
116.0782812640491
 21
80.766753903533285
 31
0.0
  0
LINE
  5
8D0B
  8
AM_0
 10
116.0782812640491
 20
90.446730903532426
 30
0.0
 11
76.638271264048839
 21
90.446730903532426
 31
0.0
  0
LINE
  5
8D0C
  8
AM_0
 10
116.0782812640491
 20
88.446729903531363
 30
0.0
 11
76.638271264048839
 21
88.446729903531363
 31
0.0
  0
LINE
  5
8D0D
  8
AM_0
 10
75.348301264049041
 20
90.716748903531425
 30
0.0
 11
116.0782812640491
 21
90.716748903531425
 31
0.0
  0
LINE
  5
8D0E
  8
AM_0
 10
75.348301264049041
 20
98.18672190353233
 30
0.0
 11
116.0782812640491
 21
98.18672190353233
 31
0.0
  0
LINE
  5
8D0F
  8
AM_0
 10
75.348301264049041
 20
100.7167209035324
 30
0.0
 11
116.0782812640491
 21
100.7167209035324
 31
0.0
  0
LINE
  5
8D10
  8
AM_0
 10
116.0782812640491
 20
60.446730903533293
 30
0.0
 11
77.068321264048777
 21
60.446730903533293
 31
0.0
  0
LINE
  5
8D11
  8
AM_0
 10
75.538291264048908
 20
67.96673490353237
 30
0.0
 11
115.5782812640491
 21
67.96673490353237
 31
0.0
  0
LINE
  5
8D12
  8
AM_0
 10
94.078291264048843
 20
30.556728903532299
 30
0.0
 11
147.0783312640487
 21
30.556728903532299
 31
0.0
  0
LINE
  5
8D13
  8
AM_0
 10
94.078291264048843
 20
29.206737903533391
 30
0.0
 11
147.0783312640487
 21
29.206737903533391
 31
0.0
  0
LINE
  5
8D14
  8
AM_0
 10
94.078291264048843
 20
28.536741903531261
 30
0.0
 11
147.0783312640487
 21
28.536741903531261
 31
0.0
  0
LINE
  5
8D15
  8
AM_0
 10
116.0782812640491
 20
98.446731903533419
 30
0.0
 11
76.638271264048839
 21
98.446731903533419
 31
0.0
  0
LINE
  5
8D16
  8
AM_0
 10
116.0782812640491
 20
100.4467299035334
 30
0.0
 11
76.638271264048839
 21
100.4467299035334
 31
0.0
  0
LINE
  5
8D17
  8
AM_0
 10
116.0782812640491
 20
80.446746903532343
 30
0.0
 11
76.638271264048839
 21
80.446746903532343
 31
0.0
  0
LINE
  5
8D18
  8
AM_0
 10
75.758281264048932
 20
57.726744903532321
 30
0.0
 11
167.07828126404911
 21
57.726744903532321
 31
0.0
  0
LINE
  5
8D19
  8
AM_0
 10
75.758281264048932
 20
61.076733903531249
 30
0.0
 11
116.0782812640491
 21
61.076733903531249
 31
0.0
  0
LINE
  5
8D1A
  8
AM_0
 10
71.07828126404911
 20
37.016736903532312
 30
0.0
 11
71.07828126404911
 21
94.446729903533424
 31
0.0
  0
LINE
  5
8D1B
  8
AM_0
 10
71.07828126404911
 20
51.756726903532353
 30
0.0
 11
81.078331264048757
 21
51.756726903532353
 31
0.0
  0
LINE
  5
8D1C
  8
AM_0
 10
77.218291264048744
 20
32.776731903532429
 30
0.0
 11
90.578281264049124
 21
32.776731903532429
 31
0.0
  0
LINE
  5
8D1D
  8
AM_0
 10
71.07828126404911
 20
46.096737903532357
 30
0.0
 11
81.078331264048757
 21
46.096737903532357
 31
0.0
  0
LINE
  5
8D1E
  8
AM_0
 10
77.308321264049013
 20
41.466732903531231
 30
0.0
 11
90.578281264049124
 21
41.466732903531231
 31
0.0
  0
LINE
  5
8D1F
  8
AM_0
 10
77.188261264048819
 20
31.146741903532298
 30
0.0
 11
90.688261264048833
 21
31.146741903532298
 31
0.0
  0
LINE
  5
8D20
  8
AM_0
 10
77.248321264049096
 20
36.186750903531447
 30
0.0
 11
90.578281264049124
 21
36.186750903531447
 31
0.0
  0
ARC
  5
8D21
  8
AM_0
 10
72.868441264049125
 20
41.913936903532431
 30
0.0
 40
1.50278811
 50
12.013342000000099
 51
90.004668000016366
  0
ARC
  5
8D22
  8
AM_0
 10
77.305321264048857
 20
43.46635290353241
 30
0.0
 40
1.9996281299999981
 50
190.36075999999741
 51
270.08532999998027
  0
ARC
  5
8D23
  8
AM_0
 10
77.190691264046563
 20
33.151059903532307
 30
0.0
 40
2.004324029999998
 50
194.2780500000037
 51
269.93108999997929
  0
LINE
  5
8D24
  8
AM_0
 10
71.078341264048944
 20
37.016736903532312
 30
0.0
 11
73.898281264048819
 21
36.94672890353241
 31
0.0
  0
ARC
  5
8D25
  8
AM_0
 10
72.913291264048908
 20
35.824977903532499
 30
0.0
 40
1.5017800800000001
 50
14.332836000000739
 51
90.189383000005648
  0
ARC
  5
8D26
  8
AM_0
 10
72.892621264049012
 20
37.850415903532401
 30
0.0
 40
1.4963320799999991
 50
13.382437999997689
 51
90.164589999994277
  0
ARC
  5
8D27
  8
AM_0
 10
77.216221264048713
 20
34.778682903532399
 30
0.0
 40
2.0019479399999991
 50
193.3411400000015
 51
270.05947999999449
  0
ARC
  5
8D28
  8
AM_0
 10
77.250211264049085
 20
38.182431903532468
 30
0.0
 40
1.995695999999995
 50
192.0225299999999
 51
269.94477999998969
  0
LINE
  5
8D29
  8
AM_0
 10
75.298321264048809
 20
37.766721903532464
 30
0.0
 11
74.338291264049062
 21
42.226728903532361
 31
0.0
  0
LINE
  5
8D2A
  8
AM_0
 10
72.888271264048839
 20
39.34673790353235
 30
0.0
 11
74.94834126404885
 21
39.34673790353235
 31
0.0
  0
LINE
  5
8D2B
  8
AM_0
 10
72.908311264048734
 20
37.326732903533411
 30
0.0
 11
74.558311264048811
 21
37.326732903533411
 31
0.0
  0
LINE
  5
8D2C
  8
AM_0
 10
75.268291264048912
 20
34.316724903532297
 30
0.0
 11
74.348311264048789
 21
38.196729903533416
 31
0.0
  0
LINE
  5
8D2D
  8
AM_0
 10
75.248251264049017
 20
32.656734903532417
 30
0.0
 11
74.368261264049579
 21
36.196728903531259
 31
0.0
  0
LINE
  5
8D2E
  8
AM_0
 10
66.078331264048757
 20
50.556744903532497
 30
0.0
 11
66.078331264048757
 21
37.446744903531219
 31
0.0
  0
LINE
  5
8D2F
  8
AM_0
 10
72.868261264049579
 20
43.416729903532307
 30
0.0
 11
75.288301264049096
 21
43.416729903532307
 31
0.0
  0
LINE
  5
8D30
  8
AM_0
 10
74.798311264049062
 20
46.096722903533419
 30
0.0
 11
75.338281264048859
 21
43.106718903532489
 31
0.0
  0
LINE
  5
8D31
  8
AM_0
 10
71.07828126404911
 20
60.146742903531269
 30
0.0
 11
74.248321264049096
 21
60.146742903531269
 31
0.0
  0
ARC
  5
8D32
  8
AM_0
 10
75.758281264048932
 20
59.401746903533422
 30
0.0
 40
1.67500812
 50
90.000002999984645
 51
270.0
  0
ARC
  5
8D33
  8
AM_0
 10
76.628341264049141
 20
59.446743903532479
 30
0.0
 40
1.000004069999999
 50
90.000002999984645
 51
270.0
  0
ARC
  5
8D34
  8
AM_0
 10
90.579751264048824
 20
31.27816590353245
 30
0.0
 40
1.498559999999999
 50
359.94487999999399
 51
90.055115000003084
  0
ARC
  5
8D35
  8
AM_0
 10
94.080841264048985
 20
32.559246903532312
 30
0.0
 40
2.00251584
 50
180.0718999999998
 51
269.9281000000002
  0
ARC
  5
8D36
  8
AM_0
 10
90.696991264048833
 20
29.646450903532472
 30
0.0
 40
1.500312029999999
 50
14.683033999993
 51
90.331662999981447
  0
ARC
  5
8D37
  8
AM_0
 10
94.079431264048708
 20
30.53315490353247
 30
0.0
 40
1.9964280599999991
 50
194.69463000000229
 51
269.96760999999151
  0
ARC
  5
8D38
  8
AM_0
 10
94.078111264048843
 20
31.20655590353249
 30
0.0
 40
1.9998241199999991
 50
179.99493999999211
 51
270.00505999999473
  0
ARC
  5
8D39
  8
AM_0
 10
90.576751264049136
 20
34.685238903532301
 30
0.0
 40
1.5015081599999991
 50
0.0575469979997975
 51
89.94245100000316
  0
ARC
  5
8D3A
  8
AM_0
 10
90.577921264049564
 20
39.966366903532389
 30
0.0
 40
1.500360179999999
 50
0.0138159999949371
 51
89.986184999986932
  0
ARC
  5
8D3B
  8
AM_0
 10
94.079941264048983
 20
34.588377903532319
 30
0.0
 40
2.0016401400000001
 50
180.04696000000459
 51
269.9530400000213
  0
LINE
  5
8D3C
  8
AM_0
 10
92.078281264049068
 20
32.55674490353249
 30
0.0
 11
92.078281264049068
 21
39.966732903531252
 31
0.0
  0
ARC
  5
8D3D
  8
AM_0
 10
80.248501264049096
 20
52.853847903531232
 30
0.0
 40
5.0021840999999991
 50
5.424525999996443
 51
80.451425000001095
  0
LINE
  5
8D3E
  8
AM_0
 10
81.078331264048757
 20
46.096737903532357
 30
0.0
 11
81.078331264048757
 21
60.146742903531269
 31
0.0
  0
ARC
  5
8D3F
  8
AM_0
 10
80.708521264049054
 20
56.793255903532327
 30
0.0
 40
6.007896599999996
 50
273.5284499999849
 51
314.61726999999422
  0
ARC
  5
8D40
  8
AM_0
 10
84.224821264048856
 20
53.237820903531428
 30
0.0
 40
1.007376
 50
314.2903200000024
 51
5.0634048999984609
  0
ARC
  5
8D41
  8
AM_0
 10
93.078331264048785
 20
59.446743903532479
 30
0.0
 40
1.000004069999999
 50
90.000002999984645
 51
270.0
  0
LINE
  5
8D42
  8
ﾁｭｳｼﾝｾﾝ
 10
54.078331264048757
 20
80.731732403533442
 30
0.0
 11
54.078331264048757
 21
108.1617274035334
 31
0.0
  0
ARC
  5
8D43
  8
AM_0
 10
76.628341264049141
 20
69.446730903533293
 30
0.0
 40
1.000004069999999
 50
90.000002999984645
 51
270.0
  0
ARC
  5
8D44
  8
AM_0
 10
75.538291264048908
 20
69.426726903532426
 30
0.0
 40
1.4600000699999991
 50
90.000002999984645
 51
270.0
  0
ARC
  5
8D45
  8
AM_0
 10
76.629601264048674
 20
79.446744903531211
 30
0.0
 40
1.00003602
 50
89.500715999993631
 51
270.49928999999503
  0
ARC
  5
8D46
  8
AM_0
 10
75.408301264048987
 20
79.436736903531241
 30
0.0
 40
1.33000008
 50
90.000002999984645
 51
270.0
  0
LINE
  5
8D47
  8
AM_0
 10
54.078331264048757
 20
86.446731903532495
 30
0.0
 11
71.07828126404911
 21
86.446731903532495
 31
0.0
  0
LINE
  5
8D48
  8
AM_0
 10
54.078331264048757
 20
102.4467309035324
 30
0.0
 11
71.07828126404911
 21
102.4467309035324
 31
0.0
  0
ARC
  5
8D49
  8
AM_0
 10
54.078331264048757
 20
94.440717903533397
 30
0.0
 40
5.0000519999999984
 50
23.65323000000534
 51
156.34676999999459
  0
ARC
  5
8D4A
  8
AM_0
 10
54.078331264048757
 20
94.440717903533397
 30
0.0
 40
4.9952319000000003
 50
203.52670000000049
 51
336.47329000000877
  0
LINE
  5
8D4B
  8
AM_0
 10
48.57828126404911
 20
96.44673090353244
 30
0.0
 11
59.57829126404885
 21
96.44673090353244
 31
0.0
  0
LINE
  5
8D4C
  8
AM_0
 10
48.57828126404911
 20
92.446731903533419
 30
0.0
 11
59.57829126404885
 21
92.446731903533419
 31
0.0
  0
LINE
  5
8D4D
  8
AM_0
 10
48.57828126404911
 20
91.946730903532369
 30
0.0
 11
48.57828126404911
 21
96.946731903533404
 31
0.0
  0
LINE
  5
8D4E
  8
AM_0
 10
62.07828126404911
 20
91.946730903532369
 30
0.0
 11
62.07828126404911
 21
96.946731903533404
 31
0.0
  0
LINE
  5
8D4F
  8
AM_0
 10
59.57829126404885
 20
91.946730903532369
 30
0.0
 11
59.57829126404885
 21
96.946731903533404
 31
0.0
  0
LINE
  5
8D50
  8
AM_0
 10
59.57829126404885
 20
96.946731903533404
 30
0.0
 11
62.07828126404911
 21
96.946731903533404
 31
0.0
  0
LINE
  5
8D51
  8
AM_0
 10
59.57829126404885
 20
91.946730903532369
 30
0.0
 11
62.07828126404911
 21
91.946730903532369
 31
0.0
  0
ARC
  5
8D52
  8
AM_0
 10
75.348301264049041
 20
89.446731903533404
 30
0.0
 40
1.270004069999999
 50
90.000002999984645
 51
270.0
  0
ARC
  5
8D53
  8
AM_0
 10
76.629601264048674
 20
89.446731903533404
 30
0.0
 40
1.00003602
 50
89.500715999993631
 51
270.49928999999503
  0
ARC
  5
8D54
  8
AM_0
 10
76.629601264048674
 20
99.446730903532412
 30
0.0
 40
1.00003602
 50
89.500715999993631
 51
270.49928999999503
  0
ARC
  5
8D55
  8
AM_0
 10
75.348301264049041
 20
99.451734903532483
 30
0.0
 40
1.265004089999999
 50
90.000002999984645
 51
270.0
  0
ARC
  5
8D56
  8
AM_0
 10
93.078331264048785
 20
69.446730903533293
 30
0.0
 40
1.000004069999999
 50
90.000002999984645
 51
270.0
  0
ARC
  5
8D57
  8
AM_0
 10
93.078331264048785
 20
79.446744903531211
 30
0.0
 40
1.000004069999999
 50
90.000002999984645
 51
270.0
  0
ARC
  5
8D58
  8
AM_0
 10
93.078331264048785
 20
89.446731903533404
 30
0.0
 40
1.000004069999999
 50
90.000002999984645
 51
270.0
  0
ARC
  5
8D59
  8
AM_0
 10
93.078331264048785
 20
99.446730903532412
 30
0.0
 40
1.000004069999999
 50
90.000002999984645
 51
270.0
  0
ARC
  5
8D5A
  8
AM_0
 10
147.0774312640487
 20
30.537624903532329
 30
0.0
 40
2.000876009999998
 50
270.02510999999589
 51
359.97489000000411
  0
ARC
  5
8D5B
  8
AM_0
 10
147.075961264049
 20
31.209072903532391
 30
0.0
 40
2.002332029999998
 50
270.06674000000118
 51
359.93325999999882
  0
ARC
  5
8D5C
  8
AM_0
 10
147.07329126404869
 20
32.56176390353334
 30
0.0
 40
2.00502402
 50
270.14341000000132
 51
359.85658999999868
  0
LINE
  5
8D5D
  8
AM_0
 10
149.07828126404951
 20
30.536724903532331
 30
0.0
 11
149.07828126404951
 21
32.58672990353125
 31
0.0
  0
ARC
  5
8D5E
  8
AM_0
 10
214.89828126404879
 20
59.401746903533422
 30
0.0
 40
1.6749999899999961
 50
270.0
 51
90.000002999984645
  0
ARC
  5
8D5F
  8
AM_0
 10
212.92764126404879
 20
35.953260903532509
 30
0.0
 40
2.0065319999999991
 50
270.01926999998381
 51
347.72687000000042
  0
LINE
  5
8D60
  8
AM_0
 10
212.78829126404889
 20
33.946743903532479
 30
0.0
 11
218.07828126404911
 21
33.946743903532479
 31
0.0
  0
LINE
  5
8D61
  8
AM_0
 10
212.81826126404891
 20
34.066722903532309
 30
0.0
 11
216.2782812640489
 21
46.986723903532493
 31
0.0
  0
LINE
  5
8D62
  8
AM_0
 10
214.89828126404879
 20
61.076733903531249
 30
0.0
 11
205.07828126404911
 21
61.076733903531249
 31
0.0
  0
ARC
  5
8D63
  8
AM_0
 10
210.88371126404579
 20
34.591137903532399
 30
0.0
 40
2.004416039999998
 50
270.13147999999228
 51
344.8333399999994
  0
LINE
  5
8D64
  8
AM_0
 10
211.42833126404909
 20
60.446730903533293
 30
0.0
 11
205.07828126404911
 21
60.446730903533293
 31
0.0
  0
LINE
  5
8D65
  8
AM_0
 10
205.07828126404911
 20
64.367991316963298
 30
0.0
 11
207.8483112640487
 21
64.446714903533348
 31
0.0
  0
ARC
  5
8D66
  8
AM_0
 10
211.42014126404951
 20
59.446743903532479
 30
0.0
 40
1.0000319699999971
 50
270.46929999998491
 51
89.530700000015145
  0
ARC
  5
8D67
  8
AM_0
 10
219.0777912640487
 20
43.406202903531252
 30
0.0
 40
0.99947604
 50
179.97008999999551
 51
270.02991999999381
  0
ARC
  5
8D68
  8
AM_0
 10
217.7853612640487
 20
41.917416903533407
 30
0.0
 40
1.499328059999999
 50
89.888150999980539
 51
168.09384000000131
  0
ARC
  5
8D69
  8
AM_0
 10
219.07854126404891
 20
31.946910903532402
 30
0.0
 40
1.0001800499999971
 50
180.0103099999989
 51
269.98967999999968
  0
LINE
  5
8D6A
  8
AM_0
 10
214.8882912640488
 20
35.526729903532441
 30
0.0
 11
216.3282912640488
 21
42.226728903532361
 31
0.0
  0
ARC
  5
8D6B
  8
AM_0
 10
217.72368126404899
 20
46.600752903532317
 30
0.0
 40
1.49599605
 50
89.821707000006256
 51
165.04766000000561
  0
LINE
  5
8D6C
  8
AM_0
 10
217.78830126404901
 20
43.416729903532307
 30
0.0
 11
215.37834126404911
 21
43.416729903532307
 31
0.0
  0
LINE
  5
8D6D
  8
AM_0
 10
23.57829126404885
 20
138.33672390353121
 30
0.0
 11
71.078281264047746
 21
138.33672390353121
 31
0.0
  0
LINE
  5
8D6E
  8
AM_0
 10
23.57829126404885
 20
128.08674690353129
 30
0.0
 11
66.078331264048757
 21
128.08674690353129
 31
0.0
  0
LINE
  5
8D6F
  8
AM_0
 10
23.07828126404911
 20
151.4467239035323
 30
0.0
 11
71.07828126404911
 21
151.4467239035323
 31
0.0
  0
ARC
  5
8D70
  8
AM_0
 10
23.078821264049111
 20
149.4461739035323
 30
0.0
 40
2.000536019999998
 50
90.015328999985087
 51
179.98467999999519
  0
ARC
  5
8D71
  8
AM_0
 10
21.976051264048689
 20
131.82924390353239
 30
0.0
 40
2.9977641899999981
 50
179.8564500000015
 51
275.78659000000278
  0
LINE
  5
8D72
  8
AM_0
 10
22.278301264048871
 20
128.7367419035333
 30
0.0
 11
22.278301264048871
 21
137.93673390353339
 31
0.0
  0
LINE
  5
8D73
  8
AM_0
 10
22.278301264048871
 20
128.7367419035333
 30
0.0
 11
23.57829126404885
 21
128.7367419035333
 31
0.0
  0
LINE
  5
8D74
  8
AM_0
 10
21.078331264048749
 20
137.69673390353239
 30
0.0
 11
21.078331264048749
 21
149.4467439035333
 31
0.0
  0
ARC
  5
8D75
  8
AM_0
 10
21.976111264048988
 20
134.83422390353141
 30
0.0
 40
2.99777994
 50
84.213883000011535
 51
179.95210999999989
  0
LINE
  5
8D76
  8
AM_0
 10
18.978301264048689
 20
131.83674390353221
 30
0.0
 11
18.978301264048689
 21
134.83674390353141
 31
0.0
  0
LINE
  5
8D77
  8
AM_0
 10
22.278301264048871
 20
137.93673390353339
 30
0.0
 11
23.57829126404885
 21
137.93673390353339
 31
0.0
  0
LINE
  5
8D78
  8
AM_0
 10
116.0782812640491
 20
140.79672390353241
 30
0.0
 11
218.07828126404911
 21
140.79672390353241
 31
0.0
  0
LINE
  5
8D79
  8
AM_0
 10
84.758281264048932
 20
131.1667239035323
 30
0.0
 11
214.89828126404879
 21
131.1667239035323
 31
0.0
  0
LINE
  5
8D7A
  8
AM_0
 10
211.42833126404909
 20
130.4467239035323
 30
0.0
 11
85.628341264049126
 21
130.4467239035323
 31
0.0
  0
LINE
  5
8D7B
  8
AM_0
 10
94.078291264048843
 20
156.30675390353139
 30
0.0
 11
210.8882712640488
 21
156.30675390353139
 31
0.0
  0
LINE
  5
8D7C
  8
AM_0
 10
116.0783412640489
 20
140.79672390353241
 30
0.0
 11
81.078271264048894
 21
138.7667439035333
 31
0.0
  0
LINE
  5
8D7D
  8
AM_0
 10
75.408301264048987
 20
108.12672390353229
 30
0.0
 11
116.0782812640491
 21
108.12672390353229
 31
0.0
  0
LINE
  5
8D7E
  8
AM_0
 10
75.408301264048987
 20
110.7867279035333
 30
0.0
 11
116.0782812640491
 21
110.7867279035333
 31
0.0
  0
LINE
  5
8D7F
  8
AM_0
 10
84.538291264048894
 20
118.0067289035332
 30
0.0
 11
115.5782812640491
 21
118.0067289035332
 31
0.0
  0
LINE
  5
8D80
  8
AM_0
 10
84.538291264048894
 20
120.93675390353241
 30
0.0
 11
115.5782812640491
 21
120.93675390353241
 31
0.0
  0
LINE
  5
8D81
  8
AM_0
 10
84.758281264048932
 20
127.8167589035333
 30
0.0
 11
116.0782812640491
 21
127.8167589035333
 31
0.0
  0
LINE
  5
8D82
  8
AM_0
 10
116.0782812640491
 20
108.4467309035324
 30
0.0
 11
76.638271264048839
 21
108.4467309035324
 31
0.0
  0
LINE
  5
8D83
  8
AM_0
 10
116.0782812640491
 20
110.4467319035334
 30
0.0
 11
76.638271264048839
 21
110.4467319035334
 31
0.0
  0
LINE
  5
8D84
  8
AM_0
 10
115.5782812640491
 20
118.4467329035333
 30
0.0
 11
85.628341264049126
 21
118.4467329035333
 31
0.0
  0
LINE
  5
8D85
  8
AM_0
 10
115.5782812640491
 20
120.4467309035323
 30
0.0
 11
85.628341264049126
 21
120.4467309035323
 31
0.0
  0
LINE
  5
8D86
  8
AM_0
 10
116.0782812640491
 20
128.44673190353339
 30
0.0
 11
85.628341264049126
 21
128.44673190353339
 31
0.0
  0
LINE
  5
8D87
  8
AM_0
 10
94.078291264048843
 20
158.33673390353221
 30
0.0
 11
147.0783312640487
 21
158.33673390353221
 31
0.0
  0
LINE
  5
8D88
  8
AM_0
 10
94.078291264048843
 20
159.68673390353339
 30
0.0
 11
147.0783312640487
 21
159.68673390353339
 31
0.0
  0
LINE
  5
8D89
  8
AM_0
 10
94.078291264048843
 20
160.3667439035323
 30
0.0
 11
147.0783312640487
 21
160.3667439035323
 31
0.0
  0
ARC
  5
8D8A
  8
AM_0
 10
77.249971264048781
 20
150.7213239035313
 30
0.0
 40
1.9953880799999959
 50
90.048066999991249
 51
167.98461999999341
  0
LINE
  5
8D8B
  8
AM_0
 10
92.078281264049068
 20
156.33672390353121
 30
0.0
 11
92.078281264049068
 21
148.92675390353239
 31
0.0
  0
LINE
  5
8D8C
  8
AM_0
 10
75.268351264047865
 20
154.5767439035323
 30
0.0
 11
74.348311264048789
 21
150.6967239035323
 31
0.0
  0
LINE
  5
8D8D
  8
AM_0
 10
77.308321264049013
 20
147.4267539035333
 30
0.0
 11
90.578281264049124
 21
147.4267539035333
 31
0.0
  0
LINE
  5
8D8E
  8
AM_0
 10
71.07828126404911
 20
142.79673390353329
 30
0.0
 11
81.078331264048757
 21
142.79673390353329
 31
0.0
  0
LINE
  5
8D8F
  8
AM_0
 10
71.07828126404911
 20
137.1367239035323
 30
0.0
 11
81.078331264048757
 21
137.1367239035323
 31
0.0
  0
LINE
  5
8D90
  8
AM_0
 10
71.07828126404911
 20
128.75673090353229
 30
0.0
 11
81.078331264048757
 21
128.75673090353229
 31
0.0
  0
ARC
  5
8D91
  8
AM_0
 10
75.408301264048987
 20
109.4567409035332
 30
0.0
 40
1.33000008
 50
90.000002999984645
 51
270.0
  0
ARC
  5
8D92
  8
AM_0
 10
76.629601264048674
 20
109.4467299035334
 30
0.0
 40
1.00003602
 50
89.500715999993631
 51
270.49928999999503
  0
LINE
  5
8D93
  8
AM_0
 10
66.078331264048757
 20
102.4467309035324
 30
0.0
 11
66.078331264048757
 21
151.4467239035323
 31
0.0
  0
ARC
  5
8D94
  8
AM_0
 10
72.88749126404899
 20
151.04955390353231
 30
0.0
 40
1.502808149999999
 50
270.03078999999502
 51
346.42217999999571
  0
ARC
  5
8D95
  8
AM_0
 10
72.869551264048809
 20
146.9908539035323
 30
0.0
 40
1.504140059999999
 50
269.95424999999199
 51
347.55525000000432
  0
ARC
  5
8D96
  8
AM_0
 10
77.300131264049014
 20
145.4333439035324
 30
0.0
 40
1.993432109999999
 50
89.765883999979707
 51
169.7880299999938
  0
LINE
  5
8D97
  8
AM_0
 10
72.888271264048839
 20
149.54673390353241
 30
0.0
 11
74.94834126404885
 21
149.54673390353241
 31
0.0
  0
LINE
  5
8D98
  8
AM_0
 10
75.298261264048961
 20
151.13673390353139
 30
0.0
 11
74.338231264048773
 21
146.6667339035323
 31
0.0
  0
LINE
  5
8D99
  8
AM_0
 10
72.868261264049579
 20
145.48674390353131
 30
0.0
 11
75.288301264049096
 21
145.48674390353131
 31
0.0
  0
LINE
  5
8D9A
  8
AM_0
 10
74.798251264048744
 20
142.79673390353329
 30
0.0
 11
75.338281264048859
 21
145.78677390353221
 31
0.0
  0
ARC
  5
8D9B
  8
AM_0
 10
85.628341264049126
 20
129.44673390353341
 30
0.0
 40
1.000004069999999
 50
90.000002999984645
 51
270.0
  0
ARC
  5
8D9C
  8
AM_0
 10
84.758281264048932
 20
129.4917039035324
 30
0.0
 40
1.67500812
 50
90.000002999984645
 51
270.0
  0
ARC
  5
8D9D
  8
AM_0
 10
93.078331264048785
 20
129.44673390353341
 30
0.0
 40
1.000004069999999
 50
90.000002999984645
 51
270.0
  0
LINE
  5
8D9E
  8
AM_0
 10
81.078331264048757
 20
142.79673390353329
 30
0.0
 11
81.078331264048757
 21
128.75673090353229
 31
0.0
  0
ARC
  5
8D9F
  8
AM_0
 10
85.628341264049126
 20
119.4467319035334
 30
0.0
 40
1.000004069999999
 50
90.000002999984645
 51
270.0
  0
ARC
  5
8DA0
  8
AM_0
 10
84.538291264048894
 20
119.4717249035334
 30
0.0
 40
1.46500008
 50
90.000002999984645
 51
270.0
  0
ARC
  5
8DA1
  8
AM_0
 10
93.078331264048785
 20
119.4467319035334
 30
0.0
 40
1.000004069999999
 50
90.000002999984645
 51
270.0
  0
ARC
  5
8DA2
  8
AM_0
 10
93.078331264048785
 20
109.4467299035334
 30
0.0
 40
1.000004069999999
 50
90.000002999984645
 51
270.0
  0
ARC
  5
8DA3
  8
AM_0
 10
84.228241264048805
 20
135.6568839035323
 30
0.0
 40
1.004135999999999
 50
354.84883999999488
 51
45.797435999992487
  0
ARC
  5
8DA4
  8
AM_0
 10
80.699491264048916
 20
132.1147839035325
 30
0.0
 40
6.0039084000000011
 50
45.223692999992473
 51
86.382714000002196
  0
ARC
  5
8DA5
  8
AM_0
 10
80.243251264048936
 20
136.04451390353231
 30
0.0
 40
5.0078918999999971
 50
279.59871999999518
 51
354.525319999994
  0
ARC
  5
8DA6
  8
AM_0
 10
90.572671264048935
 20
148.9323939035323
 30
0.0
 40
1.5056760899999959
 50
270.2155199999923
 51
359.78447000000108
  0
LINE
  5
8DA7
  8
AM_0
 10
77.188261264048819
 20
157.74672390353331
 30
0.0
 11
90.688261264048833
 21
157.74672390353331
 31
0.0
  0
LINE
  5
8DA8
  8
AM_0
 10
77.218291264048744
 20
156.11670390353331
 30
0.0
 11
90.578281264049124
 21
156.11670390353331
 31
0.0
  0
LINE
  5
8DA9
  8
AM_0
 10
77.248321264049096
 20
152.71671390353231
 30
0.0
 11
90.578281264049124
 21
152.71671390353231
 31
0.0
  0
LINE
  5
8DAA
  8
AM_0
 10
71.07828126404911
 20
151.87671390353231
 30
0.0
 11
73.898281264048819
 21
151.9467039035332
 31
0.0
  0
ARC
  5
8DAB
  8
AM_0
 10
77.185651264048815
 20
155.7489339035323
 30
0.0
 40
1.9977801299999991
 50
89.923080999997794
 51
165.86777000000629
  0
ARC
  5
8DAC
  8
AM_0
 10
72.906601264047794
 20
153.0738339035324
 30
0.0
 40
1.5070961099999991
 50
270.0648200000017
 51
345.90217999999732
  0
ARC
  5
8DAD
  8
AM_0
 10
77.211151264049022
 20
154.12125390353231
 30
0.0
 40
1.995484169999999
 50
89.79345799999912
 51
166.8059200000088
  0
LINE
  5
8DAE
  8
AM_0
 10
75.248311264048866
 20
156.23673390353241
 30
0.0
 11
74.368321264048987
 21
152.7067539035333
 31
0.0
  0
LINE
  5
8DAF
  8
AM_0
 10
72.908311264048734
 20
151.5667239035312
 30
0.0
 11
74.558311264048811
 21
151.5667239035312
 31
0.0
  0
ARC
  5
8DB0
  8
AM_0
 10
90.691921264048688
 20
159.25362390353229
 30
0.0
 40
1.506888089999999
 50
269.86222999998643
 51
345.12306999999282
  0
ARC
  5
8DB1
  8
AM_0
 10
90.574441264048787
 20
157.62057390353331
 30
0.0
 40
1.5038481299999991
 50
270.14639999998991
 51
359.85359999999702
  0
ARC
  5
8DB2
  8
AM_0
 10
90.576511264048804
 20
154.21854390353329
 30
0.0
 40
1.501796039999995
 50
270.06854999998592
 51
359.93145000000101
  0
ARC
  5
8DB3
  8
AM_0
 10
94.080781264048724
 20
158.37189390353339
 30
0.0
 40
1.99484415
 50
90.071657999978328
 51
165.6371999999968
  0
ARC
  5
8DB4
  8
AM_0
 10
94.072861264048683
 20
157.69215390353131
 30
0.0
 40
1.99457616
 50
89.844008000013062
 51
180.1559900000027
  0
ARC
  5
8DB5
  8
AM_0
 10
94.07553126404899
 20
156.33951390353329
 30
0.0
 40
1.9972080599999991
 50
89.919857000000462
 51
180.08013999999881
  0
ARC
  5
8DB6
  8
AM_0
 10
94.074691264048823
 20
154.3103439035331
 30
0.0
 40
1.996384079999995
 50
89.896162999993464
 51
180.10383999999601
  0
ARC
  5
8DB7
  8
AM_0
 10
147.077671264049
 20
158.36610390353221
 30
0.0
 40
2.0006240100000001
 50
0.017824000992245
 51
89.98217599999785
  0
ARC
  5
8DB8
  8
AM_0
 10
147.08121126404779
 20
157.68966390353231
 30
0.0
 40
1.997088119999999
 50
359.91637999999188
 51
90.083624999987734
  0
ARC
  5
8DB9
  8
AM_0
 10
147.0786012640487
 20
156.3370239035323
 30
0.0
 40
1.999720049999999
 50
359.99193999999602
 51
90.008061999993785
  0
LINE
  5
8DBA
  8
AM_0
 10
149.07828126404951
 20
158.3667039035324
 30
0.0
 11
149.07828126404951
 21
156.30675390353139
 31
0.0
  0
LINE
  5
8DBB
  8
AM_0
 10
212.81826126404891
 20
154.82676390353231
 30
0.0
 11
216.2782812640489
 21
141.90678390353241
 31
0.0
  0
LINE
  5
8DBC
  8
AM_0
 10
214.8882912640488
 20
153.36675390353221
 30
0.0
 11
216.3282912640488
 21
146.6667339035323
 31
0.0
  0
ARC
  5
8DBD
  8
AM_0
 10
214.89828126404879
 20
129.4917039035324
 30
0.0
 40
1.6749999899999961
 50
270.0
 51
90.000002999984645
  0
LINE
  5
8DBE
  8
AM_0
 10
214.89828126404879
 20
127.8167589035333
 30
0.0
 11
205.07828126404911
 21
127.8167589035333
 31
0.0
  0
ARC
  5
8DBF
  8
AM_0
 10
211.42014126404951
 20
129.44673390353341
 30
0.0
 40
1.0000319699999971
 50
270.46929999998491
 51
89.530700000015145
  0
LINE
  5
8DC0
  8
AM_0
 10
205.07828126404911
 20
128.3467569035333
 30
0.0
 11
211.42833126404909
 21
128.3467569035333
 31
0.0
  0
LINE
  5
8DC1
  8
AM_0
 10
205.07828126404911
 20
124.52545649010131
 30
0.0
 11
207.8483112640487
 21
124.44673290353219
 31
0.0
  0
ARC
  5
8DC2
  8
AM_0
 10
217.728541264049
 20
142.2991239035334
 30
0.0
 40
1.50239199
 50
195.14000999999971
 51
269.99063999998032
  0
ARC
  5
8DC3
  8
AM_0
 10
219.07266126404781
 20
145.49235390353229
 30
0.0
 40
0.99440004
 50
89.676490999993547
 51
180.32351000000421
  0
ARC
  5
8DC4
  8
AM_0
 10
217.78416126404909
 20
146.98719390353119
 30
0.0
 40
1.500476039999995
 50
192.33222999999589
 51
270.15827999999971
  0
LINE
  5
8DC5
  8
AM_0
 10
217.78830126404901
 20
145.48674390353131
 30
0.0
 11
215.37834126404911
 21
145.48674390353131
 31
0.0
  0
ARC
  5
8DC6
  8
AM_0
 10
212.93277126404789
 20
152.9465439035323
 30
0.0
 40
2.0001800699999981
 50
12.126352000006319
 51
90.127514999991448
  0
LINE
  5
8DC7
  8
AM_0
 10
212.78829126404889
 20
154.94673390353341
 30
0.0
 11
218.07828126404911
 21
154.94673390353341
 31
0.0
  0
ARC
  5
8DC8
  8
AM_0
 10
210.8887812640487
 20
154.30893390353231
 30
0.0
 40
1.997795999999999
 50
15.021596999998801
 51
90.013580999977563
  0
ARC
  5
8DC9
  8
AM_0
 10
219.07341126404879
 20
156.95166390353231
 30
0.0
 40
0.9950640599999999
 50
89.71493799999395
 51
180.28506000000439
  0
LINE
  5
8DD0
  8
AM_0
 10
200.57828126404911
 20
116.9467299035334
 30
0.0
 11
200.57828126404911
 21
71.946729903533424
 31
0.0
  0
LINE
  5
8DD1
  8
AM_0
 10
198.47828126404869
 20
117.49698243522531
 30
0.0
 11
198.47828126404869
 21
71.396477371838259
 31
0.0
  0
LINE
  5
8DD2
  8
AM_0
 10
115.5782812640491
 20
76.446729903533424
 30
0.0
 11
115.5782812640491
 21
66.446719903532312
 31
0.0
  0
LINE
  5
8DD3
  8
AM_0
 10
116.0782812640491
 20
61.946723903532288
 30
0.0
 11
116.0782812640491
 21
126.9467199035323
 31
0.0
  0
LINE
  5
8DD4
  8
AM_0
 10
187.62852579574241
 20
60.546721903533353
 30
0.0
 11
120.49826126404869
 21
60.546721903533353
 31
0.0
  0
LINE
  5
8DD5
  8
AM_0
 10
120.49826126404869
 20
60.546721903533353
 30
0.0
 11
120.49826126404869
 21
58.446730903532391
 31
0.0
  0
ARC
  5
8DD6
  8
AM_0
 10
119.5709012640491
 20
61.939376903532327
 30
0.0
 40
3.492651899999998
 50
179.8793300000022
 51
270.12067999999482
  0
ARC
  5
8DD7
  8
AM_0
 10
116.0709612640489
 20
66.43937990353335
 30
0.0
 40
0.4927000100000001
 50
179.14455999999711
 51
270.85543999998958
  0
ARC
  5
8DD8
  8
AM_0
 10
202.57828126404911
 20
71.946729903533424
 30
0.0
 40
2.0
 50
180.0
 51
270.0
  0
LINE
  5
8DD9
  8
AM_0
 10
198.06823075770981
 20
70.406527878176334
 30
0.0
 11
188.61847528940461
 21
60.956772409871292
 31
0.0
  0
LINE
  5
8DDA
  8
AM_0
 10
188.61848328940269
 20
60.956780409871271
 30
0.0
 11
198.06823075770981
 21
70.406527878176334
 31
0.0
  0
ARC
  5
8DDB
  8
AM_0
 10
187.62852579574241
 20
61.946721903532293
 30
0.0
 40
1.399999999999999
 50
270.0
 51
315.00000000000921
1001
GENIUS_GENODEF_13
1002
{
1000
HIER
1070
     0
1002
}
1002
{
1000
MANEDIT
1070
     0
1002
}
1002
{
1000
NOSEL
1070
     0
1002
}
1002
{
1000
BEHIND
1070
     0
1002
}
1002
{
1000
OTHER
1070
     0
1002
}
1002
{
1000
REACTOR
1002
}
1001
GENIUS_GENOBJ-N-FIL_13
1002
{
1000
OWNER
1000
GEN
1002
}
  0
ARC
  5
8DDC
  8
AM_0
 10
197.07828126404911
 20
71.396477371838259
 30
0.0
 40
1.4000000000006301
 50
314.99999999997232
 51
0.0
  0
ARC
  5
8DDD
  8
AM_0
 10
203.07828126404769
 20
60.446729903533416
 30
0.0
 40
2.0
 50
270.0
 51
0.0
  0
ARC
  5
8DDE
  8
AM_0
 10
203.07828126404769
 20
67.946729903533424
 30
0.0
 40
2.0
 50
0.0
 51
90.0
  0
LINE
  5
8DDF
  8
AM_0
 10
203.07828126404769
 20
69.946729903533424
 30
0.0
 11
202.57828126404911
 21
69.946729903533424
 31
0.0
  0
LINE
  5
8DE0
  8
AM_0
 10
205.07828126404911
 20
60.446729903533416
 30
0.0
 11
205.07828126404911
 21
67.946729903533424
 31
0.0
  0
LINE
  5
8DE1
  8
AM_0
 10
120.49826126404869
 20
128.3467099035324
 30
0.0
 11
187.63601708392429
 21
128.3467099035324
 31
0.0
  0
ARC
  5
8DE2
  8
AM_0
 10
116.0788312640488
 20
76.446179903531387
 30
0.0
 40
0.5005480100000002
 50
90.062622000000005
 51
179.9373699999839
  0
ARC
  5
8DE3
  8
AM_0
 10
116.0788312640488
 20
122.4461799035323
 30
0.0
 40
0.5005480100000002
 50
90.062622000000005
 51
179.9373699999839
  0
ARC
  5
8DE4
  8
AM_0
 10
116.0707712640487
 20
112.4392199035323
 30
0.0
 40
0.49254802
 50
179.12656000000169
 51
270.8734499999884
  0
LINE
  5
8DE5
  8
AM_0
 10
115.5782812640491
 20
122.4467199035323
 30
0.0
 11
115.5782812640491
 21
112.44672990353131
 31
0.0
  0
LINE
  5
8DE6
  8
AM_0
 10
120.49826126404869
 20
128.3467099035324
 30
0.0
 11
120.49826126404869
 21
130.4417099035324
 31
0.0
  0
ARC
  5
8DE7
  8
AM_0
 10
119.578771264049
 20
126.9462299035324
 30
0.0
 40
3.5005001999999981
 50
90.008164999989489
 51
179.99183999999781
  0
LINE
  5
8DE8
  8
AM_0
 10
202.57828126404911
 20
99.946729903533424
 30
0.0
 11
200.57828126404911
 21
99.946729903533424
 31
0.0
  0
LINE
  5
8DE9
  8
AM_0
 10
200.57828126404911
 20
88.946729903533424
 30
0.0
 11
202.57828126404911
 21
88.946729903533424
 31
0.0
  0
LINE
  5
8DEA
  8
AM_0
 10
202.57828126404911
 20
88.946729903533424
 30
0.0
 11
202.57828126404911
 21
99.946729903533424
 31
0.0
  0
ARC
  5
8DEB
  8
AM_0
 10
202.57828126404911
 20
116.9467299035334
 30
0.0
 40
2.0
 50
90.0
 51
180.0
  0
CIRCLE
  5
8DEC
  8
AM_0
 10
199.5782812640463
 20
125.44672990353131
 30
0.0
 40
3.4999999999999631
  0
LINE
  5
8DED
  8
AM_0
 10
188.61848328940451
 20
127.9366793971933
 30
0.0
 11
198.06823075770981
 21
118.4869319288884
 31
0.0
  0
LINE
  5
8DEE
  8
AM_0
 10
196.47828126404869
 20
120.07688142254931
 30
0.0
 11
198.06823075770981
 21
118.4869319288884
 31
0.0
  0
ARC
  5
8DEF
  8
AM_0
 10
197.07828126404911
 20
117.49698243522531
 30
0.0
 40
1.400000000000118
 50
0.0
 51
45.000000000027619
  0
ARC
  5
8DF0
  8
AM_0
 10
187.6285337957415
 20
126.9467299035334
 30
0.0
 40
1.40000000000077
 50
44.999999999981569
 51
89.999999999947889
  0
LINE
  5
8DF1
  8
AM_0
 10
205.07828126404911
 20
120.9467299035334
 30
0.0
 11
205.07828126404911
 21
128.4467299035334
 31
0.0
  0
LINE
  5
8DF2
  8
AM_0
 10
205.07828126404911
 20
120.9467299035334
 30
0.0
 11
205.07828126404911
 21
128.4467299035334
 31
0.0
  0
ARC
  5
8DF3
  8
AM_0
 10
203.07828126404769
 20
120.9467299035334
 30
0.0
 40
2.0
 50
270.0
 51
0.0
  0
LINE
  5
8DF4
  8
AM_0
 10
202.57828126404911
 20
118.9467299035334
 30
0.0
 11
203.07828126404769
 21
118.9467299035334
 31
0.0
  0
ARC
  5
8DF5
  8
AM_0
 10
203.07828126404769
 20
128.4467299035334
 30
0.0
 40
2.0
 50
0.0
 51
90.0
  0
LINE
  5
8DF6
  8
AM_0
 10
196.93970958284169
 20
125.4467299035343
 30
0.0
 11
202.2168529452556
 21
125.4467299035334
 31
0.0
  0
LINE
  5
8DF7
  8
AM_0
 10
199.5782812640463
 20
128.0853015847394
 30
0.0
 11
199.5782812640463
 21
122.8081582223262
 31
0.0
  0
CIRCLE
  5
8DF8
  8
AM_0
 10
199.5782812640463
 20
63.446729903532493
 30
0.0
 40
3.4999999999999631
  0
LINE
  5
8DF9
  8
AM_0
 10
196.93970958284169
 20
63.44672990353434
 30
0.0
 11
202.2168529452556
 21
63.44672990353434
 31
0.0
  0
LINE
  5
8DFA
  8
AM_0
 10
199.5782812640463
 20
66.085301584738318
 30
0.0
 11
199.5782812640463
 21
60.808158222325339
 31
0.0
  0
LINE
  5
8DFC
  8
AM_0
 10
23.57829126404885
 20
70.47255825760837
 30
0.0
 11
23.57829126404885
 21
151.4467239035323
 31
0.0
  0
ARC
  5
8E30
  8
AM_0
 10
564.14744522069157
 20
117.64672890353241
 30
0.0
 40
74.400002999999998
 50
171.88345059999429
 51
184.945420000003
  0
LINE
  5
8E31
  8
AM_0
 10
471.64741322069142
 20
130.44672990353129
 30
0.0
 11
453.63756922069109
 21
130.44672990353129
 31
0.0
  0
LINE
  5
8E32
  8
AM_0
 10
453.63756922069109
 20
58.446729903531377
 30
0.0
 11
473.17773573448318
 21
58.446729903531377
 31
0.0
  0
LINE
  5
8E33
  8
AM_0
 10
466.13756922069109
 20
58.446729903531377
 30
0.0
 11
466.13756922069109
 21
130.44672990353129
 31
0.0
  0
LINE
  5
8E34
  8
AM_0
 10
466.13756922069109
 20
119.5267299035313
 30
0.0
 11
464.67256922069117
 21
128.34672990353221
 31
0.0
  0
ARC
  5
8E35
  8
AM_0
 10
455.63756922069138
 20
125.84672990353231
 30
0.0
 40
2.5
 50
90.0
 51
180.0
  0
ARC
  5
8E36
  8
AM_0
 10
453.63756922069109
 20
129.9467299035334
 30
0.0
 40
0.5
 50
90.0
 51
180.0
  0
LINE
  5
8E37
  8
AM_0
 10
464.67256922069117
 20
128.34672990353221
 30
0.0
 11
455.63756922069138
 21
128.34672990353221
 31
0.0
  0
POLYLINE
  5
8E38
  8
AM_0
 66
     1
 10
0.0
 20
0.0
 30
0.0
 70
     8
  0
VERTEX
  5
8E39
  8
AM_0
 10
455.63752215561829
 20
118.07714470657621
 30
0.0
 70
    32
  0
VERTEX
  5
8E3A
  8
AM_0
 10
455.63352215561702
 20
118.07714470657621
 30
0.0
 70
    32
  0
VERTEX
  5
8E3B
  8
AM_0
 10
455.62952215561631
 20
118.07714470657621
 30
0.0
 70
    32
  0
VERTEX
  5
8E3C
  8
AM_0
 10
455.62452215561711
 20
118.07714470657621
 30
0.0
 70
    32
  0
VERTEX
  5
8E3D
  8
AM_0
 10
455.6205221556163
 20
118.07714470657621
 30
0.0
 70
    32
  0
VERTEX
  5
8E3E
  8
AM_0
 10
455.61652215561492
 20
118.07714470657621
 30
0.0
 70
    32
  0
VERTEX
  5
8E3F
  8
AM_0
 10
455.61152215561702
 20
118.07714470657621
 30
0.0
 70
    32
  0
VERTEX
  5
8E40
  8
AM_0
 10
455.60752215561632
 20
118.07614470657541
 30
0.0
 70
    32
  0
VERTEX
  5
8E41
  8
AM_0
 10
455.60352215561647
 20
118.07614470657541
 30
0.0
 70
    32
  0
VERTEX
  5
8E42
  8
AM_0
 10
455.59952215561691
 20
118.07614470657541
 30
0.0
 70
    32
  0
VERTEX
  5
8E43
  8
AM_0
 10
455.59452215561629
 20
118.07614470657541
 30
0.0
 70
    32
  0
VERTEX
  5
8E44
  8
AM_0
 10
455.5905221556169
 20
118.07614470657541
 30
0.0
 70
    32
  0
VERTEX
  5
8E45
  8
AM_0
 10
455.5865221556171
 20
118.07614470657541
 30
0.0
 70
    32
  0
VERTEX
  5
8E46
  8
AM_0
 10
455.5825221556172
 20
118.07614470657541
 30
0.0
 70
    32
  0
VERTEX
  5
8E47
  8
AM_0
 10
455.57752215561709
 20
118.07614470657541
 30
0.0
 70
    32
  0
VERTEX
  5
8E48
  8
AM_0
 10
455.57352215561713
 20
118.07614470657541
 30
0.0
 70
    32
  0
VERTEX
  5
8E49
  8
AM_0
 10
455.5695221556162
 20
118.07614470657541
 30
0.0
 70
    32
  0
VERTEX
  5
8E4A
  8
AM_0
 10
455.56452215561711
 20
118.07614470657541
 30
0.0
 70
    32
  0
VERTEX
  5
8E4B
  8
AM_0
 10
455.5605221556167
 20
118.07614470657541
 30
0.0
 70
    32
  0
VERTEX
  5
8E4C
  8
AM_0
 10
455.55652215561639
 20
118.07614470657541
 30
0.0
 70
    32
  0
VERTEX
  5
8E4D
  8
AM_0
 10
455.552522155617
 20
118.07614470657541
 30
0.0
 70
    32
  0
VERTEX
  5
8E4E
  8
AM_0
 10
455.54752215561638
 20
118.07614470657541
 30
0.0
 70
    32
  0
VERTEX
  5
8E4F
  8
AM_0
 10
455.54352215561693
 20
118.07614470657541
 30
0.0
 70
    32
  0
VERTEX
  5
8E50
  8
AM_0
 10
455.53952215561679
 20
118.07614470657541
 30
0.0
 70
    32
  0
VERTEX
  5
8E51
  8
AM_0
 10
455.53552215561717
 20
118.07614470657541
 30
0.0
 70
    32
  0
VERTEX
  5
8E52
  8
AM_0
 10
455.53052215561678
 20
118.0751447065752
 30
0.0
 70
    32
  0
VERTEX
  5
8E53
  8
AM_0
 10
455.5265221556171
 20
118.0751447065752
 30
0.0
 70
    32
  0
VERTEX
  5
8E54
  8
AM_0
 10
455.52252215561691
 20
118.0751447065752
 30
0.0
 70
    32
  0
VERTEX
  5
8E55
  8
AM_0
 10
455.51852215561638
 20
118.0751447065752
 30
0.0
 70
    32
  0
VERTEX
  5
8E56
  8
AM_0
 10
455.51352215561622
 20
118.0751447065752
 30
0.0
 70
    32
  0
VERTEX
  5
8E57
  8
AM_0
 10
455.50952215561642
 20
118.0751447065752
 30
0.0
 70
    32
  0
VERTEX
  5
8E58
  8
AM_0
 10
455.50552215561692
 20
118.0751447065752
 30
0.0
 70
    32
  0
VERTEX
  5
8E59
  8
AM_0
 10
455.50052215561681
 20
118.0751447065752
 30
0.0
 70
    32
  0
VERTEX
  5
8E5A
  8
AM_0
 10
455.4965221556165
 20
118.0751447065752
 30
0.0
 70
    32
  0
VERTEX
  5
8E5B
  8
AM_0
 10
455.49252215561688
 20
118.0751447065752
 30
0.0
 70
    32
  0
VERTEX
  5
8E5C
  8
AM_0
 10
455.48852215561709
 20
118.0741447065752
 30
0.0
 70
    32
  0
VERTEX
  5
8E5D
  8
AM_0
 10
455.48352215561692
 20
118.0741447065752
 30
0.0
 70
    32
  0
VERTEX
  5
8E5E
  8
AM_0
 10
455.47952215561708
 20
118.0741447065752
 30
0.0
 70
    32
  0
VERTEX
  5
8E5F
  8
AM_0
 10
455.47552215561609
 20
118.0741447065752
 30
0.0
 70
    32
  0
VERTEX
  5
8E60
  8
AM_0
 10
455.4715221556167
 20
118.0741447065752
 30
0.0
 70
    32
  0
VERTEX
  5
8E61
  8
AM_0
 10
455.46652215561608
 20
118.0741447065752
 30
0.0
 70
    32
  0
VERTEX
  5
8E62
  8
AM_0
 10
455.4625221556168
 20
118.0741447065752
 30
0.0
 70
    32
  0
VERTEX
  5
8E63
  8
AM_0
 10
455.45852215561632
 20
118.0731447065743
 30
0.0
 70
    32
  0
VERTEX
  5
8E64
  8
AM_0
 10
455.45452215561693
 20
118.0731447065743
 30
0.0
 70
    32
  0
VERTEX
  5
8E65
  8
AM_0
 10
455.44952215561688
 20
118.0731447065743
 30
0.0
 70
    32
  0
VERTEX
  5
8E66
  8
AM_0
 10
455.4455221556168
 20
118.0731447065743
 30
0.0
 70
    32
  0
VERTEX
  5
8E67
  8
AM_0
 10
455.44152215561712
 20
118.0731447065743
 30
0.0
 70
    32
  0
VERTEX
  5
8E68
  8
AM_0
 10
455.43652215561679
 20
118.0731447065743
 30
0.0
 70
    32
  0
VERTEX
  5
8E69
  8
AM_0
 10
455.43252215561722
 20
118.0731447065743
 30
0.0
 70
    32
  0
VERTEX
  5
8E6A
  8
AM_0
 10
455.42852215561612
 20
118.07214470657431
 30
0.0
 70
    32
  0
VERTEX
  5
8E6B
  8
AM_0
 10
455.42452215561678
 20
118.07214470657431
 30
0.0
 70
    32
  0
VERTEX
  5
8E6C
  8
AM_0
 10
455.41952215561702
 20
118.07214470657431
 30
0.0
 70
    32
  0
VERTEX
  5
8E6D
  8
AM_0
 10
455.41552215561683
 20
118.07214470657431
 30
0.0
 70
    32
  0
VERTEX
  5
8E6E
  8
AM_0
 10
455.41152215561692
 20
118.07214470657431
 30
0.0
 70
    32
  0
VERTEX
  5
8E6F
  8
AM_0
 10
455.4075221556169
 20
118.0711447065752
 30
0.0
 70
    32
  0
VERTEX
  5
8E70
  8
AM_0
 10
455.40252215561691
 20
118.0711447065752
 30
0.0
 70
    32
  0
VERTEX
  5
8E71
  8
AM_0
 10
455.39852215561677
 20
118.0711447065752
 30
0.0
 70
    32
  0
VERTEX
  5
8E72
  8
AM_0
 10
455.3945221556171
 20
118.0711447065752
 30
0.0
 70
    32
  0
VERTEX
  5
8E73
  8
AM_0
 10
455.39052215561708
 20
118.0711447065752
 30
0.0
 70
    32
  0
VERTEX
  5
8E74
  8
AM_0
 10
455.38552215561708
 20
118.0711447065752
 30
0.0
 70
    32
  0
VERTEX
  5
8E75
  8
AM_0
 10
455.38152215561701
 20
118.0701447065764
 30
0.0
 70
    32
  0
VERTEX
  5
8E76
  8
AM_0
 10
455.3775221556167
 20
118.0701447065764
 30
0.0
 70
    32
  0
VERTEX
  5
8E77
  8
AM_0
 10
455.37352215561691
 20
118.0701447065764
 30
0.0
 70
    32
  0
VERTEX
  5
8E78
  8
AM_0
 10
455.36852215561618
 20
118.0701447065764
 30
0.0
 70
    32
  0
VERTEX
  5
8E79
  8
AM_0
 10
455.3645221556169
 20
118.0691447065753
 30
0.0
 70
    32
  0
VERTEX
  5
8E7A
  8
AM_0
 10
455.36052215561688
 20
118.0691447065753
 30
0.0
 70
    32
  0
VERTEX
  5
8E7B
  8
AM_0
 10
455.35552215561688
 20
118.0691447065753
 30
0.0
 70
    32
  0
VERTEX
  5
8E7C
  8
AM_0
 10
455.35152215561681
 20
118.0691447065753
 30
0.0
 70
    32
  0
VERTEX
  5
8E7D
  8
AM_0
 10
455.34752215561679
 20
118.0691447065753
 30
0.0
 70
    32
  0
VERTEX
  5
8E7E
  8
AM_0
 10
455.34352215561518
 20
118.0681447065753
 30
0.0
 70
    32
  0
VERTEX
  5
8E7F
  8
AM_0
 10
455.338522155617
 20
118.0681447065753
 30
0.0
 70
    32
  0
VERTEX
  5
8E80
  8
AM_0
 10
455.33452215561613
 20
118.0681447065753
 30
0.0
 70
    32
  0
VERTEX
  5
8E81
  8
AM_0
 10
455.33052215561622
 20
118.0681447065753
 30
0.0
 70
    32
  0
VERTEX
  5
8E82
  8
AM_0
 10
455.32652215561677
 20
118.06714470657531
 30
0.0
 70
    32
  0
VERTEX
  5
8E83
  8
AM_0
 10
455.32152215561632
 20
118.06714470657531
 30
0.0
 70
    32
  0
VERTEX
  5
8E84
  8
AM_0
 10
455.31752215561681
 20
118.06714470657531
 30
0.0
 70
    32
  0
VERTEX
  5
8E85
  8
AM_0
 10
455.31352215561691
 20
118.0661447065754
 30
0.0
 70
    32
  0
VERTEX
  5
8E86
  8
AM_0
 10
455.30952215561689
 20
118.0661447065754
 30
0.0
 70
    32
  0
VERTEX
  5
8E87
  8
AM_0
 10
455.30452215561678
 20
118.0661447065754
 30
0.0
 70
    32
  0
VERTEX
  5
8E88
  8
AM_0
 10
455.30052215561687
 20
118.0661447065754
 30
0.0
 70
    32
  0
VERTEX
  5
8E89
  8
AM_0
 10
455.29652215561617
 20
118.0651447065752
 30
0.0
 70
    32
  0
VERTEX
  5
8E8A
  8
AM_0
 10
455.29252215561633
 20
118.0651447065752
 30
0.0
 70
    32
  0
VERTEX
  5
8E8B
  8
AM_0
 10
455.2875221556169
 20
118.0651447065752
 30
0.0
 70
    32
  0
VERTEX
  5
8E8C
  8
AM_0
 10
455.28352215561631
 20
118.0651447065752
 30
0.0
 70
    32
  0
VERTEX
  5
8E8D
  8
AM_0
 10
455.2795221556168
 20
118.06414470657521
 30
0.0
 70
    32
  0
VERTEX
  5
8E8E
  8
AM_0
 10
455.2755221556169
 20
118.06414470657521
 30
0.0
 70
    32
  0
VERTEX
  5
8E8F
  8
AM_0
 10
455.27052215561679
 20
118.06414470657521
 30
0.0
 70
    32
  0
VERTEX
  5
8E90
  8
AM_0
 10
455.26652215561688
 20
118.0631447065752
 30
0.0
 70
    32
  0
VERTEX
  5
8E91
  8
AM_0
 10
455.26252215561652
 20
118.0631447065752
 30
0.0
 70
    32
  0
VERTEX
  5
8E92
  8
AM_0
 10
455.25752215561693
 20
118.0631447065752
 30
0.0
 70
    32
  0
VERTEX
  5
8E93
  8
AM_0
 10
455.25352215561662
 20
118.0621447065752
 30
0.0
 70
    32
  0
VERTEX
  5
8E94
  8
AM_0
 10
455.24952215561711
 20
118.0621447065752
 30
0.0
 70
    32
  0
VERTEX
  5
8E95
  8
AM_0
 10
455.24552215561607
 20
118.0621447065752
 30
0.0
 70
    32
  0
VERTEX
  5
8E96
  8
AM_0
 10
455.24052215561608
 20
118.06114470657531
 30
0.0
 70
    32
  0
VERTEX
  5
8E97
  8
AM_0
 10
455.23652215561702
 20
118.06114470657531
 30
0.0
 70
    32
  0
VERTEX
  5
8E98
  8
AM_0
 10
455.23252215561678
 20
118.06114470657531
 30
0.0
 70
    32
  0
VERTEX
  5
8E99
  8
AM_0
 10
455.22852215561687
 20
118.0601447065753
 30
0.0
 70
    32
  0
VERTEX
  5
8E9A
  8
AM_0
 10
455.22352215561642
 20
118.0601447065753
 30
0.0
 70
    32
  0
VERTEX
  5
8E9B
  8
AM_0
 10
455.21952215561691
 20
118.0601447065753
 30
0.0
 70
    32
  0
VERTEX
  5
8E9C
  8
AM_0
 10
455.2155221556165
 20
118.0591447065744
 30
0.0
 70
    32
  0
VERTEX
  5
8E9D
  8
AM_0
 10
455.2115221556171
 20
118.0591447065744
 30
0.0
 70
    32
  0
VERTEX
  5
8E9E
  8
AM_0
 10
455.20652215561648
 20
118.0591447065744
 30
0.0
 70
    32
  0
VERTEX
  5
8E9F
  8
AM_0
 10
455.20252215561612
 20
118.05814470657531
 30
0.0
 70
    32
  0
VERTEX
  5
8EA0
  8
AM_0
 10
455.19852215561713
 20
118.05814470657531
 30
0.0
 70
    32
  0
VERTEX
  5
8EA1
  8
AM_0
 10
455.19452215561671
 20
118.0571447065754
 30
0.0
 70
    32
  0
VERTEX
  5
8EA2
  8
AM_0
 10
455.18952215561711
 20
118.0571447065754
 30
0.0
 70
    32
  0
VERTEX
  5
8EA3
  8
AM_0
 10
455.1855221556163
 20
118.0571447065754
 30
0.0
 70
    32
  0
VERTEX
  5
8EA4
  8
AM_0
 10
455.18152215561639
 20
118.0561447065754
 30
0.0
 70
    32
  0
VERTEX
  5
8EA5
  8
AM_0
 10
455.17752215561649
 20
118.0561447065754
 30
0.0
 70
    32
  0
VERTEX
  5
8EA6
  8
AM_0
 10
455.17252215561632
 20
118.05514470657521
 30
0.0
 70
    32
  0
VERTEX
  5
8EA7
  8
AM_0
 10
455.16852215561647
 20
118.05514470657521
 30
0.0
 70
    32
  0
VERTEX
  5
8EA8
  8
AM_0
 10
455.164522155616
 20
118.05514470657521
 30
0.0
 70
    32
  0
VERTEX
  5
8EA9
  8
AM_0
 10
455.16052215561712
 20
118.05414470657431
 30
0.0
 70
    32
  0
VERTEX
  5
8EAA
  8
AM_0
 10
455.1555221556161
 20
118.05414470657431
 30
0.0
 70
    32
  0
VERTEX
  5
8EAB
  8
AM_0
 10
455.1515221556171
 20
118.0531447065752
 30
0.0
 70
    32
  0
VERTEX
  5
8EAC
  8
AM_0
 10
455.1475221556168
 20
118.0531447065752
 30
0.0
 70
    32
  0
VERTEX
  5
8EAD
  8
AM_0
 10
455.14352215561638
 20
118.05214470657531
 30
0.0
 70
    32
  0
VERTEX
  5
8EAE
  8
AM_0
 10
455.13852215561673
 20
118.05214470657531
 30
0.0
 70
    32
  0
VERTEX
  5
8EAF
  8
AM_0
 10
455.13452215561642
 20
118.05214470657531
 30
0.0
 70
    32
  0
VERTEX
  5
8EB0
  8
AM_0
 10
455.13052215561652
 20
118.05114470657639
 30
0.0
 70
    32
  0
VERTEX
  5
8EB1
  8
AM_0
 10
455.1265221556161
 20
118.05114470657639
 30
0.0
 70
    32
  0
VERTEX
  5
8EB2
  8
AM_0
 10
455.1215221556165
 20
118.0501447065753
 30
0.0
 70
    32
  0
VERTEX
  5
8EB3
  8
AM_0
 10
455.11752215561597
 20
118.0501447065753
 30
0.0
 70
    32
  0
VERTEX
  5
8EB4
  8
AM_0
 10
455.1135221556172
 20
118.04914470657531
 30
0.0
 70
    32
  0
VERTEX
  5
8EB5
  8
AM_0
 10
455.10952215561611
 20
118.04914470657531
 30
0.0
 70
    32
  0
VERTEX
  5
8EB6
  8
AM_0
 10
455.10552215561631
 20
118.0481447065753
 30
0.0
 70
    32
  0
VERTEX
  5
8EB7
  8
AM_0
 10
455.10052215561632
 20
118.0481447065753
 30
0.0
 70
    32
  0
VERTEX
  5
8EB8
  8
AM_0
 10
455.0965221556163
 20
118.04714470657539
 30
0.0
 70
    32
  0
VERTEX
  5
8EB9
  8
AM_0
 10
455.09252215561628
 20
118.04714470657539
 30
0.0
 70
    32
  0
VERTEX
  5
8EBA
  8
AM_0
 10
455.08852215561609
 20
118.0461447065743
 30
0.0
 70
    32
  0
VERTEX
  5
8EBB
  8
AM_0
 10
455.08352215561632
 20
118.0461447065743
 30
0.0
 70
    32
  0
VERTEX
  5
8EBC
  8
AM_0
 10
455.07952215561647
 20
118.04514470657431
 30
0.0
 70
    32
  0
VERTEX
  5
8EBD
  8
AM_0
 10
455.07552215561708
 20
118.04514470657431
 30
0.0
 70
    32
  0
VERTEX
  5
8EBE
  8
AM_0
 10
455.07152215561632
 20
118.0441447065752
 30
0.0
 70
    32
  0
VERTEX
  5
8EBF
  8
AM_0
 10
455.06652215561712
 20
118.0441447065752
 30
0.0
 70
    32
  0
VERTEX
  5
8EC0
  8
AM_0
 10
455.06252215561801
 20
118.04314470657521
 30
0.0
 70
    32
  0
VERTEX
  5
8EC1
  8
AM_0
 10
455.0585221556164
 20
118.04314470657521
 30
0.0
 70
    32
  0
VERTEX
  5
8EC2
  8
AM_0
 10
455.0545221556165
 20
118.0421447065753
 30
0.0
 70
    32
  0
VERTEX
  5
8EC3
  8
AM_0
 10
455.04952215561639
 20
118.0421447065753
 30
0.0
 70
    32
  0
VERTEX
  5
8EC4
  8
AM_0
 10
455.04552215561631
 20
118.0411447065744
 30
0.0
 70
    32
  0
VERTEX
  5
8EC5
  8
AM_0
 10
455.04152215561652
 20
118.0411447065744
 30
0.0
 70
    32
  0
VERTEX
  5
8EC6
  8
AM_0
 10
455.03752215561713
 20
118.0401447065753
 30
0.0
 70
    32
  0
VERTEX
  5
8EC7
  8
AM_0
 10
455.0325221556165
 20
118.0401447065753
 30
0.0
 70
    32
  0
VERTEX
  5
8EC8
  8
AM_0
 10
455.02852215561722
 20
118.0391447065753
 30
0.0
 70
    32
  0
VERTEX
  5
8EC9
  8
AM_0
 10
455.0245221556163
 20
118.0391447065753
 30
0.0
 70
    32
  0
VERTEX
  5
8ECA
  8
AM_0
 10
455.02052215561611
 20
118.0381447065762
 30
0.0
 70
    32
  0
VERTEX
  5
8ECB
  8
AM_0
 10
455.01652215561649
 20
118.0381447065762
 30
0.0
 70
    32
  0
VERTEX
  5
8ECC
  8
AM_0
 10
455.01152215561632
 20
118.0371447065754
 30
0.0
 70
    32
  0
VERTEX
  5
8ECD
  8
AM_0
 10
455.00752215561653
 20
118.03614470657431
 30
0.0
 70
    32
  0
VERTEX
  5
8ECE
  8
AM_0
 10
455.00352215561639
 20
118.03614470657431
 30
0.0
 70
    32
  0
VERTEX
  5
8ECF
  8
AM_0
 10
454.99952215561711
 20
118.0351447065743
 30
0.0
 70
    32
  0
VERTEX
  5
8ED0
  8
AM_0
 10
454.99452215561649
 20
118.0351447065743
 30
0.0
 70
    32
  0
VERTEX
  5
8ED1
  8
AM_0
 10
454.9905221556171
 20
118.0341447065752
 30
0.0
 70
    32
  0
VERTEX
  5
8ED2
  8
AM_0
 10
454.9865221556181
 20
118.0341447065752
 30
0.0
 70
    32
  0
VERTEX
  5
8ED3
  8
AM_0
 10
454.98252215561621
 20
118.0331447065752
 30
0.0
 70
    32
  0
VERTEX
  5
8ED4
  8
AM_0
 10
454.97752215561792
 20
118.0321447065743
 30
0.0
 70
    32
  0
VERTEX
  5
8ED5
  8
AM_0
 10
454.97352215561818
 20
118.0321447065743
 30
0.0
 70
    32
  0
VERTEX
  5
8ED6
  8
AM_0
 10
454.96952215561691
 20
118.0311447065753
 30
0.0
 70
    32
  0
VERTEX
  5
8ED7
  8
AM_0
 10
454.9655221556165
 20
118.0311447065753
 30
0.0
 70
    32
  0
VERTEX
  5
8ED8
  8
AM_0
 10
454.96152215561688
 20
118.0301447065753
 30
0.0
 70
    32
  0
VERTEX
  5
8ED9
  8
AM_0
 10
454.95652215561648
 20
118.02914470657529
 30
0.0
 70
    32
  0
VERTEX
  5
8EDA
  8
AM_0
 10
454.95252215561692
 20
118.02914470657529
 30
0.0
 70
    32
  0
VERTEX
  5
8EDB
  8
AM_0
 10
454.94852215561718
 20
118.0281447065754
 30
0.0
 70
    32
  0
VERTEX
  5
8EDC
  8
AM_0
 10
454.94452215561643
 20
118.0281447065754
 30
0.0
 70
    32
  0
VERTEX
  5
8EDD
  8
AM_0
 10
454.93952215561723
 20
118.02714470657421
 30
0.0
 70
    32
  0
VERTEX
  5
8EDE
  8
AM_0
 10
454.9355221556163
 20
118.0261447065752
 30
0.0
 70
    32
  0
VERTEX
  5
8EDF
  8
AM_0
 10
454.93152215561679
 20
118.0261447065752
 30
0.0
 70
    32
  0
VERTEX
  5
8EE0
  8
AM_0
 10
454.92752215561649
 20
118.0251447065752
 30
0.0
 70
    32
  0
VERTEX
  5
8EE1
  8
AM_0
 10
454.92352215561709
 20
118.0241447065752
 30
0.0
 70
    32
  0
VERTEX
  5
8EE2
  8
AM_0
 10
454.91852215561647
 20
118.0241447065752
 30
0.0
 70
    32
  0
VERTEX
  5
8EE3
  8
AM_0
 10
454.91452215561691
 20
118.0231447065752
 30
0.0
 70
    32
  0
VERTEX
  5
8EE4
  8
AM_0
 10
454.91052215561808
 20
118.0231447065752
 30
0.0
 70
    32
  0
VERTEX
  5
8EE5
  8
AM_0
 10
454.9065221556163
 20
118.0221447065753
 30
0.0
 70
    32
  0
VERTEX
  5
8EE6
  8
AM_0
 10
454.90152215561812
 20
118.0211447065753
 30
0.0
 70
    32
  0
VERTEX
  5
8EE7
  8
AM_0
 10
454.89752215561617
 20
118.0211447065753
 30
0.0
 70
    32
  0
VERTEX
  5
8EE8
  8
AM_0
 10
454.89352215561689
 20
118.02014470657529
 30
0.0
 70
    32
  0
VERTEX
  5
8EE9
  8
AM_0
 10
454.88952215561648
 20
118.0191447065763
 30
0.0
 70
    32
  0
VERTEX
  5
8EEA
  8
AM_0
 10
454.88552215561708
 20
118.0191447065763
 30
0.0
 70
    32
  0
VERTEX
  5
8EEB
  8
AM_0
 10
454.88052215561652
 20
118.0181447065745
 30
0.0
 70
    32
  0
VERTEX
  5
8EEC
  8
AM_0
 10
454.87652215561712
 20
118.01714470657519
 30
0.0
 70
    32
  0
VERTEX
  5
8EED
  8
AM_0
 10
454.8725221556171
 20
118.01714470657519
 30
0.0
 70
    32
  0
VERTEX
  5
8EEE
  8
AM_0
 10
454.86852215561618
 20
118.0161447065752
 30
0.0
 70
    32
  0
VERTEX
  5
8EEF
  8
AM_0
 10
454.86352215561698
 20
118.0151447065752
 30
0.0
 70
    32
  0
VERTEX
  5
8EF0
  8
AM_0
 10
454.85952215561622
 20
118.0151447065752
 30
0.0
 70
    32
  0
VERTEX
  5
8EF1
  8
AM_0
 10
454.85552215561688
 20
118.0141447065743
 30
0.0
 70
    32
  0
VERTEX
  5
8EF2
  8
AM_0
 10
454.85152215561652
 20
118.0131447065753
 30
0.0
 70
    32
  0
VERTEX
  5
8EF3
  8
AM_0
 10
454.84752215561679
 20
118.0121447065753
 30
0.0
 70
    32
  0
VERTEX
  5
8EF4
  8
AM_0
 10
454.84252215561679
 20
118.0121447065753
 30
0.0
 70
    32
  0
VERTEX
  5
8EF5
  8
AM_0
 10
454.838522155617
 20
118.01114470657519
 30
0.0
 70
    32
  0
VERTEX
  5
8EF6
  8
AM_0
 10
454.83452215561698
 20
118.0101447065753
 30
0.0
 70
    32
  0
VERTEX
  5
8EF7
  8
AM_0
 10
454.83052215561611
 20
118.0101447065753
 30
0.0
 70
    32
  0
VERTEX
  5
8EF8
  8
AM_0
 10
454.82652215561632
 20
118.0091447065753
 30
0.0
 70
    32
  0
VERTEX
  5
8EF9
  8
AM_0
 10
454.82152215561479
 20
118.00814470657539
 30
0.0
 70
    32
  0
VERTEX
  5
8EFA
  8
AM_0
 10
454.81752215561681
 20
118.0071447065752
 30
0.0
 70
    32
  0
VERTEX
  5
8EFB
  8
AM_0
 10
454.81352215561628
 20
118.0071447065752
 30
0.0
 70
    32
  0
VERTEX
  5
8EFC
  8
AM_0
 10
454.80952215561689
 20
118.0061447065752
 30
0.0
 70
    32
  0
VERTEX
  5
8EFD
  8
AM_0
 10
454.8055221556171
 20
118.0051447065743
 30
0.0
 70
    32
  0
VERTEX
  5
8EFE
  8
AM_0
 10
454.80052215561687
 20
118.0041447065752
 30
0.0
 70
    32
  0
VERTEX
  5
8EFF
  8
AM_0
 10
454.79652215561708
 20
118.0041447065752
 30
0.0
 70
    32
  0
VERTEX
  5
8F00
  8
AM_0
 10
454.79252215561621
 20
118.0031447065753
 30
0.0
 70
    32
  0
VERTEX
  5
8F01
  8
AM_0
 10
454.78852215561682
 20
118.00214470657529
 30
0.0
 70
    32
  0
VERTEX
  5
8F02
  8
AM_0
 10
454.78452215561651
 20
118.0011447065753
 30
0.0
 70
    32
  0
VERTEX
  5
8F03
  8
AM_0
 10
454.7795221556168
 20
118.0011447065753
 30
0.0
 70
    32
  0
VERTEX
  5
8F04
  8
AM_0
 10
454.77552215561639
 20
118.00014470657619
 30
0.0
 70
    32
  0
VERTEX
  5
8F05
  8
AM_0
 10
454.77152215561688
 20
117.99914470657539
 30
0.0
 70
    32
  0
VERTEX
  5
8F06
  8
AM_0
 10
454.76752215561697
 20
117.9981447065752
 30
0.0
 70
    32
  0
VERTEX
  5
8F07
  8
AM_0
 10
454.76352215561622
 20
117.9981447065752
 30
0.0
 70
    32
  0
VERTEX
  5
8F08
  8
AM_0
 10
454.75852215561702
 20
117.9971447065743
 30
0.0
 70
    32
  0
VERTEX
  5
8F09
  8
AM_0
 10
454.75452215561631
 20
117.9961447065743
 30
0.0
 70
    32
  0
VERTEX
  5
8F0A
  8
AM_0
 10
454.75052215561692
 20
117.9951447065752
 30
0.0
 70
    32
  0
VERTEX
  5
8F0B
  8
AM_0
 10
454.7465221556165
 20
117.9941447065752
 30
0.0
 70
    32
  0
VERTEX
  5
8F0C
  8
AM_0
 10
454.742522155617
 20
117.9941447065752
 30
0.0
 70
    32
  0
VERTEX
  5
8F0D
  8
AM_0
 10
454.73752215561649
 20
117.99314470657529
 30
0.0
 70
    32
  0
VERTEX
  5
8F0E
  8
AM_0
 10
454.73352215561692
 20
117.9921447065753
 30
0.0
 70
    32
  0
VERTEX
  5
8F0F
  8
AM_0
 10
454.72952215561702
 20
117.9911447065753
 30
0.0
 70
    32
  0
VERTEX
  5
8F10
  8
AM_0
 10
454.72552215561632
 20
117.99014470657541
 30
0.0
 70
    32
  0
VERTEX
  5
8F11
  8
AM_0
 10
454.72152215561641
 20
117.99014470657541
 30
0.0
 70
    32
  0
VERTEX
  5
8F12
  8
AM_0
 10
454.7165221556163
 20
117.9891447065763
 30
0.0
 70
    32
  0
VERTEX
  5
8F13
  8
AM_0
 10
454.7125221556168
 20
117.9881447065752
 30
0.0
 70
    32
  0
VERTEX
  5
8F14
  8
AM_0
 10
454.70852215561649
 20
117.9871447065742
 30
0.0
 70
    32
  0
VERTEX
  5
8F15
  8
AM_0
 10
454.70452215561693
 20
117.9861447065752
 30
0.0
 70
    32
  0
VERTEX
  5
8F16
  8
AM_0
 10
454.70052215561708
 20
117.9851447065752
 30
0.0
 70
    32
  0
VERTEX
  5
8F17
  8
AM_0
 10
454.69652215561678
 20
117.9851447065752
 30
0.0
 70
    32
  0
VERTEX
  5
8F18
  8
AM_0
 10
454.69152215561712
 20
117.98414470657529
 30
0.0
 70
    32
  0
VERTEX
  5
8F19
  8
AM_0
 10
454.68752215561608
 20
117.9831447065753
 30
0.0
 70
    32
  0
VERTEX
  5
8F1A
  8
AM_0
 10
454.6835221556164
 20
117.9821447065753
 30
0.0
 70
    32
  0
VERTEX
  5
8F1B
  8
AM_0
 10
454.67952215561689
 20
117.98114470657529
 30
0.0
 70
    32
  0
VERTEX
  5
8F1C
  8
AM_0
 10
454.67552215561687
 20
117.9801447065754
 30
0.0
 70
    32
  0
VERTEX
  5
8F1D
  8
AM_0
 10
454.67052215561631
 20
117.9791447065754
 30
0.0
 70
    32
  0
VERTEX
  5
8F1E
  8
AM_0
 10
454.6665221556168
 20
117.9791447065754
 30
0.0
 70
    32
  0
VERTEX
  5
8F1F
  8
AM_0
 10
454.66252215561713
 20
117.9781447065743
 30
0.0
 70
    32
  0
VERTEX
  5
8F20
  8
AM_0
 10
454.65852215561671
 20
117.9771447065752
 30
0.0
 70
    32
  0
VERTEX
  5
8F21
  8
AM_0
 10
454.65452215561641
 20
117.9761447065752
 30
0.0
 70
    32
  0
VERTEX
  5
8F22
  8
AM_0
 10
454.65052215561678
 20
117.97514470657519
 30
0.0
 70
    32
  0
VERTEX
  5
8F23
  8
AM_0
 10
454.64552215561679
 20
117.9741447065753
 30
0.0
 70
    32
  0
VERTEX
  5
8F24
  8
AM_0
 10
454.64152215561688
 20
117.9731447065753
 30
0.0
 70
    32
  0
VERTEX
  5
8F25
  8
AM_0
 10
454.63752215561692
 20
117.97214470657531
 30
0.0
 70
    32
  0
VERTEX
  5
8F26
  8
AM_0
 10
454.63352215561702
 20
117.9711447065753
 30
0.0
 70
    32
  0
VERTEX
  5
8F27
  8
AM_0
 10
454.62952215561631
 20
117.9711447065753
 30
0.0
 70
    32
  0
VERTEX
  5
8F28
  8
AM_0
 10
454.62552215561641
 20
117.97014470657631
 30
0.0
 70
    32
  0
VERTEX
  5
8F29
  8
AM_0
 10
454.62052215561658
 20
117.9691447065742
 30
0.0
 70
    32
  0
VERTEX
  5
8F2A
  8
AM_0
 10
454.61652215561622
 20
117.9681447065752
 30
0.0
 70
    32
  0
VERTEX
  5
8F2B
  8
AM_0
 10
454.61252215561677
 20
117.9671447065752
 30
0.0
 70
    32
  0
VERTEX
  5
8F2C
  8
AM_0
 10
454.60852215561692
 20
117.96614470657519
 30
0.0
 70
    32
  0
VERTEX
  5
8F2D
  8
AM_0
 10
454.60452215561708
 20
117.9651447065753
 30
0.0
 70
    32
  0
VERTEX
  5
8F2E
  8
AM_0
 10
454.60052215561632
 20
117.9641447065753
 30
0.0
 70
    32
  0
VERTEX
  5
8F2F
  8
AM_0
 10
454.595522155617
 20
117.96314470657531
 30
0.0
 70
    32
  0
VERTEX
  5
8F30
  8
AM_0
 10
454.59152215561681
 20
117.9621447065762
 30
0.0
 70
    32
  0
VERTEX
  5
8F31
  8
AM_0
 10
454.5875221556164
 20
117.9611447065753
 30
0.0
 70
    32
  0
VERTEX
  5
8F32
  8
AM_0
 10
454.58352215561689
 20
117.96014470657541
 30
0.0
 70
    32
  0
VERTEX
  5
8F33
  8
AM_0
 10
454.57952215561681
 20
117.95914470657431
 30
0.0
 70
    32
  0
VERTEX
  5
8F34
  8
AM_0
 10
454.57552215561702
 20
117.9581447065752
 30
0.0
 70
    32
  0
VERTEX
  5
8F35
  8
AM_0
 10
454.5705221556168
 20
117.95714470657521
 30
0.0
 70
    32
  0
VERTEX
  5
8F36
  8
AM_0
 10
454.56652215561712
 20
117.9561447065752
 30
0.0
 70
    32
  0
VERTEX
  5
8F37
  8
AM_0
 10
454.56252215561608
 20
117.9551447065753
 30
0.0
 70
    32
  0
VERTEX
  5
8F38
  8
AM_0
 10
454.5585221556168
 20
117.9541447065744
 30
0.0
 70
    32
  0
VERTEX
  5
8F39
  8
AM_0
 10
454.55452215561678
 20
117.9531447065753
 30
0.0
 70
    32
  0
VERTEX
  5
8F3A
  8
AM_0
 10
454.55052215561687
 20
117.9521447065753
 30
0.0
 70
    32
  0
VERTEX
  5
8F3B
  8
AM_0
 10
454.54652215561612
 20
117.95114470657541
 30
0.0
 70
    32
  0
VERTEX
  5
8F3C
  8
AM_0
 10
454.54152215561692
 20
117.9501447065752
 30
0.0
 70
    32
  0
VERTEX
  5
8F3D
  8
AM_0
 10
454.53752215561713
 20
117.9491447065752
 30
0.0
 70
    32
  0
VERTEX
  5
8F3E
  8
AM_0
 10
454.53352215561631
 20
117.94814470657521
 30
0.0
 70
    32
  0
VERTEX
  5
8F3F
  8
AM_0
 10
454.5295221556168
 20
117.9471447065752
 30
0.0
 70
    32
  0
VERTEX
  5
8F40
  8
AM_0
 10
454.5255221556169
 20
117.9461447065752
 30
0.0
 70
    32
  0
VERTEX
  5
8F41
  8
AM_0
 10
454.52152215561688
 20
117.9451447065744
 30
0.0
 70
    32
  0
VERTEX
  5
8F42
  8
AM_0
 10
454.51652215561688
 20
117.9441447065753
 30
0.0
 70
    32
  0
VERTEX
  5
8F43
  8
AM_0
 10
454.51252215561692
 20
117.94314470657621
 30
0.0
 70
    32
  0
VERTEX
  5
8F44
  8
AM_0
 10
454.50852215561622
 20
117.94214470657541
 30
0.0
 70
    32
  0
VERTEX
  5
8F45
  8
AM_0
 10
454.50452215561631
 20
117.9411447065754
 30
0.0
 70
    32
  0
VERTEX
  5
8F46
  8
AM_0
 10
454.50052215561681
 20
117.9401447065743
 30
0.0
 70
    32
  0
VERTEX
  5
8F47
  8
AM_0
 10
454.4965221556169
 20
117.93914470657521
 30
0.0
 70
    32
  0
VERTEX
  5
8F48
  8
AM_0
 10
454.49252215561609
 20
117.9381447065752
 30
0.0
 70
    32
  0
VERTEX
  5
8F49
  8
AM_0
 10
454.48852215561612
 20
117.9371447065752
 30
0.0
 70
    32
  0
VERTEX
  5
8F4A
  8
AM_0
 10
454.48352215561653
 20
117.93614470657531
 30
0.0
 70
    32
  0
VERTEX
  5
8F4B
  8
AM_0
 10
454.47952215561611
 20
117.9351447065753
 30
0.0
 70
    32
  0
VERTEX
  5
8F4C
  8
AM_0
 10
454.47552215561672
 20
117.9341447065753
 30
0.0
 70
    32
  0
VERTEX
  5
8F4D
  8
AM_0
 10
454.47152215561692
 20
117.9321447065754
 30
0.0
 70
    32
  0
VERTEX
  5
8F4E
  8
AM_0
 10
454.46752215561679
 20
117.9311447065763
 30
0.0
 70
    32
  0
VERTEX
  5
8F4F
  8
AM_0
 10
454.46352215561512
 20
117.93014470657521
 30
0.0
 70
    32
  0
VERTEX
  5
8F50
  8
AM_0
 10
454.45952215561613
 20
117.9291447065752
 30
0.0
 70
    32
  0
VERTEX
  5
8F51
  8
AM_0
 10
454.45552215561668
 20
117.9281447065752
 30
0.0
 70
    32
  0
VERTEX
  5
8F52
  8
AM_0
 10
454.45052215561611
 20
117.9271447065743
 30
0.0
 70
    32
  0
VERTEX
  5
8F53
  8
AM_0
 10
454.44652215561672
 20
117.9261447065753
 30
0.0
 70
    32
  0
VERTEX
  5
8F54
  8
AM_0
 10
454.44252215561681
 20
117.9251447065753
 30
0.0
 70
    32
  0
VERTEX
  5
8F55
  8
AM_0
 10
454.43852215561651
 20
117.9241447065762
 30
0.0
 70
    32
  0
VERTEX
  5
8F56
  8
AM_0
 10
454.43452215561513
 20
117.92214470657539
 30
0.0
 70
    32
  0
VERTEX
  5
8F57
  8
AM_0
 10
454.4305221556171
 20
117.9211447065742
 30
0.0
 70
    32
  0
VERTEX
  5
8F58
  8
AM_0
 10
454.42652215561679
 20
117.9201447065752
 30
0.0
 70
    32
  0
VERTEX
  5
8F59
  8
AM_0
 10
454.42252215561678
 20
117.9191447065752
 30
0.0
 70
    32
  0
VERTEX
  5
8F5A
  8
AM_0
 10
454.41752215561678
 20
117.9181447065743
 30
0.0
 70
    32
  0
VERTEX
  5
8F5B
  8
AM_0
 10
454.4135221556167
 20
117.9171447065753
 30
0.0
 70
    32
  0
VERTEX
  5
8F5C
  8
AM_0
 10
454.4095221556164
 20
117.9161447065753
 30
0.0
 70
    32
  0
VERTEX
  5
8F5D
  8
AM_0
 10
454.40552215561621
 20
117.9141447065753
 30
0.0
 70
    32
  0
VERTEX
  5
8F5E
  8
AM_0
 10
454.4015221556171
 20
117.9131447065753
 30
0.0
 70
    32
  0
VERTEX
  5
8F5F
  8
AM_0
 10
454.39752215561617
 20
117.9121447065763
 30
0.0
 70
    32
  0
VERTEX
  5
8F60
  8
AM_0
 10
454.39352215561632
 20
117.9111447065752
 30
0.0
 70
    32
  0
VERTEX
  5
8F61
  8
AM_0
 10
454.38952215561648
 20
117.9101447065752
 30
0.0
 70
    32
  0
VERTEX
  5
8F62
  8
AM_0
 10
454.38552215561691
 20
117.9091447065742
 30
0.0
 70
    32
  0
VERTEX
  5
8F63
  8
AM_0
 10
454.38152215561632
 20
117.90714470657529
 30
0.0
 70
    32
  0
VERTEX
  5
8F64
  8
AM_0
 10
454.3765221556161
 20
117.9061447065753
 30
0.0
 70
    32
  0
VERTEX
  5
8F65
  8
AM_0
 10
454.3725221556171
 20
117.9051447065753
 30
0.0
 70
    32
  0
VERTEX
  5
8F66
  8
AM_0
 10
454.3685221556168
 20
117.90414470657529
 30
0.0
 70
    32
  0
VERTEX
  5
8F67
  8
AM_0
 10
454.36452215561638
 20
117.9031447065763
 30
0.0
 70
    32
  0
VERTEX
  5
8F68
  8
AM_0
 10
454.36052215561648
 20
117.9011447065752
 30
0.0
 70
    32
  0
VERTEX
  5
8F69
  8
AM_0
 10
454.35652215561691
 20
117.9001447065743
 30
0.0
 70
    32
  0
VERTEX
  5
8F6A
  8
AM_0
 10
454.3525221556161
 20
117.8991447065752
 30
0.0
 70
    32
  0
VERTEX
  5
8F6B
  8
AM_0
 10
454.34852215561801
 20
117.8981447065752
 30
0.0
 70
    32
  0
VERTEX
  5
8F6C
  8
AM_0
 10
454.34452215561629
 20
117.8961447065753
 30
0.0
 70
    32
  0
VERTEX
  5
8F6D
  8
AM_0
 10
454.34052215561678
 20
117.89514470657519
 30
0.0
 70
    32
  0
VERTEX
  5
8F6E
  8
AM_0
 10
454.33652215561608
 20
117.8941447065763
 30
0.0
 70
    32
  0
VERTEX
  5
8F6F
  8
AM_0
 10
454.33152215561648
 20
117.89314470657629
 30
0.0
 70
    32
  0
VERTEX
  5
8F70
  8
AM_0
 10
454.32752215561612
 20
117.89114470657429
 30
0.0
 70
    32
  0
VERTEX
  5
8F71
  8
AM_0
 10
454.32352215561713
 20
117.8901447065752
 30
0.0
 70
    32
  0
VERTEX
  5
8F72
  8
AM_0
 10
454.31952215561631
 20
117.88914470657519
 30
0.0
 70
    32
  0
VERTEX
  5
8F73
  8
AM_0
 10
454.31552215561652
 20
117.8881447065753
 30
0.0
 70
    32
  0
VERTEX
  5
8F74
  8
AM_0
 10
454.3115221556165
 20
117.8861447065765
 30
0.0
 70
    32
  0
VERTEX
  5
8F75
  8
AM_0
 10
454.30752215561603
 20
117.8851447065753
 30
0.0
 70
    32
  0
VERTEX
  5
8F76
  8
AM_0
 10
454.303522155618
 20
117.88414470657629
 30
0.0
 70
    32
  0
VERTEX
  5
8F77
  8
AM_0
 10
454.29952215561622
 20
117.88314470657539
 30
0.0
 70
    32
  0
VERTEX
  5
8F78
  8
AM_0
 10
454.29552215561631
 20
117.8811447065743
 30
0.0
 70
    32
  0
VERTEX
  5
8F79
  8
AM_0
 10
454.29152215561652
 20
117.88014470657519
 30
0.0
 70
    32
  0
VERTEX
  5
8F7A
  8
AM_0
 10
454.28752215561713
 20
117.8791447065753
 30
0.0
 70
    32
  0
VERTEX
  5
8F7B
  8
AM_0
 10
454.28352215561608
 20
117.87714470657529
 30
0.0
 70
    32
  0
VERTEX
  5
8F7C
  8
AM_0
 10
454.27852215561711
 20
117.8761447065762
 30
0.0
 70
    32
  0
VERTEX
  5
8F7D
  8
AM_0
 10
454.27452215561613
 20
117.87514470657619
 30
0.0
 70
    32
  0
VERTEX
  5
8F7E
  8
AM_0
 10
454.27052215561639
 20
117.87314470657429
 30
0.0
 70
    32
  0
VERTEX
  5
8F7F
  8
AM_0
 10
454.26652215561643
 20
117.8721447065752
 30
0.0
 70
    32
  0
VERTEX
  5
8F80
  8
AM_0
 10
454.26252215561652
 20
117.87114470657519
 30
0.0
 70
    32
  0
VERTEX
  5
8F81
  8
AM_0
 10
454.25852215561702
 20
117.8691447065753
 30
0.0
 70
    32
  0
VERTEX
  5
8F82
  8
AM_0
 10
454.25452215561631
 20
117.86814470657519
 30
0.0
 70
    32
  0
VERTEX
  5
8F83
  8
AM_0
 10
454.25052215561618
 20
117.8671447065764
 30
0.0
 70
    32
  0
VERTEX
  5
8F84
  8
AM_0
 10
454.2465221556165
 20
117.86514470657519
 30
0.0
 70
    32
  0
VERTEX
  5
8F85
  8
AM_0
 10
454.242522155617
 20
117.86414470657451
 30
0.0
 70
    32
  0
VERTEX
  5
8F86
  8
AM_0
 10
454.23852215561612
 20
117.8631447065743
 30
0.0
 70
    32
  0
VERTEX
  5
8F87
  8
AM_0
 10
454.23452215561611
 20
117.8611447065752
 30
0.0
 70
    32
  0
VERTEX
  5
8F88
  8
AM_0
 10
454.23052215561631
 20
117.8601447065752
 30
0.0
 70
    32
  0
VERTEX
  5
8F89
  8
AM_0
 10
454.22652215561692
 20
117.85914470657529
 30
0.0
 70
    32
  0
VERTEX
  5
8F8A
  8
AM_0
 10
454.22252215561622
 20
117.85714470657641
 30
0.0
 70
    32
  0
VERTEX
  5
8F8B
  8
AM_0
 10
454.21852215561711
 20
117.85614470657529
 30
0.0
 70
    32
  0
VERTEX
  5
8F8C
  8
AM_0
 10
454.21452215561811
 20
117.8541447065742
 30
0.0
 70
    32
  0
VERTEX
  5
8F8D
  8
AM_0
 10
454.21052215561627
 20
117.85314470657519
 30
0.0
 70
    32
  0
VERTEX
  5
8F8E
  8
AM_0
 10
454.20652215561648
 20
117.8521447065752
 30
0.0
 70
    32
  0
VERTEX
  5
8F8F
  8
AM_0
 10
454.20252215561709
 20
117.85014470657519
 30
0.0
 70
    32
  0
VERTEX
  5
8F90
  8
AM_0
 10
454.19852215561718
 20
117.8491447065764
 30
0.0
 70
    32
  0
VERTEX
  5
8F91
  8
AM_0
 10
454.1945221556162
 20
117.84714470657531
 30
0.0
 70
    32
  0
VERTEX
  5
8F92
  8
AM_0
 10
454.19052215561641
 20
117.8461447065753
 30
0.0
 70
    32
  0
VERTEX
  5
8F93
  8
AM_0
 10
454.1865221556165
 20
117.8451447065754
 30
0.0
 70
    32
  0
VERTEX
  5
8F94
  8
AM_0
 10
454.18252215561779
 20
117.84314470657429
 30
0.0
 70
    32
  0
VERTEX
  5
8F95
  8
AM_0
 10
454.17852215561601
 20
117.8421447065752
 30
0.0
 70
    32
  0
VERTEX
  5
8F96
  8
AM_0
 10
454.17352215561692
 20
117.8401447065753
 30
0.0
 70
    32
  0
VERTEX
  5
8F97
  8
AM_0
 10
454.16952215561719
 20
117.8391447065753
 30
0.0
 70
    32
  0
VERTEX
  5
8F98
  8
AM_0
 10
454.16552215561802
 20
117.8371447065753
 30
0.0
 70
    32
  0
VERTEX
  5
8F99
  8
AM_0
 10
454.1615221556163
 20
117.8361447065753
 30
0.0
 70
    32
  0
VERTEX
  5
8F9A
  8
AM_0
 10
454.15752215561679
 20
117.8341447065752
 30
0.0
 70
    32
  0
VERTEX
  5
8F9B
  8
AM_0
 10
454.15352215561722
 20
117.8331447065743
 30
0.0
 70
    32
  0
VERTEX
  5
8F9C
  8
AM_0
 10
454.1495221556163
 20
117.8311447065752
 30
0.0
 70
    32
  0
VERTEX
  5
8F9D
  8
AM_0
 10
454.14552215561611
 20
117.83014470657641
 30
0.0
 70
    32
  0
VERTEX
  5
8F9E
  8
AM_0
 10
454.14152215561649
 20
117.8281447065753
 30
0.0
 70
    32
  0
VERTEX
  5
8F9F
  8
AM_0
 10
454.13752215561692
 20
117.8271447065744
 30
0.0
 70
    32
  0
VERTEX
  5
8FA0
  8
AM_0
 10
454.13352215561702
 20
117.82514470657431
 30
0.0
 70
    32
  0
VERTEX
  5
8FA1
  8
AM_0
 10
454.12952215561808
 20
117.8241447065743
 30
0.0
 70
    32
  0
VERTEX
  5
8FA2
  8
AM_0
 10
454.1255221556163
 20
117.8221447065764
 30
0.0
 70
    32
  0
VERTEX
  5
8FA3
  8
AM_0
 10
454.1215221556169
 20
117.8211447065752
 30
0.0
 70
    32
  0
VERTEX
  5
8FA4
  8
AM_0
 10
454.11752215561597
 20
117.8191447065753
 30
0.0
 70
    32
  0
VERTEX
  5
8FA5
  8
AM_0
 10
454.11352215561709
 20
117.8181447065753
 30
0.0
 70
    32
  0
VERTEX
  5
8FA6
  8
AM_0
 10
454.11052215561648
 20
117.8161447065763
 30
0.0
 70
    32
  0
VERTEX
  5
8FA7
  8
AM_0
 10
454.10652215561799
 20
117.8151447065752
 30
0.0
 70
    32
  0
VERTEX
  5
8FA8
  8
AM_0
 10
454.10252215561712
 20
117.81314470657431
 30
0.0
 70
    32
  0
VERTEX
  5
8FA9
  8
AM_0
 10
454.09852215561619
 20
117.8121447065752
 30
0.0
 70
    32
  0
VERTEX
  5
8FAA
  8
AM_0
 10
454.0945221556164
 20
117.8101447065753
 30
0.0
 70
    32
  0
VERTEX
  5
8FAB
  8
AM_0
 10
454.0905221556169
 20
117.8091447065753
 30
0.0
 70
    32
  0
VERTEX
  5
8FAC
  8
AM_0
 10
454.08652215561688
 20
117.8071447065754
 30
0.0
 70
    32
  0
VERTEX
  5
8FAD
  8
AM_0
 10
454.0825221556172
 20
117.8051447065743
 30
0.0
 70
    32
  0
VERTEX
  5
8FAE
  8
AM_0
 10
454.07852215561479
 20
117.8041447065752
 30
0.0
 70
    32
  0
VERTEX
  5
8FAF
  8
AM_0
 10
454.07452215561688
 20
117.80214470657521
 30
0.0
 70
    32
  0
VERTEX
  5
8FB0
  8
AM_0
 10
454.0705221556168
 20
117.8011447065753
 30
0.0
 70
    32
  0
VERTEX
  5
8FB1
  8
AM_0
 10
454.06652215561712
 20
117.79914470657531
 30
0.0
 70
    32
  0
VERTEX
  5
8FB2
  8
AM_0
 10
454.06252215561631
 20
117.79714470657539
 30
0.0
 70
    32
  0
VERTEX
  5
8FB3
  8
AM_0
 10
454.05852215561617
 20
117.79614470657521
 30
0.0
 70
    32
  0
VERTEX
  5
8FB4
  8
AM_0
 10
454.05452215561678
 20
117.7941447065752
 30
0.0
 70
    32
  0
VERTEX
  5
8FB5
  8
AM_0
 10
454.05052215561687
 20
117.79314470657521
 30
0.0
 70
    32
  0
VERTEX
  5
8FB6
  8
AM_0
 10
454.04652215561703
 20
117.7911447065753
 30
0.0
 70
    32
  0
VERTEX
  5
8FB7
  8
AM_0
 10
454.04252215561633
 20
117.7891447065753
 30
0.0
 70
    32
  0
VERTEX
  5
8FB8
  8
AM_0
 10
454.03852215561631
 20
117.7881447065753
 30
0.0
 70
    32
  0
VERTEX
  5
8FB9
  8
AM_0
 10
454.03452215561629
 20
117.78614470657431
 30
0.0
 70
    32
  0
VERTEX
  5
8FBA
  8
AM_0
 10
454.03052215561792
 20
117.7841447065752
 30
0.0
 70
    32
  0
VERTEX
  5
8FBB
  8
AM_0
 10
454.0265221556171
 20
117.7831447065752
 30
0.0
 70
    32
  0
VERTEX
  5
8FBC
  8
AM_0
 10
454.02252215561617
 20
117.7811447065753
 30
0.0
 70
    32
  0
VERTEX
  5
8FBD
  8
AM_0
 10
454.0195221556171
 20
117.77914470657529
 30
0.0
 70
    32
  0
VERTEX
  5
8FBE
  8
AM_0
 10
454.01552215561719
 20
117.7781447065754
 30
0.0
 70
    32
  0
VERTEX
  5
8FBF
  8
AM_0
 10
454.01152215561621
 20
117.7761447065752
 30
0.0
 70
    32
  0
VERTEX
  5
8FC0
  8
AM_0
 10
454.00752215561693
 20
117.7741447065752
 30
0.0
 70
    32
  0
VERTEX
  5
8FC1
  8
AM_0
 10
454.00352215561651
 20
117.7731447065743
 30
0.0
 70
    32
  0
VERTEX
  5
8FC2
  8
AM_0
 10
453.999522155617
 20
117.7711447065753
 30
0.0
 70
    32
  0
VERTEX
  5
8FC3
  8
AM_0
 10
453.99552215561482
 20
117.7691447065754
 30
0.0
 70
    32
  0
VERTEX
  5
8FC4
  8
AM_0
 10
453.99152215561679
 20
117.7681447065754
 30
0.0
 70
    32
  0
VERTEX
  5
8FC5
  8
AM_0
 10
453.98752215561632
 20
117.7661447065752
 30
0.0
 70
    32
  0
VERTEX
  5
8FC6
  8
AM_0
 10
453.98352215561692
 20
117.76414470657519
 30
0.0
 70
    32
  0
VERTEX
  5
8FC7
  8
AM_0
 10
453.97952215561702
 20
117.7621447065753
 30
0.0
 70
    32
  0
VERTEX
  5
8FC8
  8
AM_0
 10
453.97552215561632
 20
117.76114470657529
 30
0.0
 70
    32
  0
VERTEX
  5
8FC9
  8
AM_0
 10
453.97252215561679
 20
117.75914470657629
 30
0.0
 70
    32
  0
VERTEX
  5
8FCA
  8
AM_0
 10
453.96852215561722
 20
117.7571447065752
 30
0.0
 70
    32
  0
VERTEX
  5
8FCB
  8
AM_0
 10
453.96452215561482
 20
117.7551447065743
 30
0.0
 70
    32
  0
VERTEX
  5
8FCC
  8
AM_0
 10
453.96052215561679
 20
117.7541447065752
 30
0.0
 70
    32
  0
VERTEX
  5
8FCD
  8
AM_0
 10
453.95652215561688
 20
117.75214470657529
 30
0.0
 70
    32
  0
VERTEX
  5
8FCE
  8
AM_0
 10
453.95252215561692
 20
117.7501447065753
 30
0.0
 70
    32
  0
VERTEX
  5
8FCF
  8
AM_0
 10
453.94852215561713
 20
117.7481447065751
 30
0.0
 70
    32
  0
VERTEX
  5
8FD0
  8
AM_0
 10
453.94452215561631
 20
117.7471447065752
 30
0.0
 70
    32
  0
VERTEX
  5
8FD1
  8
AM_0
 10
453.94052215561692
 20
117.7451447065752
 30
0.0
 70
    32
  0
VERTEX
  5
8FD2
  8
AM_0
 10
453.93752215561631
 20
117.74314470657519
 30
0.0
 70
    32
  0
VERTEX
  5
8FD3
  8
AM_0
 10
453.93352215561617
 20
117.74114470657619
 30
0.0
 70
    32
  0
VERTEX
  5
8FD4
  8
AM_0
 10
453.92952215561689
 20
117.7391447065754
 30
0.0
 70
    32
  0
VERTEX
  5
8FD5
  8
AM_0
 10
453.92552215561687
 20
117.7381447065752
 30
0.0
 70
    32
  0
VERTEX
  5
8FD6
  8
AM_0
 10
453.92152215561708
 20
117.7361447065752
 30
0.0
 70
    32
  0
VERTEX
  5
8FD7
  8
AM_0
 10
453.91752215561621
 20
117.73414470657529
 30
0.0
 70
    32
  0
VERTEX
  5
8FD8
  8
AM_0
 10
453.91352215561631
 20
117.7321447065753
 30
0.0
 70
    32
  0
VERTEX
  5
8FD9
  8
AM_0
 10
453.910522155617
 20
117.7301447065754
 30
0.0
 70
    32
  0
VERTEX
  5
8FDA
  8
AM_0
 10
453.9065221556163
 20
117.72914470657631
 30
0.0
 70
    32
  0
VERTEX
  5
8FDB
  8
AM_0
 10
453.90252215561691
 20
117.7271447065752
 30
0.0
 70
    32
  0
VERTEX
  5
8FDC
  8
AM_0
 10
453.898522155617
 20
117.72514470657519
 30
0.0
 70
    32
  0
VERTEX
  5
8FDD
  8
AM_0
 10
453.89452215561681
 20
117.7231447065753
 30
0.0
 70
    32
  0
VERTEX
  5
8FDE
  8
AM_0
 10
453.89052215561719
 20
117.7211447065763
 30
0.0
 70
    32
  0
VERTEX
  5
8FDF
  8
AM_0
 10
453.88652215561677
 20
117.7191447065742
 30
0.0
 70
    32
  0
VERTEX
  5
8FE0
  8
AM_0
 10
453.88352215561702
 20
117.7171447065752
 30
0.0
 70
    32
  0
VERTEX
  5
8FE1
  8
AM_0
 10
453.87952215561631
 20
117.7151447065753
 30
0.0
 70
    32
  0
VERTEX
  5
8FE2
  8
AM_0
 10
453.8755221556163
 20
117.71414470657641
 30
0.0
 70
    32
  0
VERTEX
  5
8FE3
  8
AM_0
 10
453.87152215561679
 20
117.7121447065753
 30
0.0
 70
    32
  0
VERTEX
  5
8FE4
  8
AM_0
 10
453.867522155617
 20
117.71014470657541
 30
0.0
 70
    32
  0
VERTEX
  5
8FE5
  8
AM_0
 10
453.86452215561678
 20
117.7081447065752
 30
0.0
 70
    32
  0
VERTEX
  5
8FE6
  8
AM_0
 10
453.86052215561688
 20
117.70614470657431
 30
0.0
 70
    32
  0
VERTEX
  5
8FE7
  8
AM_0
 10
453.85652215561691
 20
117.70414470657531
 30
0.0
 70
    32
  0
VERTEX
  5
8FE8
  8
AM_0
 10
453.85252215561712
 20
117.70214470657621
 30
0.0
 70
    32
  0
VERTEX
  5
8FE9
  8
AM_0
 10
453.84852215561682
 20
117.7001447065751
 30
0.0
 70
    32
  0
VERTEX
  5
8FEA
  8
AM_0
 10
453.84552215561712
 20
117.69814470657521
 30
0.0
 70
    32
  0
VERTEX
  5
8FEB
  8
AM_0
 10
453.8415221556163
 20
117.6961447065753
 30
0.0
 70
    32
  0
VERTEX
  5
8FEC
  8
AM_0
 10
453.83752215561623
 20
117.6941447065753
 30
0.0
 70
    32
  0
VERTEX
  5
8FED
  8
AM_0
 10
453.83352215561678
 20
117.6921447065762
 30
0.0
 70
    32
  0
VERTEX
  5
8FEE
  8
AM_0
 10
453.82952215561693
 20
117.6901447065752
 30
0.0
 70
    32
  0
VERTEX
  5
8FEF
  8
AM_0
 10
453.82652215561677
 20
117.6881447065752
 30
0.0
 70
    32
  0
VERTEX
  5
8FF0
  8
AM_0
 10
453.82252215561692
 20
117.68614470657531
 30
0.0
 70
    32
  0
VERTEX
  5
8FF1
  8
AM_0
 10
453.81852215561707
 20
117.6841447065764
 30
0.0
 70
    32
  0
VERTEX
  5
8FF2
  8
AM_0
 10
453.81452215561711
 20
117.6821447065754
 30
0.0
 70
    32
  0
VERTEX
  5
8FF3
  8
AM_0
 10
453.8105221556167
 20
117.68014470657521
 30
0.0
 70
    32
  0
VERTEX
  5
8FF4
  8
AM_0
 10
453.80752215561688
 20
117.6781447065752
 30
0.0
 70
    32
  0
VERTEX
  5
8FF5
  8
AM_0
 10
453.80352215561669
 20
117.67614470657639
 30
0.0
 70
    32
  0
VERTEX
  5
8FF6
  8
AM_0
 10
453.79952215561639
 20
117.67414470657531
 30
0.0
 70
    32
  0
VERTEX
  5
8FF7
  8
AM_0
 10
453.79552215561688
 20
117.67214470657539
 30
0.0
 70
    32
  0
VERTEX
  5
8FF8
  8
AM_0
 10
453.79252215561633
 20
117.67014470657431
 30
0.0
 70
    32
  0
VERTEX
  5
8FF9
  8
AM_0
 10
453.78852215561687
 20
117.66814470657521
 30
0.0
 70
    32
  0
VERTEX
  5
8FFA
  8
AM_0
 10
453.7845221556168
 20
117.6661447065753
 30
0.0
 70
    32
  0
VERTEX
  5
8FFB
  8
AM_0
 10
453.78052215561678
 20
117.6641447065753
 30
0.0
 70
    32
  0
VERTEX
  5
8FFC
  8
AM_0
 10
453.77752215561679
 20
117.6621447065754
 30
0.0
 70
    32
  0
VERTEX
  5
8FFD
  8
AM_0
 10
453.773522155617
 20
117.6601447065743
 30
0.0
 70
    32
  0
VERTEX
  5
8FFE
  8
AM_0
 10
453.76952215561693
 20
117.6581447065752
 30
0.0
 70
    32
  0
VERTEX
  5
8FFF
  8
AM_0
 10
453.76652215561688
 20
117.6561447065753
 30
0.0
 70
    32
  0
VERTEX
  5
9000
  8
AM_0
 10
453.76252215561692
 20
117.6531447065753
 30
0.0
 70
    32
  0
VERTEX
  5
9001
  8
AM_0
 10
453.75852215561611
 20
117.6511447065752
 30
0.0
 70
    32
  0
VERTEX
  5
9002
  8
AM_0
 10
453.75452215561631
 20
117.6491447065752
 30
0.0
 70
    32
  0
VERTEX
  5
9003
  8
AM_0
 10
453.75152215561678
 20
117.6471447065753
 30
0.0
 70
    32
  0
VERTEX
  5
9004
  8
AM_0
 10
453.74752215561608
 20
117.64514470657519
 30
0.0
 70
    32
  0
VERTEX
  5
9005
  8
AM_0
 10
453.7435221556168
 20
117.6431447065745
 30
0.0
 70
    32
  0
VERTEX
  5
9006
  8
AM_0
 10
453.74052215561608
 20
117.6411447065742
 30
0.0
 70
    32
  0
VERTEX
  5
9007
  8
AM_0
 10
453.73652215561623
 20
117.63914470657519
 30
0.0
 70
    32
  0
VERTEX
  5
9008
  8
AM_0
 10
453.73252215561678
 20
117.63614470657529
 30
0.0
 70
    32
  0
VERTEX
  5
9009
  8
AM_0
 10
453.7295221556152
 20
117.6341447065754
 30
0.0
 70
    32
  0
VERTEX
  5
900A
  8
AM_0
 10
453.72552215561677
 20
117.6321447065752
 30
0.0
 70
    32
  0
VERTEX
  5
900B
  8
AM_0
 10
453.7215221556167
 20
117.63014470657519
 30
0.0
 70
    32
  0
VERTEX
  5
900C
  8
AM_0
 10
453.71852215561711
 20
117.6281447065744
 30
0.0
 70
    32
  0
VERTEX
  5
900D
  8
AM_0
 10
453.71452215561618
 20
117.62514470657629
 30
0.0
 70
    32
  0
VERTEX
  5
900E
  8
AM_0
 10
453.7105221556169
 20
117.6231447065752
 30
0.0
 70
    32
  0
VERTEX
  5
900F
  8
AM_0
 10
453.70752215561618
 20
117.62114470657519
 30
0.0
 70
    32
  0
VERTEX
  5
9010
  8
AM_0
 10
453.70352215561678
 20
117.6191447065743
 30
0.0
 70
    32
  0
VERTEX
  5
9011
  8
AM_0
 10
453.69952215561688
 20
117.6171447065753
 30
0.0
 70
    32
  0
VERTEX
  5
9012
  8
AM_0
 10
453.69652215561672
 20
117.6141447065754
 30
0.0
 70
    32
  0
VERTEX
  5
9013
  8
AM_0
 10
453.69252215561693
 20
117.61214470657519
 30
0.0
 70
    32
  0
VERTEX
  5
9014
  8
AM_0
 10
453.68852215561679
 20
117.6101447065752
 30
0.0
 70
    32
  0
VERTEX
  5
9015
  8
AM_0
 10
453.68552215561618
 20
117.6081447065753
 30
0.0
 70
    32
  0
VERTEX
  5
9016
  8
AM_0
 10
453.68152215561679
 20
117.6051447065754
 30
0.0
 70
    32
  0
VERTEX
  5
9017
  8
AM_0
 10
453.67852215561612
 20
117.6031447065743
 30
0.0
 70
    32
  0
VERTEX
  5
9018
  8
AM_0
 10
453.67452215561821
 20
117.6011447065743
 30
0.0
 70
    32
  0
VERTEX
  5
9019
  8
AM_0
 10
453.67052215561688
 20
117.5991447065753
 30
0.0
 70
    32
  0
VERTEX
  5
901A
  8
AM_0
 10
453.66752215561672
 20
117.5961447065754
 30
0.0
 70
    32
  0
VERTEX
  5
901B
  8
AM_0
 10
453.66352215561682
 20
117.59414470657519
 30
0.0
 70
    32
  0
VERTEX
  5
901C
  8
AM_0
 10
453.66052215561609
 20
117.5921447065743
 30
0.0
 70
    32
  0
VERTEX
  5
901D
  8
AM_0
 10
453.65652215561681
 20
117.5891447065753
 30
0.0
 70
    32
  0
VERTEX
  5
901E
  8
AM_0
 10
453.65252215561691
 20
117.5871447065762
 30
0.0
 70
    32
  0
VERTEX
  5
901F
  8
AM_0
 10
453.64952215561669
 20
117.58514470657541
 30
0.0
 70
    32
  0
VERTEX
  5
9020
  8
AM_0
 10
453.64552215561679
 20
117.58214470657521
 30
0.0
 70
    32
  0
VERTEX
  5
9021
  8
AM_0
 10
453.64252215561709
 20
117.5801447065753
 30
0.0
 70
    32
  0
VERTEX
  5
9022
  8
AM_0
 10
453.63852215561678
 20
117.5781447065753
 30
0.0
 70
    32
  0
VERTEX
  5
9023
  8
AM_0
 10
453.63552215561708
 20
117.5751447065751
 30
0.0
 70
    32
  0
VERTEX
  5
9024
  8
AM_0
 10
453.6315221556161
 20
117.57314470657521
 30
0.0
 70
    32
  0
VERTEX
  5
9025
  8
AM_0
 10
453.62852215561639
 20
117.5701447065744
 30
0.0
 70
    32
  0
VERTEX
  5
9026
  8
AM_0
 10
453.62452215561609
 20
117.56814470657621
 30
0.0
 70
    32
  0
VERTEX
  5
9027
  8
AM_0
 10
453.6205221556167
 20
117.5661447065754
 30
0.0
 70
    32
  0
VERTEX
  5
9028
  8
AM_0
 10
453.61752215561609
 20
117.5631447065752
 30
0.0
 70
    32
  0
VERTEX
  5
9029
  8
AM_0
 10
453.61352215561709
 20
117.56114470657531
 30
0.0
 70
    32
  0
VERTEX
  5
902A
  8
AM_0
 10
453.61052215561648
 20
117.55814470657531
 30
0.0
 70
    32
  0
VERTEX
  5
902B
  8
AM_0
 10
453.60652215561601
 20
117.5561447065742
 30
0.0
 70
    32
  0
VERTEX
  5
902C
  8
AM_0
 10
453.6035221556163
 20
117.5531447065752
 30
0.0
 70
    32
  0
VERTEX
  5
902D
  8
AM_0
 10
453.59952215561663
 20
117.5511447065753
 30
0.0
 70
    32
  0
VERTEX
  5
902E
  8
AM_0
 10
453.5965221556163
 20
117.5491447065762
 30
0.0
 70
    32
  0
VERTEX
  5
902F
  8
AM_0
 10
453.59252215561651
 20
117.5461447065742
 30
0.0
 70
    32
  0
VERTEX
  5
9030
  8
AM_0
 10
453.58952215561681
 20
117.5441447065752
 30
0.0
 70
    32
  0
VERTEX
  5
9031
  8
AM_0
 10
453.58552215561639
 20
117.5411447065753
 30
0.0
 70
    32
  0
VERTEX
  5
9032
  8
AM_0
 10
453.5825221556172
 20
117.5391447065753
 30
0.0
 70
    32
  0
VERTEX
  5
9033
  8
AM_0
 10
453.57952215561647
 20
117.5361447065752
 30
0.0
 70
    32
  0
VERTEX
  5
9034
  8
AM_0
 10
453.57552215561702
 20
117.5341447065743
 30
0.0
 70
    32
  0
VERTEX
  5
9035
  8
AM_0
 10
453.57252215561653
 20
117.5311447065753
 30
0.0
 70
    32
  0
VERTEX
  5
9036
  8
AM_0
 10
453.56852215561679
 20
117.5291447065752
 30
0.0
 70
    32
  0
VERTEX
  5
9037
  8
AM_0
 10
453.56552215561629
 20
117.5261447065752
 30
0.0
 70
    32
  0
VERTEX
  5
9038
  8
AM_0
 10
453.5615221556165
 20
117.5241447065752
 30
0.0
 70
    32
  0
VERTEX
  5
9039
  8
AM_0
 10
453.55852215561617
 20
117.5211447065753
 30
0.0
 70
    32
  0
VERTEX
  5
903A
  8
AM_0
 10
453.55552215561607
 20
117.51814470657629
 30
0.0
 70
    32
  0
VERTEX
  5
903B
  8
AM_0
 10
453.55152215561623
 20
117.5161447065742
 30
0.0
 70
    32
  0
VERTEX
  5
903C
  8
AM_0
 10
453.54852215561613
 20
117.5131447065753
 30
0.0
 70
    32
  0
VERTEX
  5
903D
  8
AM_0
 10
453.54452215561702
 20
117.5111447065764
 30
0.0
 70
    32
  0
VERTEX
  5
903E
  8
AM_0
 10
453.54152215561641
 20
117.5081447065745
 30
0.0
 70
    32
  0
VERTEX
  5
903F
  8
AM_0
 10
453.53852215561631
 20
117.50514470657519
 30
0.0
 70
    32
  0
VERTEX
  5
9040
  8
AM_0
 10
453.5345221556164
 20
117.5031447065753
 30
0.0
 70
    32
  0
VERTEX
  5
9041
  8
AM_0
 10
453.53152215561818
 20
117.50014470657629
 30
0.0
 70
    32
  0
VERTEX
  5
9042
  8
AM_0
 10
453.5275221556164
 20
117.49814470657419
 30
0.0
 70
    32
  0
VERTEX
  5
9043
  8
AM_0
 10
453.5245221556163
 20
117.49514470657429
 30
0.0
 70
    32
  0
VERTEX
  5
9044
  8
AM_0
 10
453.52152215561688
 20
117.4921447065753
 30
0.0
 70
    32
  0
VERTEX
  5
9045
  8
AM_0
 10
453.51752215561612
 20
117.4901447065763
 30
0.0
 70
    32
  0
VERTEX
  5
9046
  8
AM_0
 10
453.51452215561687
 20
117.4871447065743
 30
0.0
 70
    32
  0
VERTEX
  5
9047
  8
AM_0
 10
453.51152215561621
 20
117.48414470657529
 30
0.0
 70
    32
  0
VERTEX
  5
9048
  8
AM_0
 10
453.5075221556163
 20
117.48214470657641
 30
0.0
 70
    32
  0
VERTEX
  5
9049
  8
AM_0
 10
453.50452215561609
 20
117.47914470657631
 30
0.0
 70
    32
  0
VERTEX
  5
904A
  8
AM_0
 10
453.5015221556161
 20
117.4761447065743
 30
0.0
 70
    32
  0
VERTEX
  5
904B
  8
AM_0
 10
453.4985221556164
 20
117.47314470657641
 30
0.0
 70
    32
  0
VERTEX
  5
904C
  8
AM_0
 10
453.49452215561649
 20
117.4711447065753
 30
0.0
 70
    32
  0
VERTEX
  5
904D
  8
AM_0
 10
453.49152215561821
 20
117.46814470657429
 30
0.0
 70
    32
  0
VERTEX
  5
904E
  8
AM_0
 10
453.48852215561612
 20
117.46514470657431
 30
0.0
 70
    32
  0
VERTEX
  5
904F
  8
AM_0
 10
453.48452215561622
 20
117.4621447065753
 30
0.0
 70
    32
  0
VERTEX
  5
9050
  8
AM_0
 10
453.48152215561612
 20
117.46014470657541
 30
0.0
 70
    32
  0
VERTEX
  5
9051
  8
AM_0
 10
453.4785221556163
 20
117.4571447065743
 30
0.0
 70
    32
  0
VERTEX
  5
9052
  8
AM_0
 10
453.47552215561632
 20
117.4541447065764
 30
0.0
 70
    32
  0
VERTEX
  5
9053
  8
AM_0
 10
453.4715221556163
 20
117.45114470657541
 30
0.0
 70
    32
  0
VERTEX
  5
9054
  8
AM_0
 10
453.46852215561722
 20
117.4491447065743
 30
0.0
 70
    32
  0
VERTEX
  5
9055
  8
AM_0
 10
453.4655221556165
 20
117.4461447065753
 30
0.0
 70
    32
  0
VERTEX
  5
9056
  8
AM_0
 10
453.46252215561611
 20
117.4431447065753
 30
0.0
 70
    32
  0
VERTEX
  5
9057
  8
AM_0
 10
453.45952215561721
 20
117.4401447065752
 30
0.0
 70
    32
  0
VERTEX
  5
9058
  8
AM_0
 10
453.4555221556181
 20
117.4371447065752
 30
0.0
 70
    32
  0
VERTEX
  5
9059
  8
AM_0
 10
453.45252215561709
 20
117.4341447065753
 30
0.0
 70
    32
  0
VERTEX
  5
905A
  8
AM_0
 10
453.44952215561648
 20
117.4321447065753
 30
0.0
 70
    32
  0
VERTEX
  5
905B
  8
AM_0
 10
453.44652215561808
 20
117.4291447065752
 30
0.0
 70
    32
  0
VERTEX
  5
905C
  8
AM_0
 10
453.44352215561622
 20
117.4261447065753
 30
0.0
 70
    32
  0
VERTEX
  5
905D
  8
AM_0
 10
453.44052215561641
 20
117.4231447065753
 30
0.0
 70
    32
  0
VERTEX
  5
905E
  8
AM_0
 10
453.43752215561631
 20
117.42014470657431
 30
0.0
 70
    32
  0
VERTEX
  5
905F
  8
AM_0
 10
453.4335221556164
 20
117.4171447065752
 30
0.0
 70
    32
  0
VERTEX
  5
9060
  8
AM_0
 10
453.4305221556171
 20
117.4141447065753
 30
0.0
 70
    32
  0
VERTEX
  5
9061
  8
AM_0
 10
453.42752215561649
 20
117.41114470657421
 30
0.0
 70
    32
  0
VERTEX
  5
9062
  8
AM_0
 10
453.42452215561821
 20
117.4081447065752
 30
0.0
 70
    32
  0
VERTEX
  5
9063
  8
AM_0
 10
453.42152215561708
 20
117.4051447065753
 30
0.0
 70
    32
  0
VERTEX
  5
9064
  8
AM_0
 10
453.41852215561647
 20
117.4021447065754
 30
0.0
 70
    32
  0
VERTEX
  5
9065
  8
AM_0
 10
453.41552215561819
 20
117.3991447065752
 30
0.0
 70
    32
  0
VERTEX
  5
9066
  8
AM_0
 10
453.4125221556161
 20
117.3961447065753
 30
0.0
 70
    32
  0
VERTEX
  5
9067
  8
AM_0
 10
453.40952215561651
 20
117.3931447065754
 30
0.0
 70
    32
  0
VERTEX
  5
9068
  8
AM_0
 10
453.40652215561619
 20
117.3901447065752
 30
0.0
 70
    32
  0
VERTEX
  5
9069
  8
AM_0
 10
453.40352215561711
 20
117.3871447065753
 30
0.0
 70
    32
  0
VERTEX
  5
906A
  8
AM_0
 10
453.4005221556169
 20
117.3841447065754
 30
0.0
 70
    32
  0
VERTEX
  5
906B
  8
AM_0
 10
453.39752215561617
 20
117.3811447065752
 30
0.0
 70
    32
  0
VERTEX
  5
906C
  8
AM_0
 10
453.39452215561693
 20
117.3781447065753
 30
0.0
 70
    32
  0
VERTEX
  5
906D
  8
AM_0
 10
453.39152215561631
 20
117.3751447065753
 30
0.0
 70
    32
  0
VERTEX
  5
906E
  8
AM_0
 10
453.3885221556182
 20
117.3721447065752
 30
0.0
 70
    32
  0
VERTEX
  5
906F
  8
AM_0
 10
453.3855221556168
 20
117.3691447065752
 30
0.0
 70
    32
  0
VERTEX
  5
9070
  8
AM_0
 10
453.3825221556163
 20
117.3661447065753
 30
0.0
 70
    32
  0
VERTEX
  5
9071
  8
AM_0
 10
453.37952215561802
 20
117.3631447065752
 30
0.0
 70
    32
  0
VERTEX
  5
9072
  8
AM_0
 10
453.37652215561678
 20
117.3601447065752
 30
0.0
 70
    32
  0
VERTEX
  5
9073
  8
AM_0
 10
453.37352215561629
 20
117.3571447065753
 30
0.0
 70
    32
  0
VERTEX
  5
9074
  8
AM_0
 10
453.370522155618
 20
117.35414470657631
 30
0.0
 70
    32
  0
VERTEX
  5
9075
  8
AM_0
 10
453.36752215561597
 20
117.3511447065752
 30
0.0
 70
    32
  0
VERTEX
  5
9076
  8
AM_0
 10
453.36452215561633
 20
117.34714470657531
 30
0.0
 70
    32
  0
VERTEX
  5
9077
  8
AM_0
 10
453.36152215561702
 20
117.3441447065743
 30
0.0
 70
    32
  0
VERTEX
  5
9078
  8
AM_0
 10
453.35852215561641
 20
117.34114470657519
 30
0.0
 70
    32
  0
VERTEX
  5
9079
  8
AM_0
 10
453.35652215561782
 20
117.3381447065744
 30
0.0
 70
    32
  0
VERTEX
  5
907A
  8
AM_0
 10
453.35352215561647
 20
117.33514470657541
 30
0.0
 70
    32
  0
VERTEX
  5
907B
  8
AM_0
 10
453.35052215561632
 20
117.33214470657521
 30
0.0
 70
    32
  0
VERTEX
  5
907C
  8
AM_0
 10
453.3475221556169
 20
117.3281447065764
 30
0.0
 70
    32
  0
VERTEX
  5
907D
  8
AM_0
 10
453.3445221556164
 20
117.3251447065752
 30
0.0
 70
    32
  0
VERTEX
  5
907E
  8
AM_0
 10
453.3415221556163
 20
117.3221447065752
 30
0.0
 70
    32
  0
VERTEX
  5
907F
  8
AM_0
 10
453.33952215561618
 20
117.3191447065753
 30
0.0
 70
    32
  0
VERTEX
  5
9080
  8
AM_0
 10
453.3365221556171
 20
117.3151447065752
 30
0.0
 70
    32
  0
VERTEX
  5
9081
  8
AM_0
 10
453.33352215561689
 20
117.3121447065752
 30
0.0
 70
    32
  0
VERTEX
  5
9082
  8
AM_0
 10
453.33052215561622
 20
117.3091447065764
 30
0.0
 70
    32
  0
VERTEX
  5
9083
  8
AM_0
 10
453.32852215561621
 20
117.3061447065754
 30
0.0
 70
    32
  0
VERTEX
  5
9084
  8
AM_0
 10
453.32552215561799
 20
117.30214470657521
 30
0.0
 70
    32
  0
VERTEX
  5
9085
  8
AM_0
 10
453.32252215561653
 20
117.29914470657531
 30
0.0
 70
    32
  0
VERTEX
  5
9086
  8
AM_0
 10
453.32052215561652
 20
117.29614470657521
 30
0.0
 70
    32
  0
VERTEX
  5
9087
  8
AM_0
 10
453.31752215561681
 20
117.2921447065752
 30
0.0
 70
    32
  0
VERTEX
  5
9088
  8
AM_0
 10
453.31452215561711
 20
117.2891447065762
 30
0.0
 70
    32
  0
VERTEX
  5
9089
  8
AM_0
 10
453.31252215561608
 20
117.2861447065752
 30
0.0
 70
    32
  0
VERTEX
  5
908A
  8
AM_0
 10
453.30952215561712
 20
117.2821447065764
 30
0.0
 70
    32
  0
VERTEX
  5
908B
  8
AM_0
 10
453.30652215561639
 20
117.27914470657529
 30
0.0
 70
    32
  0
VERTEX
  5
908C
  8
AM_0
 10
453.30452215561638
 20
117.2761447065743
 30
0.0
 70
    32
  0
VERTEX
  5
908D
  8
AM_0
 10
453.30152215561623
 20
117.2721447065753
 30
0.0
 70
    32
  0
VERTEX
  5
908E
  8
AM_0
 10
453.29952215561639
 20
117.2691447065753
 30
0.0
 70
    32
  0
VERTEX
  5
908F
  8
AM_0
 10
453.29652215561703
 20
117.2651447065752
 30
0.0
 70
    32
  0
VERTEX
  5
9090
  8
AM_0
 10
453.29352215561693
 20
117.2621447065753
 30
0.0
 70
    32
  0
VERTEX
  5
9091
  8
AM_0
 10
453.29152215561652
 20
117.2591447065753
 30
0.0
 70
    32
  0
VERTEX
  5
9092
  8
AM_0
 10
453.28852215561631
 20
117.25514470657519
 30
0.0
 70
    32
  0
VERTEX
  5
9093
  8
AM_0
 10
453.28652215561692
 20
117.25214470657529
 30
0.0
 70
    32
  0
VERTEX
  5
9094
  8
AM_0
 10
453.28352215561631
 20
117.24814470657419
 30
0.0
 70
    32
  0
VERTEX
  5
9095
  8
AM_0
 10
453.28152215561482
 20
117.2451447065752
 30
0.0
 70
    32
  0
VERTEX
  5
9096
  8
AM_0
 10
453.27852215561722
 20
117.2411447065753
 30
0.0
 70
    32
  0
VERTEX
  5
9097
  8
AM_0
 10
453.27652215561722
 20
117.2381447065752
 30
0.0
 70
    32
  0
VERTEX
  5
9098
  8
AM_0
 10
453.27452215561613
 20
117.23414470657519
 30
0.0
 70
    32
  0
VERTEX
  5
9099
  8
AM_0
 10
453.27152215561688
 20
117.23114470657519
 30
0.0
 70
    32
  0
VERTEX
  5
909A
  8
AM_0
 10
453.2695221556171
 20
117.2271447065752
 30
0.0
 70
    32
  0
VERTEX
  5
909B
  8
AM_0
 10
453.26652215561649
 20
117.2241447065753
 30
0.0
 70
    32
  0
VERTEX
  5
909C
  8
AM_0
 10
453.26452215561687
 20
117.2201447065754
 30
0.0
 70
    32
  0
VERTEX
  5
909D
  8
AM_0
 10
453.26252215561692
 20
117.21614470657519
 30
0.0
 70
    32
  0
VERTEX
  5
909E
  8
AM_0
 10
453.25952215561631
 20
117.21314470657531
 30
0.0
 70
    32
  0
VERTEX
  5
909F
  8
AM_0
 10
453.25752215561693
 20
117.20914470657431
 30
0.0
 70
    32
  0
VERTEX
  5
90A0
  8
AM_0
 10
453.25552215561692
 20
117.2061447065752
 30
0.0
 70
    32
  0
VERTEX
  5
90A1
  8
AM_0
 10
453.252522155615
 20
117.2021447065753
 30
0.0
 70
    32
  0
VERTEX
  5
90A2
  8
AM_0
 10
453.2505221556163
 20
117.19814470657521
 30
0.0
 70
    32
  0
VERTEX
  5
90A3
  8
AM_0
 10
453.24852215561691
 20
117.19514470657531
 30
0.0
 70
    32
  0
VERTEX
  5
90A4
  8
AM_0
 10
453.24652215561628
 20
117.1911447065754
 30
0.0
 70
    32
  0
VERTEX
  5
90A5
  8
AM_0
 10
453.24352215561481
 20
117.1871447065752
 30
0.0
 70
    32
  0
VERTEX
  5
90A6
  8
AM_0
 10
453.24152215561679
 20
117.1841447065753
 30
0.0
 70
    32
  0
VERTEX
  5
90A7
  8
AM_0
 10
453.23952215561633
 20
117.18014470657521
 30
0.0
 70
    32
  0
VERTEX
  5
90A8
  8
AM_0
 10
453.23752215561632
 20
117.1761447065753
 30
0.0
 70
    32
  0
VERTEX
  5
90A9
  8
AM_0
 10
453.23552215561688
 20
117.1731447065753
 30
0.0
 70
    32
  0
VERTEX
  5
90AA
  8
AM_0
 10
453.23352215561692
 20
117.1691447065752
 30
0.0
 70
    32
  0
VERTEX
  5
90AB
  8
AM_0
 10
453.23152215561709
 20
117.1651447065753
 30
0.0
 70
    32
  0
VERTEX
  5
90AC
  8
AM_0
 10
453.22852215561687
 20
117.1621447065763
 30
0.0
 70
    32
  0
VERTEX
  5
90AD
  8
AM_0
 10
453.22652215561692
 20
117.1581447065752
 30
0.0
 70
    32
  0
VERTEX
  5
90AE
  8
AM_0
 10
453.22452215561691
 20
117.15414470657529
 30
0.0
 70
    32
  0
VERTEX
  5
90AF
  8
AM_0
 10
453.22252215561713
 20
117.1501447065752
 30
0.0
 70
    32
  0
VERTEX
  5
90B0
  8
AM_0
 10
453.22052215561712
 20
117.1471447065753
 30
0.0
 70
    32
  0
VERTEX
  5
90B1
  8
AM_0
 10
453.21852215561711
 20
117.14314470657629
 30
0.0
 70
    32
  0
VERTEX
  5
90B2
  8
AM_0
 10
453.21652215561608
 20
117.1391447065743
 30
0.0
 70
    32
  0
VERTEX
  5
90B3
  8
AM_0
 10
453.21452215561487
 20
117.1351447065753
 30
0.0
 70
    32
  0
VERTEX
  5
90B4
  8
AM_0
 10
453.2125221556164
 20
117.1311447065752
 30
0.0
 70
    32
  0
VERTEX
  5
90B5
  8
AM_0
 10
453.21152215561688
 20
117.1281447065753
 30
0.0
 70
    32
  0
VERTEX
  5
90B6
  8
AM_0
 10
453.20952215561698
 20
117.1241447065763
 30
0.0
 70
    32
  0
VERTEX
  5
90B7
  8
AM_0
 10
453.2075221556172
 20
117.12014470657429
 30
0.0
 70
    32
  0
VERTEX
  5
90B8
  8
AM_0
 10
453.20552215561622
 20
117.1161447065753
 30
0.0
 70
    32
  0
VERTEX
  5
90B9
  8
AM_0
 10
453.20352215561678
 20
117.1121447065743
 30
0.0
 70
    32
  0
VERTEX
  5
90BA
  8
AM_0
 10
453.20152215561632
 20
117.1081447065753
 30
0.0
 70
    32
  0
VERTEX
  5
90BB
  8
AM_0
 10
453.20052215561702
 20
117.10414470657631
 30
0.0
 70
    32
  0
VERTEX
  5
90BC
  8
AM_0
 10
453.19852215561718
 20
117.1011447065752
 30
0.0
 70
    32
  0
VERTEX
  5
90BD
  8
AM_0
 10
453.19652215561632
 20
117.09714470657531
 30
0.0
 70
    32
  0
VERTEX
  5
90BE
  8
AM_0
 10
453.19452215561631
 20
117.09314470657429
 30
0.0
 70
    32
  0
VERTEX
  5
90BF
  8
AM_0
 10
453.19352215561679
 20
117.0891447065753
 30
0.0
 70
    32
  0
VERTEX
  5
90C0
  8
AM_0
 10
453.19152215561712
 20
117.08514470657541
 30
0.0
 70
    32
  0
VERTEX
  5
90C1
  8
AM_0
 10
453.18952215561723
 20
117.0811447065752
 30
0.0
 70
    32
  0
VERTEX
  5
90C2
  8
AM_0
 10
453.18852215561679
 20
117.0771447065753
 30
0.0
 70
    32
  0
VERTEX
  5
90C3
  8
AM_0
 10
453.18652215561679
 20
117.07314470657521
 30
0.0
 70
    32
  0
VERTEX
  5
90C4
  8
AM_0
 10
453.184522155617
 20
117.0691447065764
 30
0.0
 70
    32
  0
VERTEX
  5
90C5
  8
AM_0
 10
453.18352215561617
 20
117.0651447065752
 30
0.0
 70
    32
  0
VERTEX
  5
90C6
  8
AM_0
 10
453.18152215561679
 20
117.06114470657531
 30
0.0
 70
    32
  0
VERTEX
  5
90C7
  8
AM_0
 10
453.1805221556171
 20
117.0571447065754
 30
0.0
 70
    32
  0
VERTEX
  5
90C8
  8
AM_0
 10
453.17852215561612
 20
117.0531447065752
 30
0.0
 70
    32
  0
VERTEX
  5
90C9
  8
AM_0
 10
453.17752215561649
 20
117.04914470657531
 30
0.0
 70
    32
  0
VERTEX
  5
90CA
  8
AM_0
 10
453.17552215561687
 20
117.04514470657431
 30
0.0
 70
    32
  0
VERTEX
  5
90CB
  8
AM_0
 10
453.17452215561678
 20
117.0411447065753
 30
0.0
 70
    32
  0
VERTEX
  5
90CC
  8
AM_0
 10
453.17352215561709
 20
117.0371447065754
 30
0.0
 70
    32
  0
VERTEX
  5
90CD
  8
AM_0
 10
453.17152215561703
 20
117.0331447065752
 30
0.0
 70
    32
  0
VERTEX
  5
90CE
  8
AM_0
 10
453.17052215561648
 20
117.02914470657529
 30
0.0
 70
    32
  0
VERTEX
  5
90CF
  8
AM_0
 10
453.16952215561702
 20
117.0251447065743
 30
0.0
 70
    32
  0
VERTEX
  5
90D0
  8
AM_0
 10
453.16752215561633
 20
117.0211447065753
 30
0.0
 70
    32
  0
VERTEX
  5
90D1
  8
AM_0
 10
453.16652215561692
 20
117.0171447065742
 30
0.0
 70
    32
  0
VERTEX
  5
90D2
  8
AM_0
 10
453.16552215561683
 20
117.0131447065753
 30
0.0
 70
    32
  0
VERTEX
  5
90D3
  8
AM_0
 10
453.16452215561691
 20
117.00814470657539
 30
0.0
 70
    32
  0
VERTEX
  5
90D4
  8
AM_0
 10
453.16352215561642
 20
117.0041447065752
 30
0.0
 70
    32
  0
VERTEX
  5
90D5
  8
AM_0
 10
453.16152215561641
 20
117.0001447065753
 30
0.0
 70
    32
  0
VERTEX
  5
90D6
  8
AM_0
 10
453.16052215561712
 20
116.99614470657519
 30
0.0
 70
    32
  0
VERTEX
  5
90D7
  8
AM_0
 10
453.15952215561691
 20
116.9921447065753
 30
0.0
 70
    32
  0
VERTEX
  5
90D8
  8
AM_0
 10
453.15852215561631
 20
116.9881447065752
 30
0.0
 70
    32
  0
VERTEX
  5
90D9
  8
AM_0
 10
453.1575221556169
 20
116.98414470657519
 30
0.0
 70
    32
  0
VERTEX
  5
90DA
  8
AM_0
 10
453.1565221556163
 20
116.9801447065754
 30
0.0
 70
    32
  0
VERTEX
  5
90DB
  8
AM_0
 10
453.15552215561678
 20
116.97514470657519
 30
0.0
 70
    32
  0
VERTEX
  5
90DC
  8
AM_0
 10
453.15452215561641
 20
116.9711447065763
 30
0.0
 70
    32
  0
VERTEX
  5
90DD
  8
AM_0
 10
453.15352215561711
 20
116.9671447065743
 30
0.0
 70
    32
  0
VERTEX
  5
90DE
  8
AM_0
 10
453.15252215561691
 20
116.9631447065744
 30
0.0
 70
    32
  0
VERTEX
  5
90DF
  8
AM_0
 10
453.1515221556171
 20
116.9591447065752
 30
0.0
 70
    32
  0
VERTEX
  5
90E0
  8
AM_0
 10
453.1505221556169
 20
116.9551447065753
 30
0.0
 70
    32
  0
VERTEX
  5
90E1
  8
AM_0
 10
453.1505221556169
 20
116.9501447065752
 30
0.0
 70
    32
  0
VERTEX
  5
90E2
  8
AM_0
 10
453.1495221556163
 20
116.9461447065752
 30
0.0
 70
    32
  0
VERTEX
  5
90E3
  8
AM_0
 10
453.14852215561677
 20
116.9421447065763
 30
0.0
 70
    32
  0
VERTEX
  5
90E4
  8
AM_0
 10
453.14752215561617
 20
116.9381447065752
 30
0.0
 70
    32
  0
VERTEX
  5
90E5
  8
AM_0
 10
453.14652215561688
 20
116.9341447065764
 30
0.0
 70
    32
  0
VERTEX
  5
90E6
  8
AM_0
 10
453.14652215561688
 20
116.9291447065752
 30
0.0
 70
    32
  0
VERTEX
  5
90E7
  8
AM_0
 10
453.14552215561622
 20
116.9251447065753
 30
0.0
 70
    32
  0
VERTEX
  5
90E8
  8
AM_0
 10
453.1445221556171
 20
116.92114470657511
 30
0.0
 70
    32
  0
VERTEX
  5
90E9
  8
AM_0
 10
453.1445221556171
 20
116.91714470657431
 30
0.0
 70
    32
  0
VERTEX
  5
90EA
  8
AM_0
 10
453.14352215561689
 20
116.9121447065754
 30
0.0
 70
    32
  0
VERTEX
  5
90EB
  8
AM_0
 10
453.14252215561709
 20
116.9081447065752
 30
0.0
 70
    32
  0
VERTEX
  5
90EC
  8
AM_0
 10
453.14252215561709
 20
116.9041447065762
 30
0.0
 70
    32
  0
VERTEX
  5
90ED
  8
AM_0
 10
453.14152215561688
 20
116.9001447065752
 30
0.0
 70
    32
  0
VERTEX
  5
90EE
  8
AM_0
 10
453.14152215561688
 20
116.8951447065762
 30
0.0
 70
    32
  0
VERTEX
  5
90EF
  8
AM_0
 10
453.14052215561708
 20
116.89114470657429
 30
0.0
 70
    32
  0
VERTEX
  5
90F0
  8
AM_0
 10
453.14052215561708
 20
116.8871447065753
 30
0.0
 70
    32
  0
VERTEX
  5
90F1
  8
AM_0
 10
453.13952215561687
 20
116.88314470657539
 30
0.0
 70
    32
  0
VERTEX
  5
90F2
  8
AM_0
 10
453.13952215561687
 20
116.8781447065753
 30
0.0
 70
    32
  0
VERTEX
  5
90F3
  8
AM_0
 10
453.13952215561687
 20
116.87414470657539
 30
0.0
 70
    32
  0
VERTEX
  5
90F4
  8
AM_0
 10
453.13852215561479
 20
116.8701447065752
 30
0.0
 70
    32
  0
VERTEX
  5
90F5
  8
AM_0
 10
453.13852215561479
 20
116.8661447065753
 30
0.0
 70
    32
  0
VERTEX
  5
90F6
  8
AM_0
 10
453.13852215561479
 20
116.8611447065752
 30
0.0
 70
    32
  0
VERTEX
  5
90F7
  8
AM_0
 10
453.13852215561479
 20
116.8571447065753
 30
0.0
 70
    32
  0
VERTEX
  5
90F8
  8
AM_0
 10
453.13752215561692
 20
116.8531447065743
 30
0.0
 70
    32
  0
VERTEX
  5
90F9
  8
AM_0
 10
453.13752215561692
 20
116.8491447065753
 30
0.0
 70
    32
  0
VERTEX
  5
90FA
  8
AM_0
 10
453.13752215561692
 20
116.84414470657519
 30
0.0
 70
    32
  0
VERTEX
  5
90FB
  8
AM_0
 10
453.13752215561692
 20
116.84014470657441
 30
0.0
 70
    32
  0
VERTEX
  5
90FC
  8
AM_0
 10
453.13752215561692
 20
116.8361447065744
 30
0.0
 70
    32
  0
VERTEX
  5
90FD
  8
AM_0
 10
453.13752215561692
 20
116.83114470657431
 30
0.0
 70
    32
  0
VERTEX
  5
90FE
  8
AM_0
 10
453.13752215561692
 20
116.8271447065753
 30
0.0
 70
    32
  0
VERTEX
  5
90FF
  8
AM_0
 10
453.13752215561692
 20
116.82314470657521
 30
0.0
 70
    32
  0
VERTEX
  5
9100
  8
AM_0
 10
453.13752215561692
 20
116.8191447065753
 30
0.0
 70
    32
  0
VERTEX
  5
9101
  8
AM_0
 10
453.13752215561692
 20
116.81414470657521
 30
0.0
 70
    32
  0
VERTEX
  5
9102
  8
AM_0
 10
453.13852215561479
 20
116.8101447065753
 30
0.0
 70
    32
  0
VERTEX
  5
9103
  8
AM_0
 10
453.13852215561479
 20
116.8061447065763
 30
0.0
 70
    32
  0
VERTEX
  5
9104
  8
AM_0
 10
453.13852215561479
 20
116.80214470657521
 30
0.0
 70
    32
  0
VERTEX
  5
9105
  8
AM_0
 10
453.13852215561479
 20
116.79714470657539
 30
0.0
 70
    32
  0
VERTEX
  5
9106
  8
AM_0
 10
453.13952215561687
 20
116.79314470657521
 30
0.0
 70
    32
  0
VERTEX
  5
9107
  8
AM_0
 10
453.13952215561687
 20
116.7891447065753
 30
0.0
 70
    32
  0
VERTEX
  5
9108
  8
AM_0
 10
453.13952215561687
 20
116.7851447065752
 30
0.0
 70
    32
  0
VERTEX
  5
9109
  8
AM_0
 10
453.14052215561708
 20
116.78014470657639
 30
0.0
 70
    32
  0
VERTEX
  5
910A
  8
AM_0
 10
453.14052215561708
 20
116.7761447065752
 30
0.0
 70
    32
  0
VERTEX
  5
910B
  8
AM_0
 10
453.14052215561708
 20
116.7721447065753
 30
0.0
 70
    32
  0
VERTEX
  5
910C
  8
AM_0
 10
453.14152215561688
 20
116.7681447065754
 30
0.0
 70
    32
  0
VERTEX
  5
910D
  8
AM_0
 10
453.14152215561688
 20
116.7631447065753
 30
0.0
 70
    32
  0
VERTEX
  5
910E
  8
AM_0
 10
453.14252215561709
 20
116.7591447065754
 30
0.0
 70
    32
  0
VERTEX
  5
910F
  8
AM_0
 10
453.14252215561709
 20
116.7551447065743
 30
0.0
 70
    32
  0
VERTEX
  5
9110
  8
AM_0
 10
453.14352215561689
 20
116.7511447065753
 30
0.0
 70
    32
  0
VERTEX
  5
9111
  8
AM_0
 10
453.14352215561689
 20
116.7461447065743
 30
0.0
 70
    32
  0
VERTEX
  5
9112
  8
AM_0
 10
453.1445221556171
 20
116.7421447065764
 30
0.0
 70
    32
  0
VERTEX
  5
9113
  8
AM_0
 10
453.1445221556171
 20
116.7381447065752
 30
0.0
 70
    32
  0
VERTEX
  5
9114
  8
AM_0
 10
453.14552215561622
 20
116.73414470657529
 30
0.0
 70
    32
  0
VERTEX
  5
9115
  8
AM_0
 10
453.14552215561622
 20
116.7291447065754
 30
0.0
 70
    32
  0
VERTEX
  5
9116
  8
AM_0
 10
453.14652215561688
 20
116.72514470657519
 30
0.0
 70
    32
  0
VERTEX
  5
9117
  8
AM_0
 10
453.14652215561688
 20
116.7211447065753
 30
0.0
 70
    32
  0
VERTEX
  5
9118
  8
AM_0
 10
453.14752215561617
 20
116.7171447065752
 30
0.0
 70
    32
  0
SEQEND
  5
9119
  8
AM_0
  0
LINE
  5
911A
  8
AM_0
 10
466.13756922069109
 20
118.07688142254931
 30
0.0
 11
455.63756922068728
 21
118.07688142254931
 31
0.0
  0
LINE
  5
911B
  8
AM_0
 10
466.13756922069109
 20
69.366729903531436
 30
0.0
 11
464.67256922069117
 21
60.546729903533318
 31
0.0
  0
POLYLINE
  5
911C
  8
AM_0
 66
     1
 10
0.0
 20
0.0
 30
0.0
 70
     8
  0
VERTEX
  5
911D
  8
AM_0
 10
453.14752215561617
 20
71.9565447065754
 30
0.0
 70
    32
  0
VERTEX
  5
911E
  8
AM_0
 10
453.14852215561677
 20
71.952344706574422
 30
0.0
 70
    32
  0
VERTEX
  5
911F
  8
AM_0
 10
453.1495221556163
 20
71.948044706575274
 30
0.0
 70
    32
  0
VERTEX
  5
9120
  8
AM_0
 10
453.1505221556169
 20
71.943844706575419
 30
0.0
 70
    32
  0
VERTEX
  5
9121
  8
AM_0
 10
453.1515221556171
 20
71.939544706575361
 30
0.0
 70
    32
  0
VERTEX
  5
9122
  8
AM_0
 10
453.15252215561691
 20
71.935344706575279
 30
0.0
 70
    32
  0
VERTEX
  5
9123
  8
AM_0
 10
453.15352215561711
 20
71.931044706574312
 30
0.0
 70
    32
  0
VERTEX
  5
9124
  8
AM_0
 10
453.15452215561641
 20
71.926844706576276
 30
0.0
 70
    32
  0
VERTEX
  5
9125
  8
AM_0
 10
453.15552215561678
 20
71.922644706574374
 30
0.0
 70
    32
  0
VERTEX
  5
9126
  8
AM_0
 10
453.1565221556163
 20
71.918344706575226
 30
0.0
 70
    32
  0
VERTEX
  5
9127
  8
AM_0
 10
453.1575221556169
 20
71.914144706575371
 30
0.0
 70
    32
  0
VERTEX
  5
9128
  8
AM_0
 10
453.15852215561631
 20
71.909944706575274
 30
0.0
 70
    32
  0
VERTEX
  5
9129
  8
AM_0
 10
453.15952215561691
 20
71.905644706575231
 30
0.0
 70
    32
  0
VERTEX
  5
912A
  8
AM_0
 10
453.16052215561712
 20
71.901444706575376
 30
0.0
 70
    32
  0
VERTEX
  5
912B
  8
AM_0
 10
453.16152215561641
 20
71.897244706575293
 30
0.0
 70
    32
  0
VERTEX
  5
912C
  8
AM_0
 10
453.16252215561713
 20
71.893044706575196
 30
0.0
 70
    32
  0
VERTEX
  5
912D
  8
AM_0
 10
453.16352215561642
 20
71.888844706576464
 30
0.0
 70
    32
  0
VERTEX
  5
912E
  8
AM_0
 10
453.16552215561683
 20
71.884644706575273
 30
0.0
 70
    32
  0
VERTEX
  5
912F
  8
AM_0
 10
453.16652215561692
 20
71.880444706576327
 30
0.0
 70
    32
  0
VERTEX
  5
9130
  8
AM_0
 10
453.16752215561633
 20
71.87634470657531
 30
0.0
 70
    32
  0
VERTEX
  5
9131
  8
AM_0
 10
453.16852215561693
 20
71.872144706574318
 30
0.0
 70
    32
  0
VERTEX
  5
9132
  8
AM_0
 10
453.16952215561702
 20
71.867944706576282
 30
0.0
 70
    32
  0
VERTEX
  5
9133
  8
AM_0
 10
453.17152215561703
 20
71.863844706575264
 30
0.0
 70
    32
  0
VERTEX
  5
9134
  8
AM_0
 10
453.17252215561678
 20
71.859644706575409
 30
0.0
 70
    32
  0
VERTEX
  5
9135
  8
AM_0
 10
453.17352215561709
 20
71.855544706575301
 30
0.0
 70
    32
  0
VERTEX
  5
9136
  8
AM_0
 10
453.17552215561687
 20
71.851444706575421
 30
0.0
 70
    32
  0
VERTEX
  5
9137
  8
AM_0
 10
453.1765221556148
 20
71.847344706574404
 30
0.0
 70
    32
  0
VERTEX
  5
9138
  8
AM_0
 10
453.17752215561649
 20
71.843144706575231
 30
0.0
 70
    32
  0
VERTEX
  5
9139
  8
AM_0
 10
453.17952215561678
 20
71.839144706575325
 30
0.0
 70
    32
  0
VERTEX
  5
913A
  8
AM_0
 10
453.1805221556171
 20
71.835044706575204
 30
0.0
 70
    32
  0
VERTEX
  5
913B
  8
AM_0
 10
453.18252215561722
 20
71.830944706576474
 30
0.0
 70
    32
  0
VERTEX
  5
913C
  8
AM_0
 10
453.18352215561617
 20
71.82684470657432
 30
0.0
 70
    32
  0
VERTEX
  5
913D
  8
AM_0
 10
453.18552215561618
 20
71.822844706575324
 30
0.0
 70
    32
  0
VERTEX
  5
913E
  8
AM_0
 10
453.18652215561679
 20
71.818744706575217
 30
0.0
 70
    32
  0
VERTEX
  5
913F
  8
AM_0
 10
453.18852215561679
 20
71.814744706575311
 30
0.0
 70
    32
  0
VERTEX
  5
9140
  8
AM_0
 10
453.19052215561692
 20
71.810744706575406
 30
0.0
 70
    32
  0
VERTEX
  5
9141
  8
AM_0
 10
453.19152215561712
 20
71.806744706575273
 30
0.0
 70
    32
  0
VERTEX
  5
9142
  8
AM_0
 10
453.19352215561679
 20
71.802744706575339
 30
0.0
 70
    32
  0
VERTEX
  5
9143
  8
AM_0
 10
453.1955221556168
 20
71.798744706574325
 30
0.0
 70
    32
  0
VERTEX
  5
9144
  8
AM_0
 10
453.19752215561829
 20
71.794744706575329
 30
0.0
 70
    32
  0
VERTEX
  5
9145
  8
AM_0
 10
453.19852215561718
 20
71.790844706575399
 30
0.0
 70
    32
  0
VERTEX
  5
9146
  8
AM_0
 10
453.20052215561702
 20
71.786844706575266
 30
0.0
 70
    32
  0
VERTEX
  5
9147
  8
AM_0
 10
453.2025221556168
 20
71.78294470657535
 30
0.0
 70
    32
  0
VERTEX
  5
9148
  8
AM_0
 10
453.20452215561693
 20
71.778944706574293
 30
0.0
 70
    32
  0
VERTEX
  5
9149
  8
AM_0
 10
453.20652215561688
 20
71.775044706575272
 30
0.0
 70
    32
  0
VERTEX
  5
914A
  8
AM_0
 10
453.20852215561638
 20
71.771144706575342
 30
0.0
 70
    32
  0
VERTEX
  5
914B
  8
AM_0
 10
453.2105221556169
 20
71.767244706575383
 30
0.0
 70
    32
  0
VERTEX
  5
914C
  8
AM_0
 10
453.2125221556164
 20
71.763344706575253
 30
0.0
 70
    32
  0
VERTEX
  5
914D
  8
AM_0
 10
453.21452215561487
 20
71.759444706575309
 30
0.0
 70
    32
  0
VERTEX
  5
914E
  8
AM_0
 10
453.21652215561608
 20
71.755544706575392
 30
0.0
 70
    32
  0
VERTEX
  5
914F
  8
AM_0
 10
453.21852215561711
 20
71.751744706575209
 30
0.0
 70
    32
  0
VERTEX
  5
9150
  8
AM_0
 10
453.22052215561712
 20
71.747844706575265
 30
0.0
 70
    32
  0
VERTEX
  5
9151
  8
AM_0
 10
453.22252215561713
 20
71.744044706575309
 30
0.0
 70
    32
  0
VERTEX
  5
9152
  8
AM_0
 10
453.22452215561691
 20
71.740244706576263
 30
0.0
 70
    32
  0
VERTEX
  5
9153
  8
AM_0
 10
453.22652215561692
 20
71.73634470657521
 30
0.0
 70
    32
  0
VERTEX
  5
9154
  8
AM_0
 10
453.22852215561687
 20
71.732544706575254
 30
0.0
 70
    32
  0
VERTEX
  5
9155
  8
AM_0
 10
453.23052215561631
 20
71.728744706575299
 30
0.0
 70
    32
  0
VERTEX
  5
9156
  8
AM_0
 10
453.23252215561621
 20
71.725044706575304
 30
0.0
 70
    32
  0
VERTEX
  5
9157
  8
AM_0
 10
453.23452215561622
 20
71.721244706575362
 30
0.0
 70
    32
  0
VERTEX
  5
9158
  8
AM_0
 10
453.23752215561632
 20
71.717444706576316
 30
0.0
 70
    32
  0
VERTEX
  5
9159
  8
AM_0
 10
453.23952215561633
 20
71.713744706574303
 30
0.0
 70
    32
  0
VERTEX
  5
915A
  8
AM_0
 10
453.24152215561679
 20
71.709944706575229
 30
0.0
 70
    32
  0
VERTEX
  5
915B
  8
AM_0
 10
453.24352215561481
 20
71.706244706575276
 30
0.0
 70
    32
  0
VERTEX
  5
915C
  8
AM_0
 10
453.24652215561628
 20
71.702544706575281
 30
0.0
 70
    32
  0
VERTEX
  5
915D
  8
AM_0
 10
453.24852215561691
 20
71.698744706574416
 30
0.0
 70
    32
  0
VERTEX
  5
915E
  8
AM_0
 10
453.2505221556163
 20
71.695044706575345
 30
0.0
 70
    32
  0
VERTEX
  5
915F
  8
AM_0
 10
453.252522155615
 20
71.691444706576476
 30
0.0
 70
    32
  0
VERTEX
  5
9160
  8
AM_0
 10
453.25552215561692
 20
71.687744706575359
 30
0.0
 70
    32
  0
VERTEX
  5
9161
  8
AM_0
 10
453.25752215561693
 20
71.684044706575378
 30
0.0
 70
    32
  0
VERTEX
  5
9162
  8
AM_0
 10
453.25952215561631
 20
71.680444706576282
 30
0.0
 70
    32
  0
VERTEX
  5
9163
  8
AM_0
 10
453.26252215561692
 20
71.676744706575391
 30
0.0
 70
    32
  0
VERTEX
  5
9164
  8
AM_0
 10
453.26452215561687
 20
71.673144706575371
 30
0.0
 70
    32
  0
VERTEX
  5
9165
  8
AM_0
 10
453.26752215561697
 20
71.669444706574495
 30
0.0
 70
    32
  0
VERTEX
  5
9166
  8
AM_0
 10
453.2695221556171
 20
71.665844706575371
 30
0.0
 70
    32
  0
VERTEX
  5
9167
  8
AM_0
 10
453.27152215561688
 20
71.662244706575393
 30
0.0
 70
    32
  0
VERTEX
  5
9168
  8
AM_0
 10
453.27452215561613
 20
71.658644706575373
 30
0.0
 70
    32
  0
VERTEX
  5
9169
  8
AM_0
 10
453.27652215561722
 20
71.655144706575356
 30
0.0
 70
    32
  0
VERTEX
  5
916A
  8
AM_0
 10
453.27952215561692
 20
71.651544706575351
 30
0.0
 70
    32
  0
VERTEX
  5
916B
  8
AM_0
 10
453.28152215561482
 20
71.647944706575345
 30
0.0
 70
    32
  0
VERTEX
  5
916C
  8
AM_0
 10
453.28452215561651
 20
71.644444706575314
 30
0.0
 70
    32
  0
VERTEX
  5
916D
  8
AM_0
 10
453.28652215561692
 20
71.640944706575283
 30
0.0
 70
    32
  0
VERTEX
  5
916E
  8
AM_0
 10
453.28952215561679
 20
71.637444706574342
 30
0.0
 70
    32
  0
VERTEX
  5
916F
  8
AM_0
 10
453.29252215561633
 20
71.633844706575246
 30
0.0
 70
    32
  0
VERTEX
  5
9170
  8
AM_0
 10
453.29452215561719
 20
71.630444706575418
 30
0.0
 70
    32
  0
VERTEX
  5
9171
  8
AM_0
 10
453.29752215561501
 20
71.626944706575372
 30
0.0
 70
    32
  0
VERTEX
  5
9172
  8
AM_0
 10
453.29952215561639
 20
71.623444706575356
 30
0.0
 70
    32
  0
VERTEX
  5
9173
  8
AM_0
 10
453.302522155617
 20
71.619944706575325
 30
0.0
 70
    32
  0
VERTEX
  5
9174
  8
AM_0
 10
453.3055221556171
 20
71.616544706574359
 30
0.0
 70
    32
  0
VERTEX
  5
9175
  8
AM_0
 10
453.30752215561688
 20
71.613044706575224
 30
0.0
 70
    32
  0
VERTEX
  5
9176
  8
AM_0
 10
453.31052215561618
 20
71.6096447065745
 30
0.0
 70
    32
  0
VERTEX
  5
9177
  8
AM_0
 10
453.31352215561651
 20
71.606244706576476
 30
0.0
 70
    32
  0
VERTEX
  5
9178
  8
AM_0
 10
453.31552215561641
 20
71.602844706575297
 30
0.0
 70
    32
  0
VERTEX
  5
9179
  8
AM_0
 10
453.31852215561707
 20
71.599444706574332
 30
0.0
 70
    32
  0
VERTEX
  5
917A
  8
AM_0
 10
453.32152215561609
 20
71.596044706574503
 30
0.0
 70
    32
  0
VERTEX
  5
917B
  8
AM_0
 10
453.32452215561688
 20
71.592744706575331
 30
0.0
 70
    32
  0
VERTEX
  5
917C
  8
AM_0
 10
453.32652215561632
 20
71.589344706575275
 30
0.0
 70
    32
  0
VERTEX
  5
917D
  8
AM_0
 10
453.32952215561647
 20
71.586044706576331
 30
0.0
 70
    32
  0
VERTEX
  5
917E
  8
AM_0
 10
453.3325221556172
 20
71.582644706576275
 30
0.0
 70
    32
  0
VERTEX
  5
917F
  8
AM_0
 10
453.33552215561502
 20
71.579344706575284
 30
0.0
 70
    32
  0
VERTEX
  5
9180
  8
AM_0
 10
453.3375221556164
 20
71.576044706575203
 30
0.0
 70
    32
  0
VERTEX
  5
9181
  8
AM_0
 10
453.3405221556169
 20
71.572744706576486
 30
0.0
 70
    32
  0
VERTEX
  5
9182
  8
AM_0
 10
453.34352215561711
 20
71.569444706575268
 30
0.0
 70
    32
  0
VERTEX
  5
9183
  8
AM_0
 10
453.3465221556163
 20
71.566144706575429
 30
0.0
 70
    32
  0
VERTEX
  5
9184
  8
AM_0
 10
453.34952215561691
 20
71.562844706575333
 30
0.0
 70
    32
  0
VERTEX
  5
9185
  8
AM_0
 10
453.35252215561712
 20
71.559644706575199
 30
0.0
 70
    32
  0
VERTEX
  5
9186
  8
AM_0
 10
453.35552215561631
 20
71.556344706575373
 30
0.0
 70
    32
  0
VERTEX
  5
9187
  8
AM_0
 10
453.35852215561641
 20
71.553144706575253
 30
0.0
 70
    32
  0
VERTEX
  5
9188
  8
AM_0
 10
453.36152215561702
 20
71.549944706576298
 30
0.0
 70
    32
  0
VERTEX
  5
9189
  8
AM_0
 10
453.36352215561709
 20
71.546744706575282
 30
0.0
 70
    32
  0
VERTEX
  5
918A
  8
AM_0
 10
453.36652215561611
 20
71.543544706575403
 30
0.0
 70
    32
  0
VERTEX
  5
918B
  8
AM_0
 10
453.36952215561678
 20
71.540344706575297
 30
0.0
 70
    32
  0
VERTEX
  5
918C
  8
AM_0
 10
453.37252215561722
 20
71.537144706575418
 30
0.0
 70
    32
  0
VERTEX
  5
918D
  8
AM_0
 10
453.37552215561618
 20
71.533944706574403
 30
0.0
 70
    32
  0
VERTEX
  5
918E
  8
AM_0
 10
453.37852215561679
 20
71.530844706575408
 30
0.0
 70
    32
  0
VERTEX
  5
918F
  8
AM_0
 10
453.38152215561718
 20
71.527644706575302
 30
0.0
 70
    32
  0
VERTEX
  5
9190
  8
AM_0
 10
453.38452215561631
 20
71.524544706575398
 30
0.0
 70
    32
  0
VERTEX
  5
9191
  8
AM_0
 10
453.38752215561692
 20
71.521444706575267
 30
0.0
 70
    32
  0
VERTEX
  5
9192
  8
AM_0
 10
453.39052215561719
 20
71.518244706575373
 30
0.0
 70
    32
  0
VERTEX
  5
9193
  8
AM_0
 10
453.39352215561638
 20
71.515144706575271
 30
0.0
 70
    32
  0
VERTEX
  5
9194
  8
AM_0
 10
453.39652215561608
 20
71.512044706575352
 30
0.0
 70
    32
  0
VERTEX
  5
9195
  8
AM_0
 10
453.39952215561601
 20
71.509044706576333
 30
0.0
 70
    32
  0
VERTEX
  5
9196
  8
AM_0
 10
453.40352215561711
 20
71.505944706575292
 30
0.0
 70
    32
  0
VERTEX
  5
9197
  8
AM_0
 10
453.40652215561619
 20
71.502844706574493
 30
0.0
 70
    32
  0
VERTEX
  5
9198
  8
AM_0
 10
453.40952215561651
 20
71.499844706574322
 30
0.0
 70
    32
  0
VERTEX
  5
9199
  8
AM_0
 10
453.4125221556161
 20
71.496744706575328
 30
0.0
 70
    32
  0
VERTEX
  5
919A
  8
AM_0
 10
453.41552215561819
 20
71.493744706575399
 30
0.0
 70
    32
  0
VERTEX
  5
919B
  8
AM_0
 10
453.41852215561647
 20
71.490744706574304
 30
0.0
 70
    32
  0
VERTEX
  5
919C
  8
AM_0
 10
453.42152215561708
 20
71.487744706575313
 30
0.0
 70
    32
  0
VERTEX
  5
919D
  8
AM_0
 10
453.42452215561821
 20
71.48474470657537
 30
0.0
 70
    32
  0
VERTEX
  5
919E
  8
AM_0
 10
453.42852215561618
 20
71.481744706575199
 30
0.0
 70
    32
  0
VERTEX
  5
919F
  8
AM_0
 10
453.43152215561628
 20
71.478744706575299
 30
0.0
 70
    32
  0
VERTEX
  5
91A0
  8
AM_0
 10
453.43452215561609
 20
71.475744706575369
 30
0.0
 70
    32
  0
VERTEX
  5
91A1
  8
AM_0
 10
453.43752215561631
 20
71.472844706575415
 30
0.0
 70
    32
  0
VERTEX
  5
91A2
  8
AM_0
 10
453.44052215561641
 20
71.469844706575273
 30
0.0
 70
    32
  0
VERTEX
  5
91A3
  8
AM_0
 10
453.44352215561622
 20
71.466944706575305
 30
0.0
 70
    32
  0
VERTEX
  5
91A4
  8
AM_0
 10
453.44752215561653
 20
71.463944706575376
 30
0.0
 70
    32
  0
VERTEX
  5
91A5
  8
AM_0
 10
453.45052215561623
 20
71.461044706574512
 30
0.0
 70
    32
  0
VERTEX
  5
91A6
  8
AM_0
 10
453.45352215561633
 20
71.458144706575226
 30
0.0
 70
    32
  0
VERTEX
  5
91A7
  8
AM_0
 10
453.45652215561648
 20
71.455244706574376
 30
0.0
 70
    32
  0
VERTEX
  5
91A8
  8
AM_0
 10
453.46052215561627
 20
71.452344706575332
 30
0.0
 70
    32
  0
VERTEX
  5
91A9
  8
AM_0
 10
453.46352215561598
 20
71.449444706575377
 30
0.0
 70
    32
  0
VERTEX
  5
91AA
  8
AM_0
 10
453.4665221556163
 20
71.446644706575398
 30
0.0
 70
    32
  0
VERTEX
  5
91AB
  8
AM_0
 10
453.46952215561629
 20
71.443744706575217
 30
0.0
 70
    32
  0
VERTEX
  5
91AC
  8
AM_0
 10
453.47352215561642
 20
71.440944706575237
 30
0.0
 70
    32
  0
VERTEX
  5
91AD
  8
AM_0
 10
453.47652215561692
 20
71.438044706575283
 30
0.0
 70
    32
  0
VERTEX
  5
91AE
  8
AM_0
 10
453.47952215561702
 20
71.435244706575304
 30
0.0
 70
    32
  0
VERTEX
  5
91AF
  8
AM_0
 10
453.48352215561692
 20
71.432444706576447
 30
0.0
 70
    32
  0
VERTEX
  5
91B0
  8
AM_0
 10
453.48652215561719
 20
71.429644706575345
 30
0.0
 70
    32
  0
VERTEX
  5
91B1
  8
AM_0
 10
453.48952215561638
 20
71.42684470657538
 30
0.0
 70
    32
  0
VERTEX
  5
91B2
  8
AM_0
 10
453.49352215561618
 20
71.424044706575373
 30
0.0
 70
    32
  0
VERTEX
  5
91B3
  8
AM_0
 10
453.4965221556165
 20
71.421244706575408
 30
0.0
 70
    32
  0
VERTEX
  5
91B4
  8
AM_0
 10
453.49952215561711
 20
71.418444706575201
 30
0.0
 70
    32
  0
VERTEX
  5
91B5
  8
AM_0
 10
453.50352215561662
 20
71.415744706576334
 30
0.0
 70
    32
  0
VERTEX
  5
91B6
  8
AM_0
 10
453.50652215561712
 20
71.412944706574322
 30
0.0
 70
    32
  0
VERTEX
  5
91B7
  8
AM_0
 10
453.50952215561631
 20
71.410244706574304
 30
0.0
 70
    32
  0
VERTEX
  5
91B8
  8
AM_0
 10
453.51352215561622
 20
71.407444706575234
 30
0.0
 70
    32
  0
VERTEX
  5
91B9
  8
AM_0
 10
453.51652215561631
 20
71.404744706575215
 30
0.0
 70
    32
  0
VERTEX
  5
91BA
  8
AM_0
 10
453.52052215561639
 20
71.402044706574316
 30
0.0
 70
    32
  0
VERTEX
  5
91BB
  8
AM_0
 10
453.52352215561649
 20
71.399344706575221
 30
0.0
 70
    32
  0
VERTEX
  5
91BC
  8
AM_0
 10
453.52652215561608
 20
71.396644706575216
 30
0.0
 70
    32
  0
VERTEX
  5
91BD
  8
AM_0
 10
453.53052215561689
 20
71.393944706575198
 30
0.0
 70
    32
  0
VERTEX
  5
91BE
  8
AM_0
 10
453.53352215561631
 20
71.391244706575179
 30
0.0
 70
    32
  0
VERTEX
  5
91BF
  8
AM_0
 10
453.53752215561713
 20
71.388644706575406
 30
0.0
 70
    32
  0
VERTEX
  5
91C0
  8
AM_0
 10
453.54052215561632
 20
71.385944706575401
 30
0.0
 70
    32
  0
VERTEX
  5
91C1
  8
AM_0
 10
453.54452215561702
 20
71.383244706575397
 30
0.0
 70
    32
  0
VERTEX
  5
91C2
  8
AM_0
 10
453.54752215561632
 20
71.380644706575353
 30
0.0
 70
    32
  0
VERTEX
  5
91C3
  8
AM_0
 10
453.55052215561602
 20
71.378044706575352
 30
0.0
 70
    32
  0
VERTEX
  5
91C4
  8
AM_0
 10
453.5545221556165
 20
71.375444706574399
 30
0.0
 70
    32
  0
VERTEX
  5
91C5
  8
AM_0
 10
453.55752215561608
 20
71.372744706574409
 30
0.0
 70
    32
  0
VERTEX
  5
91C6
  8
AM_0
 10
453.5615221556165
 20
71.370144706574379
 30
0.0
 70
    32
  0
VERTEX
  5
91C7
  8
AM_0
 10
453.56452215561609
 20
71.367544706575245
 30
0.0
 70
    32
  0
VERTEX
  5
91C8
  8
AM_0
 10
453.56852215561679
 20
71.365044706575404
 30
0.0
 70
    32
  0
VERTEX
  5
91C9
  8
AM_0
 10
453.57152215561632
 20
71.362444706575374
 30
0.0
 70
    32
  0
VERTEX
  5
91CA
  8
AM_0
 10
453.57552215561702
 20
71.359844706576496
 30
0.0
 70
    32
  0
VERTEX
  5
91CB
  8
AM_0
 10
453.57852215561638
 20
71.357344706575304
 30
0.0
 70
    32
  0
VERTEX
  5
91CC
  8
AM_0
 10
453.5825221556172
 20
71.354744706575275
 30
0.0
 70
    32
  0
VERTEX
  5
91CD
  8
AM_0
 10
453.58552215561639
 20
71.35224470657522
 30
0.0
 70
    32
  0
VERTEX
  5
91CE
  8
AM_0
 10
453.58952215561681
 20
71.349644706575418
 30
0.0
 70
    32
  0
VERTEX
  5
91CF
  8
AM_0
 10
453.59252215561651
 20
71.347144706575335
 30
0.0
 70
    32
  0
VERTEX
  5
91D0
  8
AM_0
 10
453.5965221556163
 20
71.344644706576446
 30
0.0
 70
    32
  0
VERTEX
  5
91D1
  8
AM_0
 10
453.60052215561672
 20
71.342144706575269
 30
0.0
 70
    32
  0
VERTEX
  5
91D2
  8
AM_0
 10
453.6035221556163
 20
71.33964470657429
 30
0.0
 70
    32
  0
VERTEX
  5
91D3
  8
AM_0
 10
453.60752215561803
 20
71.337144706575373
 30
0.0
 70
    32
  0
VERTEX
  5
91D4
  8
AM_0
 10
453.61052215561648
 20
71.334644706575304
 30
0.0
 70
    32
  0
VERTEX
  5
91D5
  8
AM_0
 10
453.61452215561633
 20
71.332244706575224
 30
0.0
 70
    32
  0
VERTEX
  5
91D6
  8
AM_0
 10
453.61752215561609
 20
71.329744706576307
 30
0.0
 70
    32
  0
VERTEX
  5
91D7
  8
AM_0
 10
453.62152215561628
 20
71.327344706575332
 30
0.0
 70
    32
  0
VERTEX
  5
91D8
  8
AM_0
 10
453.62552215561681
 20
71.324844706575277
 30
0.0
 70
    32
  0
VERTEX
  5
91D9
  8
AM_0
 10
453.62852215561639
 20
71.322444706575439
 30
0.0
 70
    32
  0
VERTEX
  5
91DA
  8
AM_0
 10
453.63252215561653
 20
71.320044706575345
 30
0.0
 70
    32
  0
VERTEX
  5
91DB
  8
AM_0
 10
453.63552215561708
 20
71.317544706575305
 30
0.0
 70
    32
  0
VERTEX
  5
91DC
  8
AM_0
 10
453.63952215561648
 20
71.315144706575197
 30
0.0
 70
    32
  0
VERTEX
  5
91DD
  8
AM_0
 10
453.64352215561678
 20
71.312744706575359
 30
0.0
 70
    32
  0
VERTEX
  5
91DE
  8
AM_0
 10
453.64652215561512
 20
71.310344706575279
 30
0.0
 70
    32
  0
VERTEX
  5
91DF
  8
AM_0
 10
453.6505221556165
 20
71.307944706574304
 30
0.0
 70
    32
  0
VERTEX
  5
91E0
  8
AM_0
 10
453.6545221556168
 20
71.305644706575308
 30
0.0
 70
    32
  0
VERTEX
  5
91E1
  8
AM_0
 10
453.6575221556165
 20
71.303244706575228
 30
0.0
 70
    32
  0
VERTEX
  5
91E2
  8
AM_0
 10
453.66152215561692
 20
71.30084470657539
 30
0.0
 70
    32
  0
VERTEX
  5
91E3
  8
AM_0
 10
453.66552215561683
 20
71.298544706574376
 30
0.0
 70
    32
  0
VERTEX
  5
91E4
  8
AM_0
 10
453.66852215561647
 20
71.296144706575205
 30
0.0
 70
    32
  0
VERTEX
  5
91E5
  8
AM_0
 10
453.67252215561678
 20
71.293844706575328
 30
0.0
 70
    32
  0
VERTEX
  5
91E6
  8
AM_0
 10
453.67652215561679
 20
71.291544706575223
 30
0.0
 70
    32
  0
VERTEX
  5
91E7
  8
AM_0
 10
453.67952215561678
 20
71.289244706575346
 30
0.0
 70
    32
  0
VERTEX
  5
91E8
  8
AM_0
 10
453.6835221556168
 20
71.286944706575227
 30
0.0
 70
    32
  0
VERTEX
  5
91E9
  8
AM_0
 10
453.6875221556167
 20
71.284544706575375
 30
0.0
 70
    32
  0
VERTEX
  5
91EA
  8
AM_0
 10
453.6905221556168
 20
71.282344706574349
 30
0.0
 70
    32
  0
VERTEX
  5
91EB
  8
AM_0
 10
453.69452215561682
 20
71.280044706575381
 30
0.0
 70
    32
  0
VERTEX
  5
91EC
  8
AM_0
 10
453.69852215561622
 20
71.277744706575277
 30
0.0
 70
    32
  0
VERTEX
  5
91ED
  8
AM_0
 10
453.70152215561689
 20
71.27544470657449
 30
0.0
 70
    32
  0
VERTEX
  5
91EE
  8
AM_0
 10
453.70552215561668
 20
71.273144706575295
 30
0.0
 70
    32
  0
VERTEX
  5
91EF
  8
AM_0
 10
453.70952215561613
 20
71.270944706575392
 30
0.0
 70
    32
  0
VERTEX
  5
91F0
  8
AM_0
 10
453.71352215561518
 20
71.268644706575301
 30
0.0
 70
    32
  0
VERTEX
  5
91F1
  8
AM_0
 10
453.7165221556163
 20
71.266444706575371
 30
0.0
 70
    32
  0
VERTEX
  5
91F2
  8
AM_0
 10
453.72052215561621
 20
71.264244706575269
 30
0.0
 70
    32
  0
VERTEX
  5
91F3
  8
AM_0
 10
453.72452215561691
 20
71.261944706575349
 30
0.0
 70
    32
  0
VERTEX
  5
91F4
  8
AM_0
 10
453.72752215561701
 20
71.259744706575233
 30
0.0
 70
    32
  0
VERTEX
  5
91F5
  8
AM_0
 10
453.73152215561618
 20
71.257544706576482
 30
0.0
 70
    32
  0
VERTEX
  5
91F6
  8
AM_0
 10
453.73552215561688
 20
71.25534470657432
 30
0.0
 70
    32
  0
VERTEX
  5
91F7
  8
AM_0
 10
453.7395221556169
 20
71.253144706575313
 30
0.0
 70
    32
  0
VERTEX
  5
91F8
  8
AM_0
 10
453.74252215561688
 20
71.25094470657541
 30
0.0
 70
    32
  0
VERTEX
  5
91F9
  8
AM_0
 10
453.7465221556169
 20
71.248844706574346
 30
0.0
 70
    32
  0
VERTEX
  5
91FA
  8
AM_0
 10
453.75052215561681
 20
71.246644706575353
 30
0.0
 70
    32
  0
VERTEX
  5
91FB
  8
AM_0
 10
453.75452215561631
 20
71.244444706575223
 30
0.0
 70
    32
  0
VERTEX
  5
91FC
  8
AM_0
 10
453.75852215561611
 20
71.242344706575295
 30
0.0
 70
    32
  0
VERTEX
  5
91FD
  8
AM_0
 10
453.76152215561638
 20
71.240144706576302
 30
0.0
 70
    32
  0
VERTEX
  5
91FE
  8
AM_0
 10
453.76552215561702
 20
71.238044706574314
 30
0.0
 70
    32
  0
VERTEX
  5
91FF
  8
AM_0
 10
453.76952215561693
 20
71.235844706574426
 30
0.0
 70
    32
  0
VERTEX
  5
9200
  8
AM_0
 10
453.773522155617
 20
71.233744706575408
 30
0.0
 70
    32
  0
VERTEX
  5
9201
  8
AM_0
 10
453.77652215561631
 20
71.231644706575253
 30
0.0
 70
    32
  0
VERTEX
  5
9202
  8
AM_0
 10
453.78052215561678
 20
71.229544706575325
 30
0.0
 70
    32
  0
VERTEX
  5
9203
  8
AM_0
 10
453.7845221556168
 20
71.227444706575398
 30
0.0
 70
    32
  0
VERTEX
  5
9204
  8
AM_0
 10
453.78852215561687
 20
71.225344706575228
 30
0.0
 70
    32
  0
VERTEX
  5
9205
  8
AM_0
 10
453.79252215561633
 20
71.223244706574405
 30
0.0
 70
    32
  0
VERTEX
  5
9206
  8
AM_0
 10
453.79652215561703
 20
71.221144706575373
 30
0.0
 70
    32
  0
VERTEX
  5
9207
  8
AM_0
 10
453.79952215561639
 20
71.219044706574323
 30
0.0
 70
    32
  0
VERTEX
  5
9208
  8
AM_0
 10
453.80352215561669
 20
71.21704470657528
 30
0.0
 70
    32
  0
VERTEX
  5
9209
  8
AM_0
 10
453.80752215561688
 20
71.214944706575352
 30
0.0
 70
    32
  0
VERTEX
  5
920A
  8
AM_0
 10
453.8115221556169
 20
71.212844706575424
 30
0.0
 70
    32
  0
VERTEX
  5
920B
  8
AM_0
 10
453.81552215561692
 20
71.210844706575244
 30
0.0
 70
    32
  0
VERTEX
  5
920C
  8
AM_0
 10
453.81852215561707
 20
71.208744706575303
 30
0.0
 70
    32
  0
VERTEX
  5
920D
  8
AM_0
 10
453.82252215561692
 20
71.20674470657535
 30
0.0
 70
    32
  0
VERTEX
  5
920E
  8
AM_0
 10
453.82652215561677
 20
71.204744706576307
 30
0.0
 70
    32
  0
VERTEX
  5
920F
  8
AM_0
 10
453.83052215561622
 20
71.202744706575231
 30
0.0
 70
    32
  0
VERTEX
  5
9210
  8
AM_0
 10
453.83452215561698
 20
71.200744706574369
 30
0.0
 70
    32
  0
VERTEX
  5
9211
  8
AM_0
 10
453.83852215561689
 20
71.198744706575326
 30
0.0
 70
    32
  0
VERTEX
  5
9212
  8
AM_0
 10
453.8425221556169
 20
71.196744706575373
 30
0.0
 70
    32
  0
VERTEX
  5
9213
  8
AM_0
 10
453.84552215561712
 20
71.19474470657633
 30
0.0
 70
    32
  0
VERTEX
  5
9214
  8
AM_0
 10
453.84952215561691
 20
71.192744706575226
 30
0.0
 70
    32
  0
VERTEX
  5
9215
  8
AM_0
 10
453.85352215561687
 20
71.190744706575302
 30
0.0
 70
    32
  0
VERTEX
  5
9216
  8
AM_0
 10
453.85752215561638
 20
71.188744706575349
 30
0.0
 70
    32
  0
VERTEX
  5
9217
  8
AM_0
 10
453.86152215561702
 20
71.186844706574448
 30
0.0
 70
    32
  0
VERTEX
  5
9218
  8
AM_0
 10
453.8655221556171
 20
71.184844706576314
 30
0.0
 70
    32
  0
VERTEX
  5
9219
  8
AM_0
 10
453.86952215561678
 20
71.182944706574304
 30
0.0
 70
    32
  0
VERTEX
  5
921A
  8
AM_0
 10
453.8735221556168
 20
71.180944706574351
 30
0.0
 70
    32
  0
VERTEX
  5
921B
  8
AM_0
 10
453.87752215561682
 20
71.179044706575269
 30
0.0
 70
    32
  0
VERTEX
  5
921C
  8
AM_0
 10
453.8805221556168
 20
71.177144706575305
 30
0.0
 70
    32
  0
VERTEX
  5
921D
  8
AM_0
 10
453.88452215561688
 20
71.175144706575352
 30
0.0
 70
    32
  0
VERTEX
  5
921E
  8
AM_0
 10
453.88852215561622
 20
71.17324470657536
 30
0.0
 70
    32
  0
VERTEX
  5
921F
  8
AM_0
 10
453.89252215561697
 20
71.171344706575368
 30
0.0
 70
    32
  0
VERTEX
  5
9220
  8
AM_0
 10
453.89652215561688
 20
71.169444706575405
 30
0.0
 70
    32
  0
VERTEX
  5
9221
  8
AM_0
 10
453.9005221556169
 20
71.167544706575441
 30
0.0
 70
    32
  0
VERTEX
  5
9222
  8
AM_0
 10
453.90452215561641
 20
71.165644706575222
 30
0.0
 70
    32
  0
VERTEX
  5
9223
  8
AM_0
 10
453.90852215561682
 20
71.163844706574309
 30
0.0
 70
    32
  0
VERTEX
  5
9224
  8
AM_0
 10
453.91252215561713
 20
71.161944706575227
 30
0.0
 70
    32
  0
VERTEX
  5
9225
  8
AM_0
 10
453.91652215561692
 20
71.160044706575263
 30
0.0
 70
    32
  0
VERTEX
  5
9226
  8
AM_0
 10
453.92052215561648
 20
71.158244706575275
 30
0.0
 70
    32
  0
VERTEX
  5
9227
  8
AM_0
 10
453.92352215561709
 20
71.156344706575283
 30
0.0
 70
    32
  0
VERTEX
  5
9228
  8
AM_0
 10
453.92752215561683
 20
71.15454470657528
 30
0.0
 70
    32
  0
VERTEX
  5
9229
  8
AM_0
 10
453.9315221556169
 20
71.152644706575302
 30
0.0
 70
    32
  0
VERTEX
  5
922A
  8
AM_0
 10
453.9355221556163
 20
71.150844706575299
 30
0.0
 70
    32
  0
VERTEX
  5
922B
  8
AM_0
 10
453.93952215561711
 20
71.149044706574387
 30
0.0
 70
    32
  0
VERTEX
  5
922C
  8
AM_0
 10
453.9435221556169
 20
71.147144706575304
 30
0.0
 70
    32
  0
VERTEX
  5
922D
  8
AM_0
 10
453.94752215561692
 20
71.145344706575301
 30
0.0
 70
    32
  0
VERTEX
  5
922E
  8
AM_0
 10
453.95152215561637
 20
71.143544706575312
 30
0.0
 70
    32
  0
VERTEX
  5
922F
  8
AM_0
 10
453.95552215561622
 20
71.141744706575295
 30
0.0
 70
    32
  0
VERTEX
  5
9230
  8
AM_0
 10
453.95952215561698
 20
71.139944706575292
 30
0.0
 70
    32
  0
VERTEX
  5
9231
  8
AM_0
 10
453.963522155617
 20
71.138144706575304
 30
0.0
 70
    32
  0
VERTEX
  5
9232
  8
AM_0
 10
453.96752215561679
 20
71.13644470657438
 30
0.0
 70
    32
  0
VERTEX
  5
9233
  8
AM_0
 10
453.97152215561619
 20
71.134644706574363
 30
0.0
 70
    32
  0
VERTEX
  5
9234
  8
AM_0
 10
453.97552215561632
 20
71.13284470657436
 30
0.0
 70
    32
  0
VERTEX
  5
9235
  8
AM_0
 10
453.97952215561702
 20
71.131044706575267
 30
0.0
 70
    32
  0
VERTEX
  5
9236
  8
AM_0
 10
453.98352215561692
 20
71.129344706575225
 30
0.0
 70
    32
  0
VERTEX
  5
9237
  8
AM_0
 10
453.98752215561632
 20
71.127544706575236
 30
0.0
 70
    32
  0
VERTEX
  5
9238
  8
AM_0
 10
453.99152215561679
 20
71.125844706575194
 30
0.0
 70
    32
  0
VERTEX
  5
9239
  8
AM_0
 10
453.99552215561482
 20
71.124144706575393
 30
0.0
 70
    32
  0
VERTEX
  5
923A
  8
AM_0
 10
453.999522155617
 20
71.122344706575404
 30
0.0
 70
    32
  0
VERTEX
  5
923B
  8
AM_0
 10
454.00352215561651
 20
71.120644706574467
 30
0.0
 70
    32
  0
VERTEX
  5
923C
  8
AM_0
 10
454.00752215561693
 20
71.118944706575348
 30
0.0
 70
    32
  0
VERTEX
  5
923D
  8
AM_0
 10
454.01152215561621
 20
71.117244706576429
 30
0.0
 70
    32
  0
VERTEX
  5
923E
  8
AM_0
 10
454.01552215561719
 20
71.115544706575292
 30
0.0
 70
    32
  0
VERTEX
  5
923F
  8
AM_0
 10
454.0195221556171
 20
71.113844706574369
 30
0.0
 70
    32
  0
VERTEX
  5
9240
  8
AM_0
 10
454.02352215561677
 20
71.112144706574327
 30
0.0
 70
    32
  0
VERTEX
  5
9241
  8
AM_0
 10
454.02752215561628
 20
71.110444706575208
 30
0.0
 70
    32
  0
VERTEX
  5
9242
  8
AM_0
 10
454.0315221556163
 20
71.108744706575408
 30
0.0
 70
    32
  0
VERTEX
  5
9243
  8
AM_0
 10
454.03552215561712
 20
71.107044706575365
 30
0.0
 70
    32
  0
VERTEX
  5
9244
  8
AM_0
 10
454.03952215561782
 20
71.105344706576474
 30
0.0
 70
    32
  0
VERTEX
  5
9245
  8
AM_0
 10
454.04352215561693
 20
71.103744706575299
 30
0.0
 70
    32
  0
VERTEX
  5
9246
  8
AM_0
 10
454.04752215561632
 20
71.102044706575271
 30
0.0
 70
    32
  0
VERTEX
  5
9247
  8
AM_0
 10
454.05152215561611
 20
71.100444706574322
 30
0.0
 70
    32
  0
VERTEX
  5
9248
  8
AM_0
 10
454.0555221556171
 20
71.098744706575417
 30
0.0
 70
    32
  0
VERTEX
  5
9249
  8
AM_0
 10
454.059522155617
 20
71.097144706575349
 30
0.0
 70
    32
  0
VERTEX
  5
924A
  8
AM_0
 10
454.06352215561651
 20
71.09544470657535
 30
0.0
 70
    32
  0
VERTEX
  5
924B
  8
AM_0
 10
454.06752215561693
 20
71.093844706575283
 30
0.0
 70
    32
  0
VERTEX
  5
924C
  8
AM_0
 10
454.07152215561632
 20
71.092244706575215
 30
0.0
 70
    32
  0
VERTEX
  5
924D
  8
AM_0
 10
454.07552215561799
 20
71.090644706576313
 30
0.0
 70
    32
  0
VERTEX
  5
924E
  8
AM_0
 10
454.07952215561647
 20
71.088944706575376
 30
0.0
 70
    32
  0
VERTEX
  5
924F
  8
AM_0
 10
454.08352215561689
 20
71.087344706575294
 30
0.0
 70
    32
  0
VERTEX
  5
9250
  8
AM_0
 10
454.0875221556164
 20
71.085744706575269
 30
0.0
 70
    32
  0
VERTEX
  5
9251
  8
AM_0
 10
454.09152215561608
 20
71.084144706574321
 30
0.0
 70
    32
  0
VERTEX
  5
9252
  8
AM_0
 10
454.09552215561712
 20
71.082644706575365
 30
0.0
 70
    32
  0
VERTEX
  5
9253
  8
AM_0
 10
454.09952215561691
 20
71.081044706575312
 30
0.0
 70
    32
  0
VERTEX
  5
9254
  8
AM_0
 10
454.1035221556163
 20
71.079444706575273
 30
0.0
 70
    32
  0
VERTEX
  5
9255
  8
AM_0
 10
454.10752215561621
 20
71.077844706575206
 30
0.0
 70
    32
  0
VERTEX
  5
9256
  8
AM_0
 10
454.11152215561719
 20
71.076344706575355
 30
0.0
 70
    32
  0
VERTEX
  5
9257
  8
AM_0
 10
454.1155221556171
 20
71.074744706575302
 30
0.0
 70
    32
  0
VERTEX
  5
9258
  8
AM_0
 10
454.12052215561812
 20
71.073144706575249
 30
0.0
 70
    32
  0
VERTEX
  5
9259
  8
AM_0
 10
454.12452215561711
 20
71.071644706575398
 30
0.0
 70
    32
  0
VERTEX
  5
925A
  8
AM_0
 10
454.12852215561691
 20
71.070144706575306
 30
0.0
 70
    32
  0
VERTEX
  5
925B
  8
AM_0
 10
454.13252215561653
 20
71.068544706575267
 30
0.0
 70
    32
  0
VERTEX
  5
925C
  8
AM_0
 10
454.13652215561632
 20
71.067044706574492
 30
0.0
 70
    32
  0
VERTEX
  5
925D
  8
AM_0
 10
454.14052215561702
 20
71.065544706575352
 30
0.0
 70
    32
  0
VERTEX
  5
925E
  8
AM_0
 10
454.14452215561721
 20
71.063944706575299
 30
0.0
 70
    32
  0
VERTEX
  5
925F
  8
AM_0
 10
454.14852215561649
 20
71.062444706574297
 30
0.0
 70
    32
  0
VERTEX
  5
9260
  8
AM_0
 10
454.15252215561628
 20
71.060944706576478
 30
0.0
 70
    32
  0
VERTEX
  5
9261
  8
AM_0
 10
454.1565221556163
 20
71.059444706574368
 30
0.0
 70
    32
  0
VERTEX
  5
9262
  8
AM_0
 10
454.16052215561808
 20
71.057944706575441
 30
0.0
 70
    32
  0
VERTEX
  5
9263
  8
AM_0
 10
454.16452215561679
 20
71.056444706576485
 30
0.0
 70
    32
  0
VERTEX
  5
9264
  8
AM_0
 10
454.16852215561647
 20
71.05494470657527
 30
0.0
 70
    32
  0
VERTEX
  5
9265
  8
AM_0
 10
454.17252215561638
 20
71.053544706575394
 30
0.0
 70
    32
  0
VERTEX
  5
9266
  8
AM_0
 10
454.17752215561649
 20
71.052044706575302
 30
0.0
 70
    32
  0
VERTEX
  5
9267
  8
AM_0
 10
454.18152215561639
 20
71.050544706575238
 30
0.0
 70
    32
  0
VERTEX
  5
9268
  8
AM_0
 10
454.18552215561618
 20
71.049044706575373
 30
0.0
 70
    32
  0
VERTEX
  5
9269
  8
AM_0
 10
454.18952215561711
 20
71.047644706574374
 30
0.0
 70
    32
  0
VERTEX
  5
926A
  8
AM_0
 10
454.19352215561599
 20
71.046144706575205
 30
0.0
 70
    32
  0
VERTEX
  5
926B
  8
AM_0
 10
454.19752215561692
 20
71.044744706575329
 30
0.0
 70
    32
  0
VERTEX
  5
926C
  8
AM_0
 10
454.20152215561632
 20
71.043244706575251
 30
0.0
 70
    32
  0
VERTEX
  5
926D
  8
AM_0
 10
454.2055221556181
 20
71.041844706575375
 30
0.0
 70
    32
  0
VERTEX
  5
926E
  8
AM_0
 10
454.20952215561698
 20
71.040444706574362
 30
0.0
 70
    32
  0
VERTEX
  5
926F
  8
AM_0
 10
454.21352215561689
 20
71.03904470657541
 30
0.0
 70
    32
  0
VERTEX
  5
9270
  8
AM_0
 10
454.21852215561711
 20
71.037544706575304
 30
0.0
 70
    32
  0
VERTEX
  5
9271
  8
AM_0
 10
454.22252215561622
 20
71.036144706575229
 30
0.0
 70
    32
  0
VERTEX
  5
9272
  8
AM_0
 10
454.22652215561692
 20
71.034744706575353
 30
0.0
 70
    32
  0
VERTEX
  5
9273
  8
AM_0
 10
454.23052215561631
 20
71.033344706575235
 30
0.0
 70
    32
  0
VERTEX
  5
9274
  8
AM_0
 10
454.23452215561611
 20
71.031944706575359
 30
0.0
 70
    32
  0
VERTEX
  5
9275
  8
AM_0
 10
454.23852215561612
 20
71.030544706574346
 30
0.0
 70
    32
  0
VERTEX
  5
9276
  8
AM_0
 10
454.242522155617
 20
71.02914470657538
 30
0.0
 70
    32
  0
VERTEX
  5
9277
  8
AM_0
 10
454.2465221556165
 20
71.027744706575277
 30
0.0
 70
    32
  0
VERTEX
  5
9278
  8
AM_0
 10
454.25052215561618
 20
71.026444706575376
 30
0.0
 70
    32
  0
VERTEX
  5
9279
  8
AM_0
 10
454.25552215561652
 20
71.025044706575272
 30
0.0
 70
    32
  0
VERTEX
  5
927A
  8
AM_0
 10
454.25952215561642
 20
71.023644706576306
 30
0.0
 70
    32
  0
VERTEX
  5
927B
  8
AM_0
 10
454.26352215561622
 20
71.022344706575268
 30
0.0
 70
    32
  0
VERTEX
  5
927C
  8
AM_0
 10
454.26752215561697
 20
71.020944706576302
 30
0.0
 70
    32
  0
VERTEX
  5
927D
  8
AM_0
 10
454.27152215561711
 20
71.019644706575264
 30
0.0
 70
    32
  0
VERTEX
  5
927E
  8
AM_0
 10
454.2755221556165
 20
71.018244706576283
 30
0.0
 70
    32
  0
VERTEX
  5
927F
  8
AM_0
 10
454.27952215561641
 20
71.016944706575273
 30
0.0
 70
    32
  0
VERTEX
  5
9280
  8
AM_0
 10
454.28452215561651
 20
71.015644706576495
 30
0.0
 70
    32
  0
VERTEX
  5
9281
  8
AM_0
 10
454.28852215561631
 20
71.014244706575255
 30
0.0
 70
    32
  0
VERTEX
  5
9282
  8
AM_0
 10
454.29252215561633
 20
71.012944706575354
 30
0.0
 70
    32
  0
VERTEX
  5
9283
  8
AM_0
 10
454.29652215561708
 20
71.011644706574316
 30
0.0
 70
    32
  0
VERTEX
  5
9284
  8
AM_0
 10
454.30052215561602
 20
71.010344706574415
 30
0.0
 70
    32
  0
VERTEX
  5
9285
  8
AM_0
 10
454.30452215561633
 20
71.009044706575423
 30
0.0
 70
    32
  0
VERTEX
  5
9286
  8
AM_0
 10
454.3085221556164
 20
71.007744706575295
 30
0.0
 70
    32
  0
VERTEX
  5
9287
  8
AM_0
 10
454.3135221556164
 20
71.006444706575394
 30
0.0
 70
    32
  0
VERTEX
  5
9288
  8
AM_0
 10
454.3175221556163
 20
71.005144706575265
 30
0.0
 70
    32
  0
VERTEX
  5
9289
  8
AM_0
 10
454.32152215561632
 20
71.00384470657626
 30
0.0
 70
    32
  0
VERTEX
  5
928A
  8
AM_0
 10
454.32552215561708
 20
71.002544706575236
 30
0.0
 70
    32
  0
VERTEX
  5
928B
  8
AM_0
 10
454.32952215561647
 20
71.001244706575349
 30
0.0
 70
    32
  0
VERTEX
  5
928C
  8
AM_0
 10
454.33352215561649
 20
71.000044706576304
 30
0.0
 70
    32
  0
VERTEX
  5
928D
  8
AM_0
 10
454.33752215561623
 20
70.99874470657528
 30
0.0
 70
    32
  0
VERTEX
  5
928E
  8
AM_0
 10
454.34252215561651
 20
70.99744470657447
 30
0.0
 70
    32
  0
VERTEX
  5
928F
  8
AM_0
 10
454.3465221556163
 20
70.996244706575226
 30
0.0
 70
    32
  0
VERTEX
  5
9290
  8
AM_0
 10
454.35052215561672
 20
70.994944706575325
 30
0.0
 70
    32
  0
VERTEX
  5
9291
  8
AM_0
 10
454.35452215561702
 20
70.993744706576308
 30
0.0
 70
    32
  0
VERTEX
  5
9292
  8
AM_0
 10
454.35852215561653
 20
70.99244470657527
 30
0.0
 70
    32
  0
VERTEX
  5
9293
  8
AM_0
 10
454.36252215561638
 20
70.991244706575344
 30
0.0
 70
    32
  0
VERTEX
  5
9294
  8
AM_0
 10
454.36752215561609
 20
70.990044706575418
 30
0.0
 70
    32
  0
VERTEX
  5
9295
  8
AM_0
 10
454.3715221556165
 20
70.98874470657438
 30
0.0
 70
    32
  0
VERTEX
  5
9296
  8
AM_0
 10
454.3755221556163
 20
70.987544706575349
 30
0.0
 70
    32
  0
VERTEX
  5
9297
  8
AM_0
 10
454.37952215561802
 20
70.98634470657521
 30
0.0
 70
    32
  0
VERTEX
  5
9298
  8
AM_0
 10
454.38352215561611
 20
70.985144706575284
 30
0.0
 70
    32
  0
VERTEX
  5
9299
  8
AM_0
 10
454.38752215561652
 20
70.983944706575343
 30
0.0
 70
    32
  0
VERTEX
  5
929A
  8
AM_0
 10
454.39252215561709
 20
70.982744706575204
 30
0.0
 70
    32
  0
VERTEX
  5
929B
  8
AM_0
 10
454.39652215561517
 20
70.981544706575278
 30
0.0
 70
    32
  0
VERTEX
  5
929C
  8
AM_0
 10
454.40052215561627
 20
70.980344706575352
 30
0.0
 70
    32
  0
VERTEX
  5
929D
  8
AM_0
 10
454.4045221556168
 20
70.979144706574274
 30
0.0
 70
    32
  0
VERTEX
  5
929E
  8
AM_0
 10
454.40852215561682
 20
70.977944706574362
 30
0.0
 70
    32
  0
VERTEX
  5
929F
  8
AM_0
 10
454.4135221556167
 20
70.976744706575346
 30
0.0
 70
    32
  0
VERTEX
  5
92A0
  8
AM_0
 10
454.41752215561678
 20
70.975644706575409
 30
0.0
 70
    32
  0
VERTEX
  5
92A1
  8
AM_0
 10
454.42152215561617
 20
70.974444706575227
 30
0.0
 70
    32
  0
VERTEX
  5
92A2
  8
AM_0
 10
454.42552215561602
 20
70.973244706575315
 30
0.0
 70
    32
  0
VERTEX
  5
92A3
  8
AM_0
 10
454.4295221556165
 20
70.972144706575349
 30
0.0
 70
    32
  0
VERTEX
  5
92A4
  8
AM_0
 10
454.4335221556168
 20
70.970944706575196
 30
0.0
 70
    32
  0
VERTEX
  5
92A5
  8
AM_0
 10
454.43852215561651
 20
70.969844706574349
 30
0.0
 70
    32
  0
VERTEX
  5
92A6
  8
AM_0
 10
454.44252215561681
 20
70.968644706575333
 30
0.0
 70
    32
  0
VERTEX
  5
92A7
  8
AM_0
 10
454.44652215561672
 20
70.967544706575381
 30
0.0
 70
    32
  0
VERTEX
  5
92A8
  8
AM_0
 10
454.45052215561611
 20
70.966344706575228
 30
0.0
 70
    32
  0
VERTEX
  5
92A9
  8
AM_0
 10
454.45452215561647
 20
70.965244706575277
 30
0.0
 70
    32
  0
VERTEX
  5
92AA
  8
AM_0
 10
454.45952215561613
 20
70.964144706575325
 30
0.0
 70
    32
  0
VERTEX
  5
92AB
  8
AM_0
 10
454.46352215561512
 20
70.963044706575374
 30
0.0
 70
    32
  0
VERTEX
  5
92AC
  8
AM_0
 10
454.46752215561679
 20
70.961844706575221
 30
0.0
 70
    32
  0
VERTEX
  5
92AD
  8
AM_0
 10
454.47152215561692
 20
70.960744706575255
 30
0.0
 70
    32
  0
VERTEX
  5
92AE
  8
AM_0
 10
454.47552215561672
 20
70.959644706575304
 30
0.0
 70
    32
  0
VERTEX
  5
92AF
  8
AM_0
 10
454.48052215561688
 20
70.958544706575381
 30
0.0
 70
    32
  0
VERTEX
  5
92B0
  8
AM_0
 10
454.48452215561667
 20
70.957444706576325
 30
0.0
 70
    32
  0
VERTEX
  5
92B1
  8
AM_0
 10
454.48852215561612
 20
70.956344706574328
 30
0.0
 70
    32
  0
VERTEX
  5
92B2
  8
AM_0
 10
454.49252215561609
 20
70.955244706574376
 30
0.0
 70
    32
  0
VERTEX
  5
92B3
  8
AM_0
 10
454.49752215561608
 20
70.954244706575295
 30
0.0
 70
    32
  0
VERTEX
  5
92B4
  8
AM_0
 10
454.50152215561508
 20
70.953144706575358
 30
0.0
 70
    32
  0
VERTEX
  5
92B5
  8
AM_0
 10
454.50552215561692
 20
70.952044706575407
 30
0.0
 70
    32
  0
VERTEX
  5
92B6
  8
AM_0
 10
454.50952215561671
 20
70.950944706574319
 30
0.0
 70
    32
  0
VERTEX
  5
92B7
  8
AM_0
 10
454.51352215561678
 20
70.949944706575252
 30
0.0
 70
    32
  0
VERTEX
  5
92B8
  8
AM_0
 10
454.51852215561678
 20
70.948844706575301
 30
0.0
 70
    32
  0
VERTEX
  5
92B9
  8
AM_0
 10
454.5225221556168
 20
70.947844706575324
 30
0.0
 70
    32
  0
VERTEX
  5
92BA
  8
AM_0
 10
454.52652215561608
 20
70.946744706575373
 30
0.0
 70
    32
  0
VERTEX
  5
92BB
  8
AM_0
 10
454.53052215561678
 20
70.945744706575397
 30
0.0
 70
    32
  0
VERTEX
  5
92BC
  8
AM_0
 10
454.53452215561691
 20
70.944644706574323
 30
0.0
 70
    32
  0
VERTEX
  5
92BD
  8
AM_0
 10
454.53952215561691
 20
70.943644706575228
 30
0.0
 70
    32
  0
VERTEX
  5
92BE
  8
AM_0
 10
454.54352215561693
 20
70.942644706575265
 30
0.0
 70
    32
  0
VERTEX
  5
92BF
  8
AM_0
 10
454.54752215561678
 20
70.941544706575314
 30
0.0
 70
    32
  0
VERTEX
  5
92C0
  8
AM_0
 10
454.55152215561679
 20
70.940544706575352
 30
0.0
 70
    32
  0
VERTEX
  5
92C1
  8
AM_0
 10
454.55652215561679
 20
70.939544706575361
 30
0.0
 70
    32
  0
VERTEX
  5
92C2
  8
AM_0
 10
454.56052215561681
 20
70.938544706575371
 30
0.0
 70
    32
  0
VERTEX
  5
92C3
  8
AM_0
 10
454.56452215561632
 20
70.937544706575409
 30
0.0
 70
    32
  0
VERTEX
  5
92C4
  8
AM_0
 10
454.56852215561679
 20
70.936544706574296
 30
0.0
 70
    32
  0
VERTEX
  5
92C5
  8
AM_0
 10
454.57252215561681
 20
70.935544706575214
 30
0.0
 70
    32
  0
VERTEX
  5
92C6
  8
AM_0
 10
454.5775221556168
 20
70.934544706575252
 30
0.0
 70
    32
  0
VERTEX
  5
92C7
  8
AM_0
 10
454.58152215561688
 20
70.933544706575276
 30
0.0
 70
    32
  0
VERTEX
  5
92C8
  8
AM_0
 10
454.5855221556169
 20
70.9325447065753
 30
0.0
 70
    32
  0
VERTEX
  5
92C9
  8
AM_0
 10
454.58952215561669
 20
70.931644706575298
 30
0.0
 70
    32
  0
VERTEX
  5
92CA
  8
AM_0
 10
454.59452215561652
 20
70.930644706575293
 30
0.0
 70
    32
  0
VERTEX
  5
92CB
  8
AM_0
 10
454.59852215561682
 20
70.929644706574436
 30
0.0
 70
    32
  0
VERTEX
  5
92CC
  8
AM_0
 10
454.60252215561701
 20
70.928744706575344
 30
0.0
 70
    32
  0
VERTEX
  5
92CD
  8
AM_0
 10
454.60652215561709
 20
70.927744706575368
 30
0.0
 70
    32
  0
VERTEX
  5
92CE
  8
AM_0
 10
454.61152215561708
 20
70.926744706575391
 30
0.0
 70
    32
  0
VERTEX
  5
92CF
  8
AM_0
 10
454.6155221556171
 20
70.925844706576299
 30
0.0
 70
    32
  0
VERTEX
  5
92D0
  8
AM_0
 10
454.61952215561678
 20
70.924844706574504
 30
0.0
 70
    32
  0
VERTEX
  5
92D1
  8
AM_0
 10
454.62352215561691
 20
70.923944706575398
 30
0.0
 70
    32
  0
VERTEX
  5
92D2
  8
AM_0
 10
454.62852215561691
 20
70.923044706575396
 30
0.0
 70
    32
  0
VERTEX
  5
92D3
  8
AM_0
 10
454.63252215561641
 20
70.922044706575207
 30
0.0
 70
    32
  0
VERTEX
  5
92D4
  8
AM_0
 10
454.63652215561677
 20
70.921144706575205
 30
0.0
 70
    32
  0
VERTEX
  5
92D5
  8
AM_0
 10
454.64052215561702
 20
70.920244706574294
 30
0.0
 70
    32
  0
VERTEX
  5
92D6
  8
AM_0
 10
454.64552215561679
 20
70.919344706575203
 30
0.0
 70
    32
  0
VERTEX
  5
92D7
  8
AM_0
 10
454.64952215561613
 20
70.918444706575201
 30
0.0
 70
    32
  0
VERTEX
  5
92D8
  8
AM_0
 10
454.65352215561722
 20
70.91754470657429
 30
0.0
 70
    32
  0
VERTEX
  5
92D9
  8
AM_0
 10
454.65752215561679
 20
70.91664470657544
 30
0.0
 70
    32
  0
VERTEX
  5
92DA
  8
AM_0
 10
454.66252215561713
 20
70.915744706575424
 30
0.0
 70
    32
  0
VERTEX
  5
92DB
  8
AM_0
 10
454.6665221556168
 20
70.914844706576332
 30
0.0
 70
    32
  0
VERTEX
  5
92DC
  8
AM_0
 10
454.67052215561631
 20
70.913944706576331
 30
0.0
 70
    32
  0
VERTEX
  5
92DD
  8
AM_0
 10
454.67452215561678
 20
70.91304470657542
 30
0.0
 70
    32
  0
VERTEX
  5
92DE
  8
AM_0
 10
454.67952215561689
 20
70.912144706575418
 30
0.0
 70
    32
  0
VERTEX
  5
92DF
  8
AM_0
 10
454.6835221556164
 20
70.911244706575417
 30
0.0
 70
    32
  0
VERTEX
  5
92E0
  8
AM_0
 10
454.68752215561608
 20
70.91044470657539
 30
0.0
 70
    32
  0
VERTEX
  5
92E1
  8
AM_0
 10
454.69152215561712
 20
70.909544706575375
 30
0.0
 70
    32
  0
VERTEX
  5
92E2
  8
AM_0
 10
454.69652215561678
 20
70.908644706575373
 30
0.0
 70
    32
  0
VERTEX
  5
92E3
  8
AM_0
 10
454.70052215561708
 20
70.907844706575361
 30
0.0
 70
    32
  0
VERTEX
  5
92E4
  8
AM_0
 10
454.70452215561693
 20
70.906944706576496
 30
0.0
 70
    32
  0
VERTEX
  5
92E5
  8
AM_0
 10
454.70852215561649
 20
70.906144706575333
 30
0.0
 70
    32
  0
VERTEX
  5
92E6
  8
AM_0
 10
454.71352215561689
 20
70.905244706575331
 30
0.0
 70
    32
  0
VERTEX
  5
92E7
  8
AM_0
 10
454.7175221556169
 20
70.904444706575305
 30
0.0
 70
    32
  0
VERTEX
  5
92E8
  8
AM_0
 10
454.72152215561641
 20
70.903544706574408
 30
0.0
 70
    32
  0
VERTEX
  5
92E9
  8
AM_0
 10
454.72552215561632
 20
70.902744706575277
 30
0.0
 70
    32
  0
VERTEX
  5
92EA
  8
AM_0
 10
454.73052215561643
 20
70.90194470657525
 30
0.0
 70
    32
  0
VERTEX
  5
92EB
  8
AM_0
 10
454.73452215561679
 20
70.901144706575224
 30
0.0
 70
    32
  0
VERTEX
  5
92EC
  8
AM_0
 10
454.73852215561698
 20
70.900244706575222
 30
0.0
 70
    32
  0
VERTEX
  5
92ED
  8
AM_0
 10
454.74352215561618
 20
70.899444706575423
 30
0.0
 70
    32
  0
VERTEX
  5
92EE
  8
AM_0
 10
454.74752215561722
 20
70.898644706575396
 30
0.0
 70
    32
  0
VERTEX
  5
92EF
  8
AM_0
 10
454.75152215561678
 20
70.89784470657537
 30
0.0
 70
    32
  0
VERTEX
  5
92F0
  8
AM_0
 10
454.7555221556168
 20
70.897044706575343
 30
0.0
 70
    32
  0
VERTEX
  5
92F1
  8
AM_0
 10
454.7605221556168
 20
70.896244706575303
 30
0.0
 70
    32
  0
VERTEX
  5
92F2
  8
AM_0
 10
454.76452215561687
 20
70.895444706574366
 30
0.0
 70
    32
  0
VERTEX
  5
92F3
  8
AM_0
 10
454.76852215561638
 20
70.894644706575264
 30
0.0
 70
    32
  0
VERTEX
  5
92F4
  8
AM_0
 10
454.77252215561617
 20
70.893844706575237
 30
0.0
 70
    32
  0
VERTEX
  5
92F5
  8
AM_0
 10
454.7775221556164
 20
70.893044706575196
 30
0.0
 70
    32
  0
VERTEX
  5
92F6
  8
AM_0
 10
454.78152215561619
 20
70.892344706575372
 30
0.0
 70
    32
  0
VERTEX
  5
92F7
  8
AM_0
 10
454.785522155617
 20
70.89154470657536
 30
0.0
 70
    32
  0
VERTEX
  5
92F8
  8
AM_0
 10
454.79052215561501
 20
70.890744706575333
 30
0.0
 70
    32
  0
VERTEX
  5
92F9
  8
AM_0
 10
454.79452215561707
 20
70.889944706575292
 30
0.0
 70
    32
  0
VERTEX
  5
92FA
  8
AM_0
 10
454.79852215561709
 20
70.889244706575269
 30
0.0
 70
    32
  0
VERTEX
  5
92FB
  8
AM_0
 10
454.80252215561683
 20
70.888444706575228
 30
0.0
 70
    32
  0
VERTEX
  5
92FC
  8
AM_0
 10
454.80752215561711
 20
70.887744706575404
 30
0.0
 70
    32
  0
VERTEX
  5
92FD
  8
AM_0
 10
454.81152215561838
 20
70.886944706575377
 30
0.0
 70
    32
  0
VERTEX
  5
92FE
  8
AM_0
 10
454.81552215561641
 20
70.886244706575326
 30
0.0
 70
    32
  0
VERTEX
  5
92FF
  8
AM_0
 10
454.82052215561691
 20
70.885444706575299
 30
0.0
 70
    32
  0
VERTEX
  5
9300
  8
AM_0
 10
454.82452215561688
 20
70.884744706575248
 30
0.0
 70
    32
  0
VERTEX
  5
9301
  8
AM_0
 10
454.82852215561508
 20
70.884044706576333
 30
0.0
 70
    32
  0
VERTEX
  5
9302
  8
AM_0
 10
454.83252215561703
 20
70.883244706575397
 30
0.0
 70
    32
  0
VERTEX
  5
9303
  8
AM_0
 10
454.83752215561623
 20
70.882544706576482
 30
0.0
 70
    32
  0
VERTEX
  5
9304
  8
AM_0
 10
454.8415221556163
 20
70.881844706575293
 30
0.0
 70
    32
  0
VERTEX
  5
9305
  8
AM_0
 10
454.84552215561712
 20
70.881144706575213
 30
0.0
 70
    32
  0
VERTEX
  5
9306
  8
AM_0
 10
454.85052215561632
 20
70.880344706575215
 30
0.0
 70
    32
  0
VERTEX
  5
9307
  8
AM_0
 10
454.85452215561702
 20
70.879644706575391
 30
0.0
 70
    32
  0
VERTEX
  5
9308
  8
AM_0
 10
454.85852215561692
 20
70.878944706575339
 30
0.0
 70
    32
  0
VERTEX
  5
9309
  8
AM_0
 10
454.86252215561689
 20
70.878244706575302
 30
0.0
 70
    32
  0
VERTEX
  5
930A
  8
AM_0
 10
454.86752215561609
 20
70.877544706575236
 30
0.0
 70
    32
  0
VERTEX
  5
930B
  8
AM_0
 10
454.8715221556169
 20
70.876844706576307
 30
0.0
 70
    32
  0
VERTEX
  5
930C
  8
AM_0
 10
454.8755221556163
 20
70.876144706574451
 30
0.0
 70
    32
  0
VERTEX
  5
930D
  8
AM_0
 10
454.88052215561652
 20
70.875544706575283
 30
0.0
 70
    32
  0
VERTEX
  5
930E
  8
AM_0
 10
454.88452215561631
 20
70.874844706575232
 30
0.0
 70
    32
  0
VERTEX
  5
930F
  8
AM_0
 10
454.88852215561622
 20
70.874144706576303
 30
0.0
 70
    32
  0
VERTEX
  5
9310
  8
AM_0
 10
454.89252215561709
 20
70.873444706574446
 30
0.0
 70
    32
  0
VERTEX
  5
9311
  8
AM_0
 10
454.89752215561617
 20
70.872744706575304
 30
0.0
 70
    32
  0
VERTEX
  5
9312
  8
AM_0
 10
454.90152215561812
 20
70.872144706575227
 30
0.0
 70
    32
  0
VERTEX
  5
9313
  8
AM_0
 10
454.9055221556161
 20
70.871444706575403
 30
0.0
 70
    32
  0
VERTEX
  5
9314
  8
AM_0
 10
454.91052215561808
 20
70.870844706575326
 30
0.0
 70
    32
  0
VERTEX
  5
9315
  8
AM_0
 10
454.91452215561691
 20
70.870144706575275
 30
0.0
 70
    32
  0
VERTEX
  5
9316
  8
AM_0
 10
454.91852215561647
 20
70.869444706575223
 30
0.0
 70
    32
  0
VERTEX
  5
9317
  8
AM_0
 10
454.92252215561632
 20
70.868844706575373
 30
0.0
 70
    32
  0
VERTEX
  5
9318
  8
AM_0
 10
454.92752215561649
 20
70.868244706575297
 30
0.0
 70
    32
  0
VERTEX
  5
9319
  8
AM_0
 10
454.93152215561679
 20
70.86754470657435
 30
0.0
 70
    32
  0
VERTEX
  5
931A
  8
AM_0
 10
454.9355221556163
 20
70.866944706575396
 30
0.0
 70
    32
  0
VERTEX
  5
931B
  8
AM_0
 10
454.94052215561629
 20
70.866244706574435
 30
0.0
 70
    32
  0
VERTEX
  5
931C
  8
AM_0
 10
454.94452215561643
 20
70.865644706575267
 30
0.0
 70
    32
  0
VERTEX
  5
931D
  8
AM_0
 10
454.94852215561718
 20
70.865044706576327
 30
0.0
 70
    32
  0
VERTEX
  5
931E
  8
AM_0
 10
454.95352215561638
 20
70.864444706575341
 30
0.0
 70
    32
  0
VERTEX
  5
931F
  8
AM_0
 10
454.9575221556172
 20
70.863844706575264
 30
0.0
 70
    32
  0
VERTEX
  5
9320
  8
AM_0
 10
454.96152215561688
 20
70.863144706575184
 30
0.0
 70
    32
  0
VERTEX
  5
9321
  8
AM_0
 10
454.96652215561608
 20
70.862544706575349
 30
0.0
 70
    32
  0
VERTEX
  5
9322
  8
AM_0
 10
454.97052215561712
 20
70.861944706575301
 30
0.0
 70
    32
  0
VERTEX
  5
9323
  8
AM_0
 10
454.97452215561663
 20
70.86134470657521
 30
0.0
 70
    32
  0
VERTEX
  5
9324
  8
AM_0
 10
454.9785221556163
 20
70.86074470657536
 30
0.0
 70
    32
  0
VERTEX
  5
9325
  8
AM_0
 10
454.98352215561692
 20
70.860144706575284
 30
0.0
 70
    32
  0
VERTEX
  5
9326
  8
AM_0
 10
454.98752215561632
 20
70.859544706575207
 30
0.0
 70
    32
  0
VERTEX
  5
9327
  8
AM_0
 10
454.99152215561821
 20
70.858944706575343
 30
0.0
 70
    32
  0
VERTEX
  5
9328
  8
AM_0
 10
454.99652215561628
 20
70.858444706575256
 30
0.0
 70
    32
  0
VERTEX
  5
9329
  8
AM_0
 10
455.0005221556163
 20
70.857844706575406
 30
0.0
 70
    32
  0
VERTEX
  5
932A
  8
AM_0
 10
455.00452215561631
 20
70.857244706575329
 30
0.0
 70
    32
  0
VERTEX
  5
932B
  8
AM_0
 10
455.00952215561631
 20
70.856644706575253
 30
0.0
 70
    32
  0
VERTEX
  5
932C
  8
AM_0
 10
455.0135221556161
 20
70.856144706575378
 30
0.0
 70
    32
  0
VERTEX
  5
932D
  8
AM_0
 10
455.01752215561709
 20
70.855544706575301
 30
0.0
 70
    32
  0
VERTEX
  5
932E
  8
AM_0
 10
455.02152215561688
 20
70.854944706575225
 30
0.0
 70
    32
  0
VERTEX
  5
932F
  8
AM_0
 10
455.02652215561608
 20
70.85444470657535
 30
0.0
 70
    32
  0
VERTEX
  5
9330
  8
AM_0
 10
455.03052215561678
 20
70.853844706575273
 30
0.0
 70
    32
  0
VERTEX
  5
9331
  8
AM_0
 10
455.03452215561651
 20
70.853344706575399
 30
0.0
 70
    32
  0
VERTEX
  5
9332
  8
AM_0
 10
455.03952215561679
 20
70.852744706575294
 30
0.0
 70
    32
  0
VERTEX
  5
9333
  8
AM_0
 10
455.04352215561647
 20
70.852244706574311
 30
0.0
 70
    32
  0
VERTEX
  5
9334
  8
AM_0
 10
455.04752215561638
 20
70.851744706575346
 30
0.0
 70
    32
  0
VERTEX
  5
9335
  8
AM_0
 10
455.052522155617
 20
70.851144706575269
 30
0.0
 70
    32
  0
VERTEX
  5
9336
  8
AM_0
 10
455.05652215561639
 20
70.850644706575409
 30
0.0
 70
    32
  0
VERTEX
  5
9337
  8
AM_0
 10
455.06052215561618
 20
70.850144706575293
 30
0.0
 70
    32
  0
VERTEX
  5
9338
  8
AM_0
 10
455.06552215561641
 20
70.849544706574321
 30
0.0
 70
    32
  0
VERTEX
  5
9339
  8
AM_0
 10
455.0695221556162
 20
70.84904470657645
 30
0.0
 70
    32
  0
VERTEX
  5
933A
  8
AM_0
 10
455.07352215561718
 20
70.848544706575225
 30
0.0
 70
    32
  0
VERTEX
  5
933B
  8
AM_0
 10
455.07852215561633
 20
70.848044706576275
 30
0.0
 70
    32
  0
VERTEX
  5
933C
  8
AM_0
 10
455.0825221556172
 20
70.847544706575263
 30
0.0
 70
    32
  0
VERTEX
  5
933D
  8
AM_0
 10
455.08652215561602
 20
70.847044706575375
 30
0.0
 70
    32
  0
VERTEX
  5
933E
  8
AM_0
 10
455.0915221556163
 20
70.846544706575301
 30
0.0
 70
    32
  0
VERTEX
  5
933F
  8
AM_0
 10
455.0955221556161
 20
70.846044706575398
 30
0.0
 70
    32
  0
VERTEX
  5
9340
  8
AM_0
 10
455.0995221556164
 20
70.845544706575311
 30
0.0
 70
    32
  0
VERTEX
  5
9341
  8
AM_0
 10
455.10352215561647
 20
70.845044706574299
 30
0.0
 70
    32
  0
VERTEX
  5
9342
  8
AM_0
 10
455.10852215561653
 20
70.844544706576471
 30
0.0
 70
    32
  0
VERTEX
  5
9343
  8
AM_0
 10
455.11252215561649
 20
70.844144706574298
 30
0.0
 70
    32
  0
VERTEX
  5
9344
  8
AM_0
 10
455.11652215561821
 20
70.843644706575333
 30
0.0
 70
    32
  0
VERTEX
  5
9345
  8
AM_0
 10
455.1215221556165
 20
70.843144706575231
 30
0.0
 70
    32
  0
VERTEX
  5
9346
  8
AM_0
 10
455.1255221556163
 20
70.842744706575331
 30
0.0
 70
    32
  0
VERTEX
  5
9347
  8
AM_0
 10
455.12952215561808
 20
70.842244706575215
 30
0.0
 70
    32
  0
VERTEX
  5
9348
  8
AM_0
 10
455.13452215561642
 20
70.841744706575355
 30
0.0
 70
    32
  0
VERTEX
  5
9349
  8
AM_0
 10
455.13852215561673
 20
70.841344706575228
 30
0.0
 70
    32
  0
VERTEX
  5
934A
  8
AM_0
 10
455.14252215561697
 20
70.840944706575314
 30
0.0
 70
    32
  0
VERTEX
  5
934B
  8
AM_0
 10
455.1475221556168
 20
70.840444706575227
 30
0.0
 70
    32
  0
VERTEX
  5
934C
  8
AM_0
 10
455.1515221556171
 20
70.840044706575327
 30
0.0
 70
    32
  0
VERTEX
  5
934D
  8
AM_0
 10
455.1555221556161
 20
70.839544706574316
 30
0.0
 70
    32
  0
VERTEX
  5
934E
  8
AM_0
 10
455.16052215561712
 20
70.839144706576448
 30
0.0
 70
    32
  0
VERTEX
  5
934F
  8
AM_0
 10
455.164522155616
 20
70.838744706574303
 30
0.0
 70
    32
  0
VERTEX
  5
9350
  8
AM_0
 10
455.16852215561647
 20
70.838344706574389
 30
0.0
 70
    32
  0
VERTEX
  5
9351
  8
AM_0
 10
455.17352215561692
 20
70.837844706575424
 30
0.0
 70
    32
  0
VERTEX
  5
9352
  8
AM_0
 10
455.17752215561649
 20
70.837444706575297
 30
0.0
 70
    32
  0
VERTEX
  5
9353
  8
AM_0
 10
455.18152215561639
 20
70.837044706575398
 30
0.0
 70
    32
  0
VERTEX
  5
9354
  8
AM_0
 10
455.1865221556165
 20
70.836644706575271
 30
0.0
 70
    32
  0
VERTEX
  5
9355
  8
AM_0
 10
455.19052215561652
 20
70.836244706575371
 30
0.0
 70
    32
  0
VERTEX
  5
9356
  8
AM_0
 10
455.19452215561671
 20
70.835844706575244
 30
0.0
 70
    32
  0
VERTEX
  5
9357
  8
AM_0
 10
455.19952215561648
 20
70.835444706575345
 30
0.0
 70
    32
  0
VERTEX
  5
9358
  8
AM_0
 10
455.20352215561678
 20
70.83514470657542
 30
0.0
 70
    32
  0
VERTEX
  5
9359
  8
AM_0
 10
455.20752215561618
 20
70.834744706574369
 30
0.0
 70
    32
  0
VERTEX
  5
935A
  8
AM_0
 10
455.2125221556168
 20
70.834344706575394
 30
0.0
 70
    32
  0
VERTEX
  5
935B
  8
AM_0
 10
455.2165221556163
 20
70.833944706575267
 30
0.0
 70
    32
  0
VERTEX
  5
935C
  8
AM_0
 10
455.22052215561712
 20
70.833644706575342
 30
0.0
 70
    32
  0
VERTEX
  5
935D
  8
AM_0
 10
455.22552215561672
 20
70.833244706575215
 30
0.0
 70
    32
  0
VERTEX
  5
935E
  8
AM_0
 10
455.22952215561611
 20
70.832844706575301
 30
0.0
 70
    32
  0
VERTEX
  5
935F
  8
AM_0
 10
455.23352215561653
 20
70.832544706575391
 30
0.0
 70
    32
  0
VERTEX
  5
9360
  8
AM_0
 10
455.23852215561612
 20
70.832144706575264
 30
0.0
 70
    32
  0
VERTEX
  5
9361
  8
AM_0
 10
455.24252215561609
 20
70.831844706575339
 30
0.0
 70
    32
  0
VERTEX
  5
9362
  8
AM_0
 10
455.24652215561679
 20
70.8315447065754
 30
0.0
 70
    32
  0
VERTEX
  5
9363
  8
AM_0
 10
455.2515221556161
 20
70.831144706574378
 30
0.0
 70
    32
  0
VERTEX
  5
9364
  8
AM_0
 10
455.2555221556168
 20
70.830844706575363
 30
0.0
 70
    32
  0
VERTEX
  5
9365
  8
AM_0
 10
455.25952215561688
 20
70.830544706575196
 30
0.0
 70
    32
  0
VERTEX
  5
9366
  8
AM_0
 10
455.26452215561687
 20
70.8302447065753
 30
0.0
 70
    32
  0
VERTEX
  5
9367
  8
AM_0
 10
455.26852215561689
 20
70.829844706575372
 30
0.0
 70
    32
  0
VERTEX
  5
9368
  8
AM_0
 10
455.27252215561668
 20
70.829544706575234
 30
0.0
 70
    32
  0
VERTEX
  5
9369
  8
AM_0
 10
455.27752215561691
 20
70.829244706575295
 30
0.0
 70
    32
  0
VERTEX
  5
936A
  8
AM_0
 10
455.2815221556167
 20
70.828944706575371
 30
0.0
 70
    32
  0
VERTEX
  5
936B
  8
AM_0
 10
455.28552215561609
 20
70.828644706575233
 30
0.0
 70
    32
  0
VERTEX
  5
936C
  8
AM_0
 10
455.29052215561683
 20
70.828344706575294
 30
0.0
 70
    32
  0
VERTEX
  5
936D
  8
AM_0
 10
455.29452215561702
 20
70.828044706575369
 30
0.0
 70
    32
  0
VERTEX
  5
936E
  8
AM_0
 10
455.2985221556151
 20
70.827744706575231
 30
0.0
 70
    32
  0
VERTEX
  5
936F
  8
AM_0
 10
455.30352215561669
 20
70.827444706575292
 30
0.0
 70
    32
  0
VERTEX
  5
9370
  8
AM_0
 10
455.30752215561608
 20
70.827244706575357
 30
0.0
 70
    32
  0
VERTEX
  5
9371
  8
AM_0
 10
455.31152215561679
 20
70.826944706574295
 30
0.0
 70
    32
  0
VERTEX
  5
9372
  8
AM_0
 10
455.3165221556161
 20
70.826644706574371
 30
0.0
 70
    32
  0
VERTEX
  5
9373
  8
AM_0
 10
455.32052215561691
 20
70.826344706575355
 30
0.0
 70
    32
  0
VERTEX
  5
9374
  8
AM_0
 10
455.32452215561688
 20
70.826144706575406
 30
0.0
 70
    32
  0
VERTEX
  5
9375
  8
AM_0
 10
455.32952215561693
 20
70.825844706575253
 30
0.0
 70
    32
  0
VERTEX
  5
9376
  8
AM_0
 10
455.33352215561678
 20
70.825644706575304
 30
0.0
 70
    32
  0
VERTEX
  5
9377
  8
AM_0
 10
455.3375221556164
 20
70.825344706575379
 30
0.0
 70
    32
  0
VERTEX
  5
9378
  8
AM_0
 10
455.34252215561679
 20
70.825144706575202
 30
0.0
 70
    32
  0
VERTEX
  5
9379
  8
AM_0
 10
455.34652215561692
 20
70.824844706575277
 30
0.0
 70
    32
  0
VERTEX
  5
937A
  8
AM_0
 10
455.35052215561632
 20
70.824644706575327
 30
0.0
 70
    32
  0
VERTEX
  5
937B
  8
AM_0
 10
455.35552215561688
 20
70.824344706575403
 30
0.0
 70
    32
  0
VERTEX
  5
937C
  8
AM_0
 10
455.35952215561622
 20
70.824144706575225
 30
0.0
 70
    32
  0
VERTEX
  5
937D
  8
AM_0
 10
455.36352215561698
 20
70.82394470657438
 30
0.0
 70
    32
  0
VERTEX
  5
937E
  8
AM_0
 10
455.36852215561618
 20
70.823744706575326
 30
0.0
 70
    32
  0
VERTEX
  5
937F
  8
AM_0
 10
455.3725221556171
 20
70.823444706575401
 30
0.0
 70
    32
  0
VERTEX
  5
9380
  8
AM_0
 10
455.37652215561712
 20
70.823244706575224
 30
0.0
 70
    32
  0
VERTEX
  5
9381
  8
AM_0
 10
455.38152215561701
 20
70.823044706575274
 30
0.0
 70
    32
  0
VERTEX
  5
9382
  8
AM_0
 10
455.38552215561708
 20
70.822844706575324
 30
0.0
 70
    32
  0
VERTEX
  5
9383
  8
AM_0
 10
455.38952215561687
 20
70.822644706575375
 30
0.0
 70
    32
  0
VERTEX
  5
9384
  8
AM_0
 10
455.3945221556171
 20
70.822444706574274
 30
0.0
 70
    32
  0
VERTEX
  5
9385
  8
AM_0
 10
455.39852215561677
 20
70.822244706575248
 30
0.0
 70
    32
  0
VERTEX
  5
9386
  8
AM_0
 10
455.40252215561691
 20
70.822044706576435
 30
0.0
 70
    32
  0
VERTEX
  5
9387
  8
AM_0
 10
455.4075221556169
 20
70.821844706575334
 30
0.0
 70
    32
  0
VERTEX
  5
9388
  8
AM_0
 10
455.41152215561692
 20
70.821644706574489
 30
0.0
 70
    32
  0
VERTEX
  5
9389
  8
AM_0
 10
455.41552215561683
 20
70.821444706575221
 30
0.0
 70
    32
  0
VERTEX
  5
938A
  8
AM_0
 10
455.42052215561648
 20
70.821244706574362
 30
0.0
 70
    32
  0
VERTEX
  5
938B
  8
AM_0
 10
455.42452215561678
 20
70.821044706575293
 30
0.0
 70
    32
  0
VERTEX
  5
938C
  8
AM_0
 10
455.42852215561612
 20
70.820944706575347
 30
0.0
 70
    32
  0
VERTEX
  5
938D
  8
AM_0
 10
455.4335221556168
 20
70.820744706575397
 30
0.0
 70
    32
  0
VERTEX
  5
938E
  8
AM_0
 10
455.43752215561631
 20
70.82054470657522
 30
0.0
 70
    32
  0
VERTEX
  5
938F
  8
AM_0
 10
455.4425221556163
 20
70.820444706575245
 30
0.0
 70
    32
  0
VERTEX
  5
9390
  8
AM_0
 10
455.44652215561672
 20
70.820244706575295
 30
0.0
 70
    32
  0
VERTEX
  5
9391
  8
AM_0
 10
455.45052215561702
 20
70.820044706575345
 30
0.0
 70
    32
  0
VERTEX
  5
9392
  8
AM_0
 10
455.45552215561622
 20
70.81994470657537
 30
0.0
 70
    32
  0
VERTEX
  5
9393
  8
AM_0
 10
455.45952215561698
 20
70.81974470657633
 30
0.0
 70
    32
  0
VERTEX
  5
9394
  8
AM_0
 10
455.463522155617
 20
70.819644706575204
 30
0.0
 70
    32
  0
VERTEX
  5
9395
  8
AM_0
 10
455.46852215561711
 20
70.819444706574359
 30
0.0
 70
    32
  0
VERTEX
  5
9396
  8
AM_0
 10
455.47252215561713
 20
70.819344706575293
 30
0.0
 70
    32
  0
VERTEX
  5
9397
  8
AM_0
 10
455.47652215561692
 20
70.819244706575304
 30
0.0
 70
    32
  0
VERTEX
  5
9398
  8
AM_0
 10
455.48152215561709
 20
70.819044706575369
 30
0.0
 70
    32
  0
VERTEX
  5
9399
  8
AM_0
 10
455.48552215561688
 20
70.818944706575394
 30
0.0
 70
    32
  0
VERTEX
  5
939A
  8
AM_0
 10
455.48952215561633
 20
70.818844706575405
 30
0.0
 70
    32
  0
VERTEX
  5
939B
  8
AM_0
 10
455.49452215561678
 20
70.818744706575217
 30
0.0
 70
    32
  0
VERTEX
  5
939C
  8
AM_0
 10
455.49852215561691
 20
70.818644706575228
 30
0.0
 70
    32
  0
VERTEX
  5
939D
  8
AM_0
 10
455.5025221556163
 20
70.818544706575267
 30
0.0
 70
    32
  0
VERTEX
  5
939E
  8
AM_0
 10
455.50752215561693
 20
70.818344706575303
 30
0.0
 70
    32
  0
VERTEX
  5
939F
  8
AM_0
 10
455.51152215561632
 20
70.818244706576479
 30
0.0
 70
    32
  0
VERTEX
  5
93A0
  8
AM_0
 10
455.51552215561702
 20
70.818144706575382
 30
0.0
 70
    32
  0
VERTEX
  5
93A1
  8
AM_0
 10
455.52052215561622
 20
70.818044706575392
 30
0.0
 70
    32
  0
VERTEX
  5
93A2
  8
AM_0
 10
455.52452215561482
 20
70.818044706575392
 30
0.0
 70
    32
  0
VERTEX
  5
93A3
  8
AM_0
 10
455.52852215561722
 20
70.817944706575403
 30
0.0
 70
    32
  0
VERTEX
  5
93A4
  8
AM_0
 10
455.53352215561478
 20
70.817844706575215
 30
0.0
 70
    32
  0
VERTEX
  5
93A5
  8
AM_0
 10
455.53752215561713
 20
70.817744706575226
 30
0.0
 70
    32
  0
VERTEX
  5
93A6
  8
AM_0
 10
455.5415221556168
 20
70.817644706575265
 30
0.0
 70
    32
  0
VERTEX
  5
93A7
  8
AM_0
 10
455.54652215561703
 20
70.817644706575265
 30
0.0
 70
    32
  0
VERTEX
  5
93A8
  8
AM_0
 10
455.55052215561687
 20
70.817544706575305
 30
0.0
 70
    32
  0
VERTEX
  5
93A9
  8
AM_0
 10
455.55452215561689
 20
70.817444706575301
 30
0.0
 70
    32
  0
VERTEX
  5
93AA
  8
AM_0
 10
455.55952215561712
 20
70.817444706575301
 30
0.0
 70
    32
  0
VERTEX
  5
93AB
  8
AM_0
 10
455.56352215561651
 20
70.817344706575341
 30
0.0
 70
    32
  0
VERTEX
  5
93AC
  8
AM_0
 10
455.56852215561707
 20
70.81724470657538
 30
0.0
 70
    32
  0
VERTEX
  5
93AD
  8
AM_0
 10
455.57252215561653
 20
70.81724470657538
 30
0.0
 70
    32
  0
VERTEX
  5
93AE
  8
AM_0
 10
455.57652215561689
 20
70.817144706574481
 30
0.0
 70
    32
  0
VERTEX
  5
93AF
  8
AM_0
 10
455.58152215561688
 20
70.817144706574481
 30
0.0
 70
    32
  0
VERTEX
  5
93B0
  8
AM_0
 10
455.58552215561627
 20
70.817044706575416
 30
0.0
 70
    32
  0
VERTEX
  5
93B1
  8
AM_0
 10
455.58952215561618
 20
70.817044706575416
 30
0.0
 70
    32
  0
VERTEX
  5
93B2
  8
AM_0
 10
455.59452215561629
 20
70.816944706575228
 30
0.0
 70
    32
  0
VERTEX
  5
93B3
  8
AM_0
 10
455.59852215561631
 20
70.816944706575228
 30
0.0
 70
    32
  0
VERTEX
  5
93B4
  8
AM_0
 10
455.60252215561712
 20
70.816844706575225
 30
0.0
 70
    32
  0
VERTEX
  5
93B5
  8
AM_0
 10
455.60752215561632
 20
70.816844706575225
 30
0.0
 70
    32
  0
VERTEX
  5
93B6
  8
AM_0
 10
455.61152215561702
 20
70.816844706575225
 30
0.0
 70
    32
  0
VERTEX
  5
93B7
  8
AM_0
 10
455.61552215561801
 20
70.81674470657434
 30
0.0
 70
    32
  0
VERTEX
  5
93B8
  8
AM_0
 10
455.6205221556163
 20
70.81674470657434
 30
0.0
 70
    32
  0
VERTEX
  5
93B9
  8
AM_0
 10
455.62452215561711
 20
70.816644706575275
 30
0.0
 70
    32
  0
VERTEX
  5
93BA
  8
AM_0
 10
455.62852215561679
 20
70.816644706575275
 30
0.0
 70
    32
  0
VERTEX
  5
93BB
  8
AM_0
 10
455.63352215561702
 20
70.816644706575275
 30
0.0
 70
    32
  0
VERTEX
  5
93BC
  8
AM_0
 10
455.63752215561829
 20
70.816544706575314
 30
0.0
 70
    32
  0
SEQEND
  5
93BD
  8
AM_0
  0
LINE
  5
93BE
  8
AM_0
 10
466.13756922069109
 20
70.816578384516319
 30
0.0
 11
455.63756922069138
 21
70.816578384516319
 31
0.0
  0
ARC
  5
93BF
  8
AM_0
 10
455.63756922069138
 20
63.04672990353243
 30
0.0
 40
2.5
 50
180.0
 51
270.0
  0
LINE
  5
93C0
  8
AM_0
 10
453.13756922069109
 20
58.946729903532493
 30
0.0
 11
453.13756922069109
 21
129.9467299035334
 31
0.0
  0
ARC
  5
93C1
  8
AM_0
 10
453.63756922069109
 20
58.946729903532493
 30
0.0
 40
0.5
 50
180.0
 51
270.0
  0
LINE
  5
93C2
  8
AM_0
 10
455.63756922069138
 20
60.546729903533318
 30
0.0
 11
464.67256922069117
 21
60.546729903533318
 31
0.0
  0
LINE
  5
93C4
  8
AM_0
 10
471.64741322069023
 20
88.946717903532274
 30
0.0
 11
466.13758269406708
 21
88.946717903532274
 31
0.0
  0
LINE
  5
93C5
  8
AM_0
 10
466.13758269406708
 20
99.946717903533226
 30
0.0
 11
471.64741322069023
 21
99.946717903533226
 31
0.0
  0
LINE
  5
93C6
  8
AM_0
 10
470.13758269406878
 20
130.44671790353229
 30
0.0
 11
470.13758269406878
 21
99.946717903531393
 31
0.0
  0
LINE
  5
93C7
  8
AM_0
 10
470.13758269406878
 20
88.946717903532274
 30
0.0
 11
470.13758269406878
 21
58.44671790353231
 31
0.0
  0
LINE
  5
93CB
  8
ﾁｭｳｼﾝｾﾝ
 10
496.61876335133343
 20
185.17540928569639
 30
0.0
 11
479.6482138894433
 21
202.14598532074601
 31
0.0
  0
ARC
  5
93CC
  8
ﾁｭｳｼﾝｾﾝ
 10
564.14744522068838
 20
117.6467289035356
 30
0.0
 40
107.5000109999969
 50
128.60086519274051
 51
141.39913254600029
  0
LINE
  5
93CD
  8
ﾁｭｳｼﾝｾﾝ
 10
496.61876483852723
 20
50.118047034174431
 30
0.0
 11
479.64818880347792
 21
33.147497572284493
 31
0.0
  0
ARC
  5
93CE
  8
ﾁｭｳｼﾝｾﾝ
 10
564.14744522068804
 20
117.64672890352939
 30
0.0
 40
107.5000109999969
 50
218.60086519274051
 51
231.39913254600029
  0
LINE
  5
93CF
  8
ﾁｭｳｼﾝｾﾝ
 10
631.67612709004925
 20
50.11804852136823
 30
0.0
 11
648.64667655193909
 21
33.147472486318861
 31
0.0
  0
ARC
  5
93D0
  8
ﾁｭｳｼﾝｾﾝ
 10
564.14744522069441
 20
117.64672890352919
 30
0.0
 40
107.5000109999969
 50
308.6008651927404
 51
321.3991325460002
  0
LINE
  5
93D1
  8
ﾁｭｳｼﾝｾﾝ
 10
516.2176960905681
 20
94.446729903533424
 30
0.0
 11
612.07719435081458
 21
94.446729903533424
 31
0.0
  0
LINE
  5
95B7
  8
AM_0
 10
358.5782212640479
 20
388.35020007624041
 30
0.0
 11
390.57822126404778
 21
388.35020007624041
 31
0.0
  0
LINE
  5
95B8
  8
AM_0
 10
348.57825126404782
 20
370.35026007624049
 30
0.0
 11
390.57822126404778
 21
370.35026007624049
 31
0.0
  0
LINE
  5
95B9
  8
AM_0
 10
348.57825126404782
 20
398.35026007624037
 30
0.0
 11
390.57822126404778
 21
398.35026007624037
 31
0.0
  0
LINE
  5
95BA
  8
AM_0
 10
358.5782212640479
 20
380.35023007624028
 30
0.0
 11
390.57822126404778
 21
380.35023007624028
 31
0.0
  0
LINE
  5
95BB
  8
ﾁｭｳｼﾝｾﾝ
 10
11.466621264047999
 20
384.35023007624022
 30
0.0
 11
395.28525126404787
 21
384.35023007624022
 31
0.0
  0
POLYLINE
  5
96A9
  8
AM_0
 66
     1
 10
0.0
 20
0.0
 30
0.0
  0
VERTEX
  5
96AA
  8
AM_0
 10
331.49131126404779
 20
468.76322007624032
 30
0.0
 42
0.081985852
  0
VERTEX
  5
96AB
  8
AM_0
 10
309.37542126404782
 20
413.85154007624033
 30
0.0
 42
0.10914194
  0
VERTEX
  5
96AC
  8
AM_0
 10
309.37551126404782
 20
354.84853007624008
 30
0.0
 42
0.081985219
  0
VERTEX
  5
96AD
  8
AM_0
 10
331.49131126404779
 20
299.93723007624038
 30
0.0
  0
SEQEND
  5
96AE
  8
AM_0
  0
ARC
  5
96AF
  8
AM_0
 10
358.5782212640479
 20
384.35020007624041
 30
0.0
 40
3.9999962
 50
90.000003000000945
 51
270.0
  0
LINE
  5
96B0
  8
AM_0
 10
358.5782212640479
 20
388.35020007624041
 30
0.0
 11
358.5782212640479
 21
380.35023007624028
 31
0.0
  0
LINE
  5
96B1
  8
AM_0
 10
344.57825126404771
 20
291.85023007624022
 30
0.0
 11
344.57825126404771
 21
476.85023007624039
 31
0.0
  0
LINE
  5
96B2
  8
AM_0
 10
338.57825126404782
 20
313.85023007624039
 30
0.0
 11
338.57825126404782
 21
454.52253007624017
 31
0.0
  0
LINE
  5
96B3
  8
AM_0
 10
334.57825126404782
 20
294.1308400762403
 30
0.0
 11
334.57825126404782
 21
474.5696200762402
 31
0.0
  0
LINE
  5
96B4
  8
AM_0
 10
348.57828126404769
 20
469.35023007624028
 30
0.0
 11
348.57828126404769
 21
299.35023007624022
 31
0.0
  0
LINE
  5
96B8
  8
AM_0
 10
226.07825126404771
 20
320.85023007624022
 30
0.0
 11
226.07825126404771
 21
447.85023007624039
 31
0.0
  0
LINE
  5
96B9
  8
AM_0
 10
262.5782212640479
 20
313.26005007624042
 30
0.0
 11
262.5782212640479
 21
455.44041007624031
 31
0.0
  0
LINE
  5
96BA
  8
AM_0
 10
252.57825126404779
 20
307.52137007624049
 30
0.0
 11
252.57825126404779
 21
461.17909007624053
 31
0.0
  0
LINE
  5
96BB
  8
AM_0
 10
269.57825126404788
 20
302.09928007624001
 30
0.0
 11
269.57825126404788
 21
466.60118007624038
 31
0.0
  0
ARC
  5
96BC
  8
AM_0
 10
249.57825126404771
 20
317.02775007624041
 30
0.0
 40
3.0
 50
0.0
 51
87.999999999999659
  0
ARC
  5
96BD
  8
AM_0
 10
257.57825126404788
 20
307.52137007624049
 30
0.0
 40
5.0
 50
180.00001000000091
 51
267.9999999999996
  0
LINE
  5
96BE
  8
AM_0
 10
252.57825126404779
 20
325.04173007624041
 30
0.0
 11
262.5782212640479
 21
325.04173007624041
 31
0.0
  0
LINE
  5
973E
  8
AM_0
 10
226.07828126404769
 20
320.85020007624041
 30
0.0
 11
249.68293126404771
 21
320.02592007624031
 31
0.0
  0
LINE
  5
973F
  8
AM_0
 10
226.07825126404771
 20
332.3102200762404
 30
0.0
 11
252.57822126404781
 21
332.3102200762404
 31
0.0
  0
LINE
  5
9745
  8
AM_0
 10
226.07825126404771
 20
347.20231007624039
 30
0.0
 11
252.57822126404781
 21
347.20231007624039
 31
0.0
  0
LINE
  5
9746
  8
AM_0
 10
329.52295126404772
 20
300.00596007624023
 30
0.0
 11
269.57825126404788
 21
302.09928007624001
 31
0.0
  0
LINE
  5
9747
  8
AM_0
 10
269.57825126404788
 20
302.09928007624001
 30
0.0
 11
257.4037512640478
 21
302.5244200762404
 31
0.0
  0
ARC
  5
9748
  8
AM_0
 10
336.5782812640478
 20
294.1308400762403
 30
0.0
 40
2.0
 50
179.99998999999889
 51
268.00000999999861
  0
ARC
  5
9749
  8
AM_0
 10
329.34845126404781
 20
295.00901007624037
 30
0.0
 40
5.0
 50
45.000000999999187
 51
87.999999999999659
  0
LINE
  5
974A
  8
AM_0
 10
332.8840112640479
 20
298.54453007624039
 30
0.0
 11
334.5782812640478
 21
296.85026007624049
 31
0.0
  0
LINE
  5
974B
  8
AM_0
 10
336.50846126404781
 20
292.13203007624031
 30
0.0
 11
344.57822126404778
 21
291.85023007624022
 31
0.0
  0
LINE
  5
974C
  8
AM_0
 10
344.57825126404771
 20
299.35023007624022
 30
0.0
 11
348.57828126404769
 21
299.35023007624022
 31
0.0
  0
ARC
  5
974D
  8
AM_0
 10
337.57825126404788
 20
333.22499007624032
 30
0.0
 40
3.0
 50
90.000003000000945
 51
180.00001000000091
  0
ARC
  5
974E
  8
AM_0
 10
335.57825126404782
 20
314.17793007624022
 30
0.0
 40
3.0
 50
267.9999999999996
 51
0.0
  0
ARC
  5
9750
  8
AM_0
 10
249.57825126404771
 20
451.67271007624038
 30
0.0
 40
3.0
 50
272.0000000000004
 51
0.0
  0
ARC
  5
9751
  8
AM_0
 10
257.57825126404788
 20
461.17909007624053
 30
0.0
 40
5.0
 50
91.999998000000545
 51
180.00001000000091
  0
LINE
  5
9752
  8
AM_0
 10
252.57825126404779
 20
443.65873007624032
 30
0.0
 11
262.5782212640479
 21
443.65873007624032
 31
0.0
  0
LINE
  5
9771
  8
AM_0
 10
226.07825126404771
 20
421.49815007624028
 30
0.0
 11
252.57822126404781
 21
421.49815007624028
 31
0.0
  0
LINE
  5
9780
  8
AM_0
 10
226.07825126404771
 20
436.39024007624039
 30
0.0
 11
252.57822126404781
 21
436.39024007624039
 31
0.0
  0
LINE
  5
9781
  8
AM_0
 10
226.07825126404771
 20
447.85023007624039
 30
0.0
 11
249.6829612640478
 21
448.67454007624008
 31
0.0
  0
ARC
  5
9782
  8
AM_0
 10
335.57825126404782
 20
454.52253007624017
 30
0.0
 40
3.0
 50
0.0
 51
91.999998000000545
  0
ARC
  5
9783
  8
AM_0
 10
337.57825126404788
 20
435.47547007624053
 30
0.0
 40
3.0
 50
179.99998999999889
 51
270.0
  0
LINE
  5
9785
  8
AM_0
 10
329.52295126404772
 20
468.69447007624041
 30
0.0
 11
269.57825126404788
 21
466.60118007624038
 31
0.0
  0
LINE
  5
9786
  8
AM_0
 10
269.57822126404773
 20
466.60118007624038
 30
0.0
 11
257.40372126404787
 21
466.17603007624041
 31
0.0
  0
ARC
  5
9787
  8
AM_0
 10
336.5782812640478
 20
474.5696200762402
 30
0.0
 40
2.0
 50
91.999998000000545
 51
180.00001000000091
  0
LINE
  5
9788
  8
AM_0
 10
332.8840112640479
 20
470.15589007624033
 30
0.0
 11
334.5782812640478
 21
471.85020007624053
 31
0.0
  0
ARC
  5
9789
  8
AM_0
 10
329.34845126404781
 20
473.69145007624007
 30
0.0
 40
5.0
 50
272.0000000000004
 51
315.0
  0
LINE
  5
978A
  8
AM_0
 10
344.57825126404771
 20
469.35023007624028
 30
0.0
 11
348.57828126404769
 21
469.35023007624028
 31
0.0
  0
LINE
  5
978B
  8
AM_0
 10
336.50849126404768
 20
476.56840007624032
 30
0.0
 11
344.57825126404771
 21
476.85020007624053
 31
0.0
  0
LINE
  5
978C
  8
AM_0
 10
390.57822126404778
 20
398.35026007624037
 30
0.0
 11
390.57822126404778
 21
370.35026007624049
 31
0.0
  0
LINE
  5
9902
  8
AM_0
 10
84.748231264047618
 20
417.72022007624048
 30
0.0
 11
179.09827126404761
 21
417.72022007624048
 31
0.0
  0
LINE
  5
9903
  8
AM_0
 10
84.538271264047594
 20
410.84022007624043
 30
0.0
 11
179.07825126404751
 21
410.84022007624043
 31
0.0
  0
LINE
  5
9904
  8
AM_0
 10
179.07825126404751
 20
418.35023007624039
 30
0.0
 11
85.628241264047816
 21
418.35023007624039
 31
0.0
  0
LINE
  5
9905
  8
AM_0
 10
179.07825126404751
 20
410.35023007624039
 30
0.0
 11
85.628241264047816
 21
410.35023007624039
 31
0.0
  0
LINE
  5
9906
  8
AM_0
 10
146.52033126404751
 20
378.35023007624051
 30
0.0
 11
76.62824126404783
 21
378.35023007624051
 31
0.0
  0
LINE
  5
9907
  8
AM_0
 10
75.408271264047698
 20
370.67017007624048
 30
0.0
 11
147.7495212640475
 21
370.67017007624048
 31
0.0
  0
LINE
  5
9908
  8
AM_0
 10
75.34827126404754
 20
378.08021007624052
 30
0.0
 11
147.81336126404781
 21
378.08021007624052
 31
0.0
  0
LINE
  5
9909
  8
AM_0
 10
146.51697126404761
 20
400.35023007624039
 30
0.0
 11
76.62824126404783
 21
400.35023007624039
 31
0.0
  0
LINE
  5
990A
  8
AM_0
 10
146.51697126404761
 20
398.35023007624039
 30
0.0
 11
76.62824126404783
 21
398.35023007624039
 31
0.0
  0
LINE
  5
990B
  8
AM_0
 10
146.52033126404751
 20
390.35023007624051
 30
0.0
 11
76.62824126404783
 21
390.35023007624051
 31
0.0
  0
LINE
  5
990C
  8
AM_0
 10
146.52033126404751
 20
388.35023007624051
 30
0.0
 11
76.62824126404783
 21
388.35023007624051
 31
0.0
  0
LINE
  5
990D
  8
AM_0
 10
75.408271264047698
 20
400.70020007624061
 30
0.0
 11
147.7495212640475
 21
400.70020007624061
 31
0.0
  0
LINE
  5
990E
  8
AM_0
 10
75.408271264047698
 20
398.03028007624039
 30
0.0
 11
147.7369412640478
 21
398.03028007624039
 31
0.0
  0
LINE
  5
990F
  8
AM_0
 10
75.34827126404754
 20
390.63026007624052
 30
0.0
 11
147.81336126404781
 21
390.63026007624052
 31
0.0
  0
LINE
  5
9910
  8
AM_0
 10
75.34827126404754
 20
388.0902200762406
 30
0.0
 11
147.81336126404781
 21
388.0902200762406
 31
0.0
  0
LINE
  5
9911
  8
AM_0
 10
75.34827126404754
 20
380.62025007624038
 30
0.0
 11
147.81336126404781
 21
380.62025007624038
 31
0.0
  0
LINE
  5
9912
  8
AM_0
 10
146.52033126404751
 20
380.35023007624051
 30
0.0
 11
76.62824126404783
 21
380.35023007624051
 31
0.0
  0
LINE
  5
9913
  8
AM_0
 10
118.80312499819971
 20
307.35023007624108
 30
0.0
 11
123.6031249982001
 21
307.35023007624108
 31
0.0
  0
LINE
  5
9914
  8
AM_0
 10
94.078251264047708
 20
320.4602100762404
 30
0.0
 11
135.40467126404761
 21
320.4602100762404
 31
0.0
  0
LINE
  5
9915
  8
AM_0
 10
84.748231264047618
 20
350.99024007624053
 30
0.0
 11
179.09827126404761
 21
350.99024007624053
 31
0.0
  0
LINE
  5
9916
  8
AM_0
 10
167.07825126404759
 20
348.35023007624039
 30
0.0
 11
85.613901264047541
 21
348.35023007624039
 31
0.0
  0
LINE
  5
9917
  8
AM_0
 10
84.748231264047618
 20
347.63026007624052
 30
0.0
 11
167.07825126404759
 21
347.63026007624052
 31
0.0
  0
LINE
  5
9918
  8
AM_0
 10
84.538271264047594
 20
357.87025007624038
 30
0.0
 11
179.07825126404751
 21
357.87025007624038
 31
0.0
  0
LINE
  5
9919
  8
AM_0
 10
179.07825126404751
 20
350.35023007624039
 30
0.0
 11
85.613901264047541
 21
350.35023007624039
 31
0.0
  0
LINE
  5
991A
  8
AM_0
 10
179.07825126404751
 20
358.35023007624039
 30
0.0
 11
85.613901264047541
 21
358.35023007624039
 31
0.0
  0
LINE
  5
991B
  8
AM_0
 10
196.20312499820071
 20
273.35023007624062
 30
0.0
 11
120.7288201350411
 21
273.35023007624102
 31
0.0
  0
LINE
  5
991C
  8
AM_0
 10
120.3217012139893
 20
278.35023007624102
 30
0.0
 11
152.2997709527215
 21
283.79865611298419
 31
0.0
  0
LINE
  5
991D
  8
AM_0
 10
197.02882013504151
 20
286.35023007624022
 30
0.0
 11
120.7288201350411
 21
273.35023007624102
 31
0.0
  0
LINE
  5
991E
  8
AM_0
 10
120.4031249981997
 20
277.35023007624108
 30
0.0
 11
196.70312499820031
 21
290.35023007624022
 31
0.0
  0
LINE
  5
991F
  8
AM_0
 10
120.4031249981997
 20
277.35023007624108
 30
0.0
 11
196.70312499820031
 21
290.35023007624022
 31
0.0
  0
LINE
  5
9920
  8
AM_0
 10
146.52033126404751
 20
370.35023007624051
 30
0.0
 11
76.62824126404783
 21
370.35023007624051
 31
0.0
  0
LINE
  5
9921
  8
AM_0
 10
146.52033126404751
 20
368.35023007624051
 30
0.0
 11
76.62824126404783
 21
368.35023007624051
 31
0.0
  0
LINE
  5
9922
  8
AM_0
 10
75.408271264047698
 20
368.0102600762404
 30
0.0
 11
147.7495212640475
 21
368.0102600762404
 31
0.0
  0
LINE
  5
9923
  8
AM_0
 10
112.07825126404769
 20
430.70020007624038
 30
0.0
 11
218.07825126404759
 21
430.70020007624038
 31
0.0
  0
LINE
  5
9924
  8
AM_0
 10
112.07825126404769
 20
338.00025007624049
 30
0.0
 11
218.07825126404759
 21
338.00025007624049
 31
0.0
  0
LINE
  5
9925
  8
AM_0
 10
94.078251264047708
 20
322.49024007624058
 30
0.0
 11
210.88825126404751
 21
322.49024007624058
 31
0.0
  0
LINE
  5
9926
  8
AM_0
 10
94.078251264047708
 20
446.21021007624063
 30
0.0
 11
210.88825126404751
 21
446.21021007624063
 31
0.0
  0
LINE
  5
9927
  8
AM_0
 10
94.078251264047708
 20
450.27027007624042
 30
0.0
 11
212.1619312640475
 21
450.27027007624042
 31
0.0
  0
LINE
  5
9928
  8
AM_0
 10
94.078251264047708
 20
449.60023007624051
 30
0.0
 11
212.3059112640475
 21
449.60023007624051
 31
0.0
  0
LINE
  5
9929
  8
AM_0
 10
94.078251264047708
 20
448.24024007624053
 30
0.0
 11
212.59821126404759
 21
448.24024007624053
 31
0.0
  0
LINE
  5
992A
  8
AM_0
 10
211.41828126404741
 20
420.35023007624039
 30
0.0
 11
85.628241264047816
 21
420.35023007624039
 31
0.0
  0
LINE
  5
992B
  8
AM_0
 10
211.41108126404751
 20
408.35023007624039
 30
0.0
 11
85.628241264047816
 21
408.35023007624039
 31
0.0
  0
LINE
  5
992C
  8
AM_0
 10
84.748231264047618
 20
421.08021007624052
 30
0.0
 11
214.89826126404751
 21
421.08021007624052
 31
0.0
  0
LINE
  5
992D
  8
AM_0
 10
84.538271264047594
 20
407.92017007624042
 30
0.0
 11
215.11249126404761
 21
407.92017007624042
 31
0.0
  0
LINE
  5
992E
  8
AM_0
 10
211.41108126404751
 20
360.35023007624039
 30
0.0
 11
85.613901264047541
 21
360.35023007624039
 31
0.0
  0
LINE
  5
992F
  8
AM_0
 10
84.538271264047594
 20
360.79017007624049
 30
0.0
 11
215.11249126404761
 21
360.79017007624049
 31
0.0
  0
LINE
  5
9930
  8
AM_0
 10
14.57828126404771
 20
379.35023007624039
 30
0.0
 11
14.57828126404771
 21
389.35023007624039
 31
0.0
  0
LINE
  5
9931
  8
AM_0
 10
71.078251264047736
 20
325.60023007624039
 30
0.0
 11
71.078251264047736
 21
384.35023007624051
 31
0.0
  0
LINE
  5
9932
  8
AM_0
 10
15.576821164047679
 20
440.35023007624039
 30
0.0
 11
15.576821164047679
 21
328.35023007624051
 31
0.0
  0
LINE
  5
9933
  8
AM_0
 10
23.578251264047729
 20
331.56824007624061
 30
0.0
 11
23.578251264047729
 21
437.10023007624022
 31
0.0
  0
LINE
  5
9934
  8
AM_0
 10
66.078251264047751
 20
347.16517007624049
 30
0.0
 11
66.078251264047751
 21
421.53626007624041
 31
0.0
  0
LINE
  5
9935
  8
AM_0
 10
21.078251264047729
 20
349.82117007624038
 30
0.0
 11
21.078251264047729
 21
418.8792800762406
 31
0.0
  0
LINE
  5
9936
  8
AM_0
 10
20.576821164047679
 20
419.08869117194757
 30
0.0
 11
20.576821164047679
 21
349.6117689805331
 31
0.0
  0
LINE
  5
9937
  8
AM_0
 10
22.278261264047639
 20
350.05921007624039
 30
0.0
 11
23.578251264047729
 21
350.05921007624039
 31
0.0
  0
LINE
  5
9938
  8
AM_0
 10
22.278261264047639
 20
340.8592600762405
 30
0.0
 11
23.578251264047729
 21
340.8592600762405
 31
0.0
  0
LINE
  5
9939
  8
AM_0
 10
23.078251264047729
 20
331.60023007624051
 30
0.0
 11
71.078251264047736
 21
331.60023007624051
 31
0.0
  0
ARC
  5
993A
  8
AM_0
 10
25.576821164047679
 20
329.35023007624051
 30
0.0
 40
5.0
 50
179.99997999999781
 51
269.99995000000138
  0
ARC
  5
993B
  8
AM_0
 10
24.576821164047679
 20
328.35023007624051
 30
0.0
 40
9.0
 50
179.99997999999781
 51
269.99995000000138
  0
LINE
  5
993C
  8
AM_0
 10
22.278261264047639
 20
350.05921007624039
 30
0.0
 11
22.278261264047639
 21
340.8592600762405
 31
0.0
  0
ARC
  5
993D
  8
AM_0
 10
21.978281264047631
 20
346.95924007624041
 30
0.0
 40
3.0
 50
89.999988999997569
 51
179.99997999999781
  0
LINE
  5
993E
  8
AM_0
 10
20.576821164047679
 20
341.30671117194771
 30
0.0
 11
20.576821164047679
 21
329.35023007624051
 31
0.0
  0
LINE
  5
993F
  8
AM_0
 10
21.078251264047729
 20
341.09730007624051
 30
0.0
 11
21.078251264047729
 21
333.60023007624051
 31
0.0
  0
ARC
  5
9940
  8
AM_0
 10
23.078251264047729
 20
333.60023007624051
 30
0.0
 40
2.0
 50
179.99997999999781
 51
269.99995000000138
  0
LINE
  5
9941
  8
AM_0
 10
21.978281264047631
 20
340.95924007624041
 30
0.0
 11
22.278261264047639
 21
340.95924007624041
 31
0.0
  0
LINE
  5
9942
  8
AM_0
 10
18.978281264047631
 20
346.95924007624041
 30
0.0
 11
18.978281264047631
 21
343.95924007624041
 31
0.0
  0
ARC
  5
9943
  8
AM_0
 10
21.978281264047631
 20
343.95924007624041
 30
0.0
 40
3.0
 50
179.99997999999781
 51
269.99995000000138
  0
LINE
  5
9944
  8
AM_0
 10
21.978281264047631
 20
349.95924007624041
 30
0.0
 11
22.278261264047639
 21
349.95924007624041
 31
0.0
  0
LINE
  5
9945
  8
AM_0
 10
15.576821164047679
 20
379.35023007624039
 30
0.0
 11
14.57828126404771
 21
379.35023007624039
 31
0.0
  0
LINE
  5
9946
  8
AM_0
 10
21.078251264047729
 20
379.35023007624039
 30
0.0
 11
20.576821164047679
 21
379.35023007624039
 31
0.0
  0
LINE
  5
9947
  8
AM_0
 10
116.30312499819981
 20
278.35023007624102
 30
0.0
 11
116.30312499819981
 21
274.85023007624102
 31
0.0
  0
LINE
  5
9948
  8
AM_0
 10
115.8031249982008
 20
282.35023007624108
 30
0.0
 11
115.803124998201
 21
274.85023007624102
 31
0.0
  0
ARC
  5
9949
  8
AM_0
 10
117.3031249982009
 20
274.85023007624102
 30
0.0
 40
1.5000000000001099
 50
180.0
 51
269.99999999999511
  0
ARC
  5
994A
  8
AM_0
 10
117.8031249982003
 20
274.85023007624102
 30
0.0
 40
1.499999999999998
 50
180.0
 51
270.0
  0
LINE
  5
994B
  8
AM_0
 10
117.3031249982009
 20
273.35023007624102
 30
0.0
 11
117.60161089435771
 21
273.35023007624102
 31
0.0
  0
LINE
  5
994C
  8
AM_0
 10
117.8031249982003
 20
273.35023007624102
 30
0.0
 11
120.7288201350411
 21
273.35023007624102
 31
0.0
  0
LINE
  5
994D
  8
AM_0
 10
117.80312499819981
 20
306.35023007624108
 30
0.0
 11
117.8031249982001
 21
278.35023007624102
 31
0.0
  0
LINE
  5
994E
  8
AM_0
 10
116.6031249982005
 20
282.35023007624108
 30
0.0
 11
115.8031249982008
 21
282.35023007624108
 31
0.0
  0
LINE
  5
994F
  8
AM_0
 10
117.8031249982
 20
282.35023007624108
 30
0.0
 11
116.6031249982005
 21
282.35023007624108
 31
0.0
  0
LINE
  5
9950
  8
AM_0
 10
116.6031249982005
 20
277.35023007624108
 30
0.0
 11
120.4031249981997
 21
277.35023007624108
 31
0.0
  0
LINE
  5
9951
  8
AM_0
 10
120.3217012139893
 20
278.35023007624102
 30
0.0
 11
116.30312499819981
 21
278.35023007624102
 31
0.0
  0
LINE
  5
9952
  8
AM_0
 10
116.30312499819981
 20
277.35023007624108
 30
0.0
 11
120.4031249981997
 21
277.35023007624108
 31
0.0
  0
ARC
  5
9953
  8
AM_0
 10
118.80312499819971
 20
306.35023007624108
 30
0.0
 40
1.0
 50
90.0
 51
180.0
  0
LINE
  5
9954
  8
AM_0
 10
71.078251264047736
 20
350.05018007624051
 30
0.0
 11
81.078251264047623
 21
350.05018007624051
 31
0.0
  0
LINE
  5
9955
  8
AM_0
 10
71.078251264047736
 20
341.66028007624038
 30
0.0
 11
81.078251264047623
 21
341.66028007624038
 31
0.0
  0
LINE
  5
9956
  8
AM_0
 10
71.078251264047736
 20
326.92026007624048
 30
0.0
 11
73.89826126404742
 21
326.8602700762404
 31
0.0
  0
LINE
  5
9957
  8
AM_0
 10
71.078251264047736
 20
336.00025007624049
 30
0.0
 11
81.078251264047623
 21
336.00025007624049
 31
0.0
  0
LINE
  5
9958
  8
AM_0
 10
23.578251264047729
 20
340.45924007624041
 30
0.0
 11
66.078251264047751
 21
340.45924007624041
 31
0.0
  0
LINE
  5
9959
  8
AM_0
 10
25.576821164047679
 20
324.35023007624051
 30
0.0
 11
49.078251264047729
 21
324.35023007624051
 31
0.0
  0
LINE
  5
995A
  8
AM_0
 10
24.576821164047679
 20
319.35023007624051
 30
0.0
 11
62.078251264047744
 21
319.35023007624051
 31
0.0
  0
LINE
  5
995B
  8
AM_0
 10
46.078251264047722
 20
325.60023007624051
 30
0.0
 11
71.078251264047736
 21
325.60023007624051
 31
0.0
  0
LINE
  5
995C
  8
AM_0
 10
46.078251264047722
 20
325.60023007624051
 30
0.0
 11
46.078251264047722
 21
331.60023007624051
 31
0.0
  0
LINE
  5
995D
  8
AM_0
 10
59.078251264047729
 20
324.35023007624051
 30
0.0
 11
62.078251264047744
 21
324.35023007624051
 31
0.0
  0
LINE
  5
995E
  8
AM_0
 10
59.078251264047729
 20
325.60023007624051
 30
0.0
 11
59.078251264047729
 21
319.35023007624051
 31
0.0
  0
LINE
  5
995F
  8
AM_0
 10
49.078251264047729
 20
325.60023007624051
 30
0.0
 11
49.078251264047729
 21
319.35023007624051
 31
0.0
  0
LINE
  5
9960
  8
AM_0
 10
62.078251264047744
 20
324.35023007624051
 30
0.0
 11
62.078251264047744
 21
319.35023007624051
 31
0.0
  0
LINE
  5
9961
  8
AM_0
 10
66.078251264047751
 20
340.45924007624041
 30
0.0
 11
66.078251264047751
 21
331.60023007624051
 31
0.0
  0
LINE
  5
9962
  8
AM_0
 10
23.578251264047729
 20
350.70924007624041
 30
0.0
 11
66.078251264047751
 21
350.70924007624041
 31
0.0
  0
ARC
  5
9963
  8
AM_0
 10
93.071051264047952
 20
349.35023007624051
 30
0.0
 40
1.0000259
 50
89.587534000000232
 51
270.4124599999987
  0
ARC
  5
9964
  8
AM_0
 10
85.621101264047553
 20
349.35023007624051
 30
0.0
 40
1.0000255999999981
 50
89.589474000000749
 51
270.41051999999962
  0
ARC
  5
9965
  8
AM_0
 10
84.748231264047618
 20
349.30018007624039
 30
0.0
 40
1.6800002000000001
 50
90.000003000000945
 51
270.0
  0
LINE
  5
9966
  8
AM_0
 10
81.078251264047623
 20
336.00025007624049
 30
0.0
 11
81.078251264047623
 21
350.05018007624051
 31
0.0
  0
LINE
  5
9967
  8
AM_0
 10
112.0783112640478
 20
338.0003100762404
 30
0.0
 11
81.078311264047571
 21
340.0303100762406
 31
0.0
  0
ARC
  5
9968
  8
AM_0
 10
90.576301264047544
 20
329.8682900762405
 30
0.0
 40
1.501982699999999
 50
0.075587202000581
 51
89.924413000001564
  0
LINE
  5
9969
  8
AM_0
 10
83.022531264047544
 20
327.66028007624038
 30
0.0
 11
82.062571264047392
 21
332.1302600762404
 31
0.0
  0
ARC
  5
996A
  8
AM_0
 10
84.975591264047793
 20
328.0772800762403
 30
0.0
 40
1.997119399999999
 50
192.05523999999849
 51
270.19862999999867
  0
LINE
  5
996B
  8
AM_0
 10
76.778871264047794
 20
322.6801800762405
 30
0.0
 11
90.820991264047734
 21
322.6801800762405
 31
0.0
  0
LINE
  5
996C
  8
AM_0
 10
72.88825126404754
 20
329.25025007624049
 30
0.0
 11
82.681031264047547
 21
329.25025007624049
 31
0.0
  0
ARC
  5
996D
  8
AM_0
 10
72.905951264047559
 20
325.73194007624051
 30
0.0
 40
1.4982997
 50
14.229740000001581
 51
89.910950000001179
  0
LINE
  5
996E
  8
AM_0
 10
72.908271264047627
 20
327.2302300762405
 30
0.0
 11
74.558231264047578
 21
327.2302300762405
 31
0.0
  0
ARC
  5
996F
  8
AM_0
 10
72.891481264047599
 20
327.7525700762406
 30
0.0
 40
1.497715799999999
 50
13.424378999999609
 51
90.122645000001114
  0
ARC
  5
9970
  8
AM_0
 10
77.215091264047629
 20
324.6807900762405
 30
0.0
 40
2.0005671999999981
 50
193.30958999999871
 51
269.80430999999942
  0
ARC
  5
9971
  8
AM_0
 10
76.778871264047794
 20
324.6801800762405
 30
0.0
 40
2.0
 50
194.15074999999959
 51
269.999989999999
  0
LINE
  5
9972
  8
AM_0
 10
75.268251264047549
 20
324.2201900762405
 30
0.0
 11
74.34827126404754
 21
328.10026007624049
 31
0.0
  0
LINE
  5
9973
  8
AM_0
 10
74.839601264047744
 20
324.19126007624038
 30
0.0
 11
74.358281264047619
 21
326.1002900762403
 31
0.0
  0
ARC
  5
9974
  8
AM_0
 10
94.079171264047559
 20
322.46119007624048
 30
0.0
 40
2.0009109999999981
 50
180.00001000000091
 51
269.97390999999971
  0
ARC
  5
9975
  8
AM_0
 10
90.820991264047734
 20
321.1801800762405
 30
0.0
 40
1.5
 50
21.46170900000077
 51
90.000003000000945
  0
ARC
  5
9976
  8
AM_0
 10
90.575141264047645
 20
324.5870400762405
 30
0.0
 40
1.503128599999999
 50
0.1191296499989459
 51
89.880869999998822
  0
LINE
  5
9977
  8
AM_0
 10
84.775881264047626
 20
326.0902200762406
 30
0.0
 11
90.578251264047722
 21
326.0902200762406
 31
0.0
  0
ARC
  5
9978
  8
AM_0
 10
94.078311264047585
 20
324.49024007624058
 30
0.0
 40
2.0000371999999991
 50
180.0010599999992
 51
269.99892999999958
  0
LINE
  5
9979
  8
AM_0
 10
92.078251264047722
 20
322.46119007624048
 30
0.0
 11
92.078251264047722
 21
329.87025007624038
 31
0.0
  0
ARC
  5
997A
  8
AM_0
 10
80.697941264047714
 20
346.69556007624038
 30
0.0
 40
6.0073843
 50
273.6297400000006
 51
314.76384999999948
  0
ARC
  5
997B
  8
AM_0
 10
85.037661264047529
 20
333.35547007624052
 30
0.0
 40
1.9952742999999991
 50
189.96478000000039
 51
269.85141999999968
  0
ARC
  5
997C
  8
AM_0
 10
80.241091264047569
 20
342.76172007624052
 30
0.0
 40
4.9991421999999961
 50
5.3780268999994201
 51
80.360064999998514
  0
ARC
  5
997D
  8
AM_0
 10
80.811411264047393
 20
337.09022007624048
 30
0.0
 40
1.5
 50
10.237378999998841
 51
79.752109999998723
  0
ARC
  5
997E
  8
AM_0
 10
80.595101264047585
 20
331.80787007624059
 30
0.0
 40
1.502416299999999
 50
12.391887000000411
 51
90.098616999999123
  0
LINE
  5
997F
  8
AM_0
 10
80.592531264047579
 20
333.31019007624059
 30
0.0
 11
83.012521264047706
 21
333.31019007624059
 31
0.0
  0
LINE
  5
9980
  8
AM_0
 10
82.287481264047543
 20
337.3568800762406
 30
0.0
 11
83.072511264047549
 21
333.01020007624038
 31
0.0
  0
LINE
  5
9981
  8
AM_0
 10
84.83808126404756
 20
331.3702500762405
 30
0.0
 11
90.578251264047722
 21
331.3702500762405
 31
0.0
  0
ARC
  5
9982
  8
AM_0
 10
84.219061264047696
 20
343.13990007624051
 30
0.0
 40
1.0032491999999991
 50
314.98119000000088
 51
5.1676434000008573
  0
ARC
  5
9983
  8
AM_0
 10
84.532541264047623
 20
359.3202000762405
 30
0.0
 40
1.460011199999999
 50
89.775248000001255
 51
270.22474000000028
  0
ARC
  5
9984
  8
AM_0
 10
85.621101264047553
 20
359.35023007624051
 30
0.0
 40
1.0000255999999981
 50
89.589474000000749
 51
270.41051999999962
  0
ARC
  5
9985
  8
AM_0
 10
93.071051264047952
 20
359.35023007624051
 30
0.0
 40
1.0000259
 50
89.587534000000232
 51
270.4124599999987
  0
ARC
  5
9986
  8
AM_0
 10
76.62824126404783
 20
369.35023007624039
 30
0.0
 40
1.0000056999999991
 50
90.000003000000945
 51
270.0
  0
ARC
  5
9987
  8
AM_0
 10
75.401981264047549
 20
369.3402200762406
 30
0.0
 40
1.3300148000000001
 50
89.729417999999541
 51
270.27058999999991
  0
ARC
  5
9988
  8
AM_0
 10
76.62824126404783
 20
379.35023007624039
 30
0.0
 40
1.0000056999999991
 50
90.000003000000945
 51
270.0
  0
ARC
  5
9989
  8
AM_0
 10
75.340031264047553
 20
379.35023007624039
 30
0.0
 40
1.2700266
 50
89.629320999999507
 51
270.3706899999986
  0
ARC
  5
998A
  8
AM_0
 10
93.071051264047952
 20
369.35023007624039
 30
0.0
 40
1.0000259
 50
89.587534000000232
 51
270.4124599999987
  0
ARC
  5
998B
  8
AM_0
 10
93.071051264047952
 20
379.35023007624039
 30
0.0
 40
1.0000259
 50
89.587534000000232
 51
270.4124599999987
  0
ARC
  5
998C
  8
AM_0
 10
25.576821164047679
 20
439.35023007624039
 30
0.0
 40
5.0
 50
89.999988999997569
 51
180.0
  0
LINE
  5
998D
  8
AM_0
 10
22.278261264047639
 20
427.84120007624023
 30
0.0
 11
23.578251264047729
 21
427.84120007624023
 31
0.0
  0
LINE
  5
998E
  8
AM_0
 10
22.278261264047639
 20
418.64125007624028
 30
0.0
 11
23.578251264047729
 21
418.64125007624028
 31
0.0
  0
LINE
  5
998F
  8
AM_0
 10
23.078251264047729
 20
437.10023007624022
 30
0.0
 11
71.078251264047736
 21
437.10023007624022
 31
0.0
  0
ARC
  5
9990
  8
AM_0
 10
24.576821164047679
 20
440.35023007624039
 30
0.0
 40
9.0
 50
89.999988999997569
 51
179.99997999999781
  0
LINE
  5
9991
  8
AM_0
 10
22.278261264047639
 20
418.64125007624028
 30
0.0
 11
22.278261264047639
 21
427.84120007624023
 31
0.0
  0
ARC
  5
9992
  8
AM_0
 10
21.978281264047631
 20
421.74122007624032
 30
0.0
 40
3.0
 50
180.00002000000191
 51
270.00001100000242
  0
LINE
  5
9993
  8
AM_0
 10
15.576821164047679
 20
389.35023007624039
 30
0.0
 11
14.57828126404771
 21
389.35023007624039
 31
0.0
  0
LINE
  5
9994
  8
AM_0
 10
21.078251264047729
 20
389.35023007624039
 30
0.0
 11
20.576821164047679
 21
389.35023007624039
 31
0.0
  0
LINE
  5
9995
  8
AM_0
 10
21.978281264047631
 20
418.74122007624038
 30
0.0
 11
22.278261264047639
 21
418.74122007624038
 31
0.0
  0
ARC
  5
9996
  8
AM_0
 10
23.078251264047729
 20
435.10023007624011
 30
0.0
 40
2.0
 50
90.000049999998538
 51
180.00002000000191
  0
LINE
  5
9997
  8
AM_0
 10
20.576821164047679
 20
427.39374898053302
 30
0.0
 11
20.576821164047679
 21
439.35023007624022
 31
0.0
  0
LINE
  5
9998
  8
AM_0
 10
21.078251264047729
 20
427.60316007624027
 30
0.0
 11
21.078251264047729
 21
435.10023007624011
 31
0.0
  0
LINE
  5
9999
  8
AM_0
 10
21.978281264047631
 20
427.74122007624038
 30
0.0
 11
22.278261264047639
 21
427.74122007624038
 31
0.0
  0
LINE
  5
999A
  8
AM_0
 10
18.978281264047631
 20
421.74122007624032
 30
0.0
 11
18.978281264047631
 21
424.74122007624032
 31
0.0
  0
ARC
  5
999B
  8
AM_0
 10
21.978281264047631
 20
424.74122007624032
 30
0.0
 40
3.0
 50
90.000049999998538
 51
180.00002000000191
  0
LINE
  5
999C
  8
AM_0
 10
71.078251264047736
 20
441.78022007624043
 30
0.0
 11
73.89826126404742
 21
441.85023007624039
 31
0.0
  0
LINE
  5
999D
  8
AM_0
 10
71.078251264047736
 20
427.04017007624049
 30
0.0
 11
81.078251264047623
 21
427.04017007624049
 31
0.0
  0
LINE
  5
999E
  8
AM_0
 10
71.078251264047736
 20
432.70020007624032
 30
0.0
 11
81.078251264047623
 21
432.70020007624032
 31
0.0
  0
LINE
  5
999F
  8
AM_0
 10
71.078251264047736
 20
418.66028007624038
 30
0.0
 11
81.078251264047623
 21
418.66028007624038
 31
0.0
  0
LINE
  5
99A0
  8
AM_0
 10
71.078251264047736
 20
443.10023007624062
 30
0.0
 11
71.078251264047736
 21
384.35023007624051
 31
0.0
  0
LINE
  5
99A1
  8
AM_0
 10
23.578251264047729
 20
417.99122007624032
 30
0.0
 11
66.078251264047751
 21
417.99122007624032
 31
0.0
  0
LINE
  5
99A2
  8
AM_0
 10
25.576821164047679
 20
444.35023007624039
 30
0.0
 11
49.078251264047729
 21
444.35023007624039
 31
0.0
  0
LINE
  5
99A3
  8
AM_0
 10
46.078251264047722
 20
443.10023007624011
 30
0.0
 11
71.078251264047736
 21
443.10023007624011
 31
0.0
  0
LINE
  5
99A4
  8
AM_0
 10
24.576821164047679
 20
449.35023007624039
 30
0.0
 11
62.078251264047744
 21
449.35023007624039
 31
0.0
  0
LINE
  5
99A5
  8
AM_0
 10
23.578251264047729
 20
428.24122007624032
 30
0.0
 11
66.078251264047751
 21
428.24122007624032
 31
0.0
  0
LINE
  5
99A6
  8
AM_0
 10
46.078251264047722
 20
443.10023007624011
 30
0.0
 11
46.078251264047722
 21
437.10023007624022
 31
0.0
  0
LINE
  5
99A7
  8
AM_0
 10
66.078251264047751
 20
428.24122007624032
 30
0.0
 11
66.078251264047751
 21
437.10023007624022
 31
0.0
  0
LINE
  5
99A8
  8
AM_0
 10
59.078251264047729
 20
444.35023007624039
 30
0.0
 11
62.078251264047744
 21
444.35023007624039
 31
0.0
  0
LINE
  5
99A9
  8
AM_0
 10
59.078251264047729
 20
443.10023007624039
 30
0.0
 11
59.078251264047729
 21
449.35023007624039
 31
0.0
  0
LINE
  5
99AA
  8
AM_0
 10
49.078251264047729
 20
443.10023007624039
 30
0.0
 11
49.078251264047729
 21
449.35023007624039
 31
0.0
  0
LINE
  5
99AB
  8
AM_0
 10
62.078251264047744
 20
444.35023007624039
 30
0.0
 11
62.078251264047744
 21
449.35023007624039
 31
0.0
  0
ARC
  5
99AC
  8
AM_0
 10
93.071051264047952
 20
419.35023007624028
 30
0.0
 40
1.0000259
 50
89.587534000000232
 51
270.4124599999987
  0
ARC
  5
99AD
  8
AM_0
 10
84.748231264047618
 20
419.40027007624042
 30
0.0
 40
1.6800002000000001
 50
90.000003000000945
 51
270.0
  0
ARC
  5
99AE
  8
AM_0
 10
85.621101264047553
 20
419.35023007624028
 30
0.0
 40
1.0000255999999981
 50
89.589474000000749
 51
270.41051999999962
  0
LINE
  5
99AF
  8
AM_0
 10
81.078251264047623
 20
432.70020007624032
 30
0.0
 11
81.078251264047623
 21
418.66028007624038
 31
0.0
  0
ARC
  5
99B0
  8
AM_0
 10
76.62824126404783
 20
389.35023007624039
 30
0.0
 40
1.0000056999999991
 50
90.000003000000945
 51
270.0
  0
ARC
  5
99B1
  8
AM_0
 10
75.340031264047553
 20
389.36024007624047
 30
0.0
 40
1.2700266
 50
89.629327999999504
 51
270.37065999999959
  0
ARC
  5
99B2
  8
AM_0
 10
76.62824126404783
 20
399.35023007624039
 30
0.0
 40
1.0000056999999991
 50
90.000003000000945
 51
270.0
  0
ARC
  5
99B3
  8
AM_0
 10
75.401981264047549
 20
399.36524007624053
 30
0.0
 40
1.3350147999999991
 50
89.730435000000341
 51
270.26956999999999
  0
ARC
  5
99B4
  8
AM_0
 10
93.071051264047952
 20
389.35023007624039
 30
0.0
 40
1.0000259
 50
89.587534000000232
 51
270.4124599999987
  0
ARC
  5
99B5
  8
AM_0
 10
93.071051264047952
 20
399.35023007624039
 30
0.0
 40
1.0000259
 50
89.587534000000232
 51
270.4124599999987
  0
ARC
  5
99B6
  8
AM_0
 10
84.532541264047623
 20
409.38026007624052
 30
0.0
 40
1.460011199999999
 50
89.775248000001255
 51
270.22474000000028
  0
ARC
  5
99B7
  8
AM_0
 10
85.621101264047553
 20
409.35023007624062
 30
0.0
 40
1.0000255999999981
 50
89.589474000000749
 51
270.41051999999962
  0
ARC
  5
99B8
  8
AM_0
 10
93.071051264047952
 20
409.35023007624062
 30
0.0
 40
1.0000259
 50
89.587534000000232
 51
270.4124599999987
  0
LINE
  5
99B9
  8
AM_0
 10
112.0783112640478
 20
430.70020007624038
 30
0.0
 11
81.078251264047623
 21
428.67020007624052
 31
0.0
  0
ARC
  5
99BA
  8
AM_0
 10
90.574531264047678
 20
438.84400007624049
 30
0.0
 40
1.5037541000000001
 50
270.14287000000093
 51
359.85713999999848
  0
LINE
  5
99BB
  8
AM_0
 10
83.022531264047544
 20
441.04023007624039
 30
0.0
 11
82.062571264047392
 21
436.5702600762404
 31
0.0
  0
ARC
  5
99BC
  8
AM_0
 10
85.037661264047529
 20
435.3449800762404
 30
0.0
 40
1.9952742999999991
 50
90.148580000000095
 51
170.03521999999941
  0
ARC
  5
99BD
  8
AM_0
 10
80.699221264047551
 20
422.01771007624052
 30
0.0
 40
6.0044340999999992
 50
45.225577999998769
 51
86.380821999999185
  0
ARC
  5
99BE
  8
AM_0
 10
80.233831264047794
 20
425.9444600762406
 30
0.0
 40
5.0059714
 50
279.71098000000097
 51
354.6788800000013
  0
ARC
  5
99BF
  8
AM_0
 10
80.595101264047585
 20
436.89258007624028
 30
0.0
 40
1.502416299999999
 50
269.90137999999871
 51
347.60813000000093
  0
LINE
  5
99C0
  8
AM_0
 10
80.592531264047579
 20
435.39026007624028
 30
0.0
 11
83.012521264047706
 21
435.39026007624028
 31
0.0
  0
ARC
  5
99C1
  8
AM_0
 10
80.811411264047393
 20
431.61024007624047
 30
0.0
 40
1.5
 50
280.24789000000118
 51
349.76261999999917
  0
LINE
  5
99C2
  8
AM_0
 10
82.287541264047661
 20
431.34360007624019
 30
0.0
 11
83.072581264047699
 21
435.69028007624041
 31
0.0
  0
ARC
  5
99C3
  8
AM_0
 10
84.220161264047533
 20
425.57093007624042
 30
0.0
 40
1.002184699999999
 50
354.80385999999999
 51
45.047306999998277
  0
LINE
  5
99C4
  8
AM_0
 10
85.032541264047623
 20
437.3402200762406
 30
0.0
 11
90.578251264047722
 21
437.3402200762406
 31
0.0
  0
LINE
  5
99C5
  8
AM_0
 10
77.208261264047579
 20
446.02027007624048
 30
0.0
 11
90.578251264047722
 21
446.02027007624048
 31
0.0
  0
LINE
  5
99C6
  8
AM_0
 10
77.18824126404779
 20
447.65027007624047
 30
0.0
 11
90.688241264048003
 21
447.65027007624047
 31
0.0
  0
ARC
  5
99C7
  8
AM_0
 10
84.975591264047793
 20
440.6231700762404
 30
0.0
 40
1.997119399999999
 50
89.801366999998493
 51
167.94476000000131
  0
ARC
  5
99C8
  8
AM_0
 10
77.18311126404754
 20
445.65565007624031
 30
0.0
 40
1.994612099999999
 50
89.851991999999015
 51
165.9388600000006
  0
ARC
  5
99C9
  8
AM_0
 10
77.208501264047541
 20
444.02796007624039
 30
0.0
 40
1.9922863
 50
90.007721000000544
 51
166.87839000000031
  0
LINE
  5
99CA
  8
AM_0
 10
72.88825126404754
 20
439.45020007624038
 30
0.0
 11
82.681031264047547
 21
439.45020007624038
 31
0.0
  0
ARC
  5
99CB
  8
AM_0
 10
72.883431264047559
 20
440.95508007624062
 30
0.0
 40
1.5048382
 50
270.18264000000067
 51
346.75308000000121
  0
LINE
  5
99CC
  8
AM_0
 10
72.908271264047627
 20
441.47022007624042
 30
0.0
 11
74.558231264047578
 21
441.47022007624042
 31
0.0
  0
ARC
  5
99CD
  8
AM_0
 10
72.897831264047809
 20
442.97559007624062
 30
0.0
 40
1.505448699999999
 50
270.39686999999981
 51
345.9524700000004
  0
LINE
  5
99CE
  8
AM_0
 10
75.248231264047604
 20
446.14026007624028
 30
0.0
 11
74.358221264047543
 21
442.61024007624042
 31
0.0
  0
LINE
  5
99CF
  8
AM_0
 10
75.268251264047549
 20
444.48023007624039
 30
0.0
 11
74.348211264047819
 21
440.61024007624047
 31
0.0
  0
ARC
  5
99D0
  8
AM_0
 10
94.071541264047625
 20
444.2169200762404
 30
0.0
 40
1.9933081999999991
 50
89.807323000000935
 51
180.19266999999849
  0
ARC
  5
99D1
  8
AM_0
 10
90.571351264047436
 20
447.52711007624038
 30
0.0
 40
1.506942899999999
 50
270.2633699999991
 51
359.73663000000079
  0
ARC
  5
99D2
  8
AM_0
 10
94.072391264047667
 20
446.2461000762404
 30
0.0
 40
1.994130499999996
 50
89.831105999999224
 51
180.16889000000049
  0
ARC
  5
99D3
  8
AM_0
 10
90.573371264047566
 20
444.1251300762404
 30
0.0
 40
1.504891299999997
 50
270.1859300000005
 51
359.81406999999939
  0
LINE
  5
99D4
  8
AM_0
 10
84.968691264047621
 20
442.62025007624032
 30
0.0
 11
90.578251264047722
 21
442.62025007624032
 31
0.0
  0
LINE
  5
99D5
  8
AM_0
 10
92.078251264047722
 20
446.24024007624053
 30
0.0
 11
92.078251264047722
 21
438.84022007624048
 31
0.0
  0
ARC
  5
99D6
  8
AM_0
 10
94.072031264047638
 20
448.2736900762406
 30
0.0
 40
1.9964978999999961
 50
89.821482000000245
 51
165.6006099999997
  0
ARC
  5
99D7
  8
AM_0
 10
90.683171264047715
 20
449.15540007624043
 30
0.0
 40
1.505230099999999
 50
270.19421
 51
345.17177999999848
  0
ARC
  5
99D8
  8
AM_0
 10
94.074711264047565
 20
447.60377007624038
 30
0.0
 40
1.996488899999999
 50
89.899147999998391
 51
180.10084999999879
  0
LINE
  5
99D9
  8
AM_0
 10
218.07825126404759
 20
321.85023007624051
 30
0.0
 11
218.07825126404759
 21
446.85023007624062
 31
0.0
  0
LINE
  5
99DA
  8
AM_0
 10
218.07825126404759
 20
347.20020007624049
 30
0.0
 11
226.07825126404771
 21
347.20020007624049
 31
0.0
  0
LINE
  5
99DB
  8
AM_0
 10
219.07825126404751
 20
332.31019007624047
 30
0.0
 11
226.07825126404771
 21
332.31019007624047
 31
0.0
  0
LINE
  5
99DC
  8
AM_0
 10
219.07825126404751
 20
320.85023007624039
 30
0.0
 11
226.07825126404771
 21
320.85023007624039
 31
0.0
  0
ARC
  5
99DD
  8
AM_0
 10
198.59186126404759
 20
312.85023007624022
 30
0.0
 40
1.5
 50
90.000003000000945
 51
178.50000000000051
  0
LINE
  5
99DE
  8
AM_0
 10
197.01281327418161
 20
309.85023007624079
 30
0.0
 11
197.34382126404759
 21
322.49030007624049
 31
0.0
  0
LINE
  5
99DF
  8
AM_0
 10
137.14378476596789
 20
309.85023007624079
 30
0.0
 11
136.81275126404751
 21
322.49021007624037
 31
0.0
  0
LINE
  5
99E0
  8
AM_0
 10
169.10647904367619
 20
286.66218435914908
 30
0.0
 11
171.3098330891537
 21
287.03759199468249
 31
0.0
  0
LINE
  5
99E1
  8
AM_0
 10
123.6031249982001
 20
307.35023007624108
 30
0.0
 11
204.0782512640472
 21
307.35023007624062
 31
0.0
  0
LINE
  5
99E2
  8
AM_0
 10
200.57825126404779
 20
309.85023007624079
 30
0.0
 11
133.57825126404771
 21
309.85023007624079
 31
0.0
  0
CIRCLE
  5
99E3
  8
AM_0
 10
132.90312499820021
 20
290.35023007624108
 30
0.0
 40
6.2999999999996117
  0
LINE
  5
99E4
  8
AM_0
 10
142.2031249982
 20
307.35023007624062
 30
0.0
 11
142.2031249982
 21
290.35023007624062
 31
0.0
  0
LINE
  5
99E5
  8
AM_0
 10
123.6031249982001
 20
307.35023007624108
 30
0.0
 11
123.6031249981998
 21
290.35023007624108
 31
0.0
  0
LINE
  5
99E6
  8
ﾁｭｳｼﾝｾﾝ
 10
132.90312499820021
 20
301.35023007624108
 30
0.0
 11
132.90312499820021
 21
279.35023007624102
 31
0.0
  0
LINE
  5
99E7
  8
ﾁｭｳｼﾝｾﾝ
 10
121.9031249982002
 20
290.35023007624108
 30
0.0
 11
143.90312499820021
 21
290.35023007624108
 31
0.0
  0
ARC
  5
99E8
  8
AM_0
 10
132.90312499820021
 20
290.35023007624108
 30
0.0
 40
9.2999999999997094
 50
180.0
 51
0.0
  0
LINE
  5
99E9
  8
AM_0
 10
133.57825126404771
 20
309.85023007624079
 30
0.0
 11
133.57825126404771
 21
307.35023007624062
 31
0.0
  0
LINE
  5
99EA
  8
AM_0
 10
169.10647904367619
 20
286.66218435914908
 30
0.0
 11
169.1064790436763
 21
302.35023007624062
 31
0.0
  0
LINE
  5
99EB
  8
AM_0
 10
167.6064790436763
 20
302.35023007624062
 30
0.0
 11
167.60647904367619
 21
286.40661424119372
 31
0.0
  0
LINE
  5
99EC
  8
AM_0
 10
165.90312499820209
 20
286.11639664497898
 30
0.0
 11
165.90312499820249
 21
302.35023007624352
 31
0.0
  0
LINE
  5
99ED
  8
AM_0
 10
163.9031249981989
 20
302.35023007624062
 30
0.0
 11
163.9031249981989
 21
285.77563648770467
 31
0.0
  0
LINE
  5
99EE
  8
AM_0
 10
161.69977095272151
 20
285.40022885217138
 30
0.0
 11
161.69977095272151
 21
302.35023007624062
 31
0.0
  0
LINE
  5
99EF
  8
AM_0
 10
160.19977095272151
 20
302.35023007624062
 30
0.0
 11
160.19977095272151
 21
285.14465873421602
 31
0.0
  0
LINE
  5
99F0
  8
AM_0
 10
157.99977095272141
 20
284.76982256121488
 30
0.0
 11
157.99977095272141
 21
302.35023007624062
 31
0.0
  0
LINE
  5
99F1
  8
AM_0
 10
156.4997709527216
 20
302.35023007624062
 30
0.0
 11
156.4997709527216
 21
284.51425244325981
 31
0.0
  0
LINE
  5
99F2
  8
AM_0
 10
152.2997709527215
 20
302.35023007624062
 30
0.0
 11
152.2997709527215
 21
283.79865611298419
 31
0.0
  0
LINE
  5
99F3
  8
AM_0
 10
154.29977095272159
 20
284.1394162702581
 30
0.0
 11
154.29977095272159
 21
302.35023007624108
 31
0.0
  0
LINE
  5
99F4
  8
AM_0
 10
157.99977095272141
 20
284.76982256121488
 30
0.0
 11
160.19977095272151
 21
285.14465873421602
 31
0.0
  0
LINE
  5
99F5
  8
AM_0
 10
154.29977095272159
 20
284.1394162702581
 30
0.0
 11
156.4997709527216
 21
284.51425244325981
 31
0.0
  0
LINE
  5
99F6
  8
AM_0
 10
165.90312499820209
 20
286.11639664497898
 30
0.0
 11
167.60647904367619
 21
286.40661424119372
 31
0.0
  0
LINE
  5
99F7
  8
AM_0
 10
161.69977095272151
 20
285.40022885217138
 30
0.0
 11
163.9031249981989
 21
285.77563648770467
 31
0.0
  0
LINE
  5
99F8
  8
AM_0
 10
157.99977095272141
 20
298.35023007624022
 30
0.0
 11
156.4997709527216
 21
298.35023007624079
 31
0.0
  0
LINE
  5
99F9
  8
AM_0
 10
157.99977095272141
 20
302.35023007624062
 30
0.0
 11
156.4997709527216
 21
302.35023007624062
 31
0.0
  0
LINE
  5
99FA
  8
AM_0
 10
154.29977095272159
 20
298.35023007624079
 30
0.0
 11
152.2997709527215
 21
298.35023007624079
 31
0.0
  0
LINE
  5
99FB
  8
AM_0
 10
154.29977095272159
 20
302.35023007624108
 30
0.0
 11
152.2997709527215
 21
302.35023007624062
 31
0.0
  0
LINE
  5
99FC
  8
AM_0
 10
165.90312499820249
 20
298.35023007624022
 30
0.0
 11
163.9031249981989
 21
298.35023007624022
 31
0.0
  0
LINE
  5
99FD
  8
AM_0
 10
165.90312499820249
 20
302.35023007624062
 30
0.0
 11
163.9031249981989
 21
302.35023007624062
 31
0.0
  0
LINE
  5
99FE
  8
AM_0
 10
161.69977095272151
 20
298.35023007624022
 30
0.0
 11
160.19977095272151
 21
298.35023007624022
 31
0.0
  0
LINE
  5
99FF
  8
AM_0
 10
161.69977095272151
 20
302.35023007624062
 30
0.0
 11
160.19977095272151
 21
302.35023007624062
 31
0.0
  0
LINE
  5
9A00
  8
AM_0
 10
169.10647904367659
 20
298.35023007624022
 30
0.0
 11
167.6064790436763
 21
298.35023007624022
 31
0.0
  0
LINE
  5
9A01
  8
AM_0
 10
169.1064790436763
 20
302.35023007624062
 30
0.0
 11
167.6064790436763
 21
302.35023007624062
 31
0.0
  0
LINE
  5
9A02
  8
AM_0
 10
188.43327651721759
 20
273.35023007624062
 30
0.0
 11
188.43327651721759
 21
284.88572067870882
 31
0.0
  0
LINE
  5
9A03
  8
AM_0
 10
198.70312499820079
 20
285.85023007624062
 30
0.0
 11
198.70312499820079
 21
275.85023007624062
 31
0.0
  0
ARC
  5
9A04
  8
AM_0
 10
196.20312499820071
 20
275.85023007624062
 30
0.0
 40
2.5
 50
270.0
 51
0.0
  0
LINE
  5
9A05
  8
AM_0
 10
180.21654118010821
 20
288.55511761961571
 30
0.0
 11
180.21654118010821
 21
302.35023007624062
 31
0.0
  0
LINE
  5
9A06
  8
AM_0
 10
178.71654118010821
 20
302.35023007624062
 30
0.0
 11
178.71654118010821
 21
288.2995475016603
 31
0.0
  0
LINE
  5
9A07
  8
AM_0
 10
190.0782512640472
 20
290.23535655921228
 30
0.0
 11
190.0782512640472
 21
307.35023007624062
 31
0.0
  0
LINE
  5
9A08
  8
AM_0
 10
172.80983308915361
 20
287.29316211263802
 30
0.0
 11
172.80983308915361
 21
302.35023007624062
 31
0.0
  0
LINE
  5
9A09
  8
AM_0
 10
171.3098330891539
 20
302.35023007624062
 30
0.0
 11
171.3098330891537
 21
287.03759199468249
 31
0.0
  0
LINE
  5
9A0A
  8
AM_0
 10
176.5131871346309
 20
287.92413986612701
 30
0.0
 11
176.5131871346309
 21
302.35023007624062
 31
0.0
  0
LINE
  5
9A0B
  8
AM_0
 10
175.01318713463081
 20
302.35023007624062
 30
0.0
 11
175.0131871346307
 21
287.66856974817159
 31
0.0
  0
LINE
  5
9A0C
  8
AM_0
 10
180.21654118010821
 20
288.55511761961571
 30
0.0
 11
190.0782512640472
 21
290.23535655921228
 31
0.0
  0
LINE
  5
9A0D
  8
AM_0
 10
176.5131871346309
 20
287.92413986612701
 30
0.0
 11
178.71654118010821
 21
288.2995475016603
 31
0.0
  0
LINE
  5
9A0E
  8
AM_0
 10
172.80983308915361
 20
287.29316211263802
 30
0.0
 11
175.0131871346307
 21
287.66856974817159
 31
0.0
  0
LINE
  5
9A0F
  8
AM_0
 10
189.30312499820101
 20
285.0360248489431
 30
0.0
 11
189.3031249982009
 21
289.08941749432688
 31
0.0
  0
LINE
  5
9A10
  8
AM_0
 10
176.5131871346309
 20
298.35023007624022
 30
0.0
 11
175.01318713463081
 21
298.35023007624022
 31
0.0
  0
LINE
  5
9A11
  8
AM_0
 10
176.5131871346309
 20
302.35023007624062
 30
0.0
 11
175.01318713463081
 21
302.35023007624062
 31
0.0
  0
LINE
  5
9A12
  8
AM_0
 10
172.80983308915361
 20
298.35023007624022
 30
0.0
 11
171.3098330891539
 21
298.35023007624022
 31
0.0
  0
LINE
  5
9A13
  8
AM_0
 10
172.80983308915361
 20
302.35023007624062
 30
0.0
 11
171.3098330891539
 21
302.35023007624062
 31
0.0
  0
LINE
  5
9A14
  8
AM_0
 10
180.21654118010821
 20
298.35023007624022
 30
0.0
 11
178.71654118010821
 21
298.35023007624022
 31
0.0
  0
LINE
  5
9A15
  8
AM_0
 10
180.21654118010821
 20
302.35023007624062
 30
0.0
 11
178.71654118010821
 21
302.35023007624062
 31
0.0
  0
LINE
  5
9A16
  8
AM_0
 10
205.07825126404711
 20
290.35023007624062
 30
0.0
 11
205.0782512640472
 21
306.35023007624039
 31
0.0
  0
ARC
  5
9A17
  8
AM_0
 10
199.20312499820071
 20
285.85023007624062
 30
0.0
 40
0.5
 50
90.0
 51
180.0
  0
LINE
  5
9A18
  8
AM_0
 10
205.07825126404711
 20
290.35023007624062
 30
0.0
 11
196.70312499820031
 21
290.35023007624022
 31
0.0
  0
LINE
  5
9A19
  8
AM_0
 10
199.20312499820071
 20
286.35023007624022
 30
0.0
 11
204.5782512640472
 21
286.35023007624022
 31
0.0
  0
LINE
  5
9A1A
  8
AM_0
 10
199.20312499820071
 20
286.35023007624022
 30
0.0
 11
197.02882013504151
 21
286.35023007624022
 31
0.0
  0
ARC
  5
9A1B
  8
AM_0
 10
204.5782512640472
 20
286.85023007624039
 30
0.0
 40
0.5
 50
270.0
 51
0.0
  0
LINE
  5
9A1C
  8
AM_0
 10
205.07825126404711
 20
290.35023007624062
 30
0.0
 11
205.07825126404711
 21
286.85023007624039
 31
0.0
  0
LINE
  5
9A1D
  8
AM_0
 10
200.57825126404779
 20
309.85023007624079
 30
0.0
 11
200.57825126404779
 21
307.35023007624062
 31
0.0
  0
ARC
  5
9A1E
  8
AM_0
 10
204.0782512640472
 20
306.35023007624039
 30
0.0
 40
1.0
 50
0.0
 51
90.0
  0
LINE
  5
9A1F
  8
AM_0
 10
167.07825126404759
 20
347.63026007624052
 30
0.0
 11
214.89826126404751
 21
347.63026007624052
 31
0.0
  0
LINE
  5
9A20
  8
AM_0
 10
211.41828126404741
 20
348.35023007624039
 30
0.0
 11
167.07825126404759
 21
348.35023007624039
 31
0.0
  0
ARC
  5
9A21
  8
AM_0
 10
135.40467126404761
 20
318.9602100762404
 30
0.0
 40
1.5
 50
1.5000026999989771
 51
90.000003000000945
  0
ARC
  5
9A22
  8
AM_0
 10
146.51697126404761
 20
379.35023007624039
 30
0.0
 40
1.0000056999999991
 50
269.999989999999
 51
90.000003000000945
  0
ARC
  5
9A23
  8
AM_0
 10
146.51697126404761
 20
369.35023007624039
 30
0.0
 40
1.0000056999999991
 50
269.999989999999
 51
90.000003000000945
  0
ARC
  5
9A24
  8
AM_0
 10
147.74323126404761
 20
369.3402200762406
 30
0.0
 40
1.3300148000000001
 50
269.72941999999853
 51
90.270567000000995
  0
ARC
  5
9A25
  8
AM_0
 10
147.80518126404741
 20
379.35023007624039
 30
0.0
 40
1.2700266
 50
269.62931999999989
 51
90.370670000001468
  0
ARC
  5
9A26
  8
AM_0
 10
214.89826126404751
 20
349.31019007624047
 30
0.0
 40
1.6800077
 50
269.999989999999
 51
90.000003000000945
  0
ARC
  5
9A27
  8
AM_0
 10
211.41828126404741
 20
349.35023007624051
 30
0.0
 40
1.0000040999999991
 50
269.999989999999
 51
90.000003000000945
  0
LINE
  5
9A28
  8
AM_0
 10
212.8182412640476
 20
323.98029007624058
 30
0.0
 11
216.27823126404761
 21
336.89026007624039
 31
0.0
  0
LINE
  5
9A29
  8
AM_0
 10
198.59186126404759
 20
314.35023007624039
 30
0.0
 11
210.0944312640475
 21
314.35023007624039
 31
0.0
  0
LINE
  5
9A2A
  8
AM_0
 10
217.07825126404751
 20
323.85029007624053
 30
0.0
 11
211.3524512640478
 21
315.0333600762404
 31
0.0
  0
ARC
  5
9A2B
  8
AM_0
 10
219.07129126404749
 20
321.8432700762404
 30
0.0
 40
0.99304521
 50
179.5973099999994
 51
270.40267999999998
  0
ARC
  5
9A2C
  8
AM_0
 10
210.0944312640475
 20
315.85023007624051
 30
0.0
 40
1.5
 50
269.999989999999
 51
326.99999999999801
  0
LINE
  5
9A2D
  8
AM_0
 10
212.78827126404761
 20
323.85023007624051
 30
0.0
 11
218.07825126404759
 21
323.85023007624051
 31
0.0
  0
ARC
  5
9A2E
  8
AM_0
 10
210.87952126404761
 20
324.49647007624048
 30
0.0
 40
2.0062942999999991
 50
270.24932999999891
 51
345.08844000000039
  0
ARC
  5
9A2F
  8
AM_0
 10
219.0706212640475
 20
333.3026200762406
 30
0.0
 40
0.99237448
 50
179.55802000000131
 51
270.4419699999998
  0
ARC
  5
9A30
  8
AM_0
 10
217.7219312640475
 20
336.50648007624051
 30
0.0
 40
1.4937901
 50
89.756423999998475
 51
165.11292000000071
  0
ARC
  5
9A31
  8
AM_0
 10
179.07825126404751
 20
356.85023007624039
 30
0.0
 40
1.5
 50
0.0
 51
90.000003000000945
  0
ARC
  5
9A32
  8
AM_0
 10
179.07825126404751
 20
356.85023007624039
 30
0.0
 40
1.02
 50
0.0
 51
90.000003000000945
  0
ARC
  5
9A33
  8
AM_0
 10
179.07825126404751
 20
351.85023007624039
 30
0.0
 40
1.5
 50
269.999989999999
 51
0.0000006832462478
  0
ARC
  5
9A34
  8
AM_0
 10
179.09827126404761
 20
351.99024007624053
 30
0.0
 40
1.0
 50
269.999989999999
 51
0.0000006832462478
  0
LINE
  5
9A35
  8
AM_0
 10
180.57825126404751
 20
356.85023007624039
 30
0.0
 11
180.57825126404751
 21
351.85023007624039
 31
0.0
  0
LINE
  5
9A36
  8
AM_0
 10
180.0982712640477
 20
356.85023007624039
 30
0.0
 11
180.0982712640477
 21
351.99024007624053
 31
0.0
  0
CIRCLE
  5
9A37
  8
AM_0
 10
185.57825126404751
 20
355.85023007624051
 30
0.0
 40
1.1000000000000001
  0
CIRCLE
  5
9A38
  8
AM_0
 10
185.57825126404751
 20
355.85023007624051
 30
0.0
 40
1.149999999999999
  0
CIRCLE
  5
9A39
  8
AM_0
 10
190.57825126404751
 20
355.85023007624051
 30
0.0
 40
1.0
  0
LINE
  5
9A3A
  8
AM_0
 10
211.41108126404751
 20
358.35023007624039
 30
0.0
 11
197.07825126404771
 21
358.35023007624039
 31
0.0
  0
LINE
  5
9A3B
  8
AM_0
 10
211.41828126404741
 20
350.35023007624039
 30
0.0
 11
197.07825126404771
 21
350.35023007624039
 31
0.0
  0
LINE
  5
9A3C
  8
AM_0
 10
197.07825126404771
 20
357.87025007624038
 30
0.0
 11
215.11249126404761
 21
357.87025007624038
 31
0.0
  0
LINE
  5
9A3D
  8
AM_0
 10
197.05823126404741
 20
350.99024007624053
 30
0.0
 11
214.89826126404751
 21
350.99024007624053
 31
0.0
  0
ARC
  5
9A3E
  8
AM_0
 10
197.07825126404771
 20
356.85023007624039
 30
0.0
 40
1.5
 50
90.000003000000945
 51
180.00001000000091
  0
ARC
  5
9A3F
  8
AM_0
 10
197.07825126404771
 20
356.85023007624039
 30
0.0
 40
1.02
 50
90.000003000000945
 51
180.00001000000091
  0
ARC
  5
9A40
  8
AM_0
 10
197.07825126404771
 20
351.85023007624039
 30
0.0
 40
1.5
 50
179.99998999999889
 51
270.0
  0
ARC
  5
9A41
  8
AM_0
 10
197.05823126404741
 20
351.99024007624053
 30
0.0
 40
1.0
 50
179.99998999999889
 51
270.0
  0
LINE
  5
9A42
  8
AM_0
 10
195.57825126404751
 20
356.85023007624039
 30
0.0
 11
195.57825126404751
 21
351.85023007624039
 31
0.0
  0
LINE
  5
9A43
  8
AM_0
 10
196.05823126404749
 20
356.85023007624039
 30
0.0
 11
196.05823126404749
 21
351.99024007624053
 31
0.0
  0
ARC
  5
9A44
  8
AM_0
 10
211.4182212640475
 20
359.35023007624051
 30
0.0
 40
1.0000255999999981
 50
269.58946999999989
 51
90.410531000001029
  0
ARC
  5
9A45
  8
AM_0
 10
215.11823126404761
 20
359.3202000762405
 30
0.0
 40
1.460011199999999
 50
269.77524999999991
 51
90.224750000000114
  0
LINE
  5
9A46
  8
AM_0
 10
219.07825126404751
 20
447.85023007624039
 30
0.0
 11
226.07825126404771
 21
447.85023007624039
 31
0.0
  0
LINE
  5
9A47
  8
AM_0
 10
219.07825126404751
 20
436.39026007624039
 30
0.0
 11
226.07825126404771
 21
436.39026007624039
 31
0.0
  0
LINE
  5
9A48
  8
AM_0
 10
218.07825126404759
 20
421.50025007624049
 30
0.0
 11
226.07825126404771
 21
421.50025007624049
 31
0.0
  0
ARC
  5
9A49
  8
AM_0
 10
146.51697126404761
 20
399.35023007624039
 30
0.0
 40
1.0000056999999991
 50
269.999989999999
 51
90.000003000000945
  0
ARC
  5
9A4A
  8
AM_0
 10
146.51697126404761
 20
389.35023007624039
 30
0.0
 40
1.0000056999999991
 50
269.999989999999
 51
90.000003000000945
  0
ARC
  5
9A4B
  8
AM_0
 10
147.80518126404741
 20
389.36024007624047
 30
0.0
 40
1.2700266
 50
269.62931999999989
 51
90.370670000001468
  0
ARC
  5
9A4C
  8
AM_0
 10
147.74323126404761
 20
399.36524007624053
 30
0.0
 40
1.3350147999999991
 50
269.73042999999973
 51
90.269556000001344
  0
ARC
  5
9A4D
  8
AM_0
 10
214.89826126404751
 20
419.40027007624042
 30
0.0
 40
1.6800077
 50
269.999989999999
 51
90.000003000000945
  0
ARC
  5
9A4E
  8
AM_0
 10
211.41828126404741
 20
419.35023007624028
 30
0.0
 40
1.0000040999999991
 50
269.999989999999
 51
90.000003000000945
  0
ARC
  5
9A4F
  8
AM_0
 10
179.07825126404751
 20
411.85023007624039
 30
0.0
 40
1.5
 50
269.999989999999
 51
0.0000006832462478
  0
ARC
  5
9A50
  8
AM_0
 10
179.07825126404751
 20
411.85023007624039
 30
0.0
 40
1.02
 50
269.999989999999
 51
0.0000006832429909
  0
ARC
  5
9A51
  8
AM_0
 10
179.07825126404751
 20
416.85023007624039
 30
0.0
 40
1.5
 50
0.0
 51
90.000003000000945
  0
ARC
  5
9A52
  8
AM_0
 10
179.09827126404761
 20
416.7102100762404
 30
0.0
 40
1.0
 50
0.0
 51
90.000003000000945
  0
LINE
  5
9A53
  8
AM_0
 10
180.0982712640477
 20
411.85023007624039
 30
0.0
 11
180.0982712640477
 21
416.7102100762404
 31
0.0
  0
LINE
  5
9A54
  8
AM_0
 10
180.57825126404751
 20
411.85023007624039
 30
0.0
 11
180.57825126404751
 21
416.85023007624039
 31
0.0
  0
CIRCLE
  5
9A55
  8
AM_0
 10
185.57825126404751
 20
412.85023007624039
 30
0.0
 40
1.149999999999999
  0
CIRCLE
  5
9A56
  8
AM_0
 10
185.57825126404751
 20
412.85023007624039
 30
0.0
 40
1.1000000000000001
  0
CIRCLE
  5
9A57
  8
AM_0
 10
190.57825126404751
 20
412.85023007624039
 30
0.0
 40
1.0
  0
LINE
  5
9A58
  8
AM_0
 10
211.41828126404741
 20
418.35023007624039
 30
0.0
 11
197.07825126404771
 21
418.35023007624039
 31
0.0
  0
LINE
  5
9A59
  8
AM_0
 10
211.42542126404771
 20
410.35023007624039
 30
0.0
 11
197.07825126404771
 21
410.35023007624039
 31
0.0
  0
LINE
  5
9A5A
  8
AM_0
 10
197.05823126404741
 20
417.72022007624048
 30
0.0
 11
214.89826126404751
 21
417.72022007624048
 31
0.0
  0
LINE
  5
9A5B
  8
AM_0
 10
197.07825126404771
 20
410.84022007624043
 30
0.0
 11
215.12397126404761
 21
410.84022007624043
 31
0.0
  0
ARC
  5
9A5C
  8
AM_0
 10
197.07825126404771
 20
411.85023007624039
 30
0.0
 40
1.5
 50
179.99998999999889
 51
270.0
  0
ARC
  5
9A5D
  8
AM_0
 10
197.07825126404771
 20
411.85023007624039
 30
0.0
 40
1.02
 50
179.99998999999889
 51
270.0
  0
ARC
  5
9A5E
  8
AM_0
 10
197.07825126404771
 20
416.85023007624039
 30
0.0
 40
1.5
 50
90.000003000000945
 51
180.00001000000091
  0
ARC
  5
9A5F
  8
AM_0
 10
197.05823126404741
 20
416.7102100762404
 30
0.0
 40
1.0
 50
90.000003000000945
 51
180.00001000000091
  0
LINE
  5
9A60
  8
AM_0
 10
195.57825126404751
 20
411.85023007624039
 30
0.0
 11
195.57825126404751
 21
416.85023007624039
 31
0.0
  0
LINE
  5
9A61
  8
AM_0
 10
196.05823126404749
 20
411.85023007624039
 30
0.0
 11
196.05823126404749
 21
416.7102100762404
 31
0.0
  0
ARC
  5
9A62
  8
AM_0
 10
215.11823126404761
 20
409.38026007624052
 30
0.0
 40
1.460011199999999
 50
269.77524999999991
 51
90.224750000000114
  0
ARC
  5
9A63
  8
AM_0
 10
211.4182212640475
 20
409.35023007624062
 30
0.0
 40
1.0000255999999981
 50
269.58946999999989
 51
90.410531000001029
  0
LINE
  5
9A64
  8
AM_0
 10
213.62845126404761
 20
449.08542007624038
 30
0.0
 11
216.31830126404751
 21
436.57020007624038
 31
0.0
  0
LINE
  5
9A65
  8
AM_0
 10
212.8182712640475
 20
444.73017007624043
 30
0.0
 11
216.2782612640475
 21
431.8102200762404
 31
0.0
  0
ARC
  5
9A66
  8
AM_0
 10
217.78394126404771
 20
436.89051007624039
 30
0.0
 40
1.500286
 50
192.3263099999981
 51
270.16416999999848
  0
LINE
  5
9A67
  8
AM_0
 10
217.78827126404769
 20
435.39026007624028
 30
0.0
 11
215.3682912640476
 21
435.39026007624028
 31
0.0
  0
ARC
  5
9A68
  8
AM_0
 10
217.72840126404751
 20
432.20252007624038
 30
0.0
 40
1.5022733999999991
 50
195.1365099999997
 51
269.99412000000041
  0
ARC
  5
9A69
  8
AM_0
 10
219.07734126404759
 20
435.39112007624038
 30
0.0
 40
0.9990923399999999
 50
89.947921999999295
 51
180.05208000000101
  0
ARC
  5
9A6A
  8
AM_0
 10
210.88770126404759
 20
444.21107007624039
 30
0.0
 40
1.9991226
 50
15.05079100000003
 51
89.984388999999666
  0
LINE
  5
9A6B
  8
AM_0
 10
214.5387012640476
 20
444.85023007624039
 30
0.0
 11
218.07825126404759
 21
444.85023007624039
 31
0.0
  0
ARC
  5
9A6C
  8
AM_0
 10
212.3059112640475
 20
448.10023007624039
 30
0.0
 40
1.5
 50
12.12979199999887
 51
90.000003000000945
  0
ARC
  5
9A6D
  8
AM_0
 10
212.1619312640475
 20
448.77027007624042
 30
0.0
 40
1.5
 50
12.12979199999887
 51
90.000003000000945
  0
ARC
  5
9A6E
  8
AM_0
 10
212.59821126404759
 20
446.74024007624053
 30
0.0
 40
1.5
 50
12.12979199999887
 51
90.000003000000945
  0
ARC
  5
9A6F
  8
AM_0
 10
219.07807126404771
 20
446.85047007624041
 30
0.0
 40
0.99980682
 50
89.98893100000069
 51
180.0110700000007
  0
TEXT
  5
9F6C
  8
0
  6
CONTINUOUS
 62
     0
 10
461.39564351832399
 20
377.64628947142887
 30
0.0
 40
10.0
  1
VX04-060BF~VX04-100BF
  0
VIEWPORT
  5
89
 67
     1
  8
0
 10
210.0
 20
148.5
 30
0.0
 40
420.0
 41
297.0
 68
    -1
 69
     1
1001
ACAD
1000
MVIEW
1002
{
1070
    16
1010
0.0
1020
0.0
1030
0.0
1010
0.0
1020
0.0
1030
1.0
1040
0.0
1040
297.0
1040
221.70154043645701
1040
148.5
1040
50.0
1040
0.0
1040
0.0
1070
     0
1070
   100
1070
     1
1070
     1
1070
     0
1070
     0
1070
     0
1070
     0
1040
0.0
1040
0.0
1040
0.0
1040
10.0
1040
10.0
1040
10.0
1040
10.0
1070
     0
1002
{
1002
}
1002
}
1001
GENIUS_GENOREF_13
1005
1B94
1001
GENIUS_GENSCREG_15
1000
PF
1040
1.0
1000
DF
1040
1.0
1000
MIN
1011
0.0
1021
0.0
1031
0.0
1021
0.0
1031
0.0
1000
MAX
1011
420.0
1021
0.0
1031
0.0
1021
297.0
1031
0.0
1000
FLAGS
1070
     4
  0
ENDSEC
  0
EOF
