  0
SECTION
  2
HEADER
  9
$ACADVER
  1
AC1009
  9
$INSBASE
 10
0.0
 20
0.0
 30
0.0
  9
$EXTMIN
 10
4.9680835311246483
 20
6.4786037555627436
 30
-0.0015258207003583
  9
$EXTMAX
 10
799.72233542665663
 20
576.67104815430434
 30
0.0000000349246037
  9
$LIMMIN
 10
0.0
 20
0.0
  9
$LIMMAX
 10
408.0
 20
284.0
  9
$ORTHOMODE
 70
     0
  9
$REGENMODE
 70
     1
  9
$FILLMODE
 70
     1
  9
$QTEXTMODE
 70
     0
  9
$MIRRTEXT
 70
     1
  9
$DRAGMODE
 70
     2
  9
$LTSCALE
 40
1.0
  9
$OSMODE
 70
   551
  9
$ATTMODE
 70
     1
  9
$TEXTSIZE
 40
2.5
  9
$TRACEWID
 40
1.0
  9
$TEXTSTYLE
  7
STANDARD
  9
$CLAYER
  8
AM_0
  9
$CELTYPE
  6
BYLAYER
  9
$CECOLOR
 62
   256
  9
$DIMSCALE
 40
1.0
  9
$DIMASZ
 40
2.5
  9
$DIMEXO
 40
1.0
  9
$DIMDLI
 40
7.0
  9
$DIMRND
 40
0.0
  9
$DIMDLE
 40
0.0
  9
$DIMEXE
 40
1.0
  9
$DIMTP
 40
0.1
  9
$DIMTM
 40
0.1000000001
  9
$DIMTXT
 40
2.5
  9
$DIMCEN
 40
0.0
  9
$DIMTSZ
 40
0.0
  9
$DIMTOL
 70
     0
  9
$DIMLIM
 70
     0
  9
$DIMTIH
 70
     0
  9
$DIMTOH
 70
     0
  9
$DIMSE1
 70
     0
  9
$DIMSE2
 70
     0
  9
$DIMTAD
 70
     3
  9
$DIMZIN
 70
     8
  9
$DIMBLK
  1

  9
$DIMASO
 70
     1
  9
$DIMSHO
 70
     1
  9
$DIMPOST
  1

  9
$DIMAPOST
  1
"
  9
$DIMALT
 70
     0
  9
$DIMALTD
 70
     2
  9
$DIMALTF
 40
0.0393701
  9
$DIMLFAC
 40
1.0
  9
$DIMTOFL
 70
     1
  9
$DIMTVP
 40
0.0
  9
$DIMTIX
 70
     0
  9
$DIMSOXD
 70
     0
  9
$DIMSAH
 70
     0
  9
$DIMBLK1
  1

  9
$DIMBLK2
  1

  9
$DIMSTYLE
  2
AM_JIS
  9
$DIMCLRD
 70
   256
  9
$DIMCLRE
 70
   256
  9
$DIMCLRT
 70
     4
  9
$DIMTFAC
 40
0.71
  9
$DIMGAP
 40
1.0
  9
$LUNITS
 70
     2
  9
$LUPREC
 70
     2
  9
$SKETCHINC
 40
1.0
  9
$FILLETRAD
 40
2.5
  9
$AUNITS
 70
     0
  9
$AUPREC
 70
     3
  9
$MENU
  1
.
  9
$ELEVATION
 40
0.0
  9
$PELEVATION
 40
0.0
  9
$THICKNESS
 40
0.0
  9
$LIMCHECK
 70
     0
  9
$BLIPMODE
 70
     0
  9
$CHAMFERA
 40
2.5
  9
$CHAMFERB
 40
2.5
  9
$SKPOLY
 70
     0
  9
$TDCREATE
 40
2453062.5664594099
  9
$TDUPDATE
 40
2458541.3660808681
  9
$TDINDWG
 40
0.0467973727
  9
$TDUSRTIMER
 40
0.0467971875
  9
$USRTIMER
 70
     1
  9
$ANGBASE
 50
0.0
  9
$ANGDIR
 70
     0
  9
$PDMODE
 70
     0
  9
$PDSIZE
 40
0.0
  9
$PLINEWID
 40
0.0
  9
$COORDS
 70
     1
  9
$SPLFRAME
 70
     0
  9
$SPLINETYPE
 70
     6
  9
$SPLINESEGS
 70
     8
  9
$ATTDIA
 70
     1
  9
$ATTREQ
 70
     1
  9
$HANDLING
 70
     1
  9
$HANDSEED
  5
949C
  9
$SURFTAB1
 70
     6
  9
$SURFTAB2
 70
     6
  9
$SURFTYPE
 70
     6
  9
$SURFU
 70
     6
  9
$SURFV
 70
     6
  9
$UCSNAME
  2

  9
$UCSORG
 10
0.0
 20
0.0
 30
0.0
  9
$UCSXDIR
 10
1.0
 20
0.0
 30
0.0
  9
$UCSYDIR
 10
0.0
 20
1.0
 30
0.0
  9
$PUCSNAME
  2

  9
$PUCSORG
 10
0.0
 20
0.0
 30
0.0
  9
$PUCSXDIR
 10
1.0
 20
0.0
 30
0.0
  9
$PUCSYDIR
 10
0.0
 20
1.0
 30
0.0
  9
$USERI1
 70
     0
  9
$USERI2
 70
     0
  9
$USERI3
 70
     0
  9
$USERI4
 70
     0
  9
$USERI5
 70
     0
  9
$USERR1
 40
0.0
  9
$USERR2
 40
0.0
  9
$USERR3
 40
0.0
  9
$USERR4
 40
0.0
  9
$USERR5
 40
0.0
  9
$WORLDVIEW
 70
     1
  9
$SHADEDGE
 70
     3
  9
$SHADEDIF
 70
    70
  9
$TILEMODE
 70
     1
  9
$MAXACTVP
 70
    48
  9
$PLIMCHECK
 70
     0
  9
$PEXTMIN
 10
1.0000000000000000E+020
 20
1.0000000000000000E+020
 30
1.0000000000000000E+020
  9
$PEXTMAX
 10
-1.0000000000000000E+020
 20
-1.0000000000000000E+020
 30
-1.0000000000000000E+020
  9
$PLIMMIN
 10
0.0
 20
0.0
  9
$PLIMMAX
 10
420.0
 20
297.0
  9
$UNITMODE
 70
     0
  9
$VISRETAIN
 70
     1
  9
$PLINEGEN
 70
     0
  9
$PSLTSCALE
 70
     1
  0
ENDSEC
  0
SECTION
  2
TABLES
  0
TABLE
  2
VPORT
 70
     1
  0
VPORT
  2
*ACTIVE
 70
     0
 10
0.0
 20
0.0
 11
1.0
 21
1.0
 12
402.34520947889069
 22
291.5748259549336
 13
0.0
 23
0.0
 14
1.0
 24
1.0
 15
10.0
 25
10.0
 16
0.0
 26
0.0
 36
1.0
 17
0.0
 27
0.0
 37
0.0
 40
574.10680900559805
 41
1.7571592210767459
 42
50.0
 43
0.0
 44
0.0
 50
0.0
 51
0.0
 71
     0
 72
   100
 73
     1
 74
     1
 75
     0
 76
     0
 77
     0
 78
     0
  0
ENDTAB
  0
TABLE
  2
LTYPE
 70
    25
  0
LTYPE
  2
CONTINUOUS
 70
     0
  3
Solid line
 72
    65
 73
     0
 40
0.0
  0
LTYPE
  2
PHANTOM2
 70
     0
  3
Phantom (.5x) ___ _ _ ___ _ _ ___ _ _ ___ _ _
 72
    65
 73
     6
 40
31.75
 49
15.875
 49
-3.174999999999998
 49
3.174999999999998
 49
-3.174999999999998
 49
3.174999999999998
 49
-3.174999999999998
  0
LTYPE
  2
CENTER
 70
     0
  3
Center ____ _ ____ _ ____ _ ____ _ ____ _ ____
 72
    65
 73
     4
 40
50.799999999999997
 49
31.75
 49
-6.3499999999999979
 49
6.3499999999999979
 49
-6.3499999999999979
  0
LTYPE
  2
ACANSTGBM
 70
     0
  3
__ . . __ . .
 72
    65
 73
     6
 40
9.0
 49
4.0
 49
-1.0
 49
1.0
 49
-1.0
 49
1.0
 49
-1.0
  0
LTYPE
  2
ACANSTGLM
 70
     0
  3
_ _ _ _ _
 72
    65
 73
     2
 40
3.0
 49
2.0
 49
-1.0
  0
LTYPE
  2
GEN7
 70
     0
  3
____ . ____ . ____ . ____ . ____ . ____ . ____
 72
    65
 73
     4
 40
14.25
 49
9.75
 49
-1.5
 49
1.5
 49
-1.5
  0
LTYPE
  2
AM_ISO02W050
 70
     0
  3
__ __ __ __ __ __ __ __ __ __ __ __ __ __ __
 72
    65
 73
     2
 40
7.5
 49
6.0
 49
-1.5
  0
LTYPE
  2
AM_ISO08W050
 70
     0
  3
____ . ____ . ____ . ____ . ____ . ____ . ____
 72
    65
 73
     4
 40
18.0
 49
12.0
 49
-1.5
 49
3.0
 49
-1.5
  0
LTYPE
  2
AM_ISO09W050
 70
     0
  3
_____ . . _____ . . _____ . . ____ .. ____
 72
    65
 73
     6
 40
22.5
 49
12.0
 49
-1.5
 49
3.0
 49
-1.5
 49
3.0
 49
-1.5
  0
LTYPE
  2
AMCONSTR
 70
     0
  3
_______________________
 72
    65
 73
     2
 40
9999.0
 49
9999.0
 49
0.0
  0
LTYPE
  2
AM_ISO02W050X2
 70
     0
  3
 _ _ _ _ _ _ _ _ _ _ _ _
 72
    65
 73
     2
 40
3.75
 49
3.0
 49
-0.75
  0
LTYPE
  2
AM_ISO08W050X2
 70
     0
  3
__ . __ . __ . __ . __ . __
 72
    65
 73
     4
 40
9.0
 49
6.0
 49
-0.75
 49
1.5
 49
-0.75
  0
LTYPE
  2
AMZIGZAG
 70
     0
  3
/\/-/\/-/\/-/\/-/\/-/\/
 72
    65
 73
     2
 40
11.000099999999991
 49
0.0001
 49
-11.0
  0
LTYPE
  2
ACJISTGB
 70
     0
  3
__ . . __ . .
 72
    65
 73
     6
 40
9.0
 49
4.0
 49
-1.0
 49
1.0
 49
-1.0
 49
1.0
 49
-1.0
  0
LTYPE
  2
ACJISTGL
 70
     0
  3
_ _ _ _ _
 72
    65
 73
     2
 40
3.0
 49
2.0
 49
-1.0
  0
LTYPE
  2
ACISOWELD
 70
     0
  3
_ _ _ _ _
 72
    65
 73
     2
 40
2.0
 49
2.0
 49
-1.0
  0
LTYPE
  2
ACISOTGB
 70
     0
  3
__ . . __ . .
 72
    65
 73
     6
 40
9.0
 49
4.0
 49
-1.0
 49
1.0
 49
-1.0
 49
1.0
 49
-1.0
  0
LTYPE
  2
ACISOTGL
 70
     0
  3
_ _ _ _ _
 72
    65
 73
     2
 40
3.0
 49
2.0
 49
-1.0
  0
LTYPE
  2
HIDDEN
 70
     0
  3
Hidden __ __ __ __ __ __ __ __ __ __ __ __ __ _
 72
    65
 73
     2
 40
0.375
 49
0.25
 49
-0.125
  0
LTYPE
  2
CENTER2
 70
     0
  3
Center (.5x) ___ _ ___ _ ___ _ ___ _ ___ _ ___
 72
    65
 73
     4
 40
1.125
 49
0.75
 49
-0.125
 49
0.125
 49
-0.125
  0
LTYPE
  2
HIDDEN2
 70
     0
  3
Hidden (.5x) _ _ _ _ _ _ _ _ _ _ _ _ _ _ _ _ _
 72
    65
 73
     2
 40
0.1875
 49
0.125
 49
-0.0625
  0
LTYPE
  2
AMZIGZAG2
 70
     0
  3
/\/-/\/-/\/-/\/-/\/-/\/
 72
    65
 73
     2
 40
0.4401
 49
0.0001
 49
-0.4400000000000001
  0
LTYPE
  2
ACANSTGB
 70
     0
  3
__ . . __ . .
 72
    65
 73
     6
 40
0.35433070866
 49
0.15748031496
 49
-0.03937007874
 49
0.03937007874
 49
-0.03937007874
 49
0.03937007874
 49
-0.03937007874
  0
LTYPE
  2
ACANSTGL
 70
     0
  3
_ _ _ _ _
 72
    65
 73
     2
 40
0.11811023622
 49
0.07874015748
 49
-0.03937007874
  0
ENDTAB
  0
TABLE
  2
LAYER
 70
     6
  0
LAYER
  2
0
 70
     0
 62
     7
  6
CONTINUOUS
  0
LAYER
  2
AM_0
 70
     0
 62
     7
  6
CONTINUOUS
  0
LAYER
  2
DEFPOINTS
 70
     0
 62
     7
  6
CONTINUOUS
  0
LAYER
  2
ﾁｭｳｼﾝｾﾝ
 70
     0
 62
     1
  6
GEN7
  0
LAYER
  2
AM_0N
 70
     0
 62
     7
  6
CONTINUOUS
  0
LAYER
  2
AM_5
 70
     0
 62
     2
  6
CONTINUOUS
  0
ENDTAB
  0
TABLE
  2
STYLE
 70
    10
  0
STYLE
  2
STANDARD
 70
     0
 40
0.0
 41
0.8299999999999999
 50
0.0
 71
     0
 42
2.5
  3
txt.shx
  4
bigfont.shx
  0
STYLE
  2
ANNOTATIVE
 70
     0
 40
0.0
 41
1.0
 50
0.0
 71
     0
 42
0.2
  3
txt
  4

  0
STYLE
  2
ACANSTS
 70
     0
 40
1.0
 41
1.0
 50
0.0
 71
     0
 42
2.5
  3
romans.shx
  4
bigfont.shx
  0
STYLE
  2
ACANSGDT
 70
     0
 40
0.0
 41
1.0
 50
0.0
 71
     0
 42
2.5
  3
amgdt.shx
  4

  0
STYLE
  2

 70
     1
 40
0.0
 41
1.0
 50
0.0
 71
     0
 42
2.5
  3
ltypeshp.shx
  4

  0
STYLE
  2
ACJISTS
 70
     0
 40
1.0
 41
0.8299999999999999
 50
0.0
 71
     0
 42
2.5
  3
txt.shx
  4
bigfont.shx
  0
STYLE
  2
ACJISGDT
 70
     0
 40
0.0
 41
1.0
 50
0.0
 71
     0
 42
2.5
  3
amgdt.shx
  4

  0
STYLE
  2
ACISOTS
 70
     0
 40
1.0
 41
1.0
 50
0.0
 71
     0
 42
2.5
  3
isocp.shx
  4
extfont.shx
  0
STYLE
  2
ACISOGDT
 70
     0
 40
0.0
 41
1.0
 50
0.0
 71
     0
 42
2.5
  3
amgdt.shx
  4

  0
STYLE
  2

 70
     1
 40
0.0
 41
1.0
 50
0.0
 71
     0
 42
2.5
  3
genltshp.shx
  4

  0
ENDTAB
  0
TABLE
  2
VIEW
 70
    12
  0
VIEW
  2
GEN1
 70
     0
 40
95.824742268041234
 10
71.5
 20
137.08762886597941
 41
143.0
 11
0.0
 21
0.0
 31
1.0
 12
0.0
 22
0.0
 32
0.0
 42
50.0
 43
0.0
 44
0.0
 50
0.0
 71
     0
  0
VIEW
  2
GEN2
 70
     0
 40
95.824742268041234
 10
214.5
 20
137.08762886597941
 41
143.0
 11
0.0
 21
0.0
 31
1.0
 12
0.0
 22
0.0
 32
0.0
 42
50.0
 43
0.0
 44
0.0
 50
0.0
 71
     0
  0
VIEW
  2
GEN3
 70
     0
 40
95.824742268041234
 10
71.5
 20
47.912371134020603
 41
143.0
 11
0.0
 21
0.0
 31
1.0
 12
0.0
 22
0.0
 32
0.0
 42
50.0
 43
0.0
 44
0.0
 50
0.0
 71
     0
  0
VIEW
  2
GEN4
 70
     0
 40
95.824742268041234
 10
214.5
 20
47.912371134020603
 41
143.0
 11
0.0
 21
0.0
 31
1.0
 12
0.0
 22
0.0
 32
0.0
 42
50.0
 43
0.0
 44
0.0
 50
0.0
 71
     0
  0
VIEW
  2
GEN5
 70
     0
 40
95.824742268041234
 10
143.0
 20
92.500000000000057
 41
143.0
 11
0.0
 21
0.0
 31
1.0
 12
0.0
 22
0.0
 32
0.0
 42
50.0
 43
0.0
 44
0.0
 50
0.0
 71
     0
  0
VIEW
  2
GEN6
 70
     0
 40
191.64756804123709
 10
143.0
 20
92.5
 41
285.99713999999989
 11
0.0
 21
0.0
 31
1.0
 12
0.0
 22
0.0
 32
0.0
 42
50.0
 43
0.0
 44
0.0
 50
0.0
 71
     0
  0
VIEW
  2
AM_VIEW1
 70
     0
 40
142.0
 10
119.7777777777777
 20
213.0
 41
239.55555555555549
 11
0.0
 21
0.0
 31
1.0
 12
0.0
 22
0.0
 32
0.0
 42
50.0
 43
0.0
 44
0.0
 50
0.0
 71
     0
  0
VIEW
  2
AM_VIEW2
 70
     0
 40
142.0
 10
288.22222222222211
 20
213.0
 41
239.55555555555549
 11
0.0
 21
0.0
 31
1.0
 12
0.0
 22
0.0
 32
0.0
 42
50.0
 43
0.0
 44
0.0
 50
0.0
 71
     0
  0
VIEW
  2
AM_VIEW3
 70
     0
 40
142.0
 10
119.7777777777777
 20
71.0
 41
239.55555555555549
 11
0.0
 21
0.0
 31
1.0
 12
0.0
 22
0.0
 32
0.0
 42
50.0
 43
0.0
 44
0.0
 50
0.0
 71
     0
  0
VIEW
  2
AM_VIEW4
 70
     0
 40
142.0
 10
288.22222222222211
 20
71.0
 41
239.55555555555549
 11
0.0
 21
0.0
 31
1.0
 12
0.0
 22
0.0
 32
0.0
 42
50.0
 43
0.0
 44
0.0
 50
0.0
 71
     0
  0
VIEW
  2
AM_VIEW5
 70
     0
 40
142.0
 10
204.0
 20
142.0
 41
239.55555555555549
 11
0.0
 21
0.0
 31
1.0
 12
0.0
 22
0.0
 32
0.0
 42
50.0
 43
0.0
 44
0.0
 50
0.0
 71
     0
  0
VIEW
  2
AM_VIEW6
 70
     0
 40
283.99716000000001
 10
204.0
 20
142.0
 41
479.10631999999993
 11
0.0
 21
0.0
 31
1.0
 12
0.0
 22
0.0
 32
0.0
 42
50.0
 43
0.0
 44
0.0
 50
0.0
 71
     0
  0
ENDTAB
  0
TABLE
  2
UCS
 70
     0
  0
ENDTAB
  0
TABLE
  2
APPID
 70
   106
  0
APPID
  2
ACAD
 70
     0
  0
APPID
  2
ACADANNOTATIVE
 70
     0
  0
APPID
  2
MCAD_NO_VIS
 70
     0
  0
APPID
  2
ACAD_TEMP_GRAPHIC
 70
     0
  0
APPID
  2
AD_DRAW
 70
     0
  0
APPID
  2
DESIGNERASSEMBLIES
 70
     0
  0
APPID
  2
ASURF_PCURVE_APPNAME
 70
     0
  0
APPID
  2
GENIUS_GE3SECT_13
 70
     0
  0
APPID
  2
GENIUS_GENCFG_13
 70
     0
  0
APPID
  2
GENIUS_GE3CFG0_13
 70
     0
  0
APPID
  2
GENIUS_GENCFG0_13
 70
     0
  0
APPID
  2
GENIUS_GENCFG1_13
 70
     0
  0
APPID
  2
GENIUS_GENCFG2_13
 70
     0
  0
APPID
  2
GENIUS_GENCFG3_13
 70
     0
  0
APPID
  2
GENIUS_GENCFG4_13
 70
     0
  0
APPID
  2
GENIUS_GEVCFG0_13
 70
     0
  0
APPID
  2
GENIUS_GENOENT_13
 70
     0
  0
APPID
  2
GENIUS_GENREC_14
 70
     0
  0
APPID
  2
GENIUS_GENODEF_13
 70
     0
  0
APPID
  2
GENIUS_GENOBJ-N-REC_13
 70
     0
  0
APPID
  2
GENIUS_GENHINW_13
 70
     0
  0
APPID
  2
GENIUS_FIRSTVISTXT_14
 70
     0
  0
APPID
  2
GENIUS_GENOBJ-N-LEADER_13
 70
     0
  0
APPID
  2
GENIUS_GENOREF_13
 70
     0
  0
APPID
  2
GENIUS_GENOLIS_13
 70
     0
  0
APPID
  2
GEV_VCCNULL_SWITCH_OFF
 70
     0
  0
APPID
  2
GENIUS_GENDTOL_13
 70
     0
  0
APPID
  2
GENIUS_GEFCFG0_13
 70
     0
  0
APPID
  2
GENIUS_GENOBJ-N-TIT_13
 70
     0
  0
APPID
  2
GENIUS_GENTITLE_13
 70
     0
  0
APPID
  2
GENIUS_GENZVEED_13
 70
     0
  0
APPID
  2
GENIUS_GENOBJ-N-SDF_13
 70
     0
  0
APPID
  2
GENIUS_GENSCREG_13
 70
     0
  0
APPID
  2
GENIUS_DUMCFG0_13
 70
     0
  0
APPID
  2
GEVID936201362
 70
     0
  0
APPID
  2
GEVDC
 70
     0
  0
APPID
  2
GEVCON
 70
     0
  0
APPID
  2
VCC
 70
     0
  0
APPID
  2
GEVPT
 70
     0
  0
APPID
  2
GEVIT
 70
     0
  0
APPID
  2
GENBH
 70
     0
  0
APPID
  2
GEVMK
 70
     0
  0
APPID
  2
GENIUS_GENBH_13
 70
     0
  0
APPID
  2
GENIUS_GENOBJ-NBEHI-BHF_13
 70
     0
  0
APPID
  2
GENIUS_GENOBJ-NBEHI-BHB_13
 70
     0
  0
APPID
  2
GENIUS_GENOBJ-F-DESC_13
 70
     0
  0
APPID
  2
GENIUS_GEFDESC_14
 70
     0
  0
APPID
  2
GENIUS_GENOBJ-F-PART_13
 70
     0
  0
APPID
  2
GENIUS_GEFSTDP_13
 70
     0
  0
APPID
  2
GENIUS_GEFPARTINS_13
 70
     0
  0
APPID
  2
GENIUS_GENTRA_14
 70
     0
  0
APPID
  2
GENIUS_GENINF13_13
 70
     0
  0
APPID
  2
GENIUS_GENOBJ-N-INFOPT_13
 70
     0
  0
APPID
  2
GENIUS_GENOBJ-N-RSSYM_13
 70
     0
  0
APPID
  2
GENIUS_GENSYMENT_13
 70
     0
  0
APPID
  2
GENIUS_GENSCSYM_13
 70
     0
  0
APPID
  2
GENIUS_GEFINFNAM_13
 70
     0
  0
APPID
  2
GENIUS_GENSCREG_15
 70
     0
  0
APPID
  2
GENIUS_GENOBJ-N-CEN_13
 70
     0
  0
APPID
  2
GENIUS_GENOBJ-N-CRS_13
 70
     0
  0
APPID
  2
GENIUS_GENOBJ-N-CRC_13
 70
     0
  0
APPID
  2
GENIUS_GENCRC_14
 70
     0
  0
APPID
  2
GEVID942827039
 70
     0
  0
APPID
  2
GEVID942827040
 70
     0
  0
APPID
  2
GEVID942827041
 70
     0
  0
APPID
  2
GENIUS_GENOBJ-F-SCPASSM_13
 70
     0
  0
APPID
  2
GENIUS_GENDIMSH_14
 70
     0
  0
APPID
  2
GENIUS_GENFIL_13
 70
     0
  0
APPID
  2
GENIUS_GENOBJ-N-CHA_13
 70
     0
  0
APPID
  2
GENIUS_GENOBJ-N-FIL_13
 70
     0
  0
APPID
  2
GEVID942827042
 70
     0
  0
APPID
  2
GEVID946020473
 70
     0
  0
APPID
  2
GEVID946020474
 70
     0
  0
APPID
  2
GEVID946020475
 70
     0
  0
APPID
  2
GENIUS_GENOBJ-N-HTC_13
 70
     0
  0
APPID
  2
GENIUS_GENHATCH_13
 70
     0
  0
APPID
  2
GEVID948854295
 70
     0
  0
APPID
  2
GEVID939402019
 70
     0
  0
APPID
  2
GEVID952919491
 70
     0
  0
APPID
  2
GEVID952919492
 70
     0
  0
APPID
  2
GENIUS_GEFWELD_13
 70
     0
  0
APPID
  2
GENIUS_GENOBJ-F-WELS_13
 70
     0
  0
APPID
  2
GEVID952919493
 70
     0
  0
APPID
  2
GENIUS_GENOBJ-N-RSBK_13
 70
     0
  0
APPID
  2
GENIUS_GENOBJ-N-LIB_13
 70
     0
  0
APPID
  2
GENIUS_GENSCALE_13
 70
     0
  0
APPID
  2
GEVID986376691
 70
     0
  0
APPID
  2
ACATTRIBSERVICES
 70
     0
  0
APPID
  2
ACADM_DIM_EDIT
 70
     0
  0
APPID
  2
AMDT_DM_ADJ
 70
     0
  0
APPID
  2
GEVID1057795304
 70
     0
  0
APPID
  2
GENIUS_GEFSH_13
 70
     0
  0
APPID
  2
GENIUS_GENOBJ-F-SHS_13
 70
     0
  0
APPID
  2
GENIUS_GENOBJ-N-ADDLEAD_13
 70
     0
  0
APPID
  2
GENIUS_GENMAINADDLEADER_14
 70
     0
  0
APPID
  2
GENIUS_GENADDLEADER_14
 70
     0
  0
APPID
  2
GENIUS_GENDREL_13
 70
     0
  0
APPID
  2
GEVID1121934822
 70
     0
  0
APPID
  2
GEVID1121934823
 70
     0
  0
APPID
  2
GEVID1121934824
 70
     0
  0
APPID
  2
ACAD_DSTYLE_DIMJAG
 70
     0
  0
APPID
  2
ACAD_DSTYLE_DIMBREAK
 70
     0
  0
APPID
  2
ACAD_NAV_VCDISPLAY
 70
     0
  0
APPID
  2
ACADANNOPO
 70
     0
  0
APPID
  2
ACAD_EXEMPT_FROM_CAD_STANDARDS
 70
     0
  0
APPID
  2
ACAD_MLEADERVER
 70
     0
  0
ENDTAB
  0
TABLE
  2
DIMSTYLE
 70
    29
  0
DIMSTYLE
  2
STANDARD
 70
     0
  3

  4

  5

  6

  7

 40
1.0
 41
0.18
 42
0.0625
 43
0.38
 44
0.18
 45
0.0
 46
0.0
 47
0.0
 48
0.0
140
0.18
141
0.09
142
0.0
143
25.399999999999999
144
1.0
145
0.0
146
1.0
147
0.09
 71
     0
 72
     0
 73
     1
 74
     1
 75
     0
 76
     0
 77
     0
 78
     0
170
     0
171
     2
172
     0
173
     0
174
     0
175
     0
176
     0
177
     0
178
     0
  0
DIMSTYLE
  2
ANNOTATIVE
 70
     0
  3

  4

  5

  6

  7

 40
1.0
 41
0.18
 42
0.0625
 43
0.38
 44
0.18
 45
0.0
 46
0.0
 47
0.0
 48
0.0
140
0.18
141
0.09
142
0.0
143
25.399999999999999
144
1.0
145
0.0
146
1.0
147
0.09
 71
     0
 72
     0
 73
     1
 74
     1
 75
     0
 76
     0
 77
     0
 78
     0
170
     0
171
     2
172
     0
173
     0
174
     0
175
     0
176
     0
177
     0
178
     0
  0
DIMSTYLE
  2
AM_JIS
 70
     0
  3

  4
"
  5

  6

  7

 40
1.0
 41
2.0
 42
1.0
 43
8.0
 44
1.0
 45
0.0
 46
0.0
 47
0.1
 48
0.1
140
2.5
141
0.0
142
0.0
143
0.0393701
144
1.0
145
0.0
146
0.71
147
1.5
 71
     0
 72
     0
 73
     0
 74
     0
 75
     0
 76
     0
 77
     3
 78
     8
170
     0
171
     2
172
     1
173
     0
174
     0
175
     0
176
   256
177
   256
178
     4
  0
DIMSTYLE
  2
AM_JIS$3
 70
     0
  3

  4
"
  5

  6

  7

 40
1.0
 41
2.0
 42
1.0
 43
10.0
 44
1.0
 45
0.0
 46
0.0
 47
0.1
 48
0.1
140
2.5
141
0.0
142
0.0
143
0.0393701
144
1.0
145
0.0
146
0.71
147
1.5
 71
     0
 72
     0
 73
     0
 74
     1
 75
     0
 76
     0
 77
     3
 78
     8
170
     0
171
     2
172
     0
173
     0
174
     0
175
     0
176
   256
177
   256
178
     4
  0
DIMSTYLE
  2
AM_JIS$4
 70
     0
  3

  4
"
  5

  6

  7

 40
1.0
 41
2.0
 42
1.0
 43
10.0
 44
1.0
 45
0.0
 46
0.0
 47
0.1
 48
0.1
140
2.5
141
0.0
142
0.0
143
0.0393701
144
1.0
145
0.0
146
0.71
147
1.5
 71
     0
 72
     0
 73
     0
 74
     0
 75
     0
 76
     0
 77
     3
 78
     8
170
     0
171
     2
172
     0
173
     0
174
     0
175
     0
176
   256
177
   256
178
     4
  0
DIMSTYLE
  2
AM_JIS$6
 70
     0
  3

  4
"
  5

  6

  7

 40
1.0
 41
2.0
 42
1.0
 43
10.0
 44
1.0
 45
0.0
 46
0.0
 47
0.1
 48
0.1
140
2.5
141
0.0
142
0.0
143
0.0393701
144
1.0
145
0.0
146
0.71
147
1.5
 71
     0
 72
     0
 73
     0
 74
     0
 75
     0
 76
     0
 77
     0
 78
     8
170
     0
171
     2
172
     1
173
     0
174
     0
175
     0
176
   256
177
   256
178
     4
  0
DIMSTYLE
  2
AM_JIS$7
 70
     0
  3

  4
"
  5

  6

  7

 40
1.0
 41
2.0
 42
1.0
 43
10.0
 44
1.0
 45
0.0
 46
0.0
 47
0.1
 48
0.1
140
2.5
141
0.0
142
0.0
143
0.0393701
144
1.0
145
0.0
146
0.71
147
1.5
 71
     0
 72
     0
 73
     0
 74
     0
 75
     0
 76
     0
 77
     3
 78
     8
170
     0
171
     2
172
     1
173
     0
174
     0
175
     0
176
   256
177
   256
178
     4
  0
DIMSTYLE
  2
AM_JIS$SF
 70
     0
  3

  4
"
  5

  6

  7

 40
1.0
 41
2.0
 42
1.0
 43
10.0
 44
1.0
 45
0.0
 46
0.0
 47
0.1
 48
0.1
140
2.5
141
0.0
142
0.0
143
0.0393701
144
1.0
145
0.0
146
0.71
147
1.5
 71
     0
 72
     0
 73
     0
 74
     0
 75
     1
 76
     1
 77
     3
 78
     8
170
     0
171
     2
172
     1
173
     0
174
     0
175
     0
176
   256
177
   256
178
     4
  0
DIMSTYLE
  2
AM_JIS$SH
 70
     0
  3

  4
"
  5

  6

  7

 40
1.0
 41
2.0
 42
1.0
 43
10.0
 44
1.0
 45
0.0
 46
0.0
 47
0.1
 48
0.1
140
2.5
141
0.0
142
0.0
143
0.0393701
144
2.0
145
0.0
146
0.71
147
1.5
 71
     0
 72
     0
 73
     0
 74
     0
 75
     1
 76
     1
 77
     3
 78
     8
170
     0
171
     2
172
     1
173
     1
174
     0
175
     0
176
   256
177
   256
178
     4
  0
DIMSTYLE
  2
AM_ISO
 70
     0
  3

  4
"
  5

  6

  7

 40
1.0
 41
2.5
 42
1.0
 43
10.0
 44
1.0
 45
0.0
 46
0.0
 47
0.1
 48
0.1
140
3.5
141
0.0
142
0.0
143
0.0393701
144
1.0
145
0.0
146
0.71
147
1.5
 71
     0
 72
     0
 73
     0
 74
     0
 75
     0
 76
     0
 77
     1
 78
     8
170
     0
171
     2
172
     1
173
     0
174
     0
175
     0
176
   256
177
   256
178
     2
  0
DIMSTYLE
  2
AM_ISO$3
 70
     0
  3

  4
"
  5

  6

  7

 40
1.0
 41
2.5
 42
1.0
 43
10.0
 44
1.0
 45
0.0
 46
0.0
 47
0.1
 48
0.1
140
3.5
141
0.0
142
0.0
143
0.0393701
144
1.0
145
0.0
146
0.71
147
1.5
 71
     0
 72
     0
 73
     0
 74
     1
 75
     0
 76
     0
 77
     1
 78
     8
170
     0
171
     2
172
     0
173
     0
174
     0
175
     0
176
   256
177
   256
178
     2
  0
DIMSTYLE
  2
AM_ISO$4
 70
     0
  3

  4
"
  5

  6

  7

 40
1.0
 41
2.5
 42
1.0
 43
10.0
 44
1.0
 45
0.0
 46
0.0
 47
0.1
 48
0.1
140
3.5
141
0.0
142
0.0
143
0.0393701
144
1.0
145
0.0
146
0.71
147
1.5
 71
     0
 72
     0
 73
     0
 74
     1
 75
     0
 76
     0
 77
     1
 78
     8
170
     0
171
     2
172
     0
173
     0
174
     0
175
     0
176
   256
177
   256
178
     2
  0
DIMSTYLE
  2
AM_ISO$6
 70
     0
  3

  4
"
  5

  6

  7

 40
1.0
 41
2.5
 42
1.0
 43
10.0
 44
1.0
 45
0.0
 46
0.0
 47
0.1
 48
0.1
140
3.5
141
0.0
142
0.0
143
0.0393701
144
1.0
145
0.0
146
0.71
147
1.5
 71
     0
 72
     0
 73
     0
 74
     0
 75
     0
 76
     0
 77
     0
 78
     8
170
     0
171
     2
172
     1
173
     0
174
     0
175
     0
176
   256
177
   256
178
     2
  0
DIMSTYLE
  2
AM_ISO$7
 70
     0
  3

  4
"
  5

  6

  7

 40
1.0
 41
2.5
 42
1.0
 43
10.0
 44
1.0
 45
0.0
 46
0.0
 47
0.1
 48
0.1
140
5.0
141
0.0
142
0.0
143
0.0393701
144
1.0
145
0.0
146
0.71
147
1.5
 71
     0
 72
     0
 73
     0
 74
     0
 75
     0
 76
     0
 77
     1
 78
     8
170
     0
171
     2
172
     1
173
     0
174
     0
175
     0
176
   256
177
   256
178
     2
  0
DIMSTYLE
  2
AM_ISO$SF
 70
     0
  3

  4
"
  5

  6

  7

 40
1.0
 41
2.5
 42
1.0
 43
10.0
 44
1.0
 45
0.0
 46
0.0
 47
0.1
 48
0.1
140
3.5
141
0.0
142
0.0
143
0.0393701
144
1.0
145
0.0
146
0.71
147
1.5
 71
     0
 72
     0
 73
     0
 74
     0
 75
     1
 76
     1
 77
     1
 78
     8
170
     0
171
     2
172
     1
173
     0
174
     0
175
     0
176
   256
177
   256
178
     2
  0
DIMSTYLE
  2
AM_ISO$SH
 70
     0
  3

  4
"
  5

  6

  7

 40
1.0
 41
2.5
 42
1.0
 43
10.0
 44
1.0
 45
0.0
 46
0.0
 47
0.1
 48
0.1
140
3.5
141
0.0
142
0.0
143
0.0393701
144
2.0
145
0.0
146
0.71
147
1.5
 71
     0
 72
     0
 73
     0
 74
     0
 75
     1
 76
     1
 77
     1
 78
     8
170
     0
171
     2
172
     1
173
     1
174
     0
175
     0
176
   256
177
   256
178
     2
  0
DIMSTYLE
  2
GEN-ANSI
 70
     0
  3

  4
"
  5

  6

  7

 40
1.0
 41
2.0
 42
0.5
 43
10.0
 44
0.5
 45
0.0
 46
0.0
 47
0.1
 48
0.1
140
2.5
141
0.0
142
0.0
143
0.0393701
144
1.0
145
0.0
146
0.71
147
1.5
 71
     0
 72
     0
 73
     1
 74
     1
 75
     0
 76
     0
 77
     0
 78
     8
170
     0
171
     2
172
     0
173
     0
174
     0
175
     0
176
   256
177
   256
178
     4
  0
DIMSTYLE
  2
GEN-ANSI$3
 70
     0
  3

  4
"
  5

  6

  7

 40
1.0
 41
2.0
 42
0.5
 43
10.0
 44
0.5
 45
0.0
 46
0.0
 47
0.1
 48
0.1
140
2.5
141
0.0
142
0.0
143
0.0393701
144
1.0
145
0.0
146
0.71
147
1.5
 71
     0
 72
     0
 73
     1
 74
     1
 75
     0
 76
     0
 77
     0
 78
     8
170
     0
171
     2
172
     0
173
     0
174
     0
175
     0
176
   256
177
   256
178
     4
  0
DIMSTYLE
  2
GEN-ANSI$4
 70
     0
  3

  4
"
  5

  6

  7

 40
1.0
 41
2.0
 42
0.5
 43
10.0
 44
0.5
 45
0.0
 46
0.0
 47
0.1
 48
0.1
140
2.5
141
0.0
142
0.0
143
0.0393701
144
1.0
145
0.0
146
0.71
147
1.5
 71
     0
 72
     0
 73
     1
 74
     1
 75
     0
 76
     0
 77
     0
 78
     8
170
     0
171
     2
172
     0
173
     0
174
     0
175
     0
176
   256
177
   256
178
     4
  0
DIMSTYLE
  2
GEN-ANSI$6
 70
     0
  3

  4
"
  5

  6

  7

 40
1.0
 41
2.0
 42
0.5
 43
10.0
 44
0.5
 45
0.0
 46
0.0
 47
0.1
 48
0.1
140
2.5
141
0.0
142
0.0
143
0.0393701
144
1.0
145
0.0
146
0.71
147
1.5
 71
     0
 72
     0
 73
     1
 74
     1
 75
     0
 76
     0
 77
     0
 78
     8
170
     0
171
     2
172
     0
173
     0
174
     0
175
     0
176
   256
177
   256
178
     4
  0
DIMSTYLE
  2
GEN-ANSI-POS
 70
     0
  3

  4
"
  5

  6

  7

 40
1.0
 41
2.5
 42
0.5
 43
10.0
 44
0.5
 45
0.0
 46
0.0
 47
0.1
 48
0.1
140
5.0
141
0.0
142
0.0
143
0.0393701
144
1.0
145
0.0
146
0.71
147
1.5
 71
     0
 72
     0
 73
     0
 74
     0
 75
     0
 76
     0
 77
     0
 78
     8
170
     0
171
     2
172
     0
173
     0
174
     0
175
     0
176
   256
177
   256
178
     4
  0
DIMSTYLE
  2
GEN-ANSI-AXE-F
 70
     0
  3

  4
"
  5

  6

  7

 40
1.0
 41
2.0
 42
0.5
 43
10.0
 44
0.5
 45
0.0
 46
0.0
 47
0.1
 48
0.1
140
2.5
141
0.0
142
0.0
143
0.0393701
144
1.0
145
0.0
146
0.71
147
1.5
 71
     0
 72
     0
 73
     1
 74
     1
 75
     1
 76
     1
 77
     0
 78
     8
170
     0
171
     2
172
     0
173
     1
174
     0
175
     0
176
   256
177
   256
178
     4
  0
DIMSTYLE
  2
GEN-ANSI-AXE-H
 70
     0
  3

  4
"
  5

  6

  7

 40
1.0
 41
2.0
 42
0.5
 43
10.0
 44
0.5
 45
0.0
 46
0.0
 47
0.1
 48
0.1
140
2.5
141
0.0
142
0.0
143
0.0393701
144
2.0
145
0.0
146
0.71
147
1.5
 71
     0
 72
     0
 73
     0
 74
     0
 75
     1
 76
     1
 77
     0
 78
     8
170
     0
171
     2
172
     1
173
     1
174
     0
175
     0
176
   256
177
   256
178
     4
  0
DIMSTYLE
  2
AM_ANSI
 70
     0
  3

  4
mm
  5

  6

  7

 40
1.0
 41
0.12
 42
0.05
 43
0.5
 44
0.1
 45
0.0
 46
0.0
 47
0.1
 48
0.1
140
0.12
141
0.0
142
0.0
143
25.399999999999999
144
1.0
145
0.0
146
0.71
147
0.06
 71
     0
 72
     0
 73
     1
 74
     1
 75
     0
 76
     0
 77
     0
 78
     7
170
     0
171
     2
172
     0
173
     0
174
     0
175
     0
176
   256
177
   256
178
     2
  0
DIMSTYLE
  2
AM_ANSI$3
 70
     0
  3

  4
mm
  5

  6

  7

 40
1.0
 41
0.12
 42
0.05
 43
0.5
 44
0.1
 45
0.0
 46
0.0
 47
0.1
 48
0.1
140
0.12
141
0.0
142
0.0
143
25.399999999999999
144
1.0
145
0.0
146
0.71
147
0.06
 71
     0
 72
     0
 73
     1
 74
     1
 75
     0
 76
     0
 77
     0
 78
     7
170
     0
171
     2
172
     0
173
     0
174
     0
175
     0
176
   256
177
   256
178
     2
  0
DIMSTYLE
  2
AM_ANSI$4
 70
     0
  3

  4
mm
  5

  6

  7

 40
1.0
 41
0.12
 42
0.05
 43
0.5
 44
0.1
 45
0.0
 46
0.0
 47
0.1
 48
0.1
140
0.12
141
0.0
142
0.0
143
25.399999999999999
144
1.0
145
0.0
146
0.71
147
0.06
 71
     0
 72
     0
 73
     1
 74
     1
 75
     0
 76
     0
 77
     0
 78
     7
170
     0
171
     2
172
     0
173
     0
174
     0
175
     0
176
   256
177
   256
178
     2
  0
DIMSTYLE
  2
AM_ANSI$7
 70
     0
  3

  4
mm
  5

  6

  7

 40
1.0
 41
0.12
 42
0.05
 43
0.5
 44
0.1
 45
0.0
 46
0.0
 47
0.1
 48
0.1
140
0.12
141
0.0
142
0.0
143
25.399999999999999
144
1.0
145
0.0
146
0.71
147
0.06
 71
     0
 72
     0
 73
     1
 74
     1
 75
     0
 76
     0
 77
     0
 78
     7
170
     0
171
     2
172
     0
173
     0
174
     0
175
     0
176
   256
177
   256
178
     2
  0
DIMSTYLE
  2
AM_ANSI$SF
 70
     0
  3

  4
mm
  5

  6

  7

 40
1.0
 41
0.12
 42
0.05
 43
0.5
 44
0.1
 45
0.0
 46
0.0
 47
0.1
 48
0.1
140
0.12
141
0.0
142
0.0
143
25.399999999999999
144
1.0
145
0.0
146
0.71
147
0.06
 71
     0
 72
     0
 73
     1
 74
     1
 75
     1
 76
     1
 77
     0
 78
     7
170
     0
171
     2
172
     0
173
     0
174
     0
175
     0
176
   256
177
   256
178
     2
  0
DIMSTYLE
  2
AM_ANSI$SH
 70
     0
  3

  4
mm
  5

  6
GENAXEH
  7

 40
1.0
 41
0.12
 42
0.05
 43
0.5
 44
0.1
 45
0.0
 46
0.0
 47
0.1
 48
0.1
140
0.12
141
0.0
142
0.0
143
25.399999999999999
144
1.0
145
0.0
146
0.71
147
0.06
 71
     0
 72
     0
 73
     1
 74
     1
 75
     1
 76
     1
 77
     0
 78
     7
170
     0
171
     2
172
     0
173
     1
174
     0
175
     0
176
   256
177
   256
178
     2
  0
ENDTAB
  0
ENDSEC
  0
SECTION
  2
BLOCKS
  0
BLOCK
  8
0
  2
$MODEL_SPACE
 70
     0
 10
0.0
 20
0.0
 30
0.0
  3
$MODEL_SPACE
  1

  0
ENDBLK
  5
92F9
  8
0
  0
BLOCK
 67
     1
  8
0
  2
$PAPER_SPACE
 70
     0
 10
0.0
 20
0.0
 30
0.0
  3
$PAPER_SPACE
  1

  0
ENDBLK
  5
92F5
 67
     1
  8
0
  0
BLOCK
  8
0
  2
GENAXEH
 70
     0
 10
0.0
 20
0.0
 30
0.0
  3
GENAXEH
  1

  0
LINE
  5
9243
  8
0
 10
-1.0
 20
0.0
 30
0.0
 11
1.0
 21
0.0
 31
0.0
  0
ENDBLK
  5
9245
  8
0
  0
BLOCK
  8
0
  2
_ACMFILLEDHALF
 70
     0
 10
0.0
 20
0.0
 30
0.0
  3
_ACMFILLEDHALF
  1

  0
TRACE
  5
9406
  8
AM_0
 62
     0
 10
-0.8
 20
0.0
 30
0.0
 11
-1.0
 21
0.166666666
 31
0.0
 12
0.0
 22
0.0
 32
0.0
 13
0.0
 23
0.0
 33
0.0
  0
LINE
  5
9407
  8
AM_0
 62
     0
 10
-1.0
 20
0.0
 30
0.0
 11
-0.8
 21
0.0
 31
0.0
  0
ENDBLK
  5
9405
  8
0
  0
ENDSEC
  0
SECTION
  2
ENTITIES
  0
POINT
  5
1B94
  8
0
 10
0.0
 20
0.0
 30
0.0
1001
GENIUS_GENODEF_13
1002
{
1000
HIER
1070
     1
1002
}
1002
{
1000
MANEDIT
1070
     0
1002
}
1002
{
1000
NOSEL
1070
     0
1002
}
1002
{
1000
BEHIND
1070
     0
1002
}
1002
{
1000
REACTOR
1002
}
1001
GENIUS_GENOBJ-N-SDF_13
1002
{
1000
OWNER
1000
GEN
1002
}
1001
GENIUS_GENOENT_13
1002
{
1000
MYREF
1005
1B94
1002
}
1002
{
1000
GRP
1005
0
1002
}
1001
GENIUS_GENOLIS_13
1002
{
1000
ENT
1005
89
1002
}
  0
LINE
  5
868F
  8
AM_0
 10
360.52867222034632
 20
256.36169513399949
 30
0.0
 11
372.63340222034628
 21
256.78439513399962
 31
0.0
  0
LINE
  5
8690
  8
ﾁｭｳｼﾝｾﾝ
 10
437.75170222034637
 20
139.28438213399971
 30
0.0
 11
239.60039337266011
 21
139.28438213399971
 31
0.0
  0
LINE
  5
8691
  8
AM_0
 10
360.73804222034681
 20
21.3689741339997
 30
0.0
 11
372.63340222034628
 21
21.78437813399972
 31
0.0
  0
LINE
  5
8692
  8
AM_0
 10
345.52117222034479
 20
188.32141613399961
 30
0.0
 11
341.10043222034608
 21
145.71753413399969
 31
0.0
  0
LINE
  5
8693
  8
AM_0
 10
357.63334222034791
 20
110.5201451339997
 30
0.0
 11
357.63334222034791
 21
198.1951451339996
 31
0.0
  0
LINE
  5
8694
  8
AM_0
 10
364.63333222034629
 20
139.28438213399971
 30
0.0
 11
364.63333222034629
 21
229.88414513399971
 31
0.0
  0
LINE
  5
8695
  8
AM_0
 10
234.63337222034889
 20
39.355441133999811
 30
0.0
 11
234.63337222034889
 21
183.2133251339996
 31
0.0
  0
LINE
  5
8696
  8
AM_0
 10
222.13336222034829
 20
174.7843691339996
 30
0.0
 11
222.13336222034829
 21
47.784319133999702
 31
0.0
  0
LINE
  5
8697
  8
AM_0
 10
249.6333722203471
 20
14.06496413399983
 30
0.0
 11
249.6333722203471
 21
208.5038351339997
 31
0.0
  0
LINE
  5
8698
  8
AM_0
 10
259.6333622203465
 20
11.78437013399968
 30
0.0
 11
259.6333622203465
 21
210.78440513399951
 31
0.0
  0
LINE
  5
8699
  8
ﾁｭｳｼﾝｾﾝ
 10
8.9077022203482539
 20
111.2843981339999
 30
0.0
 11
254.19192403751339
 21
111.2843981339999
 31
0.0
  0
LINE
  5
869A
  8
AM_0
 10
236.09785222034671
 20
35.81991713399983
 30
0.0
 11
248.7547022203471
 21
23.163055133999809
 31
0.0
  0
ARC
  5
869B
  8
AM_0
 10
239.6333822203469
 20
39.355441133999811
 30
0.0
 40
5.0000000999999967
 50
179.99998999999889
 51
224.99999999999079
  0
LINE
  5
869C
  8
AM_0
 10
215.1333722203471
 20
47.784394133999911
 30
0.0
 11
222.13336222034829
 21
47.784394133999911
 31
0.0
  0
ARC
  5
869D
  8
AM_0
 10
229.63336222034829
 20
42.519427133999677
 30
0.0
 40
5.0000000999999967
 50
0.0
 51
87.999999999996405
  0
LINE
  5
869E
  8
AM_0
 10
222.13342222034501
 20
47.784364133999702
 30
0.0
 11
229.80793222034569
 21
47.516359133999821
 31
0.0
  0
LINE
  5
869F
  8
AM_0
 10
214.1333222203466
 20
74.134387133999695
 30
0.0
 11
222.13336222034829
 21
74.134387133999695
 31
0.0
  0
LINE
  5
86A0
  8
AM_0
 10
215.1333722203471
 20
59.244388133999692
 30
0.0
 11
222.13336222034829
 21
59.244388133999692
 31
0.0
  0
LINE
  5
86A1
  8
AM_0
 10
222.13336222034829
 20
59.784379133999821
 30
0.0
 11
234.63337222034889
 21
59.784379133999821
 31
0.0
  0
LINE
  5
86A2
  8
AM_0
 10
222.13336222034829
 20
74.136448133999707
 30
0.0
 11
234.63337222034889
 21
74.136448133999707
 31
0.0
  0
LINE
  5
86A3
  8
AM_0
 10
215.1333722203471
 20
163.32437513399961
 30
0.0
 11
222.13336222034829
 21
163.32437513399961
 31
0.0
  0
LINE
  5
86A4
  8
AM_0
 10
214.1333222203466
 20
148.43439113399981
 30
0.0
 11
222.13336222034829
 21
148.43439113399981
 31
0.0
  0
LINE
  5
86A5
  8
AM_0
 10
222.13336222034829
 20
148.4323181339997
 30
0.0
 11
234.63337222034889
 21
148.4323181339997
 31
0.0
  0
LINE
  5
86A6
  8
AM_0
 10
222.13336222034829
 20
162.78439913399961
 30
0.0
 11
234.63337222034889
 21
162.78439913399961
 31
0.0
  0
LINE
  5
86A7
  8
AM_0
 10
364.63333222034629
 20
47.916400133999701
 30
0.0
 11
364.63333222034629
 21
139.28438213399971
 31
0.0
  0
LINE
  5
86A8
  8
AM_0
 10
249.6333722203471
 20
50.904130133999701
 30
0.0
 11
355.89685222034677
 21
50.904130133999701
 31
0.0
  0
LINE
  5
86A9
  8
AM_0
 10
249.6333722203471
 20
30.866593133999711
 30
0.0
 11
355.89685222034677
 21
30.866593133999711
 31
0.0
  0
LINE
  5
86AA
  8
AM_0
 10
259.6333622203465
 20
11.784379133999829
 30
0.0
 11
344.87029222034653
 21
9.5523701339997178
 31
0.0
  0
LINE
  5
86AB
  8
AM_0
 10
251.56360222034701
 20
12.06616913399983
 30
0.0
 11
259.6334222203468
 21
11.7843641339997
 31
0.0
  0
ARC
  5
86AC
  8
AM_0
 10
251.6333822203469
 20
14.06496413399983
 30
0.0
 40
2.00000007
 50
179.99998999999889
 51
268.00000999999202
  0
ARC
  5
86AD
  8
AM_0
 10
246.6333722203471
 20
21.041734133999821
 30
0.0
 40
3.0
 50
0.0
 51
45.000001000013029
  0
LINE
  5
86AE
  8
AM_0
 10
357.63334222034791
 20
24.367159133999699
 30
0.0
 11
357.63334222034791
 21
74.595094133999908
 31
0.0
  0
LINE
  5
86AF
  8
AM_0
 10
344.87029222034653
 20
9.5523521339997046
 30
0.0
 11
365.63335222034658
 21
21.539917133999719
 31
0.0
  0
ARC
  5
86B0
  8
AM_0
 10
360.633342220347
 20
24.367159133999699
 30
0.0
 40
3.0
 50
179.99998999999889
 51
271.99999000000781
  0
ARC
  5
86B1
  8
AM_0
 10
361.63333222034629
 20
47.916400133999701
 30
0.0
 40
3.0
 50
272.00000000000352
 51
0.0
  0
LINE
  5
86B2
  8
AM_0
 10
359.91793222034812
 20
44.854663133999694
 30
0.0
 11
361.73809222034652
 21
44.918215133999823
 31
0.0
  0
LINE
  5
86B3
  8
AM_0
 10
360.633342220347
 20
77.595094133999808
 30
0.0
 11
364.63333222034629
 21
77.595094133999808
 31
0.0
  0
ARC
  5
86B4
  8
AM_0
 10
360.633342220347
 20
74.595094133999908
 30
0.0
 40
3.0
 50
90.000002999984645
 51
180.00001000000091
  0
ARC
  5
86B6
  8
AM_0
 10
380.88688222034591
 20
141.58916213399971
 30
0.0
 40
40.000001999999967
 50
174.07597999999501
 51
234.4553400000047
  0
LINE
  5
86B7
  8
AM_0
 10
360.633342220347
 20
107.5201451339997
 30
0.0
 11
364.63333222034629
 21
107.5201451339997
 31
0.0
  0
ARC
  5
86B8
  8
AM_0
 10
360.633342220347
 20
110.5201451339997
 30
0.0
 40
3.0
 50
179.99998999999889
 51
270.0
  0
LINE
  5
86B9
  8
AM_0
 10
236.09779222034641
 20
186.7488761339996
 30
0.0
 11
248.7546422203468
 21
199.40570513399959
 31
0.0
  0
LINE
  5
86BA
  8
AM_0
 10
215.1333722203471
 20
174.78439913399961
 30
0.0
 11
222.13336222034829
 21
174.78439913399961
 31
0.0
  0
ARC
  5
86BB
  8
AM_0
 10
229.63336222034829
 20
180.04932113399971
 30
0.0
 40
5.0000000999999967
 50
272.00000000000352
 51
0.0
  0
LINE
  5
86BC
  8
AM_0
 10
222.13336222034829
 20
174.78439913399961
 30
0.0
 11
229.8078722203463
 21
175.0524041339996
 31
0.0
  0
ARC
  5
86BD
  8
AM_0
 10
239.6333822203469
 20
183.2133251339996
 30
0.0
 40
5.0000000999999967
 50
135.00000000000921
 51
180.00001000000091
  0
ARC
  5
86BE
  8
AM_0
 10
360.633342220347
 20
253.36349513399841
 30
0.0
 40
3.0
 50
91.999997999994008
 51
180.00001000000091
  0
LINE
  5
86BF
  8
AM_0
 10
249.6333722203471
 20
190.48880513399959
 30
0.0
 11
344.62687222034668
 21
190.48880513399959
 31
0.0
  0
LINE
  5
86C0
  8
AM_0
 10
259.6333622203465
 20
210.78443513399969
 30
0.0
 11
318.73927222034678
 21
212.33216513399969
 31
0.0
  0
ARC
  5
86C1
  8
AM_0
 10
251.6333822203469
 20
208.5038351339997
 30
0.0
 40
2.00000007
 50
91.999997999994008
 51
180.00001000000091
  0
LINE
  5
86C2
  8
AM_0
 10
251.56360222034701
 20
210.5026151339996
 30
0.0
 11
259.6333622203465
 21
210.78440513399951
 31
0.0
  0
ARC
  5
86C3
  8
AM_0
 10
246.6333722203471
 20
201.5270351339995
 30
0.0
 40
3.0
 50
315.00000000000921
 51
0.0
  0
ARC
  5
86C4
  8
AM_0
 10
324.63334222034791
 20
190.48880513399959
 30
0.0
 40
21.000000600000011
 50
354.07597999999501
 51
80.875525000029313
  0
LINE
  5
86C5
  8
AM_0
 10
357.63334222034791
 20
198.1951451339996
 30
0.0
 11
357.63334222034791
 21
253.36349513399841
 31
0.0
  0
LINE
  5
86C6
  8
AM_0
 10
360.633342220347
 20
195.1951451339996
 30
0.0
 11
364.63333222034629
 21
195.1951451339996
 31
0.0
  0
ARC
  5
86C7
  8
AM_0
 10
360.633342220347
 20
198.1951451339996
 30
0.0
 40
3.0
 50
179.99998999999889
 51
270.0
  0
LINE
  5
86C8
  8
AM_0
 10
322.1438522203461
 20
213.79490513399969
 30
0.0
 11
357.63334222034791
 21
249.2843951339996
 31
0.0
  0
ARC
  5
86C9
  8
AM_0
 10
318.60832222034679
 20
217.33043513399949
 30
0.0
 40
5.0000000999999967
 50
271.50000000004172
 51
315.00000000000921
  0
LINE
  5
86CA
  8
AM_0
 10
320.7333122203471
 20
212.38433513399971
 30
0.0
 11
327.96355222034612
 21
211.22309513399949
 31
0.0
  0
ARC
  5
86CB
  8
AM_0
 10
361.63333222034629
 20
229.88414513399971
 30
0.0
 40
3.0
 50
0.0
 51
91.999997999994008
  0
LINE
  5
86CC
  8
AM_0
 10
361.34881222034721
 20
232.87601513399949
 30
0.0
 11
361.52869222034678
 21
232.8823151339995
 31
0.0
  0
LINE
  5
86CE
  8
AM_0
 10
376.63333222034629
 20
34.284379133999828
 30
0.0
 11
376.63333222034629
 21
244.28441513399949
 31
0.0
  0
LINE
  5
86CF
  8
AM_0
 10
372.63334222034598
 20
139.28438213399971
 30
0.0
 11
372.63334222034598
 21
256.78439513399962
 31
0.0
  0
LINE
  5
86D0
  8
AM_0
 10
372.63334222034598
 20
21.78437813399972
 30
0.0
 11
372.63334222034598
 21
139.28438213399971
 31
0.0
  0
LINE
  5
86D1
  8
AM_0
 10
372.63334222034598
 20
34.284379133999828
 30
0.0
 11
376.63333222034629
 21
34.284379133999828
 31
0.0
  0
LINE
  5
86D2
  8
AM_0
 10
434.63341222034791
 20
123.2843981339998
 30
0.0
 11
434.63341222034791
 21
158.28439913399961
 31
0.0
  0
LINE
  5
86D3
  8
AM_0
 10
434.63341222034791
 20
123.2843981339998
 30
0.0
 11
376.63333222034629
 21
123.2843981339998
 31
0.0
  0
LINE
  5
86D4
  8
AM_0
 10
434.63341222034791
 20
155.28439913399961
 30
0.0
 11
376.63333222034629
 21
155.28439913399961
 31
0.0
  0
LINE
  5
86D5
  8
AM_0
 10
434.63341222034791
 20
158.28439913399961
 30
0.0
 11
389.6333822203469
 21
158.28439913399961
 31
0.0
  0
LINE
  5
86D6
  8
AM_0
 10
389.6333822203469
 20
155.28439913399961
 30
0.0
 11
389.6333822203469
 21
158.28439913399961
 31
0.0
  0
LINE
  5
86D7
  8
AM_0
 10
372.63334222034598
 20
244.28441513399949
 30
0.0
 11
376.63333222034629
 21
244.28441513399949
 31
0.0
  0
ARC
  5
86D8
  8
AM_0
 10
673.4824587259327
 20
169.85281913399959
 30
0.0
 40
5.0000000999999967
 50
135.00000000000921
 51
215.22315000000549
  0
CIRCLE
  5
86D9
  8
AM_0
 10
630.18611672593318
 20
139.28438213399971
 30
0.0
 40
105.00000299999979
  0
CIRCLE
  5
86DA
  8
AM_0
 10
630.18611672593318
 20
139.28438213399971
 30
0.0
 40
99.000003000000021
  0
ARC
  5
86DB
  8
AM_0
 10
630.18611672593318
 20
111.2843981339999
 30
0.0
 40
99.500004000000004
 50
29.730243000012941
 51
54.136311999993161
  0
ARC
  5
86DC
  8
AM_0
 10
630.18611672593318
 20
139.28438213399971
 30
0.0
 40
48.0
 50
0.0
 51
35.223152000003601
  0
CIRCLE
  5
86DD
  8
AM_0
 10
630.18611672593318
 20
139.28438213399971
 30
0.0
 40
29.000001000000001
  0
ARC
  5
86DE
  8
AM_0
 10
630.18611672593318
 20
139.28438213399971
 30
0.0
 40
48.0
 50
144.7768399999953
 51
180.00001000000091
  0
ARC
  5
86DF
  8
AM_0
 10
630.18611672593318
 20
111.2843981339999
 30
0.0
 40
99.500004000000004
 50
125.86369000001071
 51
150.26976000000781
  0
ARC
  5
86E0
  8
AM_0
 10
586.88980472593266
 20
169.85281913399959
 30
0.0
 40
5.0000000999999967
 50
324.77684999999178
 51
45.000001000013029
  0
LINE
  5
86E1
  8
ﾁｭｳｼﾝｾﾝ
 10
630.18611672593318
 20
6.5136491339997047
 30
0.0
 11
630.18611672593318
 21
262.38179513399967
 31
0.0
  0
LINE
  5
86E2
  8
AM_0
 10
747.68612372593304
 20
139.28438213399971
 30
0.0
 11
747.68612372593304
 21
169.28436713399961
 31
0.0
  0
LINE
  5
86E3
  8
AM_0
 10
512.68612772593315
 20
139.28438213399971
 30
0.0
 11
512.68612772593315
 21
169.28436713399961
 31
0.0
  0
ARC
  5
86E4
  8
AM_0
 10
630.18611672593318
 20
111.2843981339999
 30
0.0
 40
99.500004000000004
 50
242.88565999998769
 51
297.11435000001688
  0
LINE
  5
86E5
  8
ﾁｭｳｼﾝｾﾝ
 10
507.9474207259334
 20
139.28438213399971
 30
0.0
 11
752.42481272593307
 21
139.28438213399971
 31
0.0
  0
LINE
  5
86E6
  8
AM_0
 10
630.18611672593318
 20
21.78437813399972
 30
0.0
 11
660.18611672593318
 21
21.78437813399972
 31
0.0
  0
ARC
  5
86E7
  8
AM_0
 10
536.07357872593275
 20
45.171817133999838
 30
0.0
 40
20.000000700000001
 50
183.00000999999281
 51
266.99999999999432
  0
LINE
  5
86E8
  8
AM_0
 10
512.686097725933
 20
109.2843821339997
 30
0.0
 11
516.1009527259323
 21
44.125093133999712
 31
0.0
  0
LINE
  5
86E9
  8
AM_0
 10
512.68612772593315
 20
139.28438213399971
 30
0.0
 11
512.68612772593315
 21
109.2843821339997
 31
0.0
  0
LINE
  5
86EA
  8
AM_0
 10
600.18611372593296
 20
21.78437813399972
 30
0.0
 11
535.02685772593316
 21
25.199236133999701
 31
0.0
  0
CIRCLE
  5
86EC
  8
AM_0
 10
534.72671672593265
 20
43.824967133999898
 30
0.0
 40
7.5000002999999982
  0
LINE
  5
86EE
  8
AM_0
 10
630.18611672593318
 20
21.78437813399972
 30
0.0
 11
600.18611372593296
 21
21.78437813399972
 31
0.0
  0
ARC
  5
86EF
  8
AM_0
 10
630.18611672593318
 20
111.2843981339999
 30
0.0
 40
93.500003999999976
 50
162.14678999999731
 51
183.00787999999901
  0
LINE
  5
86F0
  8
AM_0
 10
582.18611372593318
 20
139.28438213399971
 30
0.0
 11
582.18611372593318
 21
101.28439613399991
 31
0.0
  0
LINE
  5
86F1
  8
AM_0
 10
577.18613072593325
 20
96.284395133999823
 30
0.0
 11
544.20938372593275
 21
96.284395133999823
 31
0.0
  0
ARC
  5
86F2
  8
AM_0
 10
544.20938372593275
 20
101.28439613399991
 30
0.0
 40
5.0000000999999967
 50
203.84447000001001
 51
270.0
  0
ARC
  5
86F3
  8
AM_0
 10
577.18613072593325
 20
101.28439613399991
 30
0.0
 40
5.0000000999999967
 50
270.0
 51
0.0
  0
ARC
  5
86F4
  8
AM_0
 10
630.18611672593318
 20
139.28438213399971
 30
0.0
 40
89.000003999999961
 50
166.12422999999799
 51
179.5717700000003
  0
ARC
  5
86F5
  8
AM_0
 10
630.18611672593318
 20
139.28438213399971
 30
0.0
 40
16.000000499999999
 50
108.2099599999986
 51
71.790051999991604
  0
ARC
  5
86F6
  8
AM_0
 10
630.18611672593318
 20
139.28438213399971
 30
0.0
 40
16.000000499999999
 50
108.2099599999986
 51
71.790051999991604
  0
CIRCLE
  5
86F7
  8
AM_5
 10
630.18611672593318
 20
139.28438213399971
 30
0.0
 40
4.000000199999997
  0
CIRCLE
  5
86F8
  8
AM_0
 10
630.18611672593318
 20
139.28438213399971
 30
0.0
 40
2.75000007
  0
CIRCLE
  5
86F9
  8
AM_0
 10
630.18611672593318
 20
139.28438213399971
 30
0.0
 40
2.75000007
  0
CIRCLE
  5
86FA
  8
AM_0
 10
630.18611672593318
 20
139.28438213399971
 30
0.0
 40
2.75000007
  0
LINE
  5
86FB
  8
AM_0
 10
625.18611572593466
 20
150.2843981339997
 30
0.0
 11
635.18611472593341
 21
150.2843981339997
 31
0.0
  0
LINE
  5
86FC
  8
AM_0
 10
625.18611572593466
 20
158.28439913399961
 30
0.0
 11
635.18611472593341
 21
158.28439913399961
 31
0.0
  0
LINE
  5
86FD
  8
AM_0
 10
625.18611572593466
 20
150.2843981339997
 30
0.0
 11
625.18611572593466
 21
158.28439913399961
 31
0.0
  0
LINE
  5
86FE
  8
AM_0
 10
635.18611472593341
 20
150.2843981339997
 30
0.0
 11
635.18611472593341
 21
158.28439913399961
 31
0.0
  0
LINE
  5
86FF
  8
AM_0
 10
747.68612372593304
 20
109.28436713399979
 30
0.0
 11
744.27127172593305
 21
44.125093133999712
 31
0.0
  0
LINE
  5
8701
  8
AM_0
 10
660.18611672593318
 20
21.78437813399972
 30
0.0
 11
725.34539672593303
 21
25.199221133999711
 31
0.0
  0
ARC
  5
8703
  8
AM_0
 10
724.29868172593365
 20
45.171817133999838
 30
0.0
 40
20.000000700000001
 50
273.00000000000563
 51
356.9999999999938
  0
CIRCLE
  5
8704
  8
AM_0
 10
725.64554672593295
 20
43.824967133999898
 30
0.0
 40
7.5000002999999982
  0
ARC
  5
8705
  8
AM_0
 10
630.18611672593318
 20
139.28438213399971
 30
0.0
 40
89.000003999999961
 50
0.4282278599950756
 51
13.875764000010641
  0
ARC
  5
8706
  8
AM_0
 10
716.16286472593322
 20
101.28439613399991
 30
0.0
 40
5.0000000999999967
 50
270.0
 51
336.15552999998988
  0
LINE
  5
8707
  8
AM_0
 10
678.18611672593306
 20
139.28438213399971
 30
0.0
 11
678.18611672593306
 21
101.28439613399991
 31
0.0
  0
LINE
  5
8708
  8
AM_0
 10
683.18612672593304
 20
96.284395133999823
 30
0.0
 11
716.16286472593322
 21
96.284395133999823
 31
0.0
  0
ARC
  5
8709
  8
AM_0
 10
683.18612672593304
 20
101.28439613399991
 30
0.0
 40
5.0000000999999967
 50
179.99998999999889
 51
270.0
  0
ARC
  5
870A
  8
AM_0
 10
630.18611672593318
 20
111.2843981339999
 30
0.0
 40
93.500003999999976
 50
356.9921200000008
 51
17.85321299999185
  0
LINE
  5
870B
  8
AM_0
 10
747.68612372593304
 20
139.28438213399971
 30
0.0
 11
747.68612372593304
 21
109.2843821339997
 31
0.0
  0
ARC
  5
870C
  8
AM_0
 10
630.18611672593318
 20
111.2843981339999
 30
0.0
 40
99.500004000000004
 50
58.838493999989772
 51
86.644180000009626
  0
ARC
  5
870D
  8
AM_0
 10
630.18611672593318
 20
139.28438213399971
 30
0.0
 40
48.0
 50
54.776849999967389
 51
125.2231399999917
  0
LINE
  5
870E
  8
AM_0
 10
630.18611672593318
 20
256.78439513399962
 30
0.0
 11
660.18611672593318
 21
256.78439513399962
 31
0.0
  0
ARC
  5
870F
  8
AM_0
 10
536.07357872593275
 20
233.3969351339997
 30
0.0
 40
20.000000700000001
 50
92.999998999995157
 51
176.9999900000071
  0
LINE
  5
8710
  8
AM_0
 10
512.68612772593315
 20
169.28436713399961
 30
0.0
 11
516.10098272593325
 21
234.4436651339997
 31
0.0
  0
LINE
  5
8711
  8
AM_0
 10
600.18611372593296
 20
256.78436513399959
 30
0.0
 11
535.02685772593316
 21
253.3695251339995
 31
0.0
  0
LINE
  5
8712
  8
AM_0
 10
590.42532572593359
 20
173.38831013399951
 30
0.0
 11
561.19504172593327
 21
202.6185851339996
 31
0.0
  0
LINE
  5
8713
  8
AM_0
 10
596.08218872593375
 20
179.0451731339997
 30
0.0
 11
566.85190172593354
 21
208.2754451339996
 31
0.0
  0
ARC
  5
8714
  8
AM_0
 10
570.38739272593295
 20
211.81103513399961
 30
0.0
 40
5.0000000999999967
 50
129.5058200000212
 51
224.99999999999079
  0
ARC
  5
8715
  8
AM_0
 10
557.6594877259331
 20
199.0831151339996
 30
0.0
 40
5.0000000999999967
 50
45.000001000013029
 51
140.49418000001211
  0
CIRCLE
  5
8717
  8
AM_0
 10
534.72671672593265
 20
234.7438151339995
 30
0.0
 40
7.5000002999999982
  0
ARC
  5
8719
  8
AM_0
 10
630.18611672593318
 20
111.2843981339999
 30
0.0
 40
99.500004000000004
 50
93.355818000010416
 51
121.1615150899121
  0
ARC
  5
871A
  8
AM_0
 10
624.18611672593136
 20
213.60860513399959
 30
0.0
 40
3.0
 50
273.3558199999905
 51
0.0
  0
ARC
  5
871B
  8
AM_0
 10
636.18611672593306
 20
213.60860513399959
 30
0.0
 40
3.0
 50
179.99998999999889
 51
266.6441899999615
  0
ARC
  5
871C
  8
AM_0
 10
599.61770972593365
 20
182.58072413399961
 30
0.0
 40
5.0000000999999967
 50
224.99999999999079
 51
305.22315000003249
  0
ARC
  5
871D
  8
AM_0
 10
636.18611672593306
 20
219.79910513399949
 30
0.0
 40
3.0
 50
90.000002999984645
 51
180.00001000000091
  0
ARC
  5
871E
  8
AM_0
 10
624.18611672593136
 20
219.79910513399949
 30
0.0
 40
3.0
 50
0.0
 51
90.000002999984645
  0
LINE
  5
871F
  8
AM_0
 10
633.18611672593306
 20
219.79910513399949
 30
0.0
 11
633.18611672593306
 21
213.60860513399959
 31
0.0
  0
LINE
  5
8720
  8
AM_0
 10
627.18611672593238
 20
219.79910513399949
 30
0.0
 11
627.18611672593238
 21
213.60860513399959
 31
0.0
  0
LINE
  5
8721
  8
AM_0
 10
630.18611672593318
 20
256.78439513399962
 30
0.0
 11
600.18611372593296
 21
256.78439513399962
 31
0.0
  0
ARC
  5
8723
  8
AM_0
 10
724.29868172593365
 20
233.3969351339997
 30
0.0
 40
20.000000700000001
 50
3.0000000999981662
 51
86.999998999983788
  0
LINE
  5
8724
  8
AM_0
 10
660.18613172593268
 20
256.78436513399959
 30
0.0
 11
725.34539672593303
 21
253.3695251339995
 31
0.0
  0
ARC
  5
8725
  8
ﾁｭｳｼﾝｾﾝ
 10
630.18611672593318
 20
139.28438213399971
 30
0.0
 40
135.00000299999991
 50
38.630522034843608
 51
51.369475898345478
  0
LINE
  5
8726
  8
ﾁｭｳｼﾝｾﾝ
 10
715.03893777645567
 20
224.1371928108903
 30
0.0
 11
736.25213428189375
 21
245.35040317664269
 31
0.0
  0
ARC
  5
8727
  8
AM_0
 10
689.9848377259334
 20
211.81103513399961
 30
0.0
 40
5.0000000999999967
 50
315.00000000000921
 51
50.494181999991731
  0
LINE
  5
8728
  8
AM_0
 10
669.94690472593265
 20
173.38831013399951
 30
0.0
 11
699.17722172593335
 21
202.6186151339995
 31
0.0
  0
LINE
  5
8729
  8
AM_0
 10
664.29005972593325
 20
179.0451731339997
 30
0.0
 11
693.5203707259335
 21
208.27547513399961
 31
0.0
  0
ARC
  5
872A
  8
AM_0
 10
660.75452072593271
 20
182.58072413399961
 30
0.0
 40
5.0000000999999967
 50
234.7768600000081
 51
315.00000000000921
  0
ARC
  5
872B
  8
AM_0
 10
702.71275172593346
 20
199.0831151339996
 30
0.0
 40
5.0000000999999967
 50
39.505817999986647
 51
135.00000000000921
  0
LINE
  5
872C
  8
AM_0
 10
747.68612372593304
 20
169.28436713399961
 30
0.0
 11
744.27127172593305
 21
234.44363513399949
 31
0.0
  0
CIRCLE
  5
872D
  8
AM_0
 10
725.64554672593295
 20
234.7438151339995
 30
0.0
 40
7.5000002999999982
  0
LINE
  5
872F
  8
AM_0
 10
214.1333522203476
 20
173.78441213399961
 30
0.0
 11
214.1333522203476
 21
48.784396133999827
 31
0.0
  0
LINE
  5
8730
  8
AM_0
 10
17.13340222034639
 20
79.604422133999705
 30
0.0
 11
17.13340222034639
 21
145.81439813399979
 31
0.0
  0
LINE
  5
8731
  8
AM_0
 10
19.633362220346491
 20
54.28441313399972
 30
0.0
 11
19.633362220346491
 21
71.116067316571801
 31
0.0
  0
LINE
  5
8732
  8
AM_0
 10
67.133352220345841
 20
168.71438213399961
 30
0.0
 11
67.133352220345841
 21
111.2843981339999
 31
0.0
  0
LINE
  5
8733
  8
AM_0
 10
203.9033822203464
 20
141.28440113399969
 30
0.0
 11
203.9033822203464
 21
81.284413133999735
 31
0.0
  0
LINE
  5
8734
  8
ﾁｭｳｼﾝｾﾝ
 10
163.13335222034661
 20
151.90939763399979
 30
0.0
 11
163.13335222034661
 21
70.659398633999942
 31
0.0
  0
ARC
  5
8735
  8
AM_0
 10
50.134092220347171
 20
111.2825081339996
 30
0.0
 40
8.0019083999999978
 50
90.005172999990876
 51
161.7801600000017
  0
ARC
  5
8736
  8
AM_0
 10
50.128332220346238
 20
111.27841913399971
 30
0.0
 40
7.9940046000000002
 50
198.17884000000171
 51
270.03581999999773
  0
LINE
  5
8737
  8
AM_0
 10
19.633362220346491
 20
67.394413133999819
 30
0.0
 11
67.133352220345841
 21
67.394413133999819
 31
0.0
  0
LINE
  5
8738
  8
AM_0
 10
34.77337222034658
 20
113.7844001339998
 30
0.0
 11
44.633352220346737
 21
113.7844001339998
 31
0.0
  0
LINE
  5
8739
  8
AM_0
 10
34.77337222034658
 20
108.7843991339997
 30
0.0
 11
44.633352220346737
 21
108.7843991339997
 31
0.0
  0
LINE
  5
873A
  8
AM_0
 10
19.133352220345841
 20
54.28441313399972
 30
0.0
 11
67.133352220345841
 21
54.28441313399972
 31
0.0
  0
LINE
  5
873B
  8
AM_0
 10
26.213352220346682
 20
107.5643981339996
 30
0.0
 11
11.753352220345731
 21
63.054403133999692
 31
0.0
  0
LINE
  5
873C
  8
AM_0
 10
30.97336222034664
 20
106.01440913399949
 30
0.0
 11
16.5133622203466
 21
61.514407133999718
 31
0.0
  0
ARC
  5
873D
  8
AM_0
 10
14.13340222034639
 20
62.284399133999699
 30
0.0
 40
2.5014680099999991
 50
162.07207999999099
 51
342.07206999999181
  0
ARC
  5
873E
  8
AM_0
 10
14.132502220346391
 20
62.2789811339997
 30
0.0
 40
3.0008441999999982
 50
185.05818999999829
 51
0.1035440000013547
  0
LINE
  5
873F
  8
AM_0
 10
17.13340222034639
 20
63.424411133999712
 30
0.0
 11
17.13340222034639
 21
56.284396133999898
 31
0.0
  0
ARC
  5
8740
  8
AM_0
 10
19.128102220346591
 20
56.279119133999693
 30
0.0
 40
1.994720039999998
 50
179.84812999999991
 51
270.15187999998409
  0
LINE
  5
8741
  8
AM_0
 10
19.633362220346491
 20
71.124409133999904
 30
0.0
 11
19.633362220346491
 21
67.394413133999819
 31
0.0
  0
ARC
  5
8742
  8
AM_0
 10
10.84099222034637
 20
61.980076133999631
 30
0.0
 40
0.304344
 50
6.4777591000007551
 51
89.547817000015485
  0
ARC
  5
8743
  8
AM_0
 10
10.84177222034668
 20
61.979329133999698
 30
0.0
 40
0.8050760400000001
 50
5.3506319000004003
 51
89.888466000011476
  0
LINE
  5
8744
  8
AM_0
 10
10.633362220346481
 20
62.784412133999822
 30
0.0
 11
10.633362220346481
 21
62.284399133999699
 31
0.0
  0
LINE
  5
8745
  8
AM_0
 10
10.633362220346481
 20
62.784412133999822
 30
0.0
 11
10.843362220346529
 21
62.784412133999822
 31
0.0
  0
ARC
  5
8746
  8
AM_0
 10
17.18143222034632
 20
73.784521133999704
 30
0.0
 40
4.0504481999999991
 50
99.063519999975384
 51
224.92060000001521
  0
ARC
  5
8747
  8
AM_0
 10
34.775802220347032
 20
104.7808901339998
 30
0.0
 40
9.0035201999999952
 50
90.015527999991548
 51
161.99145000000081
  0
ARC
  5
8748
  8
AM_0
 10
34.779942220347039
 20
104.7838811339996
 30
0.0
 40
4.0005161999999981
 50
90.094088000021216
 51
162.08606999999111
  0
LINE
  5
8749
  8
AM_0
 10
112.13335222034669
 20
64.934422133999703
 30
0.0
 11
214.1333522203476
 21
64.934422133999703
 31
0.0
  0
LINE
  5
874A
  8
AM_0
 10
207.4834022203467
 20
75.284413133998498
 30
0.0
 11
72.683412220346312
 21
75.284413133998498
 31
0.0
  0
LINE
  5
874B
  8
AM_0
 10
90.133362220346498
 20
49.424398133999702
 30
0.0
 11
206.94334222034641
 21
49.424398133999702
 31
0.0
  0
LINE
  5
874C
  8
AM_0
 10
163.13335222034661
 20
74.564413133999693
 30
0.0
 11
210.9533522203464
 21
74.564413133999693
 31
0.0
  0
LINE
  5
874D
  8
AM_0
 10
112.13335222034669
 20
64.934407133999827
 30
0.0
 11
77.133342220347913
 21
66.964405133999719
 31
0.0
  0
LINE
  5
874E
  8
AM_0
 10
71.403372220344863
 20
105.01438013399969
 30
0.0
 11
112.13335222034669
 21
105.01438013399969
 31
0.0
  0
LINE
  5
874F
  8
AM_0
 10
111.63335222034669
 20
85.284412133999695
 30
0.0
 11
72.683412220346312
 21
85.284412133999695
 31
0.0
  0
LINE
  5
8750
  8
AM_0
 10
71.593362220346549
 20
87.724417133999637
 30
0.0
 11
111.63335222034669
 21
87.724417133999637
 31
0.0
  0
LINE
  5
8751
  8
AM_0
 10
111.63335222034669
 20
87.284413133999706
 30
0.0
 11
72.683412220346312
 21
87.284413133999706
 31
0.0
  0
LINE
  5
8752
  8
AM_0
 10
71.463372220347082
 20
94.944403133999714
 30
0.0
 11
112.13335222034669
 21
94.944403133999714
 31
0.0
  0
LINE
  5
8753
  8
AM_0
 10
112.13335222034669
 20
95.284399133999685
 30
0.0
 11
72.693342220346494
 21
95.284399133999685
 31
0.0
  0
LINE
  5
8754
  8
AM_0
 10
71.463372220347082
 20
97.604422133999606
 30
0.0
 11
112.13335222034669
 21
97.604422133999606
 31
0.0
  0
LINE
  5
8755
  8
AM_0
 10
112.13335222034669
 20
107.2843991339996
 30
0.0
 11
72.693342220346494
 21
107.2843991339996
 31
0.0
  0
LINE
  5
8756
  8
AM_0
 10
112.13335222034669
 20
105.2843981339998
 30
0.0
 11
72.693342220346494
 21
105.2843981339998
 31
0.0
  0
LINE
  5
8757
  8
AM_0
 10
71.403372220344863
 20
107.55441713399961
 30
0.0
 11
112.13335222034669
 21
107.55441713399961
 31
0.0
  0
LINE
  5
8758
  8
AM_0
 10
71.403372220344863
 20
115.0243901339996
 30
0.0
 11
112.13335222034669
 21
115.0243901339996
 31
0.0
  0
LINE
  5
8759
  8
AM_0
 10
71.403372220344863
 20
117.55438913399971
 30
0.0
 11
112.13335222034669
 21
117.55438913399971
 31
0.0
  0
LINE
  5
875A
  8
AM_0
 10
112.13335222034669
 20
77.284399133999699
 30
0.0
 11
73.123392220346446
 21
77.284399133999699
 31
0.0
  0
LINE
  5
875B
  8
AM_0
 10
71.593362220346549
 20
84.804403133999699
 30
0.0
 11
111.63335222034669
 21
84.804403133999699
 31
0.0
  0
LINE
  5
875C
  8
AM_0
 10
90.133362220346498
 20
47.394397133999909
 30
0.0
 11
143.1334022203464
 21
47.394397133999909
 31
0.0
  0
LINE
  5
875D
  8
AM_0
 10
90.133362220346498
 20
46.044406133999701
 30
0.0
 11
143.1334022203464
 21
46.044406133999701
 31
0.0
  0
LINE
  5
875E
  8
AM_0
 10
90.133362220346498
 20
45.374410133999703
 30
0.0
 11
143.1334022203464
 21
45.374410133999703
 31
0.0
  0
LINE
  5
875F
  8
AM_0
 10
112.13335222034669
 20
115.2844001339998
 30
0.0
 11
72.693342220346494
 21
115.2844001339998
 31
0.0
  0
LINE
  5
8760
  8
AM_0
 10
112.13335222034669
 20
117.2843981339998
 30
0.0
 11
72.693342220346494
 21
117.2843981339998
 31
0.0
  0
LINE
  5
8761
  8
AM_0
 10
112.13335222034669
 20
97.284415133999715
 30
0.0
 11
72.693342220346494
 21
97.284415133999715
 31
0.0
  0
LINE
  5
8762
  8
AM_0
 10
71.813352220346133
 20
74.564413133999693
 30
0.0
 11
163.13335222034661
 21
74.564413133999693
 31
0.0
  0
LINE
  5
8763
  8
AM_0
 10
71.813352220346133
 20
77.914402133999701
 30
0.0
 11
112.13335222034669
 21
77.914402133999701
 31
0.0
  0
LINE
  5
8764
  8
AM_0
 10
67.133352220345841
 20
53.854405133999698
 30
0.0
 11
67.133352220345841
 21
111.2843981339999
 31
0.0
  0
LINE
  5
8765
  8
AM_0
 10
67.133352220345841
 20
68.594395133999711
 30
0.0
 11
77.133402220346369
 21
68.594395133999711
 31
0.0
  0
LINE
  5
8766
  8
AM_0
 10
73.273362220346812
 20
49.614400133999823
 30
0.0
 11
86.633352220345841
 21
49.614400133999823
 31
0.0
  0
LINE
  5
8767
  8
AM_0
 10
67.133352220345841
 20
62.934406133999722
 30
0.0
 11
77.133402220346369
 21
62.934406133999722
 31
0.0
  0
LINE
  5
8768
  8
AM_0
 10
73.363392220346199
 20
58.30440113399969
 30
0.0
 11
86.633352220345841
 21
58.30440113399969
 31
0.0
  0
LINE
  5
8769
  8
AM_0
 10
73.243332220346943
 20
47.984410133999823
 30
0.0
 11
86.743332220346943
 21
47.984410133999823
 31
0.0
  0
LINE
  5
876A
  8
AM_0
 10
73.303392220345813
 20
53.0244191339997
 30
0.0
 11
86.633352220345841
 21
53.0244191339997
 31
0.0
  0
ARC
  5
876B
  8
AM_0
 10
68.92351222034722
 20
58.751605133999703
 30
0.0
 40
1.50278811
 50
12.013341999996911
 51
90.004668000016366
  0
ARC
  5
876C
  8
AM_0
 10
73.360392220346512
 20
60.304021133999719
 30
0.0
 40
1.9996281299999981
 50
190.36075999999591
 51
270.08533000000642
  0
ARC
  5
876D
  8
AM_0
 10
73.24576222034645
 20
49.988728133999473
 30
0.0
 40
2.004324029999998
 50
194.2780500000039
 51
269.93109000000538
  0
LINE
  5
876E
  8
AM_0
 10
67.133412220346145
 20
53.854405133999698
 30
0.0
 11
69.95335222034646
 21
53.784397133999697
 31
0.0
  0
ARC
  5
876F
  8
AM_0
 10
68.968362220346535
 20
52.662646133999722
 30
0.0
 40
1.5017800800000001
 50
14.332835999994289
 51
90.189383000005648
  0
ARC
  5
8770
  8
AM_0
 10
68.947692220346653
 20
54.68808413399973
 30
0.0
 40
1.4963320799999991
 50
13.382437999998
 51
90.164589999994277
  0
ARC
  5
8771
  8
AM_0
 10
73.271292220346368
 20
51.616351133999807
 30
0.0
 40
2.0019479399999991
 50
193.34113999999539
 51
270.05947999999449
  0
ARC
  5
8772
  8
AM_0
 10
73.305282220347181
 20
55.020100133999712
 30
0.0
 40
1.995695999999995
 50
192.0225299999999
 51
269.94478000001573
  0
LINE
  5
8773
  8
AM_0
 10
71.353392220345086
 20
54.604390133999701
 30
0.0
 11
70.393362220345807
 21
59.064397133999691
 31
0.0
  0
LINE
  5
8774
  8
AM_0
 10
68.943342220346494
 20
56.184406133999722
 30
0.0
 11
71.00341222034605
 21
56.184406133999722
 31
0.0
  0
LINE
  5
8775
  8
AM_0
 10
68.96338222034592
 20
54.164401133999817
 30
0.0
 11
70.613382220348299
 21
54.164401133999817
 31
0.0
  0
LINE
  5
8776
  8
AM_0
 10
71.323362220347903
 20
51.154393133999818
 30
0.0
 11
70.403382220346444
 21
55.034398133999701
 31
0.0
  0
LINE
  5
8777
  8
AM_0
 10
71.303322220344839
 20
49.494403133999711
 30
0.0
 11
70.42333222034722
 21
53.034397133999711
 31
0.0
  0
LINE
  5
8778
  8
AM_0
 10
62.133402220346397
 20
67.394413133999819
 30
0.0
 11
62.133402220346397
 21
54.28441313399972
 31
0.0
  0
LINE
  5
8779
  8
AM_0
 10
68.923332220347206
 20
60.2543981339997
 30
0.0
 11
71.343372220348087
 21
60.2543981339997
 31
0.0
  0
LINE
  5
877A
  8
AM_0
 10
70.853382220346248
 20
62.934391133999902
 30
0.0
 11
71.393352220347865
 21
59.944387133999903
 31
0.0
  0
LINE
  5
877B
  8
AM_0
 10
67.133352220345841
 20
76.984411133999842
 30
0.0
 11
70.303392220345813
 21
76.984411133999842
 31
0.0
  0
ARC
  5
877C
  8
AM_0
 10
71.813352220346133
 20
76.239415133999813
 30
0.0
 40
1.67500812
 50
90.000002999984645
 51
270.0
  0
ARC
  5
877D
  8
AM_0
 10
72.683412220346312
 20
76.284412133999794
 30
0.0
 40
1.000004069999999
 50
90.000002999984645
 51
270.0
  0
ARC
  5
877E
  8
AM_0
 10
86.634822220346905
 20
48.115834133999691
 30
0.0
 40
1.498559999999999
 50
359.94488000000052
 51
90.055115000003084
  0
ARC
  5
877F
  8
AM_0
 10
90.13591222034664
 20
49.39691513399989
 30
0.0
 40
2.00251584
 50
180.0718999999998
 51
269.9281000000002
  0
ARC
  5
8780
  8
AM_0
 10
86.752062220346517
 20
46.484119133999712
 30
0.0
 40
1.500312029999999
 50
14.683033999999299
 51
90.331662999981404
  0
ARC
  5
8781
  8
AM_0
 10
90.134502220346789
 20
47.370823133999828
 30
0.0
 40
1.9964280599999991
 50
194.6946299999926
 51
269.96760999996542
  0
ARC
  5
8782
  8
AM_0
 10
90.133182220346512
 20
48.044224133999698
 30
0.0
 40
1.9998241199999991
 50
179.99493999999871
 51
270.00505999999473
  0
ARC
  5
8783
  8
AM_0
 10
86.631822220348099
 20
51.522907133999887
 30
0.0
 40
1.5015081599999991
 50
0.0575469979997975
 51
89.94245100000316
  0
ARC
  5
8784
  8
AM_0
 10
86.63299222034675
 20
56.804035133999633
 30
0.0
 40
1.500360179999999
 50
0.0138160000014509
 51
89.986185000013009
  0
ARC
  5
8785
  8
AM_0
 10
90.135012220347562
 20
51.426046133999712
 30
0.0
 40
2.0016401400000001
 50
180.04696000000129
 51
269.9530400000213
  0
LINE
  5
8786
  8
AM_0
 10
88.133352220345841
 20
49.394413133999713
 30
0.0
 11
88.133352220345841
 21
56.804401133999711
 31
0.0
  0
ARC
  5
8787
  8
AM_0
 10
76.303572220346723
 20
69.691516133999698
 30
0.0
 40
5.0021840999999991
 50
5.4245259999996849
 51
80.45142500000162
  0
LINE
  5
8788
  8
AM_0
 10
77.133402220346369
 20
62.934406133999722
 30
0.0
 11
77.133402220346369
 21
76.984411133999842
 31
0.0
  0
ARC
  5
8789
  8
AM_0
 10
76.763592220345345
 20
73.630924133999699
 30
0.0
 40
6.007896599999996
 50
273.52845000001128
 51
314.61726999999649
  0
ARC
  5
878A
  8
AM_0
 10
80.279892220346483
 20
70.075489133999724
 30
0.0
 40
1.007376
 50
314.29032000000012
 51
5.063404899999405
  0
ARC
  5
878B
  8
AM_0
 10
89.133402220346369
 20
76.284412133999794
 30
0.0
 40
1.000004069999999
 50
90.000002999984645
 51
270.0
  0
LINE
  5
878C
  8
ﾁｭｳｼﾝｾﾝ
 10
50.13340222034639
 20
96.563388633999708
 30
0.0
 11
50.13340222034639
 21
125.9933836339997
 31
0.0
  0
ARC
  5
878D
  8
AM_0
 10
72.683412220346312
 20
86.284399133999699
 30
0.0
 40
1.000004069999999
 50
90.000002999984645
 51
270.0
  0
ARC
  5
878E
  8
AM_0
 10
71.593362220346549
 20
86.264395133999699
 30
0.0
 40
1.4600000699999991
 50
90.000002999984645
 51
270.0
  0
ARC
  5
878F
  8
AM_0
 10
72.684672220348133
 20
96.284413133999706
 30
0.0
 40
1.00003602
 50
89.500715999993631
 51
270.49928999999503
  0
ARC
  5
8790
  8
AM_0
 10
71.463372220347082
 20
96.274405133999707
 30
0.0
 40
1.33000008
 50
90.000002999984645
 51
270.0
  0
LINE
  5
8791
  8
AM_0
 10
50.13340222034639
 20
103.2844001339998
 30
0.0
 11
67.133352220345841
 21
103.2844001339998
 31
0.0
  0
LINE
  5
8792
  8
AM_0
 10
50.13340222034639
 20
119.2843991339997
 30
0.0
 11
67.133352220345841
 21
119.2843991339997
 31
0.0
  0
ARC
  5
8793
  8
AM_0
 10
50.13340222034639
 20
111.2783861339996
 30
0.0
 40
5.0000519999999984
 50
23.653229999994888
 51
156.34677000000511
  0
ARC
  5
8794
  8
AM_0
 10
50.13340222034639
 20
111.2783861339996
 30
0.0
 40
4.9952319000000003
 50
203.52669999999611
 51
336.47328999999542
  0
LINE
  5
8795
  8
AM_0
 10
44.633352220346737
 20
113.2843991339997
 30
0.0
 11
55.633362220346491
 21
113.2843991339997
 31
0.0
  0
LINE
  5
8796
  8
AM_0
 10
44.633352220346737
 20
109.2844001339997
 30
0.0
 11
55.633362220346491
 21
109.2844001339997
 31
0.0
  0
LINE
  5
8797
  8
AM_0
 10
44.633352220346737
 20
108.7843991339997
 30
0.0
 11
44.633352220346737
 21
113.7844001339998
 31
0.0
  0
LINE
  5
8798
  8
AM_0
 10
58.133352220344918
 20
108.7843991339997
 30
0.0
 11
58.133352220344918
 21
113.7844001339998
 31
0.0
  0
LINE
  5
8799
  8
AM_0
 10
55.633362220346491
 20
108.7843991339997
 30
0.0
 11
55.633362220346491
 21
113.7844001339998
 31
0.0
  0
LINE
  5
879A
  8
AM_0
 10
55.633362220346491
 20
113.7844001339998
 30
0.0
 11
58.133352220344918
 21
113.7844001339998
 31
0.0
  0
LINE
  5
879B
  8
AM_0
 10
55.633362220346491
 20
108.7843991339997
 30
0.0
 11
58.133352220344918
 21
108.7843991339997
 31
0.0
  0
ARC
  5
879C
  8
AM_0
 10
71.403372220344863
 20
106.2844001339997
 30
0.0
 40
1.270004069999999
 50
90.000002999984645
 51
270.0
  0
ARC
  5
879D
  8
AM_0
 10
72.684672220348133
 20
106.2844001339997
 30
0.0
 40
1.00003602
 50
89.500715999993631
 51
270.49928999999503
  0
ARC
  5
879E
  8
AM_0
 10
72.684672220348133
 20
116.2843991339997
 30
0.0
 40
1.00003602
 50
89.500715999993631
 51
270.49928999999503
  0
ARC
  5
879F
  8
AM_0
 10
71.403372220344863
 20
116.2894031339997
 30
0.0
 40
1.265004089999999
 50
90.000002999984645
 51
270.0
  0
ARC
  5
87A0
  8
AM_0
 10
89.133402220346369
 20
86.284399133999699
 30
0.0
 40
1.000004069999999
 50
90.000002999984645
 51
270.0
  0
ARC
  5
87A1
  8
AM_0
 10
89.133402220346369
 20
96.284413133999706
 30
0.0
 40
1.000004069999999
 50
90.000002999984645
 51
270.0
  0
ARC
  5
87A2
  8
AM_0
 10
89.133402220346369
 20
106.2844001339997
 30
0.0
 40
1.000004069999999
 50
90.000002999984645
 51
270.0
  0
ARC
  5
87A3
  8
AM_0
 10
89.133402220346369
 20
116.2843991339997
 30
0.0
 40
1.000004069999999
 50
90.000002999984645
 51
270.0
  0
ARC
  5
87A4
  8
AM_0
 10
143.13250222034631
 20
47.375293133999719
 30
0.0
 40
2.000876009999998
 50
270.02510999999589
 51
359.97489000000081
  0
ARC
  5
87A5
  8
AM_0
 10
143.1310322203461
 20
48.046741133999717
 30
0.0
 40
2.002332029999998
 50
270.0667399999752
 51
359.93325999999882
  0
ARC
  5
87A6
  8
AM_0
 10
143.1283622203463
 20
49.39943213399971
 30
0.0
 40
2.00502402
 50
270.14340999997518
 51
359.85658999999868
  0
LINE
  5
87A7
  8
AM_0
 10
145.13335222034661
 20
47.37439313399971
 30
0.0
 11
145.13335222034661
 21
49.424398133999702
 31
0.0
  0
ARC
  5
87A8
  8
AM_0
 10
210.9533522203464
 20
76.239415133999813
 30
0.0
 40
1.6749999899999961
 50
270.0
 51
90.000002999984645
  0
ARC
  5
87A9
  8
AM_0
 10
208.98271222034691
 20
52.790929133999882
 30
0.0
 40
2.0065319999999991
 50
270.01927000000978
 51
347.72686999999718
  0
LINE
  5
87AA
  8
AM_0
 10
208.84336222034639
 20
50.78441213399973
 30
0.0
 11
214.1333522203476
 21
50.78441213399973
 31
0.0
  0
LINE
  5
87AB
  8
AM_0
 10
208.8733322203461
 20
50.904391133999887
 30
0.0
 11
212.33335222034651
 21
63.824392133999702
 31
0.0
  0
LINE
  5
87AC
  8
AM_0
 10
210.9533522203464
 20
77.914402133999701
 30
0.0
 11
201.13335222034581
 21
77.914402133999701
 31
0.0
  0
ARC
  5
87AD
  8
AM_0
 10
206.93878222034621
 20
51.428806133999807
 30
0.0
 40
2.004416039999998
 50
270.13147999996619
 51
344.83334000000627
  0
LINE
  5
87AE
  8
AM_0
 10
207.4834022203467
 20
77.284399133999699
 30
0.0
 11
201.13335222034581
 21
77.284399133999699
 31
0.0
  0
LINE
  5
87AF
  8
AM_0
 10
201.13335222034581
 20
81.205659547430486
 30
0.0
 11
203.9033822203464
 21
81.284383133999697
 31
0.0
  0
ARC
  5
87B0
  8
AM_0
 10
207.47521222034709
 20
76.284412133999794
 30
0.0
 40
1.0000319699999971
 50
270.4692999999848
 51
89.530700000015187
  0
ARC
  5
87B1
  8
AM_0
 10
215.1328622203464
 20
60.243871133999711
 30
0.0
 40
0.99947604
 50
179.97008999999869
 51
270.02991999999381
  0
ARC
  5
87B2
  8
AM_0
 10
213.8404322203468
 20
58.755085133999899
 30
0.0
 40
1.499328059999999
 50
89.888150999980539
 51
168.09384000000131
  0
ARC
  5
87B3
  8
AM_0
 10
215.13361222034649
 20
48.784579133999692
 30
0.0
 40
1.0001800499999971
 50
180.0103099999989
 51
269.98967999999968
  0
LINE
  5
87B4
  8
AM_0
 10
210.94336222034681
 20
52.364398133999721
 30
0.0
 11
212.3833622203465
 21
59.064397133999691
 31
0.0
  0
ARC
  5
87B5
  8
AM_0
 10
213.77875222034709
 20
63.438421133999718
 30
0.0
 40
1.49599605
 50
89.821707000006256
 51
165.0476599999993
  0
LINE
  5
87B6
  8
AM_0
 10
213.8433722203462
 20
60.2543981339997
 30
0.0
 11
211.4334122203463
 21
60.2543981339997
 31
0.0
  0
LINE
  5
87B7
  8
AM_0
 10
19.633362220346491
 20
155.1743921339997
 30
0.0
 11
67.133352220345841
 21
155.1743921339997
 31
0.0
  0
LINE
  5
87B8
  8
AM_0
 10
19.633362220346491
 20
144.9244151339997
 30
0.0
 11
62.133402220346397
 21
144.9244151339997
 31
0.0
  0
LINE
  5
87B9
  8
AM_0
 10
19.133352220345841
 20
168.2843921339998
 30
0.0
 11
67.133352220345841
 21
168.2843921339998
 31
0.0
  0
ARC
  5
87BA
  8
AM_0
 10
19.133892220346741
 20
166.2838421339996
 30
0.0
 40
2.000536019999998
 50
90.015329000011192
 51
179.98467999999841
  0
ARC
  5
87BB
  8
AM_0
 10
18.031122220346329
 20
148.6669121339998
 30
0.0
 40
2.9977641899999981
 50
179.8564500000015
 51
275.78659000000317
  0
LINE
  5
87BC
  8
AM_0
 10
18.33337222034606
 20
145.57441013399969
 30
0.0
 11
18.33337222034606
 21
154.7744021339999
 31
0.0
  0
LINE
  5
87BD
  8
AM_0
 10
18.33337222034606
 20
145.57441013399969
 30
0.0
 11
19.633362220346491
 21
145.57441013399969
 31
0.0
  0
LINE
  5
87BE
  8
AM_0
 10
17.13340222034639
 20
154.53440213399981
 30
0.0
 11
17.13340222034639
 21
166.28441213399981
 31
0.0
  0
ARC
  5
87BF
  8
AM_0
 10
18.03118222034481
 20
151.67189213399959
 30
0.0
 40
2.99777994
 50
84.213882999984975
 51
179.95211
  0
LINE
  5
87C0
  8
AM_0
 10
15.03337222034679
 20
148.6744121339996
 30
0.0
 11
15.03337222034679
 21
151.6744121339996
 31
0.0
  0
LINE
  5
87C1
  8
AM_0
 10
18.33337222034606
 20
154.7744021339999
 30
0.0
 11
19.633362220346491
 21
154.7744021339999
 31
0.0
  0
LINE
  5
87C2
  8
AM_0
 10
112.13335222034669
 20
157.63439213399971
 30
0.0
 11
214.1333522203476
 21
157.63439213399971
 31
0.0
  0
LINE
  5
87C3
  8
AM_0
 10
80.813352220346133
 20
148.0043921339996
 30
0.0
 11
210.9533522203464
 21
148.0043921339996
 31
0.0
  0
LINE
  5
87C4
  8
AM_0
 10
207.4834022203467
 20
147.2843921339998
 30
0.0
 11
81.683412220346327
 21
147.2843921339998
 31
0.0
  0
LINE
  5
87C5
  8
AM_0
 10
90.133362220346498
 20
173.1444221339996
 30
0.0
 11
206.94334222034641
 21
173.1444221339996
 31
0.0
  0
LINE
  5
87C6
  8
AM_0
 10
112.1334122203461
 20
157.63439213399971
 30
0.0
 11
77.133342220347913
 21
155.6044121339998
 31
0.0
  0
LINE
  5
87C7
  8
AM_0
 10
71.463372220347082
 20
124.9643921339996
 30
0.0
 11
112.13335222034669
 21
124.9643921339996
 31
0.0
  0
LINE
  5
87C8
  8
AM_0
 10
71.463372220347082
 20
127.6243961339998
 30
0.0
 11
112.13335222034669
 21
127.6243961339998
 31
0.0
  0
LINE
  5
87C9
  8
AM_0
 10
80.593362220346521
 20
134.84439713399971
 30
0.0
 11
111.63335222034669
 21
134.84439713399971
 31
0.0
  0
LINE
  5
87CA
  8
AM_0
 10
80.593362220346521
 20
137.77442213399971
 30
0.0
 11
111.63335222034669
 21
137.77442213399971
 31
0.0
  0
LINE
  5
87CB
  8
AM_0
 10
80.813352220346133
 20
144.6544271339998
 30
0.0
 11
112.13335222034669
 21
144.6544271339998
 31
0.0
  0
LINE
  5
87CC
  8
AM_0
 10
112.13335222034669
 20
125.2843991339996
 30
0.0
 11
72.693342220346494
 21
125.2843991339996
 31
0.0
  0
LINE
  5
87CD
  8
AM_0
 10
112.13335222034669
 20
127.2844001339998
 30
0.0
 11
72.693342220346494
 21
127.2844001339998
 31
0.0
  0
LINE
  5
87CE
  8
AM_0
 10
111.63335222034669
 20
135.28440113399961
 30
0.0
 11
81.683412220346327
 21
135.28440113399961
 31
0.0
  0
LINE
  5
87CF
  8
AM_0
 10
111.63335222034669
 20
137.28439913399961
 30
0.0
 11
81.683412220346327
 21
137.28439913399961
 31
0.0
  0
LINE
  5
87D0
  8
AM_0
 10
112.13335222034669
 20
145.2844001339999
 30
0.0
 11
81.683412220346327
 21
145.2844001339999
 31
0.0
  0
LINE
  5
87D1
  8
AM_0
 10
90.133362220346498
 20
175.17440213399959
 30
0.0
 11
143.1334022203464
 21
175.17440213399959
 31
0.0
  0
LINE
  5
87D2
  8
AM_0
 10
90.133362220346498
 20
176.52440213399959
 30
0.0
 11
143.1334022203464
 21
176.52440213399959
 31
0.0
  0
LINE
  5
87D3
  8
AM_0
 10
90.133362220346498
 20
177.20441213399951
 30
0.0
 11
143.1334022203464
 21
177.20441213399951
 31
0.0
  0
ARC
  5
87D4
  8
AM_0
 10
73.305042220346863
 20
167.55899213399979
 30
0.0
 40
1.9953880799999959
 50
90.048066999965187
 51
167.98461999999969
  0
LINE
  5
87D5
  8
AM_0
 10
88.133352220345841
 20
173.17439213399959
 30
0.0
 11
88.133352220345841
 21
165.76442213399969
 31
0.0
  0
LINE
  5
87D6
  8
AM_0
 10
71.323422220346401
 20
171.41441213399941
 30
0.0
 11
70.403382220346444
 21
167.5343921339998
 31
0.0
  0
LINE
  5
87D7
  8
AM_0
 10
73.363392220346199
 20
164.2644221339998
 30
0.0
 11
86.633352220345841
 21
164.2644221339998
 31
0.0
  0
LINE
  5
87D8
  8
AM_0
 10
67.133352220345841
 20
159.63440213399971
 30
0.0
 11
77.133402220346369
 21
159.63440213399971
 31
0.0
  0
LINE
  5
87D9
  8
AM_0
 10
67.133352220345841
 20
153.97439213399969
 30
0.0
 11
77.133402220346369
 21
153.97439213399969
 31
0.0
  0
LINE
  5
87DA
  8
AM_0
 10
67.133352220345841
 20
145.59439913399959
 30
0.0
 11
77.133402220346369
 21
145.59439913399959
 31
0.0
  0
ARC
  5
87DB
  8
AM_0
 10
71.463372220347082
 20
126.29440913399959
 30
0.0
 40
1.33000008
 50
90.000002999984645
 51
270.0
  0
ARC
  5
87DC
  8
AM_0
 10
72.684672220348133
 20
126.2843981339998
 30
0.0
 40
1.00003602
 50
89.500715999993631
 51
270.49928999999503
  0
LINE
  5
87DD
  8
AM_0
 10
62.133402220346397
 20
119.2843991339997
 30
0.0
 11
62.133402220346397
 21
168.2843921339998
 31
0.0
  0
ARC
  5
87DE
  8
AM_0
 10
68.942562220347099
 20
167.88722213399959
 30
0.0
 40
1.502808149999999
 50
270.03078999999502
 51
346.42217999999878
  0
ARC
  5
87DF
  8
AM_0
 10
68.924622220346464
 20
163.8285221339998
 30
0.0
 40
1.504140059999999
 50
269.9542499999659
 51
347.55525000000119
  0
ARC
  5
87E0
  8
AM_0
 10
73.355202220346655
 20
162.27101213399979
 30
0.0
 40
1.993432109999999
 50
89.765883999979707
 51
169.78803000000019
  0
LINE
  5
87E1
  8
AM_0
 10
68.943342220346494
 20
166.3844021339998
 30
0.0
 11
71.00341222034605
 21
166.3844021339998
 31
0.0
  0
LINE
  5
87E2
  8
AM_0
 10
71.353332220346587
 20
167.9744021339996
 30
0.0
 11
70.393302220346399
 21
163.5044021339998
 31
0.0
  0
LINE
  5
87E3
  8
AM_0
 10
68.923332220347206
 20
162.32441213399969
 30
0.0
 11
71.343372220348087
 21
162.32441213399969
 31
0.0
  0
LINE
  5
87E4
  8
AM_0
 10
70.85332222034684
 20
159.63440213399971
 30
0.0
 11
71.393352220347865
 21
162.62444213399971
 31
0.0
  0
ARC
  5
87E5
  8
AM_0
 10
81.683412220346327
 20
146.28440213399969
 30
0.0
 40
1.000004069999999
 50
90.000002999984645
 51
270.0
  0
ARC
  5
87E6
  8
AM_0
 10
80.813352220346133
 20
146.32937213399961
 30
0.0
 40
1.67500812
 50
90.000002999984645
 51
270.0
  0
ARC
  5
87E7
  8
AM_0
 10
89.133402220346369
 20
146.28440213399969
 30
0.0
 40
1.000004069999999
 50
90.000002999984645
 51
270.0
  0
LINE
  5
87E8
  8
AM_0
 10
77.133402220346369
 20
159.63440213399971
 30
0.0
 11
77.133402220346369
 21
145.59439913399959
 31
0.0
  0
ARC
  5
87E9
  8
AM_0
 10
81.683412220346327
 20
136.28440013399981
 30
0.0
 40
1.000004069999999
 50
90.000002999984645
 51
270.0
  0
ARC
  5
87EA
  8
AM_0
 10
80.593362220346521
 20
136.30939313399981
 30
0.0
 40
1.46500008
 50
90.000002999984645
 51
270.0
  0
ARC
  5
87EB
  8
AM_0
 10
89.133402220346369
 20
136.28440013399981
 30
0.0
 40
1.000004069999999
 50
90.000002999984645
 51
270.0
  0
ARC
  5
87EC
  8
AM_0
 10
89.133402220346369
 20
126.2843981339998
 30
0.0
 40
1.000004069999999
 50
90.000002999984645
 51
270.0
  0
ARC
  5
87ED
  8
AM_0
 10
80.283312220346488
 20
152.4945521339996
 30
0.0
 40
1.004135999999999
 50
354.84884000000039
 51
45.797436000013462
  0
ARC
  5
87EE
  8
AM_0
 10
76.754562220346983
 20
148.95245213399971
 30
0.0
 40
6.0039084000000011
 50
45.223692999997049
 51
86.382714000002196
  0
ARC
  5
87EF
  8
AM_0
 10
76.298322220346563
 20
152.88218213399969
 30
0.0
 40
5.0078918999999971
 50
279.59871999996892
 51
354.52532000000292
  0
ARC
  5
87F0
  8
AM_0
 10
86.62774222034659
 20
165.7700621339996
 30
0.0
 40
1.5056760899999959
 50
270.21551999996632
 51
359.78447000000108
  0
LINE
  5
87F1
  8
AM_0
 10
73.243332220346943
 20
174.58439213399959
 30
0.0
 11
86.743332220346943
 21
174.58439213399959
 31
0.0
  0
LINE
  5
87F2
  8
AM_0
 10
73.273362220346812
 20
172.95437213399961
 30
0.0
 11
86.633352220345841
 21
172.95437213399961
 31
0.0
  0
LINE
  5
87F3
  8
AM_0
 10
73.303392220345813
 20
169.5543821339997
 30
0.0
 11
86.633352220345841
 21
169.5543821339997
 31
0.0
  0
LINE
  5
87F4
  8
AM_0
 10
67.133352220345841
 20
168.71438213399961
 30
0.0
 11
69.95335222034646
 21
168.78437213399951
 31
0.0
  0
ARC
  5
87F5
  8
AM_0
 10
73.24072222034826
 20
172.58660213399949
 30
0.0
 40
1.9977801299999991
 50
89.923080999997794
 51
165.86777000000319
  0
ARC
  5
87F6
  8
AM_0
 10
68.961672220346358
 20
169.91150213399959
 30
0.0
 40
1.5070961099999991
 50
270.06481999997561
 51
345.90217999999419
  0
ARC
  5
87F7
  8
AM_0
 10
73.266222220347089
 20
170.95892213399969
 30
0.0
 40
1.995484169999999
 50
89.79345799999912
 51
166.8059200000024
  0
LINE
  5
87F8
  8
AM_0
 10
71.30338222034699
 20
173.0744021339996
 30
0.0
 11
70.423392220344795
 21
169.5444221339996
 31
0.0
  0
LINE
  5
87F9
  8
AM_0
 10
68.96338222034592
 20
168.40439213399981
 30
0.0
 11
70.613382220348299
 21
168.40439213399981
 31
0.0
  0
ARC
  5
87FA
  8
AM_0
 10
86.746992220348147
 20
176.09129213399939
 30
0.0
 40
1.506888089999999
 50
269.86223000001252
 51
345.12306999999907
  0
ARC
  5
87FB
  8
AM_0
 10
86.629512220346413
 20
174.45824213399959
 30
0.0
 40
1.5038481299999991
 50
270.14639999998991
 51
359.85360000000009
  0
ARC
  5
87FC
  8
AM_0
 10
86.63158222034599
 20
171.05621213399959
 30
0.0
 40
1.501796039999995
 50
270.0685500000119
 51
359.93145000000101
  0
ARC
  5
87FD
  8
AM_0
 10
90.135852220346351
 20
175.20956213399961
 30
0.0
 40
1.99484415
 50
90.071658000004405
 51
165.63720000000311
  0
ARC
  5
87FE
  8
AM_0
 10
90.127932220346338
 20
174.5298221339996
 30
0.0
 40
1.99457616
 50
89.844007999986985
 51
180.15598999999941
  0
ARC
  5
87FF
  8
AM_0
 10
90.130602220347996
 20
173.17718213399959
 30
0.0
 40
1.9972080599999991
 50
89.919857000000462
 51
180.08013999999881
  0
ARC
  5
8800
  8
AM_0
 10
90.129762220346507
 20
171.1480121339994
 30
0.0
 40
1.996384079999995
 50
89.896162999967444
 51
180.10383999999931
  0
ARC
  5
8801
  8
AM_0
 10
143.1327422203448
 20
175.20377213399951
 30
0.0
 40
2.0006240100000001
 50
0.0178240009987588
 51
89.982176000023884
  0
ARC
  5
8802
  8
AM_0
 10
143.1362822203464
 20
174.52733213399961
 30
0.0
 40
1.997088119999999
 50
359.91637999999853
 51
90.083624999987734
  0
ARC
  5
8803
  8
AM_0
 10
143.1336722203468
 20
173.17469213399951
 30
0.0
 40
1.999720049999999
 50
359.9919399999992
 51
90.008061999993785
  0
LINE
  5
8804
  8
AM_0
 10
145.13335222034661
 20
175.20437213399961
 30
0.0
 11
145.13335222034661
 21
173.1444221339996
 31
0.0
  0
LINE
  5
8805
  8
AM_0
 10
208.8733322203461
 20
171.6644321339997
 30
0.0
 11
212.33335222034651
 21
158.74445213399969
 31
0.0
  0
LINE
  5
8806
  8
AM_0
 10
210.94336222034681
 20
170.20442213399971
 30
0.0
 11
212.3833622203465
 21
163.5044021339998
 31
0.0
  0
ARC
  5
8807
  8
AM_0
 10
210.9533522203464
 20
146.32937213399961
 30
0.0
 40
1.6749999899999961
 50
270.0
 51
90.000002999984645
  0
LINE
  5
8808
  8
AM_0
 10
210.9533522203464
 20
144.6544271339998
 30
0.0
 11
201.13335222034581
 21
144.6544271339998
 31
0.0
  0
ARC
  5
8809
  8
AM_0
 10
207.47521222034709
 20
146.28440213399969
 30
0.0
 40
1.0000319699999971
 50
270.4692999999848
 51
89.530700000015187
  0
LINE
  5
880A
  8
AM_0
 10
201.13335222034581
 20
145.18442513399981
 30
0.0
 11
207.4834022203467
 21
145.18442513399981
 31
0.0
  0
LINE
  5
880B
  8
AM_0
 10
201.13335222034581
 20
141.36312472056841
 30
0.0
 11
203.9033822203464
 21
141.28440113399969
 31
0.0
  0
ARC
  5
880C
  8
AM_0
 10
213.78361222034621
 20
159.13679213399979
 30
0.0
 40
1.50239199
 50
195.14001000000641
 51
269.99064000000641
  0
ARC
  5
880D
  8
AM_0
 10
215.12773222034679
 20
162.33002213399959
 30
0.0
 40
0.99440004
 50
89.676491000019567
 51
180.32351000000111
  0
ARC
  5
880E
  8
AM_0
 10
213.8392322203471
 20
163.8248621339998
 30
0.0
 40
1.500476039999995
 50
192.33223000000149
 51
270.15827999999971
  0
LINE
  5
880F
  8
AM_0
 10
213.8433722203462
 20
162.32441213399969
 30
0.0
 11
211.4334122203463
 21
162.32441213399969
 31
0.0
  0
ARC
  5
8810
  8
AM_0
 10
208.98784222034641
 20
169.78421213399969
 30
0.0
 40
2.0001800699999981
 50
12.12635199999767
 51
90.127514999991448
  0
LINE
  5
8811
  8
AM_0
 10
208.84336222034639
 20
171.78440213399969
 30
0.0
 11
214.1333522203476
 21
171.78440213399969
 31
0.0
  0
ARC
  5
8812
  8
AM_0
 10
206.94385222034629
 20
171.14660213399969
 30
0.0
 40
1.997795999999999
 50
15.02159699999565
 51
90.013580999977563
  0
ARC
  5
8813
  8
AM_0
 10
215.128482220347
 20
173.78933213399949
 30
0.0
 40
0.9950640599999999
 50
89.714938000020013
 51
180.28506000000129
  0
LINE
  5
881A
  8
AM_0
 10
196.63335222034661
 20
133.78439813399979
 30
0.0
 11
196.63335222034661
 21
88.784398133999801
 31
0.0
  0
LINE
  5
881B
  8
AM_0
 10
194.53335222034639
 20
134.33465066569391
 30
0.0
 11
194.53335222034639
 21
88.234145602305702
 31
0.0
  0
LINE
  5
881C
  8
AM_0
 10
111.63335222034669
 20
93.284398133999787
 30
0.0
 11
111.63335222034669
 21
83.284388133999869
 31
0.0
  0
LINE
  5
881D
  8
AM_0
 10
112.13335222034669
 20
78.784392133999916
 30
0.0
 11
112.13335222034669
 21
143.78438813399839
 31
0.0
  0
LINE
  5
881E
  8
AM_0
 10
183.68359675204189
 20
77.384390133999815
 30
0.0
 11
116.55333222034641
 21
77.384390133999815
 31
0.0
  0
LINE
  5
881F
  8
AM_0
 10
116.55333222034641
 20
77.384390133999815
 30
0.0
 11
116.55333222034641
 21
75.284399133999699
 31
0.0
  0
ARC
  5
8820
  8
AM_0
 10
115.6259722203467
 20
78.777045133999707
 30
0.0
 40
3.492651899999998
 50
179.8793300000022
 51
270.12067999996867
  0
ARC
  5
8821
  8
AM_0
 10
112.1260322203461
 20
83.277048133999699
 30
0.0
 40
0.4927000100000001
 50
179.14455999999711
 51
270.85544000001568
  0
ARC
  5
8822
  8
AM_0
 10
198.63335222034581
 20
88.784398133999801
 30
0.0
 40
2.0
 50
180.0
 51
270.0
  0
LINE
  5
8823
  8
AM_0
 10
194.12330171400751
 20
87.244196108643735
 30
0.0
 11
184.67354624570081
 21
77.794440640338706
 31
0.0
  0
LINE
  5
8824
  8
AM_0
 10
184.67355424570081
 20
77.79444864033772
 30
0.0
 11
194.12330171400751
 21
87.244196108643735
 31
0.0
  0
ARC
  5
8825
  8
AM_0
 10
183.68359675204189
 20
78.784390133999892
 30
0.0
 40
1.399999999999999
 50
270.0
 51
315.00000000000921
1001
GENIUS_GENODEF_13
1002
{
1000
HIER
1070
     0
1002
}
1002
{
1000
MANEDIT
1070
     0
1002
}
1002
{
1000
NOSEL
1070
     0
1002
}
1002
{
1000
BEHIND
1070
     0
1002
}
1002
{
1000
OTHER
1070
     0
1002
}
1002
{
1000
REACTOR
1002
}
1001
GENIUS_GENOBJ-N-FIL_13
1002
{
1000
OWNER
1000
GEN
1002
}
  0
ARC
  5
8826
  8
AM_0
 10
193.13335222034661
 20
88.234145602305702
 30
0.0
 40
1.4000000000006301
 50
314.9999999999539
 51
0.0
  0
ARC
  5
8827
  8
AM_0
 10
199.13335222034661
 20
77.284398133999815
 30
0.0
 40
2.0
 50
270.0
 51
0.0
  0
ARC
  5
8828
  8
AM_0
 10
199.13335222034661
 20
84.784398133999716
 30
0.0
 40
2.0
 50
0.0
 51
90.0
  0
LINE
  5
8829
  8
AM_0
 10
199.13335222034661
 20
86.784398133999815
 30
0.0
 11
198.63335222034581
 21
86.784398133999815
 31
0.0
  0
LINE
  5
882A
  8
AM_0
 10
201.13335222034581
 20
77.284398133999815
 30
0.0
 11
201.13335222034581
 21
84.784398133999716
 31
0.0
  0
LINE
  5
882B
  8
AM_0
 10
116.55333222034641
 20
145.18437813399979
 30
0.0
 11
183.69108804022099
 21
145.18437813399979
 31
0.0
  0
ARC
  5
882C
  8
AM_0
 10
112.1339022203464
 20
93.283848133999882
 30
0.0
 40
0.5005480100000002
 50
90.062622000000005
 51
179.93736999999041
  0
ARC
  5
882D
  8
AM_0
 10
112.1339022203464
 20
139.28384813399981
 30
0.0
 40
0.5005480100000002
 50
90.062622000000005
 51
179.93736999999041
  0
ARC
  5
882E
  8
AM_0
 10
112.1258422203482
 20
129.27688813399971
 30
0.0
 40
0.49254802
 50
179.12656000000209
 51
270.8734499999884
  0
LINE
  5
882F
  8
AM_0
 10
111.63335222034669
 20
139.2843881339999
 30
0.0
 11
111.63335222034669
 21
129.28439813399979
 31
0.0
  0
LINE
  5
8830
  8
AM_0
 10
116.55333222034641
 20
145.18437813399979
 30
0.0
 11
116.55333222034641
 21
147.27937813399981
 31
0.0
  0
ARC
  5
8831
  8
AM_0
 10
115.633842220348
 20
143.7838981339998
 30
0.0
 40
3.5005001999999981
 50
90.008164999989489
 51
179.99183999999781
  0
LINE
  5
8832
  8
AM_0
 10
198.63335222034581
 20
116.7843981339998
 30
0.0
 11
196.63335222034661
 21
116.7843981339998
 31
0.0
  0
LINE
  5
8833
  8
AM_0
 10
196.63335222034661
 20
105.7843981339998
 30
0.0
 11
198.63335222034581
 21
105.7843981339998
 31
0.0
  0
LINE
  5
8834
  8
AM_0
 10
198.6333522203476
 20
105.7843981339998
 30
0.0
 11
198.63335222034581
 21
116.7843981339998
 31
0.0
  0
ARC
  5
8835
  8
AM_0
 10
198.63335222034581
 20
133.78439813399979
 30
0.0
 40
2.0
 50
90.0
 51
180.0
  0
CIRCLE
  5
8836
  8
AM_0
 10
195.6333522203449
 20
142.2843981339997
 30
0.0
 40
3.4999999999999631
  0
LINE
  5
8837
  8
AM_0
 10
184.67355424570161
 20
144.7743476276604
 30
0.0
 11
194.12330171400751
 21
135.3246001593555
 31
0.0
  0
LINE
  5
8838
  8
AM_0
 10
192.5333522203444
 20
136.91454965301551
 30
0.0
 11
194.12330171400751
 21
135.3246001593555
 31
0.0
  0
ARC
  5
8839
  8
AM_0
 10
193.13335222034661
 20
134.33465066569391
 30
0.0
 40
1.400000000000118
 50
0.0
 51
45.000000000046043
  0
ARC
  5
883A
  8
AM_0
 10
183.68360475204079
 20
143.7843981339997
 30
0.0
 40
1.40000000000077
 50
44.999999999981569
 51
89.999999999947889
  0
LINE
  5
883B
  8
AM_0
 10
201.13335222034581
 20
137.78439813399979
 30
0.0
 11
201.13335222034581
 21
145.2843981339997
 31
0.0
  0
LINE
  5
883C
  8
AM_0
 10
201.13335222034581
 20
137.78439813399979
 30
0.0
 11
201.13335222034581
 21
145.2843981339997
 31
0.0
  0
ARC
  5
883D
  8
AM_0
 10
199.13335222034661
 20
137.78439813399979
 30
0.0
 40
2.0
 50
270.0
 51
0.0
  0
LINE
  5
883E
  8
AM_0
 10
198.63335222034581
 20
135.78439813399979
 30
0.0
 11
199.13335222034661
 21
135.78439813399979
 31
0.0
  0
ARC
  5
883F
  8
AM_0
 10
199.13335222034661
 20
145.2843981339997
 30
0.0
 40
2.0
 50
0.0
 51
90.0
  0
LINE
  5
8840
  8
AM_0
 10
192.99478053913751
 20
142.2843981340007
 30
0.0
 11
198.27192390155321
 21
142.2843981340007
 31
0.0
  0
LINE
  5
8841
  8
AM_0
 10
195.6333522203449
 20
144.92296981520681
 30
0.0
 11
195.6333522203449
 21
139.6458264527927
 31
0.0
  0
CIRCLE
  5
8842
  8
AM_0
 10
195.6333522203449
 20
80.284398133999815
 30
0.0
 40
3.4999999999999631
  0
LINE
  5
8843
  8
AM_0
 10
192.99478053913751
 20
80.284398134000668
 30
0.0
 11
198.27192390155321
 21
80.284398134000668
 31
0.0
  0
LINE
  5
8844
  8
AM_0
 10
195.6333522203449
 20
82.922969815205931
 30
0.0
 11
195.6333522203449
 21
77.645826452792704
 31
0.0
  0
LINE
  5
8846
  8
AM_0
 10
19.633362220346491
 20
87.310226488074832
 30
0.0
 11
19.633362220346491
 21
168.2843921339998
 31
0.0
  0
LINE
  5
8865
  8
AM_0
 10
376.63333222034629
 20
209.77187160674649
 30
0.0
 11
376.63333222034629
 21
215.6850949654806
 31
0.0
  0
LINE
  5
887F
  8
ﾁｭｳｼﾝｾﾝ
 10
569.06676872593323
 20
111.2843981339999
 30
0.0
 11
691.30546472593323
 21
111.2843981339999
 31
0.0
  0
LINE
  5
8882
  8
ﾁｭｳｼﾝｾﾝ
 10
545.33330604904245
 20
224.13720318452221
 30
0.0
 11
524.12009568328995
 21
245.3503996899604
 31
0.0
  0
ARC
  5
8883
  8
ﾁｭｳｼﾝｾﾝ
 10
630.18611672593318
 20
139.28438213399971
 30
0.0
 40
135.00000299999991
 50
128.63052203484361
 51
141.36947589834551
  0
LINE
  5
8884
  8
ﾁｭｳｼﾝｾﾝ
 10
545.3332956754108
 20
54.431571457109072
 30
0.0
 11
524.12009916997249
 21
33.218361091356677
 31
0.0
  0
ARC
  5
8885
  8
ﾁｭｳｼﾝｾﾝ
 10
630.18611672593318
 20
139.28438213399971
 30
0.0
 40
135.00000299999991
 50
218.63052203484349
 51
231.3694758983456
  0
LINE
  5
8886
  8
ﾁｭｳｼﾝｾﾝ
 10
715.03892740282367
 20
54.431561083477149
 30
0.0
 11
736.25213776857595
 21
33.218364578038972
 31
0.0
  0
ARC
  5
8887
  8
ﾁｭｳｼﾝｾﾝ
 10
630.18611672593318
 20
139.2843821339996
 30
0.0
 40
135.00000299999991
 50
308.63052203484352
 51
321.3694758983454
  0
LINE
  5
8A75
  8
AM_0
 10
389.63338222034793
 20
454.15259372951112
 30
0.0
 11
434.63341222034791
 21
454.15259372951112
 31
0.0
  0
LINE
  5
8A76
  8
AM_0
 10
389.63338222034793
 20
464.1525637295112
 30
0.0
 11
434.63341222034791
 21
464.1525637295112
 31
0.0
  0
LINE
  5
8A77
  8
AM_0
 10
434.63341222034791
 20
443.15262372951128
 30
0.0
 11
376.63338222034821
 21
443.15262372951128
 31
0.0
  0
LINE
  5
8A78
  8
AM_0
 10
434.63341222034791
 20
475.15262372951111
 30
0.0
 11
376.63338222034821
 21
475.15262372951111
 31
0.0
  0
LINE
  5
8A79
  8
ﾁｭｳｼﾝｾﾝ
 10
4.9715672203482484
 20
459.1525637295112
 30
0.0
 11
439.29507722034782
 21
459.1525637295112
 31
0.0
  0
POLYLINE
  5
8B7B
  8
AM_0
 66
     1
 10
0.0
 20
0.0
 30
0.0
  0
VERTEX
  5
8B7C
  8
AM_0
 10
350.29949222034799
 20
561.81869372951121
 30
0.0
 42
0.079826728
  0
VERTEX
  5
8B7D
  8
AM_0
 10
324.45766222034791
 20
494.91225372951118
 30
0.0
 42
0.10414858
  0
VERTEX
  5
8B7E
  8
AM_0
 10
324.45773222034791
 20
423.3925237295112
 30
0.0
 42
0.079826255
  0
VERTEX
  5
8B7F
  8
AM_0
 10
350.29949222034799
 20
356.4864537295112
 30
0.0
  0
SEQEND
  5
8B80
  8
AM_0
  0
ARC
  5
8B81
  8
AM_0
 10
389.63338222034793
 20
459.1525637295112
 30
0.0
 40
5.0
 50
90.000003000000945
 51
270.0
  0
LINE
  5
8B82
  8
AM_0
 10
389.63338222034793
 20
464.1525637295112
 30
0.0
 11
389.63338222034793
 21
454.15259372951112
 31
0.0
  0
LINE
  5
8B83
  8
AM_0
 10
357.63338222034781
 20
345.0734637295111
 30
0.0
 11
357.63338222034781
 21
573.23172372951115
 31
0.0
  0
LINE
  5
8B84
  8
AM_0
 10
364.63338222034793
 20
368.5528637295111
 30
0.0
 11
364.63338222034793
 21
549.75235372951113
 31
0.0
  0
LINE
  5
8B85
  8
AM_0
 10
372.63338222034821
 20
341.6525937295113
 30
0.0
 11
372.63338222034821
 21
576.65262372951122
 31
0.0
  0
LINE
  5
8B86
  8
AM_0
 10
376.63338222034821
 20
354.1525637295112
 30
0.0
 11
376.63338222034821
 21
564.15262372951122
 31
0.0
  0
LINE
  5
8B89
  8
AM_0
 10
222.13332222034799
 20
522.65256372951114
 30
0.0
 11
222.13332222034799
 21
395.65253372951128
 31
0.0
  0
LINE
  5
8B8A
  8
AM_0
 10
249.63332222034791
 20
361.93320372951121
 30
0.0
 11
249.63332222034791
 21
556.37198372951127
 31
0.0
  0
LINE
  5
8B8B
  8
AM_0
 10
234.63332222034791
 20
387.22366372951132
 30
0.0
 11
234.63332222034791
 21
531.08151372951102
 31
0.0
  0
LINE
  5
8B8C
  8
AM_0
 10
259.63332222034791
 20
359.65259372951118
 30
0.0
 11
259.63332222034791
 21
558.65256372951114
 31
0.0
  0
LINE
  5
8B8D
  8
AM_0
 10
259.63344222034812
 20
359.65259372951118
 30
0.0
 11
348.33114222034789
 21
356.55521372951119
 31
0.0
  0
ARC
  5
8B8E
  8
AM_0
 10
251.63332222034791
 20
361.93320372951121
 30
0.0
 40
2.0
 50
179.99998999999889
 51
268.00000999999861
  0
LINE
  5
8B92
  8
AM_0
 10
251.56350222034791
 20
359.9344237295112
 30
0.0
 11
259.63332222034791
 21
359.65259372951118
 31
0.0
  0
ARC
  5
8C07
  8
AM_0
 10
239.63332222034799
 20
387.22366372951132
 30
0.0
 40
5.0
 50
179.99998999999889
 51
225.0
  0
LINE
  5
8C08
  8
AM_0
 10
236.09780222034789
 20
383.68814372951118
 30
0.0
 11
248.75466222034811
 21
371.03131372951123
 31
0.0
  0
ARC
  5
8C09
  8
AM_0
 10
246.63332222034791
 20
368.90994372951093
 30
0.0
 40
3.0
 50
0.0
 51
44.999998000001611
  0
ARC
  5
8C0A
  8
AM_0
 10
229.63332222034791
 20
390.38763372951132
 30
0.0
 40
5.0
 50
0.0
 51
87.999999999999659
  0
LINE
  5
8C0B
  8
AM_0
 10
222.13338222034801
 20
395.65253372951128
 30
0.0
 11
229.80788222034801
 21
395.38458372951118
 31
0.0
  0
LINE
  5
8C0C
  8
AM_0
 10
222.13332222034799
 20
407.11258372951107
 30
0.0
 11
234.63332222034791
 21
407.11258372951107
 31
0.0
  0
LINE
  5
8C0D
  8
AM_0
 10
222.13332222034799
 20
422.0025937295112
 30
0.0
 11
234.63332222034791
 21
422.0025937295112
 31
0.0
  0
LINE
  5
8C0E
  8
AM_0
 10
372.63338222034821
 20
354.1525637295112
 30
0.0
 11
376.63338222034821
 21
354.1525637295112
 31
0.0
  0
ARC
  5
8C0F
  8
AM_0
 10
360.63338222034793
 20
345.0734637295111
 30
0.0
 40
3.0
 50
179.99998999999889
 51
268.00000999999861
  0
LINE
  5
8C10
  8
AM_0
 10
351.69219222034792
 20
355.09375372951132
 30
0.0
 11
357.63341222034791
 21
349.15253372951111
 31
0.0
  0
ARC
  5
8C11
  8
AM_0
 10
348.15664222034792
 20
351.55823372951119
 30
0.0
 40
5.0
 50
45.000000999999187
 51
87.999999999999659
  0
LINE
  5
8C12
  8
AM_0
 10
360.52871222034781
 20
342.07529372951132
 30
0.0
 11
372.63338222034821
 21
341.6525937295113
 31
0.0
  0
ARC
  5
8C14
  8
AM_0
 10
361.63338222034781
 20
368.5528637295111
 30
0.0
 40
3.0
 50
267.9999999999996
 51
0.0
  0
LINE
  5
8C15
  8
AM_0
 10
361.3488422203481
 20
365.56097372951132
 30
0.0
 11
361.52868222034789
 21
365.5546937295112
 31
0.0
  0
ARC
  5
8C16
  8
AM_0
 10
360.63338222034793
 20
400.24185372951109
 30
0.0
 40
3.0
 50
90.000003000000945
 51
180.00001000000091
  0
LINE
  5
8C17
  8
AM_0
 10
360.63338222034793
 20
403.24185372951132
 30
0.0
 11
364.63338222034793
 21
403.24185372951132
 31
0.0
  0
LINE
  5
8C18
  8
AM_0
 10
259.63338222034798
 20
558.65256372951114
 30
0.0
 11
348.33117222034781
 21
561.74997372951157
 31
0.0
  0
ARC
  5
8C19
  8
AM_0
 10
251.63332222034791
 20
556.37198372951127
 30
0.0
 40
2.0
 50
91.999998000000545
 51
180.00001000000091
  0
LINE
  5
8C40
  8
AM_0
 10
222.13332222034799
 20
496.3025837295113
 30
0.0
 11
234.63332222034791
 21
496.3025837295113
 31
0.0
  0
ARC
  5
8C41
  8
AM_0
 10
239.63332222034799
 20
531.08151372951102
 30
0.0
 40
5.0
 50
135.0
 51
180.00001000000091
  0
ARC
  5
8C42
  8
AM_0
 10
229.63332222034791
 20
527.91757372951156
 30
0.0
 40
5.0
 50
272.0000000000004
 51
0.0
  0
LINE
  5
8C43
  8
AM_0
 10
222.13332222034799
 20
511.19260372951118
 30
0.0
 11
234.63332222034791
 21
511.19260372951118
 31
0.0
  0
LINE
  5
8C44
  8
AM_0
 10
222.13338222034801
 20
522.65256372951114
 30
0.0
 11
229.80782222034799
 21
522.92056372951095
 31
0.0
  0
LINE
  5
8C45
  8
AM_0
 10
236.09780222034789
 20
534.61703372951115
 30
0.0
 11
248.75466222034811
 21
547.27390372951118
 31
0.0
  0
ARC
  5
8C46
  8
AM_0
 10
246.63332222034791
 20
549.39523372951112
 30
0.0
 40
3.0
 50
315.0
 51
0.0
  0
LINE
  5
8C47
  8
AM_0
 10
251.5635622203479
 20
558.37082372951113
 30
0.0
 11
259.63332222034791
 21
558.65262372951156
 31
0.0
  0
ARC
  5
8C49
  8
AM_0
 10
360.63338222034793
 20
518.06332372951101
 30
0.0
 40
3.0
 50
179.99998999999889
 51
270.0
  0
LINE
  5
8C4A
  8
AM_0
 10
360.63338222034793
 20
515.06332372951124
 30
0.0
 11
364.63338222034793
 21
515.06332372951124
 31
0.0
  0
ARC
  5
8C4B
  8
AM_0
 10
361.63338222034781
 20
549.75235372951113
 30
0.0
 40
3.0
 50
0.0
 51
91.999998000000545
  0
LINE
  5
8C4C
  8
AM_0
 10
361.34887222034791
 20
552.7441737295112
 30
0.0
 11
361.52868222034789
 21
552.75046372951124
 31
0.0
  0
LINE
  5
8C4D
  8
AM_0
 10
372.63338222034821
 20
564.15262372951122
 30
0.0
 11
376.63338222034821
 21
564.15262372951122
 31
0.0
  0
ARC
  5
8C4E
  8
AM_0
 10
360.63338222034793
 20
573.23172372951115
 30
0.0
 40
3.0
 50
91.999998000000545
 51
180.00001000000091
  0
LINE
  5
8C4F
  8
AM_0
 10
351.69219222034792
 20
563.21140372951129
 30
0.0
 11
357.63341222034791
 21
569.15262372951111
 31
0.0
  0
ARC
  5
8C50
  8
AM_0
 10
348.15664222034792
 20
566.74692372951154
 30
0.0
 40
5.0
 50
272.0000000000004
 51
315.0
  0
LINE
  5
8C51
  8
AM_0
 10
360.52871222034781
 20
576.2298937295111
 30
0.0
 11
372.63341222034791
 21
576.65256372951114
 31
0.0
  0
LINE
  5
8C52
  8
AM_0
 10
434.63341222034791
 20
443.15262372951128
 30
0.0
 11
434.63341222034791
 21
475.15262372951111
 31
0.0
  0
LINE
  5
8DC8
  8
AM_0
 10
80.803302220347916
 20
492.5225387295115
 30
0.0
 11
175.15334222034781
 21
492.5225387295115
 31
0.0
  0
LINE
  5
8DC9
  8
AM_0
 10
80.593342220347907
 20
485.64253872951127
 30
0.0
 11
175.13332222034779
 21
485.64253872951127
 31
0.0
  0
LINE
  5
8DCA
  8
AM_0
 10
175.13332222034779
 20
493.1525487295113
 30
0.0
 11
81.683312220348114
 21
493.1525487295113
 31
0.0
  0
LINE
  5
8DCB
  8
AM_0
 10
175.13332222034779
 20
485.1525487295113
 30
0.0
 11
81.683312220348114
 21
485.1525487295113
 31
0.0
  0
LINE
  5
8DCC
  8
AM_0
 10
142.5754022203478
 20
453.1525487295113
 30
0.0
 11
72.683312220348114
 21
453.1525487295113
 31
0.0
  0
LINE
  5
8DCD
  8
AM_0
 10
71.463342220348011
 20
445.4724887295115
 30
0.0
 11
143.80459222034781
 21
445.4724887295115
 31
0.0
  0
LINE
  5
8DCE
  8
AM_0
 10
71.403342220347838
 20
452.88252872951142
 30
0.0
 11
143.8684322203481
 21
452.88252872951142
 31
0.0
  0
LINE
  5
8DCF
  8
AM_0
 10
142.57204222034781
 20
475.1525487295113
 30
0.0
 11
72.683312220348114
 21
475.1525487295113
 31
0.0
  0
LINE
  5
8DD0
  8
AM_0
 10
142.57204222034781
 20
473.15254872951141
 30
0.0
 11
72.683312220348114
 21
473.15254872951141
 31
0.0
  0
LINE
  5
8DD1
  8
AM_0
 10
142.5754022203478
 20
465.1525487295113
 30
0.0
 11
72.683312220348114
 21
465.1525487295113
 31
0.0
  0
LINE
  5
8DD2
  8
AM_0
 10
142.5754022203478
 20
463.1525487295113
 30
0.0
 11
72.683312220348114
 21
463.1525487295113
 31
0.0
  0
LINE
  5
8DD3
  8
AM_0
 10
71.463342220348011
 20
475.50251872951151
 30
0.0
 11
143.80459222034781
 21
475.50251872951151
 31
0.0
  0
LINE
  5
8DD4
  8
AM_0
 10
71.463342220348011
 20
472.83259872951118
 30
0.0
 11
143.79201222034811
 21
472.83259872951118
 31
0.0
  0
LINE
  5
8DD5
  8
AM_0
 10
71.403342220347838
 20
465.43257872951131
 30
0.0
 11
143.8684322203481
 21
465.43257872951131
 31
0.0
  0
LINE
  5
8DD6
  8
AM_0
 10
71.403342220347838
 20
462.89253872951127
 30
0.0
 11
143.8684322203481
 21
462.89253872951127
 31
0.0
  0
LINE
  5
8DD7
  8
AM_0
 10
71.403342220347838
 20
455.42256872951128
 30
0.0
 11
143.8684322203481
 21
455.42256872951128
 31
0.0
  0
LINE
  5
8DD8
  8
AM_0
 10
142.5754022203478
 20
455.15254872951152
 30
0.0
 11
72.683312220348114
 21
455.15254872951152
 31
0.0
  0
LINE
  5
8DD9
  8
AM_0
 10
114.8581959545
 20
382.15254872951198
 30
0.0
 11
119.6581959545004
 21
382.15254872951198
 31
0.0
  0
LINE
  5
8DDA
  8
AM_0
 10
90.133322220348035
 20
395.26252872951142
 30
0.0
 11
131.45974222034781
 21
395.26252872951142
 31
0.0
  0
LINE
  5
8DDB
  8
AM_0
 10
80.803302220347916
 20
425.79255872951131
 30
0.0
 11
175.15334222034781
 21
425.79255872951131
 31
0.0
  0
LINE
  5
8DDC
  8
AM_0
 10
163.13332222034791
 20
423.15254872951141
 30
0.0
 11
81.668972220347825
 21
423.15254872951141
 31
0.0
  0
LINE
  5
8DDD
  8
AM_0
 10
80.803302220347916
 20
422.43257872951131
 30
0.0
 11
163.13332222034791
 21
422.43257872951131
 31
0.0
  0
LINE
  5
8DDE
  8
AM_0
 10
80.593342220347907
 20
432.67256872951123
 30
0.0
 11
175.13332222034779
 21
432.67256872951123
 31
0.0
  0
LINE
  5
8DDF
  8
AM_0
 10
175.13332222034779
 20
425.1525487295113
 30
0.0
 11
81.668972220347825
 21
425.1525487295113
 31
0.0
  0
LINE
  5
8DE0
  8
AM_0
 10
175.13332222034779
 20
433.1525487295113
 30
0.0
 11
81.668972220347825
 21
433.1525487295113
 31
0.0
  0
LINE
  5
8DE1
  8
AM_0
 10
192.25819595450091
 20
348.15254872951152
 30
0.0
 11
116.7838910913413
 21
348.15254872951192
 31
0.0
  0
LINE
  5
8DE2
  8
AM_0
 10
116.3767721702896
 20
353.15254872951198
 30
0.0
 11
148.3548419090217
 21
358.60097476625498
 31
0.0
  0
LINE
  5
8DE3
  8
AM_0
 10
193.08389109134191
 20
361.1525487295113
 30
0.0
 11
116.7838910913413
 21
348.15254872951192
 31
0.0
  0
LINE
  5
8DE4
  8
AM_0
 10
116.4581959545
 20
352.15254872951198
 30
0.0
 11
192.75819595450059
 21
365.15254872951118
 31
0.0
  0
LINE
  5
8DE5
  8
AM_0
 10
116.4581959545
 20
352.15254872951198
 30
0.0
 11
192.75819595450059
 21
365.15254872951118
 31
0.0
  0
LINE
  5
8DE6
  8
AM_0
 10
142.5754022203478
 20
445.1525487295113
 30
0.0
 11
72.683312220348114
 21
445.1525487295113
 31
0.0
  0
LINE
  5
8DE7
  8
AM_0
 10
142.5754022203478
 20
443.1525487295113
 30
0.0
 11
72.683312220348114
 21
443.1525487295113
 31
0.0
  0
LINE
  5
8DE8
  8
AM_0
 10
71.463342220348011
 20
442.81257872951142
 30
0.0
 11
143.80459222034781
 21
442.81257872951142
 31
0.0
  0
LINE
  5
8DE9
  8
AM_0
 10
108.13332222034801
 20
505.50251872951128
 30
0.0
 11
214.13332222034771
 21
505.50251872951128
 31
0.0
  0
LINE
  5
8DEA
  8
AM_0
 10
108.13332222034801
 20
412.80256872951128
 30
0.0
 11
214.13332222034771
 21
412.80256872951128
 31
0.0
  0
LINE
  5
8DEB
  8
AM_0
 10
90.133322220348035
 20
397.29255872951131
 30
0.0
 11
206.9433222203478
 21
397.29255872951131
 31
0.0
  0
LINE
  5
8DEC
  8
AM_0
 10
90.133322220348035
 20
521.01252872951125
 30
0.0
 11
206.9433222203478
 21
521.01252872951125
 31
0.0
  0
LINE
  5
8DED
  8
AM_0
 10
90.133322220348035
 20
525.07258872951127
 30
0.0
 11
208.21700222034781
 21
525.07258872951127
 31
0.0
  0
LINE
  5
8DEE
  8
AM_0
 10
90.133322220348035
 20
524.4025487295113
 30
0.0
 11
208.36098222034781
 21
524.4025487295113
 31
0.0
  0
LINE
  5
8DEF
  8
AM_0
 10
90.133322220348035
 20
523.04255872951137
 30
0.0
 11
208.65328222034771
 21
523.04255872951137
 31
0.0
  0
LINE
  5
8DF0
  8
AM_0
 10
207.47335222034781
 20
495.1525487295113
 30
0.0
 11
81.683312220348114
 21
495.1525487295113
 31
0.0
  0
LINE
  5
8DF1
  8
AM_0
 10
207.46615222034771
 20
483.1525487295113
 30
0.0
 11
81.683312220348114
 21
483.1525487295113
 31
0.0
  0
LINE
  5
8DF2
  8
AM_0
 10
80.803302220347916
 20
495.88252872951131
 30
0.0
 11
210.95333222034779
 21
495.88252872951131
 31
0.0
  0
LINE
  5
8DF3
  8
AM_0
 10
80.593342220347907
 20
482.72248872951133
 30
0.0
 11
211.1675622203478
 21
482.72248872951133
 31
0.0
  0
LINE
  5
8DF4
  8
AM_0
 10
207.46615222034771
 20
435.1525487295113
 30
0.0
 11
81.668972220347825
 21
435.1525487295113
 31
0.0
  0
LINE
  5
8DF5
  8
AM_0
 10
80.593342220347907
 20
435.5924887295115
 30
0.0
 11
211.1675622203478
 21
435.5924887295115
 31
0.0
  0
LINE
  5
8DF6
  8
AM_0
 10
10.633352220348
 20
454.1525487295113
 30
0.0
 11
10.633352220348
 21
464.15254872951152
 31
0.0
  0
LINE
  5
8DF7
  8
AM_0
 10
67.13332222034802
 20
400.4025487295113
 30
0.0
 11
67.13332222034802
 21
459.1525487295113
 31
0.0
  0
LINE
  5
8DF8
  8
AM_0
 10
11.63189212034797
 20
515.1525487295113
 30
0.0
 11
11.63189212034797
 21
403.1525487295113
 31
0.0
  0
LINE
  5
8DF9
  8
AM_0
 10
19.63332222034802
 20
406.37055872951152
 30
0.0
 11
19.63332222034802
 21
511.90254872951112
 31
0.0
  0
LINE
  5
8DFA
  8
AM_0
 10
62.133322220348028
 20
421.96748872951127
 30
0.0
 11
62.133322220348028
 21
496.3385787295112
 31
0.0
  0
LINE
  5
8DFB
  8
AM_0
 10
17.13332222034802
 20
424.62348872951128
 30
0.0
 11
17.13332222034802
 21
493.68159872951162
 31
0.0
  0
LINE
  5
8DFC
  8
AM_0
 10
16.63189212034797
 20
493.89100982521848
 30
0.0
 11
16.63189212034797
 21
424.41408763380412
 31
0.0
  0
LINE
  5
8DFD
  8
AM_0
 10
18.33333222034792
 20
424.86152872951129
 30
0.0
 11
19.63332222034802
 21
424.86152872951129
 31
0.0
  0
LINE
  5
8DFE
  8
AM_0
 10
18.33333222034792
 20
415.66157872951118
 30
0.0
 11
19.63332222034802
 21
415.66157872951118
 31
0.0
  0
LINE
  5
8DFF
  8
AM_0
 10
19.13332222034802
 20
406.4025487295113
 30
0.0
 11
67.13332222034802
 21
406.4025487295113
 31
0.0
  0
ARC
  5
8E00
  8
AM_0
 10
21.63189212034797
 20
404.1525487295113
 30
0.0
 40
5.0
 50
179.99997999999781
 51
269.99995000000138
  0
ARC
  5
8E01
  8
AM_0
 10
20.63189212034797
 20
403.1525487295113
 30
0.0
 40
9.0
 50
179.99997999999781
 51
269.99995000000138
  0
LINE
  5
8E02
  8
AM_0
 10
18.33333222034792
 20
424.86152872951129
 30
0.0
 11
18.33333222034792
 21
415.66157872951118
 31
0.0
  0
ARC
  5
8E03
  8
AM_0
 10
18.033352220347918
 20
421.76155872951119
 30
0.0
 40
3.0
 50
89.999988999997569
 51
179.99997999999781
  0
LINE
  5
8E04
  8
AM_0
 10
16.63189212034797
 20
416.10902982521873
 30
0.0
 11
16.63189212034797
 21
404.1525487295113
 31
0.0
  0
LINE
  5
8E05
  8
AM_0
 10
17.13332222034802
 20
415.8996187295113
 30
0.0
 11
17.13332222034802
 21
408.4025487295113
 31
0.0
  0
ARC
  5
8E06
  8
AM_0
 10
19.13332222034802
 20
408.4025487295113
 30
0.0
 40
2.0
 50
179.99997999999781
 51
269.99995000000138
  0
LINE
  5
8E07
  8
AM_0
 10
18.033352220347918
 20
415.76155872951119
 30
0.0
 11
18.33333222034792
 21
415.76155872951119
 31
0.0
  0
LINE
  5
8E08
  8
AM_0
 10
15.03335222034792
 20
421.76155872951119
 30
0.0
 11
15.03335222034792
 21
418.76155872951119
 31
0.0
  0
ARC
  5
8E09
  8
AM_0
 10
18.033352220347918
 20
418.76155872951119
 30
0.0
 40
3.0
 50
179.99997999999781
 51
269.99995000000138
  0
LINE
  5
8E0A
  8
AM_0
 10
18.033352220347918
 20
424.76155872951119
 30
0.0
 11
18.33333222034792
 21
424.76155872951119
 31
0.0
  0
LINE
  5
8E0B
  8
AM_0
 10
11.63189212034797
 20
454.1525487295113
 30
0.0
 11
10.633352220348
 21
454.1525487295113
 31
0.0
  0
LINE
  5
8E0C
  8
AM_0
 10
17.13332222034802
 20
454.1525487295113
 30
0.0
 11
16.63189212034797
 21
454.1525487295113
 31
0.0
  0
LINE
  5
8E0D
  8
AM_0
 10
112.3581959545001
 20
353.15254872951198
 30
0.0
 11
112.3581959545001
 21
349.65254872951192
 31
0.0
  0
LINE
  5
8E0E
  8
AM_0
 10
111.8581959545011
 20
357.15254872951192
 30
0.0
 11
111.8581959545013
 21
349.65254872951192
 31
0.0
  0
ARC
  5
8E0F
  8
AM_0
 10
113.3581959545011
 20
349.65254872951192
 30
0.0
 40
1.5000000000001099
 50
180.0
 51
269.99999999999511
  0
ARC
  5
8E10
  8
AM_0
 10
113.8581959545006
 20
349.65254872951192
 30
0.0
 40
1.499999999999998
 50
180.0
 51
270.0
  0
LINE
  5
8E11
  8
AM_0
 10
113.3581959545011
 20
348.15254872951192
 30
0.0
 11
113.656681850658
 21
348.15254872951192
 31
0.0
  0
LINE
  5
8E12
  8
AM_0
 10
113.8581959545006
 20
348.15254872951192
 30
0.0
 11
116.7838910913413
 21
348.15254872951192
 31
0.0
  0
LINE
  5
8E13
  8
AM_0
 10
113.8581959545001
 20
381.15254872951192
 30
0.0
 11
113.8581959545003
 21
353.15254872951198
 31
0.0
  0
LINE
  5
8E14
  8
AM_0
 10
112.6581959545007
 20
357.15254872951198
 30
0.0
 11
111.8581959545011
 21
357.15254872951192
 31
0.0
  0
LINE
  5
8E15
  8
AM_0
 10
113.8581959545003
 20
357.15254872951198
 30
0.0
 11
112.6581959545007
 21
357.15254872951198
 31
0.0
  0
LINE
  5
8E16
  8
AM_0
 10
112.6581959545007
 20
352.15254872951198
 30
0.0
 11
116.4581959545
 21
352.15254872951198
 31
0.0
  0
LINE
  5
8E17
  8
AM_0
 10
116.3767721702896
 20
353.15254872951198
 30
0.0
 11
112.3581959545001
 21
353.15254872951198
 31
0.0
  0
LINE
  5
8E18
  8
AM_0
 10
112.3581959545001
 20
352.15254872951198
 30
0.0
 11
116.4581959545
 21
352.15254872951198
 31
0.0
  0
ARC
  5
8E19
  8
AM_0
 10
114.8581959545
 20
381.15254872951192
 30
0.0
 40
1.0
 50
90.0
 51
180.0
  0
LINE
  5
8E1A
  8
AM_0
 10
67.13332222034802
 20
424.8524987295113
 30
0.0
 11
77.133322220347907
 21
424.8524987295113
 31
0.0
  0
LINE
  5
8E1B
  8
AM_0
 10
67.13332222034802
 20
416.46259872951129
 30
0.0
 11
77.133322220347907
 21
416.46259872951129
 31
0.0
  0
LINE
  5
8E1C
  8
AM_0
 10
67.13332222034802
 20
401.7225787295115
 30
0.0
 11
69.953332220347704
 21
401.6625887295113
 31
0.0
  0
LINE
  5
8E1D
  8
AM_0
 10
67.13332222034802
 20
410.80256872951122
 30
0.0
 11
77.133322220347907
 21
410.80256872951122
 31
0.0
  0
LINE
  5
8E1E
  8
AM_0
 10
19.63332222034802
 20
415.26155872951119
 30
0.0
 11
62.133322220348028
 21
415.26155872951119
 31
0.0
  0
LINE
  5
8E1F
  8
AM_0
 10
21.63189212034797
 20
399.15254872951141
 30
0.0
 11
45.133322220348028
 21
399.15254872951141
 31
0.0
  0
LINE
  5
8E20
  8
AM_0
 10
20.63189212034797
 20
394.1525487295113
 30
0.0
 11
58.13332222034802
 21
394.1525487295113
 31
0.0
  0
LINE
  5
8E21
  8
AM_0
 10
42.133322220348028
 20
400.4025487295113
 30
0.0
 11
67.13332222034802
 21
400.4025487295113
 31
0.0
  0
LINE
  5
8E22
  8
AM_0
 10
42.133322220348028
 20
400.4025487295113
 30
0.0
 11
42.133322220348028
 21
406.4025487295113
 31
0.0
  0
LINE
  5
8E23
  8
AM_0
 10
55.133322220348028
 20
399.15254872951141
 30
0.0
 11
58.13332222034802
 21
399.15254872951141
 31
0.0
  0
LINE
  5
8E24
  8
AM_0
 10
55.133322220348028
 20
400.4025487295113
 30
0.0
 11
55.133322220348028
 21
394.1525487295113
 31
0.0
  0
LINE
  5
8E25
  8
AM_0
 10
45.133322220348028
 20
400.4025487295113
 30
0.0
 11
45.133322220348028
 21
394.1525487295113
 31
0.0
  0
LINE
  5
8E26
  8
AM_0
 10
58.13332222034802
 20
399.15254872951141
 30
0.0
 11
58.13332222034802
 21
394.1525487295113
 31
0.0
  0
LINE
  5
8E27
  8
AM_0
 10
62.133322220348028
 20
415.26155872951119
 30
0.0
 11
62.133322220348028
 21
406.4025487295113
 31
0.0
  0
LINE
  5
8E28
  8
AM_0
 10
19.63332222034802
 20
425.51155872951119
 30
0.0
 11
62.133322220348028
 21
425.51155872951119
 31
0.0
  0
ARC
  5
8E29
  8
AM_0
 10
89.126122220348208
 20
424.1525487295113
 30
0.0
 40
1.0000259
 50
89.587534000000232
 51
270.4124599999987
  0
ARC
  5
8E2A
  8
AM_0
 10
81.676172220347809
 20
424.1525487295113
 30
0.0
 40
1.0000255999999981
 50
89.589474000000749
 51
270.41051999999962
  0
ARC
  5
8E2B
  8
AM_0
 10
80.803302220347916
 20
424.1024987295113
 30
0.0
 40
1.6800002000000001
 50
90.000003000000945
 51
270.0
  0
LINE
  5
8E2C
  8
AM_0
 10
77.133322220347907
 20
410.80256872951122
 30
0.0
 11
77.133322220347907
 21
424.8524987295113
 31
0.0
  0
LINE
  5
8E2D
  8
AM_0
 10
108.133382220348
 20
412.8026287295113
 30
0.0
 11
77.133382220347869
 21
414.83262872951121
 31
0.0
  0
ARC
  5
8E2E
  8
AM_0
 10
86.631372220347799
 20
404.67060872951117
 30
0.0
 40
1.501982699999999
 50
0.075587202000581
 51
89.924413000001564
  0
LINE
  5
8E2F
  8
AM_0
 10
79.077602220347842
 20
402.46259872951129
 30
0.0
 11
78.117642220347705
 21
406.93257872951108
 31
0.0
  0
ARC
  5
8E30
  8
AM_0
 10
81.030662220348106
 20
402.8795987295112
 30
0.0
 40
1.997119399999999
 50
192.05523999999849
 51
270.19862999999867
  0
LINE
  5
8E31
  8
AM_0
 10
72.833942220348092
 20
397.48249872951141
 30
0.0
 11
86.876062220348032
 21
397.48249872951141
 31
0.0
  0
LINE
  5
8E32
  8
AM_0
 10
68.943322220347852
 20
404.05256872951122
 30
0.0
 11
78.736102220347846
 21
404.05256872951122
 31
0.0
  0
ARC
  5
8E33
  8
AM_0
 10
68.961022220347843
 20
400.53425872951129
 30
0.0
 40
1.4982997
 50
14.229740000001581
 51
89.910950000001179
  0
LINE
  5
8E34
  8
AM_0
 10
68.963342220347897
 20
402.03254872951129
 30
0.0
 11
70.613302220347862
 21
402.03254872951129
 31
0.0
  0
ARC
  5
8E35
  8
AM_0
 10
68.946552220347883
 20
402.5548887295115
 30
0.0
 40
1.497715799999999
 50
13.424378999999609
 51
90.122645000001114
  0
ARC
  5
8E36
  8
AM_0
 10
73.270162220347913
 20
399.48310872951129
 30
0.0
 40
2.0005671999999981
 50
193.30958999999871
 51
269.80430999999942
  0
ARC
  5
8E37
  8
AM_0
 10
72.833942220348092
 20
399.48249872951141
 30
0.0
 40
2.0
 50
194.15074999999959
 51
269.999989999999
  0
LINE
  5
8E38
  8
AM_0
 10
71.323322220347848
 20
399.02250872951129
 30
0.0
 11
70.40334222034781
 21
402.90257872951128
 31
0.0
  0
LINE
  5
8E39
  8
AM_0
 10
70.894672220348014
 20
398.99357872951128
 30
0.0
 11
70.413352220347917
 21
400.9026087295112
 31
0.0
  0
ARC
  5
8E3A
  8
AM_0
 10
90.134242220347829
 20
397.2635087295115
 30
0.0
 40
2.0009109999999981
 50
180.00001000000091
 51
269.97390999999971
  0
ARC
  5
8E3B
  8
AM_0
 10
86.876062220348032
 20
395.98249872951129
 30
0.0
 40
1.5
 50
21.46170900000077
 51
90.000003000000945
  0
ARC
  5
8E3C
  8
AM_0
 10
86.630212220347914
 20
399.38935872951129
 30
0.0
 40
1.503128599999999
 50
0.1191296499989459
 51
89.880869999998822
  0
LINE
  5
8E3D
  8
AM_0
 10
80.830952220347896
 20
400.89253872951122
 30
0.0
 11
86.633322220347992
 21
400.89253872951122
 31
0.0
  0
ARC
  5
8E3E
  8
AM_0
 10
90.133382220347869
 20
399.29255872951131
 30
0.0
 40
2.0000371999999991
 50
180.0010599999992
 51
269.99892999999958
  0
LINE
  5
8E3F
  8
AM_0
 10
88.13332222034802
 20
397.2635087295115
 30
0.0
 11
88.13332222034802
 21
404.67256872951123
 31
0.0
  0
ARC
  5
8E40
  8
AM_0
 10
76.753012220348012
 20
421.49787872951123
 30
0.0
 40
6.0073843
 50
273.6297400000006
 51
314.76384999999948
  0
ARC
  5
8E41
  8
AM_0
 10
81.092732220347855
 20
408.15778872951131
 30
0.0
 40
1.9952742999999991
 50
189.96478000000039
 51
269.85141999999968
  0
ARC
  5
8E42
  8
AM_0
 10
76.296162220347867
 20
417.5640387295112
 30
0.0
 40
4.9991421999999961
 50
5.3780268999994201
 51
80.360064999998514
  0
ARC
  5
8E43
  8
AM_0
 10
76.866482220347649
 20
411.8925387295115
 30
0.0
 40
1.5
 50
10.237378999998841
 51
79.752109999998723
  0
ARC
  5
8E44
  8
AM_0
 10
76.650172220347869
 20
406.61018872951138
 30
0.0
 40
1.502416299999999
 50
12.391887000000411
 51
90.098616999999123
  0
LINE
  5
8E45
  8
AM_0
 10
76.647602220347892
 20
408.11250872951138
 30
0.0
 11
79.06759222034799
 21
408.11250872951138
 31
0.0
  0
LINE
  5
8E46
  8
AM_0
 10
78.342552220347841
 20
412.1591987295115
 30
0.0
 11
79.127582220347847
 21
407.81251872951123
 31
0.0
  0
LINE
  5
8E47
  8
AM_0
 10
80.893152220347872
 20
406.17256872951128
 30
0.0
 11
86.633322220347992
 21
406.17256872951128
 31
0.0
  0
ARC
  5
8E48
  8
AM_0
 10
80.27413222034798
 20
417.94221872951152
 30
0.0
 40
1.0032491999999991
 50
314.98119000000088
 51
5.1676434000008573
  0
ARC
  5
8E49
  8
AM_0
 10
80.587612220347921
 20
434.12251872951128
 30
0.0
 40
1.460011199999999
 50
89.775248000001255
 51
270.22474000000028
  0
ARC
  5
8E4A
  8
AM_0
 10
81.676172220347809
 20
434.1525487295113
 30
0.0
 40
1.0000255999999981
 50
89.589474000000749
 51
270.41051999999962
  0
ARC
  5
8E4B
  8
AM_0
 10
89.126122220348208
 20
434.1525487295113
 30
0.0
 40
1.0000259
 50
89.587534000000232
 51
270.4124599999987
  0
ARC
  5
8E4C
  8
AM_0
 10
72.683312220348114
 20
444.1525487295113
 30
0.0
 40
1.0000056999999991
 50
90.000003000000945
 51
270.0
  0
ARC
  5
8E4D
  8
AM_0
 10
71.457052220347862
 20
444.14253872951127
 30
0.0
 40
1.3300148000000001
 50
89.729417999999541
 51
270.27058999999991
  0
ARC
  5
8E4E
  8
AM_0
 10
72.683312220348114
 20
454.1525487295113
 30
0.0
 40
1.0000056999999991
 50
90.000003000000945
 51
270.0
  0
ARC
  5
8E4F
  8
AM_0
 10
71.395102220347809
 20
454.1525487295113
 30
0.0
 40
1.2700266
 50
89.629320999999507
 51
270.3706899999986
  0
ARC
  5
8E50
  8
AM_0
 10
89.126122220348208
 20
444.1525487295113
 30
0.0
 40
1.0000259
 50
89.587534000000232
 51
270.4124599999987
  0
ARC
  5
8E51
  8
AM_0
 10
89.126122220348208
 20
454.1525487295113
 30
0.0
 40
1.0000259
 50
89.587534000000232
 51
270.4124599999987
  0
ARC
  5
8E52
  8
AM_0
 10
21.63189212034797
 20
514.1525487295113
 30
0.0
 40
5.0
 50
89.999988999997569
 51
180.0
  0
LINE
  5
8E53
  8
AM_0
 10
18.33333222034792
 20
502.64351872951119
 30
0.0
 11
19.63332222034802
 21
502.64351872951119
 31
0.0
  0
LINE
  5
8E54
  8
AM_0
 10
18.33333222034792
 20
493.4435687295113
 30
0.0
 11
19.63332222034802
 21
493.4435687295113
 31
0.0
  0
LINE
  5
8E55
  8
AM_0
 10
19.13332222034802
 20
511.90254872951112
 30
0.0
 11
67.13332222034802
 21
511.90254872951112
 31
0.0
  0
ARC
  5
8E56
  8
AM_0
 10
20.63189212034797
 20
515.1525487295113
 30
0.0
 40
9.0
 50
89.999988999997569
 51
179.99997999999781
  0
LINE
  5
8E57
  8
AM_0
 10
18.33333222034792
 20
493.4435687295113
 30
0.0
 11
18.33333222034792
 21
502.64351872951119
 31
0.0
  0
ARC
  5
8E58
  8
AM_0
 10
18.033352220347918
 20
496.54353872951123
 30
0.0
 40
3.0
 50
180.00002000000191
 51
270.00001100000242
  0
LINE
  5
8E59
  8
AM_0
 10
11.63189212034797
 20
464.15254872951152
 30
0.0
 11
10.633352220348
 21
464.15254872951152
 31
0.0
  0
LINE
  5
8E5A
  8
AM_0
 10
17.13332222034802
 20
464.15254872951152
 30
0.0
 11
16.63189212034797
 21
464.15254872951152
 31
0.0
  0
LINE
  5
8E5B
  8
AM_0
 10
18.033352220347918
 20
493.54353872951128
 30
0.0
 11
18.33333222034792
 21
493.54353872951128
 31
0.0
  0
ARC
  5
8E5C
  8
AM_0
 10
19.13332222034802
 20
509.90254872951112
 30
0.0
 40
2.0
 50
90.000049999998538
 51
180.00002000000191
  0
LINE
  5
8E5D
  8
AM_0
 10
16.63189212034797
 20
502.19606763380398
 30
0.0
 11
16.63189212034797
 21
514.15254872951095
 31
0.0
  0
LINE
  5
8E5E
  8
AM_0
 10
17.13332222034802
 20
502.40547872951129
 30
0.0
 11
17.13332222034802
 21
509.90254872951112
 31
0.0
  0
LINE
  5
8E5F
  8
AM_0
 10
18.033352220347918
 20
502.54353872951128
 30
0.0
 11
18.33333222034792
 21
502.54353872951128
 31
0.0
  0
LINE
  5
8E60
  8
AM_0
 10
15.03335222034792
 20
496.54353872951123
 30
0.0
 11
15.03335222034792
 21
499.54353872951123
 31
0.0
  0
ARC
  5
8E61
  8
AM_0
 10
18.033352220347918
 20
499.54353872951123
 30
0.0
 40
3.0
 50
90.000049999998538
 51
180.00002000000191
  0
LINE
  5
8E62
  8
AM_0
 10
67.13332222034802
 20
516.58253872951127
 30
0.0
 11
69.953332220347704
 21
516.65254872951118
 31
0.0
  0
LINE
  5
8E63
  8
AM_0
 10
67.13332222034802
 20
501.8424887295115
 30
0.0
 11
77.133322220347907
 21
501.8424887295115
 31
0.0
  0
LINE
  5
8E64
  8
AM_0
 10
67.13332222034802
 20
507.50251872951122
 30
0.0
 11
77.133322220347907
 21
507.50251872951122
 31
0.0
  0
LINE
  5
8E65
  8
AM_0
 10
67.13332222034802
 20
493.46259872951123
 30
0.0
 11
77.133322220347907
 21
493.46259872951123
 31
0.0
  0
LINE
  5
8E66
  8
AM_0
 10
67.13332222034802
 20
517.90254872951152
 30
0.0
 11
67.13332222034802
 21
459.1525487295113
 31
0.0
  0
LINE
  5
8E67
  8
AM_0
 10
19.63332222034802
 20
492.79353872951128
 30
0.0
 11
62.133322220348028
 21
492.79353872951128
 31
0.0
  0
LINE
  5
8E68
  8
AM_0
 10
21.63189212034797
 20
519.1525487295113
 30
0.0
 11
45.133322220348028
 21
519.1525487295113
 31
0.0
  0
LINE
  5
8E69
  8
AM_0
 10
42.133322220348028
 20
517.90254872951118
 30
0.0
 11
67.13332222034802
 21
517.90254872951118
 31
0.0
  0
LINE
  5
8E6A
  8
AM_0
 10
20.63189212034797
 20
524.15254872951118
 30
0.0
 11
58.13332222034802
 21
524.15254872951118
 31
0.0
  0
LINE
  5
8E6B
  8
AM_0
 10
19.63332222034802
 20
503.04353872951128
 30
0.0
 11
62.133322220348028
 21
503.04353872951128
 31
0.0
  0
LINE
  5
8E6C
  8
AM_0
 10
42.133322220348028
 20
517.90254872951118
 30
0.0
 11
42.133322220348028
 21
511.90254872951112
 31
0.0
  0
LINE
  5
8E6D
  8
AM_0
 10
62.133322220348028
 20
503.04353872951128
 30
0.0
 11
62.133322220348028
 21
511.90254872951112
 31
0.0
  0
LINE
  5
8E6E
  8
AM_0
 10
55.133322220348028
 20
519.1525487295113
 30
0.0
 11
58.13332222034802
 21
519.1525487295113
 31
0.0
  0
LINE
  5
8E6F
  8
AM_0
 10
55.133322220348028
 20
517.90254872951118
 30
0.0
 11
55.133322220348028
 21
524.15254872951118
 31
0.0
  0
LINE
  5
8E70
  8
AM_0
 10
45.133322220348028
 20
517.90254872951118
 30
0.0
 11
45.133322220348028
 21
524.15254872951118
 31
0.0
  0
LINE
  5
8E71
  8
AM_0
 10
58.13332222034802
 20
519.1525487295113
 30
0.0
 11
58.13332222034802
 21
524.15254872951118
 31
0.0
  0
ARC
  5
8E72
  8
AM_0
 10
89.126122220348208
 20
494.1525487295113
 30
0.0
 40
1.0000259
 50
89.587534000000232
 51
270.4124599999987
  0
ARC
  5
8E73
  8
AM_0
 10
80.803302220347916
 20
494.20258872951132
 30
0.0
 40
1.6800002000000001
 50
90.000003000000945
 51
270.0
  0
ARC
  5
8E74
  8
AM_0
 10
81.676172220347809
 20
494.1525487295113
 30
0.0
 40
1.0000255999999981
 50
89.589474000000749
 51
270.41051999999962
  0
LINE
  5
8E75
  8
AM_0
 10
77.133322220347907
 20
507.50251872951122
 30
0.0
 11
77.133322220347907
 21
493.46259872951123
 31
0.0
  0
ARC
  5
8E76
  8
AM_0
 10
72.683312220348114
 20
464.1525487295113
 30
0.0
 40
1.0000056999999991
 50
90.000003000000945
 51
270.0
  0
ARC
  5
8E77
  8
AM_0
 10
71.395102220347809
 20
464.16255872951132
 30
0.0
 40
1.2700266
 50
89.629327999999504
 51
270.37065999999959
  0
ARC
  5
8E78
  8
AM_0
 10
72.683312220348114
 20
474.1525487295113
 30
0.0
 40
1.0000056999999991
 50
90.000003000000945
 51
270.0
  0
ARC
  5
8E79
  8
AM_0
 10
71.457052220347862
 20
474.1675587295112
 30
0.0
 40
1.3350147999999991
 50
89.730435000000341
 51
270.26956999999999
  0
ARC
  5
8E7A
  8
AM_0
 10
89.126122220348208
 20
464.1525487295113
 30
0.0
 40
1.0000259
 50
89.587534000000232
 51
270.4124599999987
  0
ARC
  5
8E7B
  8
AM_0
 10
89.126122220348208
 20
474.1525487295113
 30
0.0
 40
1.0000259
 50
89.587534000000232
 51
270.4124599999987
  0
ARC
  5
8E7C
  8
AM_0
 10
80.587612220347921
 20
484.18257872951142
 30
0.0
 40
1.460011199999999
 50
89.775248000001255
 51
270.22474000000028
  0
ARC
  5
8E7D
  8
AM_0
 10
81.676172220347809
 20
484.1525487295113
 30
0.0
 40
1.0000255999999981
 50
89.589474000000749
 51
270.41051999999962
  0
ARC
  5
8E7E
  8
AM_0
 10
89.126122220348208
 20
484.1525487295113
 30
0.0
 40
1.0000259
 50
89.587534000000232
 51
270.4124599999987
  0
LINE
  5
8E7F
  8
AM_0
 10
108.133382220348
 20
505.50251872951128
 30
0.0
 11
77.133322220347907
 21
503.47251872951142
 31
0.0
  0
ARC
  5
8E80
  8
AM_0
 10
86.629602220347977
 20
513.64631872951145
 30
0.0
 40
1.5037541000000001
 50
270.14287000000093
 51
359.85713999999848
  0
LINE
  5
8E81
  8
AM_0
 10
79.077602220347842
 20
515.84254872951135
 30
0.0
 11
78.117642220347705
 21
511.37257872951142
 31
0.0
  0
ARC
  5
8E82
  8
AM_0
 10
81.092732220347855
 20
510.14729872951131
 30
0.0
 40
1.9952742999999991
 50
90.148580000000095
 51
170.03521999999941
  0
ARC
  5
8E83
  8
AM_0
 10
76.75429222034785
 20
496.82002872951142
 30
0.0
 40
6.0044340999999992
 50
45.225577999998769
 51
86.380821999999185
  0
ARC
  5
8E84
  8
AM_0
 10
76.288902220348135
 20
500.7467787295115
 30
0.0
 40
5.0059714
 50
279.71098000000097
 51
354.6788800000013
  0
ARC
  5
8E85
  8
AM_0
 10
76.650172220347869
 20
511.69489872951118
 30
0.0
 40
1.502416299999999
 50
269.90137999999871
 51
347.60813000000093
  0
LINE
  5
8E86
  8
AM_0
 10
76.647602220347892
 20
510.19257872951141
 30
0.0
 11
79.06759222034799
 21
510.19257872951141
 31
0.0
  0
ARC
  5
8E87
  8
AM_0
 10
76.866482220347649
 20
506.41255872951137
 30
0.0
 40
1.5
 50
280.24789000000118
 51
349.76261999999917
  0
LINE
  5
8E88
  8
AM_0
 10
78.342612220347917
 20
506.14591872951121
 30
0.0
 11
79.127652220348011
 21
510.4925987295112
 31
0.0
  0
ARC
  5
8E89
  8
AM_0
 10
80.275232220347846
 20
500.3732487295112
 30
0.0
 40
1.002184699999999
 50
354.80385999999999
 51
45.047306999998277
  0
LINE
  5
8E8A
  8
AM_0
 10
81.087612220347907
 20
512.14253872951133
 30
0.0
 11
86.633322220347992
 21
512.14253872951133
 31
0.0
  0
LINE
  5
8E8B
  8
AM_0
 10
73.263332220347877
 20
520.82258872951127
 30
0.0
 11
86.633322220347992
 21
520.82258872951127
 31
0.0
  0
LINE
  5
8E8C
  8
AM_0
 10
73.243312220348059
 20
522.45258872951126
 30
0.0
 11
86.743312220348301
 21
522.45258872951126
 31
0.0
  0
ARC
  5
8E8D
  8
AM_0
 10
81.030662220348106
 20
515.42548872951124
 30
0.0
 40
1.997119399999999
 50
89.801366999998493
 51
167.94476000000131
  0
ARC
  5
8E8E
  8
AM_0
 10
73.238182220347795
 20
520.45796872951121
 30
0.0
 40
1.994612099999999
 50
89.851991999999015
 51
165.9388600000006
  0
ARC
  5
8E8F
  8
AM_0
 10
73.263572220347839
 20
518.83027872951118
 30
0.0
 40
1.9922863
 50
90.007721000000544
 51
166.87839000000031
  0
LINE
  5
8E90
  8
AM_0
 10
68.943322220347852
 20
514.25251872951117
 30
0.0
 11
78.736102220347846
 21
514.25251872951117
 31
0.0
  0
ARC
  5
8E91
  8
AM_0
 10
68.938502220347857
 20
515.75739872951146
 30
0.0
 40
1.5048382
 50
270.18264000000067
 51
346.75308000000121
  0
LINE
  5
8E92
  8
AM_0
 10
68.963342220347897
 20
516.27253872951121
 30
0.0
 11
70.613302220347862
 21
516.27253872951121
 31
0.0
  0
ARC
  5
8E93
  8
AM_0
 10
68.952902220348108
 20
517.7779087295113
 30
0.0
 40
1.505448699999999
 50
270.39686999999981
 51
345.9524700000004
  0
LINE
  5
8E94
  8
AM_0
 10
71.303302220347916
 20
520.9425787295113
 30
0.0
 11
70.413292220347842
 21
517.41255872951126
 31
0.0
  0
LINE
  5
8E95
  8
AM_0
 10
71.323322220347848
 20
519.28254872951152
 30
0.0
 11
70.403282220348075
 21
515.41255872951126
 31
0.0
  0
ARC
  5
8E96
  8
AM_0
 10
90.126612220347909
 20
519.01923872951124
 30
0.0
 40
1.9933081999999991
 50
89.807323000000935
 51
180.19266999999849
  0
ARC
  5
8E97
  8
AM_0
 10
86.626422220347706
 20
522.32942872951139
 30
0.0
 40
1.506942899999999
 50
270.2633699999991
 51
359.73663000000079
  0
ARC
  5
8E98
  8
AM_0
 10
90.127462220347923
 20
521.04841872951135
 30
0.0
 40
1.994130499999996
 50
89.831105999999224
 51
180.16889000000049
  0
ARC
  5
8E99
  8
AM_0
 10
86.628442220347807
 20
518.92744872951153
 30
0.0
 40
1.504891299999997
 50
270.1859300000005
 51
359.81406999999939
  0
LINE
  5
8E9A
  8
AM_0
 10
81.023762220347905
 20
517.42256872951134
 30
0.0
 11
86.633322220347992
 21
517.42256872951134
 31
0.0
  0
LINE
  5
8E9B
  8
AM_0
 10
88.13332222034802
 20
521.04255872951126
 30
0.0
 11
88.13332222034802
 21
513.64253872951133
 31
0.0
  0
ARC
  5
8E9C
  8
AM_0
 10
90.127102220347922
 20
523.0760087295115
 30
0.0
 40
1.9964978999999961
 50
89.821482000000245
 51
165.6006099999997
  0
ARC
  5
8E9D
  8
AM_0
 10
86.738242220347999
 20
523.95771872951104
 30
0.0
 40
1.505230099999999
 50
270.19421
 51
345.17177999999848
  0
ARC
  5
8E9E
  8
AM_0
 10
90.129782220347863
 20
522.40608872951145
 30
0.0
 40
1.996488899999999
 50
89.899147999998391
 51
180.10084999999879
  0
LINE
  5
8E9F
  8
AM_0
 10
214.13332222034771
 20
396.6525487295113
 30
0.0
 11
214.13332222034771
 21
521.6525487295113
 31
0.0
  0
LINE
  5
8EA0
  8
AM_0
 10
214.13332222034771
 20
422.00251872951128
 30
0.0
 11
222.13332222034799
 21
422.00251872951128
 31
0.0
  0
LINE
  5
8EA1
  8
AM_0
 10
215.13332222034779
 20
407.11250872951132
 30
0.0
 11
222.13332222034799
 21
407.11250872951132
 31
0.0
  0
LINE
  5
8EA2
  8
AM_0
 10
215.13332222034779
 20
395.65254872951141
 30
0.0
 11
222.13332222034799
 21
395.65254872951141
 31
0.0
  0
ARC
  5
8EA3
  8
AM_0
 10
194.64693222034791
 20
387.6525487295113
 30
0.0
 40
1.5
 50
90.000003000000945
 51
178.50000000000051
  0
LINE
  5
8EA4
  8
AM_0
 10
193.06788423048181
 20
384.65254872951158
 30
0.0
 11
193.3988922203479
 21
397.29261872951128
 31
0.0
  0
LINE
  5
8EA5
  8
AM_0
 10
133.19885572226821
 20
384.65254872951158
 30
0.0
 11
132.86782222034779
 21
397.29252872951128
 31
0.0
  0
LINE
  5
8EA6
  8
AM_0
 10
165.1615499999765
 20
361.46450301241998
 30
0.0
 11
167.36490404545401
 21
361.83991064795327
 31
0.0
  0
LINE
  5
8EA7
  8
AM_0
 10
119.6581959545004
 20
382.15254872951198
 30
0.0
 11
200.13332222034751
 21
382.15254872951152
 31
0.0
  0
LINE
  5
8EA8
  8
AM_0
 10
196.63332222034799
 20
384.65254872951169
 30
0.0
 11
129.63332222034799
 21
384.65254872951169
 31
0.0
  0
CIRCLE
  5
8EA9
  8
AM_0
 10
128.9581959545005
 20
365.15254872951192
 30
0.0
 40
6.2999999999996117
  0
LINE
  5
8EAA
  8
AM_0
 10
138.2581959545002
 20
382.15254872951152
 30
0.0
 11
138.2581959545002
 21
365.15254872951152
 31
0.0
  0
LINE
  5
8EAB
  8
AM_0
 10
119.6581959545004
 20
382.15254872951198
 30
0.0
 11
119.6581959545001
 21
365.15254872951192
 31
0.0
  0
LINE
  5
8EAC
  8
ﾁｭｳｼﾝｾﾝ
 10
128.9581959545005
 20
376.15254872951192
 30
0.0
 11
128.9581959545005
 21
354.15254872951192
 31
0.0
  0
LINE
  5
8EAD
  8
ﾁｭｳｼﾝｾﾝ
 10
117.9581959545005
 20
365.15254872951192
 30
0.0
 11
139.9581959545005
 21
365.15254872951192
 31
0.0
  0
ARC
  5
8EAE
  8
AM_0
 10
128.9581959545005
 20
365.15254872951192
 30
0.0
 40
9.2999999999997094
 50
180.0
 51
0.0
  0
LINE
  5
8EAF
  8
AM_0
 10
129.63332222034799
 20
384.65254872951169
 30
0.0
 11
129.63332222034799
 21
382.15254872951152
 31
0.0
  0
LINE
  5
8EB0
  8
AM_0
 10
165.1615499999765
 20
361.46450301241998
 30
0.0
 11
165.16154999997659
 21
377.15254872951152
 31
0.0
  0
LINE
  5
8EB1
  8
AM_0
 10
163.66154999997659
 20
377.15254872951152
 30
0.0
 11
163.6615499999765
 21
361.20893289446479
 31
0.0
  0
LINE
  5
8EB2
  8
AM_0
 10
161.9581959545024
 20
360.91871529824999
 30
0.0
 11
161.95819595450271
 21
377.15254872951442
 31
0.0
  0
LINE
  5
8EB3
  8
AM_0
 10
159.9581959544991
 20
377.15254872951152
 30
0.0
 11
159.9581959544991
 21
360.57795514097569
 31
0.0
  0
LINE
  5
8EB4
  8
AM_0
 10
157.75484190902171
 20
360.20254750544228
 30
0.0
 11
157.75484190902171
 21
377.15254872951152
 31
0.0
  0
LINE
  5
8EB5
  8
AM_0
 10
156.25484190902179
 20
377.15254872951152
 30
0.0
 11
156.25484190902179
 21
359.94697738748692
 31
0.0
  0
LINE
  5
8EB6
  8
AM_0
 10
154.05484190902169
 20
359.57214121448578
 30
0.0
 11
154.05484190902169
 21
377.15254872951152
 31
0.0
  0
LINE
  5
8EB7
  8
AM_0
 10
152.5548419090218
 20
377.15254872951152
 30
0.0
 11
152.5548419090218
 21
359.31657109653082
 31
0.0
  0
LINE
  5
8EB8
  8
AM_0
 10
148.3548419090217
 20
377.15254872951152
 30
0.0
 11
148.3548419090217
 21
358.60097476625498
 31
0.0
  0
LINE
  5
8EB9
  8
AM_0
 10
150.3548419090219
 20
358.941734923529
 30
0.0
 11
150.3548419090219
 21
377.15254872951198
 31
0.0
  0
LINE
  5
8EBA
  8
AM_0
 10
154.05484190902169
 20
359.57214121448578
 30
0.0
 11
156.25484190902179
 21
359.94697738748692
 31
0.0
  0
LINE
  5
8EBB
  8
AM_0
 10
150.3548419090219
 20
358.941734923529
 30
0.0
 11
152.5548419090218
 21
359.31657109653082
 31
0.0
  0
LINE
  5
8EBC
  8
AM_0
 10
161.9581959545024
 20
360.91871529824999
 30
0.0
 11
163.6615499999765
 21
361.20893289446479
 31
0.0
  0
LINE
  5
8EBD
  8
AM_0
 10
157.75484190902171
 20
360.20254750544228
 30
0.0
 11
159.9581959544991
 21
360.57795514097569
 31
0.0
  0
LINE
  5
8EBE
  8
AM_0
 10
154.05484190902169
 20
373.15254872951118
 30
0.0
 11
152.5548419090218
 21
373.15254872951169
 31
0.0
  0
LINE
  5
8EBF
  8
AM_0
 10
154.05484190902169
 20
377.15254872951152
 30
0.0
 11
152.5548419090218
 21
377.15254872951152
 31
0.0
  0
LINE
  5
8EC0
  8
AM_0
 10
150.3548419090219
 20
373.15254872951169
 30
0.0
 11
148.3548419090217
 21
373.15254872951169
 31
0.0
  0
LINE
  5
8EC1
  8
AM_0
 10
150.3548419090219
 20
377.15254872951198
 30
0.0
 11
148.3548419090217
 21
377.15254872951152
 31
0.0
  0
LINE
  5
8EC2
  8
AM_0
 10
161.95819595450271
 20
373.15254872951118
 30
0.0
 11
159.9581959544991
 21
373.15254872951118
 31
0.0
  0
LINE
  5
8EC3
  8
AM_0
 10
161.95819595450271
 20
377.15254872951152
 30
0.0
 11
159.9581959544991
 21
377.15254872951152
 31
0.0
  0
LINE
  5
8EC4
  8
AM_0
 10
157.75484190902171
 20
373.15254872951118
 30
0.0
 11
156.25484190902179
 21
373.15254872951118
 31
0.0
  0
LINE
  5
8EC5
  8
AM_0
 10
157.75484190902171
 20
377.15254872951152
 30
0.0
 11
156.25484190902179
 21
377.15254872951152
 31
0.0
  0
LINE
  5
8EC6
  8
AM_0
 10
165.1615499999769
 20
373.15254872951118
 30
0.0
 11
163.66154999997659
 21
373.15254872951118
 31
0.0
  0
LINE
  5
8EC7
  8
AM_0
 10
165.16154999997659
 20
377.15254872951152
 30
0.0
 11
163.66154999997659
 21
377.15254872951152
 31
0.0
  0
LINE
  5
8EC8
  8
AM_0
 10
184.4883474735179
 20
348.15254872951152
 30
0.0
 11
184.4883474735179
 21
359.68803933197972
 31
0.0
  0
LINE
  5
8EC9
  8
AM_0
 10
194.7581959545011
 20
360.65254872951152
 30
0.0
 11
194.7581959545011
 21
350.65254872951152
 31
0.0
  0
ARC
  5
8ECA
  8
AM_0
 10
192.25819595450091
 20
350.65254872951152
 30
0.0
 40
2.5
 50
270.0
 51
0.0
  0
LINE
  5
8ECB
  8
AM_0
 10
176.27161213640841
 20
363.3574362728865
 30
0.0
 11
176.27161213640841
 21
377.15254872951152
 31
0.0
  0
LINE
  5
8ECC
  8
AM_0
 10
174.77161213640841
 20
377.15254872951152
 30
0.0
 11
174.77161213640841
 21
363.1018661549312
 31
0.0
  0
LINE
  5
8ECD
  8
AM_0
 10
186.13332222034751
 20
365.03767521248318
 30
0.0
 11
186.13332222034751
 21
382.15254872951152
 31
0.0
  0
LINE
  5
8ECE
  8
AM_0
 10
168.8649040454539
 20
362.09548076590892
 30
0.0
 11
168.8649040454539
 21
377.15254872951152
 31
0.0
  0
LINE
  5
8ECF
  8
AM_0
 10
167.3649040454541
 20
377.15254872951152
 30
0.0
 11
167.36490404545401
 21
361.83991064795327
 31
0.0
  0
LINE
  5
8ED0
  8
AM_0
 10
172.5682580909311
 20
362.72645851939802
 30
0.0
 11
172.5682580909311
 21
377.15254872951152
 31
0.0
  0
LINE
  5
8ED1
  8
AM_0
 10
171.0682580909311
 20
377.15254872951152
 30
0.0
 11
171.06825809093101
 21
362.47088840144249
 31
0.0
  0
LINE
  5
8ED2
  8
AM_0
 10
176.27161213640841
 20
363.3574362728865
 30
0.0
 11
186.13332222034751
 21
365.03767521248318
 31
0.0
  0
LINE
  5
8ED3
  8
AM_0
 10
172.5682580909311
 20
362.72645851939802
 30
0.0
 11
174.77161213640841
 21
363.1018661549312
 31
0.0
  0
LINE
  5
8ED4
  8
AM_0
 10
168.8649040454539
 20
362.09548076590892
 30
0.0
 11
171.06825809093101
 21
362.47088840144249
 31
0.0
  0
LINE
  5
8ED5
  8
AM_0
 10
185.3581959545013
 20
359.83834350221412
 30
0.0
 11
185.35819595450121
 21
363.89173614759773
 31
0.0
  0
LINE
  5
8ED6
  8
AM_0
 10
172.5682580909311
 20
373.15254872951118
 30
0.0
 11
171.0682580909311
 21
373.15254872951118
 31
0.0
  0
LINE
  5
8ED7
  8
AM_0
 10
172.5682580909311
 20
377.15254872951152
 30
0.0
 11
171.0682580909311
 21
377.15254872951152
 31
0.0
  0
LINE
  5
8ED8
  8
AM_0
 10
168.8649040454539
 20
373.15254872951118
 30
0.0
 11
167.3649040454541
 21
373.15254872951118
 31
0.0
  0
LINE
  5
8ED9
  8
AM_0
 10
168.8649040454539
 20
377.15254872951152
 30
0.0
 11
167.3649040454541
 21
377.15254872951152
 31
0.0
  0
LINE
  5
8EDA
  8
AM_0
 10
176.27161213640841
 20
373.15254872951118
 30
0.0
 11
174.77161213640841
 21
373.15254872951118
 31
0.0
  0
LINE
  5
8EDB
  8
AM_0
 10
176.27161213640841
 20
377.15254872951152
 30
0.0
 11
174.77161213640841
 21
377.15254872951152
 31
0.0
  0
LINE
  5
8EDC
  8
AM_0
 10
201.13332222034731
 20
365.15254872951152
 30
0.0
 11
201.13332222034751
 21
381.15254872951141
 31
0.0
  0
ARC
  5
8EDD
  8
AM_0
 10
195.25819595450091
 20
360.65254872951152
 30
0.0
 40
0.5
 50
90.0
 51
180.0
  0
LINE
  5
8EDE
  8
AM_0
 10
201.13332222034731
 20
365.15254872951152
 30
0.0
 11
192.75819595450059
 21
365.15254872951118
 31
0.0
  0
LINE
  5
8EDF
  8
AM_0
 10
195.25819595450091
 20
361.1525487295113
 30
0.0
 11
200.63332222034751
 21
361.1525487295113
 31
0.0
  0
LINE
  5
8EE0
  8
AM_0
 10
195.25819595450091
 20
361.1525487295113
 30
0.0
 11
193.08389109134191
 21
361.1525487295113
 31
0.0
  0
ARC
  5
8EE1
  8
AM_0
 10
200.63332222034751
 20
361.65254872951141
 30
0.0
 40
0.5
 50
270.0
 51
0.0
  0
LINE
  5
8EE2
  8
AM_0
 10
201.13332222034731
 20
365.15254872951152
 30
0.0
 11
201.13332222034731
 21
361.65254872951141
 31
0.0
  0
LINE
  5
8EE3
  8
AM_0
 10
196.63332222034799
 20
384.65254872951169
 30
0.0
 11
196.63332222034799
 21
382.15254872951152
 31
0.0
  0
ARC
  5
8EE4
  8
AM_0
 10
200.13332222034751
 20
381.15254872951141
 30
0.0
 40
1.0
 50
0.0
 51
90.0
  0
LINE
  5
8EE5
  8
AM_0
 10
163.13332222034791
 20
422.43257872951131
 30
0.0
 11
210.95333222034779
 21
422.43257872951131
 31
0.0
  0
LINE
  5
8EE6
  8
AM_0
 10
207.47335222034781
 20
423.15254872951141
 30
0.0
 11
163.13332222034791
 21
423.15254872951141
 31
0.0
  0
ARC
  5
8EE7
  8
AM_0
 10
131.45974222034781
 20
393.76252872951142
 30
0.0
 40
1.5
 50
1.5000026999989771
 51
90.000003000000945
  0
ARC
  5
8EE8
  8
AM_0
 10
142.57204222034781
 20
454.1525487295113
 30
0.0
 40
1.0000056999999991
 50
269.999989999999
 51
90.000003000000945
  0
ARC
  5
8EE9
  8
AM_0
 10
142.57204222034781
 20
444.1525487295113
 30
0.0
 40
1.0000056999999991
 50
269.999989999999
 51
90.000003000000945
  0
ARC
  5
8EEA
  8
AM_0
 10
143.79830222034789
 20
444.14253872951127
 30
0.0
 40
1.3300148000000001
 50
269.72941999999853
 51
90.270567000000995
  0
ARC
  5
8EEB
  8
AM_0
 10
143.8602522203478
 20
454.1525487295113
 30
0.0
 40
1.2700266
 50
269.62931999999989
 51
90.370670000001468
  0
ARC
  5
8EEC
  8
AM_0
 10
210.95333222034779
 20
424.11250872951138
 30
0.0
 40
1.6800077
 50
269.999989999999
 51
90.000003000000945
  0
ARC
  5
8EED
  8
AM_0
 10
207.47335222034781
 20
424.1525487295113
 30
0.0
 40
1.0000040999999991
 50
269.999989999999
 51
90.000003000000945
  0
LINE
  5
8EEE
  8
AM_0
 10
208.8733122203478
 20
398.78260872951131
 30
0.0
 11
212.33330222034789
 21
411.6925787295113
 31
0.0
  0
LINE
  5
8EEF
  8
AM_0
 10
194.64693222034791
 20
389.15254872951118
 30
0.0
 11
206.14950222034781
 21
389.15254872951118
 31
0.0
  0
LINE
  5
8EF0
  8
AM_0
 10
213.13332222034771
 20
398.65260872951143
 30
0.0
 11
207.40752222034811
 21
389.83567872951141
 31
0.0
  0
ARC
  5
8EF1
  8
AM_0
 10
215.1263622203478
 20
396.64558872951142
 30
0.0
 40
0.99304521
 50
179.5973099999994
 51
270.40267999999998
  0
ARC
  5
8EF2
  8
AM_0
 10
206.14950222034781
 20
390.6525487295113
 30
0.0
 40
1.5
 50
269.999989999999
 51
326.99999999999801
  0
LINE
  5
8EF3
  8
AM_0
 10
208.84334222034789
 20
398.6525487295113
 30
0.0
 11
214.13332222034771
 21
398.6525487295113
 31
0.0
  0
ARC
  5
8EF4
  8
AM_0
 10
206.93459222034789
 20
399.2987887295115
 30
0.0
 40
2.0062942999999991
 50
270.24932999999891
 51
345.08844000000039
  0
ARC
  5
8EF5
  8
AM_0
 10
215.12569222034779
 20
408.1049387295115
 30
0.0
 40
0.99237448
 50
179.55802000000131
 51
270.4419699999998
  0
ARC
  5
8EF6
  8
AM_0
 10
213.77700222034781
 20
411.30879872951152
 30
0.0
 40
1.4937901
 50
89.756423999998475
 51
165.11292000000071
  0
ARC
  5
8EF7
  8
AM_0
 10
175.13332222034779
 20
431.6525487295113
 30
0.0
 40
1.5
 50
0.0
 51
90.000003000000945
  0
ARC
  5
8EF8
  8
AM_0
 10
175.13332222034779
 20
431.6525487295113
 30
0.0
 40
1.02
 50
0.0
 51
90.000003000000945
  0
ARC
  5
8EF9
  8
AM_0
 10
175.13332222034779
 20
426.6525487295113
 30
0.0
 40
1.5
 50
269.999989999999
 51
0.0000006832462478
  0
ARC
  5
8EFA
  8
AM_0
 10
175.15334222034781
 20
426.7925587295112
 30
0.0
 40
1.0
 50
269.999989999999
 51
0.0000006832462478
  0
LINE
  5
8EFB
  8
AM_0
 10
176.63332222034779
 20
431.6525487295113
 30
0.0
 11
176.63332222034779
 21
426.6525487295113
 31
0.0
  0
LINE
  5
8EFC
  8
AM_0
 10
176.15334222034801
 20
431.6525487295113
 30
0.0
 11
176.15334222034801
 21
426.7925587295112
 31
0.0
  0
CIRCLE
  5
8EFD
  8
AM_0
 10
181.63332222034771
 20
430.6525487295113
 30
0.0
 40
1.1000000000000001
  0
CIRCLE
  5
8EFE
  8
AM_0
 10
181.63332222034771
 20
430.6525487295113
 30
0.0
 40
1.149999999999999
  0
CIRCLE
  5
8EFF
  8
AM_0
 10
186.63332222034771
 20
430.6525487295113
 30
0.0
 40
1.0
  0
LINE
  5
8F00
  8
AM_0
 10
207.46615222034771
 20
433.1525487295113
 30
0.0
 11
193.13332222034799
 21
433.1525487295113
 31
0.0
  0
LINE
  5
8F01
  8
AM_0
 10
207.47335222034781
 20
425.1525487295113
 30
0.0
 11
193.13332222034799
 21
425.1525487295113
 31
0.0
  0
LINE
  5
8F02
  8
AM_0
 10
193.13332222034799
 20
432.67256872951123
 30
0.0
 11
211.1675622203478
 21
432.67256872951123
 31
0.0
  0
LINE
  5
8F03
  8
AM_0
 10
193.1133022203478
 20
425.79255872951131
 30
0.0
 11
210.95333222034779
 21
425.79255872951131
 31
0.0
  0
ARC
  5
8F04
  8
AM_0
 10
193.13332222034799
 20
431.6525487295113
 30
0.0
 40
1.5
 50
90.000003000000945
 51
180.00001000000091
  0
ARC
  5
8F05
  8
AM_0
 10
193.13332222034799
 20
431.6525487295113
 30
0.0
 40
1.02
 50
90.000003000000945
 51
180.00001000000091
  0
ARC
  5
8F06
  8
AM_0
 10
193.13332222034799
 20
426.6525487295113
 30
0.0
 40
1.5
 50
179.99998999999889
 51
270.0
  0
ARC
  5
8F07
  8
AM_0
 10
193.1133022203478
 20
426.7925587295112
 30
0.0
 40
1.0
 50
179.99998999999889
 51
270.0
  0
LINE
  5
8F08
  8
AM_0
 10
191.63332222034771
 20
431.6525487295113
 30
0.0
 11
191.63332222034771
 21
426.6525487295113
 31
0.0
  0
LINE
  5
8F09
  8
AM_0
 10
192.1133022203478
 20
431.6525487295113
 30
0.0
 11
192.1133022203478
 21
426.7925587295112
 31
0.0
  0
ARC
  5
8F0A
  8
AM_0
 10
207.47329222034779
 20
434.1525487295113
 30
0.0
 40
1.0000255999999981
 50
269.58946999999989
 51
90.410531000001029
  0
ARC
  5
8F0B
  8
AM_0
 10
211.17330222034789
 20
434.12251872951128
 30
0.0
 40
1.460011199999999
 50
269.77524999999991
 51
90.224750000000114
  0
LINE
  5
8F0C
  8
AM_0
 10
215.13332222034779
 20
522.6525487295113
 30
0.0
 11
222.13332222034799
 21
522.6525487295113
 31
0.0
  0
LINE
  5
8F0D
  8
AM_0
 10
215.13332222034779
 20
511.1925787295113
 30
0.0
 11
222.13332222034799
 21
511.1925787295113
 31
0.0
  0
LINE
  5
8F0E
  8
AM_0
 10
214.13332222034771
 20
496.30256872951128
 30
0.0
 11
222.13332222034799
 21
496.30256872951128
 31
0.0
  0
ARC
  5
8F0F
  8
AM_0
 10
142.57204222034781
 20
474.1525487295113
 30
0.0
 40
1.0000056999999991
 50
269.999989999999
 51
90.000003000000945
  0
ARC
  5
8F10
  8
AM_0
 10
142.57204222034781
 20
464.1525487295113
 30
0.0
 40
1.0000056999999991
 50
269.999989999999
 51
90.000003000000945
  0
ARC
  5
8F11
  8
AM_0
 10
143.8602522203478
 20
464.16255872951132
 30
0.0
 40
1.2700266
 50
269.62931999999989
 51
90.370670000001468
  0
ARC
  5
8F12
  8
AM_0
 10
143.79830222034789
 20
474.1675587295112
 30
0.0
 40
1.3350147999999991
 50
269.73042999999973
 51
90.269556000001344
  0
ARC
  5
8F13
  8
AM_0
 10
210.95333222034779
 20
494.20258872951132
 30
0.0
 40
1.6800077
 50
269.999989999999
 51
90.000003000000945
  0
ARC
  5
8F14
  8
AM_0
 10
207.47335222034781
 20
494.1525487295113
 30
0.0
 40
1.0000040999999991
 50
269.999989999999
 51
90.000003000000945
  0
ARC
  5
8F15
  8
AM_0
 10
175.13332222034779
 20
486.6525487295113
 30
0.0
 40
1.5
 50
269.999989999999
 51
0.0000006832462478
  0
ARC
  5
8F16
  8
AM_0
 10
175.13332222034779
 20
486.6525487295113
 30
0.0
 40
1.02
 50
269.999989999999
 51
0.0000006832429909
  0
ARC
  5
8F17
  8
AM_0
 10
175.13332222034779
 20
491.6525487295113
 30
0.0
 40
1.5
 50
0.0
 51
90.000003000000945
  0
ARC
  5
8F18
  8
AM_0
 10
175.15334222034781
 20
491.5125287295113
 30
0.0
 40
1.0
 50
0.0
 51
90.000003000000945
  0
LINE
  5
8F19
  8
AM_0
 10
176.15334222034801
 20
486.6525487295113
 30
0.0
 11
176.15334222034801
 21
491.5125287295113
 31
0.0
  0
LINE
  5
8F1A
  8
AM_0
 10
176.63332222034779
 20
486.6525487295113
 30
0.0
 11
176.63332222034779
 21
491.6525487295113
 31
0.0
  0
CIRCLE
  5
8F1B
  8
AM_0
 10
181.63332222034771
 20
487.6525487295113
 30
0.0
 40
1.149999999999999
  0
CIRCLE
  5
8F1C
  8
AM_0
 10
181.63332222034771
 20
487.6525487295113
 30
0.0
 40
1.1000000000000001
  0
CIRCLE
  5
8F1D
  8
AM_0
 10
186.63332222034771
 20
487.6525487295113
 30
0.0
 40
1.0
  0
LINE
  5
8F1E
  8
AM_0
 10
207.47335222034781
 20
493.1525487295113
 30
0.0
 11
193.13332222034799
 21
493.1525487295113
 31
0.0
  0
LINE
  5
8F1F
  8
AM_0
 10
207.48049222034811
 20
485.1525487295113
 30
0.0
 11
193.13332222034799
 21
485.1525487295113
 31
0.0
  0
LINE
  5
8F20
  8
AM_0
 10
193.1133022203478
 20
492.5225387295115
 30
0.0
 11
210.95333222034779
 21
492.5225387295115
 31
0.0
  0
LINE
  5
8F21
  8
AM_0
 10
193.13332222034799
 20
485.64253872951127
 30
0.0
 11
211.1790422203479
 21
485.64253872951127
 31
0.0
  0
ARC
  5
8F22
  8
AM_0
 10
193.13332222034799
 20
486.6525487295113
 30
0.0
 40
1.5
 50
179.99998999999889
 51
270.0
  0
ARC
  5
8F23
  8
AM_0
 10
193.13332222034799
 20
486.6525487295113
 30
0.0
 40
1.02
 50
179.99998999999889
 51
270.0
  0
ARC
  5
8F24
  8
AM_0
 10
193.13332222034799
 20
491.6525487295113
 30
0.0
 40
1.5
 50
90.000003000000945
 51
180.00001000000091
  0
ARC
  5
8F25
  8
AM_0
 10
193.1133022203478
 20
491.5125287295113
 30
0.0
 40
1.0
 50
90.000003000000945
 51
180.00001000000091
  0
LINE
  5
8F26
  8
AM_0
 10
191.63332222034771
 20
486.6525487295113
 30
0.0
 11
191.63332222034771
 21
491.6525487295113
 31
0.0
  0
LINE
  5
8F27
  8
AM_0
 10
192.1133022203478
 20
486.6525487295113
 30
0.0
 11
192.1133022203478
 21
491.5125287295113
 31
0.0
  0
ARC
  5
8F28
  8
AM_0
 10
211.17330222034789
 20
484.18257872951142
 30
0.0
 40
1.460011199999999
 50
269.77524999999991
 51
90.224750000000114
  0
ARC
  5
8F29
  8
AM_0
 10
207.47329222034779
 20
484.1525487295113
 30
0.0
 40
1.0000255999999981
 50
269.58946999999989
 51
90.410531000001029
  0
LINE
  5
8F2A
  8
AM_0
 10
209.6835222203479
 20
523.88773872951117
 30
0.0
 11
212.37337222034779
 21
511.37251872951128
 31
0.0
  0
LINE
  5
8F2B
  8
AM_0
 10
208.87334222034781
 20
519.53248872951121
 30
0.0
 11
212.33333222034781
 21
506.6125387295113
 31
0.0
  0
ARC
  5
8F2C
  8
AM_0
 10
213.839012220348
 20
511.69282872951129
 30
0.0
 40
1.500286
 50
192.3263099999981
 51
270.16416999999848
  0
LINE
  5
8F2D
  8
AM_0
 10
213.84334222034801
 20
510.19257872951141
 30
0.0
 11
211.42336222034791
 21
510.19257872951141
 31
0.0
  0
ARC
  5
8F2E
  8
AM_0
 10
213.78347222034779
 20
507.00483872951128
 30
0.0
 40
1.5022733999999991
 50
195.1365099999997
 51
269.99412000000041
  0
ARC
  5
8F2F
  8
AM_0
 10
215.1324122203479
 20
510.19343872951129
 30
0.0
 40
0.9990923399999999
 50
89.947921999999295
 51
180.05208000000101
  0
ARC
  5
8F30
  8
AM_0
 10
206.9427722203479
 20
519.01338872951146
 30
0.0
 40
1.9991226
 50
15.05079100000003
 51
89.984388999999666
  0
LINE
  5
8F31
  8
AM_0
 10
210.59377222034789
 20
519.65254872951118
 30
0.0
 11
214.13332222034771
 21
519.65254872951118
 31
0.0
  0
ARC
  5
8F32
  8
AM_0
 10
208.36098222034781
 20
522.90254872951118
 30
0.0
 40
1.5
 50
12.12979199999887
 51
90.000003000000945
  0
ARC
  5
8F33
  8
AM_0
 10
208.21700222034781
 20
523.57258872951115
 30
0.0
 40
1.5
 50
12.12979199999887
 51
90.000003000000945
  0
ARC
  5
8F34
  8
AM_0
 10
208.65328222034771
 20
521.54255872951126
 30
0.0
 40
1.5
 50
12.12979199999887
 51
90.000003000000945
  0
ARC
  5
8F35
  8
AM_0
 10
215.13314222034799
 20
521.65278872951126
 30
0.0
 40
0.99980682
 50
89.98893100000069
 51
180.0110700000007
  0
TEXT
  5
942B
  8
0
  6
CONTINUOUS
 62
     0
 10
497.18636223042671
 20
436.12226876944919
 30
0.0
 40
15.0
  1
VX04-120BF~VX04-200BF
  0
VIEWPORT
  5
89
 67
     1
  8
0
 10
210.0
 20
148.5
 30
0.0
 40
420.0
 41
297.0
 68
    -1
 69
     1
1001
ACAD
1000
MVIEW
1002
{
1070
    16
1010
0.0
1020
0.0
1030
0.0
1010
0.0
1020
0.0
1030
1.0
1040
0.0
1040
297.0
1040
221.70154043645701
1040
148.5
1040
50.0
1040
0.0
1040
0.0
1070
     0
1070
   100
1070
     1
1070
     1
1070
     0
1070
     0
1070
     0
1070
     0
1040
0.0
1040
0.0
1040
0.0
1040
10.0
1040
10.0
1040
10.0
1040
10.0
1070
     0
1002
{
1002
}
1002
}
1001
GENIUS_GENOREF_13
1005
1B94
1001
GENIUS_GENSCREG_15
1000
PF
1040
1.0
1000
DF
1040
1.0
1000
MIN
1011
0.0
1021
0.0
1031
0.0
1021
0.0
1031
0.0
1000
MAX
1011
420.0
1021
0.0
1031
0.0
1021
297.0
1031
0.0
1000
FLAGS
1070
     4
  0
ENDSEC
  0
EOF
