  0
SECTION
  2
HEADER
  9
$ACADVER
  1
AC1009
  9
$INSBASE
 10
0.0
 20
0.0
 30
0.0
  9
$EXTMIN
 10
5.3647803402127456
 20
8.4839207182430982
 30
-0.0015258207003583
  9
$EXTMAX
 10
1009.170978337643
 20
703.76135737544814
 30
0.0000000349246037
  9
$LIMMIN
 10
0.0
 20
0.0
  9
$LIMMAX
 10
408.0
 20
284.0
  9
$ORTHOMODE
 70
     0
  9
$REGENMODE
 70
     1
  9
$FILLMODE
 70
     1
  9
$QTEXTMODE
 70
     0
  9
$MIRRTEXT
 70
     1
  9
$DRAGMODE
 70
     2
  9
$LTSCALE
 40
1.0
  9
$OSMODE
 70
   551
  9
$ATTMODE
 70
     1
  9
$TEXTSIZE
 40
2.5
  9
$TRACEWID
 40
1.0
  9
$TEXTSTYLE
  7
STANDARD
  9
$CLAYER
  8
AM_0
  9
$CELTYPE
  6
BYLAYER
  9
$CECOLOR
 62
   256
  9
$DIMSCALE
 40
1.0
  9
$DIMASZ
 40
2.5
  9
$DIMEXO
 40
1.0
  9
$DIMDLI
 40
7.0
  9
$DIMRND
 40
0.0
  9
$DIMDLE
 40
0.0
  9
$DIMEXE
 40
1.0
  9
$DIMTP
 40
0.1
  9
$DIMTM
 40
0.1000000001
  9
$DIMTXT
 40
2.5
  9
$DIMCEN
 40
0.0
  9
$DIMTSZ
 40
0.0
  9
$DIMTOL
 70
     0
  9
$DIMLIM
 70
     0
  9
$DIMTIH
 70
     0
  9
$DIMTOH
 70
     0
  9
$DIMSE1
 70
     0
  9
$DIMSE2
 70
     0
  9
$DIMTAD
 70
     3
  9
$DIMZIN
 70
     8
  9
$DIMBLK
  1

  9
$DIMASO
 70
     1
  9
$DIMSHO
 70
     1
  9
$DIMPOST
  1

  9
$DIMAPOST
  1
"
  9
$DIMALT
 70
     0
  9
$DIMALTD
 70
     2
  9
$DIMALTF
 40
0.0393701
  9
$DIMLFAC
 40
1.0
  9
$DIMTOFL
 70
     1
  9
$DIMTVP
 40
0.0
  9
$DIMTIX
 70
     0
  9
$DIMSOXD
 70
     0
  9
$DIMSAH
 70
     0
  9
$DIMBLK1
  1

  9
$DIMBLK2
  1

  9
$DIMSTYLE
  2
AM_JIS
  9
$DIMCLRD
 70
   256
  9
$DIMCLRE
 70
   256
  9
$DIMCLRT
 70
     4
  9
$DIMTFAC
 40
0.71
  9
$DIMGAP
 40
1.0
  9
$LUNITS
 70
     2
  9
$LUPREC
 70
     2
  9
$SKETCHINC
 40
1.0
  9
$FILLETRAD
 40
2.5
  9
$AUNITS
 70
     0
  9
$AUPREC
 70
     3
  9
$MENU
  1
.
  9
$ELEVATION
 40
0.0
  9
$PELEVATION
 40
0.0
  9
$THICKNESS
 40
0.0
  9
$LIMCHECK
 70
     0
  9
$BLIPMODE
 70
     0
  9
$CHAMFERA
 40
2.5
  9
$CHAMFERB
 40
2.5
  9
$SKPOLY
 70
     0
  9
$TDCREATE
 40
2453062.5732593639
  9
$TDUPDATE
 40
2458541.3665731018
  9
$TDINDWG
 40
0.0396673958
  9
$TDUSRTIMER
 40
0.0396671991
  9
$USRTIMER
 70
     1
  9
$ANGBASE
 50
0.0
  9
$ANGDIR
 70
     0
  9
$PDMODE
 70
     0
  9
$PDSIZE
 40
0.0
  9
$PLINEWID
 40
0.0
  9
$COORDS
 70
     1
  9
$SPLFRAME
 70
     0
  9
$SPLINETYPE
 70
     6
  9
$SPLINESEGS
 70
     8
  9
$ATTDIA
 70
     1
  9
$ATTREQ
 70
     1
  9
$HANDLING
 70
     1
  9
$HANDSEED
  5
95A7
  9
$SURFTAB1
 70
     6
  9
$SURFTAB2
 70
     6
  9
$SURFTYPE
 70
     6
  9
$SURFU
 70
     6
  9
$SURFV
 70
     6
  9
$UCSNAME
  2

  9
$UCSORG
 10
0.0
 20
0.0
 30
0.0
  9
$UCSXDIR
 10
1.0
 20
0.0
 30
0.0
  9
$UCSYDIR
 10
0.0
 20
1.0
 30
0.0
  9
$PUCSNAME
  2

  9
$PUCSORG
 10
0.0
 20
0.0
 30
0.0
  9
$PUCSXDIR
 10
1.0
 20
0.0
 30
0.0
  9
$PUCSYDIR
 10
0.0
 20
1.0
 30
0.0
  9
$USERI1
 70
     0
  9
$USERI2
 70
     0
  9
$USERI3
 70
     0
  9
$USERI4
 70
     0
  9
$USERI5
 70
     0
  9
$USERR1
 40
0.0
  9
$USERR2
 40
0.0
  9
$USERR3
 40
0.0
  9
$USERR4
 40
0.0
  9
$USERR5
 40
0.0
  9
$WORLDVIEW
 70
     1
  9
$SHADEDGE
 70
     3
  9
$SHADEDIF
 70
    70
  9
$TILEMODE
 70
     1
  9
$MAXACTVP
 70
    48
  9
$PLIMCHECK
 70
     0
  9
$PEXTMIN
 10
1.0000000000000000E+020
 20
1.0000000000000000E+020
 30
1.0000000000000000E+020
  9
$PEXTMAX
 10
-1.0000000000000000E+020
 20
-1.0000000000000000E+020
 30
-1.0000000000000000E+020
  9
$PLIMMIN
 10
0.0
 20
0.0
  9
$PLIMMAX
 10
420.0
 20
297.0
  9
$UNITMODE
 70
     0
  9
$VISRETAIN
 70
     1
  9
$PLINEGEN
 70
     0
  9
$PSLTSCALE
 70
     1
  0
ENDSEC
  0
SECTION
  2
TABLES
  0
TABLE
  2
VPORT
 70
     1
  0
VPORT
  2
*ACTIVE
 70
     0
 10
0.0
 20
0.0
 11
1.0
 21
1.0
 12
507.26787933892763
 22
356.12263904684562
 13
0.0
 23
0.0
 14
1.0
 24
1.0
 15
10.0
 25
10.0
 16
0.0
 26
0.0
 36
1.0
 17
0.0
 27
0.0
 37
0.0
 40
700.05050830473726
 41
1.7571592210767459
 42
50.0
 43
0.0
 44
0.0
 50
0.0
 51
0.0
 71
     0
 72
   100
 73
     1
 74
     1
 75
     0
 76
     0
 77
     0
 78
     0
  0
ENDTAB
  0
TABLE
  2
LTYPE
 70
    25
  0
LTYPE
  2
CONTINUOUS
 70
     0
  3
Solid line
 72
    65
 73
     0
 40
0.0
  0
LTYPE
  2
PHANTOM2
 70
     0
  3
Phantom (.5x) ___ _ _ ___ _ _ ___ _ _ ___ _ _
 72
    65
 73
     6
 40
31.75
 49
15.875
 49
-3.174999999999998
 49
3.174999999999998
 49
-3.174999999999998
 49
3.174999999999998
 49
-3.174999999999998
  0
LTYPE
  2
CENTER
 70
     0
  3
Center ____ _ ____ _ ____ _ ____ _ ____ _ ____
 72
    65
 73
     4
 40
50.799999999999997
 49
31.75
 49
-6.3499999999999979
 49
6.3499999999999979
 49
-6.3499999999999979
  0
LTYPE
  2
ACANSTGBM
 70
     0
  3
__ . . __ . .
 72
    65
 73
     6
 40
9.0
 49
4.0
 49
-1.0
 49
1.0
 49
-1.0
 49
1.0
 49
-1.0
  0
LTYPE
  2
ACANSTGLM
 70
     0
  3
_ _ _ _ _
 72
    65
 73
     2
 40
3.0
 49
2.0
 49
-1.0
  0
LTYPE
  2
GEN7
 70
     0
  3
____ . ____ . ____ . ____ . ____ . ____ . ____
 72
    65
 73
     4
 40
14.25
 49
9.75
 49
-1.5
 49
1.5
 49
-1.5
  0
LTYPE
  2
AM_ISO02W050
 70
     0
  3
__ __ __ __ __ __ __ __ __ __ __ __ __ __ __
 72
    65
 73
     2
 40
7.5
 49
6.0
 49
-1.5
  0
LTYPE
  2
AM_ISO08W050
 70
     0
  3
____ . ____ . ____ . ____ . ____ . ____ . ____
 72
    65
 73
     4
 40
18.0
 49
12.0
 49
-1.5
 49
3.0
 49
-1.5
  0
LTYPE
  2
AM_ISO09W050
 70
     0
  3
_____ . . _____ . . _____ . . ____ .. ____
 72
    65
 73
     6
 40
22.5
 49
12.0
 49
-1.5
 49
3.0
 49
-1.5
 49
3.0
 49
-1.5
  0
LTYPE
  2
AMCONSTR
 70
     0
  3
_______________________
 72
    65
 73
     2
 40
9999.0
 49
9999.0
 49
0.0
  0
LTYPE
  2
AM_ISO02W050X2
 70
     0
  3
 _ _ _ _ _ _ _ _ _ _ _ _
 72
    65
 73
     2
 40
3.75
 49
3.0
 49
-0.75
  0
LTYPE
  2
AM_ISO08W050X2
 70
     0
  3
__ . __ . __ . __ . __ . __
 72
    65
 73
     4
 40
9.0
 49
6.0
 49
-0.75
 49
1.5
 49
-0.75
  0
LTYPE
  2
AMZIGZAG
 70
     0
  3
/\/-/\/-/\/-/\/-/\/-/\/
 72
    65
 73
     2
 40
11.000099999999991
 49
0.0001
 49
-11.0
  0
LTYPE
  2
ACJISTGB
 70
     0
  3
__ . . __ . .
 72
    65
 73
     6
 40
9.0
 49
4.0
 49
-1.0
 49
1.0
 49
-1.0
 49
1.0
 49
-1.0
  0
LTYPE
  2
ACJISTGL
 70
     0
  3
_ _ _ _ _
 72
    65
 73
     2
 40
3.0
 49
2.0
 49
-1.0
  0
LTYPE
  2
ACISOWELD
 70
     0
  3
_ _ _ _ _
 72
    65
 73
     2
 40
2.0
 49
2.0
 49
-1.0
  0
LTYPE
  2
ACISOTGB
 70
     0
  3
__ . . __ . .
 72
    65
 73
     6
 40
9.0
 49
4.0
 49
-1.0
 49
1.0
 49
-1.0
 49
1.0
 49
-1.0
  0
LTYPE
  2
ACISOTGL
 70
     0
  3
_ _ _ _ _
 72
    65
 73
     2
 40
3.0
 49
2.0
 49
-1.0
  0
LTYPE
  2
HIDDEN
 70
     0
  3
Hidden __ __ __ __ __ __ __ __ __ __ __ __ __ _
 72
    65
 73
     2
 40
0.375
 49
0.25
 49
-0.125
  0
LTYPE
  2
CENTER2
 70
     0
  3
Center (.5x) ___ _ ___ _ ___ _ ___ _ ___ _ ___
 72
    65
 73
     4
 40
1.125
 49
0.75
 49
-0.125
 49
0.125
 49
-0.125
  0
LTYPE
  2
HIDDEN2
 70
     0
  3
Hidden (.5x) _ _ _ _ _ _ _ _ _ _ _ _ _ _ _ _ _
 72
    65
 73
     2
 40
0.1875
 49
0.125
 49
-0.0625
  0
LTYPE
  2
AMZIGZAG2
 70
     0
  3
/\/-/\/-/\/-/\/-/\/-/\/
 72
    65
 73
     2
 40
0.4401
 49
0.0001
 49
-0.4400000000000001
  0
LTYPE
  2
ACANSTGB
 70
     0
  3
__ . . __ . .
 72
    65
 73
     6
 40
0.35433070866
 49
0.15748031496
 49
-0.03937007874
 49
0.03937007874
 49
-0.03937007874
 49
0.03937007874
 49
-0.03937007874
  0
LTYPE
  2
ACANSTGL
 70
     0
  3
_ _ _ _ _
 72
    65
 73
     2
 40
0.11811023622
 49
0.07874015748
 49
-0.03937007874
  0
ENDTAB
  0
TABLE
  2
LAYER
 70
     6
  0
LAYER
  2
0
 70
     0
 62
     7
  6
CONTINUOUS
  0
LAYER
  2
AM_0
 70
     0
 62
     7
  6
CONTINUOUS
  0
LAYER
  2
DEFPOINTS
 70
     0
 62
     7
  6
CONTINUOUS
  0
LAYER
  2
ﾁｭｳｼﾝｾﾝ
 70
     0
 62
     1
  6
GEN7
  0
LAYER
  2
AM_0N
 70
     0
 62
     7
  6
CONTINUOUS
  0
LAYER
  2
AM_5
 70
     0
 62
     2
  6
CONTINUOUS
  0
ENDTAB
  0
TABLE
  2
STYLE
 70
    10
  0
STYLE
  2
STANDARD
 70
     0
 40
0.0
 41
0.8299999999999999
 50
0.0
 71
     0
 42
2.5
  3
txt.shx
  4
bigfont.shx
  0
STYLE
  2
ANNOTATIVE
 70
     0
 40
0.0
 41
1.0
 50
0.0
 71
     0
 42
0.2
  3
txt
  4

  0
STYLE
  2
ACANSTS
 70
     0
 40
1.0
 41
1.0
 50
0.0
 71
     0
 42
2.5
  3
romans.shx
  4
bigfont.shx
  0
STYLE
  2
ACANSGDT
 70
     0
 40
0.0
 41
1.0
 50
0.0
 71
     0
 42
2.5
  3
amgdt.shx
  4

  0
STYLE
  2

 70
     1
 40
0.0
 41
1.0
 50
0.0
 71
     0
 42
2.5
  3
ltypeshp.shx
  4

  0
STYLE
  2
ACJISTS
 70
     0
 40
1.0
 41
0.8299999999999999
 50
0.0
 71
     0
 42
2.5
  3
txt.shx
  4
bigfont.shx
  0
STYLE
  2
ACJISGDT
 70
     0
 40
0.0
 41
1.0
 50
0.0
 71
     0
 42
2.5
  3
amgdt.shx
  4

  0
STYLE
  2
ACISOTS
 70
     0
 40
1.0
 41
1.0
 50
0.0
 71
     0
 42
2.5
  3
isocp.shx
  4
extfont.shx
  0
STYLE
  2
ACISOGDT
 70
     0
 40
0.0
 41
1.0
 50
0.0
 71
     0
 42
2.5
  3
amgdt.shx
  4

  0
STYLE
  2

 70
     1
 40
0.0
 41
1.0
 50
0.0
 71
     0
 42
2.5
  3
genltshp.shx
  4

  0
ENDTAB
  0
TABLE
  2
VIEW
 70
    12
  0
VIEW
  2
GEN1
 70
     0
 40
95.824742268041234
 10
71.5
 20
137.08762886597941
 41
143.0
 11
0.0
 21
0.0
 31
1.0
 12
0.0
 22
0.0
 32
0.0
 42
50.0
 43
0.0
 44
0.0
 50
0.0
 71
     0
  0
VIEW
  2
GEN2
 70
     0
 40
95.824742268041234
 10
214.5
 20
137.08762886597941
 41
143.0
 11
0.0
 21
0.0
 31
1.0
 12
0.0
 22
0.0
 32
0.0
 42
50.0
 43
0.0
 44
0.0
 50
0.0
 71
     0
  0
VIEW
  2
GEN3
 70
     0
 40
95.824742268041234
 10
71.5
 20
47.912371134020603
 41
143.0
 11
0.0
 21
0.0
 31
1.0
 12
0.0
 22
0.0
 32
0.0
 42
50.0
 43
0.0
 44
0.0
 50
0.0
 71
     0
  0
VIEW
  2
GEN4
 70
     0
 40
95.824742268041234
 10
214.5
 20
47.912371134020603
 41
143.0
 11
0.0
 21
0.0
 31
1.0
 12
0.0
 22
0.0
 32
0.0
 42
50.0
 43
0.0
 44
0.0
 50
0.0
 71
     0
  0
VIEW
  2
GEN5
 70
     0
 40
95.824742268041234
 10
143.0
 20
92.500000000000057
 41
143.0
 11
0.0
 21
0.0
 31
1.0
 12
0.0
 22
0.0
 32
0.0
 42
50.0
 43
0.0
 44
0.0
 50
0.0
 71
     0
  0
VIEW
  2
GEN6
 70
     0
 40
191.64756804123709
 10
143.0
 20
92.5
 41
285.99713999999989
 11
0.0
 21
0.0
 31
1.0
 12
0.0
 22
0.0
 32
0.0
 42
50.0
 43
0.0
 44
0.0
 50
0.0
 71
     0
  0
VIEW
  2
AM_VIEW1
 70
     0
 40
142.0
 10
119.7777777777777
 20
213.0
 41
239.55555555555549
 11
0.0
 21
0.0
 31
1.0
 12
0.0
 22
0.0
 32
0.0
 42
50.0
 43
0.0
 44
0.0
 50
0.0
 71
     0
  0
VIEW
  2
AM_VIEW2
 70
     0
 40
142.0
 10
288.22222222222211
 20
213.0
 41
239.55555555555549
 11
0.0
 21
0.0
 31
1.0
 12
0.0
 22
0.0
 32
0.0
 42
50.0
 43
0.0
 44
0.0
 50
0.0
 71
     0
  0
VIEW
  2
AM_VIEW3
 70
     0
 40
142.0
 10
119.7777777777777
 20
71.0
 41
239.55555555555549
 11
0.0
 21
0.0
 31
1.0
 12
0.0
 22
0.0
 32
0.0
 42
50.0
 43
0.0
 44
0.0
 50
0.0
 71
     0
  0
VIEW
  2
AM_VIEW4
 70
     0
 40
142.0
 10
288.22222222222211
 20
71.0
 41
239.55555555555549
 11
0.0
 21
0.0
 31
1.0
 12
0.0
 22
0.0
 32
0.0
 42
50.0
 43
0.0
 44
0.0
 50
0.0
 71
     0
  0
VIEW
  2
AM_VIEW5
 70
     0
 40
142.0
 10
204.0
 20
142.0
 41
239.55555555555549
 11
0.0
 21
0.0
 31
1.0
 12
0.0
 22
0.0
 32
0.0
 42
50.0
 43
0.0
 44
0.0
 50
0.0
 71
     0
  0
VIEW
  2
AM_VIEW6
 70
     0
 40
283.99716000000001
 10
204.0
 20
142.0
 41
479.10631999999993
 11
0.0
 21
0.0
 31
1.0
 12
0.0
 22
0.0
 32
0.0
 42
50.0
 43
0.0
 44
0.0
 50
0.0
 71
     0
  0
ENDTAB
  0
TABLE
  2
UCS
 70
     0
  0
ENDTAB
  0
TABLE
  2
APPID
 70
   106
  0
APPID
  2
ACAD
 70
     0
  0
APPID
  2
ACADANNOTATIVE
 70
     0
  0
APPID
  2
MCAD_NO_VIS
 70
     0
  0
APPID
  2
ACAD_TEMP_GRAPHIC
 70
     0
  0
APPID
  2
AD_DRAW
 70
     0
  0
APPID
  2
DESIGNERASSEMBLIES
 70
     0
  0
APPID
  2
ASURF_PCURVE_APPNAME
 70
     0
  0
APPID
  2
GENIUS_GE3SECT_13
 70
     0
  0
APPID
  2
GENIUS_GENCFG_13
 70
     0
  0
APPID
  2
GENIUS_GE3CFG0_13
 70
     0
  0
APPID
  2
GENIUS_GENCFG0_13
 70
     0
  0
APPID
  2
GENIUS_GENCFG1_13
 70
     0
  0
APPID
  2
GENIUS_GENCFG2_13
 70
     0
  0
APPID
  2
GENIUS_GENCFG3_13
 70
     0
  0
APPID
  2
GENIUS_GENCFG4_13
 70
     0
  0
APPID
  2
GENIUS_GEVCFG0_13
 70
     0
  0
APPID
  2
GENIUS_GENOENT_13
 70
     0
  0
APPID
  2
GENIUS_GENREC_14
 70
     0
  0
APPID
  2
GENIUS_GENODEF_13
 70
     0
  0
APPID
  2
GENIUS_GENOBJ-N-REC_13
 70
     0
  0
APPID
  2
GENIUS_GENHINW_13
 70
     0
  0
APPID
  2
GENIUS_FIRSTVISTXT_14
 70
     0
  0
APPID
  2
GENIUS_GENOBJ-N-LEADER_13
 70
     0
  0
APPID
  2
GENIUS_GENOREF_13
 70
     0
  0
APPID
  2
GENIUS_GENOLIS_13
 70
     0
  0
APPID
  2
GEV_VCCNULL_SWITCH_OFF
 70
     0
  0
APPID
  2
GENIUS_GENDTOL_13
 70
     0
  0
APPID
  2
GENIUS_GEFCFG0_13
 70
     0
  0
APPID
  2
GENIUS_GENOBJ-N-TIT_13
 70
     0
  0
APPID
  2
GENIUS_GENTITLE_13
 70
     0
  0
APPID
  2
GENIUS_GENZVEED_13
 70
     0
  0
APPID
  2
GENIUS_GENOBJ-N-SDF_13
 70
     0
  0
APPID
  2
GENIUS_GENSCREG_13
 70
     0
  0
APPID
  2
GENIUS_DUMCFG0_13
 70
     0
  0
APPID
  2
GEVID936201362
 70
     0
  0
APPID
  2
GEVDC
 70
     0
  0
APPID
  2
GEVCON
 70
     0
  0
APPID
  2
VCC
 70
     0
  0
APPID
  2
GEVPT
 70
     0
  0
APPID
  2
GEVIT
 70
     0
  0
APPID
  2
GENBH
 70
     0
  0
APPID
  2
GEVMK
 70
     0
  0
APPID
  2
GENIUS_GENBH_13
 70
     0
  0
APPID
  2
GENIUS_GENOBJ-NBEHI-BHF_13
 70
     0
  0
APPID
  2
GENIUS_GENOBJ-NBEHI-BHB_13
 70
     0
  0
APPID
  2
GENIUS_GENOBJ-F-DESC_13
 70
     0
  0
APPID
  2
GENIUS_GEFDESC_14
 70
     0
  0
APPID
  2
GENIUS_GENOBJ-F-PART_13
 70
     0
  0
APPID
  2
GENIUS_GEFSTDP_13
 70
     0
  0
APPID
  2
GENIUS_GEFPARTINS_13
 70
     0
  0
APPID
  2
GENIUS_GENTRA_14
 70
     0
  0
APPID
  2
GENIUS_GENINF13_13
 70
     0
  0
APPID
  2
GENIUS_GENOBJ-N-INFOPT_13
 70
     0
  0
APPID
  2
GENIUS_GENOBJ-N-RSSYM_13
 70
     0
  0
APPID
  2
GENIUS_GENSYMENT_13
 70
     0
  0
APPID
  2
GENIUS_GENSCSYM_13
 70
     0
  0
APPID
  2
GENIUS_GEFINFNAM_13
 70
     0
  0
APPID
  2
GENIUS_GENSCREG_15
 70
     0
  0
APPID
  2
GENIUS_GENOBJ-N-CEN_13
 70
     0
  0
APPID
  2
GENIUS_GENOBJ-N-CRS_13
 70
     0
  0
APPID
  2
GENIUS_GENOBJ-N-CRC_13
 70
     0
  0
APPID
  2
GENIUS_GENCRC_14
 70
     0
  0
APPID
  2
GEVID942827039
 70
     0
  0
APPID
  2
GEVID942827040
 70
     0
  0
APPID
  2
GEVID942827041
 70
     0
  0
APPID
  2
GENIUS_GENOBJ-F-SCPASSM_13
 70
     0
  0
APPID
  2
GENIUS_GENDIMSH_14
 70
     0
  0
APPID
  2
GENIUS_GENFIL_13
 70
     0
  0
APPID
  2
GENIUS_GENOBJ-N-CHA_13
 70
     0
  0
APPID
  2
GENIUS_GENOBJ-N-FIL_13
 70
     0
  0
APPID
  2
GEVID942827042
 70
     0
  0
APPID
  2
GEVID946020473
 70
     0
  0
APPID
  2
GEVID946020474
 70
     0
  0
APPID
  2
GEVID946020475
 70
     0
  0
APPID
  2
GENIUS_GENOBJ-N-HTC_13
 70
     0
  0
APPID
  2
GENIUS_GENHATCH_13
 70
     0
  0
APPID
  2
GEVID948854295
 70
     0
  0
APPID
  2
GEVID939402019
 70
     0
  0
APPID
  2
GEVID952919491
 70
     0
  0
APPID
  2
GEVID952919492
 70
     0
  0
APPID
  2
GENIUS_GEFWELD_13
 70
     0
  0
APPID
  2
GENIUS_GENOBJ-F-WELS_13
 70
     0
  0
APPID
  2
GEVID952919493
 70
     0
  0
APPID
  2
GENIUS_GENOBJ-N-RSBK_13
 70
     0
  0
APPID
  2
GENIUS_GENOBJ-N-LIB_13
 70
     0
  0
APPID
  2
GENIUS_GENSCALE_13
 70
     0
  0
APPID
  2
GEVID986376691
 70
     0
  0
APPID
  2
ACATTRIBSERVICES
 70
     0
  0
APPID
  2
ACADM_DIM_EDIT
 70
     0
  0
APPID
  2
AMDT_DM_ADJ
 70
     0
  0
APPID
  2
GEVID1057795304
 70
     0
  0
APPID
  2
GENIUS_GEFSH_13
 70
     0
  0
APPID
  2
GENIUS_GENOBJ-F-SHS_13
 70
     0
  0
APPID
  2
GENIUS_GENOBJ-N-ADDLEAD_13
 70
     0
  0
APPID
  2
GENIUS_GENMAINADDLEADER_14
 70
     0
  0
APPID
  2
GENIUS_GENADDLEADER_14
 70
     0
  0
APPID
  2
GENIUS_GENDREL_13
 70
     0
  0
APPID
  2
GEVID1121934822
 70
     0
  0
APPID
  2
GEVID1121934823
 70
     0
  0
APPID
  2
GEVID1121934824
 70
     0
  0
APPID
  2
ACAD_DSTYLE_DIMJAG
 70
     0
  0
APPID
  2
ACAD_DSTYLE_DIMBREAK
 70
     0
  0
APPID
  2
ACAD_NAV_VCDISPLAY
 70
     0
  0
APPID
  2
ACADANNOPO
 70
     0
  0
APPID
  2
ACAD_EXEMPT_FROM_CAD_STANDARDS
 70
     0
  0
APPID
  2
ACAD_MLEADERVER
 70
     0
  0
ENDTAB
  0
TABLE
  2
DIMSTYLE
 70
    29
  0
DIMSTYLE
  2
STANDARD
 70
     0
  3

  4

  5

  6

  7

 40
1.0
 41
0.18
 42
0.0625
 43
0.38
 44
0.18
 45
0.0
 46
0.0
 47
0.0
 48
0.0
140
0.18
141
0.09
142
0.0
143
25.399999999999999
144
1.0
145
0.0
146
1.0
147
0.09
 71
     0
 72
     0
 73
     1
 74
     1
 75
     0
 76
     0
 77
     0
 78
     0
170
     0
171
     2
172
     0
173
     0
174
     0
175
     0
176
     0
177
     0
178
     0
  0
DIMSTYLE
  2
ANNOTATIVE
 70
     0
  3

  4

  5

  6

  7

 40
1.0
 41
0.18
 42
0.0625
 43
0.38
 44
0.18
 45
0.0
 46
0.0
 47
0.0
 48
0.0
140
0.18
141
0.09
142
0.0
143
25.399999999999999
144
1.0
145
0.0
146
1.0
147
0.09
 71
     0
 72
     0
 73
     1
 74
     1
 75
     0
 76
     0
 77
     0
 78
     0
170
     0
171
     2
172
     0
173
     0
174
     0
175
     0
176
     0
177
     0
178
     0
  0
DIMSTYLE
  2
AM_JIS
 70
     0
  3

  4
"
  5

  6

  7

 40
1.0
 41
2.0
 42
1.0
 43
8.0
 44
1.0
 45
0.0
 46
0.0
 47
0.1
 48
0.1
140
2.5
141
0.0
142
0.0
143
0.0393701
144
1.0
145
0.0
146
0.71
147
1.5
 71
     0
 72
     0
 73
     0
 74
     0
 75
     0
 76
     0
 77
     3
 78
     8
170
     0
171
     2
172
     1
173
     0
174
     0
175
     0
176
   256
177
   256
178
     4
  0
DIMSTYLE
  2
AM_JIS$3
 70
     0
  3

  4
"
  5

  6

  7

 40
1.0
 41
2.0
 42
1.0
 43
10.0
 44
1.0
 45
0.0
 46
0.0
 47
0.1
 48
0.1
140
2.5
141
0.0
142
0.0
143
0.0393701
144
1.0
145
0.0
146
0.71
147
1.5
 71
     0
 72
     0
 73
     0
 74
     1
 75
     0
 76
     0
 77
     3
 78
     8
170
     0
171
     2
172
     0
173
     0
174
     0
175
     0
176
   256
177
   256
178
     4
  0
DIMSTYLE
  2
AM_JIS$4
 70
     0
  3

  4
"
  5

  6

  7

 40
1.0
 41
2.0
 42
1.0
 43
10.0
 44
1.0
 45
0.0
 46
0.0
 47
0.1
 48
0.1
140
2.5
141
0.0
142
0.0
143
0.0393701
144
1.0
145
0.0
146
0.71
147
1.5
 71
     0
 72
     0
 73
     0
 74
     0
 75
     0
 76
     0
 77
     3
 78
     8
170
     0
171
     2
172
     0
173
     0
174
     0
175
     0
176
   256
177
   256
178
     4
  0
DIMSTYLE
  2
AM_JIS$6
 70
     0
  3

  4
"
  5

  6

  7

 40
1.0
 41
2.0
 42
1.0
 43
10.0
 44
1.0
 45
0.0
 46
0.0
 47
0.1
 48
0.1
140
2.5
141
0.0
142
0.0
143
0.0393701
144
1.0
145
0.0
146
0.71
147
1.5
 71
     0
 72
     0
 73
     0
 74
     0
 75
     0
 76
     0
 77
     0
 78
     8
170
     0
171
     2
172
     1
173
     0
174
     0
175
     0
176
   256
177
   256
178
     4
  0
DIMSTYLE
  2
AM_JIS$7
 70
     0
  3

  4
"
  5

  6

  7

 40
1.0
 41
2.0
 42
1.0
 43
10.0
 44
1.0
 45
0.0
 46
0.0
 47
0.1
 48
0.1
140
2.5
141
0.0
142
0.0
143
0.0393701
144
1.0
145
0.0
146
0.71
147
1.5
 71
     0
 72
     0
 73
     0
 74
     0
 75
     0
 76
     0
 77
     3
 78
     8
170
     0
171
     2
172
     1
173
     0
174
     0
175
     0
176
   256
177
   256
178
     4
  0
DIMSTYLE
  2
AM_JIS$SF
 70
     0
  3

  4
"
  5

  6

  7

 40
1.0
 41
2.0
 42
1.0
 43
10.0
 44
1.0
 45
0.0
 46
0.0
 47
0.1
 48
0.1
140
2.5
141
0.0
142
0.0
143
0.0393701
144
1.0
145
0.0
146
0.71
147
1.5
 71
     0
 72
     0
 73
     0
 74
     0
 75
     1
 76
     1
 77
     3
 78
     8
170
     0
171
     2
172
     1
173
     0
174
     0
175
     0
176
   256
177
   256
178
     4
  0
DIMSTYLE
  2
AM_JIS$SH
 70
     0
  3

  4
"
  5

  6

  7

 40
1.0
 41
2.0
 42
1.0
 43
10.0
 44
1.0
 45
0.0
 46
0.0
 47
0.1
 48
0.1
140
2.5
141
0.0
142
0.0
143
0.0393701
144
2.0
145
0.0
146
0.71
147
1.5
 71
     0
 72
     0
 73
     0
 74
     0
 75
     1
 76
     1
 77
     3
 78
     8
170
     0
171
     2
172
     1
173
     1
174
     0
175
     0
176
   256
177
   256
178
     4
  0
DIMSTYLE
  2
AM_ISO
 70
     0
  3

  4
"
  5

  6

  7

 40
1.0
 41
2.5
 42
1.0
 43
10.0
 44
1.0
 45
0.0
 46
0.0
 47
0.1
 48
0.1
140
3.5
141
0.0
142
0.0
143
0.0393701
144
1.0
145
0.0
146
0.71
147
1.5
 71
     0
 72
     0
 73
     0
 74
     0
 75
     0
 76
     0
 77
     1
 78
     8
170
     0
171
     2
172
     1
173
     0
174
     0
175
     0
176
   256
177
   256
178
     2
  0
DIMSTYLE
  2
AM_ISO$3
 70
     0
  3

  4
"
  5

  6

  7

 40
1.0
 41
2.5
 42
1.0
 43
10.0
 44
1.0
 45
0.0
 46
0.0
 47
0.1
 48
0.1
140
3.5
141
0.0
142
0.0
143
0.0393701
144
1.0
145
0.0
146
0.71
147
1.5
 71
     0
 72
     0
 73
     0
 74
     1
 75
     0
 76
     0
 77
     1
 78
     8
170
     0
171
     2
172
     0
173
     0
174
     0
175
     0
176
   256
177
   256
178
     2
  0
DIMSTYLE
  2
AM_ISO$4
 70
     0
  3

  4
"
  5

  6

  7

 40
1.0
 41
2.5
 42
1.0
 43
10.0
 44
1.0
 45
0.0
 46
0.0
 47
0.1
 48
0.1
140
3.5
141
0.0
142
0.0
143
0.0393701
144
1.0
145
0.0
146
0.71
147
1.5
 71
     0
 72
     0
 73
     0
 74
     1
 75
     0
 76
     0
 77
     1
 78
     8
170
     0
171
     2
172
     0
173
     0
174
     0
175
     0
176
   256
177
   256
178
     2
  0
DIMSTYLE
  2
AM_ISO$6
 70
     0
  3

  4
"
  5

  6

  7

 40
1.0
 41
2.5
 42
1.0
 43
10.0
 44
1.0
 45
0.0
 46
0.0
 47
0.1
 48
0.1
140
3.5
141
0.0
142
0.0
143
0.0393701
144
1.0
145
0.0
146
0.71
147
1.5
 71
     0
 72
     0
 73
     0
 74
     0
 75
     0
 76
     0
 77
     0
 78
     8
170
     0
171
     2
172
     1
173
     0
174
     0
175
     0
176
   256
177
   256
178
     2
  0
DIMSTYLE
  2
AM_ISO$7
 70
     0
  3

  4
"
  5

  6

  7

 40
1.0
 41
2.5
 42
1.0
 43
10.0
 44
1.0
 45
0.0
 46
0.0
 47
0.1
 48
0.1
140
5.0
141
0.0
142
0.0
143
0.0393701
144
1.0
145
0.0
146
0.71
147
1.5
 71
     0
 72
     0
 73
     0
 74
     0
 75
     0
 76
     0
 77
     1
 78
     8
170
     0
171
     2
172
     1
173
     0
174
     0
175
     0
176
   256
177
   256
178
     2
  0
DIMSTYLE
  2
AM_ISO$SF
 70
     0
  3

  4
"
  5

  6

  7

 40
1.0
 41
2.5
 42
1.0
 43
10.0
 44
1.0
 45
0.0
 46
0.0
 47
0.1
 48
0.1
140
3.5
141
0.0
142
0.0
143
0.0393701
144
1.0
145
0.0
146
0.71
147
1.5
 71
     0
 72
     0
 73
     0
 74
     0
 75
     1
 76
     1
 77
     1
 78
     8
170
     0
171
     2
172
     1
173
     0
174
     0
175
     0
176
   256
177
   256
178
     2
  0
DIMSTYLE
  2
AM_ISO$SH
 70
     0
  3

  4
"
  5

  6

  7

 40
1.0
 41
2.5
 42
1.0
 43
10.0
 44
1.0
 45
0.0
 46
0.0
 47
0.1
 48
0.1
140
3.5
141
0.0
142
0.0
143
0.0393701
144
2.0
145
0.0
146
0.71
147
1.5
 71
     0
 72
     0
 73
     0
 74
     0
 75
     1
 76
     1
 77
     1
 78
     8
170
     0
171
     2
172
     1
173
     1
174
     0
175
     0
176
   256
177
   256
178
     2
  0
DIMSTYLE
  2
GEN-ANSI
 70
     0
  3

  4
"
  5

  6

  7

 40
1.0
 41
2.0
 42
0.5
 43
10.0
 44
0.5
 45
0.0
 46
0.0
 47
0.1
 48
0.1
140
2.5
141
0.0
142
0.0
143
0.0393701
144
1.0
145
0.0
146
0.71
147
1.5
 71
     0
 72
     0
 73
     1
 74
     1
 75
     0
 76
     0
 77
     0
 78
     8
170
     0
171
     2
172
     0
173
     0
174
     0
175
     0
176
   256
177
   256
178
     4
  0
DIMSTYLE
  2
GEN-ANSI$3
 70
     0
  3

  4
"
  5

  6

  7

 40
1.0
 41
2.0
 42
0.5
 43
10.0
 44
0.5
 45
0.0
 46
0.0
 47
0.1
 48
0.1
140
2.5
141
0.0
142
0.0
143
0.0393701
144
1.0
145
0.0
146
0.71
147
1.5
 71
     0
 72
     0
 73
     1
 74
     1
 75
     0
 76
     0
 77
     0
 78
     8
170
     0
171
     2
172
     0
173
     0
174
     0
175
     0
176
   256
177
   256
178
     4
  0
DIMSTYLE
  2
GEN-ANSI$4
 70
     0
  3

  4
"
  5

  6

  7

 40
1.0
 41
2.0
 42
0.5
 43
10.0
 44
0.5
 45
0.0
 46
0.0
 47
0.1
 48
0.1
140
2.5
141
0.0
142
0.0
143
0.0393701
144
1.0
145
0.0
146
0.71
147
1.5
 71
     0
 72
     0
 73
     1
 74
     1
 75
     0
 76
     0
 77
     0
 78
     8
170
     0
171
     2
172
     0
173
     0
174
     0
175
     0
176
   256
177
   256
178
     4
  0
DIMSTYLE
  2
GEN-ANSI$6
 70
     0
  3

  4
"
  5

  6

  7

 40
1.0
 41
2.0
 42
0.5
 43
10.0
 44
0.5
 45
0.0
 46
0.0
 47
0.1
 48
0.1
140
2.5
141
0.0
142
0.0
143
0.0393701
144
1.0
145
0.0
146
0.71
147
1.5
 71
     0
 72
     0
 73
     1
 74
     1
 75
     0
 76
     0
 77
     0
 78
     8
170
     0
171
     2
172
     0
173
     0
174
     0
175
     0
176
   256
177
   256
178
     4
  0
DIMSTYLE
  2
GEN-ANSI-POS
 70
     0
  3

  4
"
  5

  6

  7

 40
1.0
 41
2.5
 42
0.5
 43
10.0
 44
0.5
 45
0.0
 46
0.0
 47
0.1
 48
0.1
140
5.0
141
0.0
142
0.0
143
0.0393701
144
1.0
145
0.0
146
0.71
147
1.5
 71
     0
 72
     0
 73
     0
 74
     0
 75
     0
 76
     0
 77
     0
 78
     8
170
     0
171
     2
172
     0
173
     0
174
     0
175
     0
176
   256
177
   256
178
     4
  0
DIMSTYLE
  2
GEN-ANSI-AXE-F
 70
     0
  3

  4
"
  5

  6

  7

 40
1.0
 41
2.0
 42
0.5
 43
10.0
 44
0.5
 45
0.0
 46
0.0
 47
0.1
 48
0.1
140
2.5
141
0.0
142
0.0
143
0.0393701
144
1.0
145
0.0
146
0.71
147
1.5
 71
     0
 72
     0
 73
     1
 74
     1
 75
     1
 76
     1
 77
     0
 78
     8
170
     0
171
     2
172
     0
173
     1
174
     0
175
     0
176
   256
177
   256
178
     4
  0
DIMSTYLE
  2
GEN-ANSI-AXE-H
 70
     0
  3

  4
"
  5

  6

  7

 40
1.0
 41
2.0
 42
0.5
 43
10.0
 44
0.5
 45
0.0
 46
0.0
 47
0.1
 48
0.1
140
2.5
141
0.0
142
0.0
143
0.0393701
144
2.0
145
0.0
146
0.71
147
1.5
 71
     0
 72
     0
 73
     0
 74
     0
 75
     1
 76
     1
 77
     0
 78
     8
170
     0
171
     2
172
     1
173
     1
174
     0
175
     0
176
   256
177
   256
178
     4
  0
DIMSTYLE
  2
AM_ANSI
 70
     0
  3

  4
mm
  5

  6

  7

 40
1.0
 41
0.12
 42
0.05
 43
0.5
 44
0.1
 45
0.0
 46
0.0
 47
0.1
 48
0.1
140
0.12
141
0.0
142
0.0
143
25.399999999999999
144
1.0
145
0.0
146
0.71
147
0.06
 71
     0
 72
     0
 73
     1
 74
     1
 75
     0
 76
     0
 77
     0
 78
     7
170
     0
171
     2
172
     0
173
     0
174
     0
175
     0
176
   256
177
   256
178
     2
  0
DIMSTYLE
  2
AM_ANSI$3
 70
     0
  3

  4
mm
  5

  6

  7

 40
1.0
 41
0.12
 42
0.05
 43
0.5
 44
0.1
 45
0.0
 46
0.0
 47
0.1
 48
0.1
140
0.12
141
0.0
142
0.0
143
25.399999999999999
144
1.0
145
0.0
146
0.71
147
0.06
 71
     0
 72
     0
 73
     1
 74
     1
 75
     0
 76
     0
 77
     0
 78
     7
170
     0
171
     2
172
     0
173
     0
174
     0
175
     0
176
   256
177
   256
178
     2
  0
DIMSTYLE
  2
AM_ANSI$4
 70
     0
  3

  4
mm
  5

  6

  7

 40
1.0
 41
0.12
 42
0.05
 43
0.5
 44
0.1
 45
0.0
 46
0.0
 47
0.1
 48
0.1
140
0.12
141
0.0
142
0.0
143
25.399999999999999
144
1.0
145
0.0
146
0.71
147
0.06
 71
     0
 72
     0
 73
     1
 74
     1
 75
     0
 76
     0
 77
     0
 78
     7
170
     0
171
     2
172
     0
173
     0
174
     0
175
     0
176
   256
177
   256
178
     2
  0
DIMSTYLE
  2
AM_ANSI$7
 70
     0
  3

  4
mm
  5

  6

  7

 40
1.0
 41
0.12
 42
0.05
 43
0.5
 44
0.1
 45
0.0
 46
0.0
 47
0.1
 48
0.1
140
0.12
141
0.0
142
0.0
143
25.399999999999999
144
1.0
145
0.0
146
0.71
147
0.06
 71
     0
 72
     0
 73
     1
 74
     1
 75
     0
 76
     0
 77
     0
 78
     7
170
     0
171
     2
172
     0
173
     0
174
     0
175
     0
176
   256
177
   256
178
     2
  0
DIMSTYLE
  2
AM_ANSI$SF
 70
     0
  3

  4
mm
  5

  6

  7

 40
1.0
 41
0.12
 42
0.05
 43
0.5
 44
0.1
 45
0.0
 46
0.0
 47
0.1
 48
0.1
140
0.12
141
0.0
142
0.0
143
25.399999999999999
144
1.0
145
0.0
146
0.71
147
0.06
 71
     0
 72
     0
 73
     1
 74
     1
 75
     1
 76
     1
 77
     0
 78
     7
170
     0
171
     2
172
     0
173
     0
174
     0
175
     0
176
   256
177
   256
178
     2
  0
DIMSTYLE
  2
AM_ANSI$SH
 70
     0
  3

  4
mm
  5

  6
GENAXEH
  7

 40
1.0
 41
0.12
 42
0.05
 43
0.5
 44
0.1
 45
0.0
 46
0.0
 47
0.1
 48
0.1
140
0.12
141
0.0
142
0.0
143
25.399999999999999
144
1.0
145
0.0
146
0.71
147
0.06
 71
     0
 72
     0
 73
     1
 74
     1
 75
     1
 76
     1
 77
     0
 78
     7
170
     0
171
     2
172
     0
173
     1
174
     0
175
     0
176
   256
177
   256
178
     2
  0
ENDTAB
  0
ENDSEC
  0
SECTION
  2
BLOCKS
  0
BLOCK
  8
0
  2
$MODEL_SPACE
 70
     0
 10
0.0
 20
0.0
 30
0.0
  3
$MODEL_SPACE
  1

  0
ENDBLK
  5
9404
  8
0
  0
BLOCK
 67
     1
  8
0
  2
$PAPER_SPACE
 70
     0
 10
0.0
 20
0.0
 30
0.0
  3
$PAPER_SPACE
  1

  0
ENDBLK
  5
9400
 67
     1
  8
0
  0
BLOCK
  8
0
  2
GENAXEH
 70
     0
 10
0.0
 20
0.0
 30
0.0
  3
GENAXEH
  1

  0
LINE
  5
934E
  8
0
 10
-1.0
 20
0.0
 30
0.0
 11
1.0
 21
0.0
 31
0.0
  0
ENDBLK
  5
9350
  8
0
  0
BLOCK
  8
0
  2
_ACMFILLEDHALF
 70
     0
 10
0.0
 20
0.0
 30
0.0
  3
_ACMFILLEDHALF
  1

  0
TRACE
  5
9511
  8
AM_0
 62
     0
 10
-0.8
 20
0.0
 30
0.0
 11
-1.0
 21
0.166666666
 31
0.0
 12
0.0
 22
0.0
 32
0.0
 13
0.0
 23
0.0
 33
0.0
  0
LINE
  5
9512
  8
AM_0
 62
     0
 10
-1.0
 20
0.0
 30
0.0
 11
-0.8
 21
0.0
 31
0.0
  0
ENDBLK
  5
9510
  8
0
  0
ENDSEC
  0
SECTION
  2
ENTITIES
  0
POINT
  5
1B94
  8
0
 10
0.0
 20
0.0
 30
0.0
1001
GENIUS_GENODEF_13
1002
{
1000
HIER
1070
     1
1002
}
1002
{
1000
MANEDIT
1070
     0
1002
}
1002
{
1000
NOSEL
1070
     0
1002
}
1002
{
1000
BEHIND
1070
     0
1002
}
1002
{
1000
REACTOR
1002
}
1001
GENIUS_GENOBJ-N-SDF_13
1002
{
1000
OWNER
1000
GEN
1002
}
1001
GENIUS_GENOENT_13
1002
{
1000
MYREF
1005
1B94
1002
}
1002
{
1000
GRP
1005
0
1002
}
1001
GENIUS_GENOLIS_13
1002
{
1000
ENT
1005
89
1002
}
  0
LINE
  5
86CD
  8
AM_0
 10
508.96484264133687
 20
205.49549488679119
 30
0.0
 11
578.96484264133687
 21
205.49549488679119
 31
0.0
  0
LINE
  5
86CE
  8
AM_0
 10
508.96484264133687
 20
163.49549488679119
 30
0.0
 11
578.96484264133687
 21
163.49549488679119
 31
0.0
  0
LINE
  5
86CF
  8
ﾁｭｳｼﾝｾﾝ
 10
342.95259264133711
 20
184.49546488679101
 30
0.0
 11
586.90929264133774
 21
184.49546488679101
 31
0.0
  0
LINE
  5
86D2
  8
AM_0
 10
506.96489264133743
 20
184.49546488679101
 30
0.0
 11
506.96489264133743
 21
304.49541488679142
 31
0.0
  0
LINE
  5
86D3
  8
AM_0
 10
492.96489264133743
 20
184.49546488679101
 30
0.0
 11
492.96489264133743
 21
295.4527648867911
 31
0.0
  0
LINE
  5
86D4
  8
AM_0
 10
483.83044264133798
 20
202.84843488679149
 30
0.0
 11
467.57744264133709
 21
251.98447988679209
 31
0.0
  0
LINE
  5
86D5
  8
AM_0
 10
502.96489264133743
 20
41.995494886791093
 30
0.0
 11
502.96489264133743
 21
326.99541488679142
 31
0.0
  0
LINE
  5
86D6
  8
AM_0
 10
484.96489264133743
 20
205.98231488679221
 30
0.0
 11
484.96489264133743
 21
323.46986488679107
 31
0.0
  0
LINE
  5
86D7
  8
AM_0
 10
386.96489264133743
 20
16.4954948867911
 30
0.0
 11
386.96489264133743
 21
276.4954698867914
 31
0.0
  0
LINE
  5
86D8
  8
AM_0
 10
373.96484264133682
 20
18.880839886791591
 30
0.0
 11
373.96484264133682
 21
274.11015488679141
 31
0.0
  0
LINE
  5
86D9
  8
AM_0
 10
359.96489264133743
 20
32.370964886791171
 30
0.0
 11
359.96489264133743
 21
274.49549988679121
 31
0.0
  0
LINE
  5
86DA
  8
ﾁｭｳｼﾝｾﾝ
 10
355.1408742392104
 20
110.2855048867913
 30
0.0
 11
15.36413220705071
 21
110.2855048867913
 31
0.0
  0
ARC
  5
86DB
  8
AM_0
 10
292.63214264133768
 20
197.3196548867914
 30
0.0
 40
4.000000049999997
 50
272.00000000000369
 51
315.0000000000046
  0
LINE
  5
86DC
  8
AM_0
 10
243.36024264133721
 20
211.2648448867921
 30
0.0
 11
311.60454264133648
 21
213.64799488679139
 31
0.0
  0
LINE
  5
86DD
  8
AM_0
 10
250.63939264133739
 20
79.245099886791067
 30
0.0
 11
312.46999264133677
 21
77.085919886791999
 31
0.0
  0
LINE
  5
86DE
  8
AM_0
 10
225.4648926413374
 20
148.2817798867915
 30
0.0
 11
301.35569264133647
 21
148.2817798867915
 31
0.0
  0
LINE
  5
86DF
  8
AM_0
 10
225.4648926413374
 20
161.78547488679121
 30
0.0
 11
305.20259264133711
 21
161.78547488679121
 31
0.0
  0
LINE
  5
86E0
  8
AM_0
 10
250.46489264133561
 20
117.2885848867915
 30
0.0
 11
315.46489264133652
 21
117.2885848867915
 31
0.0
  0
LINE
  5
86E1
  8
AM_0
 10
247.69624264133739
 20
51.68308488679223
 30
0.0
 11
314.81434264133708
 21
72.641519886791443
 31
0.0
  0
LINE
  5
86E2
  8
AM_0
 10
225.4648926413374
 20
46.285504886791372
 30
0.0
 11
225.4648926413374
 21
174.28547488679121
 31
0.0
  0
LINE
  5
86E3
  8
AM_0
 10
245.46489264133649
 20
112.2885848867913
 30
0.0
 11
245.46489264133649
 21
50.846659886791258
 31
0.0
  0
LINE
  5
86E4
  8
AM_0
 10
225.4648926413374
 20
46.285474886791242
 30
0.0
 11
241.6044926413378
 21
46.849069886791312
 31
0.0
  0
LINE
  5
86E5
  8
AM_0
 10
225.4648926413374
 20
58.785504886791379
 30
0.0
 11
245.46489264133649
 21
58.785504886791379
 31
0.0
  0
LINE
  5
86E6
  8
AM_0
 10
225.4648926413374
 20
72.289164886791127
 30
0.0
 11
245.46489264133649
 21
72.289164886791127
 31
0.0
  0
LINE
  5
86E7
  8
AM_0
 10
218.4648926413355
 20
58.245524886791259
 30
0.0
 11
225.4648926413374
 21
58.245524886791259
 31
0.0
  0
LINE
  5
86E8
  8
AM_0
 10
218.4648926413355
 20
46.785534886791069
 30
0.0
 11
225.4648926413374
 21
46.785534886791069
 31
0.0
  0
LINE
  5
86E9
  8
AM_0
 10
217.46484264133679
 20
73.135509886791198
 30
0.0
 11
225.4648926413374
 21
73.135509886791198
 31
0.0
  0
ARC
  5
86EA
  8
AM_0
 10
241.46484264133679
 20
50.846659886791258
 30
0.0
 40
4.000000049999997
 50
272.00000000000369
 51
0.0
  0
ARC
  5
86EB
  8
AM_0
 10
248.88844264133689
 20
47.864939886791142
 30
0.0
 40
4.000000049999997
 50
107.3416099999679
 51
158.11660999999989
  0
ARC
  5
86EC
  8
AM_0
 10
250.46489264133561
 20
74.248149886791538
 30
0.0
 40
5.0
 50
87.999999999996248
 51
180.00001000000091
  0
LINE
  5
86ED
  8
AM_0
 10
240.4648926413374
 20
208.26667488679141
 30
0.0
 11
240.4648926413374
 21
164.78550488679139
 31
0.0
  0
LINE
  5
86EE
  8
AM_0
 10
294.3464926413389
 20
193.377089886791
 30
0.0
 11
294.3464926413389
 21
161.78547488679121
 31
0.0
  0
ARC
  5
86EF
  8
AM_0
 10
237.4648926413374
 20
164.78550488679139
 30
0.0
 40
3.0000000500000001
 50
270.0
 51
0.0
  0
LINE
  5
86F0
  8
AM_0
 10
217.46484264133679
 20
147.43549988679101
 30
0.0
 11
225.4648926413374
 21
147.43549988679101
 31
0.0
  0
LINE
  5
86F1
  8
AM_0
 10
218.4648926413355
 20
162.32548488679129
 30
0.0
 11
225.4648926413374
 21
162.32548488679129
 31
0.0
  0
ARC
  5
86F2
  8
AM_0
 10
250.46489264133561
 20
112.2885848867913
 30
0.0
 40
5.0
 50
90.000002999984645
 51
180.00001000000091
  0
ARC
  5
86F3
  8
AM_0
 10
235.46489264133561
 20
179.63770988679099
 30
0.0
 40
5.0
 50
272.00000000000369
 51
0.0
  0
LINE
  5
86F4
  8
AM_0
 10
218.4648926413355
 20
173.78547488679121
 30
0.0
 11
225.4648926413374
 21
173.78547488679121
 31
0.0
  0
LINE
  5
86F5
  8
AM_0
 10
225.46494264133699
 20
174.2855048867913
 30
0.0
 11
235.6393926413356
 21
174.640789886791
 31
0.0
  0
LINE
  5
86F6
  8
AM_0
 10
245.2904426413379
 20
191.66401488679119
 30
0.0
 11
292.77179264133707
 21
193.32209488679101
 31
0.0
  0
ARC
  5
86F7
  8
AM_0
 10
245.46489264133649
 20
186.6670348867909
 30
0.0
 40
5.0
 50
91.999997999994008
 51
180.00001000000091
  0
ARC
  5
86F8
  8
AM_0
 10
243.4648926413355
 20
208.26667488679141
 30
0.0
 40
3.0000000500000001
 50
91.999997999994008
 51
180.00001000000091
  0
ARC
  5
86F9
  8
AM_0
 10
489.9648926413355
 20
92.98862988679241
 30
0.0
 40
5.0
 50
90.000002999984645
 51
180.00001000000091
  0
LINE
  5
86FA
  8
AM_0
 10
315.46489264133652
 20
75.573224886791067
 30
0.0
 11
315.46489264133652
 21
217.24183488679139
 31
0.0
  0
LINE
  5
86FB
  8
AM_0
 10
325.46489264133572
 20
72.495524886791273
 30
0.0
 11
325.46489264133572
 21
220.49549488679119
 31
0.0
  0
LINE
  5
86FC
  8
AM_0
 10
492.96489264133743
 20
184.49546488679101
 30
0.0
 11
492.96489264133743
 21
73.538189886791315
 31
0.0
  0
LINE
  5
86FD
  8
AM_0
 10
506.96489264133743
 20
184.49546488679101
 30
0.0
 11
506.96489264133743
 21
64.49549488679132
 31
0.0
  0
ARC
  5
86FE
  8
AM_0
 10
414.9648926413355
 20
73.412364886791238
 30
0.0
 40
9.7211409999999994
 50
90.000002999984645
 51
270.0
  0
LINE
  5
86FF
  8
AM_0
 10
386.96484264133682
 20
16.4954948867911
 30
0.0
 11
446.69344264133719
 21
14.93145488679113
 31
0.0
  0
LINE
  5
8700
  8
AM_0
 10
373.96484264133682
 20
39.235024886791159
 30
0.0
 11
488.78839264133768
 21
39.235024886791159
 31
0.0
  0
LINE
  5
8701
  8
AM_0
 10
373.96484264133682
 20
24.778209886791171
 30
0.0
 11
463.74859264133738
 21
24.778209886791171
 31
0.0
  0
LINE
  5
8702
  8
AM_0
 10
375.8951426413368
 20
16.882029886791312
 30
0.0
 11
386.96489264133743
 21
16.495464886791179
 31
0.0
  0
ARC
  5
8703
  8
AM_0
 10
375.96489264133743
 20
18.880839886791591
 30
0.0
 40
2.0000000500000001
 50
179.99998999999889
 51
268.00000999999202
  0
LINE
  5
8704
  8
AM_0
 10
315.46489264133652
 20
83.495494886791207
 30
0.0
 11
359.96489264133743
 21
83.495494886791207
 31
0.0
  0
LINE
  5
8705
  8
AM_0
 10
333.20339264133781
 20
63.755929886791591
 30
0.0
 11
357.22629264133678
 21
61.654184886791533
 31
0.0
  0
LINE
  5
8706
  8
AM_0
 10
316.14619264133762
 20
72.820904886791141
 30
0.0
 11
325.46489264133572
 21
72.495464886791197
 31
0.0
  0
ARC
  5
8707
  8
AM_0
 10
312.33034264133761
 20
73.088359886791295
 30
0.0
 40
4.000000049999997
 50
26.896936999997649
 51
87.999999999996248
  0
ARC
  5
8708
  8
AM_0
 10
319.46489264133743
 20
76.707469886791372
 30
0.0
 40
4.000000049999997
 50
206.8969399999875
 51
267.99999999999631
  0
ARC
  5
8709
  8
AM_0
 10
316.0064926413379
 20
68.823344886791347
 30
0.0
 40
4.000000049999997
 50
87.999999999996248
 51
107.3416099999679
  0
LINE
  5
870A
  8
AM_0
 10
330.46489264133743
 20
66.744489886791143
 30
0.0
 11
330.46489264133743
 21
83.495494886791207
 31
0.0
  0
ARC
  5
870B
  8
AM_0
 10
333.46489264133743
 20
66.744489886791143
 30
0.0
 40
3.0000000500000001
 50
179.99998999999889
 51
264.99999999997402
  0
ARC
  5
870C
  8
AM_0
 10
327.46489264133743
 20
69.923839886791143
 30
0.0
 40
3.0000000500000001
 50
0.0
 51
87.999999999996248
  0
LINE
  5
870D
  8
AM_0
 10
325.46489264133572
 20
72.995464886791197
 30
0.0
 11
327.56964264133768
 21
72.921979886791163
 31
0.0
  0
ARC
  5
870E
  8
AM_0
 10
356.96489264133743
 20
58.665599886791142
 30
0.0
 40
3.0000000500000001
 50
0.0
 51
84.99999699998591
  0
LINE
  5
870F
  8
AM_0
 10
362.4439926413379
 20
29.416529886791182
 30
0.0
 11
371.48584264133751
 21
27.822199886791161
 31
0.0
  0
ARC
  5
8710
  8
AM_0
 10
362.96489264133652
 20
32.370964886791171
 30
0.0
 40
3.0000000500000001
 50
179.99998999999889
 51
259.99999999999488
  0
ARC
  5
8711
  8
AM_0
 10
370.96489264133743
 20
24.867779886791141
 30
0.0
 40
3.0000000500000001
 50
0.0
 51
79.999998000001099
  0
LINE
  5
8712
  8
AM_0
 10
446.69349264133689
 20
14.93143988679139
 30
0.0
 11
492.9649426413369
 21
41.646279886791127
 31
0.0
  0
LINE
  5
8713
  8
AM_0
 10
414.9648926413355
 20
63.691234886791321
 30
0.0
 11
484.96489264133743
 21
63.691234886791321
 31
0.0
  0
LINE
  5
8714
  8
AM_0
 10
414.9648926413355
 20
83.133524886791392
 30
0.0
 11
484.96489264133743
 21
83.133524886791392
 31
0.0
  0
LINE
  5
8715
  8
AM_0
 10
414.9648926413355
 20
65.537884886791289
 30
0.0
 11
414.9648926413355
 21
81.637889886791058
 31
0.0
  0
LINE
  5
8716
  8
AM_0
 10
484.96489264133743
 20
44.473519886791102
 30
0.0
 11
484.96489264133743
 21
92.98862988679241
 31
0.0
  0
LINE
  5
8717
  8
AM_0
 10
488.06959264133718
 20
41.475319886791112
 30
0.0
 11
502.96489264133743
 21
41.995464886791183
 31
0.0
  0
ARC
  5
8718
  8
AM_0
 10
487.96489264133652
 20
44.473519886791102
 30
0.0
 40
3.0000000500000001
 50
179.99998999999889
 51
271.99999000000781
  0
ARC
  5
8719
  8
AM_0
 10
487.96489264133652
 20
73.538189886791315
 30
0.0
 40
5.0
 50
267.99999999999631
 51
0.0
  0
LINE
  5
871A
  8
AM_0
 10
502.96489264133743
 20
64.49549488679132
 30
0.0
 11
506.96489264133743
 21
64.49549488679132
 31
0.0
  0
LINE
  5
871B
  8
AM_0
 10
373.96484264133682
 20
156.47648488679121
 30
0.0
 11
492.96489264133743
 21
156.47648488679121
 31
0.0
  0
LINE
  5
871C
  8
AM_0
 10
373.96484264133682
 20
136.51447988679161
 30
0.0
 11
492.96489264133743
 21
136.51447988679161
 31
0.0
  0
LINE
  5
871D
  8
AM_0
 10
315.46489264133652
 20
107.6753948867913
 30
0.0
 11
359.96489264133743
 21
107.6753948867913
 31
0.0
  0
LINE
  5
871E
  8
AM_0
 10
301.35584264133558
 20
148.2817798867915
 30
0.0
 11
315.46504264133722
 21
121.0996498867912
 31
0.0
  0
LINE
  5
871F
  8
AM_0
 10
301.35579264133861
 20
148.2817498867912
 30
0.0
 11
308.03099264133738
 21
154.95704488679121
 31
0.0
  0
ARC
  5
8720
  8
AM_0
 10
305.20259264133711
 20
157.7855048867913
 30
0.0
 40
4.000000049999997
 50
315.0000000000046
 51
90.000002999984645
  0
LINE
  5
8721
  8
AM_0
 10
315.46489264133652
 20
185.31559488679119
 30
0.0
 11
359.96489264133743
 21
185.31559488679119
 31
0.0
  0
LINE
  5
8722
  8
AM_0
 10
315.46489264133652
 20
209.4954648867911
 30
0.0
 11
359.96489264133743
 21
209.4954648867911
 31
0.0
  0
LINE
  5
8723
  8
AM_0
 10
325.46484264133682
 20
219.99552988679139
 30
0.0
 11
355.13939264133751
 21
221.0317848867912
 31
0.0
  0
LINE
  5
8724
  8
AM_0
 10
295.46069264133888
 20
194.49116488679101
 30
0.0
 11
314.29339264133688
 21
213.3238648867914
 31
0.0
  0
LINE
  5
8725
  8
AM_0
 10
319.20784264133721
 20
220.27695988679139
 30
0.0
 11
325.46489264133572
 21
220.49546488679101
 31
0.0
  0
ARC
  5
8726
  8
AM_0
 10
311.46484264133682
 20
217.64551988679111
 30
0.0
 40
4.000000049999997
 50
272.00000000000369
 51
350.16761000000002
  0
ARC
  5
8727
  8
AM_0
 10
311.46484264133682
 20
216.1523598867912
 30
0.0
 40
4.000000049999997
 50
315.0000000000046
 51
0.0
  0
ARC
  5
8728
  8
AM_0
 10
319.34739264133702
 20
216.2793998867914
 30
0.0
 40
4.000000049999997
 50
91.999997999994008
 51
170.1676200000106
  0
ARC
  5
8729
  8
AM_0
 10
354.96489264133743
 20
226.02869988679129
 30
0.0
 40
5.0
 50
272.00000000000369
 51
0.0
  0
LINE
  5
872A
  8
AM_0
 10
508.96484264133687
 20
161.99546488679101
 30
0.0
 11
508.96484264133687
 21
206.9954648867911
 31
0.0
  0
LINE
  5
872B
  8
AM_0
 10
506.96489264133743
 20
161.99546488679101
 30
0.0
 11
508.96484264133687
 21
161.99546488679101
 31
0.0
  0
LINE
  5
872C
  8
AM_0
 10
488.57744264133709
 20
199.4186548867909
 30
0.0
 11
492.96489264133743
 21
199.4186548867909
 31
0.0
  0
ARC
  5
872D
  8
AM_0
 10
488.57744264133709
 20
204.41865488679099
 30
0.0
 40
5.0
 50
198.30292000000651
 51
270.0
  0
LINE
  5
872E
  8
AM_0
 10
506.96489264133743
 20
206.9954648867911
 30
0.0
 11
508.96484264133687
 21
206.9954648867911
 31
0.0
  0
LINE
  5
872F
  8
AM_0
 10
373.96484264133682
 20
268.21278488679121
 30
0.0
 11
449.87544264133521
 21
268.21278488679121
 31
0.0
  0
LINE
  5
8730
  8
AM_0
 10
373.96484264133682
 20
253.755994886791
 30
0.0
 11
436.02644264133772
 21
253.755994886791
 31
0.0
  0
LINE
  5
8731
  8
AM_0
 10
386.96494264133702
 20
276.49549988679109
 30
0.0
 11
456.85314264133729
 21
278.32557488679151
 31
0.0
  0
ARC
  5
8732
  8
AM_0
 10
370.96489264133743
 20
296.99551488679128
 30
0.0
 40
20.500000499999992
 50
304.61363999999679
 51
235.38635000004169
  0
ARC
  5
8733
  8
AM_0
 10
361.96489264133652
 20
274.49549988679121
 30
0.0
 40
2.0000000500000001
 50
131.4096200000055
 51
180.00001000000091
  0
ARC
  5
8734
  8
AM_0
 10
375.96489264133743
 20
274.11015488679141
 30
0.0
 40
2.0000000500000001
 50
91.999997999994008
 51
180.00001000000091
  0
LINE
  5
8735
  8
AM_0
 10
362.4439926413379
 20
263.5744148867912
 30
0.0
 11
371.48584264133751
 21
265.16874488679122
 31
0.0
  0
ARC
  5
8736
  8
AM_0
 10
362.96489264133652
 20
260.6200398867922
 30
0.0
 40
3.0000000500000001
 50
100.000000000005
 51
180.00001000000091
  0
ARC
  5
8737
  8
AM_0
 10
370.96489264133743
 20
268.12321488679112
 30
0.0
 40
3.0000000500000001
 50
280.000000000005
 51
0.0
  0
CIRCLE
  5
8738
  8
AM_0
 10
370.96489264133743
 20
296.99551488679128
 30
0.0
 40
12.5
  0
LINE
  5
8739
  8
AM_0
 10
370.96489264133743
 20
284.49551488679128
 30
0.0
 11
378.46834264133747
 21
283.11016488679218
 31
0.0
  0
LINE
  5
873A
  8
AM_0
 10
363.14774264133769
 20
282.99551488679128
 30
0.0
 11
378.78199264133582
 21
282.99551488679128
 31
0.0
  0
LINE
  5
873B
  8
AM_0
 10
375.8951426413368
 20
276.10895988679113
 30
0.0
 11
386.96489264133743
 21
276.4955298867921
 31
0.0
  0
LINE
  5
873C
  8
AM_0
 10
363.46154264133651
 20
283.11016488679218
 30
0.0
 11
370.96494264133707
 21
284.49551488679128
 31
0.0
  0
LINE
  5
873D
  8
AM_0
 10
360.6420426413369
 20
275.99552988679108
 30
0.0
 11
375.29754264133771
 21
275.99552988679108
 31
0.0
  0
ARC
  5
873E
  8
AM_0
 10
363.64304264133523
 20
282.12676488679108
 30
0.0
 40
1.0
 50
100.4607199999832
 51
164.99999000000619
  0
ARC
  5
873F
  8
AM_0
 10
357.047892641337
 20
276.83198488679142
 30
0.0
 40
4.000000049999997
 50
347.92933000000039
 51
55.386359000022949
  0
LINE
  5
8740
  8
AM_0
 10
360.96494264133889
 20
275.99549988679109
 30
0.0
 11
362.6771926413366
 21
282.38556488679109
 31
0.0
  0
ARC
  5
8741
  8
AM_0
 10
378.2867426413377
 20
282.12676488679108
 30
0.0
 40
1.0
 50
14.999999999994451
 51
79.539281000009581
  0
ARC
  5
8742
  8
AM_0
 10
384.88184264133719
 20
276.83198488679142
 30
0.0
 40
4.000000049999997
 50
124.61365000000851
 51
187.86824999998751
  0
LINE
  5
8743
  8
AM_0
 10
380.88774264133639
 20
276.2833098867921
 30
0.0
 11
379.25269264133658
 21
282.38556488679109
 31
0.0
  0
LINE
  5
8744
  8
AM_0
 10
384.96489264133743
 20
276.425674886791
 30
0.0
 11
384.96489264133743
 21
276.4955298867921
 31
0.0
  0
LINE
  5
8745
  8
AM_0
 10
384.96489264133743
 20
276.4955298867921
 30
0.0
 11
386.96489264133743
 21
276.4955298867921
 31
0.0
  0
LINE
  5
8746
  8
AM_0
 10
482.81754264133718
 20
281.49911488679129
 30
0.0
 11
441.05959264133691
 21
256.52628988679129
 31
0.0
  0
LINE
  5
8747
  8
AM_0
 10
482.53124264133561
 20
287.74211488679111
 30
0.0
 11
445.47234264133749
 21
265.57951488679151
 31
0.0
  0
LINE
  5
8748
  8
AM_0
 10
438.46489264133743
 20
251.9844198867913
 30
0.0
 11
465.91789264133678
 21
251.9844198867913
 31
0.0
  0
LINE
  5
8749
  8
AM_0
 10
460.2577926413378
 20
279.7882848867921
 30
0.0
 11
483.50049264133662
 21
303.03096488679108
 31
0.0
  0
LINE
  5
874A
  8
AM_0
 10
460.17259264133719
 20
274.37083488679212
 30
0.0
 11
458.84719264133582
 21
278.3778198867912
 31
0.0
  0
ARC
  5
874B
  8
AM_0
 10
417.16474264133728
 20
278.29060488679221
 30
0.0
 40
30.946884499999989
 50
307.55230999998878
 51
335.59613000000422
  0
ARC
  5
874C
  8
AM_0
 10
438.46489264133743
 20
256.98441988679212
 30
0.0
 40
5.0
 50
229.76333000000989
 51
270.0
  0
ARC
  5
874D
  8
AM_0
 10
456.72224264133729
 20
283.32386488679151
 30
0.0
 40
5.0
 50
271.50000000004172
 51
315.0000000000046
  0
LINE
  5
874E
  8
AM_0
 10
468.90764264133651
 20
252.97678988679209
 30
0.0
 11
484.96489264133743
 21
264.95557988679138
 31
0.0
  0
ARC
  5
874F
  8
AM_0
 10
465.91789264133678
 20
256.98441988679212
 30
0.0
 40
5.0
 50
270.0
 51
306.72320999996828
  0
ARC
  5
8750
  8
AM_0
 10
487.96489264133652
 20
295.4527648867911
 30
0.0
 40
5.0
 50
0.0
 51
91.999997999994008
  0
ARC
  5
8751
  8
AM_0
 10
479.96489264133743
 20
292.03326488679119
 30
0.0
 40
5.0
 50
300.88098000001457
 51
0.0
  0
ARC
  5
8752
  8
AM_0
 10
479.96489264133743
 20
306.56656488679118
 30
0.0
 40
5.0
 50
315.0000000000046
 51
0.0
  0
LINE
  5
8753
  8
AM_0
 10
502.96489264133743
 20
304.49541488679142
 30
0.0
 11
506.96489264133743
 21
304.49541488679142
 31
0.0
  0
LINE
  5
8754
  8
AM_0
 10
487.86024264133988
 20
326.46801488679108
 30
0.0
 11
502.96489264133743
 21
326.99551488679208
 31
0.0
  0
ARC
  5
8755
  8
AM_0
 10
487.96489264133652
 20
323.46986488679107
 30
0.0
 40
3.0000000500000001
 50
91.999997999994008
 51
180.00001000000091
  0
LINE
  5
8757
  8
AM_0
 10
578.96484264133687
 20
163.49549488679119
 30
0.0
 11
578.96484264133687
 21
208.49549488679119
 31
0.0
  0
LINE
  5
8759
  8
AM_0
 10
522.96489264133743
 20
208.49549488679119
 30
0.0
 11
578.96484264133687
 21
208.49549488679119
 31
0.0
  0
LINE
  5
875A
  8
AM_0
 10
522.96489264133743
 20
208.49549488679119
 30
0.0
 11
522.96489264133743
 21
205.49549488679119
 31
0.0
  0
CIRCLE
  5
875D
  8
AM_0
 10
846.25747899033524
 20
184.49546488679101
 30
0.0
 40
120.0
  0
CIRCLE
  5
875E
  8
AM_0
 10
846.25747899033524
 20
184.49546488679101
 30
0.0
 40
113.0
  0
ARC
  5
875F
  8
AM_0
 10
846.25747899033524
 20
184.49546488679101
 30
0.0
 40
61.999994999999998
 50
53.583680999986242
 51
126.4163199999773
  0
ARC
  5
8760
  8
AM_0
 10
846.25747899033524
 20
146.49546488679101
 30
0.0
 40
122.0
 50
22.571981999975051
 51
55.326819999991237
  0
ARC
  5
8761
  8
AM_0
 10
846.25747899033524
 20
146.49546488679101
 30
0.0
 40
122.0
 50
124.6731800000087
 51
157.4280199999954
  0
LINE
  5
8762
  8
ﾁｭｳｼﾝｾﾝ
 10
846.25747899033524
 20
333.76835611324032
 30
0.0
 11
846.25747899033524
 21
8.5259048867911851
 31
0.0
  0
LINE
  5
8763
  8
AM_0
 10
773.75353899033769
 20
264.07047988679147
 30
0.0
 11
802.94750899033534
 21
234.8765098867911
 31
0.0
  0
LINE
  5
8764
  8
AM_0
 10
925.83248899033663
 20
256.99940488679113
 30
0.0
 11
896.63851899033466
 21
227.80543488679129
 31
0.0
  0
LINE
  5
8765
  8
AM_0
 10
766.6824939903355
 20
256.99940488679113
 30
0.0
 11
795.87646399033474
 21
227.80543488679129
 31
0.0
  0
LINE
  5
8766
  8
AM_0
 10
706.2602539903354
 20
306.16731488679142
 30
0.0
 11
703.75741399033541
 21
234.4954648867911
 31
0.0
  0
LINE
  5
8767
  8
AM_0
 10
918.7614139903352
 20
264.07047988679147
 30
0.0
 11
889.56744399033482
 21
234.8765098867911
 31
0.0
  0
LINE
  5
8768
  8
AM_0
 10
986.25464399033524
 20
306.16731488679142
 30
0.0
 11
988.75747899033536
 21
234.4954648867911
 31
0.0
  0
LINE
  5
8769
  8
ﾁｭｳｼﾝｾﾝ
 10
696.52036310764208
 20
184.49546488679101
 30
0.0
 11
995.99459487302909
 21
184.49546488679101
 31
0.0
  0
LINE
  5
876A
  8
AM_0
 10
967.92930899033581
 20
44.498334886791319
 30
0.0
 11
896.25747899033445
 21
41.995494886791093
 31
0.0
  0
LINE
  5
876B
  8
AM_0
 10
951.77998399033356
 20
156.49546488679101
 30
0.0
 11
916.25747899033581
 21
156.49546488679101
 31
0.0
  0
ARC
  5
876C
  8
AM_0
 10
725.24871899033405
 20
63.486764886791093
 30
0.0
 40
19.000000499999999
 50
182.00000000000389
 51
267.99999999999631
  0
LINE
  5
876D
  8
AM_0
 10
706.26031399033582
 20
62.823649886791479
 30
0.0
 11
703.75747399033571
 21
134.49549488679119
 31
0.0
  0
ARC
  5
876E
  8
AM_0
 10
846.25747899033524
 20
146.49546488679101
 30
0.0
 40
130.0
 50
246.6310399999644
 51
293.36896000003537
  0
LINE
  5
876F
  8
AM_0
 10
796.25747899033558
 20
41.995494886791093
 30
0.0
 11
846.25747899033524
 21
41.995494886791093
 31
0.0
  0
ARC
  5
8770
  8
AM_0
 10
781.25747899033524
 20
33.912179886791591
 30
0.0
 40
10.0
 50
195.00000999999369
 51
284.99999999999437
  0
LINE
  5
8771
  8
AM_0
 10
724.58559899033571
 20
44.498334886791319
 30
0.0
 11
796.25744899033543
 21
41.995494886791093
 31
0.0
  0
CIRCLE
  5
8772
  8
AM_0
 10
726.04931399033535
 20
64.28736488679111
 30
0.0
 40
9.5
  0
LINE
  5
8775
  8
AM_0
 10
783.84567399033494
 20
24.252954886791152
 30
0.0
 11
794.69286899033523
 21
27.15946488679219
 31
0.0
  0
LINE
  5
8776
  8
AM_0
 10
771.59820399033572
 20
31.324029886791319
 30
0.0
 11
768.47888399033479
 21
42.965554886791317
 31
0.0
  0
ARC
  5
8777
  8
AM_0
 10
911.25747899033524
 20
33.912179886791591
 30
0.0
 40
10.0
 50
255.0000000000056
 51
345.00000000000551
  0
LINE
  5
8778
  8
AM_0
 10
896.25747899033445
 20
41.995494886791093
 30
0.0
 11
846.25747899033524
 21
41.995494886791093
 31
0.0
  0
LINE
  5
8779
  8
AM_0
 10
920.91674899033569
 20
31.323984886791091
 30
0.0
 11
924.03607399033513
 21
42.965524886791172
 31
0.0
  0
LINE
  5
877A
  8
AM_0
 10
908.66928399033509
 20
24.25292488679133
 30
0.0
 11
897.82205399033489
 21
27.159434886791129
 31
0.0
  0
CIRCLE
  5
877B
  8
AM_0
 10
846.25747899033524
 20
184.49546488679101
 30
0.0
 40
41.000000499999992
  0
LINE
  5
877C
  8
AM_0
 10
703.75747399033571
 20
134.49546488679101
 30
0.0
 11
703.75747399033571
 21
184.49546488679101
 31
0.0
  0
LINE
  5
877D
  8
AM_0
 10
784.25747899033524
 20
184.49546488679101
 30
0.0
 11
784.25747899033524
 21
164.49546488679101
 31
0.0
  0
LINE
  5
877E
  8
AM_0
 10
740.73498399033531
 20
156.49546488679101
 30
0.0
 11
776.25747899033377
 21
156.49546488679101
 31
0.0
  0
ARC
  5
877F
  8
AM_0
 10
740.73498399033531
 20
161.49546488679101
 30
0.0
 40
5.0
 50
192.29603999999739
 51
270.0
  0
ARC
  5
8780
  8
AM_0
 10
776.25747899033377
 20
164.49546488679101
 30
0.0
 40
8.0
 50
270.0
 51
0.0
  0
LINE
  5
8781
  8
AM_0
 10
703.75747399033571
 20
234.4954648867911
 30
0.0
 11
703.75747399033571
 21
184.49546488679101
 31
0.0
  0
ARC
  5
8782
  8
AM_0
 10
846.25747899033524
 20
184.49546488679101
 30
0.0
 40
61.999994999999998
 50
142.11498999998199
 51
180.00001000000091
  0
ARC
  5
8783
  8
AM_0
 10
792.340943990337
 20
224.269909886791
 30
0.0
 40
5.0
 50
323.58368000000172
 51
45.000001000017633
  0
ARC
  5
8784
  8
AM_0
 10
806.48303399033534
 20
238.41205988679121
 30
0.0
 40
5.0
 50
224.99999999999531
 51
306.41631999997719
  0
ARC
  5
8785
  8
AM_0
 10
846.25747899033524
 20
184.49546488679101
 30
0.0
 40
20.9999985
 50
106.6015500000174
 51
73.398452000016533
  0
LINE
  5
8786
  8
AM_0
 10
908.2574789903357
 20
184.49546488679101
 30
0.0
 11
908.2574789903357
 21
164.49546488679101
 31
0.0
  0
ARC
  5
8787
  8
AM_0
 10
916.25747899033581
 20
164.49546488679101
 30
0.0
 40
8.0
 50
179.99998999999889
 51
270.0
  0
LINE
  5
8788
  8
AM_0
 10
840.25744899033543
 20
208.49549488679119
 30
0.0
 11
840.25744899033543
 21
200.49549488679119
 31
0.0
  0
LINE
  5
8789
  8
AM_0
 10
852.25747899033524
 20
208.49549488679119
 30
0.0
 11
852.25747899033524
 21
200.49549488679119
 31
0.0
  0
CIRCLE
  5
878A
  8
AM_5
 10
846.25747899033524
 20
184.49546488679101
 30
0.0
 40
5.0
  0
LINE
  5
878B
  8
AM_0
 10
840.25744899033543
 20
200.49549488679119
 30
0.0
 11
852.25747899033524
 21
200.49549488679119
 31
0.0
  0
CIRCLE
  5
878C
  8
AM_0
 10
846.25747899033524
 20
184.49546488679101
 30
0.0
 40
3.5000000500000001
  0
LINE
  5
878D
  8
AM_0
 10
840.25744899033543
 20
208.49549488679119
 30
0.0
 11
852.25747899033524
 21
208.49549488679119
 31
0.0
  0
ARC
  5
878E
  8
AM_0
 10
846.25747899033524
 20
184.49546488679101
 30
0.0
 40
61.999994999999998
 50
0.0
 51
36.416318000003031
  0
ARC
  5
878F
  8
AM_0
 10
886.03189399033522
 20
238.41205988679121
 30
0.0
 40
5.0
 50
233.58367999998069
 51
315.0000000000046
  0
ARC
  5
8790
  8
AM_0
 10
900.1740439903358
 20
224.269909886791
 30
0.0
 40
5.0
 50
135.0000000000046
 51
216.41631999999831
  0
LINE
  5
8791
  8
AM_0
 10
986.25464399033524
 20
62.823649886791479
 30
0.0
 11
988.75746399033483
 21
134.49549488679119
 31
0.0
  0
ARC
  5
8792
  8
AM_0
 10
967.26622399033556
 20
63.486764886791093
 30
0.0
 40
19.000000499999999
 50
272.00000000000369
 51
357.99999999999602
  0
CIRCLE
  5
8794
  8
AM_0
 10
966.46562399033485
 20
64.28736488679111
 30
0.0
 40
9.5
  0
LINE
  5
8796
  8
AM_0
 10
988.75747899033536
 20
134.49546488679101
 30
0.0
 11
988.75747899033536
 21
184.49546488679101
 31
0.0
  0
ARC
  5
8797
  8
AM_0
 10
951.77998399033356
 20
161.49546488679101
 30
0.0
 40
5.0
 50
270.0
 51
347.70394999999121
  0
LINE
  5
8798
  8
AM_0
 10
988.75747899033536
 20
234.4954648867911
 30
0.0
 11
988.75747899033536
 21
184.49546488679101
 31
0.0
  0
LINE
  5
8799
  8
AM_0
 10
967.92929399033733
 20
324.49271488679142
 30
0.0
 11
896.25744899033555
 21
326.99551488679208
 31
0.0
  0
ARC
  5
879A
  8
AM_0
 10
725.24871899033405
 20
305.50421488679092
 30
0.0
 40
19.000000499999999
 50
91.999997999994008
 51
177.99999999999599
  0
LINE
  5
879B
  8
AM_0
 10
796.25747899033558
 20
326.99541488679142
 30
0.0
 11
846.25747899033524
 21
326.99541488679142
 31
0.0
  0
CIRCLE
  5
879D
  8
AM_0
 10
726.04931399033535
 20
304.70361488679151
 30
0.0
 40
9.5
  0
ARC
  5
879F
  8
AM_0
 10
763.14694399033465
 20
253.46384988679119
 30
0.0
 40
5.0
 50
45.000001000017633
 51
140.31277999999341
  0
ARC
  5
87A0
  8
AM_0
 10
777.28909399033535
 20
267.60599988679138
 30
0.0
 40
5.0
 50
129.68721999999059
 51
224.99999999999531
  0
LINE
  5
87A1
  8
AM_0
 10
724.58566399033555
 20
324.49271488679142
 30
0.0
 11
796.25750899033574
 21
326.99551488679208
 31
0.0
  0
ARC
  5
87A2
  8
AM_0
 10
846.25747899033524
 20
146.49546488679101
 30
0.0
 40
122.0
 50
60.143060000010841
 51
86.162372000016859
  0
LINE
  5
87A3
  8
AM_0
 10
849.75747899033445
 20
292.16046488679092
 30
0.0
 11
849.75747899033445
 21
273.21070988679162
 31
0.0
  0
LINE
  5
87A4
  8
AM_0
 10
842.75744899033555
 20
292.16046488679092
 30
0.0
 11
842.75744899033555
 21
273.21070988679162
 31
0.0
  0
ARC
  5
87A5
  8
AM_0
 10
837.75744899033543
 20
273.21070988679162
 30
0.0
 40
5.0
 50
273.83763000002841
 51
0.0
  0
ARC
  5
87A6
  8
AM_0
 10
846.25747899033524
 20
146.49546488679189
 30
0.0
 40
122.0
 50
93.837625999990266
 51
119.8569401447325
  0
ARC
  5
87A7
  8
AM_0
 10
854.7574789903357
 20
273.21070988679162
 30
0.0
 40
5.0
 50
179.99998999999889
 51
266.16236000000731
  0
ARC
  5
87A8
  8
AM_0
 10
837.75744899033543
 20
292.16046488679092
 30
0.0
 40
5.0
 50
0.0
 51
94.514060999993305
  0
ARC
  5
87A9
  8
AM_0
 10
854.7574789903357
 20
292.16046488679092
 30
0.0
 40
5.0
 50
85.48594400001393
 51
180.00001000000091
  0
ARC
  5
87AA
  8
AM_0
 10
915.2258639903356
 20
267.60599988679138
 30
0.0
 40
5.0
 50
315.0000000000046
 51
50.312775000010561
  0
LINE
  5
87AB
  8
AM_0
 10
896.25747899033445
 20
326.99541488679142
 30
0.0
 11
846.25747899033524
 21
326.99541488679142
 31
0.0
  0
CIRCLE
  5
87AD
  8
AM_0
 10
966.46562399033485
 20
304.70361488679151
 30
0.0
 40
9.5
  0
ARC
  5
87AE
  8
AM_0
 10
967.26622399033556
 20
305.50421488679092
 30
0.0
 40
19.000000499999999
 50
2.0000000000039519
 51
87.999999999996248
  0
ARC
  5
87AF
  8
ﾁｭｳｼﾝｾﾝ
 10
846.25747899032444
 20
184.4954648867793
 30
0.0
 40
170.00000500001559
 50
38.93055081107709
 51
51.069449279949453
  0
LINE
  5
87B0
  8
ﾁｭｳｼﾝｾﾝ
 10
979.1935613085808
 20
317.43153936575368
 30
0.0
 11
953.73770915560806
 21
291.9757032732972
 31
0.0
  0
ARC
  5
87B1
  8
AM_0
 10
929.36801399033538
 20
253.46384988679119
 30
0.0
 40
5.0
 50
39.687224000001201
 51
135.0000000000046
  0
LINE
  5
87B3
  8
AM_0
 10
217.4648826413376
 20
172.78551888679121
 30
0.0
 11
217.4648826413376
 21
47.78550288679115
 31
0.0
  0
LINE
  5
87B4
  8
AM_0
 10
20.464932641337331
 20
78.605528886791149
 30
0.0
 11
20.464932641337331
 21
144.81550488679201
 31
0.0
  0
LINE
  5
87B5
  8
AM_0
 10
22.964892641336519
 20
53.28551988679159
 30
0.0
 11
22.964892641336519
 21
70.117174069363159
 31
0.0
  0
LINE
  5
87B6
  8
AM_0
 10
70.464882641337695
 20
167.71548888679129
 30
0.0
 11
70.464882641337695
 21
110.2855048867924
 31
0.0
  0
LINE
  5
87B7
  8
AM_0
 10
207.23491264133639
 20
140.28550788679101
 30
0.0
 11
207.23491264133639
 21
80.285519886791448
 31
0.0
  0
LINE
  5
87B8
  8
ﾁｭｳｼﾝｾﾝ
 10
166.46488264133669
 20
150.91050438679139
 30
0.0
 11
166.46488264133669
 21
69.660505386791272
 31
0.0
  0
ARC
  5
87B9
  8
AM_0
 10
53.465622641337177
 20
110.2836148867916
 30
0.0
 40
8.0019083999999978
 50
90.005172999990876
 51
161.7801599999986
  0
ARC
  5
87BA
  8
AM_0
 10
53.459862641337168
 20
110.2795258867913
 30
0.0
 40
7.9940046000000002
 50
198.1788399999985
 51
270.03581999999773
  0
LINE
  5
87BB
  8
AM_0
 10
22.964892641336519
 20
66.395519886791149
 30
0.0
 11
70.464882641337695
 21
66.395519886791149
 31
0.0
  0
LINE
  5
87BC
  8
AM_0
 10
38.10490264133751
 20
112.7855068867913
 30
0.0
 11
47.964882641337681
 21
112.7855068867913
 31
0.0
  0
LINE
  5
87BD
  8
AM_0
 10
38.10490264133751
 20
107.7855058867914
 30
0.0
 11
47.964882641337681
 21
107.7855058867914
 31
0.0
  0
LINE
  5
87BE
  8
AM_0
 10
22.464882641336761
 20
53.28551988679159
 30
0.0
 11
70.464882641337695
 21
53.28551988679159
 31
0.0
  0
LINE
  5
87BF
  8
AM_0
 10
29.544882641337612
 20
106.565504886791
 30
0.0
 11
15.08488264133757
 21
62.055509886792031
 31
0.0
  0
LINE
  5
87C0
  8
AM_0
 10
34.304892641337581
 20
105.01551588679099
 30
0.0
 11
19.84489264133753
 21
60.515513886792178
 31
0.0
  0
ARC
  5
87C1
  8
AM_0
 10
17.46493264133732
 20
61.285505886791277
 30
0.0
 40
2.5014680099999991
 50
162.07207999999099
 51
342.07206999999181
  0
ARC
  5
87C2
  8
AM_0
 10
17.464032641337319
 20
61.280087886791193
 30
0.0
 40
3.0008441999999982
 50
185.05818999999829
 51
0.1035440000013547
  0
LINE
  5
87C3
  8
AM_0
 10
20.464932641337331
 20
62.425517886791113
 30
0.0
 11
20.464932641337331
 21
55.285502886791171
 31
0.0
  0
ARC
  5
87C4
  8
AM_0
 10
22.459632641335698
 20
55.280225886791641
 30
0.0
 40
1.994720039999998
 50
179.84812999999991
 51
270.15187999998409
  0
LINE
  5
87C5
  8
AM_0
 10
22.964892641336519
 20
70.125515886791149
 30
0.0
 11
22.964892641336519
 21
66.395519886791149
 31
0.0
  0
ARC
  5
87C6
  8
AM_0
 10
14.1725226413373
 20
60.98118288679143
 30
0.0
 40
0.304344
 50
6.4777591000007551
 51
89.547817000015456
  0
ARC
  5
87C7
  8
AM_0
 10
14.173302641336701
 20
60.980435886791611
 30
0.0
 40
0.8050760400000001
 50
5.3506319000004003
 51
89.888466000011476
  0
LINE
  5
87C8
  8
AM_0
 10
13.964892641337419
 20
61.785518886791131
 30
0.0
 11
13.964892641337419
 21
61.285505886791277
 31
0.0
  0
LINE
  5
87C9
  8
AM_0
 10
13.964892641337419
 20
61.785518886791131
 30
0.0
 11
14.174892641337459
 21
61.785518886791131
 31
0.0
  0
ARC
  5
87CA
  8
AM_0
 10
20.51296264133725
 20
72.78562788679119
 30
0.0
 40
4.0504481999999991
 50
99.063519999974844
 51
224.92060000001521
  0
ARC
  5
87CB
  8
AM_0
 10
38.107332641337052
 20
103.781996886792
 30
0.0
 40
9.0035201999999952
 50
90.015527999991548
 51
161.99145000000081
  0
ARC
  5
87CC
  8
AM_0
 10
38.111472641337059
 20
103.7849878867914
 30
0.0
 40
4.0005161999999981
 50
90.094088000021216
 51
162.08606999999409
  0
LINE
  5
87CD
  8
AM_0
 10
115.4648826413367
 20
63.935528886791417
 30
0.0
 11
217.4648826413376
 21
63.935528886791417
 31
0.0
  0
LINE
  5
87CE
  8
AM_0
 10
210.8149326413367
 20
74.285519886791562
 30
0.0
 11
76.014942641337257
 21
74.285519886791562
 31
0.0
  0
LINE
  5
87CF
  8
AM_0
 10
93.464892641335624
 20
48.425504886792041
 30
0.0
 11
210.27487264133561
 21
48.425504886792041
 31
0.0
  0
LINE
  5
87D0
  8
AM_0
 10
166.46488264133669
 20
73.565519886791094
 30
0.0
 11
214.2848826413364
 21
73.565519886791094
 31
0.0
  0
LINE
  5
87D1
  8
AM_0
 10
115.4648826413367
 20
63.935513886792478
 30
0.0
 11
80.464872641337934
 21
65.965511886791319
 31
0.0
  0
LINE
  5
87D2
  8
AM_0
 10
74.734902641337627
 20
104.01548688679119
 30
0.0
 11
115.4648826413367
 21
104.01548688679119
 31
0.0
  0
LINE
  5
87D3
  8
AM_0
 10
114.9648826413375
 20
84.285518886790982
 30
0.0
 11
76.014942641337257
 21
84.285518886790982
 31
0.0
  0
LINE
  5
87D4
  8
AM_0
 10
74.924892641337451
 20
86.725523886791066
 30
0.0
 11
114.9648826413375
 21
86.725523886791066
 31
0.0
  0
LINE
  5
87D5
  8
AM_0
 10
114.9648826413375
 20
86.285519886791533
 30
0.0
 11
76.014942641337257
 21
86.285519886791533
 31
0.0
  0
LINE
  5
87D6
  8
AM_0
 10
74.794902641337075
 20
93.945509886791115
 30
0.0
 11
115.4648826413367
 21
93.945509886791115
 31
0.0
  0
LINE
  5
87D7
  8
AM_0
 10
115.4648826413367
 20
94.285505886791483
 30
0.0
 11
76.024872641336515
 21
94.285505886791483
 31
0.0
  0
LINE
  5
87D8
  8
AM_0
 10
74.794902641337075
 20
96.605528886791035
 30
0.0
 11
115.4648826413367
 21
96.605528886791035
 31
0.0
  0
LINE
  5
87D9
  8
AM_0
 10
115.4648826413367
 20
106.2855058867912
 30
0.0
 11
76.024872641336515
 21
106.2855058867912
 31
0.0
  0
LINE
  5
87DA
  8
AM_0
 10
115.4648826413367
 20
104.2855048867924
 30
0.0
 11
76.024872641336515
 21
104.2855048867924
 31
0.0
  0
LINE
  5
87DB
  8
AM_0
 10
74.734902641337627
 20
106.55552388679151
 30
0.0
 11
115.4648826413367
 21
106.55552388679151
 31
0.0
  0
LINE
  5
87DC
  8
AM_0
 10
74.734902641337627
 20
114.0254968867921
 30
0.0
 11
115.4648826413367
 21
114.0254968867921
 31
0.0
  0
LINE
  5
87DD
  8
AM_0
 10
74.734902641337627
 20
116.55549588679099
 30
0.0
 11
115.4648826413367
 21
116.55549588679099
 31
0.0
  0
LINE
  5
87DE
  8
AM_0
 10
115.4648826413367
 20
76.285505886791157
 30
0.0
 11
76.454922641337362
 21
76.285505886791157
 31
0.0
  0
LINE
  5
87DF
  8
AM_0
 10
74.924892641337451
 20
83.805509886791455
 30
0.0
 11
114.9648826413375
 21
83.805509886791455
 31
0.0
  0
LINE
  5
87E0
  8
AM_0
 10
93.464892641335624
 20
46.395503886791182
 30
0.0
 11
146.4649326413373
 21
46.395503886791182
 31
0.0
  0
LINE
  5
87E1
  8
AM_0
 10
93.464892641335624
 20
45.045512886791109
 30
0.0
 11
146.4649326413373
 21
45.045512886791109
 31
0.0
  0
LINE
  5
87E2
  8
AM_0
 10
93.464892641335624
 20
44.375516886791146
 30
0.0
 11
146.4649326413373
 21
44.375516886791146
 31
0.0
  0
LINE
  5
87E3
  8
AM_0
 10
115.4648826413367
 20
114.28550688679201
 30
0.0
 11
76.024872641336515
 21
114.28550688679201
 31
0.0
  0
LINE
  5
87E4
  8
AM_0
 10
115.4648826413367
 20
116.2855048867924
 30
0.0
 11
76.024872641336515
 21
116.2855048867924
 31
0.0
  0
LINE
  5
87E5
  8
AM_0
 10
115.4648826413367
 20
96.285521886792012
 30
0.0
 11
76.024872641336515
 21
96.285521886792012
 31
0.0
  0
LINE
  5
87E6
  8
AM_0
 10
75.144882641337063
 20
73.565519886791094
 30
0.0
 11
166.46488264133669
 21
73.565519886791094
 31
0.0
  0
LINE
  5
87E7
  8
AM_0
 10
75.144882641337063
 20
76.915508886791145
 30
0.0
 11
115.4648826413367
 21
76.915508886791145
 31
0.0
  0
LINE
  5
87E8
  8
AM_0
 10
70.464882641337695
 20
52.855511886791192
 30
0.0
 11
70.464882641337695
 21
110.2855048867924
 31
0.0
  0
LINE
  5
87E9
  8
AM_0
 10
70.464882641337695
 20
67.595501886791112
 30
0.0
 11
80.464932641337313
 21
67.595501886791112
 31
0.0
  0
LINE
  5
87EA
  8
AM_0
 10
76.604892641336832
 20
48.615506886791067
 30
0.0
 11
89.964882641337681
 21
48.615506886791067
 31
0.0
  0
LINE
  5
87EB
  8
AM_0
 10
70.464882641337695
 20
61.93551288679145
 30
0.0
 11
80.464932641337313
 21
61.93551288679145
 31
0.0
  0
LINE
  5
87EC
  8
AM_0
 10
76.694922641337143
 20
57.30550788679114
 30
0.0
 11
89.964882641337681
 21
57.30550788679114
 31
0.0
  0
LINE
  5
87ED
  8
AM_0
 10
76.574862641336935
 20
46.985516886791167
 30
0.0
 11
90.074862641337859
 21
46.985516886791167
 31
0.0
  0
LINE
  5
87EE
  8
AM_0
 10
76.634922641337653
 20
52.025525886791463
 30
0.0
 11
89.964882641337681
 21
52.025525886791463
 31
0.0
  0
ARC
  5
87EF
  8
AM_0
 10
72.255042641337255
 20
57.752711886791189
 30
0.0
 40
1.50278811
 50
12.013342000000099
 51
90.004668000016366
  0
ARC
  5
87F0
  8
AM_0
 10
76.691922641337428
 20
59.305127886791183
 30
0.0
 40
1.9996281299999981
 50
190.3607599999992
 51
270.08533000000642
  0
ARC
  5
87F1
  8
AM_0
 10
76.577292641336484
 20
48.989834886791407
 30
0.0
 40
2.004324029999998
 50
194.2780500000039
 51
269.93109000000538
  0
LINE
  5
87F2
  8
AM_0
 10
70.464942641337075
 20
52.855511886791192
 30
0.0
 11
73.284882641335557
 21
52.785503886791147
 31
0.0
  0
ARC
  5
87F3
  8
AM_0
 10
72.29989264133566
 20
51.663752886791137
 30
0.0
 40
1.5017800800000001
 50
14.332835999994289
 51
90.189383000005648
  0
ARC
  5
87F4
  8
AM_0
 10
72.279222641337583
 20
53.689190886791152
 30
0.0
 40
1.4963320799999991
 50
13.382437999998
 51
90.164589999994277
  0
ARC
  5
87F5
  8
AM_0
 10
76.602822641337312
 20
50.617457886791151
 30
0.0
 40
2.0019479399999991
 50
193.34113999999539
 51
270.05947999999449
  0
ARC
  5
87F6
  8
AM_0
 10
76.636812641337201
 20
54.021206886791433
 30
0.0
 40
1.995695999999995
 50
192.0225299999999
 51
269.94478000001573
  0
LINE
  5
87F7
  8
AM_0
 10
74.68492264133782
 20
53.605496886791101
 30
0.0
 11
73.724892641336723
 21
58.065503886791241
 31
0.0
  0
LINE
  5
87F8
  8
AM_0
 10
72.274872641336515
 20
55.18551288679145
 30
0.0
 11
74.334942641336951
 21
55.18551288679145
 31
0.0
  0
LINE
  5
87F9
  8
AM_0
 10
72.294912641335941
 20
53.16550788679114
 30
0.0
 11
73.944912641337396
 21
53.16550788679114
 31
0.0
  0
LINE
  5
87FA
  8
AM_0
 10
74.654892641337923
 20
50.155499886791397
 30
0.0
 11
73.73491264133736
 21
54.035504886791379
 31
0.0
  0
LINE
  5
87FB
  8
AM_0
 10
74.634852641337574
 20
48.495509886792199
 30
0.0
 11
73.754862641337226
 21
52.035503886791147
 31
0.0
  0
LINE
  5
87FC
  8
AM_0
 10
65.464932641337327
 20
66.395519886791149
 30
0.0
 11
65.464932641337327
 21
53.28551988679159
 31
0.0
  0
LINE
  5
87FD
  8
AM_0
 10
72.254862641337226
 20
59.255504886791172
 30
0.0
 11
74.674902641337226
 21
59.255504886791172
 31
0.0
  0
LINE
  5
87FE
  8
AM_0
 10
74.184912641337149
 20
61.935497886791282
 30
0.0
 11
74.724882641337913
 21
58.945493886791162
 31
0.0
  0
LINE
  5
87FF
  8
AM_0
 10
70.464882641337695
 20
75.985517886791172
 30
0.0
 11
73.634922641337653
 21
75.985517886791172
 31
0.0
  0
ARC
  5
8800
  8
AM_0
 10
75.144882641337063
 20
75.240521886791157
 30
0.0
 40
1.67500812
 50
90.000002999984645
 51
270.0
  0
ARC
  5
8801
  8
AM_0
 10
76.014942641337257
 20
75.285518886791124
 30
0.0
 40
1.000004069999999
 50
90.000002999984645
 51
270.0
  0
ARC
  5
8802
  8
AM_0
 10
89.966352641336925
 20
47.11694088679144
 30
0.0
 40
1.498559999999999
 50
359.94488000000052
 51
90.055115000003084
  0
ARC
  5
8803
  8
AM_0
 10
93.467442641337584
 20
48.398021886791412
 30
0.0
 40
2.00251584
 50
180.0718999999998
 51
269.9281000000002
  0
ARC
  5
8804
  8
AM_0
 10
90.083592641337418
 20
45.485225886791582
 30
0.0
 40
1.500312029999999
 50
14.683033999999299
 51
90.331662999981404
  0
ARC
  5
8805
  8
AM_0
 10
93.466032641337719
 20
46.371929886791563
 30
0.0
 40
1.9964280599999991
 50
194.69462999999561
 51
269.96760999996542
  0
ARC
  5
8806
  8
AM_0
 10
93.464712641335595
 20
47.045330886791483
 30
0.0
 40
1.9998241199999991
 50
179.99493999999871
 51
270.00505999999473
  0
ARC
  5
8807
  8
AM_0
 10
89.963352641337224
 20
50.524013886791181
 30
0.0
 40
1.5015081599999991
 50
0.0575469979997975
 51
89.942451000003146
  0
ARC
  5
8808
  8
AM_0
 10
89.96452264133768
 20
55.805141886792171
 30
0.0
 40
1.500360179999999
 50
0.0138160000014509
 51
89.986185000013009
  0
ARC
  5
8809
  8
AM_0
 10
93.466542641337597
 20
50.427152886791191
 30
0.0
 40
2.0016401400000001
 50
180.04695999999811
 51
269.9530400000213
  0
LINE
  5
880A
  8
AM_0
 10
91.464882641335848
 20
48.395519886791128
 30
0.0
 11
91.464882641335848
 21
55.805507886791133
 31
0.0
  0
ARC
  5
880B
  8
AM_0
 10
79.635102641336744
 20
68.692622886791128
 30
0.0
 40
5.0021840999999991
 50
5.4245260000029294
 51
80.451425000001095
  0
LINE
  5
880C
  8
AM_0
 10
80.464932641337313
 20
61.93551288679145
 30
0.0
 11
80.464932641337313
 21
75.985517886791172
 31
0.0
  0
ARC
  5
880D
  8
AM_0
 10
80.095122641337184
 20
72.632030886791071
 30
0.0
 40
6.007896599999996
 50
273.52845000001128
 51
314.61726999999422
  0
ARC
  5
880E
  8
AM_0
 10
83.611422641337384
 20
69.076595886791537
 30
0.0
 40
1.007376
 50
314.2903200000024
 51
5.0634048999961614
  0
ARC
  5
880F
  8
AM_0
 10
92.464932641337299
 20
75.285518886791124
 30
0.0
 40
1.000004069999999
 50
90.000002999984645
 51
270.0
  0
LINE
  5
8810
  8
ﾁｭｳｼﾝｾﾝ
 10
53.464932641337327
 20
95.570507386791803
 30
0.0
 11
53.464932641337327
 21
125.0005023867909
 31
0.0
  0
ARC
  5
8811
  8
AM_0
 10
76.014942641337257
 20
85.28550588679218
 30
0.0
 40
1.000004069999999
 50
90.000002999984645
 51
270.0
  0
ARC
  5
8812
  8
AM_0
 10
74.924892641337451
 20
85.265501886791412
 30
0.0
 40
1.4600000699999991
 50
90.000002999984645
 51
270.0
  0
ARC
  5
8813
  8
AM_0
 10
76.016202641337259
 20
95.285519886791533
 30
0.0
 40
1.00003602
 50
89.500715999993631
 51
270.49928999999509
  0
ARC
  5
8814
  8
AM_0
 10
74.794902641337075
 20
95.275511886791463
 30
0.0
 40
1.33000008
 50
90.000002999984645
 51
270.0
  0
LINE
  5
8815
  8
AM_0
 10
53.464932641337327
 20
102.285506886791
 30
0.0
 11
70.464882641337695
 21
102.285506886791
 31
0.0
  0
LINE
  5
8816
  8
AM_0
 10
53.464932641337327
 20
118.2855058867912
 30
0.0
 11
70.464882641337695
 21
118.2855058867912
 31
0.0
  0
ARC
  5
8817
  8
AM_0
 10
53.464932641337327
 20
110.2794928867911
 30
0.0
 40
5.0000519999999984
 50
23.653229999994888
 51
156.34677000000511
  0
ARC
  5
8818
  8
AM_0
 10
53.464932641337327
 20
110.2794928867911
 30
0.0
 40
4.9952319000000003
 50
203.52669999999611
 51
336.47328999999229
  0
LINE
  5
8819
  8
AM_0
 10
47.964882641337681
 20
112.2855058867914
 30
0.0
 11
58.964892641336519
 21
112.2855058867914
 31
0.0
  0
LINE
  5
881A
  8
AM_0
 10
47.964882641337681
 20
108.2855068867913
 30
0.0
 11
58.964892641336519
 21
108.2855068867913
 31
0.0
  0
LINE
  5
881B
  8
AM_0
 10
47.964882641337681
 20
107.7855058867914
 30
0.0
 11
47.964882641337681
 21
112.7855068867913
 31
0.0
  0
LINE
  5
881C
  8
AM_0
 10
61.464882641337681
 20
107.7855058867914
 30
0.0
 11
61.464882641337681
 21
112.7855068867913
 31
0.0
  0
LINE
  5
881D
  8
AM_0
 10
58.964892641336519
 20
107.7855058867914
 30
0.0
 11
58.964892641336519
 21
112.7855068867913
 31
0.0
  0
LINE
  5
881E
  8
AM_0
 10
58.964892641336519
 20
112.7855068867913
 30
0.0
 11
61.464882641337681
 21
112.7855068867913
 31
0.0
  0
LINE
  5
881F
  8
AM_0
 10
58.964892641336519
 20
107.7855058867914
 30
0.0
 11
61.464882641337681
 21
107.7855058867914
 31
0.0
  0
ARC
  5
8820
  8
AM_0
 10
74.734902641337627
 20
105.2855068867912
 30
0.0
 40
1.270004069999999
 50
90.000002999984645
 51
270.0
  0
ARC
  5
8821
  8
AM_0
 10
76.016202641337259
 20
105.2855068867912
 30
0.0
 40
1.00003602
 50
89.500715999993631
 51
270.49928999999509
  0
ARC
  5
8822
  8
AM_0
 10
76.016202641337259
 20
115.2855058867914
 30
0.0
 40
1.00003602
 50
89.500715999993631
 51
270.49928999999509
  0
ARC
  5
8823
  8
AM_0
 10
74.734902641337627
 20
115.2905098867914
 30
0.0
 40
1.265004089999999
 50
90.000002999984645
 51
270.0
  0
ARC
  5
8824
  8
AM_0
 10
92.464932641337299
 20
85.28550588679218
 30
0.0
 40
1.000004069999999
 50
90.000002999984645
 51
270.0
  0
ARC
  5
8825
  8
AM_0
 10
92.464932641337299
 20
95.285519886791533
 30
0.0
 40
1.000004069999999
 50
90.000002999984645
 51
270.0
  0
ARC
  5
8826
  8
AM_0
 10
92.464932641337299
 20
105.2855068867912
 30
0.0
 40
1.000004069999999
 50
90.000002999984645
 51
270.0
  0
ARC
  5
8827
  8
AM_0
 10
92.464932641337299
 20
115.2855058867914
 30
0.0
 40
1.000004069999999
 50
90.000002999984645
 51
270.0
  0
ARC
  5
8828
  8
AM_0
 10
146.4640326413373
 20
46.376399886791098
 30
0.0
 40
2.000876009999998
 50
270.02510999999589
 51
359.97488999999757
  0
ARC
  5
8829
  8
AM_0
 10
146.4625626413399
 20
47.047847886791139
 30
0.0
 40
2.002332029999998
 50
270.0667399999752
 51
359.93325999999882
  0
ARC
  5
882A
  8
AM_0
 10
146.45989264133729
 20
48.400538886791317
 30
0.0
 40
2.00502402
 50
270.14340999997518
 51
359.85658999999868
  0
LINE
  5
882B
  8
AM_0
 10
148.4648826413376
 20
46.375499886791097
 30
0.0
 11
148.4648826413376
 21
48.425504886792041
 31
0.0
  0
ARC
  5
882C
  8
AM_0
 10
214.2848826413364
 20
75.240521886791157
 30
0.0
 40
1.6749999899999961
 50
270.0
 51
90.000002999984645
  0
ARC
  5
882D
  8
AM_0
 10
212.31424264133781
 20
51.792035886791268
 30
0.0
 40
2.0065319999999991
 50
270.01927000000978
 51
347.72687000000042
  0
LINE
  5
882E
  8
AM_0
 10
212.17489264133559
 20
49.785518886791117
 30
0.0
 11
217.4648826413376
 21
49.785518886791117
 31
0.0
  0
LINE
  5
882F
  8
AM_0
 10
212.204862641337
 20
49.905497886791181
 30
0.0
 11
215.6648826413375
 21
62.825498886791131
 31
0.0
  0
LINE
  5
8830
  8
AM_0
 10
214.2848826413364
 20
76.915508886791145
 30
0.0
 11
204.4648826413376
 21
76.915508886791145
 31
0.0
  0
ARC
  5
8831
  8
AM_0
 10
210.27031264133711
 20
50.429912886791151
 30
0.0
 40
2.004416039999998
 50
270.13147999996619
 51
344.83334000000627
  0
LINE
  5
8832
  8
AM_0
 10
210.8149326413367
 20
76.285505886791157
 30
0.0
 11
204.4648826413376
 21
76.285505886791157
 31
0.0
  0
LINE
  5
8833
  8
AM_0
 10
204.4648826413376
 20
80.206766300222043
 30
0.0
 11
207.23491264133639
 21
80.285489886791325
 31
0.0
  0
ARC
  5
8834
  8
AM_0
 10
210.80674264133901
 20
75.285518886791124
 30
0.0
 40
1.0000319699999971
 50
270.4692999999848
 51
89.530700000015187
  0
ARC
  5
8835
  8
AM_0
 10
218.4643926413373
 20
59.244977886791268
 30
0.0
 40
0.99947604
 50
179.97008999999551
 51
270.02991999999381
  0
ARC
  5
8836
  8
AM_0
 10
217.17196264133781
 20
57.756191886791612
 30
0.0
 40
1.499328059999999
 50
89.888150999980539
 51
168.09384000000131
  0
ARC
  5
8837
  8
AM_0
 10
218.4651426413356
 20
47.785685886791271
 30
0.0
 40
1.0001800499999971
 50
180.0103099999989
 51
269.98967999999968
  0
LINE
  5
8838
  8
AM_0
 10
214.2748926413378
 20
51.3655048867913
 30
0.0
 11
215.71489264133649
 21
58.065503886791241
 31
0.0
  0
ARC
  5
8839
  8
AM_0
 10
217.11028264133699
 20
62.439527886791439
 30
0.0
 40
1.49599605
 50
89.821707000006256
 51
165.0476599999993
  0
LINE
  5
883A
  8
AM_0
 10
217.17490264133991
 20
59.255504886791172
 30
0.0
 11
214.7649426413372
 21
59.255504886791172
 31
0.0
  0
LINE
  5
883B
  8
AM_0
 10
22.964892641336519
 20
154.17549888679099
 30
0.0
 11
70.464882641337695
 21
154.17549888679099
 31
0.0
  0
LINE
  5
883C
  8
AM_0
 10
22.964892641336519
 20
143.92552188679201
 30
0.0
 11
65.464932641337327
 21
143.92552188679201
 31
0.0
  0
LINE
  5
883D
  8
AM_0
 10
22.464882641336761
 20
167.285498886792
 30
0.0
 11
70.464882641337695
 21
167.285498886792
 31
0.0
  0
ARC
  5
883E
  8
AM_0
 10
22.465422641336762
 20
165.2849488867914
 30
0.0
 40
2.000536019999998
 50
90.015329000011192
 51
179.98468000000159
  0
ARC
  5
883F
  8
AM_0
 10
21.362652641337249
 20
147.6680188867914
 30
0.0
 40
2.9977641899999981
 50
179.8564500000015
 51
275.78659000000278
  0
LINE
  5
8840
  8
AM_0
 10
21.66490264133699
 20
144.57551688679129
 30
0.0
 11
21.66490264133699
 21
153.7755088867911
 31
0.0
  0
LINE
  5
8841
  8
AM_0
 10
21.66490264133699
 20
144.57551688679129
 30
0.0
 11
22.964892641336519
 21
144.57551688679129
 31
0.0
  0
LINE
  5
8842
  8
AM_0
 10
20.464932641337331
 20
153.5355088867916
 30
0.0
 11
20.464932641337331
 21
165.28551888679101
 31
0.0
  0
ARC
  5
8843
  8
AM_0
 10
21.362712641337559
 20
150.6729988867915
 30
0.0
 40
2.99777994
 50
84.213882999984975
 51
179.95211
  0
LINE
  5
8844
  8
AM_0
 10
18.364902641336808
 20
147.67551888679139
 30
0.0
 11
18.364902641336808
 21
150.67551888679139
 31
0.0
  0
LINE
  5
8845
  8
AM_0
 10
21.66490264133699
 20
153.7755088867911
 30
0.0
 11
22.964892641336519
 21
153.7755088867911
 31
0.0
  0
LINE
  5
8846
  8
AM_0
 10
115.4648826413367
 20
156.635498886791
 30
0.0
 11
217.4648826413376
 21
156.635498886791
 31
0.0
  0
LINE
  5
8847
  8
AM_0
 10
84.144882641337077
 20
147.0054988867914
 30
0.0
 11
214.2848826413364
 21
147.0054988867914
 31
0.0
  0
LINE
  5
8848
  8
AM_0
 10
210.8149326413367
 20
146.285498886791
 30
0.0
 11
85.014942641337257
 21
146.285498886791
 31
0.0
  0
LINE
  5
8849
  8
AM_0
 10
93.464892641335624
 20
172.1455288867914
 30
0.0
 11
210.27487264133561
 21
172.1455288867914
 31
0.0
  0
LINE
  5
884A
  8
AM_0
 10
115.46494264133879
 20
156.635498886791
 30
0.0
 11
80.464872641337934
 21
154.60551888679211
 31
0.0
  0
LINE
  5
884B
  8
AM_0
 10
74.794902641337075
 20
123.96549888679149
 30
0.0
 11
115.4648826413367
 21
123.96549888679149
 31
0.0
  0
LINE
  5
884C
  8
AM_0
 10
74.794902641337075
 20
126.6255028867913
 30
0.0
 11
115.4648826413367
 21
126.6255028867913
 31
0.0
  0
LINE
  5
884D
  8
AM_0
 10
83.924892641337451
 20
133.84550388679139
 30
0.0
 11
114.9648826413375
 21
133.84550388679139
 31
0.0
  0
LINE
  5
884E
  8
AM_0
 10
83.924892641337451
 20
136.77552888679111
 30
0.0
 11
114.9648826413375
 21
136.77552888679111
 31
0.0
  0
LINE
  5
884F
  8
AM_0
 10
84.144882641337077
 20
143.65553388679101
 30
0.0
 11
115.4648826413367
 21
143.65553388679101
 31
0.0
  0
LINE
  5
8850
  8
AM_0
 10
115.4648826413367
 20
124.2855058867915
 30
0.0
 11
76.024872641336515
 21
124.2855058867915
 31
0.0
  0
LINE
  5
8851
  8
AM_0
 10
115.4648826413367
 20
126.28550688679201
 30
0.0
 11
76.024872641336515
 21
126.28550688679201
 31
0.0
  0
LINE
  5
8852
  8
AM_0
 10
114.9648826413375
 20
134.28550788679101
 30
0.0
 11
85.014942641337257
 21
134.28550788679101
 31
0.0
  0
LINE
  5
8853
  8
AM_0
 10
114.9648826413375
 20
136.28550588679209
 30
0.0
 11
85.014942641337257
 21
136.28550588679209
 31
0.0
  0
LINE
  5
8854
  8
AM_0
 10
115.4648826413367
 20
144.28550688679101
 30
0.0
 11
85.014942641337257
 21
144.28550688679101
 31
0.0
  0
LINE
  5
8855
  8
AM_0
 10
93.464892641335624
 20
174.17550888679139
 30
0.0
 11
146.4649326413373
 21
174.17550888679139
 31
0.0
  0
LINE
  5
8856
  8
AM_0
 10
93.464892641335624
 20
175.52550888679099
 30
0.0
 11
146.4649326413373
 21
175.52550888679099
 31
0.0
  0
LINE
  5
8857
  8
AM_0
 10
93.464892641335624
 20
176.20551888679111
 30
0.0
 11
146.4649326413373
 21
176.20551888679111
 31
0.0
  0
ARC
  5
8858
  8
AM_0
 10
76.636572641336883
 20
166.56009888679131
 30
0.0
 40
1.9953880799999959
 50
90.048066999965187
 51
167.98461999999969
  0
LINE
  5
8859
  8
AM_0
 10
91.464882641335848
 20
172.17549888679099
 30
0.0
 11
91.464882641335848
 21
164.76552888679129
 31
0.0
  0
LINE
  5
885A
  8
AM_0
 10
74.654952641337331
 20
170.415518886792
 30
0.0
 11
73.73491264133736
 21
166.535498886792
 31
0.0
  0
LINE
  5
885B
  8
AM_0
 10
76.694922641337143
 20
163.26552888679129
 30
0.0
 11
89.964882641337681
 21
163.26552888679129
 31
0.0
  0
LINE
  5
885C
  8
AM_0
 10
70.464882641337695
 20
158.63550888679109
 30
0.0
 11
80.464932641337313
 21
158.63550888679109
 31
0.0
  0
LINE
  5
885D
  8
AM_0
 10
70.464882641337695
 20
152.975498886792
 30
0.0
 11
80.464932641337313
 21
152.975498886792
 31
0.0
  0
LINE
  5
885E
  8
AM_0
 10
70.464882641337695
 20
144.59550588679119
 30
0.0
 11
80.464932641337313
 21
144.59550588679119
 31
0.0
  0
ARC
  5
885F
  8
AM_0
 10
74.794902641337075
 20
125.29551588679141
 30
0.0
 40
1.33000008
 50
90.000002999984645
 51
270.0
  0
ARC
  5
8860
  8
AM_0
 10
76.016202641337259
 20
125.2855048867913
 30
0.0
 40
1.00003602
 50
89.500715999993631
 51
270.49928999999509
  0
LINE
  5
8861
  8
AM_0
 10
65.464932641337327
 20
118.2855058867912
 30
0.0
 11
65.464932641337327
 21
167.285498886792
 31
0.0
  0
ARC
  5
8862
  8
AM_0
 10
72.274092641337091
 20
166.8883288867915
 30
0.0
 40
1.502808149999999
 50
270.03078999999502
 51
346.4221800000019
  0
ARC
  5
8863
  8
AM_0
 10
72.256152641336485
 20
162.8296288867914
 30
0.0
 40
1.504140059999999
 50
269.9542499999659
 51
347.55525000000432
  0
ARC
  5
8864
  8
AM_0
 10
76.686732641337571
 20
161.27211888679139
 30
0.0
 40
1.993432109999999
 50
89.765883999979707
 51
169.78803000000019
  0
LINE
  5
8865
  8
AM_0
 10
72.274872641336515
 20
165.38550888679211
 30
0.0
 11
74.334942641336951
 21
165.38550888679211
 31
0.0
  0
LINE
  5
8866
  8
AM_0
 10
74.684862641337546
 20
166.9755088867914
 30
0.0
 11
73.724832641337343
 21
162.50550888679109
 31
0.0
  0
LINE
  5
8867
  8
AM_0
 10
72.254862641337226
 20
161.325518886792
 30
0.0
 11
74.674902641337226
 21
161.325518886792
 31
0.0
  0
LINE
  5
8868
  8
AM_0
 10
74.184852641337784
 20
158.63550888679109
 30
0.0
 11
74.724882641337913
 21
161.62554888679139
 31
0.0
  0
ARC
  5
8869
  8
AM_0
 10
85.014942641337257
 20
145.28550888679149
 30
0.0
 40
1.000004069999999
 50
90.000002999984645
 51
270.0
  0
ARC
  5
886A
  8
AM_0
 10
84.144882641337077
 20
145.33047888679221
 30
0.0
 40
1.67500812
 50
90.000002999984645
 51
270.0
  0
ARC
  5
886B
  8
AM_0
 10
92.464932641337299
 20
145.28550888679149
 30
0.0
 40
1.000004069999999
 50
90.000002999984645
 51
270.0
  0
LINE
  5
886C
  8
AM_0
 10
80.464932641337313
 20
158.63550888679109
 30
0.0
 11
80.464932641337313
 21
144.59550588679119
 31
0.0
  0
ARC
  5
886D
  8
AM_0
 10
85.014942641337257
 20
135.28550688679101
 30
0.0
 40
1.000004069999999
 50
90.000002999984645
 51
270.0
  0
ARC
  5
886E
  8
AM_0
 10
83.924892641337451
 20
135.31049988679101
 30
0.0
 40
1.46500008
 50
90.000002999984645
 51
270.0
  0
ARC
  5
886F
  8
AM_0
 10
92.464932641337299
 20
135.28550688679101
 30
0.0
 40
1.000004069999999
 50
90.000002999984645
 51
270.0
  0
ARC
  5
8870
  8
AM_0
 10
92.464932641337299
 20
125.2855048867913
 30
0.0
 40
1.000004069999999
 50
90.000002999984645
 51
270.0
  0
ARC
  5
8871
  8
AM_0
 10
83.614842641335599
 20
151.495658886792
 30
0.0
 40
1.004135999999999
 50
354.84884000000369
 51
45.797436000011167
  0
ARC
  5
8872
  8
AM_0
 10
80.08609264133699
 20
147.953558886791
 30
0.0
 40
6.0039084000000011
 50
45.223692999997049
 51
86.382714000002196
  0
ARC
  5
8873
  8
AM_0
 10
79.629852641337479
 20
151.88328888679141
 30
0.0
 40
5.0078918999999971
 50
279.59871999996841
 51
354.52532000000292
  0
ARC
  5
8874
  8
AM_0
 10
89.959272641337535
 20
164.7711688867912
 30
0.0
 40
1.5056760899999959
 50
270.21551999996632
 51
359.78447000000108
  0
LINE
  5
8875
  8
AM_0
 10
76.574862641336935
 20
173.5854988867915
 30
0.0
 11
90.074862641337859
 21
173.5854988867915
 31
0.0
  0
LINE
  5
8876
  8
AM_0
 10
76.604892641336832
 20
171.95547888679141
 30
0.0
 11
89.964882641337681
 21
171.95547888679141
 31
0.0
  0
LINE
  5
8877
  8
AM_0
 10
76.634922641337653
 20
168.55548888679141
 30
0.0
 11
89.964882641337681
 21
168.55548888679141
 31
0.0
  0
LINE
  5
8878
  8
AM_0
 10
70.464882641337695
 20
167.71548888679129
 30
0.0
 11
73.284882641335557
 21
167.78547888679199
 31
0.0
  0
ARC
  5
8879
  8
AM_0
 10
76.5722526413374
 20
171.58770888679149
 30
0.0
 40
1.9977801299999991
 50
89.923080999997794
 51
165.86777000000001
  0
ARC
  5
887A
  8
AM_0
 10
72.293202641337302
 20
168.91260888679099
 30
0.0
 40
1.5070961099999991
 50
270.06481999997561
 51
345.90217999999732
  0
ARC
  5
887B
  8
AM_0
 10
76.597752641337124
 20
169.96002888679129
 30
0.0
 40
1.995484169999999
 50
89.79345799999912
 51
166.8059200000024
  0
LINE
  5
887C
  8
AM_0
 10
74.634912641336982
 20
172.0755088867914
 30
0.0
 11
73.754922641337544
 21
168.545528886791
 31
0.0
  0
LINE
  5
887D
  8
AM_0
 10
72.294912641335941
 20
167.40549888679101
 30
0.0
 11
73.944912641337396
 21
167.40549888679101
 31
0.0
  0
ARC
  5
887E
  8
AM_0
 10
90.078522641337244
 20
175.09239888679201
 30
0.0
 40
1.506888089999999
 50
269.86223000001252
 51
345.12306999999907
  0
ARC
  5
887F
  8
AM_0
 10
89.961042641336476
 20
173.45934888679159
 30
0.0
 40
1.5038481299999991
 50
270.14639999998991
 51
359.85359999999702
  0
ARC
  5
8880
  8
AM_0
 10
89.963112641336934
 20
170.05731888679111
 30
0.0
 40
1.501796039999995
 50
270.0685500000119
 51
359.93145000000101
  0
ARC
  5
8881
  8
AM_0
 10
93.467382641337281
 20
174.2106688867913
 30
0.0
 40
1.99484415
 50
90.071658000004405
 51
165.63720000000311
  0
ARC
  5
8882
  8
AM_0
 10
93.459462641337268
 20
173.530928886792
 30
0.0
 40
1.99457616
 50
89.844007999986985
 51
180.15598999999611
  0
ARC
  5
8883
  8
AM_0
 10
93.462132641338926
 20
172.17828888679099
 30
0.0
 40
1.9972080599999991
 50
89.919857000000462
 51
180.08013999999881
  0
ARC
  5
8884
  8
AM_0
 10
93.461292641337408
 20
170.1491188867912
 30
0.0
 40
1.996384079999995
 50
89.896162999967444
 51
180.10383999999601
  0
ARC
  5
8885
  8
AM_0
 10
146.46427264133749
 20
174.20487888679151
 30
0.0
 40
2.0006240100000001
 50
0.0178240009987588
 51
89.982176000023884
  0
ARC
  5
8886
  8
AM_0
 10
146.4678126413373
 20
173.52843888679209
 30
0.0
 40
1.997088119999999
 50
359.91637999999853
 51
90.083624999987734
  0
ARC
  5
8887
  8
AM_0
 10
146.46520264133679
 20
172.1757988867912
 30
0.0
 40
1.999720049999999
 50
359.99193999999602
 51
90.008061999993785
  0
LINE
  5
8888
  8
AM_0
 10
148.4648826413376
 20
174.20547888679141
 30
0.0
 11
148.4648826413376
 21
172.1455288867914
 31
0.0
  0
LINE
  5
8889
  8
AM_0
 10
212.204862641337
 20
170.6655388867911
 30
0.0
 11
215.6648826413375
 21
157.745558886791
 31
0.0
  0
LINE
  5
888A
  8
AM_0
 10
214.2748926413378
 20
169.2055288867914
 30
0.0
 11
215.71489264133649
 21
162.50550888679109
 31
0.0
  0
ARC
  5
888B
  8
AM_0
 10
214.2848826413364
 20
145.33047888679221
 30
0.0
 40
1.6749999899999961
 50
270.0
 51
90.000002999984645
  0
LINE
  5
888C
  8
AM_0
 10
214.2848826413364
 20
143.65553388679101
 30
0.0
 11
204.4648826413376
 21
143.65553388679101
 31
0.0
  0
ARC
  5
888D
  8
AM_0
 10
210.80674264133901
 20
145.28550888679149
 30
0.0
 40
1.0000319699999971
 50
270.4692999999848
 51
89.530700000015187
  0
LINE
  5
888E
  8
AM_0
 10
204.4648826413376
 20
144.18553188679101
 30
0.0
 11
210.8149326413367
 21
144.18553188679101
 31
0.0
  0
LINE
  5
888F
  8
AM_0
 10
204.4648826413376
 20
140.36423147336009
 30
0.0
 11
207.23491264133639
 21
140.28550788679101
 31
0.0
  0
ARC
  5
8890
  8
AM_0
 10
217.11514264133709
 20
158.13789888679131
 30
0.0
 40
1.50239199
 50
195.14001000000641
 51
269.99064000000641
  0
ARC
  5
8891
  8
AM_0
 10
218.45926264133769
 20
161.33112888679119
 30
0.0
 40
0.99440004
 50
89.676491000019539
 51
180.32350999999781
  0
ARC
  5
8892
  8
AM_0
 10
217.17076264133709
 20
162.82596888679191
 30
0.0
 40
1.500476039999995
 50
192.33223000000149
 51
270.15827999999971
  0
LINE
  5
8893
  8
AM_0
 10
217.17490264133991
 20
161.325518886792
 30
0.0
 11
214.7649426413372
 21
161.325518886792
 31
0.0
  0
ARC
  5
8894
  8
AM_0
 10
212.3193726413364
 20
168.78531888679109
 30
0.0
 40
2.0001800699999981
 50
12.12635200000085
 51
90.127514999991448
  0
LINE
  5
8895
  8
AM_0
 10
212.17489264133559
 20
170.78550888679129
 30
0.0
 11
217.4648826413376
 21
170.78550888679129
 31
0.0
  0
ARC
  5
8896
  8
AM_0
 10
210.27538264133719
 20
170.14770888679141
 30
0.0
 40
1.997795999999999
 50
15.021596999998801
 51
90.013580999977563
  0
ARC
  5
8897
  8
AM_0
 10
218.46001264133699
 20
172.79043888679141
 30
0.0
 40
0.9950640599999999
 50
89.714938000019984
 51
180.28505999999811
  0
LINE
  5
889E
  8
AM_0
 10
199.96488264133771
 20
132.7855048867913
 30
0.0
 11
199.96488264133581
 21
87.785504886791387
 31
0.0
  0
LINE
  5
889F
  8
AM_0
 10
197.86488264133729
 20
133.3357574184852
 30
0.0
 11
197.86488264133729
 21
87.235252355097586
 31
0.0
  0
LINE
  5
88A0
  8
AM_0
 10
114.9648826413375
 20
92.285504886791387
 30
0.0
 11
114.9648826413375
 21
82.285494886791184
 31
0.0
  0
LINE
  5
88A1
  8
AM_0
 10
115.4648826413367
 20
77.785498886791174
 30
0.0
 11
115.4648826413367
 21
142.78549488679101
 31
0.0
  0
LINE
  5
88A2
  8
AM_0
 10
187.015127173031
 20
76.385496886791316
 30
0.0
 11
119.88486264133731
 21
76.385496886791316
 31
0.0
  0
LINE
  5
88A3
  8
AM_0
 10
119.88486264133731
 20
76.385496886791316
 30
0.0
 11
119.88486264133731
 21
74.28550588679127
 31
0.0
  0
ARC
  5
88A4
  8
AM_0
 10
118.9575026413375
 20
77.77815188679142
 30
0.0
 40
3.492651899999998
 50
179.8793300000022
 51
270.12067999996867
  0
ARC
  5
88A5
  8
AM_0
 10
115.45756264133701
 20
82.278154886791071
 30
0.0
 40
0.4927000100000001
 50
179.14455999999711
 51
270.85544000001568
  0
ARC
  5
88A6
  8
AM_0
 10
201.9648826413376
 20
87.785504886791387
 30
0.0
 40
2.0
 50
180.0
 51
270.0
  0
LINE
  5
88A7
  8
AM_0
 10
197.45483213499739
 20
86.245302861435079
 30
0.0
 11
188.00507666669361
 21
76.795547393130363
 31
0.0
  0
LINE
  5
88A8
  8
AM_0
 10
188.00508466669271
 20
76.795555393130229
 30
0.0
 11
197.45483213499921
 21
86.245302861436585
 31
0.0
  0
ARC
  5
88A9
  8
AM_0
 10
187.015127173031
 20
77.785496886791393
 30
0.0
 40
1.399999999999999
 50
270.0
 51
315.00000000000921
1001
GENIUS_GENODEF_13
1002
{
1000
HIER
1070
     0
1002
}
1002
{
1000
MANEDIT
1070
     0
1002
}
1002
{
1000
NOSEL
1070
     0
1002
}
1002
{
1000
BEHIND
1070
     0
1002
}
1002
{
1000
OTHER
1070
     0
1002
}
1002
{
1000
REACTOR
1002
}
1001
GENIUS_GENOBJ-N-FIL_13
1002
{
1000
OWNER
1000
GEN
1002
}
  0
ARC
  5
88AA
  8
AM_0
 10
196.4648826413376
 20
87.235252355097586
 30
0.0
 40
1.4000000000006301
 50
314.9999999999539
 51
0.0
  0
ARC
  5
88AB
  8
AM_0
 10
202.4648826413376
 20
76.285504886791273
 30
0.0
 40
2.0
 50
270.0
 51
0.0
  0
ARC
  5
88AC
  8
AM_0
 10
202.4648826413376
 20
83.785504886791358
 30
0.0
 40
2.0
 50
0.0
 51
90.0
  0
LINE
  5
88AD
  8
AM_0
 10
202.4648826413376
 20
85.785504886791372
 30
0.0
 11
201.9648826413376
 21
85.785504886791372
 31
0.0
  0
LINE
  5
88AE
  8
AM_0
 10
204.4648826413376
 20
76.285504886791273
 30
0.0
 11
204.4648826413376
 21
83.785504886791358
 31
0.0
  0
LINE
  5
88AF
  8
AM_0
 10
119.88486264133731
 20
144.18548488679099
 30
0.0
 11
187.02261846121189
 21
144.18548488679099
 31
0.0
  0
ARC
  5
88B0
  8
AM_0
 10
115.4654326413374
 20
92.284954886791041
 30
0.0
 40
0.5005480100000002
 50
90.062622000000005
 51
179.93736999999041
  0
ARC
  5
88B1
  8
AM_0
 10
115.4654326413374
 20
138.28495488679101
 30
0.0
 40
0.5005480100000002
 50
90.062622000000005
 51
179.93736999999041
  0
ARC
  5
88B2
  8
AM_0
 10
115.4573726413373
 20
128.27799488679099
 30
0.0
 40
0.49254802
 50
179.12656000000209
 51
270.8734499999884
  0
LINE
  5
88B3
  8
AM_0
 10
114.9648826413375
 20
138.28549488679101
 30
0.0
 11
114.9648826413375
 21
128.2855048867913
 31
0.0
  0
LINE
  5
88B4
  8
AM_0
 10
119.88486264133731
 20
144.18548488679099
 30
0.0
 11
119.88486264133731
 21
146.2804848867913
 31
0.0
  0
ARC
  5
88B5
  8
AM_0
 10
118.9653726413371
 20
142.7850048867914
 30
0.0
 40
3.5005001999999981
 50
90.008164999989489
 51
179.99183999999781
  0
LINE
  5
88B6
  8
AM_0
 10
201.9648826413376
 20
115.7855048867913
 30
0.0
 11
199.96488264133771
 21
115.7855048867913
 31
0.0
  0
LINE
  5
88B7
  8
AM_0
 10
199.96488264133581
 20
104.7855048867913
 30
0.0
 11
201.9648826413376
 21
104.7855048867913
 31
0.0
  0
LINE
  5
88B8
  8
AM_0
 10
201.9648826413376
 20
104.7855048867913
 30
0.0
 11
201.9648826413376
 21
115.7855048867913
 31
0.0
  0
ARC
  5
88B9
  8
AM_0
 10
201.9648826413376
 20
132.7855048867913
 30
0.0
 40
2.0
 50
90.0
 51
180.0
  0
CIRCLE
  5
88BA
  8
AM_0
 10
198.96488264133399
 20
141.2855048867913
 30
0.0
 40
3.4999999999999631
  0
LINE
  5
88BB
  8
AM_0
 10
188.00508466669271
 20
143.775454380452
 30
0.0
 11
197.45483213499739
 21
134.32570691214821
 31
0.0
  0
LINE
  5
88BC
  8
AM_0
 10
195.86488264133729
 20
135.91565640580711
 30
0.0
 11
197.45483213499739
 21
134.3257069121473
 31
0.0
  0
ARC
  5
88BD
  8
AM_0
 10
196.4648826413376
 20
133.3357574184852
 30
0.0
 40
1.400000000000118
 50
0.0
 51
45.000000000046043
  0
ARC
  5
88BE
  8
AM_0
 10
187.01513517303101
 20
142.7855048867913
 30
0.0
 40
1.40000000000077
 50
44.999999999981569
 51
89.999999999947889
  0
LINE
  5
88BF
  8
AM_0
 10
204.4648826413376
 20
136.7855048867913
 30
0.0
 11
204.4648826413376
 21
144.2855048867913
 31
0.0
  0
LINE
  5
88C0
  8
AM_0
 10
204.4648826413376
 20
136.7855048867913
 30
0.0
 11
204.4648826413376
 21
144.2855048867913
 31
0.0
  0
ARC
  5
88C1
  8
AM_0
 10
202.4648826413376
 20
136.7855048867913
 30
0.0
 40
2.0
 50
270.0
 51
0.0
  0
LINE
  5
88C2
  8
AM_0
 10
201.9648826413376
 20
134.7855048867913
 30
0.0
 11
202.4648826413376
 21
134.7855048867913
 31
0.0
  0
ARC
  5
88C3
  8
AM_0
 10
202.4648826413376
 20
144.2855048867913
 30
0.0
 40
2.0
 50
0.0
 51
90.0
  0
LINE
  5
88C4
  8
AM_0
 10
196.3263109601312
 20
141.28550488679241
 30
0.0
 11
201.60345432254499
 21
141.28550488679241
 31
0.0
  0
LINE
  5
88C5
  8
AM_0
 10
198.96488264133399
 20
143.9240765679983
 30
0.0
 11
198.96488264133399
 21
138.64693320558439
 31
0.0
  0
CIRCLE
  5
88C6
  8
AM_0
 10
198.96488264133399
 20
79.285504886791372
 30
0.0
 40
3.4999999999999631
  0
LINE
  5
88C7
  8
AM_0
 10
196.3263109601312
 20
79.285504886793333
 30
0.0
 11
201.60345432254499
 21
79.285504886792523
 31
0.0
  0
LINE
  5
88C8
  8
AM_0
 10
198.96488264133399
 20
81.924076567998313
 30
0.0
 11
198.96488264133399
 21
76.646933205585341
 31
0.0
  0
LINE
  5
88CA
  8
AM_0
 10
22.964892641336519
 20
86.311333240867043
 30
0.0
 11
22.964892641336519
 21
167.285498886792
 31
0.0
  0
LINE
  5
88FD
  8
ﾁｭｳｼﾝｾﾝ
 10
713.32140451137298
 20
317.4315472050364
 30
0.0
 11
738.77724060382923
 21
291.97569505206388
 31
0.0
  0
ARC
  5
88FE
  8
ﾁｭｳｼﾝｾﾝ
 10
846.25747899034718
 20
184.49546488678021
 30
0.0
 40
170.00000500001559
 50
128.93055081107701
 51
141.0694492799494
  0
LINE
  5
88FF
  8
ﾁｭｳｼﾝｾﾝ
 10
713.32139667209015
 20
51.559390407828403
 30
0.0
 11
738.77724882506254
 21
77.015226500284854
 31
0.0
  0
ARC
  5
8900
  8
ﾁｭｳｼﾝｾﾝ
 10
846.25747899034627
 20
184.49546488680261
 30
0.0
 40
170.00000500001559
 50
218.9305508110769
 51
231.0694492799494
  0
LINE
  5
8901
  8
ﾁｭｳｼﾝｾﾝ
 10
979.19355346929797
 20
51.559382568545743
 30
0.0
 11
953.73771737684149
 21
77.015234721518254
 31
0.0
  0
ARC
  5
8902
  8
ﾁｭｳｼﾝｾﾝ
 10
846.25747899032388
 20
184.4954648868019
 30
0.0
 40
170.00000500001559
 50
308.93055081107701
 51
321.0694492799492
  0
LINE
  5
8903
  8
ﾁｭｳｼﾝｾﾝ
 10
787.03300177597703
 20
110.2855048867913
 30
0.0
 11
905.48195620469437
 21
110.2855048867913
 31
0.0
  0
LINE
  5
8B3F
  8
AM_0
 10
522.96487264133668
 20
555.2390556966651
 30
0.0
 11
578.96484264133687
 21
555.2390556966651
 31
0.0
  0
LINE
  5
8B40
  8
AM_0
 10
522.96487264133668
 20
567.2390556966651
 30
0.0
 11
578.96484264133687
 21
567.2390556966651
 31
0.0
  0
LINE
  5
8B41
  8
AM_0
 10
508.9648726413368
 20
540.23911569666495
 30
0.0
 11
578.96484264133687
 21
540.23911569666495
 31
0.0
  0
LINE
  5
8B42
  8
AM_0
 10
508.9648726413368
 20
582.23911569666495
 30
0.0
 11
578.96484264133687
 21
582.23911569666495
 31
0.0
  0
LINE
  5
8B43
  8
ﾁｭｳｼﾝｾﾝ
 10
5.3884148033707771
 20
561.23911569666495
 30
0.0
 11
583.94238480336867
 21
561.23911569666495
 31
0.0
  0
POLYLINE
  5
8CD6
  8
AM_0
 66
     1
 10
0.0
 20
0.0
 30
0.0
  0
VERTEX
  5
8CD7
  8
AM_0
 10
463.82907264133689
 20
612.80360569666493
 30
0.0
 42
0.030646501
  0
VERTEX
  5
8CD8
  8
AM_0
 10
459.41952264133681
 20
578.52020569666513
 30
0.0
 42
0.064801596
  0
VERTEX
  5
8CD9
  8
AM_0
 10
463.82907264133689
 20
509.67459569666488
 30
0.0
  0
SEQEND
  5
8CDA
  8
AM_0
  0
ARC
  5
8CDB
  8
AM_0
 10
243.464872641337
 20
549.13615569666501
 30
0.0
 40
3.0
 50
180.00001000000091
 51
267.99999999999631
  0
LINE
  5
8CDC
  8
AM_0
 10
506.96480264133697
 20
441.2391156966649
 30
0.0
 11
506.96480264133697
 21
681.2390556966651
 31
0.0
  0
LINE
  5
8CDD
  8
AM_0
 10
492.96480264133652
 20
450.28178569666488
 30
0.0
 11
492.96480264133652
 21
672.19639569666458
 31
0.0
  0
LINE
  5
8CDE
  8
AM_0
 10
502.96480264133697
 20
418.73911569666512
 30
0.0
 11
502.96480264133697
 21
703.73905569666488
 31
0.0
  0
LINE
  5
8CDF
  8
AM_0
 10
484.96487264133668
 20
422.2480956966649
 30
0.0
 11
484.96487264133668
 21
700.21348569666475
 31
0.0
  0
LINE
  5
8CE0
  8
AM_0
 10
508.9648726413368
 20
538.73911569666495
 30
0.0
 11
508.9648726413368
 21
583.73911569666495
 31
0.0
  0
LINE
  5
8CE2
  8
AM_0
 10
240.46487264133719
 20
518.91636569666514
 30
0.0
 11
240.46487264133719
 21
604.09769569666457
 31
0.0
  0
LINE
  5
8CE3
  8
AM_0
 10
225.4648726413368
 20
497.2391156966649
 30
0.0
 11
225.4648726413368
 21
625.23911569666495
 31
0.0
  0
LINE
  5
8CE4
  8
AM_0
 10
315.4648726413368
 20
490.98533569666512
 30
0.0
 11
315.4648726413368
 21
631.49284569666474
 31
0.0
  0
LINE
  5
8CE6
  8
AM_0
 10
325.46474264133678
 20
487.7390556966651
 30
0.0
 11
325.46474264133678
 21
634.73911569666495
 31
0.0
  0
LINE
  5
8CE7
  8
AM_0
 10
386.9648726413368
 20
421.50108569666497
 30
0.0
 11
386.9648726413368
 21
557.23905569666488
 31
0.0
  0
LINE
  5
8CE8
  8
AM_0
 10
373.96474264133673
 20
425.02927569666502
 30
0.0
 11
373.96474264133673
 21
551.69968569666491
 31
0.0
  0
LINE
  5
8CE9
  8
AM_0
 10
359.9648726413368
 20
447.13108569666502
 30
0.0
 11
359.9648726413368
 21
557.23905569666488
 31
0.0
  0
LINE
  5
8CEA
  8
AM_0
 10
386.9648726413368
 20
421.50108569666497
 30
0.0
 11
376.80776264133681
 21
422.03342569666489
 31
0.0
  0
LINE
  5
8CEB
  8
AM_0
 10
375.89504264133689
 20
432.49534569666491
 30
0.0
 11
386.9648726413368
 21
432.10874569666493
 31
0.0
  0
LINE
  5
8CEC
  8
AM_0
 10
373.96474264133673
 20
509.67454569666489
 30
0.0
 11
386.9648726413368
 21
509.67454569666489
 31
0.0
  0
LINE
  5
8CED
  8
AM_0
 10
373.96474264133673
 20
483.67332569666502
 30
0.0
 11
386.9648726413368
 21
483.67332569666502
 31
0.0
  0
POLYLINE
  5
8CEE
  8
AM_0
 66
     1
 10
0.0
 20
0.0
 30
0.0
  0
VERTEX
  5
8CEF
  8
AM_0
 10
315.4648726413368
 20
493.23911569666512
 30
0.0
  0
VERTEX
  5
8CF0
  8
AM_0
 10
295.72844264133693
 20
544.30910569666514
 30
0.0
 42
-1.0
  0
SEQEND
  5
8CF1
  8
AM_0
  0
LINE
  5
8CF2
  8
AM_0
 10
225.4648726413368
 20
509.19907569666498
 30
0.0
 11
306.79128264133692
 21
509.19907569666498
 31
0.0
  0
LINE
  5
8CF3
  8
AM_0
 10
240.46487264133719
 20
518.91636569666514
 30
0.0
 11
302.65188264133701
 21
518.91636569666514
 31
0.0
  0
LINE
  5
8CF4
  8
AM_0
 10
312.5695426413368
 20
543.72117569666511
 30
0.0
 11
243.36019264133711
 21
546.13804569666513
 31
0.0
  0
LINE
  5
8CF5
  8
AM_0
 10
312.5695426413368
 20
494.19736569666492
 30
0.0
 11
225.4648726413368
 21
497.2391156966649
 31
0.0
  0
LINE
  5
8CFB
  8
AM_0
 10
225.4648726413368
 20
524.08909569666491
 30
0.0
 11
240.46487264133719
 21
524.08909569666491
 31
0.0
  0
ARC
  5
8CFD
  8
AM_0
 10
354.9648726413368
 20
481.70585569666491
 30
0.0
 40
5.0
 50
0.0
 51
87.999999999996248
  0
LINE
  5
8CFE
  8
AM_0
 10
362.4438726413369
 20
444.1600756966651
 30
0.0
 11
371.48580264133682
 21
442.56571569666482
 31
0.0
  0
ARC
  5
8CFF
  8
AM_0
 10
362.9648726413368
 20
447.11448569666521
 30
0.0
 40
3.0
 50
179.99998999999889
 51
260.00000000000131
  0
ARC
  5
8D00
  8
AM_0
 10
376.96474264133673
 20
425.02927569666502
 30
0.0
 40
3.0
 50
180.00001000000091
 51
266.9999900000002
  0
ARC
  5
8D01
  8
AM_0
 10
375.9648726413368
 20
434.49412569666498
 30
0.0
 40
2.0
 50
179.99998999999889
 51
268.00000999999861
  0
ARC
  5
8D02
  8
AM_0
 10
370.9648726413368
 20
439.61137569666499
 30
0.0
 40
3.0
 50
0.0
 51
79.999998000001099
  0
LINE
  5
8D03
  8
AM_0
 10
325.46480264133652
 20
487.7390556966651
 30
0.0
 11
355.13937264133699
 21
486.70280569666511
 31
0.0
  0
LINE
  5
8D04
  8
AM_0
 10
325.4648726413368
 20
521.76438569666516
 30
0.0
 11
359.9648726413368
 21
521.76438569666516
 31
0.0
  0
LINE
  5
8D05
  8
AM_0
 10
325.4648726413368
 20
499.66044569666491
 30
0.0
 11
359.9648726413368
 21
499.66044569666491
 31
0.0
  0
LINE
  5
8D06
  8
AM_0
 10
325.4648726413368
 20
499.66044569666491
 30
0.0
 11
315.4648726413368
 21
499.66044569666491
 31
0.0
  0
LINE
  5
8D07
  8
AM_0
 10
325.46480264133652
 20
487.7390556966651
 30
0.0
 11
318.36019264133688
 21
487.9871656966651
 31
0.0
  0
ARC
  5
8D08
  8
AM_0
 10
312.4648726413368
 20
491.19913569666528
 30
0.0
 40
3.0
 50
0.0
 51
87.999999999996248
  0
ARC
  5
8D09
  8
AM_0
 10
318.4648726413368
 20
490.98533569666512
 30
0.0
 40
3.0
 50
180.00001000000091
 51
267.99999999999631
  0
LINE
  5
8D0A
  8
AM_0
 10
325.4648726413368
 20
521.76438569666516
 30
0.0
 11
315.4648726413368
 21
521.76438569666516
 31
0.0
  0
ARC
  5
8D0B
  8
AM_0
 10
312.4648726413368
 20
540.72294569666508
 30
0.0
 40
3.0
 50
0.0
 51
87.999999999996248
  0
ARC
  5
8D0C
  8
AM_0
 10
487.96480264133669
 20
422.264695696665
 30
0.0
 40
3.0
 50
179.99998999999889
 51
268.00000999999861
  0
LINE
  5
8D0D
  8
AM_0
 10
386.9648726413368
 20
509.67454569666489
 30
0.0
 11
484.96487264133668
 21
509.67454569666489
 31
0.0
  0
LINE
  5
8D0E
  8
AM_0
 10
482.53109264133701
 20
457.99247569666511
 30
0.0
 11
441.11257264133661
 21
482.7623156966651
 31
0.0
  0
LINE
  5
8D0F
  8
AM_0
 10
482.81747264133702
 20
464.23545569666493
 30
0.0
 11
450.31466264133672
 21
483.67332569666502
 31
0.0
  0
LINE
  5
8D10
  8
AM_0
 10
386.96480264133692
 20
421.50114569666488
 30
0.0
 11
487.89840264133687
 21
419.26548569666511
 31
0.0
  0
LINE
  5
8D11
  8
AM_0
 10
386.9648726413368
 20
432.10874569666493
 30
0.0
 11
484.96487264133668
 21
428.68650569666511
 31
0.0
  0
LINE
  5
8D12
  8
AM_0
 10
442.6523726413368
 20
488.33701569666482
 30
0.0
 11
484.96487264133668
 21
488.33701569666482
 31
0.0
  0
ARC
  5
8D13
  8
AM_0
 10
438.76058264133673
 20
480.67332569666502
 30
0.0
 40
3.0
 50
59.11902300000196
 51
90.00000299999769
  0
ARC
  5
8D14
  8
AM_0
 10
442.6523726413368
 20
485.33701569666482
 30
0.0
 40
3.0
 50
90.00000299999769
 51
239.11901999999981
  0
LINE
  5
8D15
  8
AM_0
 10
386.9648726413368
 20
483.67332569666502
 30
0.0
 11
438.76058264133673
 21
483.67332569666502
 31
0.0
  0
LINE
  5
8D16
  8
AM_0
 10
474.83346264133689
 20
488.33701569666482
 30
0.0
 11
484.96487264133668
 21
480.77891569666491
 31
0.0
  0
POLYLINE
  5
8D17
  8
AM_0
 66
     1
 10
0.0
 20
0.0
 30
0.0
  0
VERTEX
  5
8D18
  8
AM_0
 10
477.30597264133689
 20
461.11713569666529
 30
0.0
 42
0.0052467293
  0
VERTEX
  5
8D19
  8
AM_0
 10
479.72619264133681
 20
454.70730569666489
 30
0.0
 42
0.0052066122
  0
VERTEX
  5
8D1A
  8
AM_0
 10
482.27986264133682
 20
448.34947569666519
 30
0.0
 42
0.0051740405
  0
VERTEX
  5
8D1B
  8
AM_0
 10
484.96487264133668
 20
442.04624569666493
 30
0.0
  0
SEQEND
  5
8D1C
  8
AM_0
  0
ARC
  5
8D1D
  8
AM_0
 10
487.96480264133669
 20
450.28178569666488
 30
0.0
 40
5.0
 50
267.99999999999631
 51
0.0
  0
LINE
  5
8D1E
  8
AM_0
 10
487.86013264133692
 20
419.26652569666521
 30
0.0
 11
502.96480264133697
 21
418.73905569666499
 31
0.0
  0
LINE
  5
8D1F
  8
AM_0
 10
502.96480264133697
 20
441.2391156966649
 30
0.0
 11
506.96480264133697
 21
441.2391156966649
 31
0.0
  0
ARC
  5
8D20
  8
AM_0
 10
479.9648726413368
 20
453.70127569666488
 30
0.0
 40
5.0
 50
0.0
 51
59.11901699999779
  0
ARC
  5
8D21
  8
AM_0
 10
489.96487264133668
 20
495.10465569666502
 30
0.0
 40
5.0
 50
90.00000299999769
 51
180.00001000000091
  0
LINE
  5
8D22
  8
AM_0
 10
506.96480264133697
 20
538.73911569666495
 30
0.0
 11
508.9648726413368
 21
538.73911569666495
 31
0.0
  0
ARC
  5
8D23
  8
AM_0
 10
387.4648726413368
 20
561.23905569666488
 30
0.0
 40
3.9999962
 50
270.0
 51
90.00000299999769
  0
LINE
  5
8D24
  8
AM_0
 10
386.96480264133692
 20
700.97703569666476
 30
0.0
 11
376.80776264133681
 21
700.44474569666511
 31
0.0
  0
LINE
  5
8D25
  8
AM_0
 10
354.4648726413368
 20
565.23905569666465
 30
0.0
 11
387.4648726413368
 21
565.23905569666465
 31
0.0
  0
LINE
  5
8D26
  8
AM_0
 10
354.4648726413368
 20
557.23905569666488
 30
0.0
 11
387.4648726413368
 21
557.23905569666488
 31
0.0
  0
LINE
  5
8D27
  8
AM_0
 10
373.96474264133673
 20
638.80485569666496
 30
0.0
 11
386.9648726413368
 21
638.80485569666496
 31
0.0
  0
LINE
  5
8D28
  8
AM_0
 10
373.96474264133673
 20
612.80363569666486
 30
0.0
 11
386.9648726413368
 21
612.80363569666486
 31
0.0
  0
LINE
  5
8D29
  8
AM_0
 10
375.89510264133679
 20
689.98289569666508
 30
0.0
 11
386.9648726413368
 21
690.36948569666492
 31
0.0
  0
ARC
  5
8D2A
  8
AM_0
 10
362.9648726413368
 20
675.36362569666494
 30
0.0
 40
3.0
 50
99.999999999998593
 51
180.00001000000091
  0
LINE
  5
8D2B
  8
AM_0
 10
373.96474264133673
 20
570.77848569666514
 30
0.0
 11
373.96474264133673
 21
697.44883569666524
 31
0.0
  0
POLYLINE
  5
8D2C
  8
AM_0
 66
     1
 10
0.0
 20
0.0
 30
0.0
  0
VERTEX
  5
8D2D
  8
AM_0
 10
295.7284026413368
 20
578.16884569666502
 30
0.0
 42
-0.037107926
  0
VERTEX
  5
8D2E
  8
AM_0
 10
300.00660264133683
 20
596.01505569666494
 30
0.0
 42
-0.032389855
  0
VERTEX
  5
8D2F
  8
AM_0
 10
306.70908264133698
 20
613.10357569666496
 30
0.0
 42
-0.029578605
  0
VERTEX
  5
8D30
  8
AM_0
 10
315.4648726413368
 20
629.23911569666495
 30
0.0
  0
SEQEND
  5
8D31
  8
AM_0
  0
LINE
  5
8D32
  8
AM_0
 10
225.4648726413368
 20
613.27915569666493
 30
0.0
 11
306.79128264133692
 21
613.27915569666493
 31
0.0
  0
LINE
  5
8D33
  8
AM_0
 10
240.46487264133719
 20
604.09769569666457
 30
0.0
 11
302.8584226413368
 21
604.09769569666457
 31
0.0
  0
LINE
  5
8D34
  8
AM_0
 10
312.5695426413368
 20
578.75706569666511
 30
0.0
 11
243.360132641337
 21
576.34019569666486
 31
0.0
  0
LINE
  5
8D35
  8
AM_0
 10
312.56960264133681
 20
628.28086569666493
 30
0.0
 11
225.46493264133699
 21
625.23911569666495
 31
0.0
  0
ARC
  5
8D38
  8
AM_0
 10
243.464872641337
 20
573.34202569666513
 30
0.0
 40
3.0
 50
91.999998000000545
 51
180.00001000000091
  0
LINE
  5
8D39
  8
AM_0
 10
225.4648726413368
 20
598.38914569666497
 30
0.0
 11
240.46487264133719
 21
598.38914569666497
 31
0.0
  0
LINE
  5
8D3F
  8
AM_0
 10
359.9648726413368
 20
565.23905569666465
 30
0.0
 11
359.9648726413368
 21
675.38023569666495
 31
0.0
  0
LINE
  5
8D40
  8
AM_0
 10
325.4648726413368
 20
600.71372569666494
 30
0.0
 11
359.9648726413368
 21
600.71372569666494
 31
0.0
  0
ARC
  5
8D41
  8
AM_0
 10
312.4648726413368
 20
581.75523569666495
 30
0.0
 40
3.0
 50
272.00000000000369
 51
0.0
  0
LINE
  5
8D42
  8
AM_0
 10
325.4648726413368
 20
600.71372569666494
 30
0.0
 11
315.4648726413368
 21
600.71372569666494
 31
0.0
  0
ARC
  5
8D43
  8
AM_0
 10
370.9648726413368
 20
561.23911569666495
 30
0.0
 40
10.0
 50
203.5782699999985
 51
336.4217200000013
  0
ARC
  5
8D44
  8
AM_0
 10
370.9648726413368
 20
561.23911569666495
 30
0.0
 40
10.0
 50
23.57803699999776
 51
156.42196000000081
  0
ARC
  5
8D45
  8
AM_0
 10
354.4648726413368
 20
561.23905569666488
 30
0.0
 40
3.9999962
 50
90.00000299999769
 51
270.0
  0
LINE
  5
8D46
  8
AM_0
 10
325.4648726413368
 20
634.73911569666495
 30
0.0
 11
355.13930264133683
 21
635.77537569666515
 31
0.0
  0
LINE
  5
8D47
  8
AM_0
 10
325.4648726413368
 20
622.81773569666495
 30
0.0
 11
359.9648726413368
 21
622.81773569666495
 31
0.0
  0
LINE
  5
8D48
  8
AM_0
 10
325.4648726413368
 20
622.81773569666495
 30
0.0
 11
315.4648726413368
 21
622.81773569666495
 31
0.0
  0
LINE
  5
8D49
  8
AM_0
 10
325.46480264133652
 20
634.73911569666495
 30
0.0
 11
318.36019264133688
 21
634.4910156966647
 31
0.0
  0
ARC
  5
8D4A
  8
AM_0
 10
312.4648726413368
 20
631.27903569666512
 30
0.0
 40
3.0
 50
272.00000000000369
 51
0.0
  0
ARC
  5
8D4B
  8
AM_0
 10
318.4648726413368
 20
631.49284569666474
 30
0.0
 40
3.0
 50
91.999998000000545
 51
180.00001000000091
  0
ARC
  5
8D4C
  8
AM_0
 10
354.9648726413368
 20
640.77232569666512
 30
0.0
 40
5.0
 50
272.00000000000369
 51
0.0
  0
LINE
  5
8D4D
  8
AM_0
 10
362.44393264133703
 20
678.31809569666495
 30
0.0
 11
371.48580264133682
 21
679.91245569666512
 31
0.0
  0
ARC
  5
8D4E
  8
AM_0
 10
370.9648726413368
 20
682.8668056966651
 30
0.0
 40
3.0
 50
280.00001000000128
 51
0.0
  0
ARC
  5
8D4F
  8
AM_0
 10
375.9648726413368
 20
687.98405569666522
 30
0.0
 40
2.0
 50
91.999998000000545
 51
180.00001000000091
  0
ARC
  5
8D50
  8
AM_0
 10
376.96474264133673
 20
697.44883569666524
 30
0.0
 40
3.0
 50
92.999999000001679
 51
180.00001000000091
  0
POLYLINE
  5
8D51
  8
AM_0
 66
     1
 10
0.0
 20
0.0
 30
0.0
  0
VERTEX
  5
8D52
  8
AM_0
 10
484.96487264133668
 20
680.43192569666496
 30
0.0
  0
VERTEX
  5
8D53
  8
AM_0
 10
477.30604264133677
 20
661.36123569666495
 30
0.0
 42
-1.0
  0
SEQEND
  5
8D54
  8
AM_0
  0
ARC
  5
8D55
  8
AM_0
 10
487.96480264133669
 20
672.19639569666458
 30
0.0
 40
5.0
 50
0.0
 51
91.999998000000545
  0
LINE
  5
8D56
  8
AM_0
 10
386.9648726413368
 20
565.23905569666465
 30
0.0
 11
386.9648726413368
 21
700.97703569666476
 31
0.0
  0
LINE
  5
8D57
  8
AM_0
 10
482.81747264133702
 20
658.24271569666485
 30
0.0
 11
450.31466264133672
 21
638.80491569666515
 31
0.0
  0
LINE
  5
8D58
  8
AM_0
 10
482.53109264133701
 20
664.48570569666515
 30
0.0
 11
441.11257264133661
 21
639.71586569666465
 31
0.0
  0
LINE
  5
8D59
  8
AM_0
 10
386.9648726413368
 20
612.80363569666486
 30
0.0
 11
484.96487264133668
 21
612.80363569666486
 31
0.0
  0
LINE
  5
8D5A
  8
AM_0
 10
442.6523726413368
 20
634.14115569666512
 30
0.0
 11
484.96487264133668
 21
634.14115569666512
 31
0.0
  0
LINE
  5
8D5B
  8
AM_0
 10
386.9648726413368
 20
638.80485569666496
 30
0.0
 11
438.76058264133673
 21
638.80485569666496
 31
0.0
  0
ARC
  5
8D5C
  8
AM_0
 10
438.76058264133673
 20
641.80485569666473
 30
0.0
 40
3.0
 50
270.0
 51
300.88098000000008
  0
ARC
  5
8D5D
  8
AM_0
 10
442.6523726413368
 20
637.14115569666512
 30
0.0
 40
3.0
 50
120.8809700000043
 51
270.0
  0
LINE
  5
8D5E
  8
AM_0
 10
506.96480264133697
 20
583.73911569666495
 30
0.0
 11
508.9648726413368
 21
583.73911569666495
 31
0.0
  0
ARC
  5
8D5F
  8
AM_0
 10
522.96487264133668
 20
561.23905569666488
 30
0.0
 40
6.0000037999999991
 50
90.00000299999769
 51
270.0
  0
LINE
  5
8D60
  8
AM_0
 10
522.96487264133668
 20
567.2390556966651
 30
0.0
 11
522.96487264133668
 21
555.2390556966651
 31
0.0
  0
ARC
  5
8D61
  8
AM_0
 10
489.96487264133668
 20
627.37351569666487
 30
0.0
 40
5.0
 50
179.99998999999889
 51
270.0
  0
LINE
  5
8D62
  8
AM_0
 10
474.83346264133689
 20
634.14121569666474
 30
0.0
 11
484.96480264133652
 21
641.69926569666495
 31
0.0
  0
ARC
  5
8D63
  8
AM_0
 10
479.9648726413368
 20
668.77689569666495
 30
0.0
 40
5.0
 50
300.88098000000008
 51
0.0
  0
LINE
  5
8D64
  8
AM_0
 10
386.9648726413368
 20
690.36948569666492
 30
0.0
 11
484.96487264133668
 21
693.79166569666495
 31
0.0
  0
LINE
  5
8D65
  8
AM_0
 10
386.96480264133692
 20
700.97703569666476
 30
0.0
 11
487.89840264133687
 21
703.21275569666523
 31
0.0
  0
LINE
  5
8D66
  8
AM_0
 10
487.8600726413369
 20
703.21165569666505
 30
0.0
 11
502.96480264133697
 21
703.73911569666495
 31
0.0
  0
ARC
  5
8D67
  8
AM_0
 10
487.96480264133669
 20
700.21348569666475
 30
0.0
 40
3.0
 50
91.999998000000545
 51
180.00001000000091
  0
LINE
  5
8D68
  8
AM_0
 10
502.96480264133697
 20
681.2390556966651
 30
0.0
 11
506.96480264133697
 21
681.2390556966651
 31
0.0
  0
LINE
  5
8D69
  8
AM_0
 10
578.96484264133687
 20
540.23911569666495
 30
0.0
 11
578.96484264133687
 21
582.23911569666495
 31
0.0
  0
LINE
  5
8EDF
  8
AM_0
 10
196.4648726413368
 20
587.72909069666525
 30
0.0
 11
214.51059264133659
 21
587.72909069666525
 31
0.0
  0
LINE
  5
8EE0
  8
AM_0
 10
196.44485264133661
 20
594.60909069666525
 30
0.0
 11
214.28488264133659
 21
594.60909069666525
 31
0.0
  0
LINE
  5
8EE1
  8
AM_0
 10
210.8120426413368
 20
587.23910069666522
 30
0.0
 11
196.4648726413368
 21
587.23910069666522
 31
0.0
  0
LINE
  5
8EE2
  8
AM_0
 10
210.80490264133661
 20
595.23910069666522
 30
0.0
 11
196.4648726413368
 21
595.23910069666522
 31
0.0
  0
LINE
  5
8EE3
  8
AM_0
 10
196.44485264133661
 20
527.87911069666529
 30
0.0
 11
214.28488264133659
 21
527.87911069666529
 31
0.0
  0
LINE
  5
8EE4
  8
AM_0
 10
196.4648726413368
 20
534.75912069666515
 30
0.0
 11
214.49911264133661
 21
534.75912069666515
 31
0.0
  0
LINE
  5
8EE5
  8
AM_0
 10
210.80490264133661
 20
527.2391006966651
 30
0.0
 11
196.4648726413368
 21
527.2391006966651
 31
0.0
  0
LINE
  5
8EE6
  8
AM_0
 10
210.7977026413366
 20
535.23910069666522
 30
0.0
 11
196.4648726413368
 21
535.23910069666522
 31
0.0
  0
LINE
  5
8EE7
  8
AM_0
 10
197.9784826413366
 20
491.23910069666482
 30
0.0
 11
209.48105264133659
 21
491.23910069666482
 31
0.0
  0
LINE
  5
8EE8
  8
AM_0
 10
210.80490264133661
 20
525.23910069666522
 30
0.0
 11
166.4648726413366
 21
525.23910069666522
 31
0.0
  0
LINE
  5
8EE9
  8
AM_0
 10
166.4648726413366
 20
524.51913069666523
 30
0.0
 11
214.28488264133659
 21
524.51913069666523
 31
0.0
  0
LINE
  5
8EEA
  8
AM_0
 10
83.924892641336669
 20
537.6790406966652
 30
0.0
 11
214.49911264133661
 21
537.6790406966652
 31
0.0
  0
LINE
  5
8EEB
  8
AM_0
 10
210.7977026413366
 20
537.23910069666522
 30
0.0
 11
85.000522641336616
 21
537.23910069666522
 31
0.0
  0
LINE
  5
8EEC
  8
AM_0
 10
83.924892641336669
 20
584.80904069666531
 30
0.0
 11
214.49911264133661
 21
584.80904069666531
 31
0.0
  0
LINE
  5
8EED
  8
AM_0
 10
84.134852641336693
 20
597.96908069666529
 30
0.0
 11
214.28488264133659
 21
597.96908069666529
 31
0.0
  0
LINE
  5
8EEE
  8
AM_0
 10
210.7977026413366
 20
585.23910069666522
 30
0.0
 11
85.01486264133689
 21
585.23910069666522
 31
0.0
  0
LINE
  5
8EEF
  8
AM_0
 10
210.80490264133661
 20
597.23910069666522
 30
0.0
 11
85.01486264133689
 21
597.23910069666522
 31
0.0
  0
LINE
  5
8EF0
  8
AM_0
 10
93.464872641336797
 20
625.12911069666529
 30
0.0
 11
211.9848326413366
 21
625.12911069666529
 31
0.0
  0
LINE
  5
8EF1
  8
AM_0
 10
93.464872641336797
 20
626.48910069666522
 30
0.0
 11
211.6925326413365
 21
626.48910069666522
 31
0.0
  0
LINE
  5
8EF2
  8
AM_0
 10
93.464872641336797
 20
627.1591406966653
 30
0.0
 11
211.54855264133661
 21
627.1591406966653
 31
0.0
  0
LINE
  5
8EF3
  8
AM_0
 10
93.464872641336797
 20
623.09908069666494
 30
0.0
 11
210.2748726413366
 21
623.09908069666494
 31
0.0
  0
LINE
  5
8EF4
  8
AM_0
 10
93.464872641336797
 20
499.37911069666529
 30
0.0
 11
210.2748726413366
 21
499.37911069666529
 31
0.0
  0
LINE
  5
8EF5
  8
AM_0
 10
111.4648726413367
 20
514.88912069666515
 30
0.0
 11
217.4648726413366
 21
514.88912069666515
 31
0.0
  0
LINE
  5
8EF6
  8
AM_0
 10
111.4648726413367
 20
607.58907069666532
 30
0.0
 11
217.4648726413366
 21
607.58907069666532
 31
0.0
  0
ARC
  5
8EF7
  8
AM_0
 10
79.620452641336911
 20
602.83333069666514
 30
0.0
 40
5.0059714
 50
279.7109800000016
 51
354.67887999999812
  0
LINE
  5
8EF8
  8
AM_0
 10
80.464872641336655
 20
609.58907069666532
 30
0.0
 11
80.464872641336655
 21
595.54915069666515
 31
0.0
  0
LINE
  5
8EF9
  8
AM_0
 10
70.464872641336797
 20
619.98910069666522
 30
0.0
 11
70.464872641336797
 21
561.23910069666522
 31
0.0
  0
LINE
  5
8EFA
  8
AM_0
 10
18.364902641336691
 20
598.63009069666498
 30
0.0
 11
18.364902641336691
 21
601.63009069666487
 31
0.0
  0
LINE
  5
8EFB
  8
AM_0
 10
21.6648826413367
 20
595.53012069666511
 30
0.0
 11
21.6648826413367
 21
604.73007069666494
 31
0.0
  0
LINE
  5
8EFC
  8
AM_0
 10
22.96487264133679
 20
508.4571106966651
 30
0.0
 11
22.96487264133679
 21
613.98910069666488
 31
0.0
  0
LINE
  5
8EFD
  8
AM_0
 10
14.96344254133674
 20
617.23910069666522
 30
0.0
 11
14.96344254133674
 21
505.23910069666522
 31
0.0
  0
LINE
  5
8EFE
  8
AM_0
 10
70.464872641336797
 20
595.54915069666515
 30
0.0
 11
80.464872641336655
 21
595.54915069666515
 31
0.0
  0
LINE
  5
8EFF
  8
AM_0
 10
72.274872641336643
 20
506.13912069666497
 30
0.0
 11
82.067652641336636
 21
506.13912069666497
 31
0.0
  0
LINE
  5
8F00
  8
AM_0
 10
76.165492641336854
 20
499.5690506966651
 30
0.0
 11
90.207612641336794
 21
499.5690506966651
 31
0.0
  0
LINE
  5
8F01
  8
AM_0
 10
70.464872641336797
 20
512.88912069666515
 30
0.0
 11
80.464872641336655
 21
512.88912069666515
 31
0.0
  0
LINE
  5
8F02
  8
AM_0
 10
70.464872641336797
 20
518.54915069666515
 30
0.0
 11
80.464872641336655
 21
518.54915069666515
 31
0.0
  0
LINE
  5
8F03
  8
AM_0
 10
70.464872641336797
 20
526.93905069666505
 30
0.0
 11
80.464872641336655
 21
526.93905069666505
 31
0.0
  0
LINE
  5
8F04
  8
AM_0
 10
74.794892641336787
 20
544.89913069666522
 30
0.0
 11
147.13614264133659
 21
544.89913069666522
 31
0.0
  0
LINE
  5
8F05
  8
AM_0
 10
145.9069526413364
 20
545.23910069666522
 30
0.0
 11
76.01486264133689
 21
545.23910069666522
 31
0.0
  0
LINE
  5
8F06
  8
AM_0
 10
145.9069526413364
 20
547.23910069666522
 30
0.0
 11
76.01486264133689
 21
547.23910069666522
 31
0.0
  0
LINE
  5
8F07
  8
AM_0
 10
145.9069526413364
 20
557.23910069666522
 30
0.0
 11
76.01486264133689
 21
557.23910069666522
 31
0.0
  0
LINE
  5
8F08
  8
AM_0
 10
74.734892641336614
 20
557.50912069666515
 30
0.0
 11
147.19998264133679
 21
557.50912069666515
 31
0.0
  0
LINE
  5
8F09
  8
AM_0
 10
74.734892641336614
 20
564.97909069666525
 30
0.0
 11
147.19998264133679
 21
564.97909069666525
 31
0.0
  0
LINE
  5
8F0A
  8
AM_0
 10
74.734892641336614
 20
567.51913069666512
 30
0.0
 11
147.19998264133679
 21
567.51913069666512
 31
0.0
  0
LINE
  5
8F0B
  8
AM_0
 10
74.794892641336787
 20
574.91915069666516
 30
0.0
 11
147.12356264133689
 21
574.91915069666516
 31
0.0
  0
LINE
  5
8F0C
  8
AM_0
 10
74.794892641336787
 20
577.58907069666498
 30
0.0
 11
147.13614264133659
 21
577.58907069666498
 31
0.0
  0
LINE
  5
8F0D
  8
AM_0
 10
145.9069526413364
 20
565.23910069666499
 30
0.0
 11
76.01486264133689
 21
565.23910069666499
 31
0.0
  0
LINE
  5
8F0E
  8
AM_0
 10
145.9069526413364
 20
567.23910069666522
 30
0.0
 11
76.01486264133689
 21
567.23910069666522
 31
0.0
  0
LINE
  5
8F0F
  8
AM_0
 10
145.90359264133659
 20
575.23910069666522
 30
0.0
 11
76.01486264133689
 21
575.23910069666522
 31
0.0
  0
LINE
  5
8F10
  8
AM_0
 10
145.90359264133659
 20
577.2391006966651
 30
0.0
 11
76.01486264133689
 21
577.2391006966651
 31
0.0
  0
LINE
  5
8F11
  8
AM_0
 10
74.734892641336614
 20
554.96908069666506
 30
0.0
 11
147.19998264133679
 21
554.96908069666506
 31
0.0
  0
LINE
  5
8F12
  8
AM_0
 10
74.794892641336787
 20
547.55904069666508
 30
0.0
 11
147.13614264133659
 21
547.55904069666508
 31
0.0
  0
LINE
  5
8F13
  8
AM_0
 10
145.9069526413364
 20
555.23910069666522
 30
0.0
 11
76.01486264133689
 21
555.23910069666522
 31
0.0
  0
LINE
  5
8F14
  8
AM_0
 10
65.464872641336797
 20
517.34811069666512
 30
0.0
 11
65.464872641336797
 21
508.4891006966651
 31
0.0
  0
ARC
  5
8F15
  8
AM_0
 10
22.46487264133679
 20
510.48910069666522
 30
0.0
 40
2.0
 50
179.99997999999781
 51
269.99995000000138
  0
LINE
  5
8F16
  8
AM_0
 10
19.96344254133674
 20
518.1955817923722
 30
0.0
 11
19.96344254133674
 21
506.23910069666522
 31
0.0
  0
LINE
  5
8F17
  8
AM_0
 10
70.464872641336797
 20
502.4891006966651
 30
0.0
 11
70.464872641336797
 21
561.23910069666522
 31
0.0
  0
ARC
  5
8F18
  8
AM_0
 10
23.96344254133674
 20
505.23910069666522
 30
0.0
 40
9.0
 50
179.99997999999781
 51
269.99995000000138
  0
LINE
  5
8F19
  8
AM_0
 10
45.464872641336797
 20
502.48910069666522
 30
0.0
 11
70.464872641336797
 21
502.48910069666522
 31
0.0
  0
LINE
  5
8F1A
  8
AM_0
 10
23.96344254133674
 20
496.23910069666522
 30
0.0
 11
61.464872641336783
 21
496.23910069666522
 31
0.0
  0
LINE
  5
8F1B
  8
AM_0
 10
24.96344254133674
 20
501.23910069666522
 30
0.0
 11
48.464872641336797
 21
501.23910069666522
 31
0.0
  0
LINE
  5
8F1C
  8
AM_0
 10
22.46487264133679
 20
508.4891006966651
 30
0.0
 11
70.464872641336797
 21
508.4891006966651
 31
0.0
  0
ARC
  5
8F1D
  8
AM_0
 10
24.96344254133674
 20
506.23910069666522
 30
0.0
 40
5.0
 50
179.99997999999781
 51
269.99995000000138
  0
LINE
  5
8F1E
  8
AM_0
 10
45.464872641336797
 20
502.48910069666522
 30
0.0
 11
45.464872641336797
 21
508.4891006966651
 31
0.0
  0
LINE
  5
8F1F
  8
AM_0
 10
61.464872641336783
 20
501.23910069666522
 30
0.0
 11
61.464872641336783
 21
496.23910069666522
 31
0.0
  0
LINE
  5
8F20
  8
AM_0
 10
48.464872641336797
 20
502.48910069666522
 30
0.0
 11
48.464872641336797
 21
496.23910069666522
 31
0.0
  0
LINE
  5
8F21
  8
AM_0
 10
58.464872641336797
 20
502.48910069666522
 30
0.0
 11
58.464872641336797
 21
496.23910069666522
 31
0.0
  0
LINE
  5
8F22
  8
AM_0
 10
58.464872641336797
 20
501.23910069666522
 30
0.0
 11
61.464872641336783
 21
501.23910069666522
 31
0.0
  0
ARC
  5
8F23
  8
AM_0
 10
76.165492641336854
 20
501.5690506966651
 30
0.0
 40
2.0
 50
194.1507499999995
 51
269.999989999999
  0
ARC
  5
8F24
  8
AM_0
 10
76.60171264133669
 20
501.56966069666521
 30
0.0
 40
2.0005671999999981
 50
193.3095899999955
 51
269.80430999999942
  0
LINE
  5
8F25
  8
AM_0
 10
70.464872641336797
 20
503.80913069666519
 30
0.0
 11
73.284882641336495
 21
503.74914069666488
 31
0.0
  0
LINE
  5
8F26
  8
AM_0
 10
74.654872641336624
 20
501.10906069666521
 30
0.0
 11
73.734892641336614
 21
504.98913069666497
 31
0.0
  0
LINE
  5
8F27
  8
AM_0
 10
74.226222641336761
 20
501.08013069666498
 30
0.0
 11
73.744902641336694
 21
502.9891606966649
 31
0.0
  0
LINE
  5
8F28
  8
AM_0
 10
72.294892641336673
 20
504.11910069666487
 30
0.0
 11
73.944852641336624
 21
504.11910069666487
 31
0.0
  0
ARC
  5
8F29
  8
AM_0
 10
72.292572641336619
 20
502.6208106966651
 30
0.0
 40
1.4982997
 50
14.229740000004741
 51
89.910950000001222
  0
ARC
  5
8F2A
  8
AM_0
 10
72.278102641336645
 20
504.6414406966652
 30
0.0
 40
1.497715799999999
 50
13.42437900000278
 51
90.122645000001114
  0
LINE
  5
8F2B
  8
AM_0
 10
13.964902641336771
 20
556.23910069666522
 30
0.0
 11
13.964902641336771
 21
566.23910069666522
 31
0.0
  0
LINE
  5
8F2C
  8
AM_0
 10
14.96344254133674
 20
556.23910069666522
 30
0.0
 11
13.964902641336771
 21
556.23910069666522
 31
0.0
  0
LINE
  5
8F2D
  8
AM_0
 10
14.96344254133674
 20
566.23910069666522
 30
0.0
 11
13.964902641336771
 21
566.23910069666522
 31
0.0
  0
LINE
  5
8F2E
  8
AM_0
 10
19.96344254133674
 20
595.9775617923724
 30
0.0
 11
19.96344254133674
 21
526.50063960095758
 31
0.0
  0
LINE
  5
8F2F
  8
AM_0
 10
20.46487264133679
 20
526.71004069666515
 30
0.0
 11
20.46487264133679
 21
595.76815069666532
 31
0.0
  0
LINE
  5
8F30
  8
AM_0
 10
65.464872641336797
 20
524.05404069666497
 30
0.0
 11
65.464872641336797
 21
598.42513069666495
 31
0.0
  0
LINE
  5
8F31
  8
AM_0
 10
22.96487264133679
 20
527.59811069666512
 30
0.0
 11
65.464872641336797
 21
527.59811069666512
 31
0.0
  0
LINE
  5
8F32
  8
AM_0
 10
22.96487264133679
 20
517.34811069666512
 30
0.0
 11
65.464872641336797
 21
517.34811069666512
 31
0.0
  0
LINE
  5
8F33
  8
AM_0
 10
18.364902641336691
 20
523.84811069666512
 30
0.0
 11
18.364902641336691
 21
520.84811069666512
 31
0.0
  0
LINE
  5
8F34
  8
AM_0
 10
21.6648826413367
 20
526.94808069666522
 30
0.0
 11
21.6648826413367
 21
517.74813069666493
 31
0.0
  0
LINE
  5
8F35
  8
AM_0
 10
20.46487264133679
 20
517.98617069666523
 30
0.0
 11
20.46487264133679
 21
510.48910069666522
 31
0.0
  0
ARC
  5
8F36
  8
AM_0
 10
21.364902641336691
 20
520.84811069666512
 30
0.0
 40
3.0
 50
179.99997999999781
 51
269.99995000000138
  0
LINE
  5
8F37
  8
AM_0
 10
21.364902641336691
 20
517.84811069666512
 30
0.0
 11
21.6648826413367
 21
517.84811069666512
 31
0.0
  0
LINE
  5
8F38
  8
AM_0
 10
21.6648826413367
 20
517.74813069666493
 30
0.0
 11
22.96487264133679
 21
517.74813069666493
 31
0.0
  0
ARC
  5
8F39
  8
AM_0
 10
21.364902641336691
 20
523.84811069666512
 30
0.0
 40
3.0
 50
89.999988999997569
 51
179.99997999999781
  0
LINE
  5
8F3A
  8
AM_0
 10
21.364902641336691
 20
526.84811069666512
 30
0.0
 11
21.6648826413367
 21
526.84811069666512
 31
0.0
  0
LINE
  5
8F3B
  8
AM_0
 10
21.6648826413367
 20
526.94808069666522
 30
0.0
 11
22.96487264133679
 21
526.94808069666522
 31
0.0
  0
ARC
  5
8F3C
  8
AM_0
 10
74.788602641336638
 20
546.22909069666525
 30
0.0
 40
1.3300148000000001
 50
89.729417999999583
 51
270.27058999999991
  0
ARC
  5
8F3D
  8
AM_0
 10
76.01486264133689
 20
546.23910069666522
 30
0.0
 40
1.0000056999999991
 50
90.000003000000945
 51
270.0
  0
LINE
  5
8F3E
  8
AM_0
 10
22.96487264133679
 20
594.88009069666487
 30
0.0
 11
65.464872641336797
 21
594.88009069666487
 31
0.0
  0
LINE
  5
8F3F
  8
AM_0
 10
20.46487264133679
 20
556.23910069666522
 30
0.0
 11
19.96344254133674
 21
556.23910069666522
 31
0.0
  0
LINE
  5
8F40
  8
AM_0
 10
20.46487264133679
 20
566.23910069666522
 30
0.0
 11
19.96344254133674
 21
566.23910069666522
 31
0.0
  0
ARC
  5
8F41
  8
AM_0
 10
21.364902641336691
 20
598.63009069666498
 30
0.0
 40
3.0
 50
180.00002000000191
 51
270.00001100000242
  0
LINE
  5
8F42
  8
AM_0
 10
21.364902641336691
 20
595.63009069666487
 30
0.0
 11
21.6648826413367
 21
595.63009069666487
 31
0.0
  0
LINE
  5
8F43
  8
AM_0
 10
21.6648826413367
 20
595.53012069666511
 30
0.0
 11
22.96487264133679
 21
595.53012069666511
 31
0.0
  0
ARC
  5
8F44
  8
AM_0
 10
74.788602641336638
 20
576.25411069666529
 30
0.0
 40
1.3350147999999991
 50
89.730435000000341
 51
270.26956999999999
  0
ARC
  5
8F45
  8
AM_0
 10
76.01486264133689
 20
576.23910069666522
 30
0.0
 40
1.0000056999999991
 50
90.000003000000945
 51
270.0
  0
ARC
  5
8F46
  8
AM_0
 10
74.726652641336614
 20
566.24911069666496
 30
0.0
 40
1.2700266
 50
89.629327999999504
 51
270.37065999999959
  0
ARC
  5
8F47
  8
AM_0
 10
76.01486264133689
 20
566.23910069666522
 30
0.0
 40
1.0000056999999991
 50
90.000003000000945
 51
270.0
  0
ARC
  5
8F48
  8
AM_0
 10
74.726652641336614
 20
556.23910069666522
 30
0.0
 40
1.2700266
 50
89.629320999999507
 51
270.3706899999986
  0
ARC
  5
8F49
  8
AM_0
 10
76.01486264133689
 20
556.23910069666522
 30
0.0
 40
1.0000056999999991
 50
90.000003000000945
 51
270.0
  0
LINE
  5
8F4A
  8
AM_0
 10
81.674102641336617
 20
514.24575069666525
 30
0.0
 11
82.459132641336623
 21
509.89907069666521
 31
0.0
  0
ARC
  5
8F4B
  8
AM_0
 10
79.98172264133666
 20
508.69674069666507
 30
0.0
 40
1.502416299999999
 50
12.391887000000411
 51
90.098616999999123
  0
LINE
  5
8F4C
  8
AM_0
 10
199.9648726413368
 20
486.73910069666528
 30
0.0
 11
132.9648726413368
 21
486.73910069666528
 31
0.0
  0
LINE
  5
8F4D
  8
AM_0
 10
122.9897463754892
 20
484.23910069666562
 30
0.0
 11
203.46487264133631
 21
484.23910069666528
 31
0.0
  0
LINE
  5
8F4E
  8
AM_0
 10
119.7897463754887
 20
454.23910069666562
 30
0.0
 11
196.0897463754894
 21
467.23910069666482
 31
0.0
  0
LINE
  5
8F4F
  8
AM_0
 10
119.7897463754887
 20
454.23910069666562
 30
0.0
 11
196.0897463754894
 21
467.23910069666482
 31
0.0
  0
LINE
  5
8F50
  8
AM_0
 10
196.41544151233069
 20
463.23910069666488
 30
0.0
 11
120.11544151233009
 21
450.23910069666562
 31
0.0
  0
LINE
  5
8F51
  8
AM_0
 10
119.7083225912784
 20
455.23910069666562
 30
0.0
 11
151.68639233001051
 21
460.68752673340867
 31
0.0
  0
LINE
  5
8F52
  8
AM_0
 10
195.5897463754898
 20
450.23910069666528
 30
0.0
 11
120.11544151233009
 21
450.23910069666562
 31
0.0
  0
ARC
  5
8F53
  8
AM_0
 10
132.2897463754893
 20
467.23910069666562
 30
0.0
 40
9.2999999999997094
 50
180.0
 51
0.0
  0
LINE
  5
8F54
  8
ﾁｭｳｼﾝｾﾝ
 10
132.2897463754893
 20
478.23910069666567
 30
0.0
 11
132.2897463754893
 21
456.23910069666562
 31
0.0
  0
CIRCLE
  5
8F55
  8
AM_0
 10
132.2897463754893
 20
467.23910069666562
 30
0.0
 40
6.2999999999996117
  0
LINE
  5
8F56
  8
AM_0
 10
117.1897463754888
 20
483.23910069666562
 30
0.0
 11
117.18974637548909
 21
455.23910069666562
 31
0.0
  0
LINE
  5
8F57
  8
AM_0
 10
115.1897463754899
 20
459.23910069666562
 30
0.0
 11
115.18974637549
 21
451.73910069666562
 31
0.0
  0
LINE
  5
8F58
  8
AM_0
 10
115.6897463754888
 20
455.23910069666562
 30
0.0
 11
115.6897463754888
 21
451.73910069666562
 31
0.0
  0
LINE
  5
8F59
  8
AM_0
 10
115.6897463754888
 20
454.23910069666562
 30
0.0
 11
119.7897463754887
 21
454.23910069666562
 31
0.0
  0
LINE
  5
8F5A
  8
AM_0
 10
115.9897463754895
 20
454.23910069666562
 30
0.0
 11
119.7897463754887
 21
454.23910069666562
 31
0.0
  0
LINE
  5
8F5B
  8
AM_0
 10
117.18974637548941
 20
450.23910069666562
 30
0.0
 11
120.11544151233009
 21
450.23910069666562
 31
0.0
  0
ARC
  5
8F5C
  8
AM_0
 10
117.18974637548941
 20
451.73910069666562
 30
0.0
 40
1.499999999999998
 50
180.0
 51
270.0
  0
ARC
  5
8F5D
  8
AM_0
 10
116.6897463754899
 20
451.73910069666562
 30
0.0
 40
1.5000000000001099
 50
180.0
 51
269.99999999999511
  0
LINE
  5
8F5E
  8
AM_0
 10
116.6897463754899
 20
450.23910069666562
 30
0.0
 11
116.98823227164679
 21
450.23910069666562
 31
0.0
  0
LINE
  5
8F5F
  8
AM_0
 10
119.7083225912784
 20
455.23910069666562
 30
0.0
 11
115.6897463754888
 21
455.23910069666562
 31
0.0
  0
LINE
  5
8F60
  8
AM_0
 10
115.9897463754895
 20
459.23910069666562
 30
0.0
 11
115.1897463754899
 21
459.23910069666562
 31
0.0
  0
LINE
  5
8F61
  8
AM_0
 10
117.18974637548899
 20
459.23910069666562
 30
0.0
 11
115.9897463754895
 21
459.23910069666562
 31
0.0
  0
LINE
  5
8F62
  8
AM_0
 10
93.464872641336797
 20
497.34908069666488
 30
0.0
 11
134.79129264133661
 21
497.34908069666488
 31
0.0
  0
ARC
  5
8F63
  8
AM_0
 10
93.464932641336631
 20
501.37911069666512
 30
0.0
 40
2.0000371999999991
 50
180.0010599999959
 51
269.99892999999958
  0
ARC
  5
8F64
  8
AM_0
 10
90.207612641336794
 20
498.0690506966651
 30
0.0
 40
1.5
 50
21.461709000003811
 51
90.000003000000945
  0
ARC
  5
8F65
  8
AM_0
 10
93.465792641336634
 20
499.3500606966652
 30
0.0
 40
2.0009109999999981
 50
180.00001000000091
 51
269.97390999999971
  0
LINE
  5
8F66
  8
AM_0
 10
84.224702641336634
 20
508.25912069666498
 30
0.0
 11
89.964872641336783
 21
508.25912069666498
 31
0.0
  0
LINE
  5
8F67
  8
AM_0
 10
84.162502641336673
 20
502.9790906966652
 30
0.0
 11
89.964872641336783
 21
502.9790906966652
 31
0.0
  0
LINE
  5
8F68
  8
AM_0
 10
82.409152641336604
 20
504.54915069666498
 30
0.0
 11
81.449192641336495
 21
509.01913069666512
 31
0.0
  0
ARC
  5
8F69
  8
AM_0
 10
84.362212641336896
 20
504.9661506966649
 30
0.0
 40
1.997119399999999
 50
192.05524000000159
 51
270.19862999999867
  0
ARC
  5
8F6A
  8
AM_0
 10
84.424282641336617
 20
510.24434069666512
 30
0.0
 40
1.9952742999999991
 50
189.96478000000039
 51
269.85141999999968
  0
LINE
  5
8F6B
  8
AM_0
 10
79.979152641336654
 20
510.19906069666507
 30
0.0
 11
82.399142641336766
 21
510.19906069666507
 31
0.0
  0
LINE
  5
8F6C
  8
AM_0
 10
91.464872641336797
 20
499.3500606966652
 30
0.0
 11
91.464872641336797
 21
506.75912069666498
 31
0.0
  0
ARC
  5
8F6D
  8
AM_0
 10
89.961762641336691
 20
501.4759106966651
 30
0.0
 40
1.503128599999999
 50
0.119129649995689
 51
89.880869999998822
  0
ARC
  5
8F6E
  8
AM_0
 10
89.962922641336618
 20
506.7571606966651
 30
0.0
 40
1.501982699999999
 50
0.075587202000581
 51
89.924413000001564
  0
LINE
  5
8F6F
  8
AM_0
 10
136.53040614325701
 20
486.73910069666528
 30
0.0
 11
136.19937264133651
 21
499.37908069666503
 31
0.0
  0
LINE
  5
8F70
  8
ﾁｭｳｼﾝｾﾝ
 10
121.2897463754893
 20
467.23910069666562
 30
0.0
 11
143.2897463754893
 21
467.23910069666562
 31
0.0
  0
LINE
  5
8F71
  8
AM_0
 10
122.9897463754892
 20
484.23910069666562
 30
0.0
 11
122.98974637548891
 21
467.23910069666562
 31
0.0
  0
LINE
  5
8F72
  8
AM_0
 10
118.1897463754888
 20
484.23910069666562
 30
0.0
 11
122.9897463754892
 21
484.23910069666562
 31
0.0
  0
ARC
  5
8F73
  8
AM_0
 10
118.1897463754888
 20
483.23910069666562
 30
0.0
 40
1.0
 50
90.0
 51
180.0
  0
LINE
  5
8F74
  8
AM_0
 10
141.589746375489
 20
484.23910069666528
 30
0.0
 11
141.589746375489
 21
467.23910069666528
 31
0.0
  0
LINE
  5
8F75
  8
AM_0
 10
132.9648726413368
 20
486.73910069666528
 30
0.0
 11
132.9648726413368
 21
484.23910069666528
 31
0.0
  0
ARC
  5
8F76
  8
AM_0
 10
134.79129264133661
 20
495.84908069666488
 30
0.0
 40
1.5
 50
1.5000027000022329
 51
90.000003000000945
  0
LINE
  5
8F77
  8
AM_0
 10
204.46487264133609
 20
467.23910069666528
 30
0.0
 11
204.46487264133609
 21
463.7391006966651
 31
0.0
  0
LINE
  5
8F78
  8
AM_0
 10
188.6897463754901
 20
461.92489546936781
 30
0.0
 11
188.68974637548999
 21
465.97828811475131
 31
0.0
  0
LINE
  5
8F79
  8
AM_0
 10
179.6031625573973
 20
465.44398824004031
 30
0.0
 11
189.46487264133609
 21
467.1242271796367
 31
0.0
  0
LINE
  5
8F7A
  8
AM_0
 10
174.3998085119199
 20
479.23910069666522
 30
0.0
 11
174.39980851191959
 21
464.55744036859608
 31
0.0
  0
LINE
  5
8F7B
  8
AM_0
 10
175.8998085119199
 20
464.8130104865516
 30
0.0
 11
175.8998085119199
 21
479.23910069666522
 31
0.0
  0
LINE
  5
8F7C
  8
AM_0
 10
170.6964544664429
 20
479.23910069666522
 30
0.0
 11
170.6964544664427
 21
463.9264626151072
 31
0.0
  0
LINE
  5
8F7D
  8
AM_0
 10
172.19645446644259
 20
464.18203273306273
 30
0.0
 11
172.19645446644259
 21
479.23910069666522
 31
0.0
  0
LINE
  5
8F7E
  8
AM_0
 10
178.1031625573973
 20
479.23910069666522
 30
0.0
 11
178.1031625573973
 21
465.18841812208478
 31
0.0
  0
LINE
  5
8F7F
  8
AM_0
 10
179.6031625573973
 20
465.44398824004031
 30
0.0
 11
179.6031625573973
 21
479.23910069666522
 31
0.0
  0
LINE
  5
8F80
  8
AM_0
 10
153.68639233001059
 20
461.02828689068281
 30
0.0
 11
153.68639233001059
 21
479.23910069666562
 31
0.0
  0
LINE
  5
8F81
  8
AM_0
 10
151.68639233001051
 20
479.23910069666522
 30
0.0
 11
151.68639233001051
 21
460.68752673340867
 31
0.0
  0
LINE
  5
8F82
  8
AM_0
 10
155.88639233001061
 20
479.23910069666522
 30
0.0
 11
155.88639233001061
 21
461.4031230636844
 31
0.0
  0
LINE
  5
8F83
  8
AM_0
 10
157.38639233001041
 20
461.65869318163971
 30
0.0
 11
157.38639233001041
 21
479.23910069666522
 31
0.0
  0
LINE
  5
8F84
  8
AM_0
 10
159.5863923300106
 20
479.23910069666522
 30
0.0
 11
159.5863923300106
 21
462.03352935464062
 31
0.0
  0
LINE
  5
8F85
  8
AM_0
 10
161.08639233001051
 20
462.28909947259598
 30
0.0
 11
161.08639233001051
 21
479.23910069666522
 31
0.0
  0
LINE
  5
8F86
  8
AM_0
 10
163.28974637548791
 20
479.23910069666522
 30
0.0
 11
163.28974637548791
 21
462.66450710812933
 31
0.0
  0
LINE
  5
8F87
  8
AM_0
 10
165.28974637549109
 20
463.0052672654038
 30
0.0
 11
165.2897463754914
 21
479.239100696668
 31
0.0
  0
LINE
  5
8F88
  8
AM_0
 10
166.99310042096539
 20
479.23910069666522
 30
0.0
 11
166.99310042096531
 21
463.2954848616186
 31
0.0
  0
LINE
  5
8F89
  8
AM_0
 10
168.49310042096519
 20
463.55105497957362
 30
0.0
 11
168.49310042096539
 21
479.23910069666522
 31
0.0
  0
LINE
  5
8F8A
  8
AM_0
 10
157.38639233001041
 20
461.65869318163971
 30
0.0
 11
159.5863923300106
 21
462.03352935464062
 31
0.0
  0
LINE
  5
8F8B
  8
AM_0
 10
153.68639233001059
 20
461.02828689068281
 30
0.0
 11
155.88639233001061
 21
461.4031230636844
 31
0.0
  0
LINE
  5
8F8C
  8
AM_0
 10
161.08639233001051
 20
462.28909947259598
 30
0.0
 11
163.28974637548791
 21
462.66450710812933
 31
0.0
  0
LINE
  5
8F8D
  8
AM_0
 10
165.28974637549109
 20
463.0052672654038
 30
0.0
 11
166.99310042096531
 21
463.2954848616186
 31
0.0
  0
LINE
  5
8F8E
  8
AM_0
 10
168.49310042096519
 20
463.55105497957362
 30
0.0
 11
170.6964544664427
 21
463.9264626151072
 31
0.0
  0
LINE
  5
8F8F
  8
AM_0
 10
172.19645446644259
 20
464.18203273306273
 30
0.0
 11
174.39980851191959
 21
464.55744036859608
 31
0.0
  0
LINE
  5
8F90
  8
AM_0
 10
187.8198978945066
 20
450.23910069666528
 30
0.0
 11
187.8198978945066
 21
461.77459129913348
 31
0.0
  0
LINE
  5
8F91
  8
AM_0
 10
175.8998085119199
 20
464.8130104865516
 30
0.0
 11
178.1031625573973
 21
465.18841812208478
 31
0.0
  0
LINE
  5
8F92
  8
AM_0
 10
198.08974637548991
 20
462.73910069666528
 30
0.0
 11
198.08974637548991
 21
452.73910069666522
 31
0.0
  0
ARC
  5
8F93
  8
AM_0
 10
195.5897463754898
 20
452.73910069666522
 30
0.0
 40
2.5
 50
270.0
 51
0.0
  0
LINE
  5
8F94
  8
AM_0
 10
198.5897463754898
 20
463.23910069666488
 30
0.0
 11
203.96487264133631
 21
463.23910069666488
 31
0.0
  0
LINE
  5
8F95
  8
AM_0
 10
198.5897463754898
 20
463.23910069666488
 30
0.0
 11
196.41544151233069
 21
463.23910069666488
 31
0.0
  0
ARC
  5
8F96
  8
AM_0
 10
198.5897463754898
 20
462.73910069666528
 30
0.0
 40
0.5
 50
90.0
 51
180.0
  0
ARC
  5
8F97
  8
AM_0
 10
203.96487264133631
 20
463.7391006966651
 30
0.0
 40
0.5
 50
270.0
 51
0.0
  0
LINE
  5
8F98
  8
AM_0
 10
175.8998085119199
 20
479.23910069666522
 30
0.0
 11
174.3998085119199
 21
479.23910069666522
 31
0.0
  0
LINE
  5
8F99
  8
AM_0
 10
175.8998085119199
 20
475.23910069666482
 30
0.0
 11
174.3998085119199
 21
475.23910069666482
 31
0.0
  0
LINE
  5
8F9A
  8
AM_0
 10
153.68639233001059
 20
475.23910069666528
 30
0.0
 11
151.68639233001051
 21
475.23910069666528
 31
0.0
  0
LINE
  5
8F9B
  8
AM_0
 10
157.38639233001041
 20
475.23910069666482
 30
0.0
 11
155.88639233001061
 21
475.23910069666528
 31
0.0
  0
LINE
  5
8F9C
  8
AM_0
 10
153.68639233001059
 20
479.23910069666562
 30
0.0
 11
151.68639233001051
 21
479.23910069666522
 31
0.0
  0
LINE
  5
8F9D
  8
AM_0
 10
157.38639233001041
 20
479.23910069666522
 30
0.0
 11
155.88639233001061
 21
479.23910069666522
 31
0.0
  0
LINE
  5
8F9E
  8
AM_0
 10
168.49310042096559
 20
475.23910069666482
 30
0.0
 11
166.99310042096539
 21
475.23910069666482
 31
0.0
  0
LINE
  5
8F9F
  8
AM_0
 10
165.2897463754914
 20
475.23910069666482
 30
0.0
 11
163.28974637548791
 21
475.23910069666482
 31
0.0
  0
LINE
  5
8FA0
  8
AM_0
 10
161.08639233001051
 20
475.23910069666482
 30
0.0
 11
159.5863923300106
 21
475.23910069666482
 31
0.0
  0
LINE
  5
8FA1
  8
AM_0
 10
172.19645446644259
 20
475.23910069666482
 30
0.0
 11
170.6964544664429
 21
475.23910069666482
 31
0.0
  0
LINE
  5
8FA2
  8
AM_0
 10
168.49310042096539
 20
479.23910069666522
 30
0.0
 11
166.99310042096539
 21
479.23910069666522
 31
0.0
  0
LINE
  5
8FA3
  8
AM_0
 10
165.2897463754914
 20
479.23910069666522
 30
0.0
 11
163.28974637548791
 21
479.23910069666522
 31
0.0
  0
LINE
  5
8FA4
  8
AM_0
 10
161.08639233001051
 20
479.23910069666522
 30
0.0
 11
159.5863923300106
 21
479.23910069666522
 31
0.0
  0
LINE
  5
8FA5
  8
AM_0
 10
172.19645446644259
 20
479.23910069666522
 30
0.0
 11
170.6964544664429
 21
479.23910069666522
 31
0.0
  0
LINE
  5
8FA6
  8
AM_0
 10
196.39943465147061
 20
486.73910069666528
 30
0.0
 11
196.73044264133671
 21
499.37917069666503
 31
0.0
  0
LINE
  5
8FA7
  8
AM_0
 10
189.46487264133609
 20
467.1242271796367
 30
0.0
 11
189.46487264133609
 21
484.23910069666528
 31
0.0
  0
LINE
  5
8FA8
  8
AM_0
 10
179.6031625573973
 20
475.23910069666482
 30
0.0
 11
178.1031625573973
 21
475.23910069666482
 31
0.0
  0
LINE
  5
8FA9
  8
AM_0
 10
179.6031625573973
 20
479.23910069666522
 30
0.0
 11
178.1031625573973
 21
479.23910069666522
 31
0.0
  0
LINE
  5
8FAA
  8
AM_0
 10
204.46487264133609
 20
467.23910069666528
 30
0.0
 11
204.4648726413362
 21
483.23910069666488
 31
0.0
  0
LINE
  5
8FAB
  8
AM_0
 10
204.46487264133609
 20
467.23910069666528
 30
0.0
 11
196.0897463754894
 21
467.23910069666482
 31
0.0
  0
LINE
  5
8FAC
  8
AM_0
 10
199.9648726413368
 20
486.73910069666528
 30
0.0
 11
199.9648726413368
 21
484.23910069666528
 31
0.0
  0
ARC
  5
8FAD
  8
AM_0
 10
203.46487264133631
 20
483.23910069666488
 30
0.0
 40
1.0
 50
0.0
 51
90.0
  0
ARC
  5
8FAE
  8
AM_0
 10
197.9784826413366
 20
489.73910069666499
 30
0.0
 40
1.5
 50
90.000003000000945
 51
178.49999999999719
  0
LINE
  5
8FAF
  8
AM_0
 10
178.4648726413366
 20
535.23910069666522
 30
0.0
 11
85.000522641336616
 21
535.23910069666522
 31
0.0
  0
LINE
  5
8FB0
  8
AM_0
 10
178.4648726413366
 20
527.2391006966651
 30
0.0
 11
85.000522641336616
 21
527.2391006966651
 31
0.0
  0
LINE
  5
8FB1
  8
AM_0
 10
83.924892641336669
 20
534.75912069666515
 30
0.0
 11
178.4648726413366
 21
534.75912069666515
 31
0.0
  0
LINE
  5
8FB2
  8
AM_0
 10
84.134852641336693
 20
524.51913069666523
 30
0.0
 11
166.4648726413366
 21
524.51913069666523
 31
0.0
  0
LINE
  5
8FB3
  8
AM_0
 10
166.4648726413366
 20
525.23910069666522
 30
0.0
 11
85.000522641336616
 21
525.23910069666522
 31
0.0
  0
LINE
  5
8FB4
  8
AM_0
 10
84.134852641336693
 20
527.87911069666529
 30
0.0
 11
178.48489264133659
 21
527.87911069666529
 31
0.0
  0
LINE
  5
8FB5
  8
AM_0
 10
178.4648726413366
 20
587.23910069666522
 30
0.0
 11
85.01486264133689
 21
587.23910069666522
 31
0.0
  0
LINE
  5
8FB6
  8
AM_0
 10
178.4648726413366
 20
595.23910069666522
 30
0.0
 11
85.01486264133689
 21
595.23910069666522
 31
0.0
  0
LINE
  5
8FB7
  8
AM_0
 10
83.924892641336669
 20
587.72909069666525
 30
0.0
 11
178.4648726413366
 21
587.72909069666525
 31
0.0
  0
LINE
  5
8FB8
  8
AM_0
 10
84.134852641336693
 20
594.60909069666525
 30
0.0
 11
178.48489264133659
 21
594.60909069666525
 31
0.0
  0
LINE
  5
8FB9
  8
AM_0
 10
111.4649326413368
 20
514.88918069666511
 30
0.0
 11
80.464932641336645
 21
516.91918069666531
 31
0.0
  0
ARC
  5
8FBA
  8
AM_0
 10
79.627712641336643
 20
519.65059069666518
 30
0.0
 40
4.9991421999999961
 50
5.3780268999994201
 51
80.360064999999054
  0
LINE
  5
8FBB
  8
AM_0
 10
80.464872641336655
 20
512.88912069666515
 30
0.0
 11
80.464872641336655
 21
526.93905069666505
 31
0.0
  0
ARC
  5
8FBC
  8
AM_0
 10
80.198032641336454
 20
513.97909069666525
 30
0.0
 40
1.5
 50
10.237378999998841
 51
79.752109999998723
  0
ARC
  5
8FBD
  8
AM_0
 10
80.084562641336788
 20
523.58443069666509
 30
0.0
 40
6.0073843
 50
273.6297400000006
 51
314.76385000000192
  0
ARC
  5
8FBE
  8
AM_0
 10
83.605682641336784
 20
520.02877069666522
 30
0.0
 40
1.0032491999999991
 50
314.98118999999872
 51
5.1676434000008573
  0
ARC
  5
8FBF
  8
AM_0
 10
84.134852641336693
 20
526.18905069666505
 30
0.0
 40
1.6800002000000001
 50
90.000003000000945
 51
270.0
  0
ARC
  5
8FC0
  8
AM_0
 10
85.007722641336613
 20
526.23910069666522
 30
0.0
 40
1.0000255999999981
 50
89.589474000000749
 51
270.41051999999962
  0
ARC
  5
8FC1
  8
AM_0
 10
92.457672641337027
 20
526.23910069666522
 30
0.0
 40
1.0000259
 50
89.587534000000232
 51
270.4124599999987
  0
ARC
  5
8FC2
  8
AM_0
 10
83.919162641336669
 20
536.20907069666487
 30
0.0
 40
1.460011199999999
 50
89.775248000001227
 51
270.22474000000028
  0
ARC
  5
8FC3
  8
AM_0
 10
85.007722641336613
 20
536.23910069666522
 30
0.0
 40
1.0000255999999981
 50
89.589474000000749
 51
270.41051999999962
  0
ARC
  5
8FC4
  8
AM_0
 10
92.457672641337027
 20
536.23910069666522
 30
0.0
 40
1.0000259
 50
89.587534000000232
 51
270.4124599999987
  0
ARC
  5
8FC5
  8
AM_0
 10
92.457672641337027
 20
546.23910069666522
 30
0.0
 40
1.0000259
 50
89.587534000000232
 51
270.4124599999987
  0
ARC
  5
8FC6
  8
AM_0
 10
92.457672641337027
 20
576.23910069666522
 30
0.0
 40
1.0000259
 50
89.587534000000232
 51
270.4124599999987
  0
ARC
  5
8FC7
  8
AM_0
 10
92.457672641337027
 20
566.23910069666522
 30
0.0
 40
1.0000259
 50
89.587534000000232
 51
270.4124599999987
  0
ARC
  5
8FC8
  8
AM_0
 10
92.457672641337027
 20
556.23910069666522
 30
0.0
 40
1.0000259
 50
89.587534000000232
 51
270.4124599999987
  0
ARC
  5
8FC9
  8
AM_0
 10
83.919162641336669
 20
586.26913069666512
 30
0.0
 40
1.460011199999999
 50
89.775248000001227
 51
270.22474000000028
  0
ARC
  5
8FCA
  8
AM_0
 10
85.007722641336613
 20
586.23910069666522
 30
0.0
 40
1.0000255999999981
 50
89.589474000000749
 51
270.41051999999962
  0
ARC
  5
8FCB
  8
AM_0
 10
92.457672641337027
 20
586.23910069666522
 30
0.0
 40
1.0000259
 50
89.587534000000232
 51
270.4124599999987
  0
ARC
  5
8FCC
  8
AM_0
 10
84.134852641336693
 20
596.2891406966653
 30
0.0
 40
1.6800002000000001
 50
90.000003000000945
 51
270.0
  0
ARC
  5
8FCD
  8
AM_0
 10
85.007722641336613
 20
596.23910069666522
 30
0.0
 40
1.0000255999999981
 50
89.589474000000749
 51
270.41051999999962
  0
ARC
  5
8FCE
  8
AM_0
 10
92.457672641337027
 20
596.23910069666522
 30
0.0
 40
1.0000259
 50
89.587534000000232
 51
270.4124599999987
  0
ARC
  5
8FCF
  8
AM_0
 10
147.12985264133661
 20
546.22909069666525
 30
0.0
 40
1.3300148000000001
 50
269.72941999999853
 51
90.270567000000995
  0
ARC
  5
8FD0
  8
AM_0
 10
145.90359264133659
 20
546.23910069666522
 30
0.0
 40
1.0000056999999991
 50
269.999989999999
 51
90.000003000000945
  0
LINE
  5
8FD1
  8
AM_0
 10
195.44485264133661
 20
533.73910069666522
 30
0.0
 11
195.44485264133661
 21
528.87911069666529
 31
0.0
  0
LINE
  5
8FD2
  8
AM_0
 10
194.9648726413366
 20
533.73910069666522
 30
0.0
 11
194.9648726413366
 21
528.73910069666522
 31
0.0
  0
CIRCLE
  5
8FD3
  8
AM_0
 10
189.9648726413366
 20
532.73910069666522
 30
0.0
 40
1.0
  0
CIRCLE
  5
8FD4
  8
AM_0
 10
184.9648726413366
 20
532.73910069666522
 30
0.0
 40
1.149999999999999
  0
CIRCLE
  5
8FD5
  8
AM_0
 10
184.9648726413366
 20
532.73910069666522
 30
0.0
 40
1.1000000000000001
  0
LINE
  5
8FD6
  8
AM_0
 10
179.48489264133659
 20
533.73910069666522
 30
0.0
 11
179.48489264133659
 21
528.87911069666529
 31
0.0
  0
LINE
  5
8FD7
  8
AM_0
 10
179.9648726413366
 20
533.73910069666522
 30
0.0
 11
179.9648726413366
 21
528.73910069666522
 31
0.0
  0
ARC
  5
8FD8
  8
AM_0
 10
178.4648726413366
 20
528.73910069666522
 30
0.0
 40
1.5
 50
269.999989999999
 51
0.0000006832495047
  0
ARC
  5
8FD9
  8
AM_0
 10
178.48489264133659
 20
528.87911069666529
 30
0.0
 40
1.0
 50
269.999989999999
 51
0.0000006832495047
  0
ARC
  5
8FDA
  8
AM_0
 10
196.4648726413368
 20
528.73910069666522
 30
0.0
 40
1.5
 50
179.99998999999889
 51
270.0
  0
ARC
  5
8FDB
  8
AM_0
 10
196.44485264133661
 20
528.87911069666529
 30
0.0
 40
1.0
 50
179.99998999999889
 51
270.0
  0
ARC
  5
8FDC
  8
AM_0
 10
178.4648726413366
 20
533.73910069666522
 30
0.0
 40
1.02
 50
0.0
 51
90.000003000000945
  0
ARC
  5
8FDD
  8
AM_0
 10
178.4648726413366
 20
533.73910069666522
 30
0.0
 40
1.5
 50
0.0
 51
90.000003000000945
  0
ARC
  5
8FDE
  8
AM_0
 10
196.4648726413368
 20
533.73910069666522
 30
0.0
 40
1.02
 50
90.000003000000945
 51
180.00001000000091
  0
ARC
  5
8FDF
  8
AM_0
 10
196.4648726413368
 20
533.73910069666522
 30
0.0
 40
1.5
 50
90.000003000000945
 51
180.00001000000091
  0
ARC
  5
8FE0
  8
AM_0
 10
147.12985264133661
 20
576.25411069666529
 30
0.0
 40
1.3350147999999991
 50
269.73042999999973
 51
90.269556000001344
  0
ARC
  5
8FE1
  8
AM_0
 10
145.90359264133659
 20
576.23910069666522
 30
0.0
 40
1.0000056999999991
 50
269.999989999999
 51
90.000003000000945
  0
ARC
  5
8FE2
  8
AM_0
 10
147.19180264133661
 20
566.24911069666496
 30
0.0
 40
1.2700266
 50
269.62931999999989
 51
90.370670000001468
  0
ARC
  5
8FE3
  8
AM_0
 10
145.90359264133659
 20
566.23910069666522
 30
0.0
 40
1.0000056999999991
 50
269.999989999999
 51
90.000003000000945
  0
ARC
  5
8FE4
  8
AM_0
 10
147.19180264133661
 20
556.23910069666522
 30
0.0
 40
1.2700266
 50
269.62931999999989
 51
90.370670000001468
  0
ARC
  5
8FE5
  8
AM_0
 10
145.90359264133659
 20
556.23910069666522
 30
0.0
 40
1.0000056999999991
 50
269.999989999999
 51
90.000003000000945
  0
ARC
  5
8FE6
  8
AM_0
 10
178.4648726413366
 20
588.73910069666522
 30
0.0
 40
1.02
 50
269.999989999999
 51
0.0000006832429909
  0
ARC
  5
8FE7
  8
AM_0
 10
178.4648726413366
 20
588.73910069666522
 30
0.0
 40
1.5
 50
269.999989999999
 51
0.0000006832495047
  0
LINE
  5
8FE8
  8
AM_0
 10
179.9648726413366
 20
588.73910069666522
 30
0.0
 11
179.9648726413366
 21
593.73910069666522
 31
0.0
  0
LINE
  5
8FE9
  8
AM_0
 10
179.48489264133659
 20
588.73910069666522
 30
0.0
 11
179.48489264133659
 21
593.59908069666517
 31
0.0
  0
ARC
  5
8FEA
  8
AM_0
 10
178.48489264133659
 20
593.59908069666517
 30
0.0
 40
1.0
 50
0.0
 51
90.000003000000945
  0
ARC
  5
8FEB
  8
AM_0
 10
178.4648726413366
 20
593.73910069666522
 30
0.0
 40
1.5
 50
0.0
 51
90.000003000000945
  0
CIRCLE
  5
8FEC
  8
AM_0
 10
184.9648726413366
 20
589.7391006966651
 30
0.0
 40
1.1000000000000001
  0
CIRCLE
  5
8FED
  8
AM_0
 10
184.9648726413366
 20
589.7391006966651
 30
0.0
 40
1.149999999999999
  0
CIRCLE
  5
8FEE
  8
AM_0
 10
189.9648726413366
 20
589.7391006966651
 30
0.0
 40
1.0
  0
ARC
  5
8FEF
  8
AM_0
 10
196.4648726413368
 20
588.73910069666522
 30
0.0
 40
1.02
 50
179.99998999999889
 51
270.0
  0
ARC
  5
8FF0
  8
AM_0
 10
196.4648726413368
 20
588.73910069666522
 30
0.0
 40
1.5
 50
179.99998999999889
 51
270.0
  0
LINE
  5
8FF1
  8
AM_0
 10
195.44485264133661
 20
588.73910069666522
 30
0.0
 11
195.44485264133661
 21
593.59908069666517
 31
0.0
  0
LINE
  5
8FF2
  8
AM_0
 10
194.9648726413366
 20
588.73910069666522
 30
0.0
 11
194.9648726413366
 21
593.73910069666522
 31
0.0
  0
ARC
  5
8FF3
  8
AM_0
 10
196.44485264133661
 20
593.59908069666517
 30
0.0
 40
1.0
 50
90.000003000000945
 51
180.00001000000091
  0
ARC
  5
8FF4
  8
AM_0
 10
196.4648726413368
 20
593.73910069666522
 30
0.0
 40
1.5
 50
90.000003000000945
 51
180.00001000000091
  0
LINE
  5
8FF5
  8
AM_0
 10
72.274872641336643
 20
616.3390706966652
 30
0.0
 11
82.067652641336636
 21
616.3390706966652
 31
0.0
  0
LINE
  5
8FF6
  8
AM_0
 10
76.574862641336836
 20
624.53914069666519
 30
0.0
 11
90.074862641337077
 21
624.53914069666519
 31
0.0
  0
LINE
  5
8FF7
  8
AM_0
 10
76.594882641336667
 20
622.90914069666496
 30
0.0
 11
89.964872641336783
 21
622.90914069666496
 31
0.0
  0
LINE
  5
8FF8
  8
AM_0
 10
70.464872641336797
 20
609.58907069666532
 30
0.0
 11
80.464872641336655
 21
609.58907069666532
 31
0.0
  0
LINE
  5
8FF9
  8
AM_0
 10
70.464872641336797
 20
603.92904069666486
 30
0.0
 11
80.464872641336655
 21
603.92904069666486
 31
0.0
  0
ARC
  5
8FFA
  8
AM_0
 10
23.96344254133674
 20
617.23910069666522
 30
0.0
 40
9.0
 50
89.999988999997569
 51
179.99997999999781
  0
LINE
  5
8FFB
  8
AM_0
 10
22.96487264133679
 20
605.13009069666487
 30
0.0
 11
65.464872641336797
 21
605.13009069666487
 31
0.0
  0
LINE
  5
8FFC
  8
AM_0
 10
23.96344254133674
 20
626.23910069666522
 30
0.0
 11
61.464872641336783
 21
626.23910069666522
 31
0.0
  0
LINE
  5
8FFD
  8
AM_0
 10
45.464872641336797
 20
619.98910069666499
 30
0.0
 11
70.464872641336797
 21
619.98910069666499
 31
0.0
  0
LINE
  5
8FFE
  8
AM_0
 10
24.96344254133674
 20
621.23910069666522
 30
0.0
 11
48.464872641336797
 21
621.23910069666522
 31
0.0
  0
LINE
  5
8FFF
  8
AM_0
 10
22.46487264133679
 20
613.98910069666488
 30
0.0
 11
70.464872641336797
 21
613.98910069666488
 31
0.0
  0
ARC
  5
9000
  8
AM_0
 10
24.96344254133674
 20
616.23910069666522
 30
0.0
 40
5.0
 50
89.999988999997569
 51
180.0
  0
LINE
  5
9001
  8
AM_0
 10
20.46487264133679
 20
604.4920306966651
 30
0.0
 11
20.46487264133679
 21
611.98910069666499
 31
0.0
  0
LINE
  5
9002
  8
AM_0
 10
19.96344254133674
 20
604.28261960095767
 30
0.0
 11
19.96344254133674
 21
616.23910069666476
 31
0.0
  0
ARC
  5
9003
  8
AM_0
 10
21.364902641336691
 20
601.63009069666487
 30
0.0
 40
3.0
 50
90.000049999998538
 51
180.00002000000191
  0
LINE
  5
9004
  8
AM_0
 10
21.364902641336691
 20
604.63009069666487
 30
0.0
 11
21.6648826413367
 21
604.63009069666487
 31
0.0
  0
LINE
  5
9005
  8
AM_0
 10
21.6648826413367
 20
604.73007069666494
 30
0.0
 11
22.96487264133679
 21
604.73007069666494
 31
0.0
  0
ARC
  5
9006
  8
AM_0
 10
22.46487264133679
 20
611.98910069666499
 30
0.0
 40
2.0
 50
90.000049999998538
 51
180.00002000000191
  0
LINE
  5
9007
  8
AM_0
 10
45.464872641336797
 20
619.98910069666499
 30
0.0
 11
45.464872641336797
 21
613.98910069666488
 31
0.0
  0
LINE
  5
9008
  8
AM_0
 10
74.654872641336624
 20
621.3691006966651
 30
0.0
 11
73.73483264133688
 21
617.49911069666496
 31
0.0
  0
LINE
  5
9009
  8
AM_0
 10
74.634852641336693
 20
623.02913069666511
 30
0.0
 11
73.744842641336618
 21
619.4991106966653
 31
0.0
  0
LINE
  5
900A
  8
AM_0
 10
61.464872641336783
 20
621.23910069666522
 30
0.0
 11
61.464872641336783
 21
626.23910069666522
 31
0.0
  0
LINE
  5
900B
  8
AM_0
 10
48.464872641336797
 20
619.98910069666522
 30
0.0
 11
48.464872641336797
 21
626.23910069666522
 31
0.0
  0
LINE
  5
900C
  8
AM_0
 10
58.464872641336797
 20
619.98910069666522
 30
0.0
 11
58.464872641336797
 21
626.23910069666522
 31
0.0
  0
LINE
  5
900D
  8
AM_0
 10
58.464872641336797
 20
621.23910069666522
 30
0.0
 11
61.464872641336783
 21
621.23910069666522
 31
0.0
  0
LINE
  5
900E
  8
AM_0
 10
65.464872641336797
 20
605.13009069666487
 30
0.0
 11
65.464872641336797
 21
613.98910069666488
 31
0.0
  0
LINE
  5
900F
  8
AM_0
 10
70.464872641336797
 20
618.66909069666485
 30
0.0
 11
73.284882641336495
 21
618.73910069666522
 31
0.0
  0
ARC
  5
9010
  8
AM_0
 10
72.284452641336884
 20
619.86446069666522
 30
0.0
 40
1.505448699999999
 50
270.39686999999981
 51
345.9524700000004
  0
LINE
  5
9011
  8
AM_0
 10
72.294892641336673
 20
618.35909069666513
 30
0.0
 11
73.944852641336624
 21
618.35909069666513
 31
0.0
  0
ARC
  5
9012
  8
AM_0
 10
72.270052641336619
 20
617.84395069666493
 30
0.0
 40
1.5048382
 50
270.18264000000067
 51
346.75308000000121
  0
ARC
  5
9013
  8
AM_0
 10
76.595122641336616
 20
620.9168306966651
 30
0.0
 40
1.9922863
 50
90.007721000000544
 51
166.8783899999971
  0
ARC
  5
9014
  8
AM_0
 10
76.5697326413366
 20
622.54452069666513
 30
0.0
 40
1.994612099999999
 50
89.851991999999015
 51
165.93886000000381
  0
LINE
  5
9015
  8
AM_0
 10
91.464872641336797
 20
623.12911069666529
 30
0.0
 11
91.464872641336797
 21
615.72909069666525
 31
0.0
  0
ARC
  5
9016
  8
AM_0
 10
93.458162641336685
 20
621.10579069666528
 30
0.0
 40
1.9933081999999991
 50
89.807323000000935
 51
180.19266999999849
  0
LINE
  5
9017
  8
AM_0
 10
111.4649326413368
 20
607.58907069666532
 30
0.0
 11
80.464872641336655
 21
605.55907069666523
 31
0.0
  0
LINE
  5
9018
  8
AM_0
 10
81.674162641336679
 20
608.23247069666502
 30
0.0
 11
82.459202641336759
 21
612.57915069666524
 31
0.0
  0
ARC
  5
9019
  8
AM_0
 10
80.085842641336626
 20
598.90658069666517
 30
0.0
 40
6.0044340999999992
 50
45.225578000001079
 51
86.380821999999384
  0
ARC
  5
901A
  8
AM_0
 10
83.606782641336622
 20
602.4598006966653
 30
0.0
 40
1.002184699999999
 50
354.80386000000328
 51
45.047306999998277
  0
ARC
  5
901B
  8
AM_0
 10
80.198032641336454
 20
608.49911069666518
 30
0.0
 40
1.5
 50
280.24789000000118
 51
349.76261999999917
  0
LINE
  5
901C
  8
AM_0
 10
84.355312641336695
 20
619.50912069666515
 30
0.0
 11
89.964872641336783
 21
619.50912069666515
 31
0.0
  0
LINE
  5
901D
  8
AM_0
 10
84.419162641336698
 20
614.22909069666525
 30
0.0
 11
89.964872641336783
 21
614.22909069666525
 31
0.0
  0
LINE
  5
901E
  8
AM_0
 10
82.409152641336604
 20
617.92910069666527
 30
0.0
 11
81.449192641336495
 21
613.45913069666494
 31
0.0
  0
ARC
  5
901F
  8
AM_0
 10
84.424282641336617
 20
612.23385069666494
 30
0.0
 40
1.9952742999999991
 50
90.148580000000095
 51
170.03521999999941
  0
LINE
  5
9020
  8
AM_0
 10
79.979152641336654
 20
612.27913069666511
 30
0.0
 11
82.399142641336766
 21
612.27913069666511
 31
0.0
  0
ARC
  5
9021
  8
AM_0
 10
79.98172264133666
 20
613.78145069666493
 30
0.0
 40
1.502416299999999
 50
269.90137999999871
 51
347.60813000000093
  0
ARC
  5
9022
  8
AM_0
 10
84.362212641336896
 20
617.51204069666517
 30
0.0
 40
1.997119399999999
 50
89.801366999998493
 51
167.9447599999981
  0
ARC
  5
9023
  8
AM_0
 10
89.961152641336767
 20
615.73287069666515
 30
0.0
 40
1.5037541000000001
 50
270.14287000000093
 51
359.85713999999848
  0
ARC
  5
9024
  8
AM_0
 10
89.959992641336612
 20
621.01400069666522
 30
0.0
 40
1.504891299999997
 50
270.1859300000005
 51
359.81406999999621
  0
ARC
  5
9025
  8
AM_0
 10
93.461332641336654
 20
624.49264069666515
 30
0.0
 40
1.996488899999999
 50
89.899147999998391
 51
180.10084999999879
  0
ARC
  5
9026
  8
AM_0
 10
93.458652641336684
 20
625.16256069666497
 30
0.0
 40
1.9964978999999961
 50
89.821482000000245
 51
165.6006099999997
  0
ARC
  5
9027
  8
AM_0
 10
93.459012641336685
 20
623.13497069666528
 30
0.0
 40
1.994130499999996
 50
89.831105999999224
 51
180.16889000000049
  0
ARC
  5
9028
  8
AM_0
 10
90.069792641336804
 20
626.04427069666485
 30
0.0
 40
1.505230099999999
 50
270.19421
 51
345.17177999999848
  0
ARC
  5
9029
  8
AM_0
 10
89.957972641336468
 20
624.41598069666532
 30
0.0
 40
1.506942899999999
 50
270.26336999999899
 51
359.73663000000079
  0
LINE
  5
902A
  8
AM_0
 10
217.4648726413366
 20
498.73910069666522
 30
0.0
 11
217.4648726413366
 21
623.73910069666522
 31
0.0
  0
LINE
  5
902B
  8
AM_0
 10
212.2048626413366
 20
500.86916069666501
 30
0.0
 11
215.66485264133669
 21
513.77913069666511
 31
0.0
  0
LINE
  5
902C
  8
AM_0
 10
218.4648726413366
 20
497.7391006966651
 30
0.0
 11
225.4648726413368
 21
497.7391006966651
 31
0.0
  0
LINE
  5
902D
  8
AM_0
 10
218.4648726413366
 20
509.19906069666519
 30
0.0
 11
225.4648726413368
 21
509.19906069666519
 31
0.0
  0
ARC
  5
902E
  8
AM_0
 10
210.2661426413365
 20
501.3853406966652
 30
0.0
 40
2.0062942999999991
 50
270.24932999999891
 51
345.08843999999721
  0
LINE
  5
902F
  8
AM_0
 10
216.4648726413366
 20
500.73916069666529
 30
0.0
 11
210.7390726413368
 21
491.92223069666511
 31
0.0
  0
ARC
  5
9030
  8
AM_0
 10
209.48105264133659
 20
492.73910069666522
 30
0.0
 40
1.5
 50
269.999989999999
 51
326.99999999999801
  0
ARC
  5
9031
  8
AM_0
 10
218.45791264133661
 20
498.73214069666489
 30
0.0
 40
0.99304521
 50
179.5973099999994
 51
270.40267999999998
  0
LINE
  5
9032
  8
AM_0
 10
212.1748926413367
 20
500.73910069666522
 30
0.0
 11
217.4648726413366
 21
500.73910069666522
 31
0.0
  0
ARC
  5
9033
  8
AM_0
 10
218.45724264133659
 20
510.19149069666508
 30
0.0
 40
0.99237448
 50
179.55801999999801
 51
270.4419699999998
  0
LINE
  5
9034
  8
AM_0
 10
217.4648726413366
 20
524.08907069666498
 30
0.0
 11
225.4648726413368
 21
524.08907069666498
 31
0.0
  0
ARC
  5
9035
  8
AM_0
 10
217.1085526413365
 20
513.39535069666522
 30
0.0
 40
1.4937901
 50
89.756423999998432
 51
165.11292000000071
  0
ARC
  5
9036
  8
AM_0
 10
214.28488264133659
 20
526.19906069666524
 30
0.0
 40
1.6800077
 50
269.999989999999
 51
90.000003000000945
  0
ARC
  5
9037
  8
AM_0
 10
210.80490264133661
 20
526.23910069666522
 30
0.0
 40
1.0000040999999991
 50
269.999989999999
 51
90.000003000000945
  0
ARC
  5
9038
  8
AM_0
 10
214.5048526413367
 20
536.20907069666487
 30
0.0
 40
1.460011199999999
 50
269.77524999999991
 51
90.224750000000085
  0
ARC
  5
9039
  8
AM_0
 10
210.80484264133659
 20
536.23910069666522
 30
0.0
 40
1.0000255999999981
 50
269.58946999999989
 51
90.410531000001029
  0
LINE
  5
903A
  8
AM_0
 10
217.4648726413366
 20
598.38912069666515
 30
0.0
 11
225.4648726413368
 21
598.38912069666515
 31
0.0
  0
ARC
  5
903B
  8
AM_0
 10
214.5048526413367
 20
586.26913069666512
 30
0.0
 40
1.460011199999999
 50
269.77524999999991
 51
90.224750000000085
  0
ARC
  5
903C
  8
AM_0
 10
210.80484264133659
 20
586.23910069666522
 30
0.0
 40
1.0000255999999981
 50
269.58946999999989
 51
90.410531000001029
  0
ARC
  5
903D
  8
AM_0
 10
214.28488264133659
 20
596.2891406966653
 30
0.0
 40
1.6800077
 50
269.999989999999
 51
90.000003000000945
  0
ARC
  5
903E
  8
AM_0
 10
210.80490264133661
 20
596.23910069666522
 30
0.0
 40
1.0000040999999991
 50
269.999989999999
 51
90.000003000000945
  0
LINE
  5
903F
  8
AM_0
 10
212.20489264133661
 20
621.6190406966648
 30
0.0
 11
215.6648826413365
 21
608.69909069666528
 31
0.0
  0
LINE
  5
9040
  8
AM_0
 10
213.0150726413367
 20
625.97429069666498
 30
0.0
 11
215.70492264133659
 21
613.45907069666487
 31
0.0
  0
LINE
  5
9041
  8
AM_0
 10
218.4648726413366
 20
613.27913069666511
 30
0.0
 11
225.4648726413368
 21
613.27913069666511
 31
0.0
  0
ARC
  5
9042
  8
AM_0
 10
217.11502264133659
 20
609.09139069666514
 30
0.0
 40
1.5022733999999991
 50
195.13650999999649
 51
269.99412000000041
  0
LINE
  5
9043
  8
AM_0
 10
217.1748926413367
 20
612.27913069666511
 30
0.0
 11
214.75491264133669
 21
612.27913069666511
 31
0.0
  0
ARC
  5
9044
  8
AM_0
 10
218.46396264133671
 20
612.27999069666532
 30
0.0
 40
0.9990923399999999
 50
89.947921999999295
 51
180.05208000000431
  0
ARC
  5
9045
  8
AM_0
 10
217.1705626413368
 20
613.77938069666493
 30
0.0
 40
1.500286
 50
192.326309999995
 51
270.16416999999848
  0
LINE
  5
9046
  8
AM_0
 10
218.4648726413366
 20
624.73910069666522
 30
0.0
 11
225.4648726413368
 21
624.73910069666522
 31
0.0
  0
LINE
  5
9047
  8
AM_0
 10
213.92532264133669
 20
621.73910069666522
 30
0.0
 11
217.4648726413366
 21
621.73910069666522
 31
0.0
  0
ARC
  5
9048
  8
AM_0
 10
211.54855264133661
 20
625.65914069666485
 30
0.0
 40
1.5
 50
12.12979200000205
 51
90.000003000000945
  0
ARC
  5
9049
  8
AM_0
 10
210.2743226413366
 20
621.09994069666516
 30
0.0
 40
1.9991226
 50
15.05079100000003
 51
89.984388999999666
  0
ARC
  5
904A
  8
AM_0
 10
211.9848326413366
 20
623.62911069666518
 30
0.0
 40
1.5
 50
12.12979200000205
 51
90.000003000000945
  0
ARC
  5
904B
  8
AM_0
 10
211.6925326413365
 20
624.98910069666522
 30
0.0
 40
1.5
 50
12.12979200000205
 51
90.000003000000945
  0
ARC
  5
904C
  8
AM_0
 10
218.4646926413368
 20
623.73934069666529
 30
0.0
 40
0.99980682
 50
89.98893100000069
 51
180.0110699999974
  0
TEXT
  5
9536
  8
0
  6
CONTINUOUS
 62
     0
 10
701.61053136919588
 20
553.25235000904706
 30
0.0
 40
15.0
  1
VX04-240BF~VX04-600BF
  0
VIEWPORT
  5
89
 67
     1
  8
0
 10
210.0
 20
148.5
 30
0.0
 40
420.0
 41
297.0
 68
    -1
 69
     1
1001
ACAD
1000
MVIEW
1002
{
1070
    16
1010
0.0
1020
0.0
1030
0.0
1010
0.0
1020
0.0
1030
1.0
1040
0.0
1040
297.0
1040
221.70154043645701
1040
148.5
1040
50.0
1040
0.0
1040
0.0
1070
     0
1070
   100
1070
     1
1070
     1
1070
     0
1070
     0
1070
     0
1070
     0
1040
0.0
1040
0.0
1040
0.0
1040
10.0
1040
10.0
1040
10.0
1040
10.0
1070
     0
1002
{
1002
}
1002
}
1001
GENIUS_GENOREF_13
1005
1B94
1001
GENIUS_GENSCREG_15
1000
PF
1040
1.0
1000
DF
1040
1.0
1000
MIN
1011
0.0
1021
0.0
1031
0.0
1021
0.0
1031
0.0
1000
MAX
1011
420.0
1021
0.0
1031
0.0
1021
297.0
1031
0.0
1000
FLAGS
1070
     4
  0
ENDSEC
  0
EOF
