  0
SECTION
  2
HEADER
  9
$ACADVER
  1
AC1009
  9
$INSBASE
 10
0.0
 20
0.0
 30
0.0
  9
$EXTMIN
 10
13.698994673712599
 20
4.4483846596397143
 30
-0.0015258207003583
  9
$EXTMAX
 10
1088.275732650864
 20
792.15786198841226
 30
0.0000000349246037
  9
$LIMMIN
 10
0.0
 20
0.0
  9
$LIMMAX
 10
408.0
 20
284.0
  9
$ORTHOMODE
 70
     0
  9
$REGENMODE
 70
     1
  9
$FILLMODE
 70
     1
  9
$QTEXTMODE
 70
     0
  9
$MIRRTEXT
 70
     1
  9
$DRAGMODE
 70
     2
  9
$LTSCALE
 40
1.0
  9
$OSMODE
 70
   551
  9
$ATTMODE
 70
     1
  9
$TEXTSIZE
 40
2.5
  9
$TRACEWID
 40
1.0
  9
$TEXTSTYLE
  7
STANDARD
  9
$CLAYER
  8
AM_0
  9
$CELTYPE
  6
BYLAYER
  9
$CECOLOR
 62
   256
  9
$DIMSCALE
 40
1.0
  9
$DIMASZ
 40
2.5
  9
$DIMEXO
 40
1.0
  9
$DIMDLI
 40
7.0
  9
$DIMRND
 40
0.0
  9
$DIMDLE
 40
0.0
  9
$DIMEXE
 40
1.0
  9
$DIMTP
 40
0.1
  9
$DIMTM
 40
0.1000000001
  9
$DIMTXT
 40
2.5
  9
$DIMCEN
 40
0.0
  9
$DIMTSZ
 40
0.0
  9
$DIMTOL
 70
     0
  9
$DIMLIM
 70
     0
  9
$DIMTIH
 70
     0
  9
$DIMTOH
 70
     0
  9
$DIMSE1
 70
     0
  9
$DIMSE2
 70
     0
  9
$DIMTAD
 70
     3
  9
$DIMZIN
 70
     8
  9
$DIMBLK
  1

  9
$DIMASO
 70
     1
  9
$DIMSHO
 70
     1
  9
$DIMPOST
  1

  9
$DIMAPOST
  1
"
  9
$DIMALT
 70
     0
  9
$DIMALTD
 70
     2
  9
$DIMALTF
 40
0.0393701
  9
$DIMLFAC
 40
1.0
  9
$DIMTOFL
 70
     1
  9
$DIMTVP
 40
0.0
  9
$DIMTIX
 70
     0
  9
$DIMSOXD
 70
     0
  9
$DIMSAH
 70
     0
  9
$DIMBLK1
  1

  9
$DIMBLK2
  1

  9
$DIMSTYLE
  2
AM_JIS
  9
$DIMCLRD
 70
   256
  9
$DIMCLRE
 70
   256
  9
$DIMCLRT
 70
     4
  9
$DIMTFAC
 40
0.71
  9
$DIMGAP
 40
1.0
  9
$LUNITS
 70
     2
  9
$LUPREC
 70
     2
  9
$SKETCHINC
 40
1.0
  9
$FILLETRAD
 40
2.5
  9
$AUNITS
 70
     0
  9
$AUPREC
 70
     3
  9
$MENU
  1
.
  9
$ELEVATION
 40
0.0
  9
$PELEVATION
 40
0.0
  9
$THICKNESS
 40
0.0
  9
$LIMCHECK
 70
     0
  9
$BLIPMODE
 70
     0
  9
$CHAMFERA
 40
2.5
  9
$CHAMFERB
 40
2.5
  9
$SKPOLY
 70
     0
  9
$TDCREATE
 40
2453062.5810763892
  9
$TDUPDATE
 40
2458541.366979097
  9
$TDINDWG
 40
0.0315324306
  9
$TDUSRTIMER
 40
0.0315322338
  9
$USRTIMER
 70
     1
  9
$ANGBASE
 50
0.0
  9
$ANGDIR
 70
     0
  9
$PDMODE
 70
     0
  9
$PDSIZE
 40
0.0
  9
$PLINEWID
 40
0.0
  9
$COORDS
 70
     1
  9
$SPLFRAME
 70
     0
  9
$SPLINETYPE
 70
     6
  9
$SPLINESEGS
 70
     8
  9
$ATTDIA
 70
     1
  9
$ATTREQ
 70
     1
  9
$HANDLING
 70
     1
  9
$HANDSEED
  5
9573
  9
$SURFTAB1
 70
     6
  9
$SURFTAB2
 70
     6
  9
$SURFTYPE
 70
     6
  9
$SURFU
 70
     6
  9
$SURFV
 70
     6
  9
$UCSNAME
  2

  9
$UCSORG
 10
0.0
 20
0.0
 30
0.0
  9
$UCSXDIR
 10
1.0
 20
0.0
 30
0.0
  9
$UCSYDIR
 10
0.0
 20
1.0
 30
0.0
  9
$PUCSNAME
  2

  9
$PUCSORG
 10
0.0
 20
0.0
 30
0.0
  9
$PUCSXDIR
 10
1.0
 20
0.0
 30
0.0
  9
$PUCSYDIR
 10
0.0
 20
1.0
 30
0.0
  9
$USERI1
 70
     0
  9
$USERI2
 70
     0
  9
$USERI3
 70
     0
  9
$USERI4
 70
     0
  9
$USERI5
 70
     0
  9
$USERR1
 40
0.0
  9
$USERR2
 40
0.0
  9
$USERR3
 40
0.0
  9
$USERR4
 40
0.0
  9
$USERR5
 40
0.0
  9
$WORLDVIEW
 70
     1
  9
$SHADEDGE
 70
     3
  9
$SHADEDIF
 70
    70
  9
$TILEMODE
 70
     1
  9
$MAXACTVP
 70
    48
  9
$PLIMCHECK
 70
     0
  9
$PEXTMIN
 10
1.0000000000000000E+020
 20
1.0000000000000000E+020
 30
1.0000000000000000E+020
  9
$PEXTMAX
 10
-1.0000000000000000E+020
 20
-1.0000000000000000E+020
 30
-1.0000000000000000E+020
  9
$PLIMMIN
 10
0.0
 20
0.0
  9
$PLIMMAX
 10
420.0
 20
297.0
  9
$UNITMODE
 70
     0
  9
$VISRETAIN
 70
     1
  9
$PLINEGEN
 70
     0
  9
$PSLTSCALE
 70
     1
  0
ENDSEC
  0
SECTION
  2
TABLES
  0
TABLE
  2
VPORT
 70
     1
  0
VPORT
  2
*ACTIVE
 70
     0
 10
0.0
 20
0.0
 11
1.0
 21
1.0
 12
550.98736366228832
 22
398.3031233240261
 13
0.0
 23
0.0
 14
1.0
 24
1.0
 15
10.0
 25
10.0
 16
0.0
 26
0.0
 36
1.0
 17
0.0
 27
0.0
 37
0.0
 40
793.11709387794053
 41
1.7571592210767459
 42
50.0
 43
0.0
 44
0.0
 50
0.0
 51
0.0
 71
     0
 72
   100
 73
     1
 74
     1
 75
     0
 76
     0
 77
     0
 78
     0
  0
ENDTAB
  0
TABLE
  2
LTYPE
 70
    25
  0
LTYPE
  2
CONTINUOUS
 70
     0
  3
Solid line
 72
    65
 73
     0
 40
0.0
  0
LTYPE
  2
PHANTOM2
 70
     0
  3
Phantom (.5x) ___ _ _ ___ _ _ ___ _ _ ___ _ _
 72
    65
 73
     6
 40
31.75
 49
15.875
 49
-3.174999999999998
 49
3.174999999999998
 49
-3.174999999999998
 49
3.174999999999998
 49
-3.174999999999998
  0
LTYPE
  2
CENTER
 70
     0
  3
Center ____ _ ____ _ ____ _ ____ _ ____ _ ____
 72
    65
 73
     4
 40
50.799999999999997
 49
31.75
 49
-6.3499999999999979
 49
6.3499999999999979
 49
-6.3499999999999979
  0
LTYPE
  2
ACANSTGBM
 70
     0
  3
__ . . __ . .
 72
    65
 73
     6
 40
9.0
 49
4.0
 49
-1.0
 49
1.0
 49
-1.0
 49
1.0
 49
-1.0
  0
LTYPE
  2
ACANSTGLM
 70
     0
  3
_ _ _ _ _
 72
    65
 73
     2
 40
3.0
 49
2.0
 49
-1.0
  0
LTYPE
  2
GEN7
 70
     0
  3
____ . ____ . ____ . ____ . ____ . ____ . ____
 72
    65
 73
     4
 40
14.25
 49
9.75
 49
-1.5
 49
1.5
 49
-1.5
  0
LTYPE
  2
AM_ISO02W050
 70
     0
  3
__ __ __ __ __ __ __ __ __ __ __ __ __ __ __
 72
    65
 73
     2
 40
7.5
 49
6.0
 49
-1.5
  0
LTYPE
  2
AM_ISO08W050
 70
     0
  3
____ . ____ . ____ . ____ . ____ . ____ . ____
 72
    65
 73
     4
 40
18.0
 49
12.0
 49
-1.5
 49
3.0
 49
-1.5
  0
LTYPE
  2
AM_ISO09W050
 70
     0
  3
_____ . . _____ . . _____ . . ____ .. ____
 72
    65
 73
     6
 40
22.5
 49
12.0
 49
-1.5
 49
3.0
 49
-1.5
 49
3.0
 49
-1.5
  0
LTYPE
  2
AMCONSTR
 70
     0
  3
_______________________
 72
    65
 73
     2
 40
9999.0
 49
9999.0
 49
0.0
  0
LTYPE
  2
AM_ISO02W050X2
 70
     0
  3
 _ _ _ _ _ _ _ _ _ _ _ _
 72
    65
 73
     2
 40
3.75
 49
3.0
 49
-0.75
  0
LTYPE
  2
AM_ISO08W050X2
 70
     0
  3
__ . __ . __ . __ . __ . __
 72
    65
 73
     4
 40
9.0
 49
6.0
 49
-0.75
 49
1.5
 49
-0.75
  0
LTYPE
  2
AMZIGZAG
 70
     0
  3
/\/-/\/-/\/-/\/-/\/-/\/
 72
    65
 73
     2
 40
11.000099999999991
 49
0.0001
 49
-11.0
  0
LTYPE
  2
ACJISTGB
 70
     0
  3
__ . . __ . .
 72
    65
 73
     6
 40
9.0
 49
4.0
 49
-1.0
 49
1.0
 49
-1.0
 49
1.0
 49
-1.0
  0
LTYPE
  2
ACJISTGL
 70
     0
  3
_ _ _ _ _
 72
    65
 73
     2
 40
3.0
 49
2.0
 49
-1.0
  0
LTYPE
  2
ACISOWELD
 70
     0
  3
_ _ _ _ _
 72
    65
 73
     2
 40
2.0
 49
2.0
 49
-1.0
  0
LTYPE
  2
ACISOTGB
 70
     0
  3
__ . . __ . .
 72
    65
 73
     6
 40
9.0
 49
4.0
 49
-1.0
 49
1.0
 49
-1.0
 49
1.0
 49
-1.0
  0
LTYPE
  2
ACISOTGL
 70
     0
  3
_ _ _ _ _
 72
    65
 73
     2
 40
3.0
 49
2.0
 49
-1.0
  0
LTYPE
  2
HIDDEN
 70
     0
  3
Hidden __ __ __ __ __ __ __ __ __ __ __ __ __ _
 72
    65
 73
     2
 40
0.375
 49
0.25
 49
-0.125
  0
LTYPE
  2
CENTER2
 70
     0
  3
Center (.5x) ___ _ ___ _ ___ _ ___ _ ___ _ ___
 72
    65
 73
     4
 40
1.125
 49
0.75
 49
-0.125
 49
0.125
 49
-0.125
  0
LTYPE
  2
HIDDEN2
 70
     0
  3
Hidden (.5x) _ _ _ _ _ _ _ _ _ _ _ _ _ _ _ _ _
 72
    65
 73
     2
 40
0.1875
 49
0.125
 49
-0.0625
  0
LTYPE
  2
AMZIGZAG2
 70
     0
  3
/\/-/\/-/\/-/\/-/\/-/\/
 72
    65
 73
     2
 40
0.4401
 49
0.0001
 49
-0.4400000000000001
  0
LTYPE
  2
ACANSTGB
 70
     0
  3
__ . . __ . .
 72
    65
 73
     6
 40
0.35433070866
 49
0.15748031496
 49
-0.03937007874
 49
0.03937007874
 49
-0.03937007874
 49
0.03937007874
 49
-0.03937007874
  0
LTYPE
  2
ACANSTGL
 70
     0
  3
_ _ _ _ _
 72
    65
 73
     2
 40
0.11811023622
 49
0.07874015748
 49
-0.03937007874
  0
ENDTAB
  0
TABLE
  2
LAYER
 70
     6
  0
LAYER
  2
0
 70
     0
 62
     7
  6
CONTINUOUS
  0
LAYER
  2
AM_0
 70
     0
 62
     7
  6
CONTINUOUS
  0
LAYER
  2
DEFPOINTS
 70
     0
 62
     7
  6
CONTINUOUS
  0
LAYER
  2
ﾁｭｳｼﾝｾﾝ
 70
     0
 62
     1
  6
GEN7
  0
LAYER
  2
AM_0N
 70
     0
 62
     7
  6
CONTINUOUS
  0
LAYER
  2
AM_5
 70
     0
 62
     2
  6
CONTINUOUS
  0
ENDTAB
  0
TABLE
  2
STYLE
 70
    10
  0
STYLE
  2
STANDARD
 70
     0
 40
0.0
 41
0.8299999999999999
 50
0.0
 71
     0
 42
2.5
  3
txt.shx
  4
bigfont.shx
  0
STYLE
  2
ANNOTATIVE
 70
     0
 40
0.0
 41
1.0
 50
0.0
 71
     0
 42
0.2
  3
txt
  4

  0
STYLE
  2
ACANSTS
 70
     0
 40
1.0
 41
1.0
 50
0.0
 71
     0
 42
2.5
  3
romans.shx
  4
bigfont.shx
  0
STYLE
  2
ACANSGDT
 70
     0
 40
0.0
 41
1.0
 50
0.0
 71
     0
 42
2.5
  3
amgdt.shx
  4

  0
STYLE
  2

 70
     1
 40
0.0
 41
1.0
 50
0.0
 71
     0
 42
2.5
  3
ltypeshp.shx
  4

  0
STYLE
  2
ACJISTS
 70
     0
 40
1.0
 41
0.8299999999999999
 50
0.0
 71
     0
 42
2.5
  3
txt.shx
  4
bigfont.shx
  0
STYLE
  2
ACJISGDT
 70
     0
 40
0.0
 41
1.0
 50
0.0
 71
     0
 42
2.5
  3
amgdt.shx
  4

  0
STYLE
  2
ACISOTS
 70
     0
 40
1.0
 41
1.0
 50
0.0
 71
     0
 42
2.5
  3
isocp.shx
  4
extfont.shx
  0
STYLE
  2
ACISOGDT
 70
     0
 40
0.0
 41
1.0
 50
0.0
 71
     0
 42
2.5
  3
amgdt.shx
  4

  0
STYLE
  2

 70
     1
 40
0.0
 41
1.0
 50
0.0
 71
     0
 42
2.5
  3
genltshp.shx
  4

  0
ENDTAB
  0
TABLE
  2
VIEW
 70
    12
  0
VIEW
  2
GEN1
 70
     0
 40
95.824742268041234
 10
71.5
 20
137.08762886597941
 41
143.0
 11
0.0
 21
0.0
 31
1.0
 12
0.0
 22
0.0
 32
0.0
 42
50.0
 43
0.0
 44
0.0
 50
0.0
 71
     0
  0
VIEW
  2
GEN2
 70
     0
 40
95.824742268041234
 10
214.5
 20
137.08762886597941
 41
143.0
 11
0.0
 21
0.0
 31
1.0
 12
0.0
 22
0.0
 32
0.0
 42
50.0
 43
0.0
 44
0.0
 50
0.0
 71
     0
  0
VIEW
  2
GEN3
 70
     0
 40
95.824742268041234
 10
71.5
 20
47.912371134020603
 41
143.0
 11
0.0
 21
0.0
 31
1.0
 12
0.0
 22
0.0
 32
0.0
 42
50.0
 43
0.0
 44
0.0
 50
0.0
 71
     0
  0
VIEW
  2
GEN4
 70
     0
 40
95.824742268041234
 10
214.5
 20
47.912371134020603
 41
143.0
 11
0.0
 21
0.0
 31
1.0
 12
0.0
 22
0.0
 32
0.0
 42
50.0
 43
0.0
 44
0.0
 50
0.0
 71
     0
  0
VIEW
  2
GEN5
 70
     0
 40
95.824742268041234
 10
143.0
 20
92.500000000000057
 41
143.0
 11
0.0
 21
0.0
 31
1.0
 12
0.0
 22
0.0
 32
0.0
 42
50.0
 43
0.0
 44
0.0
 50
0.0
 71
     0
  0
VIEW
  2
GEN6
 70
     0
 40
191.64756804123709
 10
143.0
 20
92.5
 41
285.99713999999989
 11
0.0
 21
0.0
 31
1.0
 12
0.0
 22
0.0
 32
0.0
 42
50.0
 43
0.0
 44
0.0
 50
0.0
 71
     0
  0
VIEW
  2
AM_VIEW1
 70
     0
 40
142.0
 10
119.7777777777777
 20
213.0
 41
239.55555555555549
 11
0.0
 21
0.0
 31
1.0
 12
0.0
 22
0.0
 32
0.0
 42
50.0
 43
0.0
 44
0.0
 50
0.0
 71
     0
  0
VIEW
  2
AM_VIEW2
 70
     0
 40
142.0
 10
288.22222222222211
 20
213.0
 41
239.55555555555549
 11
0.0
 21
0.0
 31
1.0
 12
0.0
 22
0.0
 32
0.0
 42
50.0
 43
0.0
 44
0.0
 50
0.0
 71
     0
  0
VIEW
  2
AM_VIEW3
 70
     0
 40
142.0
 10
119.7777777777777
 20
71.0
 41
239.55555555555549
 11
0.0
 21
0.0
 31
1.0
 12
0.0
 22
0.0
 32
0.0
 42
50.0
 43
0.0
 44
0.0
 50
0.0
 71
     0
  0
VIEW
  2
AM_VIEW4
 70
     0
 40
142.0
 10
288.22222222222211
 20
71.0
 41
239.55555555555549
 11
0.0
 21
0.0
 31
1.0
 12
0.0
 22
0.0
 32
0.0
 42
50.0
 43
0.0
 44
0.0
 50
0.0
 71
     0
  0
VIEW
  2
AM_VIEW5
 70
     0
 40
142.0
 10
204.0
 20
142.0
 41
239.55555555555549
 11
0.0
 21
0.0
 31
1.0
 12
0.0
 22
0.0
 32
0.0
 42
50.0
 43
0.0
 44
0.0
 50
0.0
 71
     0
  0
VIEW
  2
AM_VIEW6
 70
     0
 40
283.99716000000001
 10
204.0
 20
142.0
 41
479.10631999999993
 11
0.0
 21
0.0
 31
1.0
 12
0.0
 22
0.0
 32
0.0
 42
50.0
 43
0.0
 44
0.0
 50
0.0
 71
     0
  0
ENDTAB
  0
TABLE
  2
UCS
 70
     0
  0
ENDTAB
  0
TABLE
  2
APPID
 70
   106
  0
APPID
  2
ACAD
 70
     0
  0
APPID
  2
ACADANNOTATIVE
 70
     0
  0
APPID
  2
MCAD_NO_VIS
 70
     0
  0
APPID
  2
ACAD_TEMP_GRAPHIC
 70
     0
  0
APPID
  2
AD_DRAW
 70
     0
  0
APPID
  2
DESIGNERASSEMBLIES
 70
     0
  0
APPID
  2
ASURF_PCURVE_APPNAME
 70
     0
  0
APPID
  2
GENIUS_GE3SECT_13
 70
     0
  0
APPID
  2
GENIUS_GENCFG_13
 70
     0
  0
APPID
  2
GENIUS_GE3CFG0_13
 70
     0
  0
APPID
  2
GENIUS_GENCFG0_13
 70
     0
  0
APPID
  2
GENIUS_GENCFG1_13
 70
     0
  0
APPID
  2
GENIUS_GENCFG2_13
 70
     0
  0
APPID
  2
GENIUS_GENCFG3_13
 70
     0
  0
APPID
  2
GENIUS_GENCFG4_13
 70
     0
  0
APPID
  2
GENIUS_GEVCFG0_13
 70
     0
  0
APPID
  2
GENIUS_GENOENT_13
 70
     0
  0
APPID
  2
GENIUS_GENREC_14
 70
     0
  0
APPID
  2
GENIUS_GENODEF_13
 70
     0
  0
APPID
  2
GENIUS_GENOBJ-N-REC_13
 70
     0
  0
APPID
  2
GENIUS_GENHINW_13
 70
     0
  0
APPID
  2
GENIUS_FIRSTVISTXT_14
 70
     0
  0
APPID
  2
GENIUS_GENOBJ-N-LEADER_13
 70
     0
  0
APPID
  2
GENIUS_GENOREF_13
 70
     0
  0
APPID
  2
GENIUS_GENOLIS_13
 70
     0
  0
APPID
  2
GEV_VCCNULL_SWITCH_OFF
 70
     0
  0
APPID
  2
GENIUS_GENDTOL_13
 70
     0
  0
APPID
  2
GENIUS_GEFCFG0_13
 70
     0
  0
APPID
  2
GENIUS_GENOBJ-N-TIT_13
 70
     0
  0
APPID
  2
GENIUS_GENTITLE_13
 70
     0
  0
APPID
  2
GENIUS_GENZVEED_13
 70
     0
  0
APPID
  2
GENIUS_GENOBJ-N-SDF_13
 70
     0
  0
APPID
  2
GENIUS_GENSCREG_13
 70
     0
  0
APPID
  2
GENIUS_DUMCFG0_13
 70
     0
  0
APPID
  2
GEVID936201362
 70
     0
  0
APPID
  2
GEVDC
 70
     0
  0
APPID
  2
GEVCON
 70
     0
  0
APPID
  2
VCC
 70
     0
  0
APPID
  2
GEVPT
 70
     0
  0
APPID
  2
GEVIT
 70
     0
  0
APPID
  2
GENBH
 70
     0
  0
APPID
  2
GEVMK
 70
     0
  0
APPID
  2
GENIUS_GENBH_13
 70
     0
  0
APPID
  2
GENIUS_GENOBJ-NBEHI-BHF_13
 70
     0
  0
APPID
  2
GENIUS_GENOBJ-NBEHI-BHB_13
 70
     0
  0
APPID
  2
GENIUS_GENOBJ-F-DESC_13
 70
     0
  0
APPID
  2
GENIUS_GEFDESC_14
 70
     0
  0
APPID
  2
GENIUS_GENOBJ-F-PART_13
 70
     0
  0
APPID
  2
GENIUS_GEFSTDP_13
 70
     0
  0
APPID
  2
GENIUS_GEFPARTINS_13
 70
     0
  0
APPID
  2
GENIUS_GENTRA_14
 70
     0
  0
APPID
  2
GENIUS_GENINF13_13
 70
     0
  0
APPID
  2
GENIUS_GENOBJ-N-INFOPT_13
 70
     0
  0
APPID
  2
GENIUS_GENOBJ-N-RSSYM_13
 70
     0
  0
APPID
  2
GENIUS_GENSYMENT_13
 70
     0
  0
APPID
  2
GENIUS_GENSCSYM_13
 70
     0
  0
APPID
  2
GENIUS_GEFINFNAM_13
 70
     0
  0
APPID
  2
GENIUS_GENSCREG_15
 70
     0
  0
APPID
  2
GENIUS_GENOBJ-N-CEN_13
 70
     0
  0
APPID
  2
GENIUS_GENOBJ-N-CRS_13
 70
     0
  0
APPID
  2
GENIUS_GENOBJ-N-CRC_13
 70
     0
  0
APPID
  2
GENIUS_GENCRC_14
 70
     0
  0
APPID
  2
GEVID942827039
 70
     0
  0
APPID
  2
GEVID942827040
 70
     0
  0
APPID
  2
GEVID942827041
 70
     0
  0
APPID
  2
GENIUS_GENOBJ-F-SCPASSM_13
 70
     0
  0
APPID
  2
GENIUS_GENDIMSH_14
 70
     0
  0
APPID
  2
GENIUS_GENFIL_13
 70
     0
  0
APPID
  2
GENIUS_GENOBJ-N-CHA_13
 70
     0
  0
APPID
  2
GENIUS_GENOBJ-N-FIL_13
 70
     0
  0
APPID
  2
GEVID942827042
 70
     0
  0
APPID
  2
GEVID946020473
 70
     0
  0
APPID
  2
GEVID946020474
 70
     0
  0
APPID
  2
GEVID946020475
 70
     0
  0
APPID
  2
GENIUS_GENOBJ-N-HTC_13
 70
     0
  0
APPID
  2
GENIUS_GENHATCH_13
 70
     0
  0
APPID
  2
GEVID948854295
 70
     0
  0
APPID
  2
GEVID939402019
 70
     0
  0
APPID
  2
GEVID952919491
 70
     0
  0
APPID
  2
GEVID952919492
 70
     0
  0
APPID
  2
GENIUS_GEFWELD_13
 70
     0
  0
APPID
  2
GENIUS_GENOBJ-F-WELS_13
 70
     0
  0
APPID
  2
GEVID952919493
 70
     0
  0
APPID
  2
GENIUS_GENOBJ-N-RSBK_13
 70
     0
  0
APPID
  2
GENIUS_GENOBJ-N-LIB_13
 70
     0
  0
APPID
  2
GENIUS_GENSCALE_13
 70
     0
  0
APPID
  2
GEVID986376691
 70
     0
  0
APPID
  2
ACATTRIBSERVICES
 70
     0
  0
APPID
  2
ACADM_DIM_EDIT
 70
     0
  0
APPID
  2
AMDT_DM_ADJ
 70
     0
  0
APPID
  2
GEVID1057795304
 70
     0
  0
APPID
  2
GENIUS_GEFSH_13
 70
     0
  0
APPID
  2
GENIUS_GENOBJ-F-SHS_13
 70
     0
  0
APPID
  2
GENIUS_GENOBJ-N-ADDLEAD_13
 70
     0
  0
APPID
  2
GENIUS_GENMAINADDLEADER_14
 70
     0
  0
APPID
  2
GENIUS_GENADDLEADER_14
 70
     0
  0
APPID
  2
GENIUS_GENDREL_13
 70
     0
  0
APPID
  2
GEVID1121934822
 70
     0
  0
APPID
  2
GEVID1121934823
 70
     0
  0
APPID
  2
GEVID1121934824
 70
     0
  0
APPID
  2
ACAD_DSTYLE_DIMJAG
 70
     0
  0
APPID
  2
ACAD_DSTYLE_DIMBREAK
 70
     0
  0
APPID
  2
ACAD_NAV_VCDISPLAY
 70
     0
  0
APPID
  2
ACADANNOPO
 70
     0
  0
APPID
  2
ACAD_EXEMPT_FROM_CAD_STANDARDS
 70
     0
  0
APPID
  2
ACAD_MLEADERVER
 70
     0
  0
ENDTAB
  0
TABLE
  2
DIMSTYLE
 70
    29
  0
DIMSTYLE
  2
STANDARD
 70
     0
  3

  4

  5

  6

  7

 40
1.0
 41
0.18
 42
0.0625
 43
0.38
 44
0.18
 45
0.0
 46
0.0
 47
0.0
 48
0.0
140
0.18
141
0.09
142
0.0
143
25.399999999999999
144
1.0
145
0.0
146
1.0
147
0.09
 71
     0
 72
     0
 73
     1
 74
     1
 75
     0
 76
     0
 77
     0
 78
     0
170
     0
171
     2
172
     0
173
     0
174
     0
175
     0
176
     0
177
     0
178
     0
  0
DIMSTYLE
  2
ANNOTATIVE
 70
     0
  3

  4

  5

  6

  7

 40
1.0
 41
0.18
 42
0.0625
 43
0.38
 44
0.18
 45
0.0
 46
0.0
 47
0.0
 48
0.0
140
0.18
141
0.09
142
0.0
143
25.399999999999999
144
1.0
145
0.0
146
1.0
147
0.09
 71
     0
 72
     0
 73
     1
 74
     1
 75
     0
 76
     0
 77
     0
 78
     0
170
     0
171
     2
172
     0
173
     0
174
     0
175
     0
176
     0
177
     0
178
     0
  0
DIMSTYLE
  2
AM_JIS
 70
     0
  3

  4
"
  5

  6

  7

 40
1.0
 41
2.0
 42
1.0
 43
8.0
 44
1.0
 45
0.0
 46
0.0
 47
0.1
 48
0.1
140
2.5
141
0.0
142
0.0
143
0.0393701
144
1.0
145
0.0
146
0.71
147
1.5
 71
     0
 72
     0
 73
     0
 74
     0
 75
     0
 76
     0
 77
     3
 78
     8
170
     0
171
     2
172
     1
173
     0
174
     0
175
     0
176
   256
177
   256
178
     4
  0
DIMSTYLE
  2
AM_JIS$3
 70
     0
  3

  4
"
  5

  6

  7

 40
1.0
 41
2.0
 42
1.0
 43
10.0
 44
1.0
 45
0.0
 46
0.0
 47
0.1
 48
0.1
140
2.5
141
0.0
142
0.0
143
0.0393701
144
1.0
145
0.0
146
0.71
147
1.5
 71
     0
 72
     0
 73
     0
 74
     1
 75
     0
 76
     0
 77
     3
 78
     8
170
     0
171
     2
172
     0
173
     0
174
     0
175
     0
176
   256
177
   256
178
     4
  0
DIMSTYLE
  2
AM_JIS$4
 70
     0
  3

  4
"
  5

  6

  7

 40
1.0
 41
2.0
 42
1.0
 43
10.0
 44
1.0
 45
0.0
 46
0.0
 47
0.1
 48
0.1
140
2.5
141
0.0
142
0.0
143
0.0393701
144
1.0
145
0.0
146
0.71
147
1.5
 71
     0
 72
     0
 73
     0
 74
     0
 75
     0
 76
     0
 77
     3
 78
     8
170
     0
171
     2
172
     0
173
     0
174
     0
175
     0
176
   256
177
   256
178
     4
  0
DIMSTYLE
  2
AM_JIS$6
 70
     0
  3

  4
"
  5

  6

  7

 40
1.0
 41
2.0
 42
1.0
 43
10.0
 44
1.0
 45
0.0
 46
0.0
 47
0.1
 48
0.1
140
2.5
141
0.0
142
0.0
143
0.0393701
144
1.0
145
0.0
146
0.71
147
1.5
 71
     0
 72
     0
 73
     0
 74
     0
 75
     0
 76
     0
 77
     0
 78
     8
170
     0
171
     2
172
     1
173
     0
174
     0
175
     0
176
   256
177
   256
178
     4
  0
DIMSTYLE
  2
AM_JIS$7
 70
     0
  3

  4
"
  5

  6

  7

 40
1.0
 41
2.0
 42
1.0
 43
10.0
 44
1.0
 45
0.0
 46
0.0
 47
0.1
 48
0.1
140
2.5
141
0.0
142
0.0
143
0.0393701
144
1.0
145
0.0
146
0.71
147
1.5
 71
     0
 72
     0
 73
     0
 74
     0
 75
     0
 76
     0
 77
     3
 78
     8
170
     0
171
     2
172
     1
173
     0
174
     0
175
     0
176
   256
177
   256
178
     4
  0
DIMSTYLE
  2
AM_JIS$SF
 70
     0
  3

  4
"
  5

  6

  7

 40
1.0
 41
2.0
 42
1.0
 43
10.0
 44
1.0
 45
0.0
 46
0.0
 47
0.1
 48
0.1
140
2.5
141
0.0
142
0.0
143
0.0393701
144
1.0
145
0.0
146
0.71
147
1.5
 71
     0
 72
     0
 73
     0
 74
     0
 75
     1
 76
     1
 77
     3
 78
     8
170
     0
171
     2
172
     1
173
     0
174
     0
175
     0
176
   256
177
   256
178
     4
  0
DIMSTYLE
  2
AM_JIS$SH
 70
     0
  3

  4
"
  5

  6

  7

 40
1.0
 41
2.0
 42
1.0
 43
10.0
 44
1.0
 45
0.0
 46
0.0
 47
0.1
 48
0.1
140
2.5
141
0.0
142
0.0
143
0.0393701
144
2.0
145
0.0
146
0.71
147
1.5
 71
     0
 72
     0
 73
     0
 74
     0
 75
     1
 76
     1
 77
     3
 78
     8
170
     0
171
     2
172
     1
173
     1
174
     0
175
     0
176
   256
177
   256
178
     4
  0
DIMSTYLE
  2
AM_ISO
 70
     0
  3

  4
"
  5

  6

  7

 40
1.0
 41
2.5
 42
1.0
 43
10.0
 44
1.0
 45
0.0
 46
0.0
 47
0.1
 48
0.1
140
3.5
141
0.0
142
0.0
143
0.0393701
144
1.0
145
0.0
146
0.71
147
1.5
 71
     0
 72
     0
 73
     0
 74
     0
 75
     0
 76
     0
 77
     1
 78
     8
170
     0
171
     2
172
     1
173
     0
174
     0
175
     0
176
   256
177
   256
178
     2
  0
DIMSTYLE
  2
AM_ISO$3
 70
     0
  3

  4
"
  5

  6

  7

 40
1.0
 41
2.5
 42
1.0
 43
10.0
 44
1.0
 45
0.0
 46
0.0
 47
0.1
 48
0.1
140
3.5
141
0.0
142
0.0
143
0.0393701
144
1.0
145
0.0
146
0.71
147
1.5
 71
     0
 72
     0
 73
     0
 74
     1
 75
     0
 76
     0
 77
     1
 78
     8
170
     0
171
     2
172
     0
173
     0
174
     0
175
     0
176
   256
177
   256
178
     2
  0
DIMSTYLE
  2
AM_ISO$4
 70
     0
  3

  4
"
  5

  6

  7

 40
1.0
 41
2.5
 42
1.0
 43
10.0
 44
1.0
 45
0.0
 46
0.0
 47
0.1
 48
0.1
140
3.5
141
0.0
142
0.0
143
0.0393701
144
1.0
145
0.0
146
0.71
147
1.5
 71
     0
 72
     0
 73
     0
 74
     1
 75
     0
 76
     0
 77
     1
 78
     8
170
     0
171
     2
172
     0
173
     0
174
     0
175
     0
176
   256
177
   256
178
     2
  0
DIMSTYLE
  2
AM_ISO$6
 70
     0
  3

  4
"
  5

  6

  7

 40
1.0
 41
2.5
 42
1.0
 43
10.0
 44
1.0
 45
0.0
 46
0.0
 47
0.1
 48
0.1
140
3.5
141
0.0
142
0.0
143
0.0393701
144
1.0
145
0.0
146
0.71
147
1.5
 71
     0
 72
     0
 73
     0
 74
     0
 75
     0
 76
     0
 77
     0
 78
     8
170
     0
171
     2
172
     1
173
     0
174
     0
175
     0
176
   256
177
   256
178
     2
  0
DIMSTYLE
  2
AM_ISO$7
 70
     0
  3

  4
"
  5

  6

  7

 40
1.0
 41
2.5
 42
1.0
 43
10.0
 44
1.0
 45
0.0
 46
0.0
 47
0.1
 48
0.1
140
5.0
141
0.0
142
0.0
143
0.0393701
144
1.0
145
0.0
146
0.71
147
1.5
 71
     0
 72
     0
 73
     0
 74
     0
 75
     0
 76
     0
 77
     1
 78
     8
170
     0
171
     2
172
     1
173
     0
174
     0
175
     0
176
   256
177
   256
178
     2
  0
DIMSTYLE
  2
AM_ISO$SF
 70
     0
  3

  4
"
  5

  6

  7

 40
1.0
 41
2.5
 42
1.0
 43
10.0
 44
1.0
 45
0.0
 46
0.0
 47
0.1
 48
0.1
140
3.5
141
0.0
142
0.0
143
0.0393701
144
1.0
145
0.0
146
0.71
147
1.5
 71
     0
 72
     0
 73
     0
 74
     0
 75
     1
 76
     1
 77
     1
 78
     8
170
     0
171
     2
172
     1
173
     0
174
     0
175
     0
176
   256
177
   256
178
     2
  0
DIMSTYLE
  2
AM_ISO$SH
 70
     0
  3

  4
"
  5

  6

  7

 40
1.0
 41
2.5
 42
1.0
 43
10.0
 44
1.0
 45
0.0
 46
0.0
 47
0.1
 48
0.1
140
3.5
141
0.0
142
0.0
143
0.0393701
144
2.0
145
0.0
146
0.71
147
1.5
 71
     0
 72
     0
 73
     0
 74
     0
 75
     1
 76
     1
 77
     1
 78
     8
170
     0
171
     2
172
     1
173
     1
174
     0
175
     0
176
   256
177
   256
178
     2
  0
DIMSTYLE
  2
GEN-ANSI
 70
     0
  3

  4
"
  5

  6

  7

 40
1.0
 41
2.0
 42
0.5
 43
10.0
 44
0.5
 45
0.0
 46
0.0
 47
0.1
 48
0.1
140
2.5
141
0.0
142
0.0
143
0.0393701
144
1.0
145
0.0
146
0.71
147
1.5
 71
     0
 72
     0
 73
     1
 74
     1
 75
     0
 76
     0
 77
     0
 78
     8
170
     0
171
     2
172
     0
173
     0
174
     0
175
     0
176
   256
177
   256
178
     4
  0
DIMSTYLE
  2
GEN-ANSI$3
 70
     0
  3

  4
"
  5

  6

  7

 40
1.0
 41
2.0
 42
0.5
 43
10.0
 44
0.5
 45
0.0
 46
0.0
 47
0.1
 48
0.1
140
2.5
141
0.0
142
0.0
143
0.0393701
144
1.0
145
0.0
146
0.71
147
1.5
 71
     0
 72
     0
 73
     1
 74
     1
 75
     0
 76
     0
 77
     0
 78
     8
170
     0
171
     2
172
     0
173
     0
174
     0
175
     0
176
   256
177
   256
178
     4
  0
DIMSTYLE
  2
GEN-ANSI$4
 70
     0
  3

  4
"
  5

  6

  7

 40
1.0
 41
2.0
 42
0.5
 43
10.0
 44
0.5
 45
0.0
 46
0.0
 47
0.1
 48
0.1
140
2.5
141
0.0
142
0.0
143
0.0393701
144
1.0
145
0.0
146
0.71
147
1.5
 71
     0
 72
     0
 73
     1
 74
     1
 75
     0
 76
     0
 77
     0
 78
     8
170
     0
171
     2
172
     0
173
     0
174
     0
175
     0
176
   256
177
   256
178
     4
  0
DIMSTYLE
  2
GEN-ANSI$6
 70
     0
  3

  4
"
  5

  6

  7

 40
1.0
 41
2.0
 42
0.5
 43
10.0
 44
0.5
 45
0.0
 46
0.0
 47
0.1
 48
0.1
140
2.5
141
0.0
142
0.0
143
0.0393701
144
1.0
145
0.0
146
0.71
147
1.5
 71
     0
 72
     0
 73
     1
 74
     1
 75
     0
 76
     0
 77
     0
 78
     8
170
     0
171
     2
172
     0
173
     0
174
     0
175
     0
176
   256
177
   256
178
     4
  0
DIMSTYLE
  2
GEN-ANSI-POS
 70
     0
  3

  4
"
  5

  6

  7

 40
1.0
 41
2.5
 42
0.5
 43
10.0
 44
0.5
 45
0.0
 46
0.0
 47
0.1
 48
0.1
140
5.0
141
0.0
142
0.0
143
0.0393701
144
1.0
145
0.0
146
0.71
147
1.5
 71
     0
 72
     0
 73
     0
 74
     0
 75
     0
 76
     0
 77
     0
 78
     8
170
     0
171
     2
172
     0
173
     0
174
     0
175
     0
176
   256
177
   256
178
     4
  0
DIMSTYLE
  2
GEN-ANSI-AXE-F
 70
     0
  3

  4
"
  5

  6

  7

 40
1.0
 41
2.0
 42
0.5
 43
10.0
 44
0.5
 45
0.0
 46
0.0
 47
0.1
 48
0.1
140
2.5
141
0.0
142
0.0
143
0.0393701
144
1.0
145
0.0
146
0.71
147
1.5
 71
     0
 72
     0
 73
     1
 74
     1
 75
     1
 76
     1
 77
     0
 78
     8
170
     0
171
     2
172
     0
173
     1
174
     0
175
     0
176
   256
177
   256
178
     4
  0
DIMSTYLE
  2
GEN-ANSI-AXE-H
 70
     0
  3

  4
"
  5

  6

  7

 40
1.0
 41
2.0
 42
0.5
 43
10.0
 44
0.5
 45
0.0
 46
0.0
 47
0.1
 48
0.1
140
2.5
141
0.0
142
0.0
143
0.0393701
144
2.0
145
0.0
146
0.71
147
1.5
 71
     0
 72
     0
 73
     0
 74
     0
 75
     1
 76
     1
 77
     0
 78
     8
170
     0
171
     2
172
     1
173
     1
174
     0
175
     0
176
   256
177
   256
178
     4
  0
DIMSTYLE
  2
AM_ANSI
 70
     0
  3

  4
mm
  5

  6

  7

 40
1.0
 41
0.12
 42
0.05
 43
0.5
 44
0.1
 45
0.0
 46
0.0
 47
0.1
 48
0.1
140
0.12
141
0.0
142
0.0
143
25.399999999999999
144
1.0
145
0.0
146
0.71
147
0.06
 71
     0
 72
     0
 73
     1
 74
     1
 75
     0
 76
     0
 77
     0
 78
     7
170
     0
171
     2
172
     0
173
     0
174
     0
175
     0
176
   256
177
   256
178
     2
  0
DIMSTYLE
  2
AM_ANSI$3
 70
     0
  3

  4
mm
  5

  6

  7

 40
1.0
 41
0.12
 42
0.05
 43
0.5
 44
0.1
 45
0.0
 46
0.0
 47
0.1
 48
0.1
140
0.12
141
0.0
142
0.0
143
25.399999999999999
144
1.0
145
0.0
146
0.71
147
0.06
 71
     0
 72
     0
 73
     1
 74
     1
 75
     0
 76
     0
 77
     0
 78
     7
170
     0
171
     2
172
     0
173
     0
174
     0
175
     0
176
   256
177
   256
178
     2
  0
DIMSTYLE
  2
AM_ANSI$4
 70
     0
  3

  4
mm
  5

  6

  7

 40
1.0
 41
0.12
 42
0.05
 43
0.5
 44
0.1
 45
0.0
 46
0.0
 47
0.1
 48
0.1
140
0.12
141
0.0
142
0.0
143
25.399999999999999
144
1.0
145
0.0
146
0.71
147
0.06
 71
     0
 72
     0
 73
     1
 74
     1
 75
     0
 76
     0
 77
     0
 78
     7
170
     0
171
     2
172
     0
173
     0
174
     0
175
     0
176
   256
177
   256
178
     2
  0
DIMSTYLE
  2
AM_ANSI$7
 70
     0
  3

  4
mm
  5

  6

  7

 40
1.0
 41
0.12
 42
0.05
 43
0.5
 44
0.1
 45
0.0
 46
0.0
 47
0.1
 48
0.1
140
0.12
141
0.0
142
0.0
143
25.399999999999999
144
1.0
145
0.0
146
0.71
147
0.06
 71
     0
 72
     0
 73
     1
 74
     1
 75
     0
 76
     0
 77
     0
 78
     7
170
     0
171
     2
172
     0
173
     0
174
     0
175
     0
176
   256
177
   256
178
     2
  0
DIMSTYLE
  2
AM_ANSI$SF
 70
     0
  3

  4
mm
  5

  6

  7

 40
1.0
 41
0.12
 42
0.05
 43
0.5
 44
0.1
 45
0.0
 46
0.0
 47
0.1
 48
0.1
140
0.12
141
0.0
142
0.0
143
25.399999999999999
144
1.0
145
0.0
146
0.71
147
0.06
 71
     0
 72
     0
 73
     1
 74
     1
 75
     1
 76
     1
 77
     0
 78
     7
170
     0
171
     2
172
     0
173
     0
174
     0
175
     0
176
   256
177
   256
178
     2
  0
DIMSTYLE
  2
AM_ANSI$SH
 70
     0
  3

  4
mm
  5

  6
GENAXEH
  7

 40
1.0
 41
0.12
 42
0.05
 43
0.5
 44
0.1
 45
0.0
 46
0.0
 47
0.1
 48
0.1
140
0.12
141
0.0
142
0.0
143
25.399999999999999
144
1.0
145
0.0
146
0.71
147
0.06
 71
     0
 72
     0
 73
     1
 74
     1
 75
     1
 76
     1
 77
     0
 78
     7
170
     0
171
     2
172
     0
173
     1
174
     0
175
     0
176
   256
177
   256
178
     2
  0
ENDTAB
  0
ENDSEC
  0
SECTION
  2
BLOCKS
  0
BLOCK
  8
0
  2
$MODEL_SPACE
 70
     0
 10
0.0
 20
0.0
 30
0.0
  3
$MODEL_SPACE
  1

  0
ENDBLK
  5
93D0
  8
0
  0
BLOCK
 67
     1
  8
0
  2
$PAPER_SPACE
 70
     0
 10
0.0
 20
0.0
 30
0.0
  3
$PAPER_SPACE
  1

  0
ENDBLK
  5
93CC
 67
     1
  8
0
  0
BLOCK
  8
0
  2
GENAXEH
 70
     0
 10
0.0
 20
0.0
 30
0.0
  3
GENAXEH
  1

  0
LINE
  5
931A
  8
0
 10
-1.0
 20
0.0
 30
0.0
 11
1.0
 21
0.0
 31
0.0
  0
ENDBLK
  5
931C
  8
0
  0
BLOCK
  8
0
  2
_ACMFILLEDHALF
 70
     0
 10
0.0
 20
0.0
 30
0.0
  3
_ACMFILLEDHALF
  1

  0
TRACE
  5
94DD
  8
AM_0
 62
     0
 10
-0.8
 20
0.0
 30
0.0
 11
-1.0
 21
0.166666666
 31
0.0
 12
0.0
 22
0.0
 32
0.0
 13
0.0
 23
0.0
 33
0.0
  0
LINE
  5
94DE
  8
AM_0
 62
     0
 10
-1.0
 20
0.0
 30
0.0
 11
-0.8
 21
0.0
 31
0.0
  0
ENDBLK
  5
94DC
  8
0
  0
ENDSEC
  0
SECTION
  2
ENTITIES
  0
POINT
  5
1B94
  8
0
 10
0.0
 20
0.0
 30
0.0
1001
GENIUS_GENODEF_13
1002
{
1000
HIER
1070
     1
1002
}
1002
{
1000
MANEDIT
1070
     0
1002
}
1002
{
1000
NOSEL
1070
     0
1002
}
1002
{
1000
BEHIND
1070
     0
1002
}
1002
{
1000
REACTOR
1002
}
1001
GENIUS_GENOBJ-N-SDF_13
1002
{
1000
OWNER
1000
GEN
1002
}
1001
GENIUS_GENOENT_13
1002
{
1000
MYREF
1005
1B94
1002
}
1002
{
1000
GRP
1005
0
1002
}
1001
GENIUS_GENOLIS_13
1002
{
1000
ENT
1005
89
1002
}
  0
LINE
  5
86BE
  8
AM_0
 10
549.077289023091
 20
239.02692758792821
 30
0.0
 11
631.077289023091
 21
239.02692758792821
 31
0.0
  0
LINE
  5
86BF
  8
AM_0
 10
549.077289023091
 20
184.02692258792919
 30
0.0
 11
631.077289023091
 21
184.02692258792919
 31
0.0
  0
LINE
  5
86C0
  8
AM_0
 10
569.077289023091
 20
243.02692758792821
 30
0.0
 11
631.077289023091
 21
243.02692758792821
 31
0.0
  0
LINE
  5
86C1
  8
ﾁｭｳｼﾝｾﾝ
 10
385.43629579189741
 20
211.52692258792831
 30
0.0
 11
636.50613902309124
 21
211.52692258792831
 31
0.0
  0
LINE
  5
86C4
  8
AM_0
 10
518.40393902309097
 20
169.0388275879281
 30
0.0
 11
506.50018902309051
 21
297.40049258792823
 31
0.0
  0
LINE
  5
86C5
  8
AM_0
 10
528.077289023091
 20
335.87606258792738
 30
0.0
 11
528.077289023091
 21
87.177802587928213
 31
0.0
  0
LINE
  5
86C6
  8
AM_0
 10
546.07728902309077
 20
351.52696258792781
 30
0.0
 11
546.07728902309077
 21
71.526922587929221
 31
0.0
  0
LINE
  5
86C7
  8
AM_0
 10
541.077289023091
 20
376.52696258792781
 30
0.0
 11
541.077289023091
 21
46.526922587928311
 31
0.0
  0
LINE
  5
86C8
  8
AM_0
 10
519.07728902309009
 20
370.930212587928
 30
0.0
 11
519.07728902309009
 21
177.2635575879282
 31
0.0
  0
LINE
  5
86C9
  8
AM_0
 10
396.077289023091
 20
333.52691258792822
 30
0.0
 11
396.077289023091
 21
18.526922587929221
 31
0.0
  0
LINE
  5
86CA
  8
AM_0
 10
368.077289023091
 20
330.6282125879282
 30
0.0
 11
368.077289023091
 21
21.43608758792811
 31
0.0
  0
LINE
  5
86CB
  8
AM_0
 10
347.57728902309088
 20
271.192727587928
 30
0.0
 11
347.57728902309088
 21
62.632697587928298
 31
0.0
  0
LINE
  5
86CC
  8
ﾁｭｳｼﾝｾﾝ
 10
393.8553142229419
 20
130.31690258792739
 30
0.0
 11
16.595539023090161
 21
130.31690258792739
 31
0.0
  0
LINE
  5
86CD
  8
AM_0
 10
367.02918902309102
 20
34.113242587927289
 30
0.0
 11
349.6732390230909
 21
56.50679758792829
 31
0.0
  0
LINE
  5
86CE
  8
AM_0
 10
322.07733902309047
 20
95.60462258792812
 30
0.0
 11
322.07733902309047
 21
237.2732925879281
 31
0.0
  0
LINE
  5
86CF
  8
AM_0
 10
332.07733902309047
 20
92.526922587928325
 30
0.0
 11
332.07733902309047
 21
240.5269275879281
 31
0.0
  0
LINE
  5
86D0
  8
AM_0
 10
232.07733902309059
 20
66.316932587929387
 30
0.0
 11
232.07733902309059
 21
194.31693258792811
 31
0.0
  0
LINE
  5
86D1
  8
AM_0
 10
252.0773390230905
 20
132.3200125879282
 30
0.0
 11
252.0773390230905
 21
70.878087587928121
 31
0.0
  0
LINE
  5
86D2
  8
AM_0
 10
232.07733902309059
 20
66.31696258792725
 30
0.0
 11
248.21698902309069
 21
66.880562587927216
 31
0.0
  0
LINE
  5
86D3
  8
AM_0
 10
232.07733902309059
 20
78.81693258792734
 30
0.0
 11
252.0773390230905
 21
78.81693258792734
 31
0.0
  0
LINE
  5
86D4
  8
AM_0
 10
232.07733902309059
 20
92.320622587928241
 30
0.0
 11
252.0773390230905
 21
92.320622587928241
 31
0.0
  0
LINE
  5
86D5
  8
AM_0
 10
225.0773390230905
 20
78.276922587927388
 30
0.0
 11
232.07733902309059
 21
78.276922587927388
 31
0.0
  0
LINE
  5
86D6
  8
AM_0
 10
225.0773390230905
 20
66.81693258792734
 30
0.0
 11
232.07733902309059
 21
66.81693258792734
 31
0.0
  0
LINE
  5
86D7
  8
AM_0
 10
224.07733902309059
 20
93.166907587927227
 30
0.0
 11
232.07733902309059
 21
93.166907587927227
 31
0.0
  0
LINE
  5
86D8
  8
AM_0
 10
257.25173902309052
 20
99.27649758792812
 30
0.0
 11
319.08223902309049
 21
97.11734758792818
 31
0.0
  0
LINE
  5
86D9
  8
AM_0
 10
254.30858902309041
 20
71.714512587928311
 30
0.0
 11
321.4267390230907
 21
92.672947587929229
 31
0.0
  0
ARC
  5
86DA
  8
AM_0
 10
248.0773390230905
 20
70.878087587928121
 30
0.0
 40
4.000000049999997
 50
272.00000000000341
 51
0.0
  0
ARC
  5
86DB
  8
AM_0
 10
255.50088902309099
 20
67.896337587928201
 30
0.0
 40
4.000000049999997
 50
107.3416099999698
 51
158.11660999999989
  0
ARC
  5
86DC
  8
AM_0
 10
257.07733902309047
 20
94.279577587928316
 30
0.0
 40
5.0
 50
87.999999999996476
 51
180.00001000000091
  0
ARC
  5
86DD
  8
AM_0
 10
357.577289023091
 20
62.632697587928298
 30
0.0
 40
10.0
 50
179.99998999999889
 51
217.77723000001239
  0
LINE
  5
86DE
  8
AM_0
 10
322.75843902309038
 20
92.852332587928231
 30
0.0
 11
332.07723902309039
 21
92.526892587927264
 31
0.0
  0
ARC
  5
86DF
  8
AM_0
 10
318.94268902309062
 20
93.119787587928158
 30
0.0
 40
4.000000049999997
 50
26.896937000003451
 51
87.999999999996476
  0
ARC
  5
86E0
  8
AM_0
 10
326.077289023091
 20
96.738867587928326
 30
0.0
 40
4.000000049999997
 50
206.89693999999341
 51
267.99999999999642
  0
ARC
  5
86E1
  8
AM_0
 10
322.61893902309021
 20
88.854772587928196
 30
0.0
 40
4.000000049999997
 50
87.999999999996476
 51
107.3416099999698
  0
ARC
  5
86E2
  8
AM_0
 10
342.577289023091
 20
87.657202587927245
 30
0.0
 40
5.0
 50
0.0
 51
87.999999999996476
  0
LINE
  5
86E3
  8
AM_0
 10
332.07723902309039
 20
93.026892587927236
 30
0.0
 11
342.75173902309223
 21
92.654152587928124
 31
0.0
  0
ARC
  5
86E4
  8
AM_0
 10
244.0773390230905
 20
184.81693258792731
 30
0.0
 40
3.0000000500000001
 50
270.0
 51
0.0
  0
ARC
  5
86E5
  8
AM_0
 10
242.0773390230905
 20
199.66916758792831
 30
0.0
 40
5.0
 50
272.00000000000341
 51
0.0
  0
ARC
  5
86E6
  8
AM_0
 10
252.0773390230905
 20
206.69849258792919
 30
0.0
 40
5.0
 50
91.999997999994264
 51
180.00001000000091
  0
LINE
  5
86E7
  8
AM_0
 10
232.07733902309059
 20
168.31324258792819
 30
0.0
 11
307.96813902309083
 21
168.31324258792819
 31
0.0
  0
LINE
  5
86E8
  8
AM_0
 10
232.07733902309059
 20
181.81693258792811
 30
0.0
 11
311.81493902309012
 21
181.81693258792811
 31
0.0
  0
LINE
  5
86E9
  8
AM_0
 10
224.07733902309059
 20
167.46692758792821
 30
0.0
 11
232.07733902309059
 21
167.46692758792821
 31
0.0
  0
LINE
  5
86EA
  8
AM_0
 10
225.0773390230905
 20
182.35691258792821
 30
0.0
 11
232.07733902309059
 21
182.35691258792821
 31
0.0
  0
LINE
  5
86EB
  8
AM_0
 10
232.07733902309059
 20
194.31693258792811
 30
0.0
 11
242.25188902309119
 21
194.67224758792821
 31
0.0
  0
LINE
  5
86EC
  8
AM_0
 10
225.0773390230905
 20
193.8169025879283
 30
0.0
 11
232.07733902309059
 21
193.8169025879283
 31
0.0
  0
LINE
  5
86ED
  8
AM_0
 10
307.96813902309083
 20
168.31317758792821
 30
0.0
 11
314.64343902309048
 21
174.98844258792721
 31
0.0
  0
LINE
  5
86EE
  8
AM_0
 10
257.07733902309047
 20
137.3200125879282
 30
0.0
 11
322.07733902309047
 21
137.3200125879282
 31
0.0
  0
ARC
  5
86EF
  8
AM_0
 10
257.07733902309047
 20
132.3200125879282
 30
0.0
 40
5.0
 50
90.000002999984645
 51
180.00001000000091
  0
LINE
  5
86F0
  8
AM_0
 10
322.07733902309047
 20
103.5268925879281
 30
0.0
 11
347.57728902309088
 21
103.5268925879281
 31
0.0
  0
LINE
  5
86F1
  8
AM_0
 10
322.07733902309047
 20
127.7068225879281
 30
0.0
 11
347.57728902309088
 21
127.7068225879281
 31
0.0
  0
LINE
  5
86F2
  8
AM_0
 10
307.96808902309198
 20
168.31324258792819
 30
0.0
 11
322.07728902308997
 21
141.1311125879283
 31
0.0
  0
ARC
  5
86F3
  8
AM_0
 10
299.2445890230901
 20
217.3511125879281
 30
0.0
 40
4.000000049999997
 50
272.00000000000341
 51
315.00000000000921
  0
LINE
  5
86F4
  8
AM_0
 10
249.9726890230904
 20
231.29627258792809
 30
0.0
 11
318.21693902309198
 21
233.6794225879282
 31
0.0
  0
LINE
  5
86F5
  8
AM_0
 10
247.07733902309059
 20
228.29810258792909
 30
0.0
 11
247.07733902309059
 21
184.81693258792731
 31
0.0
  0
LINE
  5
86F6
  8
AM_0
 10
300.95888902309082
 20
213.40848758792819
 30
0.0
 11
300.95888902309082
 21
181.81693258792811
 31
0.0
  0
LINE
  5
86F7
  8
AM_0
 10
251.90283902309051
 20
211.6954425879282
 30
0.0
 11
299.38428902308982
 21
213.35355258792811
 31
0.0
  0
ARC
  5
86F8
  8
AM_0
 10
250.0772890230908
 20
228.29810258792909
 30
0.0
 40
3.0000000500000001
 50
91.999997999994264
 51
180.00001000000091
  0
LINE
  5
86F9
  8
AM_0
 10
322.07733902309047
 20
205.34702258792819
 30
0.0
 11
347.57728902309088
 21
205.34702258792819
 31
0.0
  0
ARC
  5
86FA
  8
AM_0
 10
311.81493902309012
 20
177.8169025879283
 30
0.0
 40
4.000000049999997
 50
315.00000000000921
 51
90.000002999984645
  0
LINE
  5
86FB
  8
AM_0
 10
325.82028902309042
 20
240.3084175879294
 30
0.0
 11
332.07738902309018
 21
240.5269275879281
 31
0.0
  0
LINE
  5
86FC
  8
AM_0
 10
322.07733902309047
 20
229.5269275879281
 30
0.0
 11
347.57728902309088
 21
229.5269275879281
 31
0.0
  0
LINE
  5
86FD
  8
AM_0
 10
302.07308902309069
 20
214.5226225879282
 30
0.0
 11
320.9057390230908
 21
233.3553225879281
 31
0.0
  0
ARC
  5
86FE
  8
AM_0
 10
318.077289023091
 20
237.67698258792819
 30
0.0
 40
4.000000049999997
 50
272.00000000000341
 51
350.16761000000002
  0
ARC
  5
86FF
  8
AM_0
 10
318.077289023091
 20
236.18375758792831
 30
0.0
 40
4.000000049999997
 50
315.00000000000921
 51
0.0
  0
ARC
  5
8700
  8
AM_0
 10
325.95978902308991
 20
236.31086258792811
 30
0.0
 40
4.000000049999997
 50
91.999997999994264
 51
170.1676200000106
  0
ARC
  5
8701
  8
AM_0
 10
342.577289023091
 20
245.3966475879283
 30
0.0
 40
5.0
 50
272.00000000000341
 51
0.0
  0
LINE
  5
8702
  8
AM_0
 10
332.07733902309047
 20
240.02692758792719
 30
0.0
 11
342.75183902308891
 21
240.3996975879281
 31
0.0
  0
LINE
  5
8703
  8
AM_0
 10
519.07728902309009
 20
119.25302758792731
 30
0.0
 11
519.07728902309009
 21
51.526922587928311
 31
0.0
  0
LINE
  5
8704
  8
AM_0
 10
441.07728902308997
 20
67.127967587928197
 30
0.0
 11
519.07728902309009
 21
67.127967587928197
 31
0.0
  0
LINE
  5
8705
  8
AM_0
 10
441.07728902308997
 20
91.772832587928164
 30
0.0
 11
519.07728902309009
 21
91.772832587928164
 31
0.0
  0
LINE
  5
8706
  8
AM_0
 10
396.077289023091
 20
18.526937587928149
 30
0.0
 11
477.92068902308893
 21
16.383792587928149
 31
0.0
  0
LINE
  5
8707
  8
AM_0
 10
370.00738902309058
 20
19.437277587928289
 30
0.0
 11
396.07723902309039
 21
18.52689258792725
 31
0.0
  0
ARC
  5
8708
  8
AM_0
 10
370.077289023091
 20
21.43608758792811
 30
0.0
 40
2.0000000500000001
 50
179.99998999999889
 51
268.0000099999923
  0
ARC
  5
8709
  8
AM_0
 10
363.077289023091
 20
31.050252587928298
 30
0.0
 40
5.0
 50
0.0
 51
37.777244000007919
  0
ARC
  5
870A
  8
AM_0
 10
441.07728902308997
 20
86.772832587928164
 30
0.0
 40
5.0
 50
90.000002999984645
 51
180.00001000000091
  0
ARC
  5
870B
  8
AM_0
 10
441.07728902308997
 20
72.127967587927287
 30
0.0
 40
5.0
 50
179.99998999999889
 51
270.0
  0
LINE
  5
870C
  8
AM_0
 10
436.077289023091
 20
86.772832587928164
 30
0.0
 11
436.077289023091
 21
72.127967587927287
 31
0.0
  0
LINE
  5
870D
  8
AM_0
 10
483.18238902309071
 20
17.720142587928191
 30
0.0
 11
533.07728902309088
 21
46.526967587927402
 31
0.0
  0
ARC
  5
870E
  8
AM_0
 10
478.18243902309018
 20
26.380362587928168
 30
0.0
 40
10.0
 50
268.49999999995799
 51
299.9999999999971
  0
ARC
  5
870F
  8
AM_0
 10
520.077289023091
 20
87.177802587928213
 30
0.0
 40
8.0
 50
270.0
 51
0.0
  0
LINE
  5
8710
  8
AM_0
 10
524.077289023091
 20
46.526922587928311
 30
0.0
 11
541.077289023091
 21
46.526922587928311
 31
0.0
  0
ARC
  5
8711
  8
AM_0
 10
524.077289023091
 20
51.526922587928311
 30
0.0
 40
5.0
 50
179.99998999999889
 51
270.0
  0
LINE
  5
8712
  8
AM_0
 10
541.077289023091
 20
71.526922587929221
 30
0.0
 11
546.07728902309077
 21
71.526922587929221
 31
0.0
  0
LINE
  5
8713
  8
AM_0
 10
368.077289023091
 20
118.1977325879281
 30
0.0
 11
519.07728902309009
 21
118.1977325879281
 31
0.0
  0
LINE
  5
8714
  8
AM_0
 10
368.077289023091
 20
219.9933275879292
 30
0.0
 11
513.67858902309194
 21
219.9933275879292
 31
0.0
  0
ARC
  5
8715
  8
AM_0
 10
526.36968902309115
 20
169.7775675879281
 30
0.0
 40
8.0
 50
185.29824000000261
 51
270.0
  0
ARC
  5
8716
  8
AM_0
 10
520.077289023091
 20
127.19028258792829
 30
0.0
 40
8.0
 50
270.0
 51
0.0
  0
LINE
  5
8717
  8
AM_0
 10
549.077289023091
 20
241.52692758792719
 30
0.0
 11
549.077289023091
 21
181.52692258792831
 31
0.0
  0
LINE
  5
8718
  8
AM_0
 10
546.07728902309077
 20
181.52692258792831
 30
0.0
 11
549.077289023091
 21
181.52692258792831
 31
0.0
  0
LINE
  5
8719
  8
AM_0
 10
546.07728902309077
 20
241.52692758792719
 30
0.0
 11
549.077289023091
 21
241.52692758792719
 31
0.0
  0
LINE
  5
871A
  8
AM_0
 10
569.077289023091
 20
243.02692758792821
 30
0.0
 11
569.077289023091
 21
239.02692758792821
 31
0.0
  0
ARC
  5
871B
  8
AM_0
 10
378.077289023091
 20
359.52691258792771
 30
0.0
 40
25.000000499999999
 50
306.4667200000211
 51
233.53328999996421
  0
LINE
  5
871C
  8
AM_0
 10
348.97438902309102
 20
276.29075258792813
 30
0.0
 11
362.37878902309052
 21
298.91062258792812
 31
0.0
  0
ARC
  5
871D
  8
AM_0
 10
357.577289023091
 20
271.192727587928
 30
0.0
 40
10.0
 50
149.34933000000879
 51
180.00001000000091
  0
LINE
  5
871F
  8
AM_0
 10
396.077289023091
 20
333.52691258792822
 30
0.0
 11
497.85873902309049
 21
336.19216258792778
 31
0.0
  0
LINE
  5
8720
  8
AM_0
 10
363.077289023091
 20
331.5269625879281
 30
0.0
 11
363.077289023091
 21
301.45963258792813
 31
0.0
  0
ARC
  5
8721
  8
AM_0
 10
358.07728902309088
 20
301.45963258792813
 30
0.0
 40
5.0
 50
329.34933000000882
 51
0.0
  0
LINE
  5
8722
  8
AM_0
 10
362.37878902309052
 20
298.91062258792812
 30
0.0
 11
367.37878902309052
 21
307.3481125879282
 31
0.0
  0
ARC
  5
8723
  8
AM_0
 10
363.077289023091
 20
309.89711258792812
 30
0.0
 40
5.0
 50
329.34933000000882
 51
0.0
  0
CIRCLE
  5
8724
  8
AM_0
 10
378.077289023091
 20
359.52691258792771
 30
0.0
 40
15.0
  0
LINE
  5
8725
  8
AM_0
 10
378.07733902309059
 20
344.52691258792748
 30
0.0
 11
387.55533902309082
 21
342.64791258792781
 31
0.0
  0
LINE
  5
8726
  8
AM_0
 10
368.28323902309052
 20
342.5269125879276
 30
0.0
 11
387.87128902309081
 21
342.5269125879276
 31
0.0
  0
LINE
  5
8727
  8
AM_0
 10
370.00753902309037
 20
332.62701258792822
 30
0.0
 11
395.77733902309041
 21
333.52691258792822
 31
0.0
  0
LINE
  5
8728
  8
AM_0
 10
365.07728902308997
 20
333.52691258792822
 30
0.0
 11
396.077289023091
 21
333.52691258792822
 31
0.0
  0
ARC
  5
8729
  8
AM_0
 10
359.65223902309111
 20
334.59666258792822
 30
0.0
 40
6.0
 50
349.72994999998832
 51
53.533291000025812
  0
LINE
  5
872A
  8
AM_0
 10
365.577289023091
 20
333.5269625879273
 30
0.0
 11
367.8277890230911
 21
341.92586258792778
 31
0.0
  0
ARC
  5
872B
  8
AM_0
 10
370.077289023091
 20
330.6282125879282
 30
0.0
 40
2.0000000500000001
 50
91.999997999994264
 51
180.00001000000091
  0
ARC
  5
872C
  8
AM_0
 10
365.07728902308997
 20
331.5269625879281
 30
0.0
 40
2.0000000500000001
 50
90.000002999984645
 51
180.00001000000091
  0
LINE
  5
872D
  8
AM_0
 10
368.59913902309199
 20
342.64791258792781
 30
0.0
 11
378.07723902309039
 21
344.52691258792748
 31
0.0
  0
ARC
  5
872E
  8
AM_0
 10
368.79373902309089
 20
341.66701258792779
 30
0.0
 40
1.0
 50
101.2132899999923
 51
164.99999000000619
  0
ARC
  5
872F
  8
AM_0
 10
396.50228902309033
 20
334.59666258792822
 30
0.0
 40
6.0
 50
126.4667000000006
 51
190.2700599999938
  0
LINE
  5
8730
  8
AM_0
 10
390.577289023091
 20
333.52691258792822
 30
0.0
 11
388.3267890230909
 21
341.92581258792791
 31
0.0
  0
ARC
  5
8731
  8
AM_0
 10
387.3609390230904
 20
341.66701258792779
 30
0.0
 40
1.0
 50
14.999999999994451
 51
78.786710000007588
  0
LINE
  5
8732
  8
AM_0
 10
478.42678902309109
 20
308.89096258792819
 30
0.0
 11
516.66608902309054
 21
332.03341258792818
 31
0.0
  0
LINE
  5
8733
  8
AM_0
 10
481.00638902309021
 20
299.17737758792907
 30
0.0
 11
516.57543902309033
 21
320.70381258792929
 31
0.0
  0
ARC
  5
8734
  8
AM_0
 10
520.077289023091
 20
277.86356758792721
 30
0.0
 40
8.0
 50
0.0
 51
90.000002999984645
  0
LINE
  5
8735
  8
AM_0
 10
481.015689023091
 20
297.40046258792808
 30
0.0
 11
504.77053902309132
 21
297.40046258792808
 31
0.0
  0
ARC
  5
8736
  8
AM_0
 10
481.015689023091
 20
302.40046258792808
 30
0.0
 40
5.0
 50
179.99998999999889
 51
270.0
  0
ARC
  5
8737
  8
AM_0
 10
481.015689023091
 20
304.61331258792819
 30
0.0
 40
5.0
 50
121.1823600000052
 51
180.00001000000091
  0
LINE
  5
8738
  8
AM_0
 10
476.01568902309077
 20
304.61331258792819
 30
0.0
 11
476.01568902309077
 21
302.40046258792808
 31
0.0
  0
LINE
  5
8739
  8
AM_0
 10
507.72743902309031
 20
298.36853758792807
 30
0.0
 11
519.07728902309009
 21
306.6923125879282
 31
0.0
  0
ARC
  5
873A
  8
AM_0
 10
504.77053902309132
 20
302.40046258792808
 30
0.0
 40
5.0
 50
270.0
 51
306.25555000000412
  0
ARC
  5
873B
  8
AM_0
 10
520.077289023091
 20
335.87606258792738
 30
0.0
 40
8.0
 50
0.0
 51
90.000002999984645
  0
LINE
  5
873C
  8
AM_0
 10
523.90283902309045
 20
375.92721258792778
 30
0.0
 11
541.07733902309064
 21
376.52696258792781
 31
0.0
  0
ARC
  5
873D
  8
AM_0
 10
497.59693902309112
 20
346.18871258792802
 30
0.0
 40
10.0
 50
271.50000000004189
 51
315.00000000000921
  0
LINE
  5
873E
  8
AM_0
 10
503.87518902309051
 20
325.7063625879282
 30
0.0
 11
502.80433902309028
 21
337.25386258792781
 31
0.0
  0
ARC
  5
873F
  8
AM_0
 10
514.077289023091
 20
336.31101258792802
 30
0.0
 40
5.0
 50
301.18236000000519
 51
0.0
  0
LINE
  5
8740
  8
AM_0
 10
504.66803902309022
 20
339.11766258792778
 30
0.0
 11
519.07733902309064
 21
353.52691258792782
 31
0.0
  0
ARC
  5
8741
  8
AM_0
 10
524.077289023091
 20
370.930212587928
 30
0.0
 40
5.0
 50
91.999997999994264
 51
180.00001000000091
  0
LINE
  5
8742
  8
AM_0
 10
541.077289023091
 20
351.52696258792781
 30
0.0
 11
546.07728902309077
 21
351.52696258792781
 31
0.0
  0
LINE
  5
8743
  8
AM_0
 10
631.077289023091
 20
243.02692758792821
 30
0.0
 11
631.077289023091
 21
184.02692258792919
 31
0.0
  0
ARC
  5
8744
  8
AM_0
 10
907.5677759112441
 20
211.52692258792831
 30
0.0
 40
75.0
 50
0.0
 51
37.096792999990292
  0
CIRCLE
  5
8745
  8
AM_0
 10
907.5677759112441
 20
211.52692258792831
 30
0.0
 40
140.0
  0
ARC
  5
8746
  8
AM_0
 10
907.5677759112441
 20
211.52692258792831
 30
0.0
 40
60.0
 50
270.0
 51
90.000002999984645
  0
ARC
  5
8747
  8
AM_0
 10
907.5677759112441
 20
211.52692258792831
 30
0.0
 40
60.0
 50
90.000002999984645
 51
270.0
  0
CIRCLE
  5
8748
  8
AM_0
 10
907.5677759112441
 20
211.52692258792831
 30
0.0
 40
132.0
  0
ARC
  5
8749
  8
AM_0
 10
907.5677759112441
 20
211.52692258792831
 30
0.0
 40
75.0
 50
142.90321000000739
 51
180.00001000000091
  0
LINE
  5
874A
  8
AM_0
 10
1072.5677509112429
 20
156.52692258792919
 30
0.0
 11
1072.5677509112429
 21
266.52692758792722
 31
0.0
  0
LINE
  5
874B
  8
AM_0
 10
742.56775591124335
 20
156.52692258792919
 30
0.0
 11
742.56775591124335
 21
266.52692758792722
 31
0.0
  0
LINE
  5
874C
  8
ﾁｭｳｼﾝｾﾝ
 10
907.5677759112441
 20
4.5017425879282191
 30
0.0
 11
907.5677759112441
 21
390.97961258792708
 31
0.0
  0
ARC
  5
874D
  8
AM_0
 10
987.56774591124395
 20
201.52692258792919
 30
0.0
 40
5.0
 50
179.99998999999889
 51
270.0
  0
LINE
  5
874E
  8
AM_0
 10
962.56777591124182
 20
46.526937587928153
 30
0.0
 11
1049.1065959112429
 21
51.062247587927217
 31
0.0
  0
LINE
  5
874F
  8
ﾁｭｳｼﾝｾﾝ
 10
730.86363341124354
 20
211.52692258792831
 30
0.0
 11
1084.2719184112441
 21
211.52692258792831
 31
0.0
  0
LINE
  5
8750
  8
AM_0
 10
976.76803591124337
 20
18.025397587927259
 30
0.0
 11
999.5428759112433
 21
33.972522587928317
 31
0.0
  0
ARC
  5
8751
  8
AM_0
 10
767.0756809112446
 20
71.03479758792831
 30
0.0
 40
20.000000499999999
 50
183.0000100000058
 51
266.9999999999946
  0
CIRCLE
  5
8753
  8
AM_0
 10
769.68194091124406
 20
73.641117587928193
 30
0.0
 40
9.5
  0
LINE
  5
8755
  8
AM_0
 10
742.56775591124335
 20
156.52689258792719
 30
0.0
 11
747.10305591124211
 21
69.988132587928249
 31
0.0
  0
LINE
  5
8756
  8
AM_0
 10
852.56777591124376
 20
46.526922587928311
 30
0.0
 11
962.56774591124395
 21
46.526922587928311
 31
0.0
  0
LINE
  5
8757
  8
AM_0
 10
845.72073091124435
 20
15.70692758792825
 30
0.0
 11
969.41476091124434
 21
15.70692758792825
 31
0.0
  0
LINE
  5
8758
  8
AM_0
 10
838.36752091124436
 20
18.0253825879281
 30
0.0
 11
815.59261591124391
 21
33.972522587928317
 31
0.0
  0
ARC
  5
8759
  8
AM_0
 10
845.72073091124435
 20
28.526922587928311
 30
0.0
 40
12.82
 50
235.0000000000133
 51
270.0
  0
LINE
  5
875A
  8
AM_0
 10
852.56777591124376
 20
46.526937587928153
 30
0.0
 11
766.02895591124343
 21
51.062247587927217
 31
0.0
  0
ARC
  5
875B
  8
AM_0
 10
874.56774591124395
 20
118.1977325879281
 30
0.0
 40
102.81999499999959
 50
222.01517999999021
 51
235.0000000000133
  0
ARC
  5
875C
  8
AM_0
 10
969.41476091124434
 20
28.526922587928311
 30
0.0
 40
12.82
 50
270.0
 51
304.9999999999867
  0
LINE
  5
875D
  8
AM_0
 10
780.96209091124445
 20
196.52692258792919
 30
0.0
 11
827.56777591124376
 21
196.52692258792919
 31
0.0
  0
ARC
  5
875E
  8
AM_0
 10
780.96209091124445
 20
201.52692258792919
 30
0.0
 40
5.0
 50
184.5161599999885
 51
270.0
  0
LINE
  5
875F
  8
AM_0
 10
832.56777591124342
 20
211.52692258792831
 30
0.0
 11
832.56777591124342
 21
201.52692258792919
 31
0.0
  0
ARC
  5
8760
  8
AM_0
 10
827.56777591124376
 20
201.52692258792919
 30
0.0
 40
5.0
 50
270.0
 51
0.0
  0
ARC
  5
8761
  8
AM_0
 10
907.5677759112441
 20
211.52692258792831
 30
0.0
 40
27.500000499999999
 50
106.9123900000297
 51
73.087597000010405
  0
CIRCLE
  5
8762
  8
AM_0
 10
907.5677759112441
 20
211.52692258792831
 30
0.0
 40
4.500000049999997
  0
CIRCLE
  5
8763
  8
AM_5
 10
907.5677759112441
 20
211.52692258792831
 30
0.0
 40
6.0
  0
LINE
  5
8764
  8
AM_0
 10
899.56774591124395
 20
243.02692758792821
 30
0.0
 11
915.56774591124406
 21
243.02692758792821
 31
0.0
  0
LINE
  5
8765
  8
AM_0
 10
899.56774591124395
 20
233.02692758792821
 30
0.0
 11
915.56774591124406
 21
233.02692758792821
 31
0.0
  0
LINE
  5
8766
  8
AM_0
 10
899.56774591124395
 20
233.02692758792821
 30
0.0
 11
899.56774591124395
 21
243.02692758792821
 31
0.0
  0
LINE
  5
8767
  8
AM_0
 10
915.56774591124406
 20
233.02692758792821
 30
0.0
 11
915.56774591124406
 21
243.02692758792821
 31
0.0
  0
LINE
  5
8768
  8
AM_0
 10
982.56774591124406
 20
211.52692258792831
 30
0.0
 11
982.56774591124406
 21
201.52692258792919
 31
0.0
  0
LINE
  5
8769
  8
AM_0
 10
1072.5677509112429
 20
156.52692258792919
 30
0.0
 11
1068.032455911243
 21
69.988102587928324
 31
0.0
  0
CIRCLE
  5
876A
  8
AM_0
 10
1045.4535809112431
 20
73.641117587928193
 30
0.0
 40
9.5
  0
ARC
  5
876D
  8
AM_0
 10
940.56774591124406
 20
118.1977325879281
 30
0.0
 40
102.81999499999959
 50
304.9999999999867
 51
317.98482000000979
  0
ARC
  5
876E
  8
AM_0
 10
1048.059860911243
 20
71.03479758792831
 30
0.0
 40
20.000000499999999
 50
273.0000000000054
 51
356.9999999999938
  0
LINE
  5
876F
  8
AM_0
 10
1034.173445911244
 20
196.52692258792919
 30
0.0
 11
987.56774591124395
 21
196.52692258792919
 31
0.0
  0
ARC
  5
8770
  8
AM_0
 10
1034.173445911244
 20
201.52692258792919
 30
0.0
 40
5.0
 50
270.0
 51
355.48385000000582
  0
LINE
  5
8771
  8
AM_0
 10
962.56774591124395
 20
376.52691258792743
 30
0.0
 11
1049.106565911243
 21
371.99161258792691
 31
0.0
  0
LINE
  5
8772
  8
AM_0
 10
967.84164091124421
 20
263.31553258792809
 30
0.0
 11
1001.2754659112441
 21
296.74933758792912
 31
0.0
  0
LINE
  5
8773
  8
AM_0
 10
959.35638091124542
 20
271.8007925879291
 30
0.0
 11
992.79019091124405
 21
305.23461258792821
 31
0.0
  0
ARC
  5
8774
  8
AM_0
 10
767.0756809112446
 20
352.01901258792799
 30
0.0
 40
20.000000499999999
 50
92.999998999995157
 51
176.999989999994
  0
CIRCLE
  5
8776
  8
AM_0
 10
769.68194091124406
 20
349.41276258792777
 30
0.0
 40
9.5
  0
LINE
  5
8778
  8
AM_0
 10
742.56775591124335
 20
266.52692758792722
 30
0.0
 11
747.10305591124211
 21
353.06571258792792
 31
0.0
  0
ARC
  5
8779
  8
AM_0
 10
907.5677759112441
 20
211.52692258792831
 30
0.0
 40
75.0
 50
52.903206000027701
 51
127.0967899999925
  0
LINE
  5
877A
  8
AM_0
 10
852.56777591124376
 20
376.52696258792781
 30
0.0
 11
962.56774591124395
 21
376.52696258792781
 31
0.0
  0
LINE
  5
877B
  8
AM_0
 10
847.29391091124376
 20
263.31549758792812
 30
0.0
 11
813.86004091124403
 21
296.74933758792912
 31
0.0
  0
ARC
  5
877C
  8
AM_0
 10
810.32449091124454
 20
293.21384758792919
 30
0.0
 40
5.0
 50
45.000001000013029
 51
139.96885000000219
  0
LINE
  5
877D
  8
AM_0
 10
855.77917091124345
 20
271.80076258792809
 30
0.0
 11
822.34533091124342
 21
305.23461258792821
 31
0.0
  0
ARC
  5
877E
  8
AM_0
 10
843.75832591124515
 20
259.78000758792808
 30
0.0
 40
5.0
 50
322.90321000000728
 51
45.000001000013029
  0
ARC
  5
877F
  8
AM_0
 10
859.31466591124445
 20
275.33634258792807
 30
0.0
 40
5.0
 50
224.99999999999079
 51
307.09678999999272
  0
ARC
  5
8780
  8
AM_0
 10
825.880855911244
 20
308.77016258792708
 30
0.0
 40
5.0
 50
130.03114999999769
 51
224.99999999999079
  0
LINE
  5
8781
  8
AM_0
 10
852.56774591124395
 20
376.52691258792743
 30
0.0
 11
766.02895591124343
 21
371.99156258792817
 31
0.0
  0
ARC
  5
8782
  8
AM_0
 10
955.82083091124412
 20
275.33634258792807
 30
0.0
 40
5.0
 50
232.90321000000739
 51
315.00000000000921
  0
ARC
  5
8783
  8
AM_0
 10
971.37716591124354
 20
259.78000758792808
 30
0.0
 40
5.0
 50
135.00000000000921
 51
217.09680000000949
  0
ARC
  5
8784
  8
AM_0
 10
907.5677759112441
 20
379.52691258792782
 30
0.0
 40
5.0
 50
359.999989999999
 51
179.99998999999889
  0
LINE
  5
8785
  8
AM_0
 10
902.56777591124398
 20
379.52691258792782
 30
0.0
 11
902.56777591124398
 21
376.52696258792781
 31
0.0
  0
LINE
  5
8786
  8
AM_0
 10
912.5677759112441
 20
379.52691258792782
 30
0.0
 11
912.5677759112441
 21
376.52696258792781
 31
0.0
  0
LINE
  5
8788
  8
AM_0
 10
1072.567765911243
 20
266.5268975879294
 30
0.0
 11
1068.032455911243
 21
353.06571258792792
 31
0.0
  0
ARC
  5
8789
  8
AM_0
 10
1004.811005911244
 20
293.21384758792919
 30
0.0
 40
5.0
 50
40.031148000008457
 51
135.00000000000921
  0
ARC
  5
878A
  8
AM_0
 10
989.25466591124405
 20
308.77016258792708
 30
0.0
 40
5.0
 50
315.00000000000921
 51
49.96885100000685
  0
ARC
  5
878B
  8
ﾁｭｳｼﾝｾﾝ
 10
907.5677759112441
 20
211.52692258792831
 30
0.0
 40
195.0000049999999
 50
39.120925559129191
 51
50.879063203111052
  0
CIRCLE
  5
878C
  8
AM_0
 10
1045.4535809112431
 20
349.41276258792777
 30
0.0
 40
9.5
  0
LINE
  5
878D
  8
ﾁｭｳｼﾝｾﾝ
 10
1031.3114856613181
 20
335.27059332421402
 30
0.0
 11
1059.59574493935
 21
363.55487654110061
 31
0.0
  0
ARC
  5
878E
  8
AM_0
 10
1048.059860911243
 20
352.01901258792799
 30
0.0
 40
20.000000499999999
 50
3.000000100011174
 51
86.999999000035686
  0
LINE
  5
8790
  8
AM_0
 10
224.07732902309081
 20
192.81691658792829
 30
0.0
 11
224.07732902309081
 21
67.81690058792924
 31
0.0
  0
LINE
  5
8791
  8
AM_0
 10
27.07737902309054
 20
98.636926587928215
 30
0.0
 11
27.07737902309054
 21
164.84690258792921
 31
0.0
  0
LINE
  5
8792
  8
AM_0
 10
29.577339023090641
 20
73.316917587928174
 30
0.0
 11
29.577339023090641
 21
90.148571770499316
 31
0.0
  0
LINE
  5
8793
  8
AM_0
 10
77.077329023090911
 20
187.74688658792809
 30
0.0
 11
77.077329023090911
 21
130.31690258792921
 31
0.0
  0
LINE
  5
8794
  8
AM_0
 10
213.84735902309049
 20
160.31690558792809
 30
0.0
 11
213.84735902309049
 21
100.3169175879281
 31
0.0
  0
LINE
  5
8795
  8
ﾁｭｳｼﾝｾﾝ
 10
173.07732902309081
 20
170.94190208792739
 30
0.0
 11
173.07732902309081
 21
89.691903087927358
 31
0.0
  0
ARC
  5
8796
  8
AM_0
 10
60.078069023090393
 20
130.3150125879292
 30
0.0
 40
8.0019083999999978
 50
90.005172999990876
 51
161.7801600000048
  0
ARC
  5
8797
  8
AM_0
 10
60.072309023090376
 20
130.3109235879283
 30
0.0
 40
7.9940046000000002
 50
198.17884000000481
 51
270.03581999999773
  0
LINE
  5
8798
  8
AM_0
 10
29.577339023090641
 20
86.426917587928301
 30
0.0
 11
77.077329023090911
 21
86.426917587928301
 31
0.0
  0
LINE
  5
8799
  8
AM_0
 10
44.717349023089803
 20
132.81690458792821
 30
0.0
 11
54.57732902309089
 21
132.81690458792821
 31
0.0
  0
LINE
  5
879A
  8
AM_0
 10
44.717349023089803
 20
127.81690358792819
 30
0.0
 11
54.57732902309089
 21
127.81690358792819
 31
0.0
  0
LINE
  5
879B
  8
AM_0
 10
29.07732902309089
 20
73.316917587928174
 30
0.0
 11
77.077329023090911
 21
73.316917587928174
 31
0.0
  0
LINE
  5
879C
  8
AM_0
 10
36.157329023088998
 20
126.5969025879283
 30
0.0
 11
21.697329023089871
 21
82.086907587928152
 31
0.0
  0
LINE
  5
879D
  8
AM_0
 10
40.91733902309079
 20
125.0469135879282
 30
0.0
 11
26.45733902308984
 21
80.546911587928179
 31
0.0
  0
ARC
  5
879E
  8
AM_0
 10
24.07737902309054
 20
81.316903587928195
 30
0.0
 40
2.5014680099999991
 50
162.07207999999719
 51
342.07206999999181
  0
ARC
  5
879F
  8
AM_0
 10
24.07647902309327
 20
81.311485587928232
 30
0.0
 40
3.0008441999999982
 50
185.05818999999181
 51
0.1035440000078684
  0
LINE
  5
87A0
  8
AM_0
 10
27.07737902309054
 20
82.456915587928265
 30
0.0
 11
27.07737902309054
 21
75.31690058792833
 31
0.0
  0
ARC
  5
87A1
  8
AM_0
 10
29.07207902308982
 20
75.311623587927215
 30
0.0
 40
1.994720039999998
 50
179.84812999999991
 51
270.15187999998409
  0
LINE
  5
87A2
  8
AM_0
 10
29.577339023090641
 20
90.156913587929253
 30
0.0
 11
29.577339023090641
 21
86.426917587928301
 31
0.0
  0
ARC
  5
87A3
  8
AM_0
 10
20.784969023090522
 20
81.012580587928127
 30
0.0
 40
0.304344
 50
6.4777591000072281
 51
89.547817000015456
  0
ARC
  5
87A4
  8
AM_0
 10
20.785749023089011
 20
81.011833587928294
 30
0.0
 40
0.8050760400000001
 50
5.3506318999939149
 51
89.888466000011476
  0
LINE
  5
87A5
  8
AM_0
 10
20.577339023090641
 20
81.81691658792829
 30
0.0
 11
20.577339023090641
 21
81.316903587928195
 31
0.0
  0
LINE
  5
87A6
  8
AM_0
 10
20.577339023090641
 20
81.81691658792829
 30
0.0
 11
20.787339023088862
 21
81.81691658792829
 31
0.0
  0
ARC
  5
87A7
  8
AM_0
 10
27.125409023090469
 20
92.817025587928129
 30
0.0
 40
4.0504481999999991
 50
99.063519999974844
 51
224.92060000001061
  0
ARC
  5
87A8
  8
AM_0
 10
44.719779023091171
 20
123.8133945879283
 30
0.0
 40
9.0035201999999952
 50
90.015527999991548
 51
161.99145000000701
  0
ARC
  5
87A9
  8
AM_0
 10
44.723919023090261
 20
123.8163855879281
 30
0.0
 40
4.0005161999999981
 50
90.094088000021216
 51
162.08606999999409
  0
LINE
  5
87AA
  8
AM_0
 10
122.0773290230908
 20
83.966926587928128
 30
0.0
 11
224.07732902309081
 21
83.966926587928128
 31
0.0
  0
LINE
  5
87AB
  8
AM_0
 10
217.42737902309091
 20
94.316917587928145
 30
0.0
 11
82.627389023090444
 21
94.316917587928145
 31
0.0
  0
LINE
  5
87AC
  8
AM_0
 10
100.0773390230906
 20
68.456902587928198
 30
0.0
 11
216.88731902309061
 21
68.456902587928198
 31
0.0
  0
LINE
  5
87AD
  8
AM_0
 10
173.07732902309081
 20
93.596917587928147
 30
0.0
 11
220.89732902309061
 21
93.596917587928147
 31
0.0
  0
LINE
  5
87AE
  8
AM_0
 10
122.0773290230908
 20
83.96691158792828
 30
0.0
 11
87.077319023090226
 21
85.996909587928243
 31
0.0
  0
LINE
  5
87AF
  8
AM_0
 10
81.347349023090814
 20
124.0468845879281
 30
0.0
 11
122.0773290230908
 21
124.0468845879281
 31
0.0
  0
LINE
  5
87B0
  8
AM_0
 10
121.5773290230909
 20
104.3169165879282
 30
0.0
 11
82.627389023090444
 21
104.3169165879282
 31
0.0
  0
LINE
  5
87B1
  8
AM_0
 10
81.537339023090695
 20
106.7569215879282
 30
0.0
 11
121.5773290230909
 21
106.7569215879282
 31
0.0
  0
LINE
  5
87B2
  8
AM_0
 10
121.5773290230909
 20
106.3169175879281
 30
0.0
 11
82.627389023090444
 21
106.3169175879281
 31
0.0
  0
LINE
  5
87B3
  8
AM_0
 10
81.407349023091228
 20
113.97690758792911
 30
0.0
 11
122.0773290230908
 21
113.97690758792911
 31
0.0
  0
LINE
  5
87B4
  8
AM_0
 10
122.0773290230908
 20
114.31690358792819
 30
0.0
 11
82.63731902309064
 21
114.31690358792819
 31
0.0
  0
LINE
  5
87B5
  8
AM_0
 10
81.407349023091228
 20
116.6369265879282
 30
0.0
 11
122.0773290230908
 21
116.6369265879282
 31
0.0
  0
LINE
  5
87B6
  8
AM_0
 10
122.0773290230908
 20
126.31690358792819
 30
0.0
 11
82.63731902309064
 21
126.31690358792819
 31
0.0
  0
LINE
  5
87B7
  8
AM_0
 10
122.0773290230908
 20
124.31690258792921
 30
0.0
 11
82.63731902309064
 21
124.31690258792921
 31
0.0
  0
LINE
  5
87B8
  8
AM_0
 10
81.347349023090814
 20
126.5869215879281
 30
0.0
 11
122.0773290230908
 21
126.5869215879281
 31
0.0
  0
LINE
  5
87B9
  8
AM_0
 10
81.347349023090814
 20
134.0568945879281
 30
0.0
 11
122.0773290230908
 21
134.0568945879281
 31
0.0
  0
LINE
  5
87BA
  8
AM_0
 10
81.347349023090814
 20
136.58689358792819
 30
0.0
 11
122.0773290230908
 21
136.58689358792819
 31
0.0
  0
LINE
  5
87BB
  8
AM_0
 10
122.0773290230908
 20
96.316903587928195
 30
0.0
 11
83.067369023090606
 21
96.316903587928195
 31
0.0
  0
LINE
  5
87BC
  8
AM_0
 10
81.537339023090695
 20
103.836907587928
 30
0.0
 11
121.5773290230909
 21
103.836907587928
 31
0.0
  0
LINE
  5
87BD
  8
AM_0
 10
100.0773390230906
 20
66.426901587928114
 30
0.0
 11
153.07737902308779
 21
66.426901587928114
 31
0.0
  0
LINE
  5
87BE
  8
AM_0
 10
100.0773390230906
 20
65.076910587928296
 30
0.0
 11
153.07737902308779
 21
65.076910587928296
 31
0.0
  0
LINE
  5
87BF
  8
AM_0
 10
100.0773390230906
 20
64.406914587928213
 30
0.0
 11
153.07737902308779
 21
64.406914587928213
 31
0.0
  0
LINE
  5
87C0
  8
AM_0
 10
122.0773290230908
 20
134.3169045879292
 30
0.0
 11
82.63731902309064
 21
134.3169045879292
 31
0.0
  0
LINE
  5
87C1
  8
AM_0
 10
122.0773290230908
 20
136.3169025879283
 30
0.0
 11
82.63731902309064
 21
136.3169025879283
 31
0.0
  0
LINE
  5
87C2
  8
AM_0
 10
122.0773290230908
 20
116.3169195879281
 30
0.0
 11
82.63731902309064
 21
116.3169195879281
 31
0.0
  0
LINE
  5
87C3
  8
AM_0
 10
81.757329023090264
 20
93.596917587928147
 30
0.0
 11
173.07732902309081
 21
93.596917587928147
 31
0.0
  0
LINE
  5
87C4
  8
AM_0
 10
81.757329023090264
 20
96.946906587928197
 30
0.0
 11
122.0773290230908
 21
96.946906587928197
 31
0.0
  0
LINE
  5
87C5
  8
AM_0
 10
77.077329023090911
 20
72.88690958792813
 30
0.0
 11
77.077329023090911
 21
130.31690258792921
 31
0.0
  0
LINE
  5
87C6
  8
AM_0
 10
77.077329023090911
 20
87.626899587928165
 30
0.0
 11
87.077379023090543
 21
87.626899587928165
 31
0.0
  0
LINE
  5
87C7
  8
AM_0
 10
83.217339023087334
 20
68.646904587928248
 30
0.0
 11
96.577329023090883
 21
68.646904587928248
 31
0.0
  0
LINE
  5
87C8
  8
AM_0
 10
77.077329023090911
 20
81.966910587928197
 30
0.0
 11
87.077379023090543
 21
81.966910587928197
 31
0.0
  0
LINE
  5
87C9
  8
AM_0
 10
83.307369023090374
 20
77.336905587927262
 30
0.0
 11
96.577329023090883
 21
77.336905587927262
 31
0.0
  0
LINE
  5
87CA
  8
AM_0
 10
83.187309023091061
 20
67.016914587928113
 30
0.0
 11
96.687309023091089
 21
67.016914587928113
 31
0.0
  0
LINE
  5
87CB
  8
AM_0
 10
83.247369023090883
 20
72.056923587928154
 30
0.0
 11
96.577329023090883
 21
72.056923587928154
 31
0.0
  0
ARC
  5
87CC
  8
AM_0
 10
78.867489023090442
 20
77.784109587928242
 30
0.0
 40
1.50278811
 50
12.013342000000099
 51
90.004668000016366
  0
ARC
  5
87CD
  8
AM_0
 10
83.304369023090644
 20
79.336525587928222
 30
0.0
 40
1.9996281299999981
 50
190.36075999999281
 51
270.08533000000642
  0
ARC
  5
87CE
  8
AM_0
 10
83.189739023090624
 20
69.021232587928139
 30
0.0
 40
2.004324029999998
 50
194.27805000001021
 51
269.93109000000538
  0
LINE
  5
87CF
  8
AM_0
 10
77.0773890230912
 20
72.88690958792813
 30
0.0
 11
79.897329023090592
 21
72.8169015879282
 31
0.0
  0
ARC
  5
87D0
  8
AM_0
 10
78.912339023090681
 20
71.69515058792831
 30
0.0
 40
1.5017800800000001
 50
14.332835999994289
 51
90.189383000005648
  0
ARC
  5
87D1
  8
AM_0
 10
78.891669023090799
 20
73.720588587928191
 30
0.0
 40
1.4963320799999991
 50
13.382437999991661
 51
90.164589999994277
  0
ARC
  5
87D2
  8
AM_0
 10
83.215269023090514
 20
70.648855587928196
 30
0.0
 40
2.0019479399999991
 50
193.34113999999539
 51
270.05947999999449
  0
ARC
  5
87D3
  8
AM_0
 10
83.249259023090417
 20
74.052604587928272
 30
0.0
 40
1.995695999999995
 50
192.0225299999999
 51
269.94478000001573
  0
LINE
  5
87D4
  8
AM_0
 10
81.297369023090141
 20
73.636894587928296
 30
0.0
 11
80.337339023090834
 21
78.096901587928187
 31
0.0
  0
LINE
  5
87D5
  8
AM_0
 10
78.88731902309064
 20
75.216910587928197
 30
0.0
 11
80.947389023091063
 21
75.216910587928197
 31
0.0
  0
LINE
  5
87D6
  8
AM_0
 10
78.907359023090976
 20
73.196905587929223
 30
0.0
 11
80.557359023090612
 21
73.196905587929223
 31
0.0
  0
LINE
  5
87D7
  8
AM_0
 10
81.267339023090244
 20
70.186897587927206
 30
0.0
 11
80.347359023090576
 21
74.066902587928311
 31
0.0
  0
LINE
  5
87D8
  8
AM_0
 10
81.247299023089894
 20
68.526907587928235
 30
0.0
 11
80.367309023090428
 21
72.0669015879282
 31
0.0
  0
LINE
  5
87D9
  8
AM_0
 10
72.077379023090543
 20
86.426917587928301
 30
0.0
 11
72.077379023090543
 21
73.316917587928174
 31
0.0
  0
LINE
  5
87DA
  8
AM_0
 10
78.867309023090442
 20
79.286902587928125
 30
0.0
 11
81.287349023090442
 21
79.286902587928125
 31
0.0
  0
LINE
  5
87DB
  8
AM_0
 10
80.797359023090365
 20
81.966895587928292
 30
0.0
 11
81.337329023090206
 21
78.976891587928321
 31
0.0
  0
LINE
  5
87DC
  8
AM_0
 10
77.077329023090911
 20
96.016915587928224
 30
0.0
 11
80.247369023090855
 21
96.016915587928224
 31
0.0
  0
ARC
  5
87DD
  8
AM_0
 10
81.757329023090264
 20
95.271919587928309
 30
0.0
 40
1.67500812
 50
90.000002999984645
 51
270.0
  0
ARC
  5
87DE
  8
AM_0
 10
82.627389023090444
 20
95.316916587928276
 30
0.0
 40
1.000004069999999
 50
90.000002999984645
 51
270.0
  0
ARC
  5
87DF
  8
AM_0
 10
96.578799023091051
 20
67.148338587927356
 30
0.0
 40
1.498559999999999
 50
359.94487999999399
 51
90.055115000003084
  0
ARC
  5
87E0
  8
AM_0
 10
100.0798890230907
 20
68.429419587927214
 30
0.0
 40
2.00251584
 50
180.0718999999998
 51
269.9281000000002
  0
ARC
  5
87E1
  8
AM_0
 10
96.696039023090648
 20
65.516623587928279
 30
0.0
 40
1.500312029999999
 50
14.683033999993
 51
90.331662999981447
  0
ARC
  5
87E2
  8
AM_0
 10
100.07847902309091
 20
66.403327587928288
 30
0.0
 40
1.9964280599999991
 50
194.69462999999561
 51
269.96760999996542
  0
ARC
  5
87E3
  8
AM_0
 10
100.0771590230906
 20
67.076728587928301
 30
0.0
 40
1.9998241199999991
 50
179.99493999999211
 51
270.00505999999473
  0
ARC
  5
87E4
  8
AM_0
 10
96.575799023090454
 20
70.55541158792812
 30
0.0
 40
1.5015081599999991
 50
0.0575469979997975
 51
89.94245100000316
  0
ARC
  5
87E5
  8
AM_0
 10
96.576969023090911
 20
75.8365395879282
 30
0.0
 40
1.500360179999999
 50
0.0138159999949371
 51
89.986185000013009
  0
ARC
  5
87E6
  8
AM_0
 10
100.0789890230908
 20
70.45855058792813
 30
0.0
 40
2.0016401400000001
 50
180.04696000000459
 51
269.9530400000213
  0
LINE
  5
87E7
  8
AM_0
 10
98.077329023090911
 20
68.426917587928301
 30
0.0
 11
98.077329023090911
 21
75.836905587928186
 31
0.0
  0
ARC
  5
87E8
  8
AM_0
 10
86.247549023090883
 20
88.72402058792818
 30
0.0
 40
5.0021840999999991
 50
5.424525999996443
 51
80.451425000001095
  0
LINE
  5
87E9
  8
AM_0
 10
87.077379023090543
 20
81.966910587928197
 30
0.0
 11
87.077379023090543
 21
96.016915587928224
 31
0.0
  0
ARC
  5
87EA
  8
AM_0
 10
86.7075690230904
 20
92.663428587928124
 30
0.0
 40
6.007896599999996
 50
273.52845000001088
 51
314.61726999999422
  0
ARC
  5
87EB
  8
AM_0
 10
90.223869023090629
 20
89.107993587928135
 30
0.0
 40
1.007376
 50
314.2903200000024
 51
5.0634048999961614
  0
ARC
  5
87EC
  8
AM_0
 10
99.077379023090558
 20
95.316916587928276
 30
0.0
 40
1.000004069999999
 50
90.000002999984645
 51
270.0
  0
LINE
  5
87ED
  8
ﾁｭｳｼﾝｾﾝ
 10
60.077379023087822
 20
115.60190508792741
 30
0.0
 11
60.077379023087822
 21
145.03190008792731
 31
0.0
  0
ARC
  5
87EE
  8
AM_0
 10
82.627389023090444
 20
105.31690358792819
 30
0.0
 40
1.000004069999999
 50
90.000002999984645
 51
270.0
  0
ARC
  5
87EF
  8
AM_0
 10
81.537339023090695
 20
105.29689958792819
 30
0.0
 40
1.4600000699999991
 50
90.000002999984645
 51
270.0
  0
ARC
  5
87F0
  8
AM_0
 10
82.628649023090446
 20
115.3169175879281
 30
0.0
 40
1.00003602
 50
89.500715999993631
 51
270.49928999999503
  0
ARC
  5
87F1
  8
AM_0
 10
81.407349023091228
 20
115.3069095879281
 30
0.0
 40
1.33000008
 50
90.000002999984645
 51
270.0
  0
LINE
  5
87F2
  8
AM_0
 10
60.077379023087822
 20
122.3169045879292
 30
0.0
 11
77.077329023090911
 21
122.3169045879292
 31
0.0
  0
LINE
  5
87F3
  8
AM_0
 10
60.077379023087822
 20
138.31690358792821
 30
0.0
 11
77.077329023090911
 21
138.31690358792821
 31
0.0
  0
ARC
  5
87F4
  8
AM_0
 10
60.077379023087822
 20
130.31089058792901
 30
0.0
 40
5.0000519999999984
 50
23.653229999994888
 51
156.34677000000511
  0
ARC
  5
87F5
  8
AM_0
 10
60.077379023087822
 20
130.31089058792901
 30
0.0
 40
4.9952319000000003
 50
203.52669999999009
 51
336.47328999999843
  0
LINE
  5
87F6
  8
AM_0
 10
54.57732902309089
 20
132.31690358792821
 30
0.0
 11
65.577339023090644
 21
132.31690358792821
 31
0.0
  0
LINE
  5
87F7
  8
AM_0
 10
54.57732902309089
 20
128.31690458792821
 30
0.0
 11
65.577339023090644
 21
128.31690458792821
 31
0.0
  0
LINE
  5
87F8
  8
AM_0
 10
54.57732902309089
 20
127.81690358792819
 30
0.0
 11
54.57732902309089
 21
132.81690458792821
 31
0.0
  0
LINE
  5
87F9
  8
AM_0
 10
68.077329023090897
 20
127.81690358792819
 30
0.0
 11
68.077329023090897
 21
132.81690458792821
 31
0.0
  0
LINE
  5
87FA
  8
AM_0
 10
65.577339023090644
 20
127.81690358792819
 30
0.0
 11
65.577339023090644
 21
132.81690458792821
 31
0.0
  0
LINE
  5
87FB
  8
AM_0
 10
65.577339023090644
 20
132.81690458792821
 30
0.0
 11
68.077329023090897
 21
132.81690458792821
 31
0.0
  0
LINE
  5
87FC
  8
AM_0
 10
65.577339023090644
 20
127.81690358792819
 30
0.0
 11
68.077329023090897
 21
127.81690358792819
 31
0.0
  0
ARC
  5
87FD
  8
AM_0
 10
81.347349023090814
 20
125.31690458792831
 30
0.0
 40
1.270004069999999
 50
90.000002999984645
 51
270.0
  0
ARC
  5
87FE
  8
AM_0
 10
82.628649023090446
 20
125.31690458792831
 30
0.0
 40
1.00003602
 50
89.500715999993631
 51
270.49928999999503
  0
ARC
  5
87FF
  8
AM_0
 10
82.628649023090446
 20
135.31690358792821
 30
0.0
 40
1.00003602
 50
89.500715999993631
 51
270.49928999999503
  0
ARC
  5
8800
  8
AM_0
 10
81.347349023090814
 20
135.32190758792831
 30
0.0
 40
1.265004089999999
 50
90.000002999984645
 51
270.0
  0
ARC
  5
8801
  8
AM_0
 10
99.077379023090558
 20
105.31690358792819
 30
0.0
 40
1.000004069999999
 50
90.000002999984645
 51
270.0
  0
ARC
  5
8802
  8
AM_0
 10
99.077379023090558
 20
115.3169175879281
 30
0.0
 40
1.000004069999999
 50
90.000002999984645
 51
270.0
  0
ARC
  5
8803
  8
AM_0
 10
99.077379023090558
 20
125.31690458792831
 30
0.0
 40
1.000004069999999
 50
90.000002999984645
 51
270.0
  0
ARC
  5
8804
  8
AM_0
 10
99.077379023090558
 20
135.31690358792821
 30
0.0
 40
1.000004069999999
 50
90.000002999984645
 51
270.0
  0
ARC
  5
8805
  8
AM_0
 10
153.07647902309051
 20
66.407797587928144
 30
0.0
 40
2.000876009999998
 50
270.02510999999589
 51
359.97489000000411
  0
ARC
  5
8806
  8
AM_0
 10
153.07500902308851
 20
67.079245587928199
 30
0.0
 40
2.002332029999998
 50
270.0667399999752
 51
359.93325999999882
  0
ARC
  5
8807
  8
AM_0
 10
153.07233902309051
 20
68.431936587928249
 30
0.0
 40
2.00502402
 50
270.14340999997518
 51
359.85658999999868
  0
LINE
  5
8808
  8
AM_0
 10
155.0773290230909
 20
66.406897587928142
 30
0.0
 11
155.0773290230909
 21
68.456902587928198
 31
0.0
  0
ARC
  5
8809
  8
AM_0
 10
220.89732902309061
 20
95.271919587928309
 30
0.0
 40
1.6749999899999961
 50
270.0
 51
90.000002999984645
  0
ARC
  5
880A
  8
AM_0
 10
218.92668902309009
 20
71.823433587928321
 30
0.0
 40
2.0065319999999991
 50
270.01927000000978
 51
347.72687000000042
  0
LINE
  5
880B
  8
AM_0
 10
218.7873390230906
 20
69.81691658792829
 30
0.0
 11
224.07732902309081
 21
69.81691658792829
 31
0.0
  0
LINE
  5
880C
  8
AM_0
 10
218.81730902309019
 20
69.93689558792812
 30
0.0
 11
222.27732902309069
 21
82.85689658792829
 31
0.0
  0
LINE
  5
880D
  8
AM_0
 10
220.89732902309061
 20
96.946906587928197
 30
0.0
 11
211.07732902308891
 21
96.946906587928197
 31
0.0
  0
ARC
  5
880E
  8
AM_0
 10
216.88275902308939
 20
70.461310587928196
 30
0.0
 40
2.004416039999998
 50
270.13147999996619
 51
344.83334000000627
  0
LINE
  5
880F
  8
AM_0
 10
217.42737902309091
 20
96.316903587928195
 30
0.0
 11
211.07732902308891
 21
96.316903587928195
 31
0.0
  0
LINE
  5
8810
  8
AM_0
 10
211.07732902308891
 20
100.2381640013602
 30
0.0
 11
213.84735902309049
 21
100.31688758792821
 31
0.0
  0
ARC
  5
8811
  8
AM_0
 10
217.41918902308859
 20
95.316916587928276
 30
0.0
 40
1.0000319699999971
 50
270.46929999998491
 51
89.530700000015145
  0
ARC
  5
8812
  8
AM_0
 10
225.07683902309051
 20
79.2763755879282
 30
0.0
 40
0.99947604
 50
179.97008999999551
 51
270.02991999999381
  0
ARC
  5
8813
  8
AM_0
 10
223.78440902309009
 20
77.787589587928309
 30
0.0
 40
1.499328059999999
 50
89.888150999980539
 51
168.09384000000131
  0
ARC
  5
8814
  8
AM_0
 10
225.0775890230907
 20
67.817083587928209
 30
0.0
 40
1.0001800499999971
 50
180.0103099999989
 51
269.98967999999968
  0
LINE
  5
8815
  8
AM_0
 10
220.8873390230909
 20
71.396902587928253
 30
0.0
 11
222.32733902309059
 21
78.096901587928187
 31
0.0
  0
ARC
  5
8816
  8
AM_0
 10
223.7227290230912
 20
82.470925587928136
 30
0.0
 40
1.49599605
 50
89.821707000006256
 51
165.04766000000561
  0
LINE
  5
8817
  8
AM_0
 10
223.7873490230904
 20
79.286902587928125
 30
0.0
 11
221.37738902309221
 21
79.286902587928125
 31
0.0
  0
LINE
  5
8818
  8
AM_0
 10
29.577339023090641
 20
174.20689658792921
 30
0.0
 11
77.077329023090911
 21
174.20689658792921
 31
0.0
  0
LINE
  5
8819
  8
AM_0
 10
29.577339023090641
 20
163.95691958792909
 30
0.0
 11
72.077379023090543
 21
163.95691958792909
 31
0.0
  0
LINE
  5
881A
  8
AM_0
 10
29.07732902309089
 20
187.31689658792811
 30
0.0
 11
77.077329023090911
 21
187.31689658792811
 31
0.0
  0
ARC
  5
881B
  8
AM_0
 10
29.077869023089079
 20
185.31634658792811
 30
0.0
 40
2.000536019999998
 50
90.015329000011192
 51
179.98467999999519
  0
ARC
  5
881C
  8
AM_0
 10
27.975099023087751
 20
167.69941658792811
 30
0.0
 40
2.9977641899999981
 50
179.8564500000015
 51
275.78659000000278
  0
LINE
  5
881D
  8
AM_0
 10
28.27734902309021
 20
164.60691458792729
 30
0.0
 11
28.27734902309021
 21
173.8069065879283
 31
0.0
  0
LINE
  5
881E
  8
AM_0
 10
28.27734902309021
 20
164.60691458792729
 30
0.0
 11
29.577339023090641
 21
164.60691458792729
 31
0.0
  0
LINE
  5
881F
  8
AM_0
 10
27.07737902309054
 20
173.56690658792829
 30
0.0
 11
27.07737902309054
 21
185.31691658792909
 31
0.0
  0
ARC
  5
8820
  8
AM_0
 10
27.975159023090772
 20
170.7043965879281
 30
0.0
 40
2.99777994
 50
84.213882999985628
 51
179.95211
  0
LINE
  5
8821
  8
AM_0
 10
24.977349023090941
 20
167.70691658792811
 30
0.0
 11
24.977349023090941
 21
170.70691658792811
 31
0.0
  0
LINE
  5
8822
  8
AM_0
 10
28.27734902309021
 20
173.8069065879283
 30
0.0
 11
29.577339023090641
 21
173.8069065879283
 31
0.0
  0
LINE
  5
8823
  8
AM_0
 10
122.0773290230908
 20
176.66689658792819
 30
0.0
 11
224.07732902309081
 21
176.66689658792819
 31
0.0
  0
LINE
  5
8824
  8
AM_0
 10
90.757329023090264
 20
167.03689658792811
 30
0.0
 11
220.89732902309061
 21
167.03689658792811
 31
0.0
  0
LINE
  5
8825
  8
AM_0
 10
217.42737902309091
 20
166.31689658792811
 30
0.0
 11
91.627389023090473
 21
166.31689658792811
 31
0.0
  0
LINE
  5
8826
  8
AM_0
 10
100.0773390230906
 20
192.17692658792811
 30
0.0
 11
216.88731902309061
 21
192.17692658792811
 31
0.0
  0
LINE
  5
8827
  8
AM_0
 10
122.07738902309021
 20
176.66689658792819
 30
0.0
 11
87.077319023090226
 21
174.6369165879282
 31
0.0
  0
LINE
  5
8828
  8
AM_0
 10
81.407349023091228
 20
143.99689658792809
 30
0.0
 11
122.0773290230908
 21
143.99689658792809
 31
0.0
  0
LINE
  5
8829
  8
AM_0
 10
81.407349023091228
 20
146.65690058792819
 30
0.0
 11
122.0773290230908
 21
146.65690058792819
 31
0.0
  0
LINE
  5
882A
  8
AM_0
 10
90.537339023088862
 20
153.8769015879281
 30
0.0
 11
121.5773290230909
 21
153.8769015879281
 31
0.0
  0
LINE
  5
882B
  8
AM_0
 10
90.537339023088862
 20
156.80692658792819
 30
0.0
 11
121.5773290230909
 21
156.80692658792819
 31
0.0
  0
LINE
  5
882C
  8
AM_0
 10
90.757329023090264
 20
163.68693158792809
 30
0.0
 11
122.0773290230908
 21
163.68693158792809
 31
0.0
  0
LINE
  5
882D
  8
AM_0
 10
122.0773290230908
 20
144.31690358792821
 30
0.0
 11
82.63731902309064
 21
144.31690358792821
 31
0.0
  0
LINE
  5
882E
  8
AM_0
 10
122.0773290230908
 20
146.3169045879292
 30
0.0
 11
82.63731902309064
 21
146.3169045879292
 31
0.0
  0
LINE
  5
882F
  8
AM_0
 10
121.5773290230909
 20
154.3169055879282
 30
0.0
 11
91.627389023090473
 21
154.3169055879282
 31
0.0
  0
LINE
  5
8830
  8
AM_0
 10
121.5773290230909
 20
156.31690358792821
 30
0.0
 11
91.627389023090473
 21
156.31690358792821
 31
0.0
  0
LINE
  5
8831
  8
AM_0
 10
122.0773290230908
 20
164.3169045879292
 30
0.0
 11
91.627389023090473
 21
164.3169045879292
 31
0.0
  0
LINE
  5
8832
  8
AM_0
 10
100.0773390230906
 20
194.20690658792799
 30
0.0
 11
153.07737902308779
 21
194.20690658792799
 31
0.0
  0
LINE
  5
8833
  8
AM_0
 10
100.0773390230906
 20
195.55690658792921
 30
0.0
 11
153.07737902308779
 21
195.55690658792921
 31
0.0
  0
LINE
  5
8834
  8
AM_0
 10
100.0773390230906
 20
196.23691658792799
 30
0.0
 11
153.07737902308779
 21
196.23691658792799
 31
0.0
  0
ARC
  5
8835
  8
AM_0
 10
83.249019023090995
 20
186.59149658792921
 30
0.0
 40
1.9953880799999959
 50
90.048066999965187
 51
167.98461999999341
  0
LINE
  5
8836
  8
AM_0
 10
98.077329023090911
 20
192.20689658792921
 30
0.0
 11
98.077329023090911
 21
184.7969265879282
 31
0.0
  0
LINE
  5
8837
  8
AM_0
 10
81.267399023090519
 20
190.44691658792809
 30
0.0
 11
80.347359023090576
 21
186.56689658792811
 31
0.0
  0
LINE
  5
8838
  8
AM_0
 10
83.307369023090374
 20
183.29692658792729
 30
0.0
 11
96.577329023090883
 21
183.29692658792729
 31
0.0
  0
LINE
  5
8839
  8
AM_0
 10
77.077329023090911
 20
178.6669065879293
 30
0.0
 11
87.077379023090543
 21
178.6669065879293
 31
0.0
  0
LINE
  5
883A
  8
AM_0
 10
77.077329023090911
 20
173.00689658792811
 30
0.0
 11
87.077379023090543
 21
173.00689658792811
 31
0.0
  0
LINE
  5
883B
  8
AM_0
 10
77.077329023090911
 20
164.6269035879281
 30
0.0
 11
87.077379023090543
 21
164.6269035879281
 31
0.0
  0
ARC
  5
883C
  8
AM_0
 10
81.407349023091228
 20
145.32691358792809
 30
0.0
 40
1.33000008
 50
90.000002999984645
 51
270.0
  0
ARC
  5
883D
  8
AM_0
 10
82.628649023090446
 20
145.3169025879283
 30
0.0
 40
1.00003602
 50
89.500715999993631
 51
270.49928999999503
  0
LINE
  5
883E
  8
AM_0
 10
72.077379023090543
 20
138.31690358792821
 30
0.0
 11
72.077379023090543
 21
187.31689658792811
 31
0.0
  0
ARC
  5
883F
  8
AM_0
 10
78.886539023091231
 20
186.9197265879281
 30
0.0
 40
1.502808149999999
 50
270.03078999999502
 51
346.42217999999571
  0
ARC
  5
8840
  8
AM_0
 10
78.86859902309061
 20
182.86102658792811
 30
0.0
 40
1.504140059999999
 50
269.9542499999659
 51
347.55525000000432
  0
ARC
  5
8841
  8
AM_0
 10
83.299179023090801
 20
181.3035165879281
 30
0.0
 40
1.993432109999999
 50
89.765883999979707
 51
169.7880299999938
  0
LINE
  5
8842
  8
AM_0
 10
78.88731902309064
 20
185.4169065879282
 30
0.0
 11
80.947389023091063
 21
185.4169065879282
 31
0.0
  0
LINE
  5
8843
  8
AM_0
 10
81.297309023090733
 20
187.00690658792811
 30
0.0
 11
80.337279023090559
 21
182.53690658792809
 31
0.0
  0
LINE
  5
8844
  8
AM_0
 10
78.867309023090442
 20
181.3569165879282
 30
0.0
 11
81.287349023090442
 21
181.3569165879282
 31
0.0
  0
LINE
  5
8845
  8
AM_0
 10
80.797299023091
 20
178.6669065879293
 30
0.0
 11
81.337329023090206
 21
181.6569465879281
 31
0.0
  0
ARC
  5
8846
  8
AM_0
 10
91.627389023090473
 20
165.3169065879292
 30
0.0
 40
1.000004069999999
 50
90.000002999984645
 51
270.0
  0
ARC
  5
8847
  8
AM_0
 10
90.757329023090264
 20
165.36187658792821
 30
0.0
 40
1.67500812
 50
90.000002999984645
 51
270.0
  0
ARC
  5
8848
  8
AM_0
 10
99.077379023090558
 20
165.3169065879292
 30
0.0
 40
1.000004069999999
 50
90.000002999984645
 51
270.0
  0
LINE
  5
8849
  8
AM_0
 10
87.077379023090543
 20
178.6669065879293
 30
0.0
 11
87.077379023090543
 21
164.6269035879281
 31
0.0
  0
ARC
  5
884A
  8
AM_0
 10
91.627389023090473
 20
155.3169045879292
 30
0.0
 40
1.000004069999999
 50
90.000002999984645
 51
270.0
  0
ARC
  5
884B
  8
AM_0
 10
90.537339023088862
 20
155.34189758792829
 30
0.0
 40
1.46500008
 50
90.000002999984645
 51
270.0
  0
ARC
  5
884C
  8
AM_0
 10
99.077379023090558
 20
155.3169045879292
 30
0.0
 40
1.000004069999999
 50
90.000002999984645
 51
270.0
  0
ARC
  5
884D
  8
AM_0
 10
99.077379023090558
 20
145.3169025879283
 30
0.0
 40
1.000004069999999
 50
90.000002999984645
 51
270.0
  0
ARC
  5
884E
  8
AM_0
 10
90.227289023090648
 20
171.52705658792809
 30
0.0
 40
1.004135999999999
 50
354.84883999999721
 51
45.797436000011167
  0
ARC
  5
884F
  8
AM_0
 10
86.698539023091143
 20
167.98495658792831
 30
0.0
 40
6.0039084000000011
 50
45.223692999992473
 51
86.382714000002196
  0
ARC
  5
8850
  8
AM_0
 10
86.242299023089814
 20
171.91468658792809
 30
0.0
 40
5.0078918999999971
 50
279.59871999996949
 51
354.5253199999965
  0
ARC
  5
8851
  8
AM_0
 10
96.571719023090736
 20
184.80256658792811
 30
0.0
 40
1.5056760899999959
 50
270.21551999996632
 51
359.78447000000108
  0
LINE
  5
8852
  8
AM_0
 10
83.187309023091061
 20
193.61689658792821
 30
0.0
 11
96.687309023091089
 21
193.61689658792821
 31
0.0
  0
LINE
  5
8853
  8
AM_0
 10
83.217339023087334
 20
191.98687658792821
 30
0.0
 11
96.577329023090883
 21
191.98687658792821
 31
0.0
  0
LINE
  5
8854
  8
AM_0
 10
83.247369023090883
 20
188.58688658792809
 30
0.0
 11
96.577329023090883
 21
188.58688658792809
 31
0.0
  0
LINE
  5
8855
  8
AM_0
 10
77.077329023090911
 20
187.74688658792809
 30
0.0
 11
79.897329023090592
 21
187.81687658792799
 31
0.0
  0
ARC
  5
8856
  8
AM_0
 10
83.184699023090616
 20
191.61910658792809
 30
0.0
 40
1.9977801299999991
 50
89.923080999997794
 51
165.86777000000629
  0
ARC
  5
8857
  8
AM_0
 10
78.90564902309049
 20
188.9440065879281
 30
0.0
 40
1.5070961099999991
 50
270.06481999997561
 51
345.90217999999101
  0
ARC
  5
8858
  8
AM_0
 10
83.210199023091263
 20
189.99142658792809
 30
0.0
 40
1.995484169999999
 50
89.79345799999912
 51
166.8059200000088
  0
LINE
  5
8859
  8
AM_0
 10
81.247359023091121
 20
192.10690658792811
 30
0.0
 11
80.367369023089864
 21
188.5769265879282
 31
0.0
  0
LINE
  5
885A
  8
AM_0
 10
78.907359023090976
 20
187.4368965879282
 30
0.0
 11
80.557359023090612
 21
187.4368965879282
 31
0.0
  0
ARC
  5
885B
  8
AM_0
 10
96.690969023087732
 20
195.1237965879281
 30
0.0
 40
1.506888089999999
 50
269.86223000001252
 51
345.12306999999282
  0
ARC
  5
885C
  8
AM_0
 10
96.573489023090602
 20
193.4907465879281
 30
0.0
 40
1.5038481299999991
 50
270.14639999998991
 51
359.85359999999702
  0
ARC
  5
885D
  8
AM_0
 10
96.575559023091046
 20
190.0887165879281
 30
0.0
 40
1.501796039999995
 50
270.0685500000119
 51
359.93145000000101
  0
ARC
  5
885E
  8
AM_0
 10
100.0798290230904
 20
194.2420665879292
 30
0.0
 40
1.99484415
 50
90.071658000004405
 51
165.6371999999968
  0
ARC
  5
885F
  8
AM_0
 10
100.0719090230904
 20
193.56232658792911
 30
0.0
 40
1.99457616
 50
89.844007999986985
 51
180.1559900000027
  0
ARC
  5
8860
  8
AM_0
 10
100.0745790230894
 20
192.2096865879281
 30
0.0
 40
1.9972080599999991
 50
89.919857000000462
 51
180.08013999999881
  0
ARC
  5
8861
  8
AM_0
 10
100.0737390230906
 20
190.1805165879282
 30
0.0
 40
1.996384079999995
 50
89.896162999967444
 51
180.10383999999601
  0
ARC
  5
8862
  8
AM_0
 10
153.07671902309079
 20
194.2362765879281
 30
0.0
 40
2.0006240100000001
 50
0.017824000992245
 51
89.982176000023884
  0
ARC
  5
8863
  8
AM_0
 10
153.08025902309049
 20
193.5598365879282
 30
0.0
 40
1.997088119999999
 50
359.91637999999199
 51
90.083624999987734
  0
ARC
  5
8864
  8
AM_0
 10
153.077649023091
 20
192.20719658792811
 30
0.0
 40
1.999720049999999
 50
359.99193999999602
 51
90.008061999993785
  0
LINE
  5
8865
  8
AM_0
 10
155.0773290230909
 20
194.23687658792821
 30
0.0
 11
155.0773290230909
 21
192.17692658792811
 31
0.0
  0
LINE
  5
8866
  8
AM_0
 10
218.81730902309019
 20
190.69693658792809
 30
0.0
 11
222.27732902309069
 21
177.7769565879282
 31
0.0
  0
LINE
  5
8867
  8
AM_0
 10
220.8873390230909
 20
189.236926587928
 30
0.0
 11
222.32733902309059
 21
182.53690658792809
 31
0.0
  0
ARC
  5
8868
  8
AM_0
 10
220.89732902309061
 20
165.36187658792821
 30
0.0
 40
1.6749999899999961
 50
270.0
 51
90.000002999984645
  0
LINE
  5
8869
  8
AM_0
 10
220.89732902309061
 20
163.68693158792809
 30
0.0
 11
211.07732902308891
 21
163.68693158792809
 31
0.0
  0
ARC
  5
886A
  8
AM_0
 10
217.41918902308859
 20
165.3169065879292
 30
0.0
 40
1.0000319699999971
 50
270.46929999998491
 51
89.530700000015145
  0
LINE
  5
886B
  8
AM_0
 10
211.07732902308891
 20
164.21692958792809
 30
0.0
 11
217.42737902309091
 21
164.21692958792809
 31
0.0
  0
LINE
  5
886C
  8
AM_0
 10
211.07732902308891
 20
160.3956291744982
 30
0.0
 11
213.84735902309049
 21
160.31690558792809
 31
0.0
  0
ARC
  5
886D
  8
AM_0
 10
223.72758902309039
 20
178.16929658792921
 30
0.0
 40
1.50239199
 50
195.14001000000641
 51
269.99064000000641
  0
ARC
  5
886E
  8
AM_0
 10
225.07170902309099
 20
181.3625265879281
 30
0.0
 40
0.99440004
 50
89.676491000019567
 51
180.3235100000044
  0
ARC
  5
886F
  8
AM_0
 10
223.78320902309221
 20
182.8573665879282
 30
0.0
 40
1.500476039999995
 50
192.33223000000149
 51
270.15827999999971
  0
LINE
  5
8870
  8
AM_0
 10
223.7873490230904
 20
181.3569165879282
 30
0.0
 11
221.37738902309221
 21
181.3569165879282
 31
0.0
  0
ARC
  5
8871
  8
AM_0
 10
218.93181902309061
 20
188.81671658792811
 30
0.0
 40
2.0001800699999981
 50
12.12635200000085
 51
90.127514999991448
  0
LINE
  5
8872
  8
AM_0
 10
218.7873390230906
 20
190.81690658792829
 30
0.0
 11
224.07732902309081
 21
190.81690658792829
 31
0.0
  0
ARC
  5
8873
  8
AM_0
 10
216.8878290230904
 20
190.17910658792809
 30
0.0
 40
1.997795999999999
 50
15.021596999998801
 51
90.013580999977563
  0
ARC
  5
8874
  8
AM_0
 10
225.07245902309111
 20
192.82183658792809
 30
0.0
 40
0.9950640599999999
 50
89.714938000019984
 51
180.28506000000459
  0
LINE
  5
887B
  8
AM_0
 10
206.57732902308899
 20
152.81690258792909
 30
0.0
 11
206.57732902308899
 21
107.8169025879283
 31
0.0
  0
LINE
  5
887C
  8
AM_0
 10
204.4773290230905
 20
153.36715511962319
 30
0.0
 11
204.4773290230905
 21
107.266650056234
 31
0.0
  0
LINE
  5
887D
  8
AM_0
 10
121.5773290230909
 20
112.3169025879283
 30
0.0
 11
121.5773290230909
 21
102.31689258792809
 31
0.0
  0
LINE
  5
887E
  8
AM_0
 10
122.0773290230908
 20
97.816896587928142
 30
0.0
 11
122.0773290230908
 21
162.81689258792721
 31
0.0
  0
LINE
  5
887F
  8
AM_0
 10
193.62757355478411
 20
96.416894587928255
 30
0.0
 11
126.4973090230887
 21
96.416894587928255
 31
0.0
  0
LINE
  5
8880
  8
AM_0
 10
126.4973090230887
 20
96.416894587928255
 30
0.0
 11
126.4973090230887
 21
94.316903587928195
 31
0.0
  0
ARC
  5
8881
  8
AM_0
 10
125.5699490230899
 20
97.809549587928103
 30
0.0
 40
3.492651899999998
 50
179.8793300000022
 51
270.12067999996867
  0
ARC
  5
8882
  8
AM_0
 10
122.0700090230911
 20
102.3095525879282
 30
0.0
 40
0.4927000100000001
 50
179.14455999999711
 51
270.85544000001568
  0
ARC
  5
8883
  8
AM_0
 10
208.5773290230909
 20
107.8169025879283
 30
0.0
 40
2.0
 50
180.0
 51
270.0
  0
LINE
  5
8884
  8
AM_0
 10
204.06727851675069
 20
106.2767005625721
 30
0.0
 11
194.61752304844589
 21
96.826945094266208
 31
0.0
  0
LINE
  5
8885
  8
AM_0
 10
194.61753104844499
 20
96.826953094267083
 30
0.0
 11
204.06727851675069
 21
106.2767005625721
 31
0.0
  0
ARC
  5
8886
  8
AM_0
 10
193.62757355478411
 20
97.816894587927223
 30
0.0
 40
1.399999999999999
 50
270.0
 51
315.00000000000921
1001
GENIUS_GENODEF_13
1002
{
1000
HIER
1070
     0
1002
}
1002
{
1000
MANEDIT
1070
     0
1002
}
1002
{
1000
NOSEL
1070
     0
1002
}
1002
{
1000
BEHIND
1070
     0
1002
}
1002
{
1000
OTHER
1070
     0
1002
}
1002
{
1000
REACTOR
1002
}
1001
GENIUS_GENOBJ-N-FIL_13
1002
{
1000
OWNER
1000
GEN
1002
}
  0
ARC
  5
8887
  8
AM_0
 10
203.0773290230899
 20
107.266650056234
 30
0.0
 40
1.4000000000006301
 50
314.9999999999539
 51
0.0
  0
ARC
  5
8888
  8
AM_0
 10
209.0773290230899
 20
96.316902587929235
 30
0.0
 40
2.0
 50
270.0
 51
0.0
  0
ARC
  5
8889
  8
AM_0
 10
209.0773290230899
 20
103.8169025879283
 30
0.0
 40
2.0
 50
0.0
 51
90.0
  0
LINE
  5
888A
  8
AM_0
 10
209.0773290230899
 20
105.8169025879283
 30
0.0
 11
208.5773290230909
 21
105.8169025879283
 31
0.0
  0
LINE
  5
888B
  8
AM_0
 10
211.07732902308891
 20
96.316902587929235
 30
0.0
 11
211.07732902308891
 21
103.8169025879283
 31
0.0
  0
LINE
  5
888C
  8
AM_0
 10
126.4973090230887
 20
164.21688258792821
 30
0.0
 11
193.63506484296519
 21
164.21688258792821
 31
0.0
  0
ARC
  5
888D
  8
AM_0
 10
122.0778790230906
 20
112.3163525879272
 30
0.0
 40
0.5005480100000002
 50
90.062622000000005
 51
179.9373699999839
  0
ARC
  5
888E
  8
AM_0
 10
122.0778790230906
 20
158.31635258792809
 30
0.0
 40
0.5005480100000002
 50
90.062622000000005
 51
179.9373699999839
  0
ARC
  5
888F
  8
AM_0
 10
122.0698190230905
 20
148.3093925879281
 30
0.0
 40
0.49254802
 50
179.12656000000209
 51
270.8734499999884
  0
LINE
  5
8890
  8
AM_0
 10
121.5773290230909
 20
158.31689258792809
 30
0.0
 11
121.5773290230909
 21
148.31690258792909
 31
0.0
  0
LINE
  5
8891
  8
AM_0
 10
126.4973090230887
 20
164.21688258792821
 30
0.0
 11
126.4973090230887
 21
166.31188258792821
 31
0.0
  0
ARC
  5
8892
  8
AM_0
 10
125.5778190230903
 20
162.81640258792811
 30
0.0
 40
3.5005001999999981
 50
90.008164999989489
 51
179.99183999999781
  0
LINE
  5
8893
  8
AM_0
 10
208.5773290230909
 20
135.81690258792921
 30
0.0
 11
206.57732902308899
 21
135.81690258792921
 31
0.0
  0
LINE
  5
8894
  8
AM_0
 10
206.57732902308899
 20
124.8169025879274
 30
0.0
 11
208.5773290230909
 21
124.8169025879274
 31
0.0
  0
LINE
  5
8895
  8
AM_0
 10
208.5773290230909
 20
124.8169025879274
 30
0.0
 11
208.5773290230909
 21
135.81690258792921
 31
0.0
  0
ARC
  5
8896
  8
AM_0
 10
208.5773290230909
 20
152.81690258792909
 30
0.0
 40
2.0
 50
90.0
 51
180.0
  0
CIRCLE
  5
8897
  8
AM_0
 10
205.57732902308999
 20
161.3169025879283
 30
0.0
 40
3.4999999999999631
  0
LINE
  5
8898
  8
AM_0
 10
194.6175310484459
 20
163.80685208158931
 30
0.0
 11
204.06727851675069
 21
154.35710461328421
 31
0.0
  0
LINE
  5
8899
  8
AM_0
 10
202.4773290230923
 20
155.9470541069451
 30
0.0
 11
204.06727851675069
 21
154.35710461328421
 31
0.0
  0
ARC
  5
889A
  8
AM_0
 10
203.0773290230899
 20
153.36715511962319
 30
0.0
 40
1.400000000000118
 50
0.0
 51
45.000000000046043
  0
ARC
  5
889B
  8
AM_0
 10
193.6275815547842
 20
162.81690258792921
 30
0.0
 40
1.40000000000077
 50
44.999999999981569
 51
89.999999999947889
  0
LINE
  5
889C
  8
AM_0
 10
211.07732902308891
 20
156.81690258792909
 30
0.0
 11
211.07732902308891
 21
164.31690258792921
 31
0.0
  0
LINE
  5
889D
  8
AM_0
 10
211.07732902308891
 20
156.81690258792909
 30
0.0
 11
211.07732902308891
 21
164.31690258792921
 31
0.0
  0
ARC
  5
889E
  8
AM_0
 10
209.0773290230899
 20
156.81690258792909
 30
0.0
 40
2.0
 50
270.0
 51
0.0
  0
LINE
  5
889F
  8
AM_0
 10
208.5773290230909
 20
154.81690258792909
 30
0.0
 11
209.0773290230899
 21
154.81690258792909
 31
0.0
  0
ARC
  5
88A0
  8
AM_0
 10
209.0773290230899
 20
164.31690258792921
 30
0.0
 40
2.0
 50
0.0
 51
90.0
  0
LINE
  5
88A1
  8
AM_0
 10
202.9387573418816
 20
161.3169025879283
 30
0.0
 11
208.21590070429639
 21
161.3169025879283
 31
0.0
  0
LINE
  5
88A2
  8
AM_0
 10
205.57732902308999
 20
163.95547426913521
 30
0.0
 11
205.57732902308999
 21
158.67833090672221
 31
0.0
  0
CIRCLE
  5
88A3
  8
AM_0
 10
205.57732902308999
 20
99.316902587928325
 30
0.0
 40
3.4999999999999631
  0
LINE
  5
88A4
  8
AM_0
 10
202.9387573418816
 20
99.316902587929235
 30
0.0
 11
208.21590070429639
 21
99.316902587929235
 31
0.0
  0
LINE
  5
88A5
  8
AM_0
 10
205.57732902308999
 20
101.95547426913519
 30
0.0
 11
205.57732902308999
 21
96.678330906721158
 31
0.0
  0
LINE
  5
88A7
  8
AM_0
 10
29.577339023090641
 20
106.3427309420033
 30
0.0
 11
29.577339023090641
 21
187.31689658792811
 31
0.0
  0
LINE
  5
88DD
  8
ﾁｭｳｼﾝｾﾝ
 10
822.19235845461014
 20
130.31690415871569
 30
0.0
 11
992.94319336787771
 21
130.31690415871569
 31
0.0
  0
ARC
  5
88E0
  8
ﾁｭｳｼﾝｾﾝ
 10
907.5677759112441
 20
211.5269225879282
 30
0.0
 40
195.0000049999999
 50
129.12092555912909
 51
140.879063203111
  0
LINE
  5
88E1
  8
ﾁｭｳｼﾝｾﾝ
 10
783.8241051749585
 20
335.27063233800271
 30
0.0
 11
755.5398219580718
 21
363.55489161603481
 31
0.0
  0
ARC
  5
88E2
  8
ﾁｭｳｼﾝｾﾝ
 10
907.56777591124455
 20
211.52692258792831
 30
0.0
 40
195.0000049999999
 50
219.12092555912909
 51
230.879063203111
  0
LINE
  5
88E3
  8
ﾁｭｳｼﾝｾﾝ
 10
783.82406616116964
 20
87.783251851642703
 30
0.0
 11
755.53980688313754
 21
59.498968634756011
 31
0.0
  0
ARC
  5
88E4
  8
ﾁｭｳｼﾝｾﾝ
 10
907.5677759112441
 20
211.5269225879284
 30
0.0
 40
195.0000049999999
 50
309.12092555912909
 51
320.879063203111
  0
LINE
  5
88E5
  8
ﾁｭｳｼﾝｾﾝ
 10
1031.311446647529
 20
87.783212837853625
 30
0.0
 11
1059.5957298644159
 21
59.49895355982153
 31
0.0
  0
LINE
  5
8B1E
  8
AM_0
 10
569.07734902309085
 20
635.13279972560269
 30
0.0
 11
631.077289023091
 21
635.13279972560269
 31
0.0
  0
LINE
  5
8B1F
  8
AM_0
 10
569.07734902309085
 20
619.13273972560296
 30
0.0
 11
631.077289023091
 21
619.13273972560296
 31
0.0
  0
LINE
  5
8B20
  8
AM_0
 10
549.07728902309123
 20
654.63279972560258
 30
0.0
 11
631.077289023091
 21
654.63279972560258
 31
0.0
  0
LINE
  5
8B21
  8
AM_0
 10
549.07728902309123
 20
599.63279972560269
 30
0.0
 11
631.077289023091
 21
599.63279972560269
 31
0.0
  0
LINE
  5
8B22
  8
ﾁｭｳｼﾝｾﾝ
 10
13.736009023090901
 20
627.13279972560269
 30
0.0
 11
639.6447607657002
 21
627.13279972560269
 31
0.0
  0
POLYLINE
  5
8CC3
  8
AM_0
 66
     1
 10
0.0
 20
0.0
 30
0.0
  0
VERTEX
  5
8CC4
  8
AM_0
 10
506.98017902309101
 20
713.52104972560289
 30
0.0
 42
0.01720808
  0
VERTEX
  5
8CC5
  8
AM_0
 10
502.56390902309113
 20
656.14585972560258
 30
0.0
 42
0.0088311605
  0
VERTEX
  5
8CC6
  8
AM_0
 10
501.84705902309099
 20
627.13279972560269
 30
0.0
 42
0.025919753
  0
VERTEX
  5
8CC7
  8
AM_0
 10
505.71588902309111
 20
541.16910972560299
 30
0.0
  0
SEQEND
  5
8CC8
  8
AM_0
  0
ARC
  5
8CC9
  8
AM_0
 10
250.07740902309089
 20
615.02982972560278
 30
0.0
 40
3.0
 50
180.00001000000091
 51
268.00000000000267
  0
ARC
  5
8CCA
  8
AM_0
 10
378.0773490230909
 20
627.13279972560269
 30
0.0
 40
12.5
 50
203.57817999999739
 51
336.42183000000068
  0
ARC
  5
8CCB
  8
AM_0
 10
363.07734902309107
 20
613.90403972560307
 30
0.0
 40
5.0
 50
0.0
 51
41.409624000000257
  0
LINE
  5
8CCC
  8
AM_0
 10
519.07734902309085
 20
786.53605972560285
 30
0.0
 11
519.07734902309085
 21
467.72953972560282
 31
0.0
  0
LINE
  5
8CCD
  8
AM_0
 10
541.07734902309085
 20
792.13279972560292
 30
0.0
 11
541.07734902309085
 21
462.13273972560279
 31
0.0
  0
LINE
  5
8CCE
  8
AM_0
 10
546.07734902309119
 20
767.13279972560292
 30
0.0
 11
546.07734902309119
 21
487.13279972560298
 31
0.0
  0
LINE
  5
8CCF
  8
AM_0
 10
528.07740902309081
 20
751.48191972560301
 30
0.0
 11
528.07740902309081
 21
502.78367972560272
 31
0.0
  0
LINE
  5
8CD0
  8
AM_0
 10
322.07740902309081
 20
556.8790097256026
 30
0.0
 11
322.07740902309081
 21
697.38651972560308
 31
0.0
  0
LINE
  5
8CD1
  8
AM_0
 10
247.07740902309081
 20
584.81003972560256
 30
0.0
 11
247.07740902309081
 21
669.991379725603
 31
0.0
  0
LINE
  5
8CD2
  8
AM_0
 10
232.07740902309089
 20
563.13279972560326
 30
0.0
 11
232.07740902309089
 21
691.13279972560258
 31
0.0
  0
LINE
  5
8CD3
  8
AM_0
 10
396.0773490230913
 20
622.13279972560258
 30
0.0
 11
396.0773490230913
 21
494.13279972560281
 31
0.0
  0
LINE
  5
8CD5
  8
AM_0
 10
347.57728902309128
 20
520.67710972560269
 30
0.0
 11
347.57728902309128
 21
733.58848972560293
 31
0.0
  0
LINE
  5
8CD6
  8
AM_0
 10
549.07728902309123
 20
657.13279972560269
 30
0.0
 11
549.07728902309123
 21
597.13279972560258
 31
0.0
  0
LINE
  5
8CD7
  8
AM_0
 10
332.07734902309107
 20
553.63279972560269
 30
0.0
 11
332.07734902309107
 21
700.63279972560258
 31
0.0
  0
LINE
  5
8CD8
  8
AM_0
 10
396.0773490230913
 20
494.13273972560279
 30
0.0
 11
512.2340890230912
 21
490.07645972560272
 31
0.0
  0
POLYLINE
  5
8CD9
  8
AM_0
 66
     1
 10
0.0
 20
0.0
 30
0.0
  0
VERTEX
  5
8CDA
  8
AM_0
 10
322.07740902309081
 20
559.13279972560315
 30
0.0
  0
VERTEX
  5
8CDB
  8
AM_0
 10
302.34103902309101
 20
610.20278972560277
 30
0.0
 42
-1.0
  0
SEQEND
  5
8CDC
  8
AM_0
  0
ARC
  5
8CDD
  8
AM_0
 10
325.07740902309109
 20
556.8790097256026
 30
0.0
 40
3.0
 50
180.00001000000091
 51
268.00000000000267
  0
ARC
  5
8CDE
  8
AM_0
 10
319.07740902309092
 20
606.61667972560269
 30
0.0
 40
3.0
 50
0.0
 51
88.000000000002785
  0
ARC
  5
8CDF
  8
AM_0
 10
319.07740902309092
 20
557.09281972560291
 30
0.0
 40
3.0
 50
0.0
 51
88.000000000002785
  0
LINE
  5
8CE0
  8
AM_0
 10
247.07740902309081
 20
584.81003972560256
 30
0.0
 11
309.26441902309102
 21
584.81003972560256
 31
0.0
  0
LINE
  5
8CE1
  8
AM_0
 10
232.07740902309089
 20
575.63248972560268
 30
0.0
 11
313.15198902309112
 21
575.63248972560268
 31
0.0
  0
LINE
  5
8CE2
  8
AM_0
 10
319.18213902309111
 20
560.0910497256026
 30
0.0
 11
232.07740902309089
 21
563.13279972560326
 31
0.0
  0
LINE
  5
8CE3
  8
AM_0
 10
319.18213902309111
 20
609.61484972560299
 30
0.0
 11
249.97272902309109
 21
612.03171972560256
 31
0.0
  0
LINE
  5
8CE4
  8
AM_0
 10
232.07740902309089
 20
589.07792972560276
 30
0.0
 11
247.07740902309081
 21
589.07792972560276
 31
0.0
  0
LINE
  5
8CE5
  8
AM_0
 10
368.0773490230909
 20
499.93900972560289
 30
0.0
 11
368.0773490230909
 21
613.90403972560307
 31
0.0
  0
ARC
  5
8CE6
  8
AM_0
 10
363.07734902309107
 20
510.30430972560282
 30
0.0
 40
5.0
 50
0.0
 51
88.000000000002785
  0
ARC
  5
8CE7
  8
AM_0
 10
373.0773490230909
 20
499.93900972560289
 30
0.0
 40
5.0
 50
180.00001000000091
 51
268.00000000000267
  0
LINE
  5
8CE8
  8
AM_0
 10
363.25184902309121
 20
515.30130972560312
 30
0.0
 11
352.40278902309092
 21
515.68015972560295
 31
0.0
  0
ARC
  5
8CE9
  8
AM_0
 10
352.57728902309111
 20
520.67710972560269
 30
0.0
 40
5.0
 50
180.00001000000091
 51
268.00000000000267
  0
LINE
  5
8CEA
  8
AM_0
 10
396.07740902309092
 20
494.13279972560281
 30
0.0
 11
372.90284902309099
 21
494.9420597256028
 31
0.0
  0
ARC
  5
8CEB
  8
AM_0
 10
342.57728902309111
 20
548.26304972560285
 30
0.0
 40
5.0
 50
0.0
 51
88.000000000002785
  0
LINE
  5
8CEC
  8
AM_0
 10
332.07734902309107
 20
565.55283972560255
 30
0.0
 11
347.57728902309128
 21
565.55283972560255
 31
0.0
  0
LINE
  5
8CED
  8
AM_0
 10
332.07728902309111
 20
553.63273972560285
 30
0.0
 11
342.75184902309121
 21
553.25998972560285
 31
0.0
  0
LINE
  5
8CEE
  8
AM_0
 10
332.07734902309107
 20
553.63273972560285
 30
0.0
 11
324.97272902309112
 21
553.88083972560298
 31
0.0
  0
LINE
  5
8CEF
  8
AM_0
 10
332.07740902309092
 20
565.55411972560285
 30
0.0
 11
322.07740902309081
 21
565.55411972560285
 31
0.0
  0
LINE
  5
8CF0
  8
AM_0
 10
332.07734902309107
 20
587.65806972560256
 30
0.0
 11
347.57728902309128
 21
587.65806972560256
 31
0.0
  0
LINE
  5
8CF1
  8
AM_0
 10
332.07740902309092
 20
587.65812972560298
 30
0.0
 11
322.07740902309081
 21
587.65812972560298
 31
0.0
  0
ARC
  5
8CF2
  8
AM_0
 10
524.07734902309085
 20
467.72953972560282
 30
0.0
 40
5.0
 50
179.99998999999889
 51
268.00000999999861
  0
LINE
  5
8CF3
  8
AM_0
 10
523.90290902309096
 20
462.73252972560277
 30
0.0
 11
541.07740902309081
 21
462.13279972560298
 31
0.0
  0
LINE
  5
8CF4
  8
AM_0
 10
478.4268990230911
 20
529.76871972560275
 30
0.0
 11
516.66614902309095
 21
506.62632972560277
 31
0.0
  0
LINE
  5
8CF5
  8
AM_0
 10
481.01575902309082
 20
541.25925972560276
 30
0.0
 11
504.7705790230911
 21
541.25925972560276
 31
0.0
  0
LINE
  5
8CF6
  8
AM_0
 10
481.00648902309081
 20
539.4823497256026
 30
0.0
 11
516.57557902309122
 21
517.95591972560283
 31
0.0
  0
ARC
  5
8CF7
  8
AM_0
 10
481.01575902309082
 20
536.25925972560276
 30
0.0
 40
5.0
 50
90.00000299999769
 51
180.00001000000091
  0
ARC
  5
8CF8
  8
AM_0
 10
481.01575902309082
 20
534.04636972560274
 30
0.0
 40
5.0
 50
179.99998999999889
 51
238.817649999997
  0
LINE
  5
8CF9
  8
AM_0
 10
476.01575902309088
 20
534.04636972560274
 30
0.0
 11
476.01575902309088
 21
536.25925972560276
 31
0.0
  0
ARC
  5
8CFA
  8
AM_0
 10
504.7705790230911
 20
536.25925972560276
 30
0.0
 40
5.0
 50
53.744453000003212
 51
90.00000299999769
  0
POLYLINE
  5
8CFB
  8
AM_0
 66
     1
 10
0.0
 20
0.0
 30
0.0
  0
VERTEX
  5
8CFC
  8
AM_0
 10
509.16088902309082
 20
511.16849972560271
 30
0.0
 42
0.0020909347
  0
VERTEX
  5
8CFD
  8
AM_0
 10
510.1267390230912
 20
504.12798972560267
 30
0.0
 42
0.0020881749
  0
VERTEX
  5
8CFE
  8
AM_0
 10
511.15131902309111
 20
497.09636972560281
 30
0.0
 42
0.0020849591
  0
VERTEX
  5
8CFF
  8
AM_0
 10
512.2340890230912
 20
490.07651972560279
 30
0.0
  0
SEQEND
  5
8D00
  8
AM_0
  0
ARC
  5
8D01
  8
AM_0
 10
514.07734902309085
 20
502.34867972560312
 30
0.0
 40
5.0
 50
0.0
 51
58.817640999998339
  0
ARC
  5
8D02
  8
AM_0
 10
520.07734902309085
 20
502.78367972560272
 30
0.0
 40
8.0
 50
270.0
 51
0.0
  0
LINE
  5
8D03
  8
AM_0
 10
515.5951690230911
 20
488.6150997256031
 30
0.0
 11
519.07734902309085
 21
485.132859725603
 31
0.0
  0
ARC
  5
8D04
  8
AM_0
 10
512.05958902309101
 20
485.07956972560282
 30
0.0
 40
5.0
 50
45.000001000003799
 51
88.000000000002785
  0
LINE
  5
8D05
  8
AM_0
 10
541.07734902309085
 20
487.13279972560298
 30
0.0
 11
546.07734902309119
 21
487.13279972560298
 31
0.0
  0
LINE
  5
8D06
  8
AM_0
 10
507.72748902309081
 20
540.2911197256027
 30
0.0
 11
519.07734902309085
 21
531.96738972560297
 31
0.0
  0
LINE
  5
8D07
  8
AM_0
 10
546.07734902309119
 20
597.13279972560258
 30
0.0
 11
549.07728902309123
 21
597.13279972560258
 31
0.0
  0
ARC
  5
8D08
  8
AM_0
 10
520.07734902309085
 20
560.79612972560312
 30
0.0
 40
8.0
 50
270.0
 51
0.0
  0
LINE
  5
8D09
  8
AM_0
 10
396.0773490230913
 20
760.13279972560292
 30
0.0
 11
512.2340890230912
 21
764.18906972560285
 31
0.0
  0
POLYLINE
  5
8D0A
  8
AM_0
 66
     1
 10
0.0
 20
0.0
 30
0.0
  0
VERTEX
  5
8D0B
  8
AM_0
 10
302.34098902309142
 20
644.06251972560256
 30
0.0
 42
-0.03710785
  0
VERTEX
  5
8D0C
  8
AM_0
 10
306.61916902309122
 20
661.90873972560257
 30
0.0
 42
-0.032389942
  0
VERTEX
  5
8D0D
  8
AM_0
 10
313.32162902309079
 20
678.9972597256027
 30
0.0
 42
-0.029578822
  0
VERTEX
  5
8D0E
  8
AM_0
 10
322.07740902309081
 20
695.13279972560269
 30
0.0
  0
SEQEND
  5
8D0F
  8
AM_0
  0
ARC
  5
8D10
  8
AM_0
 10
325.07740902309109
 20
697.38651972560308
 30
0.0
 40
3.0
 50
91.999998000000545
 51
180.00001000000091
  0
ARC
  5
8D11
  8
AM_0
 10
319.07740902309092
 20
697.172709725603
 30
0.0
 40
3.0
 50
271.99999999999721
 51
0.0
  0
ARC
  5
8D12
  8
AM_0
 10
319.07740902309092
 20
647.64890972560295
 30
0.0
 40
3.0
 50
271.99999999999721
 51
0.0
  0
LINE
  5
8D13
  8
AM_0
 10
247.07740902309081
 20
669.991379725603
 30
0.0
 11
309.47101902309112
 21
669.991379725603
 31
0.0
  0
LINE
  5
8D14
  8
AM_0
 10
232.07740902309089
 20
678.63279972560269
 30
0.0
 11
313.15180902309112
 21
678.63279972560269
 31
0.0
  0
LINE
  5
8D15
  8
AM_0
 10
319.18213902309111
 20
644.65073972560299
 30
0.0
 11
249.97272902309109
 21
642.23386972560274
 31
0.0
  0
ARC
  5
8D16
  8
AM_0
 10
250.07740902309089
 20
639.23569972560301
 30
0.0
 40
3.0
 50
91.999998000000545
 51
180.00001000000091
  0
LINE
  5
8D17
  8
AM_0
 10
232.07740902309089
 20
665.99204972560301
 30
0.0
 11
247.07740902309081
 21
665.99204972560301
 31
0.0
  0
LINE
  5
8D18
  8
AM_0
 10
319.18213902309111
 20
694.1745397256027
 30
0.0
 11
232.07746902309071
 21
691.13279972560258
 31
0.0
  0
LINE
  5
8D19
  8
AM_0
 10
368.0773490230909
 20
640.36155972560277
 30
0.0
 11
368.0773490230909
 21
754.32651972560291
 31
0.0
  0
LINE
  5
8D1A
  8
AM_0
 10
396.0773490230913
 20
760.13279972560292
 30
0.0
 11
396.0773490230913
 21
632.13279972560269
 31
0.0
  0
ARC
  5
8D1B
  8
AM_0
 10
378.0773490230909
 20
627.13279972560269
 30
0.0
 40
12.5
 50
23.578179999997531
 51
156.42182000000241
  0
ARC
  5
8D1C
  8
AM_0
 10
363.07734902309107
 20
640.36155972560277
 30
0.0
 40
5.0
 50
318.59037000000109
 51
0.0
  0
LINE
  5
8D1D
  8
AM_0
 10
358.07734902309107
 20
632.13279972560269
 30
0.0
 11
398.0773490230909
 21
632.13279972560269
 31
0.0
  0
LINE
  5
8D1E
  8
AM_0
 10
358.07734902309107
 20
622.13279972560258
 30
0.0
 11
398.0773490230909
 21
622.13279972560258
 31
0.0
  0
ARC
  5
8D1F
  8
AM_0
 10
378.0773490230909
 20
627.13279972560269
 30
0.0
 40
15.0
 50
138.59037000000109
 51
160.52876999999921
  0
ARC
  5
8D20
  8
AM_0
 10
358.07734902309107
 20
627.13279972560269
 30
0.0
 40
5.0
 50
90.00000299999769
 51
270.0
  0
ARC
  5
8D21
  8
AM_0
 10
378.0773490230909
 20
627.13279972560269
 30
0.0
 40
15.0
 50
199.4712300000007
 51
221.4096299999988
  0
LINE
  5
8D22
  8
AM_0
 10
332.07734902309107
 20
666.60746972560253
 30
0.0
 11
347.57728902309128
 21
666.60746972560253
 31
0.0
  0
LINE
  5
8D23
  8
AM_0
 10
332.07734902309107
 20
688.7128097256026
 30
0.0
 11
347.57728902309128
 21
688.7128097256026
 31
0.0
  0
LINE
  5
8D24
  8
AM_0
 10
332.07740902309092
 20
666.60746972560253
 30
0.0
 11
322.07740902309081
 21
666.60746972560253
 31
0.0
  0
LINE
  5
8D25
  8
AM_0
 10
332.07740902309092
 20
688.71140972560306
 30
0.0
 11
322.07740902309081
 21
688.71140972560306
 31
0.0
  0
ARC
  5
8D26
  8
AM_0
 10
398.0773490230909
 20
627.13279972560269
 30
0.0
 40
5.0
 50
270.0
 51
90.00000299999769
  0
ARC
  5
8D27
  8
AM_0
 10
363.07734902309107
 20
743.96122972560283
 30
0.0
 40
5.0
 50
271.99999999999721
 51
0.0
  0
ARC
  5
8D28
  8
AM_0
 10
373.0773490230909
 20
754.32651972560291
 30
0.0
 40
5.0
 50
91.999998000000545
 51
180.00001000000091
  0
ARC
  5
8D29
  8
AM_0
 10
342.57728902309111
 20
706.00248972560257
 30
0.0
 40
5.0
 50
271.99999999999721
 51
0.0
  0
LINE
  5
8D2A
  8
AM_0
 10
332.07728902309111
 20
700.63279972560258
 30
0.0
 11
342.75184902309121
 21
701.00553972560306
 31
0.0
  0
LINE
  5
8D2B
  8
AM_0
 10
332.07734902309107
 20
700.63279972560258
 30
0.0
 11
324.97272902309112
 21
700.3846897256027
 31
0.0
  0
LINE
  5
8D2C
  8
AM_0
 10
363.25184902309121
 20
738.96427972560275
 30
0.0
 11
352.40278902309092
 21
738.58542972560269
 31
0.0
  0
ARC
  5
8D2D
  8
AM_0
 10
352.57728902309111
 20
733.58848972560293
 30
0.0
 40
5.0
 50
91.999998000000545
 51
180.00001000000091
  0
LINE
  5
8D2E
  8
AM_0
 10
396.07728902309128
 20
760.13279972560292
 30
0.0
 11
372.90284902309099
 21
759.32352972560284
 31
0.0
  0
POLYLINE
  5
8D2F
  8
AM_0
 66
     1
 10
0.0
 20
0.0
 30
0.0
  0
VERTEX
  5
8D30
  8
AM_0
 10
514.20246902309088
 20
764.25779972560292
 30
0.0
  0
VERTEX
  5
8D31
  8
AM_0
 10
510.9722090230909
 20
744.19328972560288
 30
0.0
 42
-1.0
  0
SEQEND
  5
8D32
  8
AM_0
  0
LINE
  5
8D33
  8
AM_0
 10
481.00641902309121
 20
714.78324972560301
 30
0.0
 11
516.57557902309122
 21
736.30967972560256
 31
0.0
  0
LINE
  5
8D34
  8
AM_0
 10
481.01575902309082
 20
713.00632972560254
 30
0.0
 11
504.7705790230911
 21
713.00632972560254
 31
0.0
  0
LINE
  5
8D35
  8
AM_0
 10
478.4268990230911
 20
724.4968097256027
 30
0.0
 11
516.66620902309046
 21
747.639209725603
 31
0.0
  0
ARC
  5
8D36
  8
AM_0
 10
481.01575902309082
 20
718.00632972560254
 30
0.0
 40
5.0
 50
179.99998999999889
 51
270.0
  0
ARC
  5
8D37
  8
AM_0
 10
481.01575902309082
 20
720.21915972560282
 30
0.0
 40
5.0
 50
121.18235999999619
 51
180.00001000000091
  0
LINE
  5
8D38
  8
AM_0
 10
476.01575902309088
 20
720.21915972560282
 30
0.0
 11
476.01575902309088
 21
718.00632972560254
 31
0.0
  0
LINE
  5
8D39
  8
AM_0
 10
546.07734902309119
 20
657.13279972560269
 30
0.0
 11
549.07728902309123
 21
657.13279972560269
 31
0.0
  0
ARC
  5
8D3A
  8
AM_0
 10
569.07734902309085
 20
627.13273972560307
 30
0.0
 40
8.0000113999999982
 50
90.00000299999769
 51
270.0
  0
LINE
  5
8D3B
  8
AM_0
 10
569.077289023091
 20
635.13279972560269
 30
0.0
 11
569.077289023091
 21
619.13273972560296
 31
0.0
  0
ARC
  5
8D3C
  8
AM_0
 10
520.07734902309085
 20
693.46940972560299
 30
0.0
 40
8.0
 50
0.0
 51
90.00000299999769
  0
LINE
  5
8D3D
  8
AM_0
 10
507.72748902309081
 20
713.97440972560298
 30
0.0
 11
519.07734902309085
 21
722.29819972560301
 31
0.0
  0
ARC
  5
8D3E
  8
AM_0
 10
504.7705790230911
 20
718.00632972560254
 30
0.0
 40
5.0
 50
270.0
 51
306.25554999999889
  0
ARC
  5
8D3F
  8
AM_0
 10
520.07734902309085
 20
751.48191972560301
 30
0.0
 40
8.0
 50
0.0
 51
90.00000299999769
  0
ARC
  5
8D40
  8
AM_0
 10
514.07734902309085
 20
751.91684972560279
 30
0.0
 40
5.0
 50
301.18235999999632
 51
0.0
  0
LINE
  5
8D41
  8
AM_0
 10
523.90290902309096
 20
791.53306972560301
 30
0.0
 11
541.07740902309081
 21
792.13279972560292
 31
0.0
  0
ARC
  5
8D42
  8
AM_0
 10
512.05958902309101
 20
769.18601972560282
 30
0.0
 40
5.0
 50
271.99999999999721
 51
315.0
  0
LINE
  5
8D43
  8
AM_0
 10
515.59510902309103
 20
765.65055972560276
 30
0.0
 11
519.07734902309085
 21
769.13279972560292
 31
0.0
  0
ARC
  5
8D44
  8
AM_0
 10
524.07734902309085
 20
786.53605972560285
 30
0.0
 40
5.0
 50
91.999998000000545
 51
180.00001000000091
  0
LINE
  5
8D45
  8
AM_0
 10
541.07734902309085
 20
767.13279972560292
 30
0.0
 11
546.07734902309119
 21
767.13279972560292
 31
0.0
  0
LINE
  5
8D46
  8
AM_0
 10
631.077289023091
 20
654.63279972560258
 30
0.0
 11
631.077289023091
 21
599.63279972560269
 31
0.0
  0
LINE
  5
8EBC
  8
AM_0
 10
203.07740902309089
 20
653.62277472560322
 30
0.0
 11
221.12312902309071
 21
653.62277472560322
 31
0.0
  0
LINE
  5
8EBD
  8
AM_0
 10
203.05738902309071
 20
660.5027747256031
 30
0.0
 11
220.89741902309069
 21
660.5027747256031
 31
0.0
  0
LINE
  5
8EBE
  8
AM_0
 10
217.4245790230909
 20
653.13278472560296
 30
0.0
 11
203.07740902309089
 21
653.13278472560296
 31
0.0
  0
LINE
  5
8EBF
  8
AM_0
 10
217.41743902309059
 20
661.13278472560296
 30
0.0
 11
203.07740902309089
 21
661.13278472560296
 31
0.0
  0
LINE
  5
8EC0
  8
AM_0
 10
203.05738902309071
 20
593.77279472560315
 30
0.0
 11
220.89741902309069
 21
593.77279472560315
 31
0.0
  0
LINE
  5
8EC1
  8
AM_0
 10
203.07740902309089
 20
600.65280472560312
 30
0.0
 11
221.11164902309071
 21
600.65280472560312
 31
0.0
  0
LINE
  5
8EC2
  8
AM_0
 10
217.41743902309059
 20
593.13278472560319
 30
0.0
 11
203.07740902309089
 21
593.13278472560319
 31
0.0
  0
LINE
  5
8EC3
  8
AM_0
 10
217.4102390230907
 20
601.13278472560319
 30
0.0
 11
203.07740902309089
 21
601.13278472560319
 31
0.0
  0
LINE
  5
8EC4
  8
AM_0
 10
204.59101902309081
 20
557.13278472560285
 30
0.0
 11
216.09358902309069
 21
557.13278472560285
 31
0.0
  0
LINE
  5
8EC5
  8
AM_0
 10
217.41743902309059
 20
591.13278472560296
 30
0.0
 11
173.07740902309069
 21
591.13278472560296
 31
0.0
  0
LINE
  5
8EC6
  8
AM_0
 10
173.07740902309069
 20
590.41281472560331
 30
0.0
 11
220.89741902309069
 21
590.41281472560331
 31
0.0
  0
LINE
  5
8EC7
  8
AM_0
 10
90.537429023090723
 20
603.57272472560328
 30
0.0
 11
221.11164902309071
 21
603.57272472560328
 31
0.0
  0
LINE
  5
8EC8
  8
AM_0
 10
217.4102390230907
 20
603.13278472560296
 30
0.0
 11
91.613059023090685
 21
603.13278472560296
 31
0.0
  0
LINE
  5
8EC9
  8
AM_0
 10
90.537429023090723
 20
650.70272472560328
 30
0.0
 11
221.11164902309071
 21
650.70272472560328
 31
0.0
  0
LINE
  5
8ECA
  8
AM_0
 10
90.747389023090776
 20
663.86276472560326
 30
0.0
 11
220.89741902309069
 21
663.86276472560326
 31
0.0
  0
LINE
  5
8ECB
  8
AM_0
 10
217.4102390230907
 20
651.13278472560319
 30
0.0
 11
91.627399023090973
 21
651.13278472560319
 31
0.0
  0
LINE
  5
8ECC
  8
AM_0
 10
217.41743902309059
 20
663.1327847256033
 30
0.0
 11
91.627399023090973
 21
663.1327847256033
 31
0.0
  0
LINE
  5
8ECD
  8
AM_0
 10
100.07740902309079
 20
691.02279472560315
 30
0.0
 11
218.59736902309069
 21
691.02279472560315
 31
0.0
  0
LINE
  5
8ECE
  8
AM_0
 10
100.07740902309079
 20
692.38278472560307
 30
0.0
 11
218.3050690230906
 21
692.38278472560307
 31
0.0
  0
LINE
  5
8ECF
  8
AM_0
 10
100.07740902309079
 20
693.05282472560305
 30
0.0
 11
218.16108902309071
 21
693.05282472560305
 31
0.0
  0
LINE
  5
8ED0
  8
AM_0
 10
100.07740902309079
 20
688.99276472560314
 30
0.0
 11
216.88740902309061
 21
688.99276472560314
 31
0.0
  0
LINE
  5
8ED1
  8
AM_0
 10
100.07740902309079
 20
565.27279472560315
 30
0.0
 11
216.88740902309061
 21
565.27279472560315
 31
0.0
  0
LINE
  5
8ED2
  8
AM_0
 10
118.07740902309079
 20
580.78280472560289
 30
0.0
 11
224.07740902309061
 21
580.78280472560289
 31
0.0
  0
LINE
  5
8ED3
  8
AM_0
 10
118.07740902309079
 20
673.48275472560294
 30
0.0
 11
224.07740902309061
 21
673.48275472560294
 31
0.0
  0
ARC
  5
8ED4
  8
AM_0
 10
210.57740902309041
 20
529.63278472560319
 30
0.0
 40
0.5
 50
270.0
 51
0.0
  0
LINE
  5
8ED5
  8
AM_0
 10
211.07740902309021
 20
533.1327847256033
 30
0.0
 11
202.70228275724349
 21
533.13278472560285
 31
0.0
  0
ARC
  5
8ED6
  8
AM_0
 10
210.07740902309041
 20
549.13278472560285
 30
0.0
 40
1.0
 50
0.0
 51
90.0
  0
LINE
  5
8ED7
  8
AM_0
 10
203.01197103322471
 20
552.63278472560341
 30
0.0
 11
203.34297902309069
 21
565.27285472560311
 31
0.0
  0
ARC
  5
8ED8
  8
AM_0
 10
141.40382902309071
 20
561.74276472560302
 30
0.0
 40
1.5
 50
1.5000027000022329
 51
90.000003000000945
  0
LINE
  5
8ED9
  8
AM_0
 10
143.14294252501111
 20
552.63278472560341
 30
0.0
 11
142.81190902309049
 21
565.27276472560311
 31
0.0
  0
ARC
  5
8EDA
  8
AM_0
 10
100.0783290230907
 20
565.24374472560328
 30
0.0
 40
2.0009109999999981
 50
180.00001000000091
 51
269.97390999999971
  0
LINE
  5
8EDB
  8
AM_0
 10
68.077409023090866
 20
567.1327847256033
 30
0.0
 11
68.077409023090866
 21
562.13278472560319
 31
0.0
  0
LINE
  5
8EDC
  8
AM_0
 10
65.077409023090866
 20
568.3827847256033
 30
0.0
 11
65.077409023090866
 21
562.13278472560319
 31
0.0
  0
LINE
  5
8EDD
  8
AM_0
 10
55.077409023090873
 20
568.3827847256033
 30
0.0
 11
55.077409023090873
 21
562.13278472560319
 31
0.0
  0
ARC
  5
8EDE
  8
AM_0
 10
30.575978923090808
 20
571.1327847256033
 30
0.0
 40
9.0
 50
179.99997999999781
 51
269.99995000000138
  0
LINE
  5
8EDF
  8
AM_0
 10
30.575978923090808
 20
562.13278472560319
 30
0.0
 11
68.077409023090866
 21
562.13278472560319
 31
0.0
  0
LINE
  5
8EE0
  8
AM_0
 10
206.57740902309089
 20
552.63278472560341
 30
0.0
 11
139.57740902309081
 21
552.63278472560341
 31
0.0
  0
LINE
  5
8EE1
  8
AM_0
 10
129.6022827572433
 20
550.13278472560376
 30
0.0
 11
210.07740902309041
 21
550.1327847256033
 31
0.0
  0
LINE
  5
8EE2
  8
AM_0
 10
126.4022827572428
 20
520.13278472560376
 30
0.0
 11
202.70228275724349
 21
533.13278472560285
 31
0.0
  0
LINE
  5
8EE3
  8
AM_0
 10
126.4022827572428
 20
520.13278472560376
 30
0.0
 11
202.70228275724349
 21
533.13278472560285
 31
0.0
  0
LINE
  5
8EE4
  8
AM_0
 10
203.0279778940847
 20
529.13278472560285
 30
0.0
 11
126.7279778940842
 21
516.13278472560376
 31
0.0
  0
LINE
  5
8EE5
  8
AM_0
 10
126.3208589730325
 20
521.13278472560376
 30
0.0
 11
158.2989287117646
 21
526.58121076234659
 31
0.0
  0
LINE
  5
8EE6
  8
AM_0
 10
202.20228275724381
 20
516.1327847256033
 30
0.0
 11
126.7279778940842
 21
516.13278472560376
 31
0.0
  0
ARC
  5
8EE7
  8
AM_0
 10
138.90228275724331
 20
533.13278472560376
 30
0.0
 40
9.2999999999997094
 50
180.0
 51
0.0
  0
LINE
  5
8EE8
  8
ﾁｭｳｼﾝｾﾝ
 10
127.9022827572433
 20
533.13278472560376
 30
0.0
 11
149.90228275724331
 21
533.13278472560376
 31
0.0
  0
LINE
  5
8EE9
  8
AM_0
 10
121.8022827572439
 20
525.13278472560376
 30
0.0
 11
121.8022827572441
 21
517.63278472560376
 31
0.0
  0
LINE
  5
8EEA
  8
AM_0
 10
122.30228275724291
 20
521.13278472560376
 30
0.0
 11
122.30228275724291
 21
517.63278472560376
 31
0.0
  0
ARC
  5
8EEB
  8
AM_0
 10
123.8022827572434
 20
517.63278472560376
 30
0.0
 40
1.499999999999998
 50
180.0
 51
270.0
  0
ARC
  5
8EEC
  8
AM_0
 10
123.302282757244
 20
517.63278472560376
 30
0.0
 40
1.5000000000001099
 50
180.0
 51
269.99999999999511
  0
LINE
  5
8EED
  8
AM_0
 10
123.8022827572434
 20
516.13278472560376
 30
0.0
 11
126.7279778940842
 21
516.13278472560376
 31
0.0
  0
LINE
  5
8EEE
  8
AM_0
 10
123.302282757244
 20
516.13278472560376
 30
0.0
 11
123.60076865340091
 21
516.13278472560376
 31
0.0
  0
LINE
  5
8EEF
  8
ﾁｭｳｼﾝｾﾝ
 10
138.90228275724331
 20
544.13278472560376
 30
0.0
 11
138.90228275724331
 21
522.13278472560376
 31
0.0
  0
LINE
  5
8EF0
  8
AM_0
 10
123.80228275724301
 20
549.13278472560376
 30
0.0
 11
123.8022827572432
 21
521.13278472560376
 31
0.0
  0
LINE
  5
8EF1
  8
AM_0
 10
129.6022827572433
 20
550.13278472560376
 30
0.0
 11
129.6022827572429
 21
533.13278472560376
 31
0.0
  0
LINE
  5
8EF2
  8
AM_0
 10
122.30228275724291
 20
520.13278472560376
 30
0.0
 11
126.4022827572428
 21
520.13278472560376
 31
0.0
  0
LINE
  5
8EF3
  8
AM_0
 10
122.6022827572436
 20
520.13278472560376
 30
0.0
 11
126.4022827572428
 21
520.13278472560376
 31
0.0
  0
LINE
  5
8EF4
  8
AM_0
 10
126.3208589730325
 20
521.13278472560376
 30
0.0
 11
122.30228275724291
 21
521.13278472560376
 31
0.0
  0
LINE
  5
8EF5
  8
AM_0
 10
123.80228275724311
 20
525.13278472560376
 30
0.0
 11
122.6022827572436
 21
525.13278472560376
 31
0.0
  0
LINE
  5
8EF6
  8
AM_0
 10
122.6022827572436
 20
525.13278472560376
 30
0.0
 11
121.8022827572439
 21
525.13278472560376
 31
0.0
  0
CIRCLE
  5
8EF7
  8
AM_0
 10
138.90228275724331
 20
533.13278472560376
 30
0.0
 40
6.2999999999996117
  0
LINE
  5
8EF8
  8
AM_0
 10
124.80228275724281
 20
550.13278472560376
 30
0.0
 11
129.6022827572433
 21
550.13278472560376
 31
0.0
  0
ARC
  5
8EF9
  8
AM_0
 10
124.80228275724281
 20
549.13278472560376
 30
0.0
 40
1.0
 50
90.0
 51
180.0
  0
LINE
  5
8EFA
  8
AM_0
 10
139.57740902309081
 20
552.63278472560341
 30
0.0
 11
139.57740902309081
 21
550.1327847256033
 31
0.0
  0
ARC
  5
8EFB
  8
AM_0
 10
202.20228275724381
 20
518.63278472560307
 30
0.0
 40
2.5
 50
270.0
 51
0.0
  0
LINE
  5
8EFC
  8
AM_0
 10
194.43243427626069
 20
516.1327847256033
 30
0.0
 11
194.43243427626069
 21
527.66827532807145
 31
0.0
  0
LINE
  5
8EFD
  8
AM_0
 10
178.80899084819669
 20
541.13278472560285
 30
0.0
 11
177.308990848197
 21
541.13278472560285
 31
0.0
  0
LINE
  5
8EFE
  8
AM_0
 10
178.80899084819669
 20
545.1327847256033
 30
0.0
 11
177.308990848197
 21
545.1327847256033
 31
0.0
  0
LINE
  5
8EFF
  8
AM_0
 10
148.20228275724301
 20
550.1327847256033
 30
0.0
 11
148.20228275724301
 21
533.1327847256033
 31
0.0
  0
LINE
  5
8F00
  8
AM_0
 10
177.308990848197
 20
545.1327847256033
 30
0.0
 11
177.3089908481968
 21
529.82014664404517
 31
0.0
  0
LINE
  5
8F01
  8
AM_0
 10
160.29892871176469
 20
526.92197091962078
 30
0.0
 11
160.29892871176469
 21
545.13278472560376
 31
0.0
  0
LINE
  5
8F02
  8
AM_0
 10
158.2989287117646
 20
545.1327847256033
 30
0.0
 11
158.2989287117646
 21
526.58121076234659
 31
0.0
  0
LINE
  5
8F03
  8
AM_0
 10
162.49892871176471
 20
545.1327847256033
 30
0.0
 11
162.49892871176471
 21
527.29680709262243
 31
0.0
  0
LINE
  5
8F04
  8
AM_0
 10
163.99892871176459
 20
527.55237721057767
 30
0.0
 11
163.99892871176459
 21
545.1327847256033
 31
0.0
  0
LINE
  5
8F05
  8
AM_0
 10
166.19892871176461
 20
545.1327847256033
 30
0.0
 11
166.19892871176461
 21
527.92721338357865
 31
0.0
  0
LINE
  5
8F06
  8
AM_0
 10
167.69892871176461
 20
528.182783501534
 30
0.0
 11
167.69892871176461
 21
545.1327847256033
 31
0.0
  0
LINE
  5
8F07
  8
AM_0
 10
169.90228275724201
 20
545.1327847256033
 30
0.0
 11
169.90228275724201
 21
528.55819113706718
 31
0.0
  0
LINE
  5
8F08
  8
AM_0
 10
171.90228275724519
 20
528.89895129434171
 30
0.0
 11
171.90228275724559
 21
545.13278472560603
 31
0.0
  0
LINE
  5
8F09
  8
AM_0
 10
173.6056368027194
 20
545.1327847256033
 30
0.0
 11
173.6056368027192
 21
529.18916889055652
 31
0.0
  0
LINE
  5
8F0A
  8
AM_0
 10
175.1056368027192
 20
529.44473900851165
 30
0.0
 11
175.1056368027194
 21
545.1327847256033
 31
0.0
  0
LINE
  5
8F0B
  8
AM_0
 10
160.29892871176469
 20
526.92197091962078
 30
0.0
 11
162.49892871176471
 21
527.29680709262243
 31
0.0
  0
LINE
  5
8F0C
  8
AM_0
 10
175.1056368027192
 20
529.44473900851165
 30
0.0
 11
177.3089908481968
 21
529.82014664404517
 31
0.0
  0
LINE
  5
8F0D
  8
AM_0
 10
163.99892871176459
 20
527.55237721057767
 30
0.0
 11
166.19892871176461
 21
527.92721338357865
 31
0.0
  0
LINE
  5
8F0E
  8
AM_0
 10
167.69892871176461
 20
528.182783501534
 30
0.0
 11
169.90228275724201
 21
528.55819113706718
 31
0.0
  0
LINE
  5
8F0F
  8
AM_0
 10
171.90228275724519
 20
528.89895129434171
 30
0.0
 11
173.6056368027192
 21
529.18916889055652
 31
0.0
  0
LINE
  5
8F10
  8
AM_0
 10
163.99892871176459
 20
541.13278472560285
 30
0.0
 11
162.49892871176471
 21
541.13278472560341
 31
0.0
  0
LINE
  5
8F11
  8
AM_0
 10
163.99892871176459
 20
545.1327847256033
 30
0.0
 11
162.49892871176471
 21
545.1327847256033
 31
0.0
  0
LINE
  5
8F12
  8
AM_0
 10
160.29892871176469
 20
545.13278472560376
 30
0.0
 11
158.2989287117646
 21
545.1327847256033
 31
0.0
  0
LINE
  5
8F13
  8
AM_0
 10
160.29892871176469
 20
541.13278472560341
 30
0.0
 11
158.2989287117646
 21
541.13278472560341
 31
0.0
  0
LINE
  5
8F14
  8
AM_0
 10
171.90228275724559
 20
541.13278472560285
 30
0.0
 11
169.90228275724201
 21
541.13278472560285
 31
0.0
  0
LINE
  5
8F15
  8
AM_0
 10
171.90228275724559
 20
545.1327847256033
 30
0.0
 11
169.90228275724201
 21
545.1327847256033
 31
0.0
  0
LINE
  5
8F16
  8
AM_0
 10
167.69892871176461
 20
545.1327847256033
 30
0.0
 11
166.19892871176461
 21
545.1327847256033
 31
0.0
  0
LINE
  5
8F17
  8
AM_0
 10
167.69892871176461
 20
541.13278472560285
 30
0.0
 11
166.19892871176461
 21
541.13278472560285
 31
0.0
  0
LINE
  5
8F18
  8
AM_0
 10
175.1056368027194
 20
545.1327847256033
 30
0.0
 11
173.6056368027194
 21
545.1327847256033
 31
0.0
  0
LINE
  5
8F19
  8
AM_0
 10
175.10563680271969
 20
541.13278472560285
 30
0.0
 11
173.6056368027194
 21
541.13278472560285
 31
0.0
  0
LINE
  5
8F1A
  8
AM_0
 10
181.012344893674
 20
545.1327847256033
 30
0.0
 11
181.0123448936738
 21
530.45112439753404
 31
0.0
  0
LINE
  5
8F1B
  8
AM_0
 10
182.512344893674
 20
530.70669451548963
 30
0.0
 11
182.512344893674
 21
545.1327847256033
 31
0.0
  0
LINE
  5
8F1C
  8
AM_0
 10
178.80899084819669
 20
530.07571676200064
 30
0.0
 11
178.80899084819669
 21
545.1327847256033
 31
0.0
  0
LINE
  5
8F1D
  8
AM_0
 10
184.7156989391512
 20
545.1327847256033
 30
0.0
 11
184.7156989391512
 21
531.08210215102304
 31
0.0
  0
LINE
  5
8F1E
  8
AM_0
 10
186.21569893915139
 20
531.33767226897839
 30
0.0
 11
186.21569893915139
 21
545.1327847256033
 31
0.0
  0
LINE
  5
8F1F
  8
AM_0
 10
196.0774090230903
 20
533.01791120857501
 30
0.0
 11
196.0774090230903
 21
550.1327847256033
 31
0.0
  0
LINE
  5
8F20
  8
AM_0
 10
186.21569893915139
 20
531.33767226897839
 30
0.0
 11
196.0774090230903
 21
533.01791120857501
 31
0.0
  0
LINE
  5
8F21
  8
AM_0
 10
182.512344893674
 20
530.70669451548963
 30
0.0
 11
184.7156989391512
 21
531.08210215102304
 31
0.0
  0
LINE
  5
8F22
  8
AM_0
 10
178.80899084819669
 20
530.07571676200064
 30
0.0
 11
181.0123448936738
 21
530.45112439753404
 31
0.0
  0
LINE
  5
8F23
  8
AM_0
 10
195.3022827572442
 20
527.81857949830555
 30
0.0
 11
195.30228275724409
 21
531.87197214368928
 31
0.0
  0
LINE
  5
8F24
  8
AM_0
 10
204.70228275724401
 20
528.6327847256033
 30
0.0
 11
204.70228275724401
 21
518.63278472560307
 31
0.0
  0
LINE
  5
8F25
  8
AM_0
 10
205.20228275724389
 20
529.13278472560285
 30
0.0
 11
210.57740902309041
 21
529.13278472560285
 31
0.0
  0
LINE
  5
8F26
  8
AM_0
 10
205.20228275724389
 20
529.13278472560285
 30
0.0
 11
203.0279778940847
 21
529.13278472560285
 31
0.0
  0
ARC
  5
8F27
  8
AM_0
 10
205.20228275724389
 20
528.6327847256033
 30
0.0
 40
0.5
 50
90.0
 51
180.0
  0
LINE
  5
8F28
  8
AM_0
 10
182.512344893674
 20
545.1327847256033
 30
0.0
 11
181.012344893674
 21
545.1327847256033
 31
0.0
  0
LINE
  5
8F29
  8
AM_0
 10
182.512344893674
 20
541.13278472560285
 30
0.0
 11
181.012344893674
 21
541.13278472560285
 31
0.0
  0
LINE
  5
8F2A
  8
AM_0
 10
186.21569893915139
 20
545.1327847256033
 30
0.0
 11
184.7156989391512
 21
545.1327847256033
 31
0.0
  0
LINE
  5
8F2B
  8
AM_0
 10
186.21569893915139
 20
541.13278472560285
 30
0.0
 11
184.7156989391512
 21
541.13278472560285
 31
0.0
  0
LINE
  5
8F2C
  8
AM_0
 10
206.57740902309089
 20
552.63278472560341
 30
0.0
 11
206.57740902309089
 21
550.1327847256033
 31
0.0
  0
ARC
  5
8F2D
  8
AM_0
 10
204.59101902309081
 20
555.63278472560285
 30
0.0
 40
1.5
 50
90.000003000000945
 51
178.49999999999719
  0
LINE
  5
8F2E
  8
AM_0
 10
77.077409023090866
 20
661.44283472560312
 30
0.0
 11
87.077409023090738
 21
661.44283472560312
 31
0.0
  0
LINE
  5
8F2F
  8
AM_0
 10
78.887409023090683
 20
572.03280472560311
 30
0.0
 11
88.680189023090691
 21
572.03280472560311
 31
0.0
  0
LINE
  5
8F30
  8
AM_0
 10
82.778029023090937
 20
565.46273472560313
 30
0.0
 11
96.82014902309092
 21
565.46273472560313
 31
0.0
  0
LINE
  5
8F31
  8
AM_0
 10
77.077409023090866
 20
578.78280472560311
 30
0.0
 11
87.077409023090738
 21
578.78280472560311
 31
0.0
  0
LINE
  5
8F32
  8
AM_0
 10
77.077409023090866
 20
584.44283472560312
 30
0.0
 11
87.077409023090738
 21
584.44283472560312
 31
0.0
  0
LINE
  5
8F33
  8
AM_0
 10
77.077409023090866
 20
592.83273472560313
 30
0.0
 11
87.077409023090738
 21
592.83273472560313
 31
0.0
  0
LINE
  5
8F34
  8
AM_0
 10
81.407429023090828
 20
610.79281472560331
 30
0.0
 11
153.7486790230906
 21
610.79281472560331
 31
0.0
  0
LINE
  5
8F35
  8
AM_0
 10
152.5194890230905
 20
611.13278472560296
 30
0.0
 11
82.627399023090959
 21
611.13278472560296
 31
0.0
  0
LINE
  5
8F36
  8
AM_0
 10
152.5194890230905
 20
613.1327847256033
 30
0.0
 11
82.627399023090959
 21
613.1327847256033
 31
0.0
  0
LINE
  5
8F37
  8
AM_0
 10
152.5194890230905
 20
623.13278472560296
 30
0.0
 11
82.627399023090959
 21
623.13278472560296
 31
0.0
  0
LINE
  5
8F38
  8
AM_0
 10
81.347429023090683
 20
623.40280472560312
 30
0.0
 11
153.81251902309091
 21
623.40280472560312
 31
0.0
  0
LINE
  5
8F39
  8
AM_0
 10
81.347429023090683
 20
630.87277472560322
 30
0.0
 11
153.81251902309091
 21
630.87277472560322
 31
0.0
  0
LINE
  5
8F3A
  8
AM_0
 10
81.347429023090683
 20
633.4128147256032
 30
0.0
 11
153.81251902309091
 21
633.4128147256032
 31
0.0
  0
LINE
  5
8F3B
  8
AM_0
 10
81.407429023090828
 20
640.81283472560312
 30
0.0
 11
153.7360990230909
 21
640.81283472560312
 31
0.0
  0
LINE
  5
8F3C
  8
AM_0
 10
81.407429023090828
 20
643.48275472560306
 30
0.0
 11
153.7486790230906
 21
643.48275472560306
 31
0.0
  0
LINE
  5
8F3D
  8
AM_0
 10
152.5194890230905
 20
631.13278472560307
 30
0.0
 11
82.627399023090959
 21
631.13278472560307
 31
0.0
  0
LINE
  5
8F3E
  8
AM_0
 10
152.5194890230905
 20
633.1327847256033
 30
0.0
 11
82.627399023090959
 21
633.1327847256033
 31
0.0
  0
LINE
  5
8F3F
  8
AM_0
 10
152.51612902309071
 20
641.1327847256033
 30
0.0
 11
82.627399023090959
 21
641.1327847256033
 31
0.0
  0
LINE
  5
8F40
  8
AM_0
 10
152.51612902309071
 20
643.13278472560319
 30
0.0
 11
82.627399023090959
 21
643.13278472560319
 31
0.0
  0
LINE
  5
8F41
  8
AM_0
 10
81.347429023090683
 20
620.86276472560326
 30
0.0
 11
153.81251902309091
 21
620.86276472560326
 31
0.0
  0
LINE
  5
8F42
  8
AM_0
 10
81.407429023090828
 20
613.45272472560316
 30
0.0
 11
153.7486790230906
 21
613.45272472560316
 31
0.0
  0
LINE
  5
8F43
  8
AM_0
 10
152.5194890230905
 20
621.1327847256033
 30
0.0
 11
82.627399023090959
 21
621.1327847256033
 31
0.0
  0
ARC
  5
8F44
  8
AM_0
 10
83.214249023090744
 20
567.46334472560329
 30
0.0
 40
2.0005671999999981
 50
193.3095899999955
 51
269.80430999999942
  0
LINE
  5
8F45
  8
AM_0
 10
78.887409023090683
 20
682.23275472560317
 30
0.0
 11
88.680189023090691
 21
682.23275472560317
 31
0.0
  0
LINE
  5
8F46
  8
AM_0
 10
77.077409023090866
 20
675.48275472560329
 30
0.0
 11
87.077409023090738
 21
675.48275472560329
 31
0.0
  0
LINE
  5
8F47
  8
AM_0
 10
77.077409023090866
 20
669.82272472560305
 30
0.0
 11
87.077409023090738
 21
669.82272472560305
 31
0.0
  0
ARC
  5
8F48
  8
AM_0
 10
83.207659023090685
 20
686.81051472560307
 30
0.0
 40
1.9922863
 50
90.007721000000544
 51
166.8783899999971
  0
ARC
  5
8F49
  8
AM_0
 10
83.182269023090669
 20
688.43820472560321
 30
0.0
 40
1.994612099999999
 50
89.851991999999015
 51
165.93886000000381
  0
LINE
  5
8F4A
  8
AM_0
 10
77.077409023090866
 20
685.8827847256033
 30
0.0
 11
77.077409023090866
 21
627.13278472560296
 31
0.0
  0
LINE
  5
8F4B
  8
AM_0
 10
29.577409023090851
 20
574.35079472560324
 30
0.0
 11
29.577409023090851
 21
679.88278472560285
 31
0.0
  0
LINE
  5
8F4C
  8
AM_0
 10
21.575978923090808
 20
683.1327847256033
 30
0.0
 11
21.575978923090808
 21
571.1327847256033
 31
0.0
  0
LINE
  5
8F4D
  8
AM_0
 10
26.575978923090808
 20
661.87124582131025
 30
0.0
 11
26.575978923090808
 21
592.39432362989555
 31
0.0
  0
LINE
  5
8F4E
  8
AM_0
 10
27.077409023090851
 20
592.60372472560312
 30
0.0
 11
27.077409023090851
 21
661.66183472560317
 31
0.0
  0
LINE
  5
8F4F
  8
AM_0
 10
72.077409023090866
 20
589.94772472560305
 30
0.0
 11
72.077409023090866
 21
664.31881472560303
 31
0.0
  0
LINE
  5
8F50
  8
AM_0
 10
77.077409023090866
 20
568.38278472560296
 30
0.0
 11
77.077409023090866
 21
627.13278472560296
 31
0.0
  0
LINE
  5
8F51
  8
AM_0
 10
29.577409023090851
 20
593.49179472560309
 30
0.0
 11
72.077409023090866
 21
593.49179472560309
 31
0.0
  0
LINE
  5
8F52
  8
AM_0
 10
29.577409023090851
 20
583.24179472560309
 30
0.0
 11
72.077409023090866
 21
583.24179472560309
 31
0.0
  0
LINE
  5
8F53
  8
AM_0
 10
31.575978923090808
 20
567.1327847256033
 30
0.0
 11
55.077409023090873
 21
567.1327847256033
 31
0.0
  0
LINE
  5
8F54
  8
AM_0
 10
29.077409023090858
 20
574.38278472560319
 30
0.0
 11
77.077409023090866
 21
574.38278472560319
 31
0.0
  0
ARC
  5
8F55
  8
AM_0
 10
27.97743902309076
 20
586.74179472560286
 30
0.0
 40
3.0
 50
179.99997999999781
 51
269.99995000000138
  0
LINE
  5
8F56
  8
AM_0
 10
28.277419023090768
 20
592.8417647256033
 30
0.0
 11
28.277419023090768
 21
583.64181472560313
 31
0.0
  0
ARC
  5
8F57
  8
AM_0
 10
29.077409023090858
 20
576.38278472560296
 30
0.0
 40
2.0
 50
179.99997999999781
 51
269.99995000000138
  0
LINE
  5
8F58
  8
AM_0
 10
26.575978923090808
 20
584.08926582131028
 30
0.0
 11
26.575978923090808
 21
572.13278472560319
 31
0.0
  0
ARC
  5
8F59
  8
AM_0
 10
31.575978923090808
 20
572.13278472560319
 30
0.0
 40
5.0
 50
179.99997999999781
 51
269.99995000000138
  0
LINE
  5
8F5A
  8
AM_0
 10
27.077409023090851
 20
583.87985472560331
 30
0.0
 11
27.077409023090851
 21
576.38278472560296
 31
0.0
  0
LINE
  5
8F5B
  8
AM_0
 10
27.97743902309076
 20
583.74179472560309
 30
0.0
 11
28.277419023090768
 21
583.74179472560309
 31
0.0
  0
LINE
  5
8F5C
  8
AM_0
 10
28.277419023090768
 20
583.64181472560313
 30
0.0
 11
29.577409023090851
 21
583.64181472560313
 31
0.0
  0
ARC
  5
8F5D
  8
AM_0
 10
27.97743902309076
 20
589.74179472560286
 30
0.0
 40
3.0
 50
89.999988999997569
 51
179.99997999999781
  0
LINE
  5
8F5E
  8
AM_0
 10
24.977439023090771
 20
589.74179472560286
 30
0.0
 11
24.977439023090771
 21
586.74179472560286
 31
0.0
  0
LINE
  5
8F5F
  8
AM_0
 10
27.97743902309076
 20
592.74179472560309
 30
0.0
 11
28.277419023090768
 21
592.74179472560309
 31
0.0
  0
LINE
  5
8F60
  8
AM_0
 10
28.277419023090768
 20
592.8417647256033
 30
0.0
 11
29.577409023090851
 21
592.8417647256033
 31
0.0
  0
LINE
  5
8F61
  8
AM_0
 10
52.077409023090873
 20
568.3827847256033
 30
0.0
 11
77.077409023090866
 21
568.3827847256033
 31
0.0
  0
LINE
  5
8F62
  8
AM_0
 10
65.077409023090866
 20
567.1327847256033
 30
0.0
 11
68.077409023090866
 21
567.1327847256033
 31
0.0
  0
LINE
  5
8F63
  8
AM_0
 10
52.077409023090873
 20
568.3827847256033
 30
0.0
 11
52.077409023090873
 21
574.38278472560319
 31
0.0
  0
LINE
  5
8F64
  8
AM_0
 10
80.838759023090859
 20
566.97381472560312
 30
0.0
 11
80.357439023090777
 21
568.88284472560304
 31
0.0
  0
LINE
  5
8F65
  8
AM_0
 10
81.267409023090693
 20
567.00274472560295
 30
0.0
 11
80.347429023090669
 21
570.882814725603
 31
0.0
  0
ARC
  5
8F66
  8
AM_0
 10
82.778029023090937
 20
567.46273472560313
 30
0.0
 40
2.0
 50
194.1507499999995
 51
269.999989999999
  0
ARC
  5
8F67
  8
AM_0
 10
78.890639023090699
 20
570.53512472560317
 30
0.0
 40
1.497715799999999
 50
13.42437900000278
 51
90.122645000001114
  0
LINE
  5
8F68
  8
AM_0
 10
77.077409023090866
 20
569.70281472560316
 30
0.0
 11
79.897419023090563
 21
569.64282472560296
 31
0.0
  0
LINE
  5
8F69
  8
AM_0
 10
78.907429023090728
 20
570.01278472560296
 30
0.0
 11
80.557389023090707
 21
570.01278472560296
 31
0.0
  0
ARC
  5
8F6A
  8
AM_0
 10
78.905109023090688
 20
568.51449472560307
 30
0.0
 40
1.4982997
 50
14.229740000004741
 51
89.910950000001222
  0
LINE
  5
8F6B
  8
AM_0
 10
72.077409023090866
 20
583.24179472560309
 30
0.0
 11
72.077409023090866
 21
574.38278472560319
 31
0.0
  0
LINE
  5
8F6C
  8
AM_0
 10
20.577439023090839
 20
622.13278472560319
 30
0.0
 11
20.577439023090839
 21
632.13278472560296
 31
0.0
  0
LINE
  5
8F6D
  8
AM_0
 10
21.575978923090808
 20
622.13278472560319
 30
0.0
 11
20.577439023090839
 21
622.13278472560319
 31
0.0
  0
LINE
  5
8F6E
  8
AM_0
 10
27.077409023090851
 20
622.13278472560319
 30
0.0
 11
26.575978923090808
 21
622.13278472560319
 31
0.0
  0
LINE
  5
8F6F
  8
AM_0
 10
21.575978923090808
 20
632.13278472560296
 30
0.0
 11
20.577439023090839
 21
632.13278472560296
 31
0.0
  0
LINE
  5
8F70
  8
AM_0
 10
27.077409023090851
 20
632.13278472560296
 30
0.0
 11
26.575978923090808
 21
632.13278472560296
 31
0.0
  0
ARC
  5
8F71
  8
AM_0
 10
81.401139023090707
 20
612.12277472560322
 30
0.0
 40
1.3300148000000001
 50
89.729417999999583
 51
270.27058999999991
  0
ARC
  5
8F72
  8
AM_0
 10
82.627399023090959
 20
612.1327847256033
 30
0.0
 40
1.0000056999999991
 50
90.000003000000945
 51
270.0
  0
ARC
  5
8F73
  8
AM_0
 10
81.339189023090654
 20
622.13278472560319
 30
0.0
 40
1.2700266
 50
89.629320999999507
 51
270.3706899999986
  0
ARC
  5
8F74
  8
AM_0
 10
82.627399023090959
 20
622.13278472560319
 30
0.0
 40
1.0000056999999991
 50
90.000003000000945
 51
270.0
  0
ARC
  5
8F75
  8
AM_0
 10
81.339189023090654
 20
632.14279472560315
 30
0.0
 40
1.2700266
 50
89.629327999999504
 51
270.37065999999959
  0
ARC
  5
8F76
  8
AM_0
 10
82.627399023090959
 20
632.13278472560296
 30
0.0
 40
1.0000056999999991
 50
90.000003000000945
 51
270.0
  0
ARC
  5
8F77
  8
AM_0
 10
81.401139023090707
 20
642.14779472560326
 30
0.0
 40
1.3350147999999991
 50
89.730435000000341
 51
270.26956999999999
  0
ARC
  5
8F78
  8
AM_0
 10
82.627399023090959
 20
642.1327847256033
 30
0.0
 40
1.0000056999999991
 50
90.000003000000945
 51
270.0
  0
LINE
  5
8F79
  8
AM_0
 10
29.577409023090851
 20
671.02377472560295
 30
0.0
 11
72.077409023090866
 21
671.02377472560295
 31
0.0
  0
LINE
  5
8F7A
  8
AM_0
 10
30.575978923090808
 20
692.13278472560319
 30
0.0
 11
68.077409023090866
 21
692.13278472560319
 31
0.0
  0
LINE
  5
8F7B
  8
AM_0
 10
31.575978923090808
 20
687.1327847256033
 30
0.0
 11
55.077409023090873
 21
687.1327847256033
 31
0.0
  0
LINE
  5
8F7C
  8
AM_0
 10
29.077409023090858
 20
679.88278472560285
 30
0.0
 11
77.077409023090866
 21
679.88278472560285
 31
0.0
  0
LINE
  5
8F7D
  8
AM_0
 10
29.577409023090851
 20
660.77377472560295
 30
0.0
 11
72.077409023090866
 21
660.77377472560295
 31
0.0
  0
LINE
  5
8F7E
  8
AM_0
 10
27.077409023090851
 20
670.38571472560295
 30
0.0
 11
27.077409023090851
 21
677.88278472560285
 31
0.0
  0
LINE
  5
8F7F
  8
AM_0
 10
26.575978923090808
 20
670.17630362989576
 30
0.0
 11
26.575978923090808
 21
682.13278472560285
 31
0.0
  0
ARC
  5
8F80
  8
AM_0
 10
27.97743902309076
 20
664.52377472560306
 30
0.0
 40
3.0
 50
180.00002000000191
 51
270.00001100000242
  0
LINE
  5
8F81
  8
AM_0
 10
28.277419023090768
 20
661.42380472560296
 30
0.0
 11
28.277419023090768
 21
670.62375472560302
 31
0.0
  0
LINE
  5
8F82
  8
AM_0
 10
27.97743902309076
 20
661.52377472560295
 30
0.0
 11
28.277419023090768
 21
661.52377472560295
 31
0.0
  0
LINE
  5
8F83
  8
AM_0
 10
28.277419023090768
 20
661.42380472560296
 30
0.0
 11
29.577409023090851
 21
661.42380472560296
 31
0.0
  0
ARC
  5
8F84
  8
AM_0
 10
27.97743902309076
 20
667.52377472560295
 30
0.0
 40
3.0
 50
90.000049999998538
 51
180.00002000000191
  0
LINE
  5
8F85
  8
AM_0
 10
24.977439023090771
 20
664.52377472560306
 30
0.0
 11
24.977439023090771
 21
667.52377472560295
 31
0.0
  0
LINE
  5
8F86
  8
AM_0
 10
27.97743902309076
 20
670.52377472560295
 30
0.0
 11
28.277419023090768
 21
670.52377472560295
 31
0.0
  0
LINE
  5
8F87
  8
AM_0
 10
28.277419023090768
 20
670.62375472560302
 30
0.0
 11
29.577409023090851
 21
670.62375472560302
 31
0.0
  0
ARC
  5
8F88
  8
AM_0
 10
31.575978923090808
 20
682.13278472560296
 30
0.0
 40
5.0
 50
89.999988999997569
 51
180.0
  0
ARC
  5
8F89
  8
AM_0
 10
30.575978923090808
 20
683.1327847256033
 30
0.0
 40
9.0
 50
89.999988999997569
 51
179.99997999999781
  0
ARC
  5
8F8A
  8
AM_0
 10
29.077409023090858
 20
677.88278472560285
 30
0.0
 40
2.0
 50
90.000049999998538
 51
180.00002000000191
  0
LINE
  5
8F8B
  8
AM_0
 10
72.077409023090866
 20
671.02377472560295
 30
0.0
 11
72.077409023090866
 21
679.88278472560285
 31
0.0
  0
LINE
  5
8F8C
  8
AM_0
 10
52.077409023090873
 20
685.88278472560285
 30
0.0
 11
77.077409023090866
 21
685.88278472560285
 31
0.0
  0
LINE
  5
8F8D
  8
AM_0
 10
65.077409023090866
 20
687.1327847256033
 30
0.0
 11
68.077409023090866
 21
687.1327847256033
 31
0.0
  0
LINE
  5
8F8E
  8
AM_0
 10
52.077409023090873
 20
685.88278472560285
 30
0.0
 11
52.077409023090873
 21
679.88278472560285
 31
0.0
  0
LINE
  5
8F8F
  8
AM_0
 10
55.077409023090873
 20
685.8827847256033
 30
0.0
 11
55.077409023090873
 21
692.13278472560319
 31
0.0
  0
LINE
  5
8F90
  8
AM_0
 10
65.077409023090866
 20
685.8827847256033
 30
0.0
 11
65.077409023090866
 21
692.13278472560319
 31
0.0
  0
ARC
  5
8F91
  8
AM_0
 10
78.896989023090939
 20
685.75814472560307
 30
0.0
 40
1.505448699999999
 50
270.39686999999981
 51
345.9524700000004
  0
LINE
  5
8F92
  8
AM_0
 10
81.267409023090693
 20
687.26278472560318
 30
0.0
 11
80.347369023090934
 21
683.39279472560315
 31
0.0
  0
LINE
  5
8F93
  8
AM_0
 10
77.077409023090866
 20
684.56277472560305
 30
0.0
 11
79.897419023090563
 21
684.63278472560319
 31
0.0
  0
LINE
  5
8F94
  8
AM_0
 10
78.907429023090728
 20
684.25277472560288
 30
0.0
 11
80.557389023090707
 21
684.25277472560288
 31
0.0
  0
ARC
  5
8F95
  8
AM_0
 10
78.882589023090702
 20
683.73763472560313
 30
0.0
 40
1.5048382
 50
270.18264000000067
 51
346.75308000000121
  0
LINE
  5
8F96
  8
AM_0
 10
68.077409023090866
 20
687.1327847256033
 30
0.0
 11
68.077409023090866
 21
692.13278472560319
 31
0.0
  0
LINE
  5
8F97
  8
AM_0
 10
81.247389023090733
 20
688.92281472560296
 30
0.0
 11
80.357379023090687
 21
685.39279472560315
 31
0.0
  0
ARC
  5
8F98
  8
AM_0
 10
90.531699023090766
 20
652.1628147256032
 30
0.0
 40
1.460011199999999
 50
89.775248000001227
 51
270.22474000000028
  0
ARC
  5
8F99
  8
AM_0
 10
91.620259023090682
 20
652.13278472560296
 30
0.0
 40
1.0000255999999981
 50
89.589474000000749
 51
270.41051999999962
  0
ARC
  5
8F9A
  8
AM_0
 10
99.070209023091081
 20
652.13278472560296
 30
0.0
 40
1.0000259
 50
89.587534000000232
 51
270.4124599999987
  0
LINE
  5
8F9B
  8
AM_0
 10
185.0774090230905
 20
601.13278472560319
 30
0.0
 11
91.613059023090685
 21
601.13278472560319
 31
0.0
  0
LINE
  5
8F9C
  8
AM_0
 10
185.0774090230905
 20
593.13278472560319
 30
0.0
 11
91.613059023090685
 21
593.13278472560319
 31
0.0
  0
LINE
  5
8F9D
  8
AM_0
 10
90.537429023090723
 20
600.65280472560312
 30
0.0
 11
185.0774090230905
 21
600.65280472560312
 31
0.0
  0
LINE
  5
8F9E
  8
AM_0
 10
90.747389023090776
 20
590.41281472560331
 30
0.0
 11
173.07740902309069
 21
590.41281472560331
 31
0.0
  0
LINE
  5
8F9F
  8
AM_0
 10
173.07740902309069
 20
591.13278472560296
 30
0.0
 11
91.613059023090685
 21
591.13278472560296
 31
0.0
  0
LINE
  5
8FA0
  8
AM_0
 10
90.747389023090776
 20
593.77279472560315
 30
0.0
 11
185.0974290230908
 21
593.77279472560315
 31
0.0
  0
LINE
  5
8FA1
  8
AM_0
 10
100.07740902309079
 20
563.24276472560291
 30
0.0
 11
141.40382902309071
 21
563.24276472560291
 31
0.0
  0
LINE
  5
8FA2
  8
AM_0
 10
118.0774690230909
 20
580.78286472560296
 30
0.0
 11
87.0774690230907
 21
582.81286472560328
 31
0.0
  0
ARC
  5
8FA3
  8
AM_0
 10
86.697099023090857
 20
589.47811472560295
 30
0.0
 40
6.0073843
 50
273.6297400000006
 51
314.76385000000278
  0
LINE
  5
8FA4
  8
AM_0
 10
87.077409023090738
 20
578.78280472560311
 30
0.0
 11
87.077409023090738
 21
592.83273472560313
 31
0.0
  0
ARC
  5
8FA5
  8
AM_0
 10
100.0774690230907
 20
567.27279472560315
 30
0.0
 40
2.0000371999999991
 50
180.0010599999959
 51
269.99892999999958
  0
ARC
  5
8FA6
  8
AM_0
 10
96.575459023090687
 20
572.65084472560295
 30
0.0
 40
1.501982699999999
 50
0.075587202000581
 51
89.924413000001564
  0
ARC
  5
8FA7
  8
AM_0
 10
91.036819023090686
 20
576.13802472560315
 30
0.0
 40
1.9952742999999991
 50
189.96478000000039
 51
269.85141999999968
  0
LINE
  5
8FA8
  8
AM_0
 10
89.021689023090687
 20
570.44283472560312
 30
0.0
 11
88.061729023090564
 21
574.91281472560308
 31
0.0
  0
LINE
  5
8FA9
  8
AM_0
 10
90.77503902309077
 20
568.87277472560322
 30
0.0
 11
96.577409023090866
 21
568.87277472560322
 31
0.0
  0
ARC
  5
8FAA
  8
AM_0
 10
90.974749023090951
 20
570.85983472560292
 30
0.0
 40
1.997119399999999
 50
192.05524000000159
 51
270.19862999999867
  0
ARC
  5
8FAB
  8
AM_0
 10
96.574299023090745
 20
567.36959472560295
 30
0.0
 40
1.503128599999999
 50
0.119129649995689
 51
89.880869999998822
  0
LINE
  5
8FAC
  8
AM_0
 10
98.077409023090866
 20
565.24374472560328
 30
0.0
 11
98.077409023090866
 21
572.65280472560312
 31
0.0
  0
ARC
  5
8FAD
  8
AM_0
 10
96.82014902309092
 20
563.96273472560324
 30
0.0
 40
1.5
 50
21.461709000003811
 51
90.000003000000945
  0
LINE
  5
8FAE
  8
AM_0
 10
90.837239023090717
 20
574.15280472560312
 30
0.0
 11
96.577409023090866
 21
574.15280472560312
 31
0.0
  0
LINE
  5
8FAF
  8
AM_0
 10
88.286639023090686
 20
580.13943472560322
 30
0.0
 11
89.071669023090706
 21
575.79275472560312
 31
0.0
  0
LINE
  5
8FB0
  8
AM_0
 10
86.591689023090723
 20
576.0927447256031
 30
0.0
 11
89.011679023090807
 21
576.0927447256031
 31
0.0
  0
ARC
  5
8FB1
  8
AM_0
 10
86.5942590230907
 20
574.59042472560316
 30
0.0
 40
1.502416299999999
 50
12.391887000000411
 51
90.098616999999123
  0
ARC
  5
8FB2
  8
AM_0
 10
86.810569023090537
 20
579.87277472560322
 30
0.0
 40
1.5
 50
10.237378999998841
 51
79.752109999998723
  0
ARC
  5
8FB3
  8
AM_0
 10
99.070209023091081
 20
592.1327847256033
 30
0.0
 40
1.0000259
 50
89.587534000000232
 51
270.4124599999987
  0
ARC
  5
8FB4
  8
AM_0
 10
99.070209023091081
 20
602.13278472560296
 30
0.0
 40
1.0000259
 50
89.587534000000232
 51
270.4124599999987
  0
ARC
  5
8FB5
  8
AM_0
 10
86.240249023090726
 20
585.54427472560326
 30
0.0
 40
4.9991421999999961
 50
5.3780268999994201
 51
80.360064999999054
  0
ARC
  5
8FB6
  8
AM_0
 10
90.218219023090825
 20
585.92245472560296
 30
0.0
 40
1.0032491999999991
 50
314.98118999999758
 51
5.1676434000008573
  0
ARC
  5
8FB7
  8
AM_0
 10
91.620259023090682
 20
592.1327847256033
 30
0.0
 40
1.0000255999999981
 50
89.589474000000749
 51
270.41051999999962
  0
ARC
  5
8FB8
  8
AM_0
 10
90.747389023090776
 20
592.08273472560313
 30
0.0
 40
1.6800002000000001
 50
90.000003000000945
 51
270.0
  0
ARC
  5
8FB9
  8
AM_0
 10
90.531699023090766
 20
602.10275472560295
 30
0.0
 40
1.460011199999999
 50
89.775248000001227
 51
270.22474000000028
  0
ARC
  5
8FBA
  8
AM_0
 10
91.620259023090682
 20
602.13278472560296
 30
0.0
 40
1.0000255999999981
 50
89.589474000000749
 51
270.41051999999962
  0
ARC
  5
8FBB
  8
AM_0
 10
99.070209023091081
 20
612.1327847256033
 30
0.0
 40
1.0000259
 50
89.587534000000232
 51
270.4124599999987
  0
ARC
  5
8FBC
  8
AM_0
 10
99.070209023091081
 20
622.13278472560319
 30
0.0
 40
1.0000259
 50
89.587534000000232
 51
270.4124599999987
  0
ARC
  5
8FBD
  8
AM_0
 10
99.070209023091081
 20
642.1327847256033
 30
0.0
 40
1.0000259
 50
89.587534000000232
 51
270.4124599999987
  0
ARC
  5
8FBE
  8
AM_0
 10
99.070209023091081
 20
632.13278472560296
 30
0.0
 40
1.0000259
 50
89.587534000000232
 51
270.4124599999987
  0
LINE
  5
8FBF
  8
AM_0
 10
186.0974290230908
 20
599.6327847256033
 30
0.0
 11
186.0974290230908
 21
594.77279472560326
 31
0.0
  0
LINE
  5
8FC0
  8
AM_0
 10
186.57740902309069
 20
599.6327847256033
 30
0.0
 11
186.57740902309069
 21
594.63278472560296
 31
0.0
  0
ARC
  5
8FC1
  8
AM_0
 10
185.0774090230905
 20
594.63278472560296
 30
0.0
 40
1.5
 50
269.999989999999
 51
0.0000006832495047
  0
ARC
  5
8FC2
  8
AM_0
 10
185.0974290230908
 20
594.77279472560326
 30
0.0
 40
1.0
 50
269.999989999999
 51
0.0000006832495047
  0
ARC
  5
8FC3
  8
AM_0
 10
185.0774090230905
 20
599.6327847256033
 30
0.0
 40
1.5
 50
0.0
 51
90.000003000000945
  0
ARC
  5
8FC4
  8
AM_0
 10
185.0774090230905
 20
599.6327847256033
 30
0.0
 40
1.02
 50
0.0
 51
90.000003000000945
  0
CIRCLE
  5
8FC5
  8
AM_0
 10
191.57740902309069
 20
598.63278472560296
 30
0.0
 40
1.149999999999999
  0
CIRCLE
  5
8FC6
  8
AM_0
 10
191.57740902309069
 20
598.63278472560296
 30
0.0
 40
1.1000000000000001
  0
LINE
  5
8FC7
  8
AM_0
 10
202.05738902309071
 20
599.6327847256033
 30
0.0
 11
202.05738902309071
 21
594.77279472560326
 31
0.0
  0
LINE
  5
8FC8
  8
AM_0
 10
201.57740902309069
 20
599.6327847256033
 30
0.0
 11
201.57740902309069
 21
594.63278472560296
 31
0.0
  0
ARC
  5
8FC9
  8
AM_0
 10
203.07740902309089
 20
594.63278472560296
 30
0.0
 40
1.5
 50
179.99998999999889
 51
270.0
  0
ARC
  5
8FCA
  8
AM_0
 10
203.05738902309071
 20
594.77279472560326
 30
0.0
 40
1.0
 50
179.99998999999889
 51
270.0
  0
ARC
  5
8FCB
  8
AM_0
 10
203.07740902309089
 20
599.6327847256033
 30
0.0
 40
1.02
 50
90.000003000000945
 51
180.00001000000091
  0
ARC
  5
8FCC
  8
AM_0
 10
203.07740902309089
 20
599.6327847256033
 30
0.0
 40
1.5
 50
90.000003000000945
 51
180.00001000000091
  0
CIRCLE
  5
8FCD
  8
AM_0
 10
196.57740902309069
 20
598.63278472560296
 30
0.0
 40
1.0
  0
ARC
  5
8FCE
  8
AM_0
 10
153.74238902309071
 20
612.12277472560322
 30
0.0
 40
1.3300148000000001
 50
269.72941999999853
 51
90.270567000000995
  0
ARC
  5
8FCF
  8
AM_0
 10
152.51612902309071
 20
612.1327847256033
 30
0.0
 40
1.0000056999999991
 50
269.999989999999
 51
90.000003000000945
  0
ARC
  5
8FD0
  8
AM_0
 10
153.80433902309059
 20
622.13278472560319
 30
0.0
 40
1.2700266
 50
269.62931999999989
 51
90.370670000001468
  0
ARC
  5
8FD1
  8
AM_0
 10
152.51612902309071
 20
622.13278472560319
 30
0.0
 40
1.0000056999999991
 50
269.999989999999
 51
90.000003000000945
  0
ARC
  5
8FD2
  8
AM_0
 10
153.80433902309059
 20
632.14279472560315
 30
0.0
 40
1.2700266
 50
269.62931999999989
 51
90.370670000001468
  0
ARC
  5
8FD3
  8
AM_0
 10
152.51612902309071
 20
632.13278472560296
 30
0.0
 40
1.0000056999999991
 50
269.999989999999
 51
90.000003000000945
  0
ARC
  5
8FD4
  8
AM_0
 10
153.74238902309071
 20
642.14779472560326
 30
0.0
 40
1.3350147999999991
 50
269.73042999999973
 51
90.269556000001344
  0
ARC
  5
8FD5
  8
AM_0
 10
152.51612902309071
 20
642.1327847256033
 30
0.0
 40
1.0000056999999991
 50
269.999989999999
 51
90.000003000000945
  0
LINE
  5
8FD6
  8
AM_0
 10
185.0774090230905
 20
653.13278472560296
 30
0.0
 11
91.627399023090973
 21
653.13278472560296
 31
0.0
  0
LINE
  5
8FD7
  8
AM_0
 10
185.0774090230905
 20
661.13278472560296
 30
0.0
 11
91.627399023090973
 21
661.13278472560296
 31
0.0
  0
LINE
  5
8FD8
  8
AM_0
 10
90.537429023090723
 20
653.62277472560322
 30
0.0
 11
185.0774090230905
 21
653.62277472560322
 31
0.0
  0
LINE
  5
8FD9
  8
AM_0
 10
90.747389023090776
 20
660.5027747256031
 30
0.0
 11
185.0974290230908
 21
660.5027747256031
 31
0.0
  0
LINE
  5
8FDA
  8
AM_0
 10
118.0774690230909
 20
673.48275472560294
 30
0.0
 11
87.077409023090738
 21
671.45275472560309
 31
0.0
  0
ARC
  5
8FDB
  8
AM_0
 10
86.810569023090537
 20
674.39279472560315
 30
0.0
 40
1.5
 50
280.24789000000118
 51
349.76261999999917
  0
LINE
  5
8FDC
  8
AM_0
 10
87.077409023090738
 20
675.48275472560329
 30
0.0
 11
87.077409023090738
 21
661.44283472560312
 31
0.0
  0
ARC
  5
8FDD
  8
AM_0
 10
99.070209023091081
 20
662.1327847256033
 30
0.0
 40
1.0000259
 50
89.587534000000232
 51
270.4124599999987
  0
ARC
  5
8FDE
  8
AM_0
 10
90.747389023090776
 20
662.18282472560327
 30
0.0
 40
1.6800002000000001
 50
90.000003000000945
 51
270.0
  0
ARC
  5
8FDF
  8
AM_0
 10
91.620259023090682
 20
662.1327847256033
 30
0.0
 40
1.0000255999999981
 50
89.589474000000749
 51
270.41051999999962
  0
ARC
  5
8FE0
  8
AM_0
 10
86.232989023090951
 20
668.72701472560323
 30
0.0
 40
5.0059714
 50
279.7109800000016
 51
354.67887999999812
  0
ARC
  5
8FE1
  8
AM_0
 10
90.219319023090677
 20
668.35348472560327
 30
0.0
 40
1.002184699999999
 50
354.80386000000328
 51
45.047306999998277
  0
ARC
  5
8FE2
  8
AM_0
 10
86.698379023090666
 20
664.80026472560326
 30
0.0
 40
6.0044340999999992
 50
45.225578000002209
 51
86.380821999999384
  0
ARC
  5
8FE3
  8
AM_0
 10
100.0706990230907
 20
686.99947472560325
 30
0.0
 40
1.9933081999999991
 50
89.807323000000935
 51
180.19266999999849
  0
ARC
  5
8FE4
  8
AM_0
 10
100.0715490230907
 20
689.02865472560313
 30
0.0
 40
1.994130499999996
 50
89.831105999999224
 51
180.16889000000049
  0
ARC
  5
8FE5
  8
AM_0
 10
100.07386902309069
 20
690.38632472560323
 30
0.0
 40
1.996488899999999
 50
89.899147999998391
 51
180.10084999999879
  0
ARC
  5
8FE6
  8
AM_0
 10
100.0711890230907
 20
691.05624472560305
 30
0.0
 40
1.9964978999999961
 50
89.821482000000245
 51
165.6006099999997
  0
LINE
  5
8FE7
  8
AM_0
 10
98.077409023090866
 20
689.02279472560315
 30
0.0
 11
98.077409023090866
 21
681.62277472560322
 31
0.0
  0
ARC
  5
8FE8
  8
AM_0
 10
90.974749023090951
 20
683.40572472560325
 30
0.0
 40
1.997119399999999
 50
89.801366999998493
 51
167.9447599999981
  0
LINE
  5
8FE9
  8
AM_0
 10
91.031699023090766
 20
680.12277472560322
 30
0.0
 11
96.577409023090866
 21
680.12277472560322
 31
0.0
  0
ARC
  5
8FEA
  8
AM_0
 10
91.036819023090686
 20
678.12753472560325
 30
0.0
 40
1.9952742999999991
 50
90.148580000000095
 51
170.03521999999941
  0
LINE
  5
8FEB
  8
AM_0
 10
89.021689023090687
 20
683.82278472560324
 30
0.0
 11
88.061729023090564
 21
679.35281472560325
 31
0.0
  0
LINE
  5
8FEC
  8
AM_0
 10
86.591689023090723
 20
678.17281472560296
 30
0.0
 11
89.011679023090807
 21
678.17281472560296
 31
0.0
  0
ARC
  5
8FED
  8
AM_0
 10
86.5942590230907
 20
679.67513472560313
 30
0.0
 40
1.502416299999999
 50
269.90137999999871
 51
347.60813000000093
  0
LINE
  5
8FEE
  8
AM_0
 10
88.286699023090748
 20
674.12615472560299
 30
0.0
 11
89.071739023090842
 21
678.47283472560321
 31
0.0
  0
ARC
  5
8FEF
  8
AM_0
 10
96.573689023090822
 20
681.62655472560323
 30
0.0
 40
1.5037541000000001
 50
270.14287000000093
 51
359.85713999999848
  0
LINE
  5
8FF0
  8
AM_0
 10
83.187399023090904
 20
690.43282472560315
 30
0.0
 11
96.687399023091132
 21
690.43282472560315
 31
0.0
  0
LINE
  5
8FF1
  8
AM_0
 10
83.207419023090708
 20
688.80282472560305
 30
0.0
 11
96.577409023090866
 21
688.80282472560305
 31
0.0
  0
LINE
  5
8FF2
  8
AM_0
 10
90.967849023090764
 20
685.40280472560312
 30
0.0
 11
96.577409023090866
 21
685.40280472560312
 31
0.0
  0
ARC
  5
8FF3
  8
AM_0
 10
96.682329023090844
 20
691.93795472560305
 30
0.0
 40
1.505230099999999
 50
270.19421
 51
345.17177999999848
  0
ARC
  5
8FF4
  8
AM_0
 10
96.570509023090551
 20
690.30966472560306
 30
0.0
 40
1.506942899999999
 50
270.26336999999899
 51
359.73663000000079
  0
ARC
  5
8FF5
  8
AM_0
 10
96.572529023090681
 20
686.9076847256033
 30
0.0
 40
1.504891299999997
 50
270.1859300000005
 51
359.81406999999621
  0
ARC
  5
8FF6
  8
AM_0
 10
185.0774090230905
 20
659.63278472560319
 30
0.0
 40
1.5
 50
0.0
 51
90.000003000000945
  0
ARC
  5
8FF7
  8
AM_0
 10
185.0774090230905
 20
654.6327847256033
 30
0.0
 40
1.5
 50
269.999989999999
 51
0.0000006832495047
  0
LINE
  5
8FF8
  8
AM_0
 10
186.57740902309069
 20
654.6327847256033
 30
0.0
 11
186.57740902309069
 21
659.63278472560319
 31
0.0
  0
LINE
  5
8FF9
  8
AM_0
 10
186.0974290230908
 20
654.6327847256033
 30
0.0
 11
186.0974290230908
 21
659.49276472560325
 31
0.0
  0
ARC
  5
8FFA
  8
AM_0
 10
185.0774090230905
 20
654.6327847256033
 30
0.0
 40
1.02
 50
269.999989999999
 51
0.0000006832429909
  0
ARC
  5
8FFB
  8
AM_0
 10
185.0974290230908
 20
659.49276472560325
 30
0.0
 40
1.0
 50
0.0
 51
90.000003000000945
  0
CIRCLE
  5
8FFC
  8
AM_0
 10
191.57740902309069
 20
655.63278472560319
 30
0.0
 40
1.1000000000000001
  0
CIRCLE
  5
8FFD
  8
AM_0
 10
191.57740902309069
 20
655.63278472560319
 30
0.0
 40
1.149999999999999
  0
ARC
  5
8FFE
  8
AM_0
 10
203.05738902309071
 20
659.49276472560325
 30
0.0
 40
1.0
 50
90.000003000000945
 51
180.00001000000091
  0
ARC
  5
8FFF
  8
AM_0
 10
203.07740902309089
 20
659.63278472560319
 30
0.0
 40
1.5
 50
90.000003000000945
 51
180.00001000000091
  0
ARC
  5
9000
  8
AM_0
 10
203.07740902309089
 20
654.6327847256033
 30
0.0
 40
1.02
 50
179.99998999999889
 51
270.0
  0
ARC
  5
9001
  8
AM_0
 10
203.07740902309089
 20
654.6327847256033
 30
0.0
 40
1.5
 50
179.99998999999889
 51
270.0
  0
LINE
  5
9002
  8
AM_0
 10
202.05738902309071
 20
654.6327847256033
 30
0.0
 11
202.05738902309071
 21
659.49276472560325
 31
0.0
  0
LINE
  5
9003
  8
AM_0
 10
201.57740902309069
 20
654.6327847256033
 30
0.0
 11
201.57740902309069
 21
659.63278472560319
 31
0.0
  0
CIRCLE
  5
9004
  8
AM_0
 10
196.57740902309069
 20
655.63278472560319
 30
0.0
 40
1.0
  0
LINE
  5
9005
  8
AM_0
 10
223.07740902309069
 20
566.63284472560326
 30
0.0
 11
217.3516090230909
 21
557.81591472560285
 31
0.0
  0
LINE
  5
9006
  8
AM_0
 10
211.07740902309021
 20
533.1327847256033
 30
0.0
 11
211.0774090230903
 21
549.13278472560285
 31
0.0
  0
LINE
  5
9007
  8
AM_0
 10
211.07740902309021
 20
533.1327847256033
 30
0.0
 11
211.07740902309021
 21
529.63278472560319
 31
0.0
  0
ARC
  5
9008
  8
AM_0
 10
216.09358902309069
 20
558.63278472560319
 30
0.0
 40
1.5
 50
269.999989999999
 51
326.99999999999801
  0
ARC
  5
9009
  8
AM_0
 10
221.11738902309071
 20
652.1628147256032
 30
0.0
 40
1.460011199999999
 50
269.77524999999991
 51
90.224750000000085
  0
ARC
  5
900A
  8
AM_0
 10
217.41737902309069
 20
652.13278472560296
 30
0.0
 40
1.0000255999999981
 50
269.58946999999989
 51
90.410531000001029
  0
LINE
  5
900B
  8
AM_0
 10
224.07740902309061
 20
564.63278472560296
 30
0.0
 11
224.07740902309061
 21
689.63278472560307
 31
0.0
  0
LINE
  5
900C
  8
AM_0
 10
225.07740902309069
 20
563.63278472560307
 30
0.0
 11
232.07740902309089
 21
563.63278472560307
 31
0.0
  0
LINE
  5
900D
  8
AM_0
 10
225.07740902309069
 20
575.09274472560321
 30
0.0
 11
232.07740902309089
 21
575.09274472560321
 31
0.0
  0
LINE
  5
900E
  8
AM_0
 10
218.8173990230907
 20
566.76284472560314
 30
0.0
 11
222.27738902309071
 21
579.67281472560308
 31
0.0
  0
ARC
  5
900F
  8
AM_0
 10
216.87867902309071
 20
567.27902472560322
 30
0.0
 40
2.0062942999999991
 50
270.24932999999891
 51
345.08843999999721
  0
LINE
  5
9010
  8
AM_0
 10
218.78742902309079
 20
566.6327847256033
 30
0.0
 11
224.07740902309061
 21
566.6327847256033
 31
0.0
  0
ARC
  5
9011
  8
AM_0
 10
225.0704490230907
 20
564.62582472560302
 30
0.0
 40
0.99304521
 50
179.5973099999994
 51
270.40267999999998
  0
ARC
  5
9012
  8
AM_0
 10
225.06977902309069
 20
576.08517472560322
 30
0.0
 40
0.99237448
 50
179.55801999999801
 51
270.4419699999998
  0
ARC
  5
9013
  8
AM_0
 10
223.72108902309071
 20
579.28903472560296
 30
0.0
 40
1.4937901
 50
89.756423999998432
 51
165.11292000000071
  0
LINE
  5
9014
  8
AM_0
 10
224.07740902309061
 20
589.98275472560294
 30
0.0
 11
232.07740902309089
 21
589.98275472560294
 31
0.0
  0
ARC
  5
9015
  8
AM_0
 10
217.41743902309059
 20
592.1327847256033
 30
0.0
 40
1.0000040999999991
 50
269.999989999999
 51
90.000003000000945
  0
ARC
  5
9016
  8
AM_0
 10
220.89741902309069
 20
592.09274472560321
 30
0.0
 40
1.6800077
 50
269.999989999999
 51
90.000003000000945
  0
ARC
  5
9017
  8
AM_0
 10
217.41737902309069
 20
602.13278472560296
 30
0.0
 40
1.0000255999999981
 50
269.58946999999989
 51
90.410531000001029
  0
ARC
  5
9018
  8
AM_0
 10
221.11738902309071
 20
602.10275472560295
 30
0.0
 40
1.460011199999999
 50
269.77524999999991
 51
90.224750000000085
  0
ARC
  5
9019
  8
AM_0
 10
223.72755902309069
 20
674.98507472560323
 30
0.0
 40
1.5022733999999991
 50
195.13650999999649
 51
269.99412000000041
  0
LINE
  5
901A
  8
AM_0
 10
224.07740902309061
 20
664.28280472560311
 30
0.0
 11
232.07740902309089
 21
664.28280472560311
 31
0.0
  0
ARC
  5
901B
  8
AM_0
 10
220.89741902309069
 20
662.18282472560327
 30
0.0
 40
1.6800077
 50
269.999989999999
 51
90.000003000000945
  0
ARC
  5
901C
  8
AM_0
 10
217.41743902309059
 20
662.1327847256033
 30
0.0
 40
1.0000040999999991
 50
269.999989999999
 51
90.000003000000945
  0
LINE
  5
901D
  8
AM_0
 10
225.07740902309069
 20
679.17281472560296
 30
0.0
 11
232.07740902309089
 21
679.17281472560296
 31
0.0
  0
LINE
  5
901E
  8
AM_0
 10
225.07740902309069
 20
690.63278472560307
 30
0.0
 11
232.07740902309089
 21
690.63278472560307
 31
0.0
  0
LINE
  5
901F
  8
AM_0
 10
218.81742902309071
 20
687.51272472560277
 30
0.0
 11
222.2774190230906
 21
674.59277472560325
 31
0.0
  0
LINE
  5
9020
  8
AM_0
 10
219.62760902309071
 20
691.86797472560295
 30
0.0
 11
222.31745902309069
 21
679.35275472560295
 31
0.0
  0
ARC
  5
9021
  8
AM_0
 10
225.07649902309069
 20
678.17367472560295
 30
0.0
 40
0.9990923399999999
 50
89.947921999999295
 51
180.05208000000431
  0
LINE
  5
9022
  8
AM_0
 10
223.78742902309079
 20
678.17281472560296
 30
0.0
 11
221.36744902309081
 21
678.17281472560296
 31
0.0
  0
ARC
  5
9023
  8
AM_0
 10
223.7830990230909
 20
679.67306472560313
 30
0.0
 40
1.500286
 50
192.326309999995
 51
270.16416999999848
  0
ARC
  5
9024
  8
AM_0
 10
216.88685902309069
 20
686.99362472560324
 30
0.0
 40
1.9991226
 50
15.05079100000003
 51
89.984388999999666
  0
ARC
  5
9025
  8
AM_0
 10
218.16108902309071
 20
691.55282472560282
 30
0.0
 40
1.5
 50
12.12979200000205
 51
90.000003000000945
  0
ARC
  5
9026
  8
AM_0
 10
218.3050690230906
 20
690.88278472560319
 30
0.0
 40
1.5
 50
12.12979200000205
 51
90.000003000000945
  0
ARC
  5
9027
  8
AM_0
 10
225.07722902309089
 20
689.63302472560315
 30
0.0
 40
0.99980682
 50
89.98893100000069
 51
180.0110699999974
  0
ARC
  5
9028
  8
AM_0
 10
218.59736902309069
 20
689.52279472560315
 30
0.0
 40
1.5
 50
12.12979200000205
 51
90.000003000000945
  0
LINE
  5
9029
  8
AM_0
 10
220.5378590230907
 20
687.63278472560319
 30
0.0
 11
224.07740902309061
 21
687.63278472560319
 31
0.0
  0
TEXT
  5
9502
  8
0
  6
CONTINUOUS
 62
     0
 10
780.73042053918459
 20
618.63805912502494
 30
0.0
 40
15.0
  1
VX04-800BF~VX04-K20BF
  0
VIEWPORT
  5
89
 67
     1
  8
0
 10
210.0
 20
148.5
 30
0.0
 40
420.0
 41
297.0
 68
    -1
 69
     1
1001
ACAD
1000
MVIEW
1002
{
1070
    16
1010
0.0
1020
0.0
1030
0.0
1010
0.0
1020
0.0
1030
1.0
1040
0.0
1040
297.0
1040
221.70154043645701
1040
148.5
1040
50.0
1040
0.0
1040
0.0
1070
     0
1070
   100
1070
     1
1070
     1
1070
     0
1070
     0
1070
     0
1070
     0
1040
0.0
1040
0.0
1040
0.0
1040
10.0
1040
10.0
1040
10.0
1040
10.0
1070
     0
1002
{
1002
}
1002
}
1001
GENIUS_GENOREF_13
1005
1B94
1001
GENIUS_GENSCREG_15
1000
PF
1040
1.0
1000
DF
1040
1.0
1000
MIN
1011
0.0
1021
0.0
1031
0.0
1021
0.0
1031
0.0
1000
MAX
1011
420.0
1021
0.0
1031
0.0
1021
297.0
1031
0.0
1000
FLAGS
1070
     4
  0
ENDSEC
  0
EOF
