  0
SECTION
  2
HEADER
  9
$ACADVER
  1
AC1009
  9
$INSBASE
 10
0.0
 20
0.0
 30
0.0
  9
$EXTMIN
 10
-1.566941082924586
 20
38.049546379261763
 30
-0.0000000349181948
  9
$EXTMAX
 10
748.49864810686347
 20
460.168305379841
 30
0.0000000814935747
  9
$LIMMIN
 10
0.0000006092027434
 20
-0.0000002453298293
  9
$LIMMAX
 10
853.50000060920274
 20
554.99999975466994
  9
$ORTHOMODE
 70
     1
  9
$REGENMODE
 70
     1
  9
$FILLMODE
 70
     1
  9
$QTEXTMODE
 70
     0
  9
$MIRRTEXT
 70
     0
  9
$DRAGMODE
 70
     2
  9
$LTSCALE
 40
3.0
  9
$OSMODE
 70
   551
  9
$ATTMODE
 70
     1
  9
$TEXTSIZE
 40
2.5
  9
$TRACEWID
 40
1.0
  9
$TEXTSTYLE
  7
STANDARD
  9
$CLAYER
  8
0
  9
$CELTYPE
  6
BYLAYER
  9
$CECOLOR
 62
   256
  9
$DIMSCALE
 40
1.0
  9
$DIMASZ
 40
2.0
  9
$DIMEXO
 40
1.0
  9
$DIMDLI
 40
8.0
  9
$DIMRND
 40
0.0
  9
$DIMDLE
 40
0.0
  9
$DIMEXE
 40
1.0
  9
$DIMTP
 40
0.1
  9
$DIMTM
 40
0.1
  9
$DIMTXT
 40
2.5
  9
$DIMCEN
 40
0.0
  9
$DIMTSZ
 40
0.0
  9
$DIMTOL
 70
     0
  9
$DIMLIM
 70
     0
  9
$DIMTIH
 70
     0
  9
$DIMTOH
 70
     0
  9
$DIMSE1
 70
     0
  9
$DIMSE2
 70
     0
  9
$DIMTAD
 70
     3
  9
$DIMZIN
 70
     8
  9
$DIMBLK
  1

  9
$DIMASO
 70
     1
  9
$DIMSHO
 70
     1
  9
$DIMPOST
  1

  9
$DIMAPOST
  1
"
  9
$DIMALT
 70
     0
  9
$DIMALTD
 70
     2
  9
$DIMALTF
 40
0.0393701
  9
$DIMLFAC
 40
1.0
  9
$DIMTOFL
 70
     1
  9
$DIMTVP
 40
0.0
  9
$DIMTIX
 70
     0
  9
$DIMSOXD
 70
     0
  9
$DIMSAH
 70
     0
  9
$DIMBLK1
  1

  9
$DIMBLK2
  1

  9
$DIMSTYLE
  2
AM_JIS
  9
$DIMCLRD
 70
     2
  9
$DIMCLRE
 70
     2
  9
$DIMCLRT
 70
     4
  9
$DIMTFAC
 40
0.71
  9
$DIMGAP
 40
1.5
  9
$LUNITS
 70
     2
  9
$LUPREC
 70
     2
  9
$SKETCHINC
 40
1.0
  9
$FILLETRAD
 40
0.0
  9
$AUNITS
 70
     0
  9
$AUPREC
 70
     0
  9
$MENU
  1
.
  9
$ELEVATION
 40
0.0
  9
$PELEVATION
 40
0.0
  9
$THICKNESS
 40
0.0
  9
$LIMCHECK
 70
     0
  9
$BLIPMODE
 70
     0
  9
$CHAMFERA
 40
3.0
  9
$CHAMFERB
 40
3.0
  9
$SKPOLY
 70
     0
  9
$TDCREATE
 40
2456902.3508163192
  9
$TDUPDATE
 40
2458541.383896898
  9
$TDINDWG
 40
0.0609025231
  9
$TDUSRTIMER
 40
0.0609020949
  9
$USRTIMER
 70
     1
  9
$ANGBASE
 50
0.0
  9
$ANGDIR
 70
     0
  9
$PDMODE
 70
     0
  9
$PDSIZE
 40
0.0
  9
$PLINEWID
 40
0.0
  9
$COORDS
 70
     1
  9
$SPLFRAME
 70
     0
  9
$SPLINETYPE
 70
     6
  9
$SPLINESEGS
 70
     8
  9
$ATTDIA
 70
     1
  9
$ATTREQ
 70
     1
  9
$HANDLING
 70
     1
  9
$HANDSEED
  5
2390
  9
$SURFTAB1
 70
     6
  9
$SURFTAB2
 70
     6
  9
$SURFTYPE
 70
     6
  9
$SURFU
 70
     6
  9
$SURFV
 70
     6
  9
$UCSNAME
  2

  9
$UCSORG
 10
0.0
 20
0.0
 30
0.0
  9
$UCSXDIR
 10
1.0
 20
0.0
 30
0.0
  9
$UCSYDIR
 10
0.0
 20
1.0
 30
0.0
  9
$PUCSNAME
  2

  9
$PUCSORG
 10
0.0
 20
0.0
 30
0.0
  9
$PUCSXDIR
 10
1.0
 20
0.0
 30
0.0
  9
$PUCSYDIR
 10
0.0
 20
1.0
 30
0.0
  9
$USERI1
 70
     0
  9
$USERI2
 70
     0
  9
$USERI3
 70
     0
  9
$USERI4
 70
     0
  9
$USERI5
 70
     0
  9
$USERR1
 40
0.0
  9
$USERR2
 40
0.0
  9
$USERR3
 40
0.0
  9
$USERR4
 40
0.0
  9
$USERR5
 40
0.0
  9
$WORLDVIEW
 70
     1
  9
$SHADEDGE
 70
     3
  9
$SHADEDIF
 70
    70
  9
$TILEMODE
 70
     1
  9
$MAXACTVP
 70
    64
  9
$PLIMCHECK
 70
     0
  9
$PEXTMIN
 10
1.0000000000000000E+020
 20
1.0000000000000000E+020
 30
1.0000000000000000E+020
  9
$PEXTMAX
 10
-1.0000000000000000E+020
 20
-1.0000000000000000E+020
 30
-1.0000000000000000E+020
  9
$PLIMMIN
 10
0.0
 20
0.0
  9
$PLIMMAX
 10
420.0
 20
297.0
  9
$UNITMODE
 70
     0
  9
$VISRETAIN
 70
     1
  9
$PLINEGEN
 70
     0
  9
$PSLTSCALE
 70
     1
  0
ENDSEC
  0
SECTION
  2
TABLES
  0
TABLE
  2
VPORT
 70
     1
  0
VPORT
  2
*ACTIVE
 70
     0
 10
0.0
 20
0.0
 11
1.0
 21
1.0
 12
373.4658535119695
 22
249.10892587955141
 13
0.0
 23
0.0
 14
7.5
 24
7.5
 15
30.0
 25
30.0
 16
0.0
 26
0.0
 36
1.0
 17
0.0
 27
0.0
 37
0.0
 40
428.53031595618472
 41
1.7571592210767459
 42
50.0
 43
0.0
 44
0.0
 50
0.0
 51
0.0
 71
    16
 72
  1000
 73
     1
 74
     3
 75
     0
 76
     0
 77
     0
 78
     0
  0
ENDTAB
  0
TABLE
  2
LTYPE
 70
    25
  0
LTYPE
  2
CONTINUOUS
 70
     0
  3
Solid line
 72
    65
 73
     0
 40
0.0
  0
LTYPE
  2
AM_ISO08W050X2
 70
     0
  3
__ . __ . __ . __ . __ . __
 72
    65
 73
     4
 40
9.0
 49
6.0
 49
-0.75
 49
1.5
 49
-0.75
  0
LTYPE
  2
AM_ISO08W050
 70
     0
  3
____ . ____ . ____ . ____ . ____ . ____ . ____
 72
    65
 73
     4
 40
18.0
 49
12.0
 49
-1.5
 49
3.0
 49
-1.5
  0
LTYPE
  2
AM_ISO02W050
 70
     0
  3
__ __ __ __ __ __ __ __ __ __ __ __ __ __ __
 72
    65
 73
     2
 40
7.5
 49
6.0
 49
-1.5
  0
LTYPE
  2
AM_ISO09W050
 70
     0
  3
_____ . . _____ . . _____ . . ____ .. ____
 72
    65
 73
     6
 40
22.5
 49
12.0
 49
-1.5
 49
3.0
 49
-1.5
 49
3.0
 49
-1.5
  0
LTYPE
  2
AMCONSTR
 70
     0
  3
_______________________
 72
    65
 73
     2
 40
9999.0
 49
9999.0
 49
0.0
  0
LTYPE
  2
AM_ISO02W050X2
 70
     0
  3
 _ _ _ _ _ _ _ _ _ _ _ _
 72
    65
 73
     2
 40
3.75
 49
3.0
 49
-0.75
  0
LTYPE
  2
AMZIGZAG
 70
     0
  3
/\/-/\/-/\/-/\/-/\/-/\/
 72
    65
 73
     2
 40
11.0001
 49
0.0001
 49
-11.0
  0
LTYPE
  2
CENTER
 70
     0
  3
Center ____ _ ____ _ ____ _ ____ _ ____ _ ____
 72
    65
 73
     4
 40
50.799999999999997
 49
31.75
 49
-6.3499999999999979
 49
6.3499999999999979
 49
-6.3499999999999979
  0
LTYPE
  2
ACANSTGBM
 70
     0
  3
__ . . __ . .
 72
    65
 73
     6
 40
9.0
 49
4.0
 49
-1.0
 49
1.0
 49
-1.0
 49
1.0
 49
-1.0
  0
LTYPE
  2
ACANSTGLM
 70
     0
  3
_ _ _ _ _
 72
    65
 73
     2
 40
3.0
 49
2.0
 49
-1.0
  0
LTYPE
  2
ACISOWELD
 70
     0
  3
_ _ _ _ _
 72
    65
 73
     2
 40
2.0
 49
2.0
 49
-1.0
  0
LTYPE
  2
ACISOTGB
 70
     0
  3
__ . . __ . .
 72
    65
 73
     6
 40
9.0
 49
4.0
 49
-1.0
 49
1.0
 49
-1.0
 49
1.0
 49
-1.0
  0
LTYPE
  2
ACISOTGL
 70
     0
  3
_ _ _ _ _
 72
    65
 73
     2
 40
3.0
 49
2.0
 49
-1.0
  0
LTYPE
  2
ACJISTGB
 70
     0
  3
__ . . __ . .
 72
    65
 73
     6
 40
9.0
 49
4.0
 49
-1.0
 49
1.0
 49
-1.0
 49
1.0
 49
-1.0
  0
LTYPE
  2
ACJISTGL
 70
     0
  3
_ _ _ _ _
 72
    65
 73
     2
 40
3.0
 49
2.0
 49
-1.0
  0
LTYPE
  2
HIDDEN
 70
     0
  3
Hidden __ __ __ __ __ __ __ __ __ __ __ __ __ _
 72
    65
 73
     2
 40
9.5249999999999968
 49
6.349999999999997
 49
-3.174999999999998
  0
LTYPE
  2
PHANTOM2
 70
     0
  3
Phantom (.5x) ___ _ _ ___ _ _ ___ _ _ ___ _ _
 72
    65
 73
     6
 40
31.75
 49
15.875
 49
-3.174999999999998
 49
3.174999999999998
 49
-3.174999999999998
 49
3.174999999999998
 49
-3.174999999999998
  0
LTYPE
  2
CENTER2
 70
     0
  3
Center (.5x) ___ _ ___ _ ___ _ ___ _ ___ _ ___
 72
    65
 73
     4
 40
1.125
 49
0.75
 49
-0.125
 49
0.125
 49
-0.125
  0
LTYPE
  2
HIDDEN2
 70
     0
  3
Hidden (.5x) _ _ _ _ _ _ _ _ _ _ _ _ _ _ _ _ _
 72
    65
 73
     2
 40
0.1875
 49
0.125
 49
-0.0625
  0
LTYPE
  2
AMZIGZAG2
 70
     0
  3
/\/-/\/-/\/-/\/-/\/-/\/
 72
    65
 73
     2
 40
0.4401
 49
0.0001
 49
-0.4400000000000003
  0
LTYPE
  2
ACANSTGB
 70
     0
  3
__ . . __ . .
 72
    65
 73
     6
 40
0.35433070866
 49
0.15748031496
 49
-0.03937007874
 49
0.03937007874
 49
-0.03937007874
 49
0.03937007874
 49
-0.03937007874
  0
LTYPE
  2
ACANSTGL
 70
     0
  3
_ _ _ _ _
 72
    65
 73
     2
 40
0.11811023622
 49
0.07874015748
 49
-0.03937007874
  0
LTYPE
  2
ACJISWELD
 70
     0
  3
_ _ _ _ _
 72
    65
 73
     2
 40
2.0
 49
2.0
 49
-1.0
  0
ENDTAB
  0
TABLE
  2
LAYER
 70
     6
  0
LAYER
  2
0
 70
     0
 62
     7
  6
CONTINUOUS
  0
LAYER
  2
DEFPOINTS
 70
     0
 62
     7
  6
CONTINUOUS
  0
LAYER
  2
AM_CL
 70
     0
 62
     1
  6
AMCONSTR
  0
LAYER
  2
AM_7
 70
     0
 62
     1
  6
AM_ISO08W050
  0
LAYER
  2
AM_5
 70
     0
 62
     2
  6
CONTINUOUS
  0
LAYER
  2
AM_0
 70
     0
 62
     7
  6
CONTINUOUS
  0
ENDTAB
  0
TABLE
  2
STYLE
 70
     8
  0
STYLE
  2
STANDARD
 70
     0
 40
0.0
 41
0.84
 50
0.0
 71
     0
 42
2.5
  3
txt.shx
  4
bigfont.shx
  0
STYLE
  2

 70
     1
 40
0.0
 41
1.0
 50
0.0
 71
     0
 42
2.5
  3
ltypeshp.shx
  4

  0
STYLE
  2
ACANSTS
 70
     0
 40
1.0
 41
1.0
 50
0.0
 71
     0
 42
2.5
  3
romans.shx
  4
bigfont.shx
  0
STYLE
  2
ACANSGDT
 70
     0
 40
0.0
 41
1.0
 50
0.0
 71
     0
 42
2.5
  3
amgdtans.shx
  4

  0
STYLE
  2
ACISOTS
 70
     0
 40
1.0
 41
1.0
 50
0.0
 71
     0
 42
2.5
  3
isocp.shx
  4
extfont.shx
  0
STYLE
  2
ACISOGDT
 70
     0
 40
0.0
 41
1.0
 50
0.0
 71
     0
 42
2.5
  3
amgdt.shx
  4

  0
STYLE
  2
ACJISGDT
 70
     0
 40
0.0
 41
1.0
 50
0.0
 71
     0
 42
2.5
  3
amgdt.shx
  4

  0
STYLE
  2
ACJISTS
 70
     0
 40
1.0
 41
1.0
 50
0.0
 71
     0
 42
2.5
  3
isocp.shx
  4
extfont.shx
  0
ENDTAB
  0
TABLE
  2
VIEW
 70
     6
  0
VIEW
  2
AM_VIEW1
 70
     0
 40
313.20707831325302
 10
213.37500060920269
 20
398.3964605980438
 41
426.75
 11
0.0
 21
0.0
 31
1.0
 12
0.0
 22
0.0
 32
0.0
 42
50.0
 43
0.0
 44
0.0
 50
0.0
 71
    16
  0
VIEW
  2
AM_VIEW2
 70
     0
 40
313.20707831325302
 10
640.12500060920274
 20
398.3964605980438
 41
426.75
 11
0.0
 21
0.0
 31
1.0
 12
0.0
 22
0.0
 32
0.0
 42
50.0
 43
0.0
 44
0.0
 50
0.0
 71
    16
  0
VIEW
  2
AM_VIEW3
 70
     0
 40
313.20707831325302
 10
213.37500060920269
 20
156.60353891129671
 41
426.75
 11
0.0
 21
0.0
 31
1.0
 12
0.0
 22
0.0
 32
0.0
 42
50.0
 43
0.0
 44
0.0
 50
0.0
 71
    16
  0
VIEW
  2
AM_VIEW4
 70
     0
 40
313.20707831325302
 10
640.12500060920274
 20
156.60353891129671
 41
426.75
 11
0.0
 21
0.0
 31
1.0
 12
0.0
 22
0.0
 32
0.0
 42
50.0
 43
0.0
 44
0.0
 50
0.0
 71
    16
  0
VIEW
  2
AM_VIEW5
 70
     0
 40
313.20707831325302
 10
426.75000060920257
 20
277.49999975467023
 41
426.75
 11
0.0
 21
0.0
 31
1.0
 12
0.0
 22
0.0
 32
0.0
 42
50.0
 43
0.0
 44
0.0
 50
0.0
 71
    16
  0
VIEW
  2
AM_VIEW6
 70
     0
 40
626.40789248493957
 10
426.75000060920257
 20
277.49999975467028
 41
853.49146500000018
 11
0.0
 21
0.0
 31
1.0
 12
0.0
 22
0.0
 32
0.0
 42
50.0
 43
0.0
 44
0.0
 50
0.0
 71
    16
  0
ENDTAB
  0
TABLE
  2
UCS
 70
     0
  0
ENDTAB
  0
TABLE
  2
APPID
 70
   160
  0
APPID
  2
ACAD
 70
     0
  0
APPID
  2
MCAD_NO_VIS
 70
     0
  0
APPID
  2
ACAD_TEMP_GRAPHIC
 70
     0
  0
APPID
  2
AD_DRAW
 70
     0
  0
APPID
  2
ACATTRIBSERVICES
 70
     0
  0
APPID
  2
DESIGNERASSEMBLIES
 70
     0
  0
APPID
  2
ACADM_DIM_EDIT
 70
     0
  0
APPID
  2
AMDT_DM_ADJ
 70
     0
  0
APPID
  2
GENIUS_GENDIMSH_14
 70
     0
  0
APPID
  2
GEVID1057795304
 70
     0
  0
APPID
  2
GEVDC
 70
     0
  0
APPID
  2
GEVCON
 70
     0
  0
APPID
  2
GENIUS_GENBH_13
 70
     0
  0
APPID
  2
GENIUS_GENOENT_13
 70
     0
  0
APPID
  2
GENIUS_GENOBJ-NBEHI-BHF_13
 70
     0
  0
APPID
  2
GENIUS_GENOLIS_13
 70
     0
  0
APPID
  2
GENIUS_GENODEF_13
 70
     0
  0
APPID
  2
GENIUS_GENOREF_13
 70
     0
  0
APPID
  2
GENIUS_GENOBJ-NBEHI-BHB_13
 70
     0
  0
APPID
  2
GENIUS_GENOBJ-F-SCPASSM_13
 70
     0
  0
APPID
  2
GENIUS_GENDTOL_13
 70
     0
  0
APPID
  2
GENIUS_GENTRA_14
 70
     0
  0
APPID
  2
ASURF_PCURVE_APPNAME
 70
     0
  0
APPID
  2
GENIUS_GENCFG_13
 70
     0
  0
APPID
  2
GENIUS_GE3CFG0_13
 70
     0
  0
APPID
  2
GENIUS_GENCFG0_13
 70
     0
  0
APPID
  2
GENIUS_GENCFG1_13
 70
     0
  0
APPID
  2
GENIUS_GENCFG2_13
 70
     0
  0
APPID
  2
GENIUS_GENCFG3_13
 70
     0
  0
APPID
  2
GENIUS_GENCFG4_13
 70
     0
  0
APPID
  2
GENIUS_GEVCFG0_13
 70
     0
  0
APPID
  2
GENIUS_GENOBJ-N-TIT_13
 70
     0
  0
APPID
  2
GENIUS_GENTITLE_13
 70
     0
  0
APPID
  2
GENIUS_GENSCREG_15
 70
     0
  0
APPID
  2
GENIUS_GENOBJ-N-SDF_13
 70
     0
  0
APPID
  2
GENIUS_GENFIL_13
 70
     0
  0
APPID
  2
GENIUS_GENOBJ-N-CHA_13
 70
     0
  0
APPID
  2
GENIUS_GEFSH_13
 70
     0
  0
APPID
  2
GENIUS_GENOBJ-F-SHS_13
 70
     0
  0
APPID
  2
GENIUS_GENOBJ-N-CEN_13
 70
     0
  0
APPID
  2
GENIUS_GENOBJ-N-FIL_13
 70
     0
  0
APPID
  2
GENIUS_GENOBJ-N-CRS_13
 70
     0
  0
APPID
  2
GENIUS_GENOBJ-N-HTC_13
 70
     0
  0
APPID
  2
GENIUS_GENHATCH_13
 70
     0
  0
APPID
  2
GEVID1113451354
 70
     0
  0
APPID
  2
AMG_2DHIDE
 70
     0
  0
APPID
  2
AMG_2DSTRUCT_BTR
 70
     0
  0
APPID
  2
ACADM_2DVIEW_IGN_NOTIFY
 70
     0
  0
APPID
  2
GEVID1113451355
 70
     0
  0
APPID
  2
GEVID1118112805
 70
     0
  0
APPID
  2
GEVID1118112806
 70
     0
  0
APPID
  2
GENIUS_GENREC_14
 70
     0
  0
APPID
  2
GENIUS_GENOBJ-N-REC_13
 70
     0
  0
APPID
  2
ACAD_MLEADERVER
 70
     0
  0
APPID
  2
ACAD_PSEXT
 70
     0
  0
APPID
  2
ACAD_DSTYLE_DIMINSPECT
 70
     0
  0
APPID
  2
ACAECLAYERSTANDARD
 70
     0
  0
APPID
  2
GENIUS_GENCEN_19
 70
     0
  0
APPID
  2
ACAD_NAV_VCDISPLAY
 70
     0
  0
APPID
  2
ACADANNOTATIVE
 70
     0
  0
APPID
  2
ACADANNOPO
 70
     0
  0
APPID
  2
ACAD_DSTYLE_DIMBREAK
 70
     0
  0
APPID
  2
ACAD_DSTYLE_DIMJAG
 70
     0
  0
APPID
  2
ACAD_EXEMPT_FROM_CAD_STANDARDS
 70
     0
  0
APPID
  2
GENIUS_DUMCFG0_13
 70
     0
  0
APPID
  2
ACAD_DSTYLE_DIMTEXT_FILL
 70
     0
  0
APPID
  2
GENIUS_GEFSHEP_13
 70
     0
  0
APPID
  2
GENIUS_GENOBJ-F-SHE_13
 70
     0
  0
APPID
  2
GENIUS_GEFSHE_13
 70
     0
  0
APPID
  2
ACAD_DIMASSOC_DIMLFAC
 70
     0
  0
APPID
  2
ACAD_DIMASSOC_CALC_DIMLFAC
 70
     0
  0
APPID
  2
ACAD_DIMASSOC_OVERRIDDEN_D
 70
     0
  0
APPID
  2
GENIUS_GENOBJ-F-SHSV_13
 70
     0
  0
APPID
  2
GENIUS_GEFWELD_13
 70
     0
  0
APPID
  2
GENIUS_GENOBJ-N-RSBK_13
 70
     0
  0
APPID
  2
GENIUS_GENOBJ-N-LIB_13
 70
     0
  0
APPID
  2
GENIUS_GENSCALE_13
 70
     0
  0
APPID
  2
GENIUS_GENHINW_13
 70
     0
  0
APPID
  2
GENIUS_FIRSTVISTXT_14
 70
     0
  0
APPID
  2
GENIUS_GENOBJ-N-LEADER_13
 70
     0
  0
APPID
  2
GENIUS_GENDREL_13
 70
     0
  0
APPID
  2
GEVPT
 70
     0
  0
APPID
  2
GEVIT
 70
     0
  0
APPID
  2
VCC
 70
     0
  0
APPID
  2
GENBH
 70
     0
  0
APPID
  2
GEVMK
 70
     0
  0
APPID
  2
GENIUS_GENOBJ-F-DESC_13
 70
     0
  0
APPID
  2
GENIUS_GEFDESC_14
 70
     0
  0
APPID
  2
GENIUS_GENOBJ-F-FEAT_13
 70
     0
  0
APPID
  2
GENIUS_GEFFEAT_14
 70
     0
  0
APPID
  2
GENIUS_GEFPARTINS_13
 70
     0
  0
APPID
  2
GENIUS_GENSCREG_13
 70
     0
  0
APPID
  2
GENIUS_GEFSHP_13
 70
     0
  0
APPID
  2
GEVID1025574798
 70
     0
  0
APPID
  2
GEVID1025574769
 70
     0
  0
APPID
  2
GEVID1025757451
 70
     0
  0
APPID
  2
GEVID1240528327
 70
     0
  0
APPID
  2
GEVID1240528328
 70
     0
  0
APPID
  2
GEVID1240528329
 70
     0
  0
APPID
  2
GEVRADREF
 70
     0
  0
APPID
  2
GEVID1240528330
 70
     0
  0
APPID
  2
GEVID1240528331
 70
     0
  0
APPID
  2
GEVID1240528332
 70
     0
  0
APPID
  2
GEVID1240791080
 70
     0
  0
APPID
  2
GEVID1240791081
 70
     0
  0
APPID
  2
GEVID1240791082
 70
     0
  0
APPID
  2
GEVID1240791083
 70
     0
  0
APPID
  2
GEVID1240791084
 70
     0
  0
APPID
  2
GEVID1240791085
 70
     0
  0
APPID
  2
GEVID1240791086
 70
     0
  0
APPID
  2
GEVID1240791087
 70
     0
  0
APPID
  2
GEVID1240791088
 70
     0
  0
APPID
  2
GEVID1240791089
 70
     0
  0
APPID
  2
GEVID1240791090
 70
     0
  0
APPID
  2
GEVID1240791091
 70
     0
  0
APPID
  2
GEVID1240791092
 70
     0
  0
APPID
  2
GEVID1240791093
 70
     0
  0
APPID
  2
GEVID1240791094
 70
     0
  0
APPID
  2
GEVID1240791095
 70
     0
  0
APPID
  2
GEVID1240791096
 70
     0
  0
APPID
  2
GEVID1240791097
 70
     0
  0
APPID
  2
GEVID1240791098
 70
     0
  0
APPID
  2
GEVID1240791099
 70
     0
  0
APPID
  2
GEVID1240791100
 70
     0
  0
APPID
  2
GEVID1240791101
 70
     0
  0
APPID
  2
GEVID1240791102
 70
     0
  0
APPID
  2
GEVID1240791103
 70
     0
  0
APPID
  2
GEVID1240791104
 70
     0
  0
APPID
  2
GEVID1240791105
 70
     0
  0
APPID
  2
GEVID1240875381
 70
     0
  0
APPID
  2
GEVID1240875382
 70
     0
  0
APPID
  2
GEVID1240875383
 70
     0
  0
APPID
  2
GEVID1240875384
 70
     0
  0
APPID
  2
GEVID1240875385
 70
     0
  0
APPID
  2
GEVID1240875386
 70
     0
  0
APPID
  2
GEVID1240875387
 70
     0
  0
APPID
  2
GEVID1240875388
 70
     0
  0
APPID
  2
GEVID1240875389
 70
     0
  0
APPID
  2
GEVID1240875390
 70
     0
  0
APPID
  2
GEVID1240875391
 70
     0
  0
APPID
  2
GEVID1240875392
 70
     0
  0
APPID
  2
GEVID1240875393
 70
     0
  0
APPID
  2
GEVID1240875394
 70
     0
  0
APPID
  2
GEVID1240875395
 70
     0
  0
APPID
  2
GEVID1240875396
 70
     0
  0
APPID
  2
GEVID1240875397
 70
     0
  0
APPID
  2
GEVID1240875398
 70
     0
  0
APPID
  2
GEVID1240875399
 70
     0
  0
APPID
  2
GEVID1240908996
 70
     0
  0
APPID
  2
GEVID1240908997
 70
     0
  0
APPID
  2
GEVID1240908998
 70
     0
  0
APPID
  2
GEVID1240908999
 70
     0
  0
APPID
  2
GEVID1240909000
 70
     0
  0
APPID
  2
GENIUS_GENOBJ-N-ZOO_13
 70
     0
  0
APPID
  2
GENIUS_GENZOO_17
 70
     0
  0
APPID
  2
ACAD_DSTYLE_DIMRADIAL_EXTENSION
 70
     0
  0
APPID
  2
GENIUS_GE3SECT_13
 70
     0
  0
APPID
  2
GEV_VCCNULL_SWITCH_OFF
 70
     0
  0
APPID
  2
ACAD_DSTYLE_DIMTALN
 70
     0
  0
APPID
  2
DCO15
 70
     0
  0
ENDTAB
  0
TABLE
  2
DIMSTYLE
 70
    23
  0
DIMSTYLE
  2
AM_ANSI
 70
     0
  3

  4
"
  5

  6

  7

 40
1.0
 41
2.5
 42
1.0
 43
10.0
 44
1.0
 45
0.0
 46
0.0
 47
0.1
 48
0.1
140
3.5
141
0.0
142
0.0
143
0.0393701
144
1.0
145
0.0
146
0.71
147
1.5
 71
     0
 72
     0
 73
     1
 74
     1
 75
     0
 76
     0
 77
     0
 78
     8
170
     0
171
     2
172
     0
173
     0
174
     0
175
     0
176
     2
177
     2
178
     4
  0
DIMSTYLE
  2
AM_ANSI$3
 70
     0
  3

  4
"
  5

  6

  7

 40
1.0
 41
2.5
 42
1.0
 43
10.0
 44
1.0
 45
0.0
 46
0.0
 47
0.1
 48
0.1
140
3.5
141
0.0
142
0.0
143
0.0393701
144
1.0
145
0.0
146
0.71
147
1.5
 71
     0
 72
     0
 73
     1
 74
     1
 75
     0
 76
     0
 77
     0
 78
     8
170
     0
171
     2
172
     0
173
     0
174
     0
175
     0
176
     2
177
     2
178
     4
  0
DIMSTYLE
  2
AM_ANSI$4
 70
     0
  3

  4
"
  5

  6

  7

 40
1.0
 41
2.5
 42
1.0
 43
10.0
 44
1.0
 45
0.0
 46
0.0
 47
0.1
 48
0.1
140
3.5
141
0.0
142
0.0
143
0.0393701
144
1.0
145
0.0
146
0.71
147
1.5
 71
     0
 72
     0
 73
     1
 74
     1
 75
     0
 76
     0
 77
     0
 78
     8
170
     0
171
     2
172
     0
173
     0
174
     0
175
     0
176
     2
177
     2
178
     4
  0
DIMSTYLE
  2
AM_ANSI$7
 70
     0
  3

  4
"
  5

  6

  7

 40
1.0
 41
2.5
 42
1.0
 43
10.0
 44
1.0
 45
0.0
 46
0.0
 47
0.1
 48
0.1
140
5.0
141
0.0
142
0.0
143
0.0393701
144
1.0
145
0.0
146
0.71
147
1.5
 71
     0
 72
     0
 73
     1
 74
     1
 75
     0
 76
     0
 77
     0
 78
     8
170
     0
171
     2
172
     0
173
     0
174
     0
175
     0
176
     2
177
     2
178
     4
  0
DIMSTYLE
  2
AM_ANSI$SF
 70
     0
  3

  4
"
  5

  6

  7

 40
1.0
 41
2.5
 42
1.0
 43
10.0
 44
1.0
 45
0.0
 46
0.0
 47
0.1
 48
0.1
140
3.5
141
0.0
142
0.0
143
0.0393701
144
1.0
145
0.0
146
0.71
147
1.5
 71
     0
 72
     0
 73
     1
 74
     1
 75
     1
 76
     1
 77
     0
 78
     8
170
     0
171
     2
172
     0
173
     0
174
     0
175
     0
176
     2
177
     2
178
     4
  0
DIMSTYLE
  2
AM_ANSI$SH
 70
     0
  3

  4
"
  5

  6
GENAXEH
  7

 40
1.0
 41
2.5
 42
1.0
 43
10.0
 44
1.0
 45
0.0
 46
0.0
 47
0.1
 48
0.1
140
3.5
141
0.0
142
0.0
143
0.0393701
144
1.0
145
0.0
146
0.71
147
1.5
 71
     0
 72
     0
 73
     1
 74
     1
 75
     1
 76
     1
 77
     0
 78
     8
170
     0
171
     2
172
     0
173
     1
174
     0
175
     0
176
     2
177
     2
178
     4
  0
DIMSTYLE
  2
AM_ISO
 70
     0
  3

  4
"
  5

  6

  7

 40
1.0
 41
2.5
 42
1.0
 43
10.0
 44
1.0
 45
0.0
 46
0.0
 47
0.1
 48
0.1
140
3.5
141
0.0
142
0.0
143
0.0393701
144
1.0
145
0.0
146
0.71
147
1.5
 71
     0
 72
     0
 73
     0
 74
     0
 75
     0
 76
     0
 77
     1
 78
     8
170
     0
171
     2
172
     1
173
     0
174
     0
175
     0
176
   256
177
   256
178
     2
  0
DIMSTYLE
  2
AM_ISO$3
 70
     0
  3

  4
"
  5

  6

  7

 40
1.0
 41
2.5
 42
1.0
 43
10.0
 44
1.0
 45
0.0
 46
0.0
 47
0.1
 48
0.1
140
3.5
141
0.0
142
0.0
143
0.0393701
144
1.0
145
0.0
146
0.71
147
1.5
 71
     0
 72
     0
 73
     0
 74
     1
 75
     0
 76
     0
 77
     1
 78
     8
170
     0
171
     2
172
     0
173
     0
174
     0
175
     0
176
   256
177
   256
178
     2
  0
DIMSTYLE
  2
AM_ISO$4
 70
     0
  3

  4
"
  5

  6

  7

 40
1.0
 41
2.5
 42
1.0
 43
10.0
 44
1.0
 45
0.0
 46
0.0
 47
0.1
 48
0.1
140
3.5
141
0.0
142
0.0
143
0.0393701
144
1.0
145
0.0
146
0.71
147
1.5
 71
     0
 72
     0
 73
     0
 74
     1
 75
     0
 76
     0
 77
     1
 78
     8
170
     0
171
     2
172
     0
173
     0
174
     0
175
     0
176
   256
177
   256
178
     2
  0
DIMSTYLE
  2
AM_ISO$6
 70
     0
  3

  4
"
  5

  6

  7

 40
1.0
 41
2.5
 42
1.0
 43
10.0
 44
1.0
 45
0.0
 46
0.0
 47
0.1
 48
0.1
140
3.5
141
0.0
142
0.0
143
0.0393701
144
1.0
145
0.0
146
0.71
147
1.5
 71
     0
 72
     0
 73
     0
 74
     0
 75
     0
 76
     0
 77
     0
 78
     8
170
     0
171
     2
172
     1
173
     0
174
     0
175
     0
176
   256
177
   256
178
     2
  0
DIMSTYLE
  2
AM_ISO$7
 70
     0
  3

  4
"
  5

  6

  7

 40
1.0
 41
2.5
 42
1.0
 43
10.0
 44
1.0
 45
0.0
 46
0.0
 47
0.1
 48
0.1
140
5.0
141
0.0
142
0.0
143
0.0393701
144
1.0
145
0.0
146
0.71
147
1.5
 71
     0
 72
     0
 73
     0
 74
     0
 75
     0
 76
     0
 77
     1
 78
     8
170
     0
171
     2
172
     1
173
     0
174
     0
175
     0
176
   256
177
   256
178
     2
  0
DIMSTYLE
  2
AM_ISO$SF
 70
     0
  3

  4
"
  5

  6

  7

 40
1.0
 41
2.5
 42
1.0
 43
10.0
 44
1.0
 45
0.0
 46
0.0
 47
0.1
 48
0.1
140
3.5
141
0.0
142
0.0
143
0.0393701
144
1.0
145
0.0
146
0.71
147
1.5
 71
     0
 72
     0
 73
     0
 74
     0
 75
     1
 76
     1
 77
     1
 78
     8
170
     0
171
     2
172
     1
173
     0
174
     0
175
     0
176
   256
177
   256
178
     2
  0
DIMSTYLE
  2
AM_ISO$SH
 70
     0
  3

  4
"
  5

  6
GENAXEH
  7

 40
1.0
 41
2.5
 42
1.0
 43
10.0
 44
1.0
 45
0.0
 46
0.0
 47
0.1
 48
0.1
140
3.5
141
0.0
142
0.0
143
0.0393701
144
2.0
145
0.0
146
0.71
147
1.5
 71
     0
 72
     0
 73
     0
 74
     0
 75
     1
 76
     1
 77
     1
 78
     8
170
     0
171
     2
172
     1
173
     1
174
     0
175
     0
176
   256
177
   256
178
     2
  0
DIMSTYLE
  2
AM_JIS
 70
     0
  3

  4
"
  5

  6

  7

 40
1.0
 41
2.0
 42
1.0
 43
8.0
 44
1.0
 45
0.0
 46
0.0
 47
0.1
 48
0.1
140
2.5
141
0.0
142
0.0
143
0.0393701
144
1.0
145
0.0
146
0.71
147
1.5
 71
     0
 72
     0
 73
     0
 74
     0
 75
     0
 76
     0
 77
     3
 78
     8
170
     0
171
     2
172
     1
173
     0
174
     0
175
     0
176
     2
177
     2
178
     4
  0
DIMSTYLE
  2
AM_JIS$0
 70
     0
  3

  4
"
  5

  6

  7

 40
1.0
 41
2.0
 42
1.0
 43
8.0
 44
1.0
 45
0.0
 46
0.0
 47
0.1
 48
0.1
140
2.5
141
0.0
142
0.0
143
0.0393701
144
1.0
145
0.0
146
0.71
147
1.5
 71
     0
 72
     0
 73
     0
 74
     0
 75
     0
 76
     0
 77
     3
 78
     8
170
     0
171
     2
172
     1
173
     0
174
     0
175
     0
176
     2
177
     2
178
     4
  0
DIMSTYLE
  2
AM_JIS$3
 70
     0
  3

  4
"
  5

  6

  7

 40
1.0
 41
2.0
 42
1.0
 43
10.0
 44
1.0
 45
0.0
 46
0.0
 47
0.1
 48
0.1
140
2.5
141
0.0
142
0.0
143
0.0393701
144
1.0
145
0.0
146
0.71
147
1.5
 71
     0
 72
     0
 73
     0
 74
     1
 75
     0
 76
     0
 77
     3
 78
     8
170
     0
171
     2
172
     0
173
     0
174
     0
175
     0
176
     2
177
     2
178
     4
  0
DIMSTYLE
  2
AM_JIS$4
 70
     0
  3

  4
"
  5

  6

  7

 40
1.0
 41
2.0
 42
1.0
 43
10.0
 44
1.0
 45
0.0
 46
0.0
 47
0.1
 48
0.1
140
2.5
141
0.0
142
0.0
143
0.0393701
144
1.0
145
0.0
146
0.71
147
1.5
 71
     0
 72
     0
 73
     0
 74
     0
 75
     0
 76
     0
 77
     3
 78
     8
170
     0
171
     2
172
     0
173
     0
174
     0
175
     0
176
     2
177
     2
178
     4
  0
DIMSTYLE
  2
AM_JIS$6
 70
     0
  3

  4
"
  5

  6

  7

 40
1.0
 41
2.0
 42
1.0
 43
10.0
 44
1.0
 45
0.0
 46
0.0
 47
0.1
 48
0.1
140
2.5
141
0.0
142
0.0
143
0.0393701
144
1.0
145
0.0
146
0.71
147
1.5
 71
     0
 72
     0
 73
     0
 74
     0
 75
     0
 76
     0
 77
     0
 78
     8
170
     0
171
     2
172
     1
173
     0
174
     0
175
     0
176
     2
177
     2
178
     4
  0
DIMSTYLE
  2
AM_JIS$7
 70
     0
  3

  4
"
  5

  6
OPEN30
  7
OPEN30
 40
1.0
 41
2.0
 42
1.0
 43
10.0
 44
1.0
 45
0.0
 46
0.0
 47
0.1
 48
0.1
140
2.5
141
0.0
142
0.0
143
0.0393701
144
1.0
145
0.0
146
0.71
147
1.5
 71
     0
 72
     0
 73
     0
 74
     0
 75
     0
 76
     0
 77
     3
 78
     8
170
     0
171
     2
172
     1
173
     0
174
     0
175
     0
176
     2
177
     2
178
     4
  0
DIMSTYLE
  2
AM_JIS$SF
 70
     0
  3

  4
"
  5

  6

  7

 40
1.0
 41
2.0
 42
1.0
 43
10.0
 44
1.0
 45
0.0
 46
0.0
 47
0.1
 48
0.1
140
2.5
141
0.0
142
0.0
143
0.0393701
144
1.0
145
0.0
146
0.71
147
1.5
 71
     0
 72
     0
 73
     0
 74
     0
 75
     1
 76
     1
 77
     3
 78
     8
170
     0
171
     2
172
     1
173
     0
174
     0
175
     0
176
     2
177
     2
178
     4
  0
DIMSTYLE
  2
AM_JIS$SH
 70
     0
  3

  4
"
  5

  6
GENAXEH
  7

 40
1.0
 41
2.0
 42
1.0
 43
10.0
 44
1.0
 45
0.0
 46
0.0
 47
0.1
 48
0.1
140
2.5
141
0.0
142
0.0
143
0.0393701
144
2.0
145
0.0
146
0.71
147
1.5
 71
     0
 72
     0
 73
     0
 74
     0
 75
     1
 76
     1
 77
     3
 78
     8
170
     0
171
     2
172
     1
173
     1
174
     0
175
     0
176
     2
177
     2
178
     4
  0
DIMSTYLE
  2
STANDARD
 70
     0
  3

  4

  5

  6

  7

 40
1.0
 41
0.18
 42
0.0625
 43
0.38
 44
0.18
 45
0.0
 46
0.0
 47
0.0
 48
0.0
140
0.18
141
0.09
142
0.0
143
25.399999999999999
144
1.0
145
0.0
146
1.0
147
0.09
 71
     0
 72
     0
 73
     1
 74
     1
 75
     0
 76
     0
 77
     0
 78
     0
170
     0
171
     2
172
     0
173
     0
174
     0
175
     0
176
     0
177
     0
178
     0
  0
DIMSTYLE
  2
AM_JIS$2
 70
     0
  3

  4
"
  5

  6

  7

 40
1.0
 41
2.0
 42
1.0
 43
8.0
 44
1.0
 45
0.0
 46
0.0
 47
0.1
 48
0.1
140
2.5
141
0.0
142
0.0
143
0.0393701
144
1.0
145
0.0
146
0.71
147
1.5
 71
     0
 72
     0
 73
     0
 74
     0
 75
     0
 76
     0
 77
     3
 78
     8
170
     0
171
     2
172
     1
173
     0
174
     0
175
     0
176
     2
177
     2
178
     4
  0
ENDTAB
  0
ENDSEC
  0
SECTION
  2
BLOCKS
  0
BLOCK
  8
0
  2
$MODEL_SPACE
 70
     0
 10
0.0
 20
0.0
 30
0.0
  3
$MODEL_SPACE
  1

  0
ENDBLK
  5
23
  8
0
  0
BLOCK
 67
     1
  8
0
  2
$PAPER_SPACE
 70
     0
 10
0.0
 20
0.0
 30
0.0
  3
$PAPER_SPACE
  1

  0
ENDBLK
  5
1F
 67
     1
  8
0
  0
BLOCK
  8
0
  2
GENAXEH
 70
     0
 10
0.0
 20
0.0
 30
0.0
  3
GENAXEH
  1

  0
LINE
  5
21D4
  8
0
 10
-1.0
 20
0.0
 30
0.0
 11
1.0
 21
0.0
 31
0.0
  0
ENDBLK
  5
21D5
  8
0
  0
BLOCK
  8
0
  2
_OPEN30
 70
     0
 10
0.0
 20
0.0
 30
0.0
  3
_OPEN30
  1

  0
LINE
  5
221B
  8
0
  6
BYBLOCK
 62
     0
 10
-1.0
 20
0.26794919
 30
0.0
 11
0.0
 21
0.0
 31
0.0
  0
LINE
  5
221C
  8
0
  6
BYBLOCK
 62
     0
 10
0.0
 20
0.0
 30
0.0
 11
-1.0
 21
-0.26794919
 31
0.0
  0
LINE
  5
221D
  8
0
  6
BYBLOCK
 62
     0
 10
0.0
 20
0.0
 30
0.0
 11
-1.0
 21
0.0
 31
0.0
  0
ENDBLK
  5
221E
  8
0
  0
BLOCK
  8
0
  2
_ACMFILLEDHALF
 70
     0
 10
0.0
 20
0.0
 30
0.0
  3
_ACMFILLEDHALF
  1

  0
TRACE
  5
1BF2
  8
0
 62
     0
 10
-0.8
 20
0.0
 30
0.0
 11
-1.0
 21
0.166666666
 31
0.0
 12
0.0
 22
0.0
 32
0.0
 13
0.0
 23
0.0
 33
0.0
  0
LINE
  5
1BF3
  8
0
 62
     0
 10
-1.0
 20
0.0
 30
0.0
 11
-0.8
 21
0.0
 31
0.0
  0
ENDBLK
  5
1BF4
  8
0
  0
BLOCK
  8
0
  2
_ACMFILLED
 70
     0
 10
0.0
 20
0.0
 30
0.0
  3
_ACMFILLED
  1

  0
TRACE
  5
1C02
  8
0
 62
     0
 10
-1.0
 20
-0.166666666
 30
0.0
 11
-1.0
 21
0.166666666
 31
0.0
 12
0.0
 22
0.0
 32
0.0
 13
0.0
 23
0.0
 33
0.0
  0
ENDBLK
  5
1C03
  8
0
  0
BLOCK
  8
0
  2
_ACMFILLED15
 70
     0
 10
0.0
 20
0.0
 30
0.0
  3
_ACMFILLED15
  1

  0
TRACE
  5
1C37
  8
0
 62
     0
 10
-1.0
 20
-0.131652497
 30
0.0
 11
-1.0
 21
0.131652497
 31
0.0
 12
0.0
 22
0.0
 32
0.0
 13
0.0
 23
0.0
 33
0.0
  0
ENDBLK
  5
1C38
  8
0
  0
BLOCK
  8
0
  2
_ACMOPEN15
 70
     0
 10
0.0
 20
0.0
 30
0.0
  3
_ACMOPEN15
  1

  0
LINE
  5
1C6A
  8
0
 62
     0
 10
-1.0
 20
0.0
 30
0.0
 11
0.0
 21
0.0
 31
0.0
  0
LINE
  5
1C6B
  8
0
 62
     0
 10
-1.0
 20
-0.131652497
 30
0.0
 11
0.0
 21
0.0
 31
0.0
  0
LINE
  5
1C6C
  8
0
 62
     0
 10
0.0
 20
0.0
 30
0.0
 11
-1.0
 21
0.131652497
 31
0.0
  0
ENDBLK
  5
1C6D
  8
0
  0
BLOCK
  8
0
  2
A$C617F0416
 70
     0
 10
0.0
 20
0.0
 30
0.0
  3
A$C617F0416
  1

  0
LINE
  5
1DD9
  8
0
  6
CONTINUOUS
 62
     7
 10
36.5
 20
81.00001050000003
 30
0.0
 11
71.896270000000072
 21
82.236070500000025
 31
0.0
  0
LINE
  5
1DDA
  8
0
  6
CONTINUOUS
 62
     7
 10
0.0
 20
-73.500000499999999
 30
0.0
 11
0.0
 21
73.500000500000013
 31
0.0
  0
LINE
  5
1DDB
  8
0
  6
CONTINUOUS
 62
     7
 10
111.5
 20
-61.800010499999999
 30
0.0
 11
115.49997
 21
-61.800010499999999
 31
0.0
  0
LINE
  5
1DDC
  8
0
  6
CONTINUOUS
 62
     7
 10
125.4999700000001
 20
40.200010500000019
 30
0.0
 11
125.4999700000001
 21
37.20001050000004
 31
0.0
  0
LINE
  5
1DDD
  8
0
  6
CONTINUOUS
 62
     7
 10
101.5
 20
74.325210500000026
 30
0.0
 11
101.5
 21
113.41940049999999
 31
0.0
  0
LINE
  5
1DDE
  8
0
  6
CONTINUOUS
 62
     7
 10
111.5
 20
23.200000499999931
 30
0.0
 11
111.5
 21
115.6999805
 31
0.0
  0
LINE
  5
1DDF
  8
0
  6
CONTINUOUS
 62
     7
 10
103.43021
 20
115.4182005
 30
0.0
 11
111.5
 21
115.7000005
 31
0.0
  0
LINE
  5
1DE0
  8
0
  6
CONTINUOUS
 62
     7
 10
79.253910000000076
 20
-82.493019499999974
 30
0.0
 11
101.5
 21
-69.649238499999981
 31
0.0
  0
LINE
  5
1DE1
  8
0
  6
CONTINUOUS
 62
     7
 10
115.49997
 20
108.1999804999999
 30
0.0
 11
115.49997
 21
-61.800010499999999
 31
0.0
  0
LINE
  5
1DE2
  8
0
  6
CONTINUOUS
 62
     7
 10
101.5
 20
-0.7103394999999753
 30
0.0
 11
101.5
 21
74.325210500000026
 31
0.0
  0
LINE
  5
1DE3
  8
0
  6
CONTINUOUS
 62
     7
 10
73.07729999999998
 20
82.27730049999991
 30
0.0
 11
92.430079999999961
 21
64.571110500000032
 31
0.0
  0
LINE
  5
1DE4
  8
0
  6
CONTINUOUS
 62
     7
 10
92.430110000000084
 20
64.571110500000032
 30
0.0
 11
92.430110000000084
 21
64.571110500000032
 31
0.0
  0
LINE
  5
1DE5
  8
0
  6
CONTINUOUS
 62
     7
 10
125.4999700000001
 20
40.200010500000019
 30
0.0
 11
157.49996999999999
 21
40.200010500000019
 31
0.0
  0
LINE
  5
1DE6
  8
0
  6
CENTER
 62
     7
 10
17.05865
 20
23.200000499999931
 30
0.0
 11
162.4477500000001
 21
23.200000499999931
 31
0.0
  0
LINE
  5
1DE7
  8
0
  6
CONTINUOUS
 62
     7
 10
115.49997
 20
9.2000105000000154
 30
0.0
 11
157.49996999999999
 21
9.2000105000000154
 31
0.0
  0
LINE
  5
1DE8
  8
0
  6
CONTINUOUS
 62
     7
 10
115.49997
 20
37.20001050000004
 30
0.0
 11
157.49996999999999
 21
37.20001050000004
 31
0.0
  0
LINE
  5
1DE9
  8
0
  6
CONTINUOUS
 62
     7
 10
157.49996999999999
 20
40.200010500000019
 30
0.0
 11
157.49996999999999
 21
9.2000105000000154
 31
0.0
  0
LINE
  5
1DEA
  8
0
  6
CONTINUOUS
 62
     7
 10
100.07477
 20
41.674270499999949
 30
0.0
 11
95.73831000000007
 21
18.543500500000022
 31
0.0
  0
LINE
  5
1DEB
  8
0
  6
CONTINUOUS
 62
     7
 10
111.5
 20
108.1999804999999
 30
0.0
 11
115.49997
 21
108.1999804999999
 31
0.0
  0
LINE
  5
1DEC
  8
0
  6
CENTER
 62
     7
 10
99.237000000000094
 20
99.213960499999956
 30
0.0
 11
117.50772000000001
 21
99.213960499999956
 31
0.0
  0
LINE
  5
1DED
  8
0
  6
CONTINUOUS
 62
     7
 10
36.5
 20
-81.000011499999971
 30
0.0
 11
36.5
 21
81.000000500000027
 31
0.0
  0
LINE
  5
1DEE
  8
0
  6
CONTINUOUS
 62
     7
 10
0.0
 20
-73.500015499999975
 30
0.0
 11
26.578520000000079
 21
-74.195999499999999
 31
0.0
  0
LINE
  5
1DEF
  8
0
  6
CONTINUOUS
 62
     3
 10
0.0
 20
61.578640499999949
 30
0.0
 11
29.500029999999981
 21
61.578640499999949
 31
0.0
  0
LINE
  5
1DF0
  8
0
  6
CONTINUOUS
 62
     3
 10
0.0
 20
-61.578644499999982
 30
0.0
 11
29.500029999999981
 21
-61.578644499999982
 31
0.0
  0
LINE
  5
1DF1
  8
0
  6
CONTINUOUS
 62
     7
 10
36.5
 20
-66.110229499999974
 30
0.0
 11
101.5
 21
-66.110229499999974
 31
0.0
  0
LINE
  5
1DF2
  8
0
  6
CONTINUOUS
 62
     7
 10
105.5
 20
-47.300010499999999
 30
0.0
 11
105.5
 21
93.372280499999917
 31
0.0
  0
LINE
  5
1DF3
  8
0
  6
CONTINUOUS
 62
     7
 10
36.5
 20
46.250000500000027
 30
0.0
 11
98.445310000000006
 21
46.250000500000027
 31
0.0
  0
LINE
  5
1DF4
  8
0
  6
CONTINUOUS
 62
     7
 10
101.5
 20
-66.542648499999984
 30
0.0
 11
101.5
 21
-31.17065950000007
 31
0.0
  0
LINE
  5
1DF5
  8
0
  6
CONTINUOUS
 62
     7
 10
73.912930000000003
 20
83.112910500000027
 30
0.0
 11
101.5
 21
110.69997049999991
 31
0.0
  0
LINE
  5
1DF6
  8
0
  6
CONTINUOUS
 62
     7
 10
61.499970000000069
 20
-53.267784499999991
 30
0.0
 11
101.5
 21
-53.267784499999991
 31
0.0
  0
LINE
  5
1DF7
  8
0
  6
CONTINUOUS
 62
     7
 10
61.499970000000069
 20
-38.604469499999979
 30
0.0
 11
101.5
 21
-38.604469499999979
 31
0.0
  0
LINE
  5
1DF8
  8
0
  6
CONTINUOUS
 62
     7
 10
61.499970000000069
 20
-52.084785499999981
 30
0.0
 11
61.499970000000069
 21
-39.764786499999992
 31
0.0
  0
LINE
  5
1DF9
  8
0
  6
CONTINUOUS
 62
     7
 10
111.5
 20
-69.300018499999979
 30
0.0
 11
111.5
 21
23.200000499999931
 31
0.0
  0
LINE
  5
1DFA
  8
0
  6
CONTINUOUS
 62
     7
 10
103.129
 20
-2.710359500000179
 30
0.0
 11
105.5
 21
-2.710359500000179
 31
0.0
  0
LINE
  5
1DFB
  8
0
  6
CONTINUOUS
 62
     7
 10
101.5
 20
-69.649223499999977
 30
0.0
 11
111.5
 21
-69.300018499999979
 31
0.0
  0
LINE
  5
1DFC
  8
0
  6
CONTINUOUS
 62
     7
 10
36.5
 20
-81.000007499999967
 30
0.0
 11
79.253910000000076
 21
-82.493007499999976
 31
0.0
  0
LINE
  5
1DFD
  8
0
  6
CENTER
 62
     7
 10
98.238429999999994
 20
-52.814003500000013
 30
0.0
 11
119.21844
 21
-52.814003500000013
 31
0.0
  0
LINE
  5
1DFE
  8
0
  6
CONTINUOUS
 62
     7
 10
0.0
 20
73.50001050000003
 30
0.0
 11
26.578520000000079
 21
74.196000499999911
 31
0.0
  0
LINE
  5
1DFF
  8
0
  6
CONTINUOUS
 62
     7
 10
29.500029999999981
 20
78.86838049999993
 30
0.0
 11
29.500029999999981
 21
-78.824180499999983
 31
0.0
  0
LINE
  5
1E00
  8
0
  6
CONTINUOUS
 62
     7
 10
31.447630000000011
 20
80.867690499999952
 30
0.0
 11
36.499970000000083
 21
81.000000500000027
 31
0.0
  0
LINE
  5
1E01
  8
0
  6
CONTINUOUS
 62
     7
 10
0.0
 20
-39.474678499999982
 30
0.0
 11
29.500029999999981
 21
-39.474678499999982
 31
0.0
  0
LINE
  5
1E02
  8
0
  6
CONTINUOUS
 62
     7
 10
0.0
 20
39.474680500000012
 30
0.0
 11
29.500029999999981
 21
39.474680500000012
 31
0.0
  0
LINE
  5
1E03
  8
0
  6
CONTINUOUS
 62
     7
 10
36.5
 20
-81.000007499999967
 30
0.0
 11
31.430180000000011
 21
-80.822963499999986
 31
0.0
  0
ARC
  5
1E04
  8
0
  6
CONTINUOUS
 62
     7
 10
71.791600000000074
 20
85.23425050000003
 30
0.0
 40
3.0
 50
272.0000000000004
 51
315.0
  0
ARC
  5
1E05
  8
0
  6
CONTINUOUS
 62
     7
 10
104.5
 20
-31.17065950000007
 30
0.0
 40
3.0
 50
90.000003000000945
 51
180.00000999999941
  0
ARC
  5
1E06
  8
0
  6
CONTINUOUS
 62
     7
 10
104.5
 20
-66.542648499999984
 30
0.0
 40
3.0
 50
179.99999000000059
 51
271.99999000000128
  0
ARC
  5
1E07
  8
0
  6
CONTINUOUS
 62
     7
 10
120.1453200000001
 20
13.96777049999991
 30
0.0
 40
24.83221099999999
 50
169.38167999999959
 51
218.7932100000001
  0
ARC
  5
1E08
  8
0
  6
CONTINUOUS
 62
     7
 10
75.667759999999987
 20
46.250000500000027
 30
0.0
 40
24.83221099999999
 50
349.38167999999962
 51
47.54406599999875
  0
ARC
  5
1E09
  8
0
  6
CONTINUOUS
 62
     7
 10
104.5
 20
74.325210500000026
 30
0.0
 40
3.0
 50
179.99999000000059
 51
270.0
  0
ARC
  5
1E0A
  8
0
  6
CONTINUOUS
 62
     7
 10
26.500029999999981
 20
-77.194965499999981
 30
0.0
 40
3.0
 50
0.0
 51
88.499997000000747
  0
ARC
  5
1E0B
  8
0
  6
CONTINUOUS
 62
     7
 10
31.50000000000006
 20
-78.824180499999983
 30
0.0
 40
2.0
 50
179.99999000000059
 51
268.00000999999872
  0
ARC
  5
1E0C
  8
0
  6
CONTINUOUS
 62
     7
 10
61.501680000000057
 20
-45.936126499999993
 30
0.0
 40
7.331658799999996
 50
90.000003000000945
 51
270.0
  0
ARC
  5
1E0D
  8
0
  6
CONTINUOUS
 62
     7
 10
102.5
 20
93.372280499999917
 30
0.0
 40
3.0
 50
0.0
 51
91.999998000000545
  0
ARC
  5
1E0E
  8
0
  6
CONTINUOUS
 62
     7
 10
103.49997
 20
113.41940049999999
 30
0.0
 40
2.0
 50
91.999998000000545
 51
180.00000999999941
  0
ARC
  5
1E0F
  8
0
  6
CONTINUOUS
 62
     7
 10
26.500029999999981
 20
77.194980499999929
 30
0.0
 40
3.0
 50
271.49999999999949
 51
0.0
  0
ARC
  5
1E10
  8
0
  6
CONTINUOUS
 62
     7
 10
31.50000000000006
 20
78.86838049999993
 30
0.0
 40
2.0
 50
91.500001000001546
 51
180.00000999999941
  0
ARC
  5
1E11
  8
0
  6
CONTINUOUS
 62
     7
 10
102.5
 20
-47.300010499999999
 30
0.0
 40
3.0
 50
270.0
 51
0.0
  0
ARC
  5
1E12
  8
0
  6
CONTINUOUS
 62
     7
 10
103.129
 20
0.2896404999998197
 30
0.0
 40
3.0
 50
218.7932200000009
 51
270.0
  0
ENDBLK
  5
1E14
  8
0
  0
BLOCK
  8
0
  2
*D8
 70
     1
 10
0.0
 20
0.0
 30
0.0
  3
*D8
  1

  0
LINE
  5
1FB5
  8
AM_5
 62
     2
 10
638.09006603743921
 20
356.22191273932322
 30
0.0
 11
761.08087020558025
 21
194.72184765552089
 31
0.0
  0
SOLID
  5
1FB6
  8
AM_5
 62
     2
 10
638.88563277429341
 20
356.82777870404777
 30
0.0
 11
637.29449930058524
 21
355.6160467745986
 31
0.0
 12
634.45487024909175
 22
360.99531316044653
 32
0.0
 13
634.45487024909175
 23
360.99531316044653
 33
0.0
  0
SOLID
  5
1FB7
  8
AM_5
 62
     2
 10
761.87643694243411
 20
195.32771362024539
 30
0.0
 11
760.28530346872606
 21
194.11598169079619
 31
0.0
 12
764.7160659939276
 22
189.94844723439749
 32
0.0
 13
764.7160659939276
 23
189.94844723439749
 33
0.0
  0
INSERT
  5
1FB8
  8
0
  2
*U12
 10
0.0
 20
0.0
 30
0.0
  0
POINT
  5
1FB9
  8
DEFPOINTS
 62
     0
 10
764.7160659939276
 20
189.94844723439749
 30
0.0
  0
POINT
  5
1FBA
  8
DEFPOINTS
 62
     0
 10
634.45487024909175
 20
360.99531316044653
 30
0.0
  0
ENDBLK
  5
1FBB
  8
0
  0
BLOCK
  8
0
  2
*D9
 70
     1
 10
0.0
 20
0.0
 30
0.0
  3
*D9
  1

  0
LINE
  5
20B0
  8
AM_5
 62
     2
 10
564.20153270514254
 20
225.81780482205451
 30
0.0
 11
687.19233687328517
 21
64.317739738253636
 31
0.0
  0
SOLID
  5
20B1
  8
AM_5
 62
     2
 10
564.99709944199617
 20
226.42367078677901
 30
0.0
 11
563.40596596828834
 21
225.2119388573299
 31
0.0
 12
560.56633691679485
 22
230.59120524317771
 32
0.0
 13
560.56633691679485
 23
230.59120524317771
 33
0.0
  0
SOLID
  5
20B2
  8
AM_5
 62
     2
 10
687.98790361013926
 20
64.923605702978293
 30
0.0
 11
686.39677013643154
 21
63.711873773529071
 31
0.0
 12
690.82753266163297
 22
59.544339317130436
 32
0.0
 13
690.82753266163297
 23
59.544339317130436
 33
0.0
  0
INSERT
  5
20B3
  8
0
  2
*U13
 10
0.0
 20
0.0
 30
0.0
  0
POINT
  5
20B4
  8
DEFPOINTS
 62
     0
 10
690.82753266163297
 20
59.544339317130436
 30
0.0
  0
POINT
  5
20B5
  8
DEFPOINTS
 62
     0
 10
560.56633691679485
 20
230.59120524317771
 30
0.0
  0
ENDBLK
  5
20A9
  8
0
  0
BLOCK
  8
0
  2
*U12
 70
     1
 10
0.0
 20
0.0
 30
0.0
  3
*U12
  1

  0
TEXT
  5
2388
  8
AM_5
 62
     4
 10
732.09368460823475
 20
240.21250443599621
 30
0.0
 40
7.5
  1
\U+2205215
 50
307.2911818196971
 41
0.84
  0
ENDBLK
  5
238A
  8
0
  0
BLOCK
  8
0
  2
*U13
 70
     1
 10
0.0
 20
0.0
 30
0.0
  3
*U13
  1

  0
TEXT
  5
238D
  8
AM_5
 62
     4
 10
658.20515127593876
 20
109.8083965187284
 30
0.0
 40
7.5
  1
\U+2205215
 50
307.29118181969773
 41
0.84
  0
ENDBLK
  5
238F
  8
0
  0
ENDSEC
  0
SECTION
  2
ENTITIES
  0
LINE
  5
1223
  8
0
  6
AM_ISO08W050
 10
-0.0000014034449123
 20
121.8677912801557
 30
0.0
 11
329.70190311142142
 21
121.8677912801557
 31
0.0
  0
ARC
  5
12A1
  8
0
  6
CONTINUOUS
 62
     7
 10
297.5934110477765
 20
59.867762225245542
 30
0.0
 40
1.0
 50
180.0
 51
270.0
  0
ARC
  5
12A2
  8
0
  6
CONTINUOUS
 62
     7
 10
297.5934110477765
 20
183.86776222524551
 30
0.0
 40
1.0
 50
90.0
 51
180.0
  0
ARC
  5
12A3
  8
0
  6
CONTINUOUS
 62
     7
 10
295.5850360477765
 20
55.367762225245542
 30
0.0
 40
2.0
 50
270.0
 51
344.99999999999892
  0
LINE
  5
12A4
  8
0
  6
CONTINUOUS
 62
     7
 10
298.5934110477765
 20
58.867762225245542
 30
0.0
 11
297.51688804777649
 21
54.850124225245501
 31
0.0
  0
ARC
  5
12A5
  8
0
  6
CONTINUOUS
 62
     7
 10
293.76979204777649
 20
46.971597225245539
 30
0.0
 40
2.0
 50
270.0
 51
345.0000029999984
  0
LINE
  5
12A6
  8
0
  6
CONTINUOUS
 62
     7
 10
298.5934110477765
 20
57.246181225245543
 30
0.0
 11
295.70164404777648
 21
46.453959225245498
 31
0.0
  0
ARC
  5
12A7
  8
0
 10
227.5934110477765
 20
44.005564225245507
 30
0.0
 40
2.0
 50
270.0
 51
0.0
  0
ARC
  5
12A8
  8
0
 10
227.5934110477765
 20
44.432842225245501
 30
0.0
 40
2.0
 50
270.0
 51
0.0
  0
ARC
  5
12A9
  8
0
 10
227.5934110477765
 20
45.43819322524552
 30
0.0
 40
2.0
 50
270.0
 51
346.50868899999813
  0
LINE
  5
12AA
  8
0
 10
229.5934110477765
 20
44.005564225245507
 30
0.0
 11
229.5934110477765
 21
44.971597225245539
 31
0.0
  0
LINE
  5
12AB
  8
0
 10
142.5934110477765
 20
52.339395225245539
 30
0.0
 11
134.5934110477765
 21
52.339395225245539
 31
0.0
  0
LINE
  5
12AC
  8
0
 10
142.5934110477765
 20
47.983406225245503
 30
0.0
 11
134.5934110477765
 21
47.983406225245503
 31
0.0
  0
LINE
  5
12AD
  8
0
 10
142.5934110477765
 20
45.345767225245567
 30
0.0
 11
134.5934110477765
 21
45.345767225245567
 31
0.0
  0
ARC
  5
12AE
  8
0
 10
146.5934110477765
 20
44.005564225245507
 30
0.0
 40
2.0
 50
180.0
 51
270.0
  0
LINE
  5
12AF
  8
0
 10
144.5934110477765
 20
45.983406225245517
 30
0.0
 11
144.5934110477765
 21
45.43819322524552
 31
0.0
  0
ARC
  5
12B0
  8
0
 10
146.44286104777649
 20
44.432842225245501
 30
0.0
 40
2.0
 50
195.7695470000001
 51
270.0
  0
ARC
  5
12B1
  8
0
 10
146.5934110477765
 20
45.43819322524552
 30
0.0
 40
2.0
 50
180.0
 51
270.0
  0
ARC
  5
12B2
  8
0
 10
146.5934110477765
 20
46.971597225245539
 30
0.0
 40
2.0
 50
180.0
 51
270.0
  0
LINE
  5
12B3
  8
0
 10
144.5934110477765
 20
50.339395225245539
 30
0.0
 11
144.5934110477765
 21
46.971597225245539
 31
0.0
  0
ARC
  5
12B4
  8
0
 10
142.5934110477765
 20
50.339395225245539
 30
0.0
 40
2.0
 50
0.0
 51
90.0
  0
ARC
  5
12B5
  8
0
 10
142.5934110477765
 20
45.983406225245517
 30
0.0
 40
2.0
 50
0.0
 51
90.0
  0
ARC
  5
12B6
  8
0
 10
142.5934110477765
 20
43.345767225245581
 30
0.0
 40
2.0
 50
15.76954700000012
 51
90.0
  0
LINE
  5
12B7
  8
0
 10
146.5934110477765
 20
44.971597225245539
 30
0.0
 11
293.76979204777649
 21
44.971597225245539
 31
0.0
  0
LINE
  5
12B8
  8
0
 10
146.5934110477765
 20
43.438193225245499
 30
0.0
 11
227.5934110477765
 21
43.438193225245499
 31
0.0
  0
LINE
  5
12B9
  8
0
 10
146.44286104777649
 20
42.432842225245487
 30
0.0
 11
227.5934110477765
 21
42.432842225245487
 31
0.0
  0
LINE
  5
12BA
  8
0
 10
146.5934110477765
 20
42.005564225245507
 30
0.0
 11
227.5934110477765
 21
42.005564225245507
 31
0.0
  0
ARC
  5
12BB
  8
0
  6
CONTINUOUS
 62
     7
 10
293.76979204777649
 20
196.76392722524551
 30
0.0
 40
2.0
 50
14.99999700000172
 51
90.0
  0
ARC
  5
12BC
  8
0
  6
CONTINUOUS
 62
     7
 10
295.5850360477765
 20
188.36776222524551
 30
0.0
 40
2.0
 50
15.00000000000116
 51
90.0
  0
LINE
  5
12BD
  8
0
  6
CONTINUOUS
 62
     7
 10
298.5934110477765
 20
186.48934322524551
 30
0.0
 11
295.70164404777648
 21
197.28156522524549
 31
0.0
  0
LINE
  5
12BE
  8
0
  6
CONTINUOUS
 62
     7
 10
298.5934110477765
 20
184.86776222524551
 30
0.0
 11
297.51688804777649
 21
188.8854002252456
 31
0.0
  0
LINE
  5
12BF
  8
0
  6
CONTINUOUS
 62
     7
 10
296.5934110477765
 20
78.037762225245501
 30
0.0
 11
296.5934110477765
 21
85.974407225245514
 31
0.0
  0
LINE
  5
12C0
  8
0
  6
CONTINUOUS
 62
     7
 10
296.5934110477765
 20
168.0377622252455
 30
0.0
 11
296.5934110477765
 21
183.86776222524551
 31
0.0
  0
ARC
  5
12C1
  8
0
  6
CONTINUOUS
 62
     7
 10
297.59277204777641
 20
74.826231225245564
 30
0.0
 40
1.0026319999999971
 50
0.0540849999984569
 51
81.24375900000075
  0
LINE
  5
12C2
  8
0
  6
CONTINUOUS
 62
     7
 10
297.74540404777639
 20
75.817178225245584
 30
0.0
 11
295.98660504777649
 21
76.087762225245541
 31
0.0
  0
LINE
  5
12C3
  8
0
  6
CONTINUOUS
 62
     7
 10
297.73540404777651
 20
77.907178225245502
 30
0.0
 11
296.13271604777651
 21
77.687762225245478
 31
0.0
  0
ARC
  5
12C4
  8
0
  6
CONTINUOUS
 62
     7
 10
297.5884360477765
 20
78.903382225245537
 30
0.0
 40
1.0069859999999999
 50
278.3921630000014
 51
359.64700200000118
  0
LINE
  5
12C5
  8
0
  6
CONTINUOUS
 62
     7
 10
298.59540404777653
 20
78.897178225245511
 30
0.0
 11
298.59540404777653
 21
74.827178225245561
 31
0.0
  0
ARC
  5
12C6
  8
0
  6
CONTINUOUS
 62
     7
 10
296.05204804777651
 20
76.87382222524559
 30
0.0
 40
0.8033630000000001
 50
0.2393299999979143
 51
89.760670000002094
  0
ARC
  5
12C7
  8
0
  6
CONTINUOUS
 62
     7
 10
296.05034204777638
 20
76.882240225245596
 30
0.0
 40
0.8050779999999997
 50
270.3602510000012
 51
359.6397489999984
  0
ARC
  5
12C8
  8
0
  6
CONTINUOUS
 62
     7
 10
297.5884360477765
 20
164.83214222524549
 30
0.0
 40
1.0069859999999999
 50
0.3529979999987971
 51
81.607836999998227
  0
LINE
  5
12C9
  8
0
  6
CONTINUOUS
 62
     7
 10
297.73540404777651
 20
165.8283462252455
 30
0.0
 11
296.13271604777651
 21
166.04776222524549
 31
0.0
  0
ARC
  5
12CA
  8
0
  6
CONTINUOUS
 62
     7
 10
297.59277204777641
 20
168.90929322524551
 30
0.0
 40
1.0026319999999971
 50
278.75624099999919
 51
359.94591500000149
  0
LINE
  5
12CB
  8
0
  6
CONTINUOUS
 62
     7
 10
298.59540404777653
 20
164.83834622524549
 30
0.0
 11
298.59540404777653
 21
168.90834622524551
 31
0.0
  0
LINE
  5
12CC
  8
0
  6
CONTINUOUS
 62
     7
 10
297.74540404777639
 20
167.91834622524561
 30
0.0
 11
295.98660504777649
 21
167.64776222524549
 31
0.0
  0
ARC
  5
12CD
  8
0
  6
CONTINUOUS
 62
     7
 10
296.05204804777651
 20
166.86170222524549
 30
0.0
 40
0.8033630000000001
 50
270.23932999999749
 51
359.76067000000211
  0
ARC
  5
12CE
  8
0
  6
CONTINUOUS
 62
     7
 10
296.05034204777638
 20
166.85328422524549
 30
0.0
 40
0.8050779999999997
 50
0.3602510000016263
 51
89.639748999998375
  0
LINE
  5
12CF
  8
0
  6
CONTINUOUS
 62
     7
 10
296.5934110477765
 20
159.7317072252456
 30
0.0
 11
306.5934110477765
 21
159.7317072252456
 31
0.0
  0
LINE
  5
12D0
  8
0
  6
CONTINUOUS
 62
     7
 10
296.5934110477765
 20
84.013817225245589
 30
0.0
 11
306.5934110477765
 21
84.013817225245589
 31
0.0
  0
LINE
  5
12D1
  8
0
 10
288.5934110477765
 20
95.767762225245519
 30
0.0
 11
298.00341104777652
 21
95.767762225245519
 31
0.0
  0
LINE
  5
12D2
  8
0
 10
284.68500804777648
 20
97.947762225245611
 30
0.0
 11
298.09862804777651
 21
97.947762225245611
 31
0.0
  0
LINE
  5
12D3
  8
0
 10
284.5934110477765
 20
117.8777622252455
 30
0.0
 11
297.58732404777652
 21
117.8777622252455
 31
0.0
  0
LINE
  5
12D4
  8
0
 10
288.5934110477765
 20
88.017762225245505
 30
0.0
 11
298.09862804777651
 21
88.017762225245505
 31
0.0
  0
LINE
  5
12D5
  8
0
 10
214.7434110477765
 20
78.037762225245501
 30
0.0
 11
298.10295004777652
 21
78.037762225245501
 31
0.0
  0
LINE
  5
12D6
  8
0
 10
134.5934110477765
 20
168.0377622252455
 30
0.0
 11
298.0884590477765
 21
168.0377622252455
 31
0.0
  0
LINE
  5
12D7
  8
0
 10
288.5934110477765
 20
155.71776222524551
 30
0.0
 11
298.09862804777651
 21
155.71776222524551
 31
0.0
  0
LINE
  5
12D8
  8
0
 10
284.5934110477765
 20
125.85776222524549
 30
0.0
 11
297.58732404777652
 21
125.85776222524549
 31
0.0
  0
LINE
  5
12D9
  8
0
 10
284.68500804777648
 20
145.7877622252455
 30
0.0
 11
298.09862804777651
 21
145.7877622252455
 31
0.0
  0
LINE
  5
12DA
  8
0
 10
288.5934110477765
 20
147.96776222524551
 30
0.0
 11
298.00341104777652
 21
147.96776222524551
 31
0.0
  0
ARC
  5
12DB
  8
0
 10
294.1934200477765
 20
176.17673622524561
 30
0.0
 40
2.2000009999999981
 50
180.00000299999761
 51
269.99997799999852
  0
ARC
  5
12DC
  8
0
 10
294.1934200477765
 20
180.7767422252453
 30
0.0
 40
2.1999970000000002
 50
90.0
 51
179.99998200000081
  0
LINE
  5
12DD
  8
0
  6
CONTINUOUS
 62
     7
 10
296.5934110477765
 20
178.4272942252455
 30
0.0
 11
295.29341104777649
 21
177.6767392252456
 31
0.0
  0
LINE
  5
12DE
  8
0
  6
CONTINUOUS
 62
     7
 10
296.5934110477765
 20
179.4272942252455
 30
0.0
 11
295.29341104777649
 21
178.67673922524551
 31
0.0
  0
LINE
  5
12DF
  8
0
  6
CONTINUOUS
 62
     7
 10
295.29341104777649
 20
183.07673922524549
 30
0.0
 11
296.5934110477765
 21
183.07673922524549
 31
0.0
  0
LINE
  5
12E0
  8
0
  6
CONTINUOUS
 62
     7
 10
295.29341104777649
 20
173.8767392252455
 30
0.0
 11
296.5934110477765
 21
173.8767392252455
 31
0.0
  0
LINE
  5
12E1
  8
0
  6
CONTINUOUS
 62
     7
 10
296.5934110477765
 20
183.07673922524549
 30
0.0
 11
296.5934110477765
 21
173.8767392252455
 31
0.0
  0
LINE
  5
12E2
  8
0
 10
291.99340804777648
 20
180.7767422252453
 30
0.0
 11
291.99340804777648
 21
176.17673622524561
 31
0.0
  0
LINE
  5
12E3
  8
0
  6
CONTINUOUS
 62
     7
 10
295.29341104777649
 20
183.07673922524549
 30
0.0
 11
295.29341104777649
 21
173.8767392252455
 31
0.0
  0
LINE
  5
12E4
  8
0
  6
CONTINUOUS
 62
     7
 10
295.29341104777649
 20
173.9767392252455
 30
0.0
 11
294.1934200477765
 21
173.9767392252455
 31
0.0
  0
LINE
  5
12E5
  8
0
  6
CONTINUOUS
 62
     7
 10
295.29341104777649
 20
182.9767392252455
 30
0.0
 11
294.1934200477765
 21
182.9767392252455
 31
0.0
  0
LINE
  5
12E7
  8
0
  6
CONTINUOUS
 62
     7
 10
297.5934110477765
 20
58.867762225245542
 30
0.0
 11
306.5934110477765
 21
58.867762225245542
 31
0.0
  0
LINE
  5
12E8
  8
0
  6
CONTINUOUS
 62
     7
 10
297.5934110477765
 20
48.367762225245542
 30
0.0
 11
306.5934110477765
 21
48.367762225245542
 31
0.0
  0
LINE
  5
12E9
  8
0
  6
CONTINUOUS
 62
     7
 10
297.5934110477765
 20
184.86776222524551
 30
0.0
 11
306.5934110477765
 21
184.86776222524551
 31
0.0
  0
LINE
  5
12EA
  8
0
  6
CONTINUOUS
 62
     7
 10
297.5934110477765
 20
195.36776222524551
 30
0.0
 11
306.5934110477765
 21
195.36776222524551
 31
0.0
  0
LINE
  5
12EB
  8
0
 10
6.8934110477764516
 20
45.324574225245527
 30
0.0
 11
7.2469640477764861
 21
45.678127225245589
 31
0.0
  0
LINE
  5
12EC
  8
0
 10
9.4720910477765301
 20
42.745894225245593
 30
0.0
 11
6.8934110477764516
 21
45.324574225245527
 31
0.0
  0
LINE
  5
12ED
  8
0
 10
9.8256440477764482
 20
43.099447225245513
 30
0.0
 11
7.2469640477764861
 21
45.678127225245589
 31
0.0
  0
ARC
  5
12EE
  8
0
 10
11.593411047776501
 20
44.86721422524554
 30
0.0
 40
3.0
 50
220.00000000000361
 51
33.55731000000273
  0
ARC
  5
12EF
  8
0
 10
16.543261047776468
 20
59.063306225245583
 30
0.0
 40
2.249854
 50
179.88651000000229
 51
261.61639199999968
  0
ARC
  5
12F0
  8
0
 10
104.5934110477765
 20
121.8677622252455
 30
0.0
 40
7.0
 50
16.601549999998561
 51
163.39845000000139
  0
ARC
  5
12F1
  8
0
 10
104.5934110477765
 20
121.8677622252455
 30
0.0
 40
6.0
 50
19.47122000000012
 51
160.52877899999851
  0
LINE
  5
12F2
  8
0
 10
97.593411047776513
 20
123.8677622252455
 30
0.0
 11
97.593411047776513
 21
124.3677622252455
 31
0.0
  0
LINE
  5
12F3
  8
0
 10
113.5934110477765
 20
123.8677622252455
 30
0.0
 11
113.5934110477765
 21
124.3677622252455
 31
0.0
  0
LINE
  5
12F4
  8
0
 10
113.5934110477765
 20
124.3677622252455
 30
0.0
 11
118.5934110477765
 21
124.3677622252455
 31
0.0
  0
LINE
  5
12F5
  8
0
 10
113.5934110477765
 20
123.8677622252455
 30
0.0
 11
97.593411047776513
 21
123.8677622252455
 31
0.0
  0
LINE
  5
12F6
  8
0
 10
118.5934110477765
 20
119.3677622252455
 30
0.0
 11
118.5934110477765
 21
124.3677622252455
 31
0.0
  0
LINE
  5
12F7
  8
0
 10
22.363411047776481
 20
124.26766522524549
 30
0.0
 11
22.363411047776481
 21
195.8877622252455
 31
0.0
  0
LINE
  5
12F8
  8
0
 10
18.293411047776541
 20
117.5139272252455
 30
0.0
 11
18.293411047776541
 21
58.497122225245562
 31
0.0
  0
ARC
  5
12F9
  8
0
 10
15.77769104777644
 20
53.868593225245611
 30
0.0
 40
3.0009689999999982
 50
9.9623179999990032
 51
81.616391999999735
  0
LINE
  5
12FA
  8
0
 10
113.5934110477765
 20
119.8677622252455
 30
0.0
 11
97.593411047776513
 21
119.8677622252455
 31
0.0
  0
LINE
  5
12FB
  8
0
 10
113.5934110477765
 20
119.3677622252455
 30
0.0
 11
118.5934110477765
 21
119.3677622252455
 31
0.0
  0
LINE
  5
12FC
  8
0
 10
113.5934110477765
 20
119.8677622252455
 30
0.0
 11
113.5934110477765
 21
119.3677622252455
 31
0.0
  0
ARC
  5
12FD
  8
0
 10
104.5934110477765
 20
121.8677622252455
 30
0.0
 40
7.0
 50
196.6015499999985
 51
343.39845000000139
  0
LINE
  5
12FE
  8
0
 10
97.593411047776513
 20
119.8677622252455
 30
0.0
 11
97.593411047776513
 21
119.3677622252455
 31
0.0
  0
ARC
  5
12FF
  8
0
 10
104.5934110477765
 20
121.8677622252455
 30
0.0
 40
6.0
 50
199.47122100000149
 51
340.52877999999993
  0
LINE
  5
1300
  8
0
 10
97.593411047776513
 20
124.3677622252455
 30
0.0
 11
24.093411047776499
 21
124.3677622252455
 31
0.0
  0
LINE
  5
1301
  8
0
 10
97.593411047776513
 20
119.3677622252455
 30
0.0
 11
24.093411047776499
 21
119.3677622252455
 31
0.0
  0
ARC
  5
1302
  8
0
 10
24.093411047776499
 20
109.3677622252455
 30
0.0
 40
10.0
 50
90.0
 51
180.0
  0
ARC
  5
1303
  8
0
 10
24.093411047776499
 20
109.3677622252455
 30
0.0
 40
15.0
 50
90.0
 51
180.0
  0
ARC
  5
1304
  8
0
 10
11.593411047776501
 20
44.86721422524554
 30
0.0
 40
2.5
 50
180.0
 51
0.0
  0
LINE
  5
1305
  8
0
 10
9.0934110477764971
 20
44.86721422524554
 30
0.0
 11
9.0934110477764971
 21
109.3677622252455
 31
0.0
  0
LINE
  5
1306
  8
0
 10
14.093411047776501
 20
44.86721422524554
 30
0.0
 11
14.093411047776501
 21
109.3677622252455
 31
0.0
  0
LINE
  5
1307
  8
0
  6
CONTINUOUS
 62
     7
 10
297.73341104777649
 20
125.8377622252455
 30
0.0
 11
296.29341104777649
 21
126.0349052252455
 31
0.0
  0
LINE
  5
1308
  8
0
  6
CONTINUOUS
 62
     7
 10
297.74341104777648
 20
127.9277622252455
 30
0.0
 11
296.29341104777649
 21
127.7046852252455
 31
0.0
  0
LINE
  5
1309
  8
0
  6
CONTINUOUS
 62
     7
 10
298.5934110477765
 20
124.8477622252455
 30
0.0
 11
298.5934110477765
 21
128.9177622252455
 31
0.0
  0
LINE
  5
130A
  8
0
  6
CONTINUOUS
 62
     7
 10
297.73341104777649
 20
135.83776222524551
 30
0.0
 11
296.29341104777649
 21
136.0349052252455
 31
0.0
  0
LINE
  5
130B
  8
0
  6
CONTINUOUS
 62
     7
 10
297.74341104777648
 20
137.92776222524549
 30
0.0
 11
296.29341104777649
 21
137.7046852252455
 31
0.0
  0
LINE
  5
130C
  8
0
  6
CONTINUOUS
 62
     7
 10
298.5934110477765
 20
134.8477622252455
 30
0.0
 11
298.5934110477765
 21
138.9177622252455
 31
0.0
  0
LINE
  5
130D
  8
0
  6
CONTINUOUS
 62
     7
 10
297.74341104777648
 20
147.92776222524549
 30
0.0
 11
296.29341104777649
 21
147.7046852252455
 31
0.0
  0
LINE
  5
130E
  8
0
  6
CONTINUOUS
 62
     7
 10
297.73341104777649
 20
145.8377622252456
 30
0.0
 11
296.29341104777649
 21
146.0349052252455
 31
0.0
  0
LINE
  5
130F
  8
0
  6
CONTINUOUS
 62
     7
 10
298.5934110477765
 20
144.8477622252455
 30
0.0
 11
298.5934110477765
 21
148.9177622252455
 31
0.0
  0
ARC
  5
1310
  8
0
  6
CONTINUOUS
 62
     7
 10
296.04501604777653
 20
126.8677622252455
 30
0.0
 40
0.8000439999999999
 50
288.0879409999983
 51
71.912059000001705
  0
ARC
  5
1311
  8
0
  6
CONTINUOUS
 62
     7
 10
297.59077904777649
 20
128.91870822524561
 30
0.0
 40
1.0026319999999971
 50
278.75624099999919
 51
359.94591500000149
  0
ARC
  5
1312
  8
0
  6
CONTINUOUS
 62
     7
 10
297.58644404777641
 20
124.84155822524551
 30
0.0
 40
1.0069859999999999
 50
0.3529979999987971
 51
81.607836999998227
  0
ARC
  5
1313
  8
0
  6
CONTINUOUS
 62
     7
 10
296.04834904777653
 20
136.86270022524559
 30
0.0
 40
0.8050779999999997
 50
0.3602510000016263
 51
72.278209999996562
  0
ARC
  5
1314
  8
0
  6
CONTINUOUS
 62
     7
 10
297.59077904777649
 20
138.91870822524561
 30
0.0
 40
1.0026319999999971
 50
278.75624099999919
 51
359.94591500000149
  0
ARC
  5
1315
  8
0
  6
CONTINUOUS
 62
     7
 10
297.58644404777641
 20
134.84155822524551
 30
0.0
 40
1.0069859999999999
 50
0.3529979999987971
 51
81.607836999998227
  0
ARC
  5
1316
  8
0
  6
CONTINUOUS
 62
     7
 10
296.05005504777648
 20
146.8711182252454
 30
0.0
 40
0.8033630000000001
 50
287.63315000000142
 51
359.76067000000211
  0
ARC
  5
1317
  8
0
  6
CONTINUOUS
 62
     7
 10
296.04834904777653
 20
146.86270022524559
 30
0.0
 40
0.8050779999999997
 50
0.3602510000016263
 51
72.278209999996562
  0
ARC
  5
1318
  8
0
  6
CONTINUOUS
 62
     7
 10
297.58644404777641
 20
144.84155822524551
 30
0.0
 40
1.0069859999999999
 50
0.3529979999987971
 51
81.607836999998227
  0
ARC
  5
1319
  8
0
  6
CONTINUOUS
 62
     7
 10
297.59077904777649
 20
148.9187082252455
 30
0.0
 40
1.0026319999999971
 50
278.75624099999919
 51
359.94591500000149
  0
ARC
  5
131A
  8
0
  6
CONTINUOUS
 62
     7
 10
296.05005504777648
 20
136.87111822524551
 30
0.0
 40
0.8033630000000001
 50
287.63315000000142
 51
359.76067000000211
  0
ARC
  5
131B
  8
0
  6
CONTINUOUS
 62
     7
 10
297.5884360477765
 20
154.8521422252455
 30
0.0
 40
1.0069859999999999
 50
0.3529979999987971
 51
81.607836999998227
  0
ARC
  5
131C
  8
0
  6
CONTINUOUS
 62
     7
 10
297.59277204777641
 20
158.9292932252456
 30
0.0
 40
1.0026319999999971
 50
278.75624099999919
 51
359.94591500000149
  0
LINE
  5
131D
  8
0
  6
CONTINUOUS
 62
     7
 10
298.59540404777653
 20
154.8583462252455
 30
0.0
 11
298.59540404777653
 21
158.9283462252456
 31
0.0
  0
ARC
  5
131E
  8
0
  6
CONTINUOUS
 62
     7
 10
296.05034204777638
 20
156.87328422524541
 30
0.0
 40
0.8050779999999997
 50
0.3602510000016263
 51
72.278209999996562
  0
LINE
  5
131F
  8
0
  6
CONTINUOUS
 62
     7
 10
297.74540404777639
 20
157.9383462252456
 30
0.0
 11
296.29540404777651
 21
157.71526922524549
 31
0.0
  0
ARC
  5
1320
  8
0
  6
CONTINUOUS
 62
     7
 10
296.05204804777651
 20
156.88170222524559
 30
0.0
 40
0.8033630000000001
 50
287.63315000000142
 51
359.76067000000211
  0
LINE
  5
1321
  8
0
  6
CONTINUOUS
 62
     7
 10
297.73540404777651
 20
155.84834622524551
 30
0.0
 11
296.29540404777651
 21
156.04548922524549
 31
0.0
  0
LINE
  5
1322
  8
0
 10
296.29341104777649
 20
126.0677622252456
 30
0.0
 11
284.5934110477765
 21
126.0677622252456
 31
0.0
  0
LINE
  5
1323
  8
0
 10
296.29341104777649
 20
127.6677622252455
 30
0.0
 11
284.0934110477765
 21
127.6677622252455
 31
0.0
  0
LINE
  5
1324
  8
0
 10
297.74341104777648
 20
127.8877622252455
 30
0.0
 11
284.0934110477765
 21
127.8877622252455
 31
0.0
  0
LINE
  5
1325
  8
0
 10
296.29341104777649
 20
136.06776222524559
 30
0.0
 11
284.0934110477765
 21
136.06776222524559
 31
0.0
  0
LINE
  5
1326
  8
0
 10
296.29341104777649
 20
137.6677622252455
 30
0.0
 11
284.0934110477765
 21
137.6677622252455
 31
0.0
  0
LINE
  5
1327
  8
0
 10
297.73341104777649
 20
135.83776222524551
 30
0.0
 11
284.0934110477765
 21
135.83776222524551
 31
0.0
  0
LINE
  5
1328
  8
0
 10
297.64889604777647
 20
137.9177622252455
 30
0.0
 11
284.0934110477765
 21
137.9177622252455
 31
0.0
  0
LINE
  5
1329
  8
0
 10
296.29341104777649
 20
157.6677622252455
 30
0.0
 11
287.46519104777639
 21
157.6677622252455
 31
0.0
  0
LINE
  5
132A
  8
0
 10
296.29341104777649
 20
156.06776222524559
 30
0.0
 11
288.58338604777651
 21
156.06776222524559
 31
0.0
  0
LINE
  5
132B
  8
0
 10
296.29341104777649
 20
147.6677622252455
 30
0.0
 11
288.5934110477765
 21
147.6677622252455
 31
0.0
  0
LINE
  5
132C
  8
0
 10
296.29341104777649
 20
146.06776222524559
 30
0.0
 11
285.03984604777639
 21
146.06776222524559
 31
0.0
  0
LINE
  5
132D
  8
0
  6
CONTINUOUS
 62
     7
 10
296.50585504777649
 20
194.28020622524559
 30
0.0
 11
296.5934110477765
 21
194.36776222524551
 31
0.0
  0
LINE
  5
132E
  8
0
  6
CONTINUOUS
 62
     7
 10
296.5934110477765
 20
194.3727562252455
 30
0.0
 11
296.5934110477765
 21
194.36776222524551
 31
0.0
  0
ARC
  5
132F
  8
0
  6
CONTINUOUS
 62
     7
 10
297.59091404777672
 20
194.3702592252456
 30
0.0
 40
0.9975059999999999
 50
89.856577999996375
 51
180.14342199999709
  0
LINE
  5
1330
  8
0
  6
CONTINUOUS
 62
     7
 10
296.5934110477765
 20
194.36776222524551
 30
0.0
 11
296.5934110477765
 21
193.9534452252455
 31
0.0
  0
LINE
  5
1331
  8
0
  6
CONTINUOUS
 62
     7
 10
295.0934110477765
 20
172.76881222524551
 30
0.0
 11
295.0934110477765
 21
168.0377622252455
 31
0.0
  0
LINE
  5
1332
  8
0
  6
CONTINUOUS
 62
     7
 10
296.5934110477765
 20
157.76111722524561
 30
0.0
 11
296.5934110477765
 21
165.69776222524561
 31
0.0
  0
LINE
  5
1333
  8
0
  6
CONTINUOUS
 62
     7
 10
295.0934110477765
 20
172.76881222524551
 30
0.0
 11
295.20956604777649
 21
173.9767392252455
 31
0.0
  0
LINE
  5
1334
  8
0
  6
CONTINUOUS
 62
     7
 10
295.0934110477765
 20
165.69776222524561
 30
0.0
 11
295.0934110477765
 21
158.0577622252456
 31
0.0
  0
LINE
  5
1335
  8
0
 10
144.5934110477765
 20
166.04776222524549
 30
0.0
 11
296.13271604777651
 21
166.04776222524549
 31
0.0
  0
LINE
  5
1336
  8
0
 10
134.5934110477765
 20
172.76881222524551
 30
0.0
 11
295.0934110477765
 21
172.76881222524551
 31
0.0
  0
LINE
  5
1337
  8
0
 10
146.5934110477765
 20
190.36776222524551
 30
0.0
 11
295.5850360477765
 21
190.36776222524551
 31
0.0
  0
LINE
  5
1338
  8
0
 10
229.5934110477765
 20
199.72996022524561
 30
0.0
 11
229.5934110477765
 21
198.76392722524551
 31
0.0
  0
ARC
  5
1339
  8
0
 10
227.5934110477765
 20
198.2973312252455
 30
0.0
 40
2.0
 50
13.491311000001851
 51
90.0
  0
ARC
  5
133A
  8
0
 10
227.5934110477765
 20
199.3026822252456
 30
0.0
 40
2.0
 50
0.0
 51
90.0
  0
ARC
  5
133B
  8
0
 10
227.5934110477765
 20
199.72996022524561
 30
0.0
 40
2.0
 50
0.0
 51
90.0
  0
LINE
  5
133C
  8
0
 10
214.7434110477765
 20
165.69776222524561
 30
0.0
 11
298.10295004777652
 21
165.69776222524561
 31
0.0
  0
LINE
  5
133D
  8
0
 10
177.25341104777641
 20
147.6677622252455
 30
0.0
 11
199.0934110477765
 21
147.6677622252455
 31
0.0
  0
LINE
  5
133E
  8
0
 10
176.6834110477765
 20
146.06776222524559
 30
0.0
 11
199.0934110477765
 21
146.06776222524559
 31
0.0
  0
LINE
  5
133F
  8
0
 10
173.72341104777649
 20
136.06776222524559
 30
0.0
 11
199.5934110477765
 21
136.06776222524559
 31
0.0
  0
LINE
  5
1340
  8
0
 10
174.08341104777651
 20
137.6677622252455
 30
0.0
 11
199.5934110477765
 21
137.6677622252455
 31
0.0
  0
LINE
  5
1341
  8
0
 10
173.2434110477765
 20
126.0677622252456
 30
0.0
 11
199.5934110477765
 21
126.0677622252456
 31
0.0
  0
LINE
  5
1342
  8
0
 10
173.13341104777641
 20
127.6677622252455
 30
0.0
 11
199.5934110477765
 21
127.6677622252455
 31
0.0
  0
LINE
  5
1343
  8
0
 10
173.2634110477764
 20
125.85776222524549
 30
0.0
 11
199.5934110477765
 21
125.85776222524549
 31
0.0
  0
LINE
  5
1344
  8
0
 10
173.12341104777639
 20
127.8877622252455
 30
0.0
 11
199.5934110477765
 21
127.8877622252455
 31
0.0
  0
LINE
  5
1345
  8
0
 10
173.67341104777651
 20
135.83776222524551
 30
0.0
 11
199.5934110477765
 21
135.83776222524551
 31
0.0
  0
LINE
  5
1346
  8
0
 10
174.1434110477764
 20
137.9177622252455
 30
0.0
 11
199.5934110477765
 21
137.9177622252455
 31
0.0
  0
LINE
  5
1347
  8
0
 10
176.58341104777651
 20
145.7877622252455
 30
0.0
 11
199.0934110477765
 21
145.7877622252455
 31
0.0
  0
LINE
  5
1348
  8
0
 10
177.36341104777651
 20
147.96776222524551
 30
0.0
 11
199.0934110477765
 21
147.96776222524551
 31
0.0
  0
LINE
  5
1349
  8
0
 10
144.5934110477765
 20
187.22368122524551
 30
0.0
 11
144.5934110477765
 21
188.36776222524551
 31
0.0
  0
ARC
  5
134A
  8
0
 10
142.5934110477765
 20
187.22368122524551
 30
0.0
 40
2.0
 50
270.0
 51
0.0
  0
ARC
  5
134B
  8
0
 10
146.5934110477765
 20
188.36776222524551
 30
0.0
 40
2.0
 50
90.0
 51
180.0
  0
LINE
  5
134C
  8
0
 10
144.5934110477765
 20
187.22368122524551
 30
0.0
 11
144.5934110477765
 21
174.76881222524551
 31
0.0
  0
ARC
  5
134D
  8
0
 10
142.5934110477765
 20
174.76881222524551
 30
0.0
 40
2.0
 50
270.0
 51
0.0
  0
LINE
  5
134E
  8
0
 10
144.5934110477765
 20
193.39612922524549
 30
0.0
 11
144.5934110477765
 21
196.76392722524551
 31
0.0
  0
ARC
  5
134F
  8
0
 10
142.5934110477765
 20
193.39612922524549
 30
0.0
 40
2.0
 50
270.0
 51
0.0
  0
ARC
  5
1350
  8
0
 10
146.5934110477765
 20
196.76392722524551
 30
0.0
 40
2.0
 50
90.0
 51
180.0
  0
ARC
  5
1351
  8
0
 10
142.5934110477765
 20
197.75211822524551
 30
0.0
 40
2.0
 50
270.0
 51
0.0
  0
ARC
  5
1352
  8
0
 10
146.5934110477765
 20
198.2973312252455
 30
0.0
 40
2.0
 50
90.0
 51
180.0
  0
ARC
  5
1353
  8
0
 10
142.5934110477765
 20
200.3897572252456
 30
0.0
 40
2.0
 50
270.0
 51
344.2304529999999
  0
ARC
  5
1354
  8
0
 10
146.44286104777649
 20
199.3026822252456
 30
0.0
 40
2.0
 50
90.0
 51
164.23045299999981
  0
LINE
  5
1355
  8
0
 10
144.5934110477765
 20
197.75211822524551
 30
0.0
 11
144.5934110477765
 21
198.2973312252455
 31
0.0
  0
ARC
  5
1356
  8
0
 10
146.5934110477765
 20
199.72996022524561
 30
0.0
 40
2.0
 50
90.0
 51
180.0
  0
LINE
  5
1357
  8
0
 10
144.5934110477765
 20
167.79909422524551
 30
0.0
 11
144.5934110477765
 21
151.14931922524551
 31
0.0
  0
LINE
  5
1358
  8
0
 10
144.5934110477765
 20
157.6677622252455
 30
0.0
 11
201.92110304777651
 21
157.6677622252455
 31
0.0
  0
LINE
  5
1359
  8
0
 10
144.5934110477765
 20
156.06776222524559
 30
0.0
 11
200.0309650477765
 21
156.06776222524559
 31
0.0
  0
LINE
  5
135A
  8
0
 10
144.5934110477765
 20
155.71776222524551
 30
0.0
 11
199.8617840477765
 21
155.71776222524551
 31
0.0
  0
LINE
  5
135B
  8
0
 10
144.5934110477765
 20
158.0577622252456
 30
0.0
 11
296.5934110477765
 21
158.0577622252456
 31
0.0
  0
LINE
  5
135C
  8
0
 10
177.36341104777651
 20
147.96776222524551
 30
0.0
 11
134.5934110477765
 21
147.96776222524551
 31
0.0
  0
LINE
  5
135D
  8
0
 10
176.58341104777651
 20
145.7877622252455
 30
0.0
 11
134.5934110477765
 21
145.7877622252455
 31
0.0
  0
LINE
  5
135E
  8
0
 10
174.1434110477764
 20
137.9177622252455
 30
0.0
 11
134.5934110477765
 21
137.9177622252455
 31
0.0
  0
LINE
  5
135F
  8
0
 10
173.67341104777651
 20
135.83776222524551
 30
0.0
 11
134.5934110477765
 21
135.83776222524551
 31
0.0
  0
LINE
  5
1360
  8
0
 10
173.12341104777639
 20
127.8877622252455
 30
0.0
 11
134.5934110477765
 21
127.8877622252455
 31
0.0
  0
LINE
  5
1361
  8
0
 10
173.2634110477764
 20
125.85776222524549
 30
0.0
 11
134.5934110477765
 21
125.85776222524549
 31
0.0
  0
LINE
  5
1362
  8
0
 10
177.25341104777641
 20
147.6677622252455
 30
0.0
 11
134.5934110477765
 21
147.6677622252455
 31
0.0
  0
LINE
  5
1363
  8
0
 10
176.6834110477765
 20
146.06776222524559
 30
0.0
 11
134.5934110477765
 21
146.06776222524559
 31
0.0
  0
LINE
  5
1364
  8
0
 10
174.08341104777651
 20
137.6677622252455
 30
0.0
 11
134.5934110477765
 21
137.6677622252455
 31
0.0
  0
LINE
  5
1365
  8
0
 10
173.72341104777649
 20
136.06776222524559
 30
0.0
 11
134.5934110477765
 21
136.06776222524559
 31
0.0
  0
LINE
  5
1366
  8
0
 10
173.13341104777641
 20
127.6677622252455
 30
0.0
 11
134.5934110477765
 21
127.6677622252455
 31
0.0
  0
LINE
  5
1367
  8
0
 10
173.2434110477765
 20
126.0677622252456
 30
0.0
 11
134.5934110477765
 21
126.0677622252456
 31
0.0
  0
LINE
  5
1368
  8
0
 10
144.5934110477765
 20
167.64776222524549
 30
0.0
 11
295.98660504777649
 21
167.64776222524549
 31
0.0
  0
LINE
  5
1369
  8
0
 10
144.5934110477765
 20
165.69776222524561
 30
0.0
 11
214.7434110477765
 21
165.69776222524561
 31
0.0
  0
LINE
  5
136A
  8
0
 10
146.5934110477765
 20
198.76392722524551
 30
0.0
 11
293.76979204777649
 21
198.76392722524551
 31
0.0
  0
LINE
  5
136B
  8
0
 10
146.5934110477765
 20
200.29733122524561
 30
0.0
 11
227.5934110477765
 21
200.29733122524561
 31
0.0
  0
LINE
  5
136C
  8
0
 10
146.44286104777649
 20
201.3026822252456
 30
0.0
 11
227.5934110477765
 21
201.3026822252456
 31
0.0
  0
LINE
  5
136D
  8
0
 10
146.5934110477765
 20
201.72996022524561
 30
0.0
 11
227.5934110477765
 21
201.72996022524561
 31
0.0
  0
LINE
  5
136E
  8
0
 10
134.5934110477765
 20
151.14931922524551
 30
0.0
 11
144.5934110477765
 21
151.14931922524551
 31
0.0
  0
LINE
  5
136F
  8
0
 10
134.5934110477765
 20
156.86776222524551
 30
0.0
 11
144.5934110477765
 21
156.86776222524551
 31
0.0
  0
LINE
  5
1370
  8
0
 10
134.5934110477765
 20
167.3877622252455
 30
0.0
 11
144.5934110477765
 21
167.3877622252455
 31
0.0
  0
LINE
  5
1371
  8
0
 10
134.5934110477765
 20
167.79909422524551
 30
0.0
 11
144.5934110477765
 21
167.79909422524551
 31
0.0
  0
LINE
  5
1372
  8
0
 10
142.5934110477765
 20
185.22368122524551
 30
0.0
 11
134.5934110477765
 21
185.22368122524551
 31
0.0
  0
LINE
  5
1373
  8
0
 10
142.5934110477765
 20
191.39612922524549
 30
0.0
 11
134.5934110477765
 21
191.39612922524549
 31
0.0
  0
LINE
  5
1374
  8
0
 10
142.5934110477765
 20
195.75211822524551
 30
0.0
 11
134.5934110477765
 21
195.75211822524551
 31
0.0
  0
LINE
  5
1375
  8
0
 10
142.5934110477765
 20
198.3897572252456
 30
0.0
 11
134.5934110477765
 21
198.3897572252456
 31
0.0
  0
LINE
  5
1376
  8
0
 10
177.25341104777641
 20
96.067762225245573
 30
0.0
 11
199.0934110477765
 21
96.067762225245573
 31
0.0
  0
LINE
  5
1377
  8
0
 10
176.6834110477765
 20
97.667762225245497
 30
0.0
 11
199.0934110477765
 21
97.667762225245497
 31
0.0
  0
LINE
  5
1378
  8
0
 10
173.72341104777649
 20
107.6677622252455
 30
0.0
 11
199.5934110477765
 21
107.6677622252455
 31
0.0
  0
LINE
  5
1379
  8
0
 10
174.08341104777651
 20
106.0677622252456
 30
0.0
 11
199.5934110477765
 21
106.0677622252456
 31
0.0
  0
LINE
  5
137A
  8
0
 10
173.2434110477765
 20
117.6677622252455
 30
0.0
 11
199.5934110477765
 21
117.6677622252455
 31
0.0
  0
LINE
  5
137B
  8
0
 10
173.13341104777641
 20
116.0677622252456
 30
0.0
 11
199.5934110477765
 21
116.0677622252456
 31
0.0
  0
LINE
  5
137C
  8
0
 10
173.2634110477764
 20
117.8777622252455
 30
0.0
 11
199.5934110477765
 21
117.8777622252455
 31
0.0
  0
LINE
  5
137D
  8
0
 10
173.12341104777639
 20
115.8477622252455
 30
0.0
 11
199.5934110477765
 21
115.8477622252455
 31
0.0
  0
LINE
  5
137E
  8
0
 10
173.67341104777651
 20
107.8977622252455
 30
0.0
 11
199.5934110477765
 21
107.8977622252455
 31
0.0
  0
LINE
  5
137F
  8
0
 10
174.1434110477764
 20
105.8177622252456
 30
0.0
 11
199.5934110477765
 21
105.8177622252456
 31
0.0
  0
LINE
  5
1380
  8
0
 10
176.58341104777651
 20
97.947762225245611
 30
0.0
 11
199.0934110477765
 21
97.947762225245611
 31
0.0
  0
LINE
  5
1381
  8
0
 10
177.36341104777651
 20
95.767762225245519
 30
0.0
 11
199.0934110477765
 21
95.767762225245519
 31
0.0
  0
LINE
  5
1382
  8
0
  6
CONTINUOUS
 62
     7
 10
296.5934110477765
 20
59.867762225245542
 30
0.0
 11
296.5934110477765
 21
75.697762225245583
 31
0.0
  0
LINE
  5
1383
  8
0
  6
CONTINUOUS
 62
     7
 10
297.73540404777651
 20
87.887178225245506
 30
0.0
 11
296.29540404777651
 21
87.690035225245538
 31
0.0
  0
ARC
  5
1384
  8
0
  6
CONTINUOUS
 62
     7
 10
296.05204804777651
 20
86.853822225245494
 30
0.0
 40
0.8033630000000001
 50
0.2393299999979143
 51
72.366849999998621
  0
LINE
  5
1385
  8
0
  6
CONTINUOUS
 62
     7
 10
297.74540404777639
 20
85.797178225245474
 30
0.0
 11
296.29540404777651
 21
86.020255225245592
 31
0.0
  0
ARC
  5
1386
  8
0
  6
CONTINUOUS
 62
     7
 10
296.05034204777638
 20
86.8622402252455
 30
0.0
 40
0.8050779999999997
 50
287.72179000000301
 51
359.6397489999984
  0
LINE
  5
1387
  8
0
  6
CONTINUOUS
 62
     7
 10
298.59540404777653
 20
88.87717822524553
 30
0.0
 11
298.59540404777653
 21
84.80717822524548
 31
0.0
  0
ARC
  5
1388
  8
0
  6
CONTINUOUS
 62
     7
 10
297.59277204777641
 20
84.806231225245483
 30
0.0
 40
1.0026319999999971
 50
0.0540849999984569
 51
81.24375900000075
  0
ARC
  5
1389
  8
0
  6
CONTINUOUS
 62
     7
 10
297.5884360477765
 20
88.883382225245569
 30
0.0
 40
1.0069859999999999
 50
278.3921630000014
 51
359.64700200000118
  0
LINE
  5
138A
  8
0
  6
CONTINUOUS
 62
     7
 10
295.0934110477765
 20
70.966712225245587
 30
0.0
 11
295.20956604777649
 21
69.758786225245558
 31
0.0
  0
LINE
  5
138B
  8
0
  6
CONTINUOUS
 62
     7
 10
295.0934110477765
 20
70.966712225245587
 30
0.0
 11
295.0934110477765
 21
75.697762225245583
 31
0.0
  0
LINE
  5
138C
  8
0
  6
CONTINUOUS
 62
     7
 10
295.0934110477765
 20
78.037762225245501
 30
0.0
 11
295.0934110477765
 21
85.677762225245473
 31
0.0
  0
LINE
  5
138D
  8
0
  6
CONTINUOUS
 62
     7
 10
296.5934110477765
 20
49.367762225245542
 30
0.0
 11
296.5934110477765
 21
49.782079225245532
 31
0.0
  0
ARC
  5
138E
  8
0
  6
CONTINUOUS
 62
     7
 10
297.59091404777672
 20
49.365265225245587
 30
0.0
 40
0.9975059999999999
 50
179.85657799999629
 51
270.14342199999709
  0
ARC
  5
138F
  8
0
  6
CONTINUOUS
 62
     7
 10
296.05005504777648
 20
106.8644062252456
 30
0.0
 40
0.8033630000000001
 50
0.2393299999979143
 51
72.366849999998621
  0
ARC
  5
1390
  8
0
  6
CONTINUOUS
 62
     7
 10
297.59077904777649
 20
94.816816225245589
 30
0.0
 40
1.0026319999999971
 50
0.0540849999984569
 51
81.24375900000075
  0
ARC
  5
1391
  8
0
  6
CONTINUOUS
 62
     7
 10
297.58644404777641
 20
98.893966225245563
 30
0.0
 40
1.0069859999999999
 50
278.3921630000014
 51
359.64700200000118
  0
ARC
  5
1392
  8
0
  6
CONTINUOUS
 62
     7
 10
296.04834904777653
 20
96.872824225245495
 30
0.0
 40
0.8050779999999997
 50
287.72179000000301
 51
359.6397489999984
  0
ARC
  5
1393
  8
0
  6
CONTINUOUS
 62
     7
 10
296.05005504777648
 20
96.864406225245503
 30
0.0
 40
0.8033630000000001
 50
0.2393299999979143
 51
72.366849999998621
  0
ARC
  5
1394
  8
0
  6
CONTINUOUS
 62
     7
 10
297.58644404777641
 20
108.89396622524551
 30
0.0
 40
1.0069859999999999
 50
278.3921630000014
 51
359.64700200000118
  0
ARC
  5
1395
  8
0
  6
CONTINUOUS
 62
     7
 10
297.59077904777649
 20
104.8168162252455
 30
0.0
 40
1.0026319999999971
 50
0.0540849999984569
 51
81.24375900000075
  0
ARC
  5
1396
  8
0
  6
CONTINUOUS
 62
     7
 10
296.04834904777653
 20
106.87282422524549
 30
0.0
 40
0.8050779999999997
 50
287.72179000000301
 51
359.6397489999984
  0
ARC
  5
1397
  8
0
  6
CONTINUOUS
 62
     7
 10
297.58644404777641
 20
118.89396622524551
 30
0.0
 40
1.0069859999999999
 50
278.3921630000014
 51
359.64700200000118
  0
ARC
  5
1398
  8
0
  6
CONTINUOUS
 62
     7
 10
297.59077904777649
 20
114.8168162252455
 30
0.0
 40
1.0026319999999971
 50
0.0540849999984569
 51
81.24375900000075
  0
ARC
  5
1399
  8
0
  6
CONTINUOUS
 62
     7
 10
296.04501604777653
 20
116.8677622252455
 30
0.0
 40
0.8000439999999999
 50
288.0879409999983
 51
71.912059000001705
  0
LINE
  5
139A
  8
0
  6
CONTINUOUS
 62
     7
 10
298.5934110477765
 20
98.88776222524551
 30
0.0
 11
298.5934110477765
 21
94.817762225245559
 31
0.0
  0
LINE
  5
139B
  8
0
  6
CONTINUOUS
 62
     7
 10
297.73341104777649
 20
97.897762225245515
 30
0.0
 11
296.29341104777649
 21
97.700619225245546
 31
0.0
  0
LINE
  5
139C
  8
0
  6
CONTINUOUS
 62
     7
 10
297.74341104777648
 20
95.807762225245597
 30
0.0
 11
296.29341104777649
 21
96.030839225245586
 31
0.0
  0
LINE
  5
139D
  8
0
  6
CONTINUOUS
 62
     7
 10
298.5934110477765
 20
108.8877622252455
 30
0.0
 11
298.5934110477765
 21
104.8177622252456
 31
0.0
  0
LINE
  5
139E
  8
0
  6
CONTINUOUS
 62
     7
 10
297.74341104777648
 20
105.8077622252456
 30
0.0
 11
296.29341104777649
 21
106.0308392252456
 31
0.0
  0
LINE
  5
139F
  8
0
  6
CONTINUOUS
 62
     7
 10
297.73341104777649
 20
107.8977622252455
 30
0.0
 11
296.29341104777649
 21
107.7006192252455
 31
0.0
  0
LINE
  5
13A0
  8
0
  6
CONTINUOUS
 62
     7
 10
298.5934110477765
 20
118.8877622252455
 30
0.0
 11
298.5934110477765
 21
114.8177622252456
 31
0.0
  0
LINE
  5
13A1
  8
0
  6
CONTINUOUS
 62
     7
 10
297.74341104777648
 20
115.8077622252456
 30
0.0
 11
296.29341104777649
 21
116.0308392252456
 31
0.0
  0
LINE
  5
13A2
  8
0
  6
CONTINUOUS
 62
     7
 10
297.73341104777649
 20
117.8977622252455
 30
0.0
 11
296.29341104777649
 21
117.7006192252455
 31
0.0
  0
LINE
  5
13A3
  8
0
  6
CONTINUOUS
 62
     7
 10
296.5934110477765
 20
49.362768225245532
 30
0.0
 11
296.5934110477765
 21
49.367762225245542
 31
0.0
  0
LINE
  5
13A4
  8
0
  6
CONTINUOUS
 62
     7
 10
296.50585504777649
 20
49.455318225245492
 30
0.0
 11
296.5934110477765
 21
49.367762225245542
 31
0.0
  0
LINE
  5
13A5
  8
0
 10
296.29341104777649
 20
117.6677622252455
 30
0.0
 11
284.5934110477765
 21
117.6677622252455
 31
0.0
  0
LINE
  5
13A6
  8
0
 10
296.29341104777649
 20
116.0677622252456
 30
0.0
 11
284.0934110477765
 21
116.0677622252456
 31
0.0
  0
LINE
  5
13A7
  8
0
 10
297.74341104777648
 20
115.8477622252455
 30
0.0
 11
284.0934110477765
 21
115.8477622252455
 31
0.0
  0
LINE
  5
13A8
  8
0
 10
296.29341104777649
 20
107.6677622252455
 30
0.0
 11
284.0934110477765
 21
107.6677622252455
 31
0.0
  0
LINE
  5
13A9
  8
0
 10
296.29341104777649
 20
106.0677622252456
 30
0.0
 11
284.0934110477765
 21
106.0677622252456
 31
0.0
  0
LINE
  5
13AA
  8
0
 10
297.73341104777649
 20
107.8977622252455
 30
0.0
 11
284.0934110477765
 21
107.8977622252455
 31
0.0
  0
LINE
  5
13AB
  8
0
 10
297.64889604777647
 20
105.8177622252456
 30
0.0
 11
284.0934110477765
 21
105.8177622252456
 31
0.0
  0
LINE
  5
13AC
  8
0
 10
296.29341104777649
 20
86.067762225245559
 30
0.0
 11
287.46519104777639
 21
86.067762225245559
 31
0.0
  0
LINE
  5
13AD
  8
0
 10
296.29341104777649
 20
87.667762225245497
 30
0.0
 11
288.58338604777651
 21
87.667762225245497
 31
0.0
  0
LINE
  5
13AE
  8
0
 10
296.29341104777649
 20
96.067762225245573
 30
0.0
 11
288.5934110477765
 21
96.067762225245573
 31
0.0
  0
LINE
  5
13AF
  8
0
 10
296.29341104777649
 20
97.667762225245497
 30
0.0
 11
285.03984604777639
 21
97.667762225245497
 31
0.0
  0
LINE
  5
13B0
  8
0
 10
144.5934110477765
 20
76.087762225245541
 30
0.0
 11
295.98660504777649
 21
76.087762225245541
 31
0.0
  0
LINE
  5
13B1
  8
0
 10
134.5934110477765
 20
70.966712225245587
 30
0.0
 11
295.0934110477765
 21
70.966712225245587
 31
0.0
  0
LINE
  5
13B2
  8
0
 10
144.5934110477765
 20
75.936430225245545
 30
0.0
 11
144.5934110477765
 21
92.586205225245493
 31
0.0
  0
ARC
  5
13B3
  8
0
 10
142.5934110477765
 20
68.966712225245601
 30
0.0
 40
2.0
 50
0.0
 51
90.0
  0
LINE
  5
13B4
  8
0
 10
144.5934110477765
 20
56.51184322524557
 30
0.0
 11
144.5934110477765
 21
68.966712225245601
 31
0.0
  0
ARC
  5
13B5
  8
0
 10
146.5934110477765
 20
55.367762225245542
 30
0.0
 40
2.0
 50
180.0
 51
270.0
  0
ARC
  5
13B6
  8
0
 10
142.5934110477765
 20
56.51184322524557
 30
0.0
 40
2.0
 50
0.0
 51
90.0
  0
LINE
  5
13B7
  8
0
 10
144.5934110477765
 20
56.51184322524557
 30
0.0
 11
144.5934110477765
 21
55.367762225245542
 31
0.0
  0
LINE
  5
13B8
  8
0
 10
144.5934110477765
 20
86.067762225245559
 30
0.0
 11
201.92110304777651
 21
86.067762225245559
 31
0.0
  0
LINE
  5
13B9
  8
0
 10
144.5934110477765
 20
87.667762225245497
 30
0.0
 11
200.0309650477765
 21
87.667762225245497
 31
0.0
  0
LINE
  5
13BA
  8
0
 10
144.5934110477765
 20
88.017762225245505
 30
0.0
 11
199.8617840477765
 21
88.017762225245505
 31
0.0
  0
LINE
  5
13BB
  8
0
 10
144.5934110477765
 20
85.677762225245473
 30
0.0
 11
296.5934110477765
 21
85.677762225245473
 31
0.0
  0
LINE
  5
13BC
  8
0
 10
177.36341104777651
 20
95.767762225245519
 30
0.0
 11
134.5934110477765
 21
95.767762225245519
 31
0.0
  0
LINE
  5
13BD
  8
0
 10
176.58341104777651
 20
97.947762225245611
 30
0.0
 11
134.5934110477765
 21
97.947762225245611
 31
0.0
  0
LINE
  5
13BE
  8
0
 10
174.1434110477764
 20
105.8177622252456
 30
0.0
 11
134.5934110477765
 21
105.8177622252456
 31
0.0
  0
LINE
  5
13BF
  8
0
 10
173.67341104777651
 20
107.8977622252455
 30
0.0
 11
134.5934110477765
 21
107.8977622252455
 31
0.0
  0
LINE
  5
13C0
  8
0
 10
173.12341104777639
 20
115.8477622252455
 30
0.0
 11
134.5934110477765
 21
115.8477622252455
 31
0.0
  0
LINE
  5
13C1
  8
0
 10
173.2634110477764
 20
117.8777622252455
 30
0.0
 11
134.5934110477765
 21
117.8777622252455
 31
0.0
  0
LINE
  5
13C2
  8
0
 10
177.25341104777641
 20
96.067762225245573
 30
0.0
 11
134.5934110477765
 21
96.067762225245573
 31
0.0
  0
LINE
  5
13C3
  8
0
 10
176.6834110477765
 20
97.667762225245497
 30
0.0
 11
134.5934110477765
 21
97.667762225245497
 31
0.0
  0
LINE
  5
13C4
  8
0
 10
174.08341104777651
 20
106.0677622252456
 30
0.0
 11
134.5934110477765
 21
106.0677622252456
 31
0.0
  0
LINE
  5
13C5
  8
0
 10
173.72341104777649
 20
107.6677622252455
 30
0.0
 11
134.5934110477765
 21
107.6677622252455
 31
0.0
  0
LINE
  5
13C6
  8
0
 10
173.13341104777641
 20
116.0677622252456
 30
0.0
 11
134.5934110477765
 21
116.0677622252456
 31
0.0
  0
LINE
  5
13C7
  8
0
 10
173.2434110477765
 20
117.6677622252455
 30
0.0
 11
134.5934110477765
 21
117.6677622252455
 31
0.0
  0
LINE
  5
13C8
  8
0
 10
144.5934110477765
 20
77.687762225245478
 30
0.0
 11
296.13271604777651
 21
77.687762225245478
 31
0.0
  0
LINE
  5
13C9
  8
0
 10
144.5934110477765
 20
78.037762225245501
 30
0.0
 11
214.7434110477765
 21
78.037762225245501
 31
0.0
  0
LINE
  5
13CA
  8
0
 10
134.5934110477765
 20
75.697762225245583
 30
0.0
 11
298.0884590477765
 21
75.697762225245583
 31
0.0
  0
LINE
  5
13CB
  8
0
 10
146.5934110477765
 20
53.367762225245542
 30
0.0
 11
295.5850360477765
 21
53.367762225245542
 31
0.0
  0
LINE
  5
13CC
  8
0
 10
134.5934110477765
 20
92.586205225245493
 30
0.0
 11
144.5934110477765
 21
92.586205225245493
 31
0.0
  0
LINE
  5
13CD
  8
0
 10
134.5934110477765
 20
86.867762225245556
 30
0.0
 11
144.5934110477765
 21
86.867762225245556
 31
0.0
  0
LINE
  5
13CE
  8
0
 10
134.5934110477765
 20
76.34776222524556
 30
0.0
 11
144.5934110477765
 21
76.34776222524556
 31
0.0
  0
LINE
  5
13CF
  8
0
 10
134.5934110477765
 20
75.936430225245545
 30
0.0
 11
144.5934110477765
 21
75.936430225245545
 31
0.0
  0
LINE
  5
13D0
  8
0
 10
142.5934110477765
 20
58.51184322524557
 30
0.0
 11
134.5934110477765
 21
58.51184322524557
 31
0.0
  0
LINE
  5
13D1
  8
0
 10
59.593411047776492
 20
124.3677622252455
 30
0.0
 11
59.593411047776492
 21
203.8677622252456
 31
0.0
  0
LINE
  5
13D2
  8
0
 10
59.593411047776492
 20
39.867762225245542
 30
0.0
 11
134.5934110477765
 21
39.867762225245542
 31
0.0
  0
LINE
  5
13D3
  8
0
 10
59.593411047776492
 20
203.8677622252456
 30
0.0
 11
134.5934110477765
 21
203.8677622252456
 31
0.0
  0
LINE
  5
13D4
  8
0
 10
59.593411047776492
 20
39.867762225245542
 30
0.0
 11
59.593411047776492
 21
119.3677622252455
 31
0.0
  0
LINE
  5
13D5
  8
0
 10
134.5934110477765
 20
203.8677622252456
 30
0.0
 11
134.5934110477765
 21
39.867762225245542
 31
0.0
  0
ARC
  5
13D6
  8
0
 10
203.09391004777649
 20
154.36726322524549
 30
0.0
 40
3.5004989999999978
 50
90.008164000001159
 51
179.99183599999881
  0
ARC
  5
13D7
  8
0
 10
199.59395804777651
 20
149.8672152252455
 30
0.0
 40
0.5005470000000001
 50
90.062624999999485
 51
179.93737500000049
  0
ARC
  5
13D8
  8
0
 10
199.5859030477765
 20
139.86025422524551
 30
0.0
 40
0.492549
 50
179.12656199999611
 51
270.87343799999729
  0
ARC
  5
13D9
  8
0
 10
199.59395804777651
 20
103.8672152252455
 30
0.0
 40
0.5005470000000001
 50
90.062624999999485
 51
179.93737500000049
  0
ARC
  5
13DA
  8
0
 10
199.58605504777651
 20
93.860406225245583
 30
0.0
 40
0.492699
 50
179.14456000000371
 51
270.85544000000289
  0
ARC
  5
13DB
  8
0
 10
271.13136604777651
 20
154.3622742252455
 30
0.0
 40
3.5055079999999998
 50
44.924209000002179
 51
89.803122999998919
  0
LINE
  5
13DC
  8
0
 10
199.5934110477765
 20
89.367762225245556
 30
0.0
 11
199.5934110477765
 21
154.36776222524551
 31
0.0
  0
LINE
  5
13DD
  8
0
 10
283.06341104777653
 20
96.337762225245584
 30
0.0
 11
273.61341104777648
 21
86.887762225245496
 31
0.0
  0
LINE
  5
13DE
  8
0
 10
281.99341104777648
 20
98.237762225245575
 30
0.0
 11
271.72341104777649
 21
87.967762225245565
 31
0.0
  0
LINE
  5
13DF
  8
0
 10
271.72341104777649
 20
155.76776222524549
 30
0.0
 11
281.99341104777648
 21
145.49776222524551
 31
0.0
  0
LINE
  5
13E0
  8
0
 10
281.99341104777648
 20
145.49776222524551
 30
0.0
 11
281.99341104777648
 21
98.237762225245575
 31
0.0
  0
LINE
  5
13E1
  8
0
 10
273.61341104777648
 20
156.8377622252454
 30
0.0
 11
283.06341104777653
 21
147.3877622252455
 31
0.0
  0
LINE
  5
13E2
  8
0
 10
284.0934110477765
 20
144.9177622252455
 30
0.0
 11
284.0934110477765
 21
98.817762225245588
 31
0.0
  0
LINE
  5
13E3
  8
0
 10
284.5934110477765
 20
126.8677622252455
 30
0.0
 11
284.5934110477765
 21
116.8677622252455
 31
0.0
  0
ARC
  5
13E4
  8
0
 10
284.08590204777647
 20
126.8602532252455
 30
0.0
 40
0.507564
 50
0.8476510000019608
 51
89.152348999998054
  0
ARC
  5
13E5
  8
0
 10
284.09384504777648
 20
116.8673282252455
 30
0.0
 40
0.499566
 50
269.95018499999878
 51
0.0498150000011642
  0
ARC
  5
13E6
  8
0
 10
280.58840704777651
 20
144.90591822524561
 30
0.0
 40
3.5050239999999979
 50
0.1936059999989274
 51
45.07906200000054
  0
ARC
  5
13E7
  8
0
 10
280.59015604777647
 20
98.818852225245564
 30
0.0
 40
3.5032559999999981
 50
314.90939599999928
 51
359.98217400000141
  0
LINE
  5
13E8
  8
0
 10
199.0934110477765
 20
149.86776222524551
 30
0.0
 11
199.0934110477765
 21
139.86776222524551
 31
0.0
  0
LINE
  5
13E9
  8
0
 10
199.0934110477765
 20
103.8677622252455
 30
0.0
 11
199.0934110477765
 21
93.867762225245585
 31
0.0
  0
LINE
  5
13EA
  8
0
 10
271.72341104777649
 20
87.967762225245565
 30
0.0
 11
204.01341104777649
 21
87.967762225245565
 31
0.0
  0
LINE
  5
13EB
  8
0
 10
204.01341104777649
 20
87.967762225245565
 30
0.0
 11
204.01341104777649
 21
85.867762225245528
 31
0.0
  0
ARC
  5
13EC
  8
0
 10
271.14547104777648
 20
89.363410225245474
 30
0.0
 40
3.495648999999998
 50
269.96623299999862
 51
314.91065800000001
  0
LINE
  5
13ED
  8
0
 10
203.0934110477765
 20
85.867762225245528
 30
0.0
 11
286.5934110477765
 21
85.867762225245528
 31
0.0
  0
ARC
  5
13EE
  8
0
 10
203.08605504777651
 20
89.360406225245555
 30
0.0
 40
3.4926519999999979
 50
179.87932800000149
 51
270.12067199999842
  0
LINE
  5
13EF
  8
0
 10
204.01341104777649
 20
155.76776222524549
 30
0.0
 11
271.72341104777649
 21
155.76776222524549
 31
0.0
  0
LINE
  5
13F0
  8
0
 10
204.01341104777649
 20
155.76776222524549
 30
0.0
 11
204.01341104777649
 21
157.86276222524549
 31
0.0
  0
LINE
  5
13F1
  8
0
 10
203.0934110477765
 20
157.8677622252454
 30
0.0
 11
286.5934110477765
 21
157.8677622252454
 31
0.0
  0
LINE
  5
13F2
  8
0
 10
52.543411047776551
 20
41.117762225245528
 30
0.0
 11
59.593411047776492
 21
41.117762225245528
 31
0.0
  0
LINE
  5
13F3
  8
0
 10
52.543411047776551
 20
202.61776222524551
 30
0.0
 11
59.593411047776492
 21
202.61776222524551
 31
0.0
  0
LINE
  5
13F4
  8
0
  6
AM_ISO08W050
 10
104.5934110477765
 20
108.7039702801557
 30
0.0
 11
104.5934110477765
 21
135.0316122801556
 31
0.0
  0
LINE
  5
13F5
  8
0
 10
14.293411047776541
 20
184.6677622252455
 30
0.0
 11
14.293411047776541
 21
120.72381822524549
 31
0.0
  0
LINE
  5
13F6
  8
0
 10
18.733411047776471
 20
189.3477622252455
 30
0.0
 11
19.813411047776519
 21
195.5077622252455
 31
0.0
  0
LINE
  5
13F7
  8
0
 10
51.293411047776551
 20
41.888323225245557
 30
0.0
 11
51.293411047776551
 21
119.3677622252455
 31
0.0
  0
LINE
  5
13F8
  8
0
 10
50.583411047776501
 20
201.57776222524561
 30
0.0
 11
25.183411047776531
 21
200.24776222524559
 31
0.0
  0
LINE
  5
13F9
  8
0
 10
18.733412047776479
 20
54.387762225245517
 30
0.0
 11
19.813411047776519
 21
48.227762225245563
 31
0.0
  0
LINE
  5
13FA
  8
0
 10
50.583411047776501
 20
42.157762225245477
 30
0.0
 11
25.183411047776531
 21
43.48776222524554
 31
0.0
  0
LINE
  5
13FB
  8
0
 10
18.293411047776541
 20
185.51776222524549
 30
0.0
 11
18.293411047776541
 21
123.2010552252456
 31
0.0
  0
LINE
  5
13FC
  8
0
 10
22.363411047776481
 20
48.367762225245542
 30
0.0
 11
22.363411047776481
 21
119.21698022524561
 31
0.0
  0
ARC
  5
13FD
  8
0
 10
15.77769104777644
 20
189.86693122524551
 30
0.0
 40
3.0009689999999982
 50
278.348459000003
 51
350.03768200000098
  0
ARC
  5
13FE
  8
0
 10
16.543261047776468
 20
184.67221822524559
 30
0.0
 40
2.249854
 50
98.430493000000453
 51
180.11348999999771
  0
ARC
  5
13FF
  8
0
 10
52.548748047776492
 20
201.36653122524561
 30
0.0
 40
1.2512430000000001
 50
90.244380000000035
 51
144.2391030000023
  0
ARC
  5
1400
  8
0
 10
50.517205047776521
 20
202.8265042252456
 30
0.0
 40
1.2504959999999981
 50
273.03488699999667
 51
324.3549220000009
  0
ARC
  5
1401
  8
0
 10
25.47754904777651
 20
194.5026632252455
 30
0.0
 40
5.7526239999999991
 50
92.930875000003127
 51
169.9376259999996
  0
ARC
  5
1402
  8
0
 10
52.543775047776421
 20
42.359335225245559
 30
0.0
 40
1.241573
 50
215.53333300000091
 51
269.98318399999948
  0
ARC
  5
1403
  8
0
 10
50.512134047776499
 20
40.899756225245468
 30
0.0
 40
1.260022999999999
 50
35.853017999999651
 51
86.757172999999355
  0
ARC
  5
1404
  8
0
 10
25.471361047776551
 20
49.225851225245599
 30
0.0
 40
5.745309999999999
 50
190.00432199999869
 51
267.12717799999689
  0
LINE
  5
1405
  8
0
 10
51.293411047776551
 20
124.3677622252455
 30
0.0
 11
51.293411047776551
 21
201.84776222524559
 31
0.0
  0
ARC
  5
1406
  8
0
 10
286.0934110477765
 20
144.3677622252454
 30
0.0
 40
2.0
 50
90.0
 51
180.0
  0
ARC
  5
1407
  8
0
 10
286.5934110477765
 20
148.36776222524551
 30
0.0
 40
2.0
 50
270.0
 51
0.0
  0
LINE
  5
1408
  8
0
 10
286.5934110477765
 20
146.36776222524551
 30
0.0
 11
286.0934110477765
 21
146.36776222524551
 31
0.0
  0
LINE
  5
1409
  8
0
 10
288.5934110477765
 20
155.86776222524551
 30
0.0
 11
288.5934110477765
 21
148.36776222524551
 31
0.0
  0
ARC
  5
140A
  8
0
 10
286.5934110477765
 20
155.86776222524551
 30
0.0
 40
2.0
 50
0.0
 51
90.0
  0
ARC
  5
140B
  8
0
 10
286.0934110477765
 20
99.367762225245571
 30
0.0
 40
2.0
 50
180.0
 51
270.0
  0
LINE
  5
140C
  8
0
 10
288.5934110477765
 20
87.867762225245556
 30
0.0
 11
288.5934110477765
 21
95.367762225245556
 31
0.0
  0
ARC
  5
140D
  8
0
 10
286.5934110477765
 20
95.367762225245556
 30
0.0
 40
2.0
 50
0.0
 51
90.0
  0
LINE
  5
140E
  8
0
 10
286.5934110477765
 20
97.367762225245571
 30
0.0
 11
286.0934110477765
 21
97.367762225245571
 31
0.0
  0
ARC
  5
140F
  8
0
 10
286.5934110477765
 20
87.867762225245556
 30
0.0
 40
2.0
 50
270.0
 51
0.0
  0
CIRCLE
  5
1410
  8
0
 10
283.0934110477765
 20
152.86776222524551
 30
0.0
 40
3.5
  0
CIRCLE
  5
1411
  8
0
 10
283.0934110477765
 20
152.86776222524551
 30
0.0
 40
3.299999999999998
  0
LINE
  5
1412
  8
0
 10
284.74341104777648
 20
152.41232322524559
 30
0.0
 11
284.74341104777648
 21
153.3232012252455
 31
0.0
  0
LINE
  5
1413
  8
0
 10
286.32354804777651
 20
152.41232322524559
 30
0.0
 11
286.32354804777651
 21
153.3232012252455
 31
0.0
  0
LINE
  5
1414
  8
0
 10
281.44341104777652
 20
152.41232322524559
 30
0.0
 11
281.44341104777652
 21
153.3232012252455
 31
0.0
  0
ARC
  5
1415
  8
0
 10
280.08327404777651
 20
153.3232012252455
 30
0.0
 40
0.22
 50
90.0
 51
180.0
  0
LINE
  5
1416
  8
0
 10
282.76341104777651
 20
154.51776222524549
 30
0.0
 11
283.42341104777648
 21
154.51776222524549
 31
0.0
  0
LINE
  5
1417
  8
0
 10
282.5434110477766
 20
153.7632012252455
 30
0.0
 11
282.5434110477766
 21
154.29776222524561
 31
0.0
  0
LINE
  5
1418
  8
0
 10
283.6434110477764
 20
154.29776222524561
 30
0.0
 11
283.6434110477764
 21
153.7632012252455
 31
0.0
  0
ARC
  5
1419
  8
0
 10
281.66341104777672
 20
153.3232012252455
 30
0.0
 40
0.22
 50
90.0
 51
180.0
  0
LINE
  5
141A
  8
0
 10
281.66341104777672
 20
153.5432012252455
 30
0.0
 11
282.32341104777652
 21
153.5432012252455
 31
0.0
  0
ARC
  5
141B
  8
0
 10
282.32341104777652
 20
153.7632012252455
 30
0.0
 40
0.22
 50
270.0
 51
0.0
  0
ARC
  5
141C
  8
0
 10
283.86341104777648
 20
153.7632012252455
 30
0.0
 40
0.22
 50
180.0
 51
270.0
  0
LINE
  5
141D
  8
0
 10
281.66341104777672
 20
153.5432012252455
 30
0.0
 11
280.08327404777651
 21
153.5432012252455
 31
0.0
  0
ARC
  5
141E
  8
0
 10
283.42341104777648
 20
154.29776222524561
 30
0.0
 40
0.22
 50
0.0
 51
90.0
  0
ARC
  5
141F
  8
0
 10
282.76341104777651
 20
154.29776222524561
 30
0.0
 40
0.22
 50
90.0
 51
180.0
  0
LINE
  5
1420
  8
0
 10
284.52341104777651
 20
153.5432012252455
 30
0.0
 11
286.10354804777648
 21
153.5432012252455
 31
0.0
  0
ARC
  5
1421
  8
0
 10
284.52341104777651
 20
153.3232012252455
 30
0.0
 40
0.22
 50
0.0
 51
90.0
  0
ARC
  5
1422
  8
0
 10
286.10354804777648
 20
153.3232012252455
 30
0.0
 40
0.22
 50
0.0
 51
90.0
  0
LINE
  5
1423
  8
0
 10
283.86341104777648
 20
153.5432012252455
 30
0.0
 11
284.52341104777651
 21
153.5432012252455
 31
0.0
  0
LINE
  5
1424
  8
0
 10
281.66341104777672
 20
152.1923232252455
 30
0.0
 11
280.08327404777651
 21
152.1923232252455
 31
0.0
  0
ARC
  5
1425
  8
0
 10
283.42341104777648
 20
151.43776222524539
 30
0.0
 40
0.22
 50
270.0
 51
0.0
  0
ARC
  5
1426
  8
0
 10
282.76341104777651
 20
151.43776222524539
 30
0.0
 40
0.22
 50
180.0
 51
270.0
  0
LINE
  5
1427
  8
0
 10
282.76341104777651
 20
151.21776222524551
 30
0.0
 11
283.42341104777648
 21
151.21776222524551
 31
0.0
  0
ARC
  5
1428
  8
0
 10
282.32341104777652
 20
151.9723232252455
 30
0.0
 40
0.22
 50
0.0
 51
90.0
  0
ARC
  5
1429
  8
0
 10
283.86341104777648
 20
151.9723232252455
 30
0.0
 40
0.22
 50
90.0
 51
180.0
  0
ARC
  5
142A
  8
0
 10
281.66341104777672
 20
152.41232322524559
 30
0.0
 40
0.22
 50
180.0
 51
270.0
  0
LINE
  5
142B
  8
0
 10
282.32341104777652
 20
152.1923232252455
 30
0.0
 11
281.66341104777672
 21
152.1923232252455
 31
0.0
  0
LINE
  5
142C
  8
0
 10
282.5434110477766
 20
151.43776222524539
 30
0.0
 11
282.5434110477766
 21
151.9723232252455
 31
0.0
  0
LINE
  5
142D
  8
0
 10
283.6434110477764
 20
151.43776222524539
 30
0.0
 11
283.6434110477764
 21
151.9723232252455
 31
0.0
  0
LINE
  5
142E
  8
0
 10
284.52341104777651
 20
152.1923232252455
 30
0.0
 11
286.10354804777648
 21
152.1923232252455
 31
0.0
  0
ARC
  5
142F
  8
0
 10
284.52341104777651
 20
152.41232322524559
 30
0.0
 40
0.22
 50
270.0
 51
0.0
  0
LINE
  5
1430
  8
0
 10
284.52341104777651
 20
152.1923232252455
 30
0.0
 11
283.86341104777648
 21
152.1923232252455
 31
0.0
  0
ARC
  5
1431
  8
0
 10
286.10354804777648
 20
152.41232322524559
 30
0.0
 40
0.22
 50
270.0
 51
0.0
  0
ARC
  5
1432
  8
0
 10
280.08327404777651
 20
152.41232322524559
 30
0.0
 40
0.22
 50
180.0
 51
270.0
  0
CIRCLE
  5
1433
  8
0
 10
283.0934110477765
 20
90.867762225245514
 30
0.0
 40
3.5
  0
CIRCLE
  5
1434
  8
0
 10
283.0934110477765
 20
90.867762225245514
 30
0.0
 40
3.299999999999998
  0
LINE
  5
1435
  8
0
 10
281.44341104777652
 20
91.323201225245498
 30
0.0
 11
281.44341104777652
 21
90.412323225245572
 31
0.0
  0
LINE
  5
1436
  8
0
 10
286.32354804777651
 20
91.323201225245498
 30
0.0
 11
286.32354804777651
 21
90.412323225245572
 31
0.0
  0
LINE
  5
1437
  8
0
 10
284.74341104777648
 20
91.323201225245498
 30
0.0
 11
284.74341104777648
 21
90.412323225245572
 31
0.0
  0
ARC
  5
1438
  8
0
 10
286.10354804777648
 20
90.412323225245572
 30
0.0
 40
0.22
 50
270.0
 51
0.0
  0
ARC
  5
1439
  8
0
 10
283.86341104777648
 20
89.972323225245532
 30
0.0
 40
0.22
 50
90.0
 51
180.0
  0
ARC
  5
143A
  8
0
 10
282.32341104777652
 20
89.972323225245532
 30
0.0
 40
0.22
 50
0.0
 51
90.0
  0
ARC
  5
143B
  8
0
 10
284.52341104777651
 20
90.412323225245572
 30
0.0
 40
0.22
 50
270.0
 51
0.0
  0
LINE
  5
143C
  8
0
 10
281.66341104777672
 20
90.192323225245559
 30
0.0
 11
282.32341104777652
 21
90.192323225245559
 31
0.0
  0
LINE
  5
143D
  8
0
 10
281.66341104777672
 20
90.192323225245559
 30
0.0
 11
280.08327404777651
 21
90.192323225245559
 31
0.0
  0
ARC
  5
143E
  8
0
 10
281.66341104777672
 20
90.412323225245572
 30
0.0
 40
0.22
 50
180.0
 51
270.0
  0
LINE
  5
143F
  8
0
 10
283.86341104777648
 20
90.192323225245559
 30
0.0
 11
284.52341104777651
 21
90.192323225245559
 31
0.0
  0
LINE
  5
1440
  8
0
 10
282.76341104777651
 20
89.217762225245565
 30
0.0
 11
283.42341104777648
 21
89.217762225245565
 31
0.0
  0
ARC
  5
1441
  8
0
 10
283.42341104777648
 20
89.437762225245464
 30
0.0
 40
0.22
 50
270.0
 51
0.0
  0
ARC
  5
1442
  8
0
 10
282.76341104777651
 20
89.437762225245464
 30
0.0
 40
0.22
 50
180.0
 51
270.0
  0
LINE
  5
1443
  8
0
 10
283.6434110477764
 20
89.437762225245464
 30
0.0
 11
283.6434110477764
 21
89.972323225245532
 31
0.0
  0
LINE
  5
1444
  8
0
 10
282.5434110477766
 20
89.972323225245532
 30
0.0
 11
282.5434110477766
 21
89.437762225245464
 31
0.0
  0
ARC
  5
1445
  8
0
 10
280.08327404777651
 20
90.412323225245572
 30
0.0
 40
0.22
 50
180.0
 51
270.0
  0
LINE
  5
1446
  8
0
 10
284.52341104777651
 20
90.192323225245559
 30
0.0
 11
286.10354804777648
 21
90.192323225245559
 31
0.0
  0
LINE
  5
1447
  8
0
 10
283.6434110477764
 20
92.297762225245592
 30
0.0
 11
283.6434110477764
 21
91.763201225245567
 31
0.0
  0
LINE
  5
1448
  8
0
 10
282.5434110477766
 20
92.297762225245592
 30
0.0
 11
282.5434110477766
 21
91.763201225245567
 31
0.0
  0
ARC
  5
1449
  8
0
 10
284.52341104777651
 20
91.323201225245498
 30
0.0
 40
0.22
 50
0.0
 51
90.0
  0
LINE
  5
144A
  8
0
 10
282.32341104777652
 20
91.543201225245497
 30
0.0
 11
281.66341104777672
 21
91.543201225245497
 31
0.0
  0
LINE
  5
144B
  8
0
 10
281.66341104777672
 20
91.543201225245497
 30
0.0
 11
280.08327404777651
 21
91.543201225245497
 31
0.0
  0
ARC
  5
144C
  8
0
 10
281.66341104777672
 20
91.323201225245498
 30
0.0
 40
0.22
 50
90.0
 51
180.0
  0
LINE
  5
144D
  8
0
 10
284.52341104777651
 20
91.543201225245497
 30
0.0
 11
283.86341104777648
 21
91.543201225245497
 31
0.0
  0
ARC
  5
144E
  8
0
 10
283.86341104777648
 20
91.763201225245567
 30
0.0
 40
0.22
 50
180.0
 51
270.0
  0
ARC
  5
144F
  8
0
 10
282.32341104777652
 20
91.763201225245567
 30
0.0
 40
0.22
 50
270.0
 51
0.0
  0
ARC
  5
1450
  8
0
 10
286.10354804777648
 20
91.323201225245498
 30
0.0
 40
0.22
 50
0.0
 51
90.0
  0
ARC
  5
1451
  8
0
 10
280.08327404777651
 20
91.323201225245498
 30
0.0
 40
0.22
 50
90.0
 51
180.0
  0
LINE
  5
1452
  8
0
 10
284.52341104777651
 20
91.543201225245497
 30
0.0
 11
286.10354804777648
 21
91.543201225245497
 31
0.0
  0
LINE
  5
1453
  8
0
 10
282.76341104777651
 20
92.517762225245534
 30
0.0
 11
283.42341104777648
 21
92.517762225245534
 31
0.0
  0
ARC
  5
1454
  8
0
 10
282.76341104777651
 20
92.297762225245592
 30
0.0
 40
0.22
 50
90.0
 51
180.0
  0
ARC
  5
1455
  8
0
 10
283.42341104777648
 20
92.297762225245592
 30
0.0
 40
0.22
 50
0.0
 51
90.0
  0
LINE
  5
1456
  8
0
 10
279.86327404777649
 20
153.3232012252455
 30
0.0
 11
279.86327404777649
 21
152.41232322524559
 31
0.0
  0
LINE
  5
1457
  8
0
 10
279.86327404777649
 20
91.323201225245498
 30
0.0
 11
279.86327404777649
 21
90.412323225245572
 31
0.0
  0
ARC
  5
1459
  8
0
 10
294.1934180477765
 20
67.558789225245505
 30
0.0
 40
2.2000009999999981
 50
90.000022000001508
 51
179.99999700000231
  0
ARC
  5
145A
  8
0
 10
294.1934180477765
 20
62.958783225245611
 30
0.0
 40
2.1999970000000002
 50
180.00001799999919
 51
270.0
  0
LINE
  5
145B
  8
0
  6
CONTINUOUS
 62
     7
 10
296.59340904777662
 20
65.308231225245549
 30
0.0
 11
295.29340904777661
 21
66.058786225245484
 31
0.0
  0
LINE
  5
145C
  8
0
  6
CONTINUOUS
 62
     7
 10
296.59340904777662
 20
64.308231225245549
 30
0.0
 11
295.29340904777661
 21
65.058786225245498
 31
0.0
  0
LINE
  5
145D
  8
0
  6
CONTINUOUS
 62
     7
 10
295.29340904777661
 20
60.658786225245542
 30
0.0
 11
296.59340904777662
 21
60.658786225245542
 31
0.0
  0
LINE
  5
145E
  8
0
  6
CONTINUOUS
 62
     7
 10
295.29340904777661
 20
69.858786225245581
 30
0.0
 11
296.59340904777662
 21
69.858786225245581
 31
0.0
  0
LINE
  5
145F
  8
0
  6
CONTINUOUS
 62
     7
 10
296.59340904777662
 20
60.658786225245542
 30
0.0
 11
296.59340904777662
 21
69.858786225245581
 31
0.0
  0
LINE
  5
1460
  8
0
 10
291.99340604777672
 20
62.958783225245611
 30
0.0
 11
291.99340604777672
 21
67.558789225245505
 31
0.0
  0
LINE
  5
1461
  8
0
  6
CONTINUOUS
 62
     7
 10
295.29340904777661
 20
60.658786225245542
 30
0.0
 11
295.29340904777661
 21
69.858786225245581
 31
0.0
  0
LINE
  5
1462
  8
0
  6
CONTINUOUS
 62
     7
 10
295.29340904777661
 20
69.758786225245558
 30
0.0
 11
294.1934180477765
 21
69.758786225245558
 31
0.0
  0
LINE
  5
1463
  8
0
  6
CONTINUOUS
 62
     7
 10
295.29340904777661
 20
60.758786225245537
 30
0.0
 11
294.1934180477765
 21
60.758786225245537
 31
0.0
  0
LINE
  5
1820
  8
0
  6
CONTINUOUS
 62
     7
 10
306.59344104777688
 20
294.12771024211168
 30
0.0
 11
306.59344104777688
 21
441.12768024211158
 31
0.0
  0
LINE
  5
1878
  8
0
  6
CONTINUOUS
 62
     7
 10
306.59232538172648
 20
294.12768024211152
 30
0.0
 11
306.59232538172648
 21
441.12768524211151
 31
0.0
  0
LINE
  5
1879
  8
0
  6
AM_ISO08W050
 10
-1.5147583087566541
 20
367.62768024211152
 30
0.0
 11
467.88469429378682
 21
367.62768024211158
 31
0.0
  0
ARC
  5
187A
  8
0
  6
CONTINUOUS
 62
     7
 10
297.59344104777688
 20
305.5888872421117
 30
0.0
 40
1.0
 50
180.0
 51
270.0
  0
ARC
  5
187B
  8
0
  6
CONTINUOUS
 62
     7
 10
297.59344104777688
 20
429.6665032421115
 30
0.0
 40
1.0
 50
90.0
 51
180.0
  0
ARC
  5
187C
  8
0
  6
CONTINUOUS
 10
294.193448047777
 20
313.31872224211179
 30
0.0
 40
2.2000009999999981
 50
90.000022000001564
 51
179.99999699999901
  0
ARC
  5
187D
  8
0
  6
CONTINUOUS
 10
294.193448047777
 20
308.71871624211178
 30
0.0
 40
2.1999970000000002
 50
180.00001799999919
 51
270.0
  0
LINE
  5
187E
  8
0
  6
CONTINUOUS
 62
     7
 10
296.593439047777
 20
311.06816424211178
 30
0.0
 11
295.29343904777699
 21
311.81871924211168
 31
0.0
  0
LINE
  5
187F
  8
0
  6
CONTINUOUS
 62
     7
 10
296.593439047777
 20
310.06816424211178
 30
0.0
 11
295.29343904777699
 21
310.81871924211168
 31
0.0
  0
LINE
  5
1880
  8
0
  6
CONTINUOUS
 62
     7
 10
295.29343904777699
 20
306.41871924211182
 30
0.0
 11
296.593439047777
 21
306.41871924211182
 31
0.0
  0
LINE
  5
1881
  8
0
  6
CONTINUOUS
 62
     7
 10
295.29343904777699
 20
315.61871924211181
 30
0.0
 11
296.593439047777
 21
315.61871924211181
 31
0.0
  0
LINE
  5
1882
  8
0
  6
CONTINUOUS
 62
     7
 10
296.593439047777
 20
306.41871924211182
 30
0.0
 11
296.593439047777
 21
315.61871924211181
 31
0.0
  0
LINE
  5
1883
  8
0
  6
CONTINUOUS
 10
291.99343604777698
 20
308.71871624211178
 30
0.0
 11
291.99343604777698
 21
313.31872224211179
 31
0.0
  0
LINE
  5
1884
  8
0
  6
CONTINUOUS
 62
     7
 10
295.29343904777699
 20
306.41871924211182
 30
0.0
 11
295.29343904777699
 21
315.61871924211181
 31
0.0
  0
LINE
  5
1885
  8
0
  6
CONTINUOUS
 62
     7
 10
295.29343904777699
 20
315.51871924211167
 30
0.0
 11
294.193448047777
 21
315.51871924211167
 31
0.0
  0
LINE
  5
1886
  8
0
  6
CONTINUOUS
 62
     7
 10
295.29343904777699
 20
306.51871924211167
 30
0.0
 11
294.193448047777
 21
306.51871924211167
 31
0.0
  0
ARC
  5
1887
  8
0
  6
CONTINUOUS
 10
294.19345004777688
 20
421.93666924211152
 30
0.0
 40
2.2000009999999981
 50
180.00000299999761
 51
269.99997799999852
  0
ARC
  5
1888
  8
0
  6
CONTINUOUS
 10
294.19345004777688
 20
426.53667524211141
 30
0.0
 40
2.1999970000000002
 50
90.0
 51
179.99998200000081
  0
LINE
  5
1889
  8
0
  6
CONTINUOUS
 62
     7
 10
296.59344104777688
 20
424.18722724211148
 30
0.0
 11
295.29344104777692
 21
423.43667224211168
 31
0.0
  0
LINE
  5
188A
  8
0
  6
CONTINUOUS
 62
     7
 10
296.59344104777688
 20
425.18722724211148
 30
0.0
 11
295.29344104777692
 21
424.43667224211168
 31
0.0
  0
LINE
  5
188B
  8
0
  6
CONTINUOUS
 62
     7
 10
295.29344104777692
 20
428.83667224211132
 30
0.0
 11
296.59344104777688
 21
428.83667224211132
 31
0.0
  0
LINE
  5
188C
  8
0
  6
CONTINUOUS
 62
     7
 10
295.29344104777692
 20
419.63667224211162
 30
0.0
 11
296.59344104777688
 21
419.63667224211162
 31
0.0
  0
LINE
  5
188D
  8
0
  6
CONTINUOUS
 62
     7
 10
296.59344104777688
 20
428.83667224211132
 30
0.0
 11
296.59344104777688
 21
419.63667224211162
 31
0.0
  0
LINE
  5
188E
  8
0
  6
CONTINUOUS
 10
291.99343804777692
 20
426.53667524211141
 30
0.0
 11
291.99343804777692
 21
421.93666924211152
 31
0.0
  0
LINE
  5
188F
  8
0
  6
CONTINUOUS
 62
     7
 10
295.29344104777692
 20
428.83667224211132
 30
0.0
 11
295.29344104777692
 21
419.63667224211162
 31
0.0
  0
LINE
  5
1890
  8
0
  6
CONTINUOUS
 62
     7
 10
295.29344104777692
 20
419.73667224211152
 30
0.0
 11
294.19345004777688
 21
419.73667224211152
 31
0.0
  0
LINE
  5
1891
  8
0
  6
CONTINUOUS
 62
     7
 10
295.29344104777692
 20
428.73667224211158
 30
0.0
 11
294.19345004777688
 21
428.73667224211158
 31
0.0
  0
LINE
  5
1892
  8
0
  6
CONTINUOUS
 62
     7
 10
306.59344104777688
 20
294.12769524211171
 30
0.0
 11
306.59344104777688
 21
441.12770024211142
 31
0.0
  0
ARC
  5
1893
  8
0
 10
144.61231604777689
 20
289.15276524211168
 30
0.0
 40
2.0
 50
60.311696999998048
 51
90.0
  0
LINE
  5
1894
  8
0
 10
134.59344104777691
 20
291.15276524211168
 30
0.0
 11
144.61231604777689
 21
291.15276524211168
 31
0.0
  0
ARC
  5
1895
  8
0
 10
142.6680680477769
 20
291.85863724211168
 30
0.0
 40
2.0
 50
11.08497000000173
 51
90.0
  0
LINE
  5
1896
  8
0
 10
134.59344104777691
 20
293.85863724211168
 30
0.0
 11
142.6680680477769
 21
293.85863724211168
 31
0.0
  0
ARC
  5
1897
  8
0
 10
146.59344104777691
 20
292.62769524211171
 30
0.0
 40
2.0
 50
180.0
 51
270.0
  0
ARC
  5
1898
  8
0
 10
146.59344104777691
 20
301.1276992421117
 30
0.0
 40
2.0
 50
180.0
 51
270.0
  0
LINE
  5
1899
  8
0
 10
144.59344104777691
 20
314.82818224211189
 30
0.0
 11
144.59344104777691
 21
292.62769524211171
 31
0.0
  0
LINE
  5
189A
  8
0
 10
134.59344104777691
 20
313.44039824211183
 30
0.0
 11
144.59344104777691
 21
313.44039824211183
 31
0.0
  0
LINE
  5
189B
  8
0
 10
134.59344104777691
 20
301.8637032421118
 30
0.0
 11
144.59344104777691
 21
301.8637032421118
 31
0.0
  0
LINE
  5
189C
  8
0
 10
134.59344104777691
 20
295.80354024211181
 30
0.0
 11
144.59344104777691
 21
295.80354024211181
 31
0.0
  0
ARC
  5
189D
  8
0
  6
CONTINUOUS
 62
     7
 10
294.593439047777
 20
301.12769124211172
 30
0.0
 40
2.0
 50
269.99999800000052
 51
359.99999800000052
  0
LINE
  5
189E
  8
0
 10
146.59344104777691
 20
316.82818224211178
 30
0.0
 11
294.59343804777689
 21
316.82818224211178
 31
0.0
  0
LINE
  5
189F
  8
0
 10
146.59344104777691
 20
299.1276992421117
 30
0.0
 11
294.59914204777692
 21
299.1276992421117
 31
0.0
  0
LINE
  5
18A0
  8
0
  6
CONTINUOUS
 62
     7
 10
296.59344104777688
 20
294.12769524211171
 30
0.0
 11
306.59343804777689
 21
294.12769524211171
 31
0.0
  0
LINE
  5
18A1
  8
0
  6
CONTINUOUS
 62
     7
 10
297.59344104777688
 20
304.5888872421117
 30
0.0
 11
306.593439047777
 21
304.5888872421117
 31
0.0
  0
LINE
  5
18A2
  8
0
 10
144.59344104777691
 20
442.5804832421116
 30
0.0
 11
144.59344104777691
 21
439.54167924211168
 31
0.0
  0
ARC
  5
18A3
  8
0
 10
146.59344104777691
 20
434.12769924211148
 30
0.0
 40
2.0
 50
90.0
 51
180.0
  0
LINE
  5
18A4
  8
0
 10
134.59344104777691
 20
421.9022962421115
 30
0.0
 11
144.59344104777691
 21
421.9022962421115
 31
0.0
  0
LINE
  5
18A5
  8
0
 10
134.59344104777691
 20
433.46831524211137
 30
0.0
 11
144.59344104777691
 21
433.46831524211137
 31
0.0
  0
LINE
  5
18A6
  8
0
 10
134.59344104777691
 20
439.54167924211168
 30
0.0
 11
144.59344104777691
 21
439.54167924211168
 31
0.0
  0
LINE
  5
18A7
  8
0
 10
144.59344104777691
 20
444.10594124211161
 30
0.0
 11
144.59344104777691
 21
443.5026652421115
 31
0.0
  0
ARC
  5
18A8
  8
0
 10
146.59344104777691
 20
442.5804832421116
 30
0.0
 40
2.0
 50
90.0
 51
180.0
  0
LINE
  5
18A9
  8
0
 10
134.59344104777691
 20
445.52084024211138
 30
0.0
 11
143.07411204777691
 21
445.52084024211138
 31
0.0
  0
LINE
  5
18AA
  8
0
 10
134.59344104777691
 20
444.20632824211151
 30
0.0
 11
142.74475204777701
 21
444.20632824211151
 31
0.0
  0
ARC
  5
18AB
  8
0
 10
142.74475204777701
 20
446.20632824211168
 30
0.0
 40
2.0
 50
270.0
 51
344.1903739999986
  0
ARC
  5
18AC
  8
0
 10
146.59344104777691
 20
445.11656124211157
 30
0.0
 40
2.0
 50
90.0
 51
164.1903739999986
  0
ARC
  5
18AD
  8
0
 10
143.07411204777691
 20
447.5208402421116
 30
0.0
 40
2.0
 50
270.0
 51
331.62214299999971
  0
ARC
  5
18AE
  8
0
 10
146.59344104777691
 20
445.61970324211148
 30
0.0
 40
2.0
 50
90.0
 51
151.62214399999931
  0
ARC
  5
18AF
  8
0
  6
CONTINUOUS
 62
     7
 10
294.59344104777688
 20
434.12769924211148
 30
0.0
 40
2.0
 50
0.0
 51
90.0
  0
ARC
  5
18B0
  8
0
  6
CONTINUOUS
 62
     7
 10
293.46594904777697
 20
442.5804832421116
 30
0.0
 40
2.0
 50
15.000000000000741
 51
90.0
  0
LINE
  5
18B1
  8
0
  6
CONTINUOUS
 62
     7
 10
298.59344104777688
 20
431.17182924211153
 30
0.0
 11
295.39780104777691
 21
443.09812124211169
 31
0.0
  0
ARC
  5
18B2
  8
0
  6
CONTINUOUS
 62
     7
 10
294.43046504777698
 20
444.10594124211161
 30
0.0
 40
2.0
 50
15.000000000000741
 51
90.0
  0
LINE
  5
18B3
  8
0
  6
CONTINUOUS
 62
     7
 10
298.59344104777688
 20
436.2969122421116
 30
0.0
 11
296.3623170477768
 21
444.62358024211147
 31
0.0
  0
ARC
  5
18B4
  8
0
  6
CONTINUOUS
 62
     7
 10
294.9781590477769
 20
445.11656124211157
 30
0.0
 40
2.0
 50
15.000000000000741
 51
90.0
  0
LINE
  5
18B5
  8
0
  6
CONTINUOUS
 62
     7
 10
298.59344104777688
 20
439.35154924211167
 30
0.0
 11
296.91001004777701
 21
445.63419924211161
 31
0.0
  0
ARC
  5
18B6
  8
0
  6
CONTINUOUS
 62
     7
 10
295.25919304777688
 20
445.61970324211148
 30
0.0
 40
2.0
 50
15.000000000000741
 51
90.0
  0
LINE
  5
18B7
  8
0
  6
CONTINUOUS
 62
     7
 10
298.59344104777688
 20
440.90352724211158
 30
0.0
 11
297.19104504777692
 21
446.13734224211152
 31
0.0
  0
ARC
  5
18B8
  8
0
 10
142.59344104777691
 20
443.5026652421115
 30
0.0
 40
2.0
 50
270.0
 51
0.0
  0
ARC
  5
18B9
  8
0
 10
146.59344104777691
 20
444.10594124211161
 30
0.0
 40
2.0
 50
90.0
 51
180.0
  0
LINE
  5
18BA
  8
0
 10
134.59344104777691
 20
441.50266524211168
 30
0.0
 11
142.59344104777691
 21
441.50266524211168
 31
0.0
  0
LINE
  5
18BB
  8
0
 10
144.59344104777691
 20
439.54167924211168
 30
0.0
 11
144.59344104777691
 21
420.49903524211129
 31
0.0
  0
LINE
  5
18BC
  8
0
  6
CONTINUOUS
 62
     7
 10
297.59344104777688
 20
430.66650324211167
 30
0.0
 11
306.59344104777688
 21
430.66650324211167
 31
0.0
  0
LINE
  5
18BD
  8
0
 10
146.59344104777691
 20
418.49903524211169
 30
0.0
 11
294.59344104777688
 21
418.49903524211169
 31
0.0
  0
LINE
  5
18BE
  8
0
 10
146.59344104777691
 20
447.61970324211183
 30
0.0
 11
295.25919304777688
 21
447.61970324211183
 31
0.0
  0
LINE
  5
18BF
  8
0
 10
146.59344104777691
 20
436.12769924211159
 30
0.0
 11
294.59344104777688
 21
436.12769924211159
 31
0.0
  0
LINE
  5
18C0
  8
0
 10
146.59344104777691
 20
444.58048324211148
 30
0.0
 11
293.46594904777697
 21
444.58048324211148
 31
0.0
  0
LINE
  5
18C1
  8
0
 10
146.59344104777691
 20
446.10594124211161
 30
0.0
 11
294.43046504777698
 21
446.10594124211161
 31
0.0
  0
LINE
  5
18C2
  8
0
 10
146.59344104777691
 20
447.11656124211152
 30
0.0
 11
294.9781590477769
 21
447.11656124211152
 31
0.0
  0
LINE
  5
18C3
  8
0
 10
283.59344104777688
 20
290.62769524211171
 30
0.0
 11
283.59344104777688
 21
288.62769524211171
 31
0.0
  0
LINE
  5
18C4
  8
0
 10
216.59344104777699
 20
290.62769524211171
 30
0.0
 11
216.59344104777699
 21
288.62769524211171
 31
0.0
  0
LINE
  5
18C5
  8
0
 10
216.59344104777699
 20
288.62769524211171
 30
0.0
 11
283.59344104777688
 21
288.62769524211171
 31
0.0
  0
LINE
  5
18C6
  8
0
 10
146.59344104777691
 20
290.62769524211171
 30
0.0
 11
293.37396104777702
 21
290.62769524211171
 31
0.0
  0
LINE
  5
18C7
  8
0
 10
260.09344104777688
 20
393.62769524211171
 30
0.0
 11
134.59344104777691
 21
393.62769524211171
 31
0.0
  0
LINE
  5
18C8
  8
0
 10
260.09344104777688
 20
341.62769524211171
 30
0.0
 11
134.59344104777691
 21
341.62769524211171
 31
0.0
  0
LINE
  5
18C9
  8
0
 10
276.09344104777688
 20
394.62769524211171
 30
0.0
 11
276.09344104777688
 21
400.62769524211149
 31
0.0
  0
LINE
  5
18CA
  8
0
 10
261.09344104777688
 20
394.62769524211171
 30
0.0
 11
261.09344104777688
 21
400.62769524211149
 31
0.0
  0
LINE
  5
18CB
  8
0
 10
276.09344104777688
 20
340.62769524211171
 30
0.0
 11
276.09344104777688
 21
334.62769524211171
 31
0.0
  0
LINE
  5
18CC
  8
0
 10
261.09344104777688
 20
340.62769524211171
 30
0.0
 11
261.09344104777688
 21
334.62769524211171
 31
0.0
  0
LINE
  5
18CD
  8
0
 10
232.59344104777691
 20
388.12769524211171
 30
0.0
 11
232.59344104777691
 21
347.12769524211171
 31
0.0
  0
LINE
  5
18CE
  8
0
  6
CONTINUOUS
 62
     7
 10
295.59344104777699
 20
388.12769524211171
 30
0.0
 11
295.59344104777699
 21
347.12769524211171
 31
0.0
  0
LINE
  5
18CF
  8
0
 10
232.59344104777691
 20
388.12769524211171
 30
0.0
 11
295.59344104777699
 21
388.12769524211171
 31
0.0
  0
LINE
  5
18D0
  8
0
 10
232.59344104777691
 20
347.12769524211171
 30
0.0
 11
295.59344104777699
 21
347.12769524211171
 31
0.0
  0
LINE
  5
18D1
  8
0
 10
232.59344104777691
 20
380.6276952421116
 30
0.0
 11
295.59344104777699
 21
380.6276952421116
 31
0.0
  0
LINE
  5
18D2
  8
0
 10
144.59344104777691
 20
370.6276952421116
 30
0.0
 11
144.59344104777691
 21
364.6276952421116
 31
0.0
  0
LINE
  5
18D3
  8
0
  6
CONTINUOUS
 62
     7
 10
295.3055410477769
 20
292.10898524211183
 30
0.0
 11
296.2934510477769
 21
295.78766524211181
 31
0.0
  0
LINE
  5
18D4
  8
0
  6
CONTINUOUS
 62
     7
 10
294.71746104777702
 20
292.10898524211183
 30
0.0
 11
296.2934510477769
 21
297.97770524211171
 31
0.0
  0
LINE
  5
18D5
  8
0
  6
CONTINUOUS
 62
     7
 10
296.59344104777688
 20
330.66947524211167
 30
0.0
 11
296.59344104777688
 21
294.12769524211171
 31
0.0
  0
LINE
  5
18D6
  8
0
 10
295.59344104777699
 20
343.6276952421116
 30
0.0
 11
134.59344104777691
 21
343.6276952421116
 31
0.0
  0
LINE
  5
18D7
  8
0
 10
295.59344104777699
 20
341.62769524211171
 30
0.0
 11
277.09344104777699
 21
341.62769524211171
 31
0.0
  0
LINE
  5
18D8
  8
0
 10
228.59344104777691
 20
351.62769524211171
 30
0.0
 11
134.59344104777691
 21
351.62769524211171
 31
0.0
  0
LINE
  5
18D9
  8
0
 10
228.59344104777691
 20
353.62769524211171
 30
0.0
 11
134.59344104777691
 21
353.62769524211171
 31
0.0
  0
LINE
  5
18DA
  8
0
 10
228.59344104777691
 20
361.62769524211171
 30
0.0
 11
134.59344104777691
 21
361.62769524211171
 31
0.0
  0
LINE
  5
18DB
  8
0
 10
228.59344104777691
 20
363.62769524211171
 30
0.0
 11
145.59344104777691
 21
363.62769524211171
 31
0.0
  0
LINE
  5
18DC
  8
0
 10
295.59344104777699
 20
321.62769524211171
 30
0.0
 11
134.59344104777691
 21
321.62769524211171
 31
0.0
  0
LINE
  5
18DD
  8
0
 10
295.59344104777699
 20
333.62769524211171
 30
0.0
 11
134.59344104777691
 21
333.62769524211171
 31
0.0
  0
LINE
  5
18DE
  8
0
 10
295.59344104777699
 20
331.62769524211171
 30
0.0
 11
134.59344104777691
 21
331.62769524211171
 31
0.0
  0
LINE
  5
18DF
  8
0
 10
295.59344104777699
 20
323.62769524211171
 30
0.0
 11
134.59344104777691
 21
323.62769524211171
 31
0.0
  0
LINE
  5
18E0
  8
0
 10
295.59344104777699
 20
411.6276952421116
 30
0.0
 11
134.59344104777691
 21
411.6276952421116
 31
0.0
  0
LINE
  5
18E1
  8
0
 10
295.59344104777699
 20
403.62769524211171
 30
0.0
 11
134.59344104777691
 21
403.62769524211171
 31
0.0
  0
LINE
  5
18E2
  8
0
 10
295.59344104777699
 20
401.62769524211132
 30
0.0
 11
134.59344104777691
 21
401.62769524211132
 31
0.0
  0
LINE
  5
18E3
  8
0
 10
295.59344104777699
 20
413.62769524211137
 30
0.0
 11
134.59344104777691
 21
413.62769524211137
 31
0.0
  0
LINE
  5
18E4
  8
0
 10
228.59344104777691
 20
371.62769524211171
 30
0.0
 11
145.59344104777691
 21
371.62769524211171
 31
0.0
  0
LINE
  5
18E5
  8
0
 10
228.59344104777691
 20
373.62769524211171
 30
0.0
 11
134.59344104777691
 21
373.62769524211171
 31
0.0
  0
LINE
  5
18E6
  8
0
 10
228.59344104777691
 20
381.6276952421116
 30
0.0
 11
134.59344104777691
 21
381.6276952421116
 31
0.0
  0
LINE
  5
18E7
  8
0
 10
228.59344104777691
 20
383.6276952421116
 30
0.0
 11
134.59344104777691
 21
383.6276952421116
 31
0.0
  0
LINE
  5
18E8
  8
0
 10
295.59344104777699
 20
393.62769524211171
 30
0.0
 11
277.09344104777699
 21
393.62769524211171
 31
0.0
  0
LINE
  5
18E9
  8
0
 10
295.59344104777699
 20
391.6276952421116
 30
0.0
 11
134.59344104777691
 21
391.6276952421116
 31
0.0
  0
LINE
  5
18EA
  8
0
  6
CONTINUOUS
 62
     7
 10
296.59344104777688
 20
404.58591524211181
 30
0.0
 11
296.59344104777688
 21
434.12769924211148
 31
0.0
  0
ARC
  5
18EB
  8
0
  6
CONTINUOUS
 62
     7
 10
293.37396104777702
 20
292.62769524211171
 30
0.0
 40
2.0
 50
269.999989999999
 51
344.9683099999985
  0
ARC
  5
18EC
  8
0
  6
CONTINUOUS
 62
     7
 10
292.78588104777702
 20
292.62769524211171
 30
0.0
 40
2.0
 50
269.999989999999
 51
344.9683099999985
  0
ARC
  5
18ED
  8
0
 10
277.09344104777699
 20
334.62769524211171
 30
0.0
 40
1.0
 50
179.999989999999
 51
270.0
  0
ARC
  5
18EE
  8
0
 10
260.09344104777688
 20
334.62769524211171
 30
0.0
 40
1.0
 50
269.999989999999
 51
0.0000010000014034
  0
ARC
  5
18EF
  8
0
 10
260.09344104777688
 20
400.62769524211149
 30
0.0
 40
1.0
 50
0.0
 51
90.000003000000945
  0
ARC
  5
18F0
  8
0
 10
277.09344104777699
 20
400.62769524211149
 30
0.0
 40
1.0
 50
90.000003000000945
 51
180.000010000001
  0
ARC
  5
18F1
  8
0
 10
277.09344104777699
 20
340.62769524211171
 30
0.0
 40
1.0
 50
90.000003000000945
 51
180.000010000001
  0
ARC
  5
18F2
  8
0
 10
260.09344104777688
 20
340.62769524211171
 30
0.0
 40
1.0
 50
0.0
 51
90.000003000000945
  0
ARC
  5
18F3
  8
0
 10
277.09344104777699
 20
394.62769524211171
 30
0.0
 40
1.0
 50
179.999989999999
 51
270.0
  0
ARC
  5
18F4
  8
0
 10
260.09344104777688
 20
394.62769524211171
 30
0.0
 40
1.0
 50
269.999989999999
 51
0.0000010000014034
  0
CIRCLE
  5
18F5
  8
0
 10
271.09344104777688
 20
396.1276952421116
 30
0.0
 40
1.0
  0
CIRCLE
  5
18F6
  8
0
 10
266.09344104777688
 20
396.1276952421116
 30
0.0
 40
1.149999999999999
  0
CIRCLE
  5
18F7
  8
0
 10
266.09344104777688
 20
396.1276952421116
 30
0.0
 40
1.1000000000000001
  0
CIRCLE
  5
18F8
  8
0
 10
266.09344104777688
 20
339.12769524211171
 30
0.0
 40
1.1000000000000001
  0
CIRCLE
  5
18F9
  8
0
 10
266.09344104777688
 20
339.12769524211171
 30
0.0
 40
1.149999999999999
  0
CIRCLE
  5
18FA
  8
0
 10
271.09344104777688
 20
339.12769524211171
 30
0.0
 40
1.0
  0
ARC
  5
18FB
  8
0
 10
228.59344104777691
 20
382.62769524211171
 30
0.0
 40
1.0
 50
269.999989999999
 51
90.000003000000945
  0
ARC
  5
18FC
  8
0
 10
228.59344104777691
 20
372.62769524211171
 30
0.0
 40
1.0
 50
269.999989999999
 51
90.000003000000945
  0
ARC
  5
18FD
  8
0
 10
228.59344104777691
 20
362.6276952421116
 30
0.0
 40
1.0
 50
269.999989999999
 51
90.000003000000945
  0
ARC
  5
18FE
  8
0
 10
228.59344104777691
 20
352.62769524211171
 30
0.0
 40
1.0
 50
269.999989999999
 51
90.000003000000945
  0
ARC
  5
18FF
  8
0
  6
CONTINUOUS
 62
     7
 10
293.64343104777703
 20
332.62769524211171
 30
0.0
 40
1.0
 50
269.999989999999
 51
90.000003000000945
  0
ARC
  5
1900
  8
0
  6
CONTINUOUS
 62
     7
 10
295.59344104777699
 20
332.62769524211171
 30
0.0
 40
1.0
 50
269.999989999999
 51
90.000003000000945
  0
ARC
  5
1901
  8
0
  6
CONTINUOUS
 62
     7
 10
293.64343104777703
 20
342.62769524211171
 30
0.0
 40
1.0
 50
269.999989999999
 51
90.000003000000945
  0
ARC
  5
1902
  8
0
  6
CONTINUOUS
 62
     7
 10
295.59344104777699
 20
342.62769524211171
 30
0.0
 40
1.0
 50
269.999989999999
 51
90.000003000000945
  0
ARC
  5
1903
  8
0
  6
CONTINUOUS
 62
     7
 10
293.64343104777703
 20
392.62769524211171
 30
0.0
 40
1.0
 50
269.999989999999
 51
90.000003000000945
  0
ARC
  5
1904
  8
0
  6
CONTINUOUS
 62
     7
 10
295.59344104777699
 20
392.62769524211171
 30
0.0
 40
1.0
 50
269.999989999999
 51
90.000003000000945
  0
ARC
  5
1905
  8
0
  6
CONTINUOUS
 62
     7
 10
293.64343104777703
 20
402.6276952421116
 30
0.0
 40
1.0
 50
269.999989999999
 51
90.000003000000945
  0
ARC
  5
1906
  8
0
  6
CONTINUOUS
 62
     7
 10
295.59344104777699
 20
402.6276952421116
 30
0.0
 40
1.0
 50
269.999989999999
 51
90.000003000000945
  0
ARC
  5
1907
  8
0
 10
145.59344104777691
 20
370.6276952421116
 30
0.0
 40
1.0
 50
90.000003000000945
 51
180.000010000001
  0
ARC
  5
1908
  8
0
 10
145.59344104777691
 20
364.6276952421116
 30
0.0
 40
1.0
 50
179.999989999999
 51
270.0
  0
ARC
  5
1909
  8
0
 10
145.5934110477769
 20
352.62769524211171
 30
0.0
 40
1.0
 50
90.000003000000945
 51
270.0
  0
ARC
  5
190A
  8
0
 10
145.5934110477769
 20
342.62769524211171
 30
0.0
 40
1.0
 50
90.000003000000945
 51
270.0
  0
ARC
  5
190B
  8
0
  6
CONTINUOUS
 62
     7
 10
293.64343104777703
 20
322.62769524211171
 30
0.0
 40
1.0
 50
269.999989999999
 51
90.000003000000945
  0
ARC
  5
190C
  8
0
  6
CONTINUOUS
 62
     7
 10
295.59344104777699
 20
322.62769524211171
 30
0.0
 40
1.0
 50
269.999989999999
 51
90.000003000000945
  0
ARC
  5
190D
  8
0
 10
145.5934110477769
 20
322.62769524211171
 30
0.0
 40
1.0
 50
90.000003000000945
 51
270.0
  0
ARC
  5
190E
  8
0
 10
145.5934110477769
 20
332.62769524211171
 30
0.0
 40
1.0
 50
90.000003000000945
 51
270.0
  0
ARC
  5
190F
  8
0
  6
CONTINUOUS
 62
     7
 10
297.7395010477768
 20
295.40729524211179
 30
0.0
 40
1.4952499999999991
 50
140.0376499999991
 51
165.26259999999891
  0
ARC
  5
1910
  8
0
  6
CONTINUOUS
 62
     7
 10
297.73443104777698
 20
297.58319524211169
 30
0.0
 40
1.4940209999999989
 50
139.79257999999919
 51
164.69034000000019
  0
ARC
  5
1911
  8
0
  6
CONTINUOUS
 62
     7
 10
297.73760104777688
 20
441.39475524211173
 30
0.0
 40
1.495147999999999
 50
195.00188999999949
 51
195.00621300000171
  0
ARC
  5
1912
  8
0
 10
145.5934110477769
 20
402.6276952421116
 30
0.0
 40
1.0
 50
90.000003000000945
 51
270.0
  0
ARC
  5
1913
  8
0
 10
145.5934110477769
 20
412.6276952421116
 30
0.0
 40
1.0
 50
90.000003000000945
 51
270.0
  0
ARC
  5
1914
  8
0
  6
CONTINUOUS
 62
     7
 10
295.59344104777699
 20
412.6276952421116
 30
0.0
 40
1.0
 50
269.999989999999
 51
90.000003000000945
  0
ARC
  5
1915
  8
0
  6
CONTINUOUS
 62
     7
 10
293.64343104777703
 20
412.6276952421116
 30
0.0
 40
1.0
 50
269.999989999999
 51
90.000003000000945
  0
ARC
  5
1916
  8
0
 10
145.5934110477769
 20
392.62769524211171
 30
0.0
 40
1.0
 50
90.000003000000945
 51
270.0
  0
ARC
  5
1917
  8
0
 10
145.5934110477769
 20
382.62769524211171
 30
0.0
 40
1.0
 50
90.000003000000945
 51
270.0
  0
LINE
  5
1918
  8
0
  6
CONTINUOUS
 62
     7
 10
306.59344704777692
 20
441.12770024211142
 30
0.0
 11
298.53337404777699
 21
441.12770024211142
 31
0.0
  0
POINT
  5
1919
  8
0
 10
250.09344104777691
 20
285.62769524211171
 30
0.0
  0
LINE
  5
191A
  8
0
 10
292.84344104777688
 20
286.12769524211171
 30
0.0
 11
208.84344104777691
 21
286.12769524211171
 31
0.0
  0
LINE
  5
191B
  8
0
 10
210.4434410477769
 20
256.12769524211171
 30
0.0
 11
286.7434410477768
 21
269.12769524211171
 31
0.0
  0
LINE
  5
191C
  8
0
 10
210.36344104777689
 20
257.12769524211171
 30
0.0
 11
242.34344104777691
 21
262.57769524211182
 31
0.0
  0
LINE
  5
191D
  8
0
 10
286.24344104777691
 20
252.12769524211171
 30
0.0
 11
210.77344104777691
 21
252.12769524211171
 31
0.0
  0
LINE
  5
191E
  8
0
 10
287.07344104777701
 20
265.12769524211171
 30
0.0
 11
210.77344104777691
 21
252.12769524211171
 31
0.0
  0
ARC
  5
191F
  8
0
 10
206.15080804777691
 20
260.82032824211171
 30
0.0
 40
0.307456
 50
91.373079999999376
 51
178.62692000000061
  0
ARC
  5
1920
  8
0
 10
207.34348604777691
 20
253.62774024211171
 30
0.0
 40
1.5000450000000001
 50
180.0017189999993
 51
269.99828100000059
  0
ARC
  5
1921
  8
0
 10
207.04335904777699
 20
260.82761324211168
 30
0.0
 40
0.300082
 50
0.0157330000002619
 51
89.984266999999718
  0
ARC
  5
1922
  8
0
 10
206.65080804777699
 20
255.82032824211171
 30
0.0
 40
0.307456
 50
91.373079999999376
 51
178.62692000000061
  0
ARC
  5
1923
  8
0
 10
207.84348604777699
 20
253.62774024211171
 30
0.0
 40
1.5000450000000001
 50
180.0017189999993
 51
269.99828100000059
  0
ARC
  5
1924
  8
0
 10
206.65080804777699
 20
256.82032824211171
 30
0.0
 40
0.307456
 50
91.373079999999376
 51
178.62692000000061
  0
ARC
  5
1925
  8
0
 10
208.85085104777681
 20
285.12028524211178
 30
0.0
 40
1.0074369999999999
 50
90.421438000001373
 51
179.57856199999861
  0
LINE
  5
1926
  8
0
 10
207.34344104777691
 20
252.12769524211171
 30
0.0
 11
207.64344104777689
 21
252.12769524211171
 31
0.0
  0
LINE
  5
1927
  8
0
 10
205.84344104777691
 20
260.82769524211182
 30
0.0
 11
205.84344104777691
 21
253.62769524211171
 31
0.0
  0
LINE
  5
1928
  8
0
 10
206.64344104777689
 20
261.12769524211171
 30
0.0
 11
206.14344104777689
 21
261.12769524211171
 31
0.0
  0
LINE
  5
1929
  8
0
 10
207.04344104777701
 20
261.12769524211171
 30
0.0
 11
206.64344104777689
 21
261.12769524211171
 31
0.0
  0
LINE
  5
192A
  8
0
 10
206.34344104777691
 20
255.8276952421117
 30
0.0
 11
206.34344104777691
 21
253.62769524211171
 31
0.0
  0
LINE
  5
192B
  8
0
 10
207.84344104777691
 20
252.12769524211171
 30
0.0
 11
210.77344104777691
 21
252.12769524211171
 31
0.0
  0
LINE
  5
192C
  8
0
 10
207.54344104777701
 20
261.92769524211189
 30
0.0
 11
207.74344104777691
 21
262.12769524211171
 31
0.0
  0
LINE
  5
192D
  8
0
 10
206.34344104777691
 20
256.8276952421117
 30
0.0
 11
206.34344104777691
 21
256.12769524211171
 31
0.0
  0
LINE
  5
192E
  8
0
 10
210.36344104777689
 20
257.12769524211171
 30
0.0
 11
206.64344104777689
 21
257.12769524211171
 31
0.0
  0
LINE
  5
192F
  8
0
 10
207.84344104777691
 20
285.12769524211171
 30
0.0
 11
207.84344104777691
 21
262.12769524211171
 31
0.0
  0
LINE
  5
1930
  8
0
 10
207.54344104777701
 20
257.12769524211171
 30
0.0
 11
207.54344104777701
 21
258.11769524211172
 31
0.0
  0
LINE
  5
1931
  8
0
 10
207.84344104777691
 20
262.12769524211171
 30
0.0
 11
207.84344104777691
 21
257.12769524211171
 31
0.0
  0
LINE
  5
1932
  8
0
 10
207.54344104777701
 20
258.11769524211172
 30
0.0
 11
207.34344104777691
 21
258.11769524211172
 31
0.0
  0
LINE
  5
1933
  8
0
 10
207.54344104777701
 20
258.11769524211172
 30
0.0
 11
207.54344104777701
 21
259.31769524211182
 31
0.0
  0
LINE
  5
1934
  8
0
 10
207.34344104777691
 20
259.31769524211182
 30
0.0
 11
207.54344104777701
 21
259.31769524211182
 31
0.0
  0
LINE
  5
1935
  8
0
 10
207.54344104777701
 20
259.31769524211182
 30
0.0
 11
207.54344104777701
 21
261.92769524211189
 31
0.0
  0
LINE
  5
1936
  8
0
 10
207.74344104777691
 20
262.12769524211171
 30
0.0
 11
207.84344104777691
 21
262.12769524211171
 31
0.0
  0
LINE
  5
1937
  8
0
 10
206.34344104777691
 20
256.12769524211171
 30
0.0
 11
210.4434410477769
 21
256.12769524211171
 31
0.0
  0
LINE
  5
1938
  8
0
 10
207.34344104777691
 20
257.12769524211171
 30
0.0
 11
207.34344104777691
 21
260.82769524211182
 31
0.0
  0
LINE
  5
1939
  8
0
  6
CONTINUOUS
 62
     7
 10
293.84344104777688
 20
265.62769524211171
 30
0.0
 11
293.84344104777688
 21
285.12769524211171
 31
0.0
  0
LINE
  5
193A
  8
0
 10
213.64344104777689
 20
286.12769524211171
 30
0.0
 11
213.64344104777689
 21
269.12769524211171
 31
0.0
  0
LINE
  5
193B
  8
0
 10
280.12344104777691
 20
269.00769524211171
 30
0.0
 11
280.12344104777691
 21
286.12769524211171
 31
0.0
  0
LINE
  5
193C
  8
0
 10
232.24344104777691
 20
286.12769524211171
 30
0.0
 11
232.24344104777691
 21
269.12769524211171
 31
0.0
  0
ARC
  5
193D
  8
0
 10
286.25086004777688
 20
254.62027724211171
 30
0.0
 40
2.4925929999999981
 50
269.82947500000051
 51
0.1705249999994877
  0
ARC
  5
193E
  8
0
 10
289.250860047777
 20
264.62027724211168
 30
0.0
 40
0.507473
 50
90.837611000001147
 51
179.1623889999988
  0
CIRCLE
  5
193F
  8
0
 10
271.95084604777691
 20
269.12031224211171
 30
0.0
 40
0.75
  0
CIRCLE
  5
1940
  8
0
 10
222.950853047777
 20
269.12031224211171
 30
0.0
 40
6.299999999999998
  0
ARC
  5
1941
  8
0
 10
222.9434410477769
 20
269.12769524211171
 30
0.0
 40
9.3000030000000002
 50
180.0
 51
0.0
  0
LINE
  5
1942
  8
0
 10
278.47344104777687
 20
252.12769524211171
 30
0.0
 11
278.47344104777687
 21
263.65769524211169
 31
0.0
  0
LINE
  5
1943
  8
0
 10
279.34344104777688
 20
263.80769524211178
 30
0.0
 11
279.34344104777688
 21
267.86769524211172
 31
0.0
  0
LINE
  5
1944
  8
0
 10
293.34344104777688
 20
265.12769524211171
 30
0.0
 11
287.07344104777701
 21
265.12769524211171
 31
0.0
  0
LINE
  5
1945
  8
0
 10
288.7434410477768
 20
264.62769524211171
 30
0.0
 11
288.7434410477768
 21
254.62769524211171
 31
0.0
  0
LINE
  5
1946
  8
0
 10
244.34344104777691
 20
262.91769524211179
 30
0.0
 11
246.54344104777701
 21
263.28769524211179
 31
0.0
  0
LINE
  5
1947
  8
0
 10
248.04344104777701
 20
263.5476952421119
 30
0.0
 11
250.24344104777691
 21
263.91769524211179
 31
0.0
  0
LINE
  5
1948
  8
0
 10
251.74344104777691
 20
264.17769524211178
 30
0.0
 11
253.9434410477769
 21
264.54769524211179
 31
0.0
  0
LINE
  5
1949
  8
0
 10
255.9434410477769
 20
264.8876952421117
 30
0.0
 11
257.64344104777689
 21
265.17769524211178
 31
0.0
  0
LINE
  5
194A
  8
0
 10
259.14344104777689
 20
265.43769524211177
 30
0.0
 11
261.35344104777693
 21
265.80769524211178
 31
0.0
  0
LINE
  5
194B
  8
0
 10
262.85344104777693
 20
266.06769524211182
 30
0.0
 11
265.05344104777703
 21
266.44769524211182
 31
0.0
  0
LINE
  5
194C
  8
0
 10
266.55344104777703
 20
266.69769524211171
 30
0.0
 11
268.7534410477769
 21
267.07769524211182
 31
0.0
  0
LINE
  5
194D
  8
0
 10
270.2534410477769
 20
267.3276952421117
 30
0.0
 11
286.66344104777698
 21
270.12769524211171
 31
0.0
  0
LINE
  5
194E
  8
0
 10
293.84344104777688
 20
270.12769524211171
 30
0.0
 11
286.66344104777698
 21
270.12769524211171
 31
0.0
  0
LINE
  5
194F
  8
0
 10
270.2534410477769
 20
267.3276952421117
 30
0.0
 11
270.2534410477769
 21
281.12769524211171
 31
0.0
  0
LINE
  5
1950
  8
0
 10
270.2534410477769
 20
281.12769524211171
 30
0.0
 11
268.7534410477769
 21
281.12769524211171
 31
0.0
  0
LINE
  5
1951
  8
0
 10
268.7534410477769
 20
281.12769524211171
 30
0.0
 11
268.7534410477769
 21
267.07769524211182
 31
0.0
  0
LINE
  5
1952
  8
0
 10
266.55344104777703
 20
266.69769524211171
 30
0.0
 11
266.55344104777703
 21
281.12769524211171
 31
0.0
  0
LINE
  5
1953
  8
0
 10
266.55344104777703
 20
281.12769524211171
 30
0.0
 11
265.05344104777703
 21
281.12769524211171
 31
0.0
  0
LINE
  5
1954
  8
0
 10
265.05344104777703
 20
281.12769524211171
 30
0.0
 11
265.05344104777703
 21
266.44769524211182
 31
0.0
  0
LINE
  5
1955
  8
0
 10
262.85344104777693
 20
266.06769524211182
 30
0.0
 11
262.85344104777693
 21
281.12769524211171
 31
0.0
  0
LINE
  5
1956
  8
0
 10
262.85344104777693
 20
281.12769524211171
 30
0.0
 11
261.35344104777693
 21
281.12769524211171
 31
0.0
  0
LINE
  5
1957
  8
0
 10
261.35344104777693
 20
281.12769524211171
 30
0.0
 11
261.35344104777693
 21
265.80769524211178
 31
0.0
  0
LINE
  5
1958
  8
0
 10
259.14344104777689
 20
265.43769524211177
 30
0.0
 11
259.14344104777689
 21
281.12769524211171
 31
0.0
  0
LINE
  5
1959
  8
0
 10
259.14344104777689
 20
281.12769524211171
 30
0.0
 11
257.64344104777689
 21
281.12769524211171
 31
0.0
  0
LINE
  5
195A
  8
0
 10
257.64344104777689
 20
281.12769524211171
 30
0.0
 11
257.64344104777689
 21
265.17769524211178
 31
0.0
  0
LINE
  5
195B
  8
0
 10
255.9434410477769
 20
264.8876952421117
 30
0.0
 11
255.9434410477769
 21
278.41769524211179
 31
0.0
  0
LINE
  5
195C
  8
0
 10
255.24344104777691
 20
281.12769524211171
 30
0.0
 11
253.9434410477769
 21
281.12769524211171
 31
0.0
  0
LINE
  5
195D
  8
0
 10
253.9434410477769
 20
281.12769524211171
 30
0.0
 11
253.9434410477769
 21
264.54769524211179
 31
0.0
  0
LINE
  5
195E
  8
0
 10
251.74344104777691
 20
264.17769524211178
 30
0.0
 11
251.74344104777691
 21
281.12769524211171
 31
0.0
  0
LINE
  5
195F
  8
0
 10
251.74344104777691
 20
281.12769524211171
 30
0.0
 11
250.24344104777691
 21
281.12769524211171
 31
0.0
  0
LINE
  5
1960
  8
0
 10
250.24344104777691
 20
281.12769524211171
 30
0.0
 11
250.24344104777691
 21
263.91769524211179
 31
0.0
  0
LINE
  5
1961
  8
0
 10
248.04344104777701
 20
263.5476952421119
 30
0.0
 11
248.04344104777701
 21
281.12769524211171
 31
0.0
  0
LINE
  5
1962
  8
0
 10
248.04344104777701
 20
281.12769524211171
 30
0.0
 11
246.54344104777701
 21
281.12769524211171
 31
0.0
  0
LINE
  5
1963
  8
0
 10
246.54344104777701
 20
281.12769524211171
 30
0.0
 11
246.54344104777701
 21
263.28769524211179
 31
0.0
  0
LINE
  5
1964
  8
0
 10
244.34344104777691
 20
262.91769524211179
 30
0.0
 11
244.34344104777691
 21
281.12769524211171
 31
0.0
  0
LINE
  5
1965
  8
0
 10
244.34344104777691
 20
281.12769524211171
 30
0.0
 11
243.04344104777701
 21
281.12769524211171
 31
0.0
  0
LINE
  5
1966
  8
0
 10
243.04344104777701
 20
281.12769524211171
 30
0.0
 11
243.04344104777701
 21
279.07769524211182
 31
0.0
  0
LINE
  5
1967
  8
0
 10
270.2534410477769
 20
277.12769524211171
 30
0.0
 11
268.7534410477769
 21
277.12769524211171
 31
0.0
  0
LINE
  5
1968
  8
0
 10
266.55344104777703
 20
277.12769524211171
 30
0.0
 11
265.05344104777703
 21
277.12769524211171
 31
0.0
  0
LINE
  5
1969
  8
0
 10
262.85344104777693
 20
277.12769524211171
 30
0.0
 11
261.35344104777693
 21
277.12769524211171
 31
0.0
  0
LINE
  5
196A
  8
0
 10
259.14344104777689
 20
277.12769524211171
 30
0.0
 11
257.64344104777689
 21
277.12769524211171
 31
0.0
  0
LINE
  5
196B
  8
0
 10
255.9434410477769
 20
277.12769524211171
 30
0.0
 11
253.9434410477769
 21
277.12769524211171
 31
0.0
  0
LINE
  5
196C
  8
0
 10
251.74344104777691
 20
277.12769524211171
 30
0.0
 11
250.24344104777691
 21
277.12769524211171
 31
0.0
  0
LINE
  5
196D
  8
0
 10
248.04344104777701
 20
277.12769524211171
 30
0.0
 11
246.54344104777701
 21
277.12769524211171
 31
0.0
  0
LINE
  5
196E
  8
0
 10
244.34344104777691
 20
277.12769524211171
 30
0.0
 11
242.34344104777691
 21
277.12769524211171
 31
0.0
  0
LINE
  5
196F
  8
0
 10
242.34344104777691
 20
278.41769524211179
 30
0.0
 11
242.34344104777691
 21
262.57769524211182
 31
0.0
  0
LINE
  5
1970
  8
0
 10
243.04344104777701
 20
279.07769524211182
 30
0.0
 11
242.34344104777691
 21
278.41769524211179
 31
0.0
  0
LINE
  5
1971
  8
0
 10
255.9434410477769
 20
278.41769524211179
 30
0.0
 11
255.24344104777691
 21
279.07769524211182
 31
0.0
  0
LINE
  5
1972
  8
0
 10
255.24344104777691
 20
279.07769524211182
 30
0.0
 11
255.24344104777691
 21
281.12769524211171
 31
0.0
  0
LINE
  5
1973
  8
0
 10
286.7434410477768
 20
269.12769524211171
 30
0.0
 11
293.84344104777688
 21
269.12769524211171
 31
0.0
  0
ARC
  5
1974
  8
0
  6
CONTINUOUS
 62
     7
 10
293.34344104777688
 20
265.62769524211171
 30
0.0
 40
0.5
 50
270.0
 51
0.0
  0
ARC
  5
1975
  8
0
  6
CONTINUOUS
 62
     7
 10
292.84344104777688
 20
285.12769524211171
 30
0.0
 40
1.0
 50
0.0
 51
90.0
  0
LINE
  5
1976
  8
0
 10
216.59344104777699
 20
286.12769524211171
 30
0.0
 11
216.59344104777699
 21
288.62769524211171
 31
0.0
  0
LINE
  5
1977
  8
0
 10
283.59344104777688
 20
286.12769524211171
 30
0.0
 11
283.59344104777688
 21
288.62769524211171
 31
0.0
  0
LINE
  5
1978
  8
0
 10
51.293441047776973
 20
287.6482562421117
 30
0.0
 11
51.293441047776973
 21
447.60769524211167
 31
0.0
  0
ARC
  5
1979
  8
0
 10
25.477579047776938
 20
440.26259624211161
 30
0.0
 40
5.7526239999999991
 50
92.930874999999872
 51
169.9376259999998
  0
LINE
  5
197A
  8
0
 10
59.593441047776921
 20
449.62769524211171
 30
0.0
 11
134.59344104777691
 21
449.62769524211171
 31
0.0
  0
LINE
  5
197B
  8
0
 10
59.593441047776921
 20
285.62769524211171
 30
0.0
 11
59.593441047776921
 21
449.62769524211171
 31
0.0
  0
LINE
  5
197C
  8
0
 10
22.363441047776931
 20
294.12769524211171
 30
0.0
 11
22.363441047776931
 21
441.64769524211152
 31
0.0
  0
LINE
  5
197D
  8
0
 10
52.543441047776973
 20
448.37769524211149
 30
0.0
 11
59.593441047776921
 21
448.37769524211149
 31
0.0
  0
LINE
  5
197E
  8
0
 10
50.583441047776937
 20
447.33769524211158
 30
0.0
 11
25.18344104777697
 21
446.00769524211171
 31
0.0
  0
ARC
  5
197F
  8
0
 10
52.548778047776921
 20
447.12646424211152
 30
0.0
 40
1.2512430000000001
 50
90.244380000000078
 51
144.23910299999881
  0
ARC
  5
1980
  8
0
 10
50.517235047776957
 20
448.58643724211169
 30
0.0
 40
1.2504959999999981
 50
273.0348870000002
 51
324.35492200000061
  0
LINE
  5
1981
  8
0
 10
18.29344104777698
 20
304.25705524211168
 30
0.0
 11
18.29344104777698
 21
431.27769524211152
 31
0.0
  0
LINE
  5
1982
  8
0
 10
50.583441047776937
 20
287.91769524211179
 30
0.0
 11
25.18344104777697
 21
289.24769524211172
 31
0.0
  0
ARC
  5
1983
  8
0
 10
16.543291047776901
 20
304.8232392421117
 30
0.0
 40
2.249854
 50
179.88650999999899
 51
261.61639199999888
  0
ARC
  5
1984
  8
0
 10
15.777721047776881
 20
299.62852624211177
 30
0.0
 40
3.0009689999999982
 50
9.9623179999987208
 51
81.616391999998939
  0
LINE
  5
1985
  8
0
 10
18.733442047776919
 20
300.14769524211169
 30
0.0
 11
19.813441047776958
 21
293.98769524211173
 31
0.0
  0
ARC
  5
1986
  8
0
 10
25.47139104777699
 20
294.98578424211178
 30
0.0
 40
5.745309999999999
 50
190.00432199999841
 51
267.12717800000007
  0
LINE
  5
1987
  8
0
 10
59.593441047776921
 20
285.62769524211171
 30
0.0
 11
134.59344104777691
 21
285.62769524211171
 31
0.0
  0
LINE
  5
1988
  8
0
 10
52.543441047776973
 20
286.87769524211171
 30
0.0
 11
59.593441047776921
 21
286.87769524211171
 31
0.0
  0
ARC
  5
1989
  8
0
 10
52.54380504777685
 20
288.11926824211167
 30
0.0
 40
1.241573
 50
215.5333330000019
 51
269.98318399999948
  0
ARC
  5
198A
  8
0
 10
50.512164047776942
 20
286.65968924211182
 30
0.0
 40
1.260022999999999
 50
35.853017999999182
 51
86.757172999999426
  0
ARC
  5
198B
  8
0
 10
15.777721047776881
 20
435.62686424211182
 30
0.0
 40
3.0009689999999982
 50
278.34845900000062
 51
350.03768200000133
  0
LINE
  5
198C
  8
0
 10
18.733441047776921
 20
435.10769524211167
 30
0.0
 11
19.813441047776958
 21
441.26769524211147
 31
0.0
  0
ARC
  5
198D
  8
0
 10
16.543291047776901
 20
430.43215124211162
 30
0.0
 40
2.249854
 50
98.430493000000325
 51
180.11349000000089
  0
LINE
  5
198E
  8
0
 10
134.59344104777691
 20
449.62769524211171
 30
0.0
 11
134.59344104777691
 21
285.62769524211171
 31
0.0
  0
LINE
  5
198F
  8
0
 10
98.591352047776994
 20
459.62769524211137
 30
0.0
 11
98.591352047776994
 21
449.62769524211171
 31
0.0
  0
LINE
  5
1990
  8
0
 10
110.5955300477769
 20
459.62769524211137
 30
0.0
 11
110.5955300477769
 21
449.62769524211171
 31
0.0
  0
LINE
  5
1991
  8
0
 10
36.788665047776988
 20
454.62769524211149
 30
0.0
 11
98.591352047776994
 21
454.62769524211149
 31
0.0
  0
LINE
  5
1992
  8
0
 10
36.792613047776896
 20
459.62769524211137
 30
0.0
 11
114.79344104777699
 21
459.62769524211137
 31
0.0
  0
LINE
  5
1993
  8
0
 10
110.5955300477769
 20
454.62769524211149
 30
0.0
 11
114.79344104777699
 21
454.62769524211149
 31
0.0
  0
ARC
  5
1994
  8
0
 10
36.792613047776896
 20
434.62769524211137
 30
0.0
 40
25.0
 50
90.0
 51
180.0
  0
LINE
  5
1995
  8
0
 10
110.5955300477769
 20
285.62769524211171
 30
0.0
 11
110.5955300477769
 21
275.62769524211171
 31
0.0
  0
LINE
  5
1996
  8
0
 10
98.591352047776994
 20
285.62769524211171
 30
0.0
 11
98.591352047776994
 21
275.62769524211171
 31
0.0
  0
LINE
  5
1997
  8
0
 10
36.788665047776988
 20
280.62769524211171
 30
0.0
 11
98.591352047776994
 21
280.62769524211171
 31
0.0
  0
LINE
  5
1998
  8
0
 10
36.792613047776896
 20
275.62769524211171
 30
0.0
 11
114.79344104777699
 21
275.62769524211171
 31
0.0
  0
LINE
  5
1999
  8
0
 10
110.5955300477769
 20
280.62769524211171
 30
0.0
 11
114.79344104777699
 21
280.62769524211171
 31
0.0
  0
ARC
  5
199A
  8
0
 10
36.788665047776988
 20
434.62769524211137
 30
0.0
 40
20.0
 50
90.0
 51
180.0
  0
LINE
  5
199B
  8
0
 10
14.288665047776989
 20
304.8276952421117
 30
0.0
 11
14.288665047776989
 21
430.4276952421115
 31
0.0
  0
LINE
  5
199C
  8
0
 10
9.3186650477769621
 20
370.12769524211171
 30
0.0
 11
11.792613047776911
 21
370.12769524211171
 31
0.0
  0
LINE
  5
199D
  8
0
 10
11.792613047776911
 20
300.62769524211171
 30
0.0
 11
11.792613047776911
 21
434.62769524211137
 31
0.0
  0
LINE
  5
199E
  8
0
 10
9.3186650477769621
 20
365.12769524211171
 30
0.0
 11
11.792613047776911
 21
365.12769524211171
 31
0.0
  0
ARC
  5
199F
  8
0
 10
36.792613047776896
 20
300.62769524211171
 30
0.0
 40
25.0
 50
180.0
 51
270.0
  0
ARC
  5
19A0
  8
0
 10
36.788665047776988
 20
300.62769524211171
 30
0.0
 40
20.0
 50
180.0
 51
270.0
  0
LINE
  5
19A1
  8
0
 10
114.79344104777699
 20
454.62769524211149
 30
0.0
 11
114.79344104777699
 21
459.62769524211137
 31
0.0
  0
LINE
  5
19A2
  8
0
 10
114.79344104777699
 20
280.62769524211171
 30
0.0
 11
114.79344104777699
 21
275.62769524211171
 31
0.0
  0
LINE
  5
19A3
  8
0
 10
13.788665047776989
 20
370.12769524211171
 30
0.0
 11
14.288665047776989
 21
370.12769524211171
 31
0.0
  0
LINE
  5
19A4
  8
0
 10
13.788665047776989
 20
365.12769524211171
 30
0.0
 11
14.288665047776989
 21
365.12769524211171
 31
0.0
  0
LINE
  5
19A5
  8
0
 10
13.788665047776989
 20
370.12769524211171
 30
0.0
 11
13.788665047776989
 21
365.12769524211171
 31
0.0
  0
LINE
  5
19A6
  8
0
 10
9.3186650477769621
 20
370.12769524211171
 30
0.0
 11
9.3186650477769621
 21
365.12769524211171
 31
0.0
  0
LINE
  5
19A7
  8
0
 10
16.788665047776991
 20
434.62769524211137
 30
0.0
 11
16.788665047776991
 21
432.80130124211161
 31
0.0
  0
LINE
  5
19A8
  8
0
 10
16.788665047776991
 20
302.59742724211168
 30
0.0
 11
16.788665047776991
 21
300.62769524211171
 31
0.0
  0
LINE
  5
19A9
  8
0
  6
CONTINUOUS
 62
     7
 10
297.59344104777688
 20
330.66947524211167
 30
0.0
 11
306.59344104777688
 21
330.66947524211167
 31
0.0
  0
LINE
  5
19AA
  8
0
  6
CONTINUOUS
 62
     7
 10
297.59344104777688
 20
404.58591524211181
 30
0.0
 11
306.59344104777688
 21
404.58591524211181
 31
0.0
  0
LINE
  5
1E54
  8
0
  6
CONTINUOUS
 62
     7
 10
343.09350104777673
 20
202.86778228015581
 30
0.0
 11
378.4897710477768
 21
204.10384228015579
 31
0.0
  0
LINE
  5
1E55
  8
0
  6
CONTINUOUS
 62
     7
 10
306.59350104777673
 20
48.3677712801558
 30
0.0
 11
306.59350104777673
 21
195.3677722801558
 31
0.0
  0
LINE
  5
1E56
  8
0
  6
CONTINUOUS
 62
     7
 10
418.09350104777661
 20
60.067761280155779
 30
0.0
 11
422.09347104777669
 21
60.067761280155779
 31
0.0
  0
LINE
  5
1E57
  8
0
  6
CONTINUOUS
 62
     7
 10
432.0934710477768
 20
162.0677822801558
 30
0.0
 11
432.0934710477768
 21
159.0677822801558
 31
0.0
  0
LINE
  5
1E58
  8
0
  6
CONTINUOUS
 62
     7
 10
408.09350104777673
 20
196.1929822801558
 30
0.0
 11
408.09350104777673
 21
235.2871722801558
 31
0.0
  0
LINE
  5
1E59
  8
0
  6
CONTINUOUS
 62
     7
 10
418.09350104777661
 20
145.06777228015571
 30
0.0
 11
418.09350104777661
 21
237.56775228015579
 31
0.0
  0
LINE
  5
1E5A
  8
0
  6
CONTINUOUS
 62
     7
 10
410.02371104777671
 20
237.28597228015579
 30
0.0
 11
418.09350104777661
 21
237.56777228015579
 31
0.0
  0
LINE
  5
1E5B
  8
0
  6
CONTINUOUS
 62
     7
 10
385.8474110477768
 20
39.374752280155811
 30
0.0
 11
408.09350104777673
 21
52.218533280155789
 31
0.0
  0
LINE
  5
1E5C
  8
0
  6
CONTINUOUS
 62
     7
 10
422.09347104777669
 20
230.0677522801557
 30
0.0
 11
422.09347104777669
 21
60.067761280155779
 31
0.0
  0
LINE
  5
1E5D
  8
0
  6
CONTINUOUS
 62
     7
 10
408.09350104777673
 20
121.1574322801558
 30
0.0
 11
408.09350104777673
 21
196.1929822801558
 31
0.0
  0
LINE
  5
1E5E
  8
0
  6
CONTINUOUS
 62
     7
 10
379.67080104777671
 20
204.14507228015569
 30
0.0
 11
399.0235810477767
 21
186.43888228015581
 31
0.0
  0
LINE
  5
1E5F
  8
0
  6
CONTINUOUS
 62
     7
 10
399.0236110477768
 20
186.43888228015581
 30
0.0
 11
399.0236110477768
 21
186.43888228015581
 31
0.0
  0
LINE
  5
1E60
  8
0
  6
CONTINUOUS
 62
     7
 10
432.0934710477768
 20
162.0677822801558
 30
0.0
 11
464.09347104777669
 21
162.0677822801558
 31
0.0
  0
LINE
  5
1E61
  8
0
  6
AM_ISO08W050
 10
323.65215104777673
 20
145.06777228015571
 30
0.0
 11
469.0412510477766
 21
145.06777228015571
 31
0.0
  0
LINE
  5
1E62
  8
0
  6
CONTINUOUS
 62
     7
 10
422.09347104777669
 20
131.0677822801558
 30
0.0
 11
464.09347104777669
 21
131.0677822801558
 31
0.0
  0
LINE
  5
1E63
  8
0
  6
CONTINUOUS
 62
     7
 10
422.09347104777669
 20
159.0677822801558
 30
0.0
 11
464.09347104777669
 21
159.0677822801558
 31
0.0
  0
LINE
  5
1E64
  8
0
  6
CONTINUOUS
 62
     7
 10
464.09347104777669
 20
162.0677822801558
 30
0.0
 11
464.09347104777669
 21
131.0677822801558
 31
0.0
  0
LINE
  5
1E65
  8
0
  6
CONTINUOUS
 62
     7
 10
406.66827104777673
 20
163.5420422801557
 30
0.0
 11
402.33181104777668
 21
140.4112722801558
 31
0.0
  0
LINE
  5
1E66
  8
0
  6
CONTINUOUS
 62
     7
 10
418.09350104777661
 20
230.0677522801557
 30
0.0
 11
422.09347104777669
 21
230.0677522801557
 31
0.0
  0
LINE
  5
1E67
  8
0
  6
CENTER
 62
     7
 10
405.83050104777658
 20
221.08173228015571
 30
0.0
 11
424.10122104777679
 21
221.08173228015571
 31
0.0
  0
LINE
  5
1E68
  8
0
  6
CONTINUOUS
 62
     7
 10
343.09350104777673
 20
40.8677602801558
 30
0.0
 11
343.09350104777673
 21
202.8677722801558
 31
0.0
  0
LINE
  5
1E69
  8
0
  6
CONTINUOUS
 62
     7
 10
306.59350104777673
 20
48.367756280155803
 30
0.0
 11
333.17202104777681
 21
47.671772280155793
 31
0.0
  0
LINE
  5
1E6A
  8
0
  6
CONTINUOUS
 62
     7
 10
306.59350104777673
 20
183.4464122801557
 30
0.0
 11
336.09353104777671
 21
183.4464122801557
 31
0.0
  0
LINE
  5
1E6B
  8
0
  6
CONTINUOUS
 62
     7
 10
306.59350104777673
 20
60.289127280155789
 30
0.0
 11
336.09353104777671
 21
60.289127280155789
 31
0.0
  0
LINE
  5
1E6C
  8
0
  6
CONTINUOUS
 62
     7
 10
343.09350104777673
 20
55.757542280155789
 30
0.0
 11
408.09350104777673
 21
55.757542280155789
 31
0.0
  0
LINE
  5
1E6D
  8
0
  6
CONTINUOUS
 62
     7
 10
412.09350104777673
 20
74.567761280155779
 30
0.0
 11
412.09350104777673
 21
215.24005228015571
 31
0.0
  0
LINE
  5
1E6E
  8
0
  6
CONTINUOUS
 62
     7
 10
343.09350104777673
 20
168.1177722801558
 30
0.0
 11
405.03881104777668
 21
168.1177722801558
 31
0.0
  0
LINE
  5
1E6F
  8
0
  6
CONTINUOUS
 62
     7
 10
408.09350104777673
 20
55.325123280155793
 30
0.0
 11
408.09350104777673
 21
90.697112280155679
 31
0.0
  0
LINE
  5
1E70
  8
0
  6
CONTINUOUS
 62
     7
 10
380.5064310477768
 20
204.9806822801558
 30
0.0
 11
408.09350104777673
 21
232.5677422801557
 31
0.0
  0
LINE
  5
1E71
  8
0
  6
CONTINUOUS
 62
     7
 10
368.0934710477768
 20
68.599987280155787
 30
0.0
 11
408.09350104777673
 21
68.599987280155787
 31
0.0
  0
LINE
  5
1E72
  8
0
  6
CONTINUOUS
 62
     7
 10
368.0934710477768
 20
83.263302280155798
 30
0.0
 11
408.09350104777673
 21
83.263302280155798
 31
0.0
  0
LINE
  5
1E73
  8
0
  6
CONTINUOUS
 62
     7
 10
368.0934710477768
 20
69.782986280155797
 30
0.0
 11
368.0934710477768
 21
82.102985280155792
 31
0.0
  0
LINE
  5
1E74
  8
0
  6
CONTINUOUS
 62
     7
 10
418.09350104777661
 20
52.567753280155792
 30
0.0
 11
418.09350104777661
 21
145.06777228015571
 31
0.0
  0
LINE
  5
1E75
  8
0
  6
CONTINUOUS
 62
     7
 10
409.72250104777669
 20
119.1574122801556
 30
0.0
 11
412.09350104777673
 21
119.1574122801556
 31
0.0
  0
LINE
  5
1E76
  8
0
  6
CONTINUOUS
 62
     7
 10
408.09350104777673
 20
52.218548280155801
 30
0.0
 11
418.09350104777661
 21
52.567753280155792
 31
0.0
  0
LINE
  5
1E77
  8
0
  6
CONTINUOUS
 62
     7
 10
343.09350104777673
 20
40.867764280155782
 30
0.0
 11
385.8474110477768
 21
39.374764280155802
 31
0.0
  0
LINE
  5
1E78
  8
0
  6
CENTER
 62
     7
 10
404.83193104777672
 20
69.053768280155779
 30
0.0
 11
425.81194104777671
 21
69.053768280155779
 31
0.0
  0
LINE
  5
1E79
  8
0
  6
CONTINUOUS
 62
     7
 10
306.59350104777673
 20
195.36778228015581
 30
0.0
 11
333.17202104777681
 21
196.06377228015569
 31
0.0
  0
LINE
  5
1E7A
  8
0
  6
CONTINUOUS
 62
     7
 10
336.09353104777671
 20
200.73615228015569
 30
0.0
 11
336.09353104777671
 21
43.043591280155788
 31
0.0
  0
LINE
  5
1E7B
  8
0
  6
CONTINUOUS
 62
     7
 10
338.04113104777667
 20
202.7354622801557
 30
0.0
 11
343.0934710477768
 21
202.8677722801558
 31
0.0
  0
LINE
  5
1E7C
  8
0
  6
CONTINUOUS
 62
     7
 10
306.59350104777673
 20
82.393093280155796
 30
0.0
 11
336.09353104777671
 21
82.393093280155796
 31
0.0
  0
LINE
  5
1E7D
  8
0
  6
CONTINUOUS
 62
     7
 10
306.59350104777673
 20
161.3424522801557
 30
0.0
 11
336.09353104777671
 21
161.3424522801557
 31
0.0
  0
LINE
  5
1E7E
  8
0
  6
CONTINUOUS
 62
     7
 10
343.09350104777673
 20
40.867764280155782
 30
0.0
 11
338.02368104777679
 21
41.044808280155777
 31
0.0
  0
ARC
  5
1E7F
  8
0
  6
CONTINUOUS
 62
     7
 10
378.3851010477768
 20
207.10202228015581
 30
0.0
 40
3.0
 50
272.0000000000004
 51
315.0
  0
ARC
  5
1E80
  8
0
  6
CONTINUOUS
 62
     7
 10
411.09350104777673
 20
90.697112280155679
 30
0.0
 40
3.0
 50
90.000003000000945
 51
180.00000999999941
  0
ARC
  5
1E81
  8
0
  6
CONTINUOUS
 62
     7
 10
411.09350104777673
 20
55.325123280155793
 30
0.0
 40
3.0
 50
179.99999000000059
 51
271.99999000000128
  0
ARC
  5
1E82
  8
0
  6
CONTINUOUS
 62
     7
 10
426.73882104777681
 20
135.83554228015569
 30
0.0
 40
24.83221099999999
 50
169.38167999999959
 51
218.7932100000001
  0
ARC
  5
1E83
  8
0
  6
CONTINUOUS
 62
     7
 10
382.26126104777671
 20
168.1177722801558
 30
0.0
 40
24.83221099999999
 50
349.38167999999962
 51
47.54406599999875
  0
ARC
  5
1E84
  8
0
  6
CONTINUOUS
 62
     7
 10
411.09350104777673
 20
196.1929822801558
 30
0.0
 40
3.0
 50
179.99999000000059
 51
270.0
  0
ARC
  5
1E85
  8
0
  6
CONTINUOUS
 62
     7
 10
333.09353104777671
 20
44.672806280155783
 30
0.0
 40
3.0
 50
0.0
 51
88.499997000000747
  0
ARC
  5
1E86
  8
0
  6
CONTINUOUS
 62
     7
 10
338.09350104777678
 20
43.043591280155788
 30
0.0
 40
2.0
 50
179.99999000000059
 51
268.00000999999872
  0
ARC
  5
1E87
  8
0
  6
CONTINUOUS
 62
     7
 10
368.0951810477768
 20
75.931645280155763
 30
0.0
 40
7.331658799999996
 50
90.000003000000945
 51
270.0
  0
ARC
  5
1E88
  8
0
  6
CONTINUOUS
 62
     7
 10
409.09350104777673
 20
215.24005228015571
 30
0.0
 40
3.0
 50
0.0
 51
91.999998000000545
  0
ARC
  5
1E89
  8
0
  6
CONTINUOUS
 62
     7
 10
410.09347104777669
 20
235.2871722801558
 30
0.0
 40
2.0
 50
91.999998000000545
 51
180.00000999999941
  0
ARC
  5
1E8A
  8
0
  6
CONTINUOUS
 62
     7
 10
333.09353104777671
 20
199.06275228015559
 30
0.0
 40
3.0
 50
271.49999999999949
 51
0.0
  0
ARC
  5
1E8B
  8
0
  6
CONTINUOUS
 62
     7
 10
338.09350104777678
 20
200.73615228015569
 30
0.0
 40
2.0
 50
91.500001000001546
 51
180.00000999999941
  0
ARC
  5
1E8C
  8
0
  6
CONTINUOUS
 62
     7
 10
409.09350104777673
 20
74.567761280155779
 30
0.0
 40
3.0
 50
270.0
 51
0.0
  0
ARC
  5
1E8D
  8
0
  6
CONTINUOUS
 62
     7
 10
409.72250104777669
 20
122.1574122801556
 30
0.0
 40
3.0
 50
218.7932200000009
 51
270.0
  0
LINE
  5
1ED5
  8
0
  6
CONTINUOUS
 62
     7
 10
343.09350104777673
 20
285.37670024211138
 30
0.0
 11
343.09350104777673
 21
449.87860024211147
 31
0.0
  0
LINE
  5
1ED6
  8
0
  6
CONTINUOUS
 62
     7
 10
343.09350104777673
 20
285.37670024211138
 30
0.0
 11
338.02368104777679
 21
285.55374024211147
 31
0.0
  0
LINE
  5
1ED7
  8
0
  6
CONTINUOUS
 62
     7
 10
343.0934710477768
 20
449.87860024211147
 30
0.0
 11
338.0236510477767
 21
449.70153024211129
 31
0.0
  0
LINE
  5
1ED8
  8
0
  6
CONTINUOUS
 62
     7
 10
336.0934710477768
 20
287.55255024211152
 30
0.0
 11
336.0934710477768
 21
447.70275024211151
 31
0.0
  0
LINE
  5
1ED9
  8
0
  6
CONTINUOUS
 62
     7
 10
306.59350104777673
 20
407.10232024211132
 30
0.0
 11
336.0934710477768
 21
407.10232024211132
 31
0.0
  0
LINE
  5
1EDA
  8
0
  6
CONTINUOUS
 62
     7
 10
306.5934710477768
 20
441.12768024211152
 30
0.0
 11
326.0934710477768
 21
441.63830024211131
 31
0.0
  0
LINE
  5
1EDB
  8
0
  6
CONTINUOUS
 62
     7
 10
306.59350104777673
 20
429.20629024211149
 30
0.0
 11
336.0934710477768
 21
429.20629024211149
 31
0.0
  0
LINE
  5
1EDC
  8
0
  6
CONTINUOUS
 62
     7
 10
306.59344104777688
 20
294.12768024211158
 30
0.0
 11
306.59344104777688
 21
441.12765024211149
 31
0.0
  0
LINE
  5
1EDD
  8
0
  6
CONTINUOUS
 62
     7
 10
326.09350104777678
 20
289.61453024211153
 30
0.0
 11
326.09350104777678
 21
301.01452024211147
 31
0.0
  0
LINE
  5
1EDE
  8
0
  6
CONTINUOUS
 62
     7
 10
326.89349104777688
 20
288.81454024211138
 30
0.0
 11
334.0934710477768
 21
288.81454024211138
 31
0.0
  0
LINE
  5
1EDF
  8
0
  6
CONTINUOUS
 62
     7
 10
326.89349104777688
 20
301.81451024211162
 30
0.0
 11
334.0934710477768
 21
301.81451024211162
 31
0.0
  0
LINE
  5
1EE0
  8
0
  6
CONTINUOUS
 62
     7
 10
326.09350104777678
 20
289.61453024211153
 30
0.0
 11
326.8935210477768
 21
288.81448024211147
 31
0.0
  0
LINE
  5
1EE1
  8
0
  6
CONTINUOUS
 62
     7
 10
326.0934710477768
 20
301.01452024211147
 30
0.0
 11
326.89349104777688
 21
301.8145402421116
 31
0.0
  0
LINE
  5
1EE2
  8
0
  6
CONTINUOUS
 62
     7
 10
326.89349104777688
 20
288.81454024211138
 30
0.0
 11
326.89349104777688
 21
301.81451024211162
 31
0.0
  0
LINE
  5
1EE3
  8
0
  6
CONTINUOUS
 62
     7
 10
334.0934710477768
 20
286.81451024211162
 30
0.0
 11
334.0934710477768
 21
303.81451024211162
 31
0.0
  0
LINE
  5
1EE4
  8
0
  6
CONTINUOUS
 62
     7
 10
334.0934710477768
 20
303.81451024211162
 30
0.0
 11
336.0934710477768
 21
303.81451024211162
 31
0.0
  0
LINE
  5
1EE5
  8
0
  6
CONTINUOUS
 62
     7
 10
334.0934710477768
 20
286.81451024211162
 30
0.0
 11
336.0934710477768
 21
286.81451024211162
 31
0.0
  0
LINE
  5
1EE6
  8
0
  6
CONTINUOUS
 62
     7
 10
326.09350104777678
 20
434.2407802421115
 30
0.0
 11
326.09350104777678
 21
445.6408002421116
 31
0.0
  0
LINE
  5
1EE7
  8
0
  6
CONTINUOUS
 62
     7
 10
326.89349104777688
 20
433.44079024211152
 30
0.0
 11
334.0934710477768
 21
433.44079024211152
 31
0.0
  0
LINE
  5
1EE8
  8
0
  6
CONTINUOUS
 62
     7
 10
334.0934710477768
 20
431.44076024211148
 30
0.0
 11
336.0934710477768
 21
431.44076024211148
 31
0.0
  0
LINE
  5
1EE9
  8
0
  6
CONTINUOUS
 62
     7
 10
326.89349104777688
 20
446.44073024211139
 30
0.0
 11
334.0934710477768
 21
446.44073024211139
 31
0.0
  0
LINE
  5
1EEA
  8
0
  6
CONTINUOUS
 62
     7
 10
326.09350104777678
 20
445.64074024211152
 30
0.0
 11
326.8935210477768
 21
446.44079024211158
 31
0.0
  0
LINE
  5
1EEB
  8
0
  6
CONTINUOUS
 62
     7
 10
326.89349104777688
 20
433.44079024211152
 30
0.0
 11
326.89349104777688
 21
446.44073024211139
 31
0.0
  0
LINE
  5
1EEC
  8
0
  6
CONTINUOUS
 62
     7
 10
334.0934710477768
 20
431.44076024211148
 30
0.0
 11
334.0934710477768
 21
448.44073024211161
 31
0.0
  0
LINE
  5
1EED
  8
0
  6
CONTINUOUS
 62
     7
 10
334.0934710477768
 20
448.44073024211161
 30
0.0
 11
336.0934710477768
 21
448.44073024211161
 31
0.0
  0
LINE
  5
1EEE
  8
0
  6
CONTINUOUS
 62
     7
 10
326.0934710477768
 20
434.24081024211148
 30
0.0
 11
326.89349104777688
 21
433.44076024211148
 31
0.0
  0
LINE
  5
1EEF
  8
0
  6
CONTINUOUS
 62
     7
 10
306.59350104777673
 20
306.04901024211148
 30
0.0
 11
336.0934710477768
 21
306.04901024211148
 31
0.0
  0
LINE
  5
1EF0
  8
0
  6
CONTINUOUS
 62
     7
 10
306.5934710477768
 20
294.12762024211162
 30
0.0
 11
326.0934710477768
 21
293.6170002421116
 31
0.0
  0
LINE
  5
1EF1
  8
0
  6
CONTINUOUS
 62
     7
 10
306.59350104777673
 20
328.15298024211148
 30
0.0
 11
336.0934710477768
 21
328.15298024211148
 31
0.0
  0
LINE
  5
1EF2
  8
0
  6
CONTINUOUS
 62
     7
 10
410.0237410477767
 20
275.40948024211161
 30
0.0
 11
418.09350104777661
 21
275.12765024211149
 31
0.0
  0
LINE
  5
1EF3
  8
0
  6
CONTINUOUS
 62
     7
 10
422.09353104777659
 20
452.62768024211152
 30
0.0
 11
422.09353104777659
 21
282.62765024211149
 31
0.0
  0
LINE
  5
1EF4
  8
0
  6
CONTINUOUS
 62
     7
 10
432.0934710477768
 20
363.62765024211149
 30
0.0
 11
464.09347104777669
 21
363.62765024211149
 31
0.0
  0
LINE
  5
1EF5
  8
0
  6
CONTINUOUS
 62
     7
 10
408.09350104777673
 20
277.40826024211162
 30
0.0
 11
408.09350104777673
 21
457.84704024211158
 31
0.0
  0
LINE
  5
1EF6
  8
0
  6
CONTINUOUS
 62
     7
 10
406.39922104777668
 20
453.43334024211123
 30
0.0
 11
408.09350104777673
 21
455.1276202421115
 31
0.0
  0
LINE
  5
1EF7
  8
0
  6
CONTINUOUS
 62
     7
 10
412.09350104777673
 20
297.1276502421116
 30
0.0
 11
412.09350104777673
 21
437.79995024211149
 31
0.0
  0
LINE
  5
1EF8
  8
0
  6
CENTER
 62
     7
 10
405.54244104777672
 20
443.64160024211122
 30
0.0
 11
424.8440510477767
 21
443.64160024211122
 31
0.0
  0
LINE
  5
1EF9
  8
0
  6
CONTINUOUS
 62
     7
 10
418.09350104777661
 20
452.62768024211152
 30
0.0
 11
422.09353104777659
 21
452.62768024211152
 31
0.0
  0
LINE
  5
1EFA
  8
0
  6
CONTINUOUS
 62
     7
 10
418.09350104777661
 20
275.12765024211149
 30
0.0
 11
418.09350104777661
 21
460.12768024211152
 31
0.0
  0
LINE
  5
1EFB
  8
0
  6
CONTINUOUS
 62
     7
 10
403.03820104777668
 20
283.28338024211138
 30
0.0
 11
343.09350104777673
 21
285.37670024211138
 31
0.0
  0
LINE
  5
1EFC
  8
0
  6
CONTINUOUS
 62
     7
 10
403.03820104777668
 20
451.97192024211148
 30
0.0
 11
343.09350104777673
 21
449.87860024211147
 31
0.0
  0
LINE
  5
1EFD
  8
0
  6
CONTINUOUS
 62
     7
 10
464.09347104777669
 20
381.62768024211158
 30
0.0
 11
464.09347104777669
 21
353.62768024211152
 31
0.0
  0
LINE
  5
1EFE
  8
0
  6
CONTINUOUS
 62
     7
 10
422.09350104777661
 20
381.62768024211158
 30
0.0
 11
464.09347104777669
 21
381.62768024211158
 31
0.0
  0
LINE
  5
1EFF
  8
0
  6
CONTINUOUS
 62
     7
 10
422.09350104777661
 20
353.62768024211152
 30
0.0
 11
464.09347104777669
 21
353.62768024211152
 31
0.0
  0
LINE
  5
1F00
  8
0
  6
CONTINUOUS
 62
     7
 10
432.0934710477768
 20
371.62762024211162
 30
0.0
 11
432.0934710477768
 21
363.62765024211149
 31
0.0
  0
LINE
  5
1F01
  8
0
  6
CENTER
 62
     7
 10
405.40072104777681
 20
291.61367024211148
 30
0.0
 11
425.32891104777673
 21
291.61367024211148
 31
0.0
  0
LINE
  5
1F02
  8
0
  6
CONTINUOUS
 62
     7
 10
406.39926104777658
 20
281.8219502421116
 30
0.0
 11
408.09353104777671
 21
280.12768024211169
 31
0.0
  0
LINE
  5
1F03
  8
0
  6
CONTINUOUS
 62
     7
 10
410.0237410477767
 20
459.84588024211172
 30
0.0
 11
418.09350104777661
 21
460.12768024211152
 31
0.0
  0
LINE
  5
1F04
  8
0
  6
CONTINUOUS
 62
     7
 10
432.0934710477768
 20
371.62762024211162
 30
0.0
 11
464.09347104777669
 21
371.62762024211162
 31
0.0
  0
LINE
  5
1F05
  8
0
  6
CONTINUOUS
 62
     7
 10
418.09350104777661
 20
282.62765024211149
 30
0.0
 11
422.09353104777659
 21
282.62765024211149
 31
0.0
  0
ARC
  5
1F06
  8
0
  6
CONTINUOUS
 62
     7
 10
338.0934710477768
 20
287.55255024211152
 30
0.0
 40
2.0
 50
180.000010000001
 51
267.99999999999972
  0
ARC
  5
1F07
  8
0
  6
CONTINUOUS
 62
     7
 10
338.0934710477768
 20
447.70275024211151
 30
0.0
 40
2.0
 50
91.999998000000545
 51
180.000010000001
  0
ARC
  5
1F08
  8
0
  6
CONTINUOUS
 62
     7
 10
402.8637010477766
 20
278.28643024211169
 30
0.0
 40
5.0
 50
45.00000099999918
 51
87.999999999999659
  0
ARC
  5
1F09
  8
0
  6
CONTINUOUS
 62
     7
 10
409.09350104777673
 20
297.45535024211159
 30
0.0
 40
3.0
 50
267.99999999999972
 51
0.0
  0
ARC
  5
1F0A
  8
0
  6
CONTINUOUS
 62
     7
 10
410.09353104777659
 20
277.40826024211162
 30
0.0
 40
2.0
 50
179.999989999999
 51
268.00000999999861
  0
ARC
  5
1F0B
  8
0
  6
CONTINUOUS
 62
     7
 10
411.09350104777673
 20
418.7528902421115
 30
0.0
 40
3.0
 50
179.999989999999
 51
270.0
  0
ARC
  5
1F0C
  8
0
  6
CONTINUOUS
 62
     7
 10
410.09353104777659
 20
457.84704024211158
 30
0.0
 40
2.0
 50
91.999998000000545
 51
180.000010000001
  0
ARC
  5
1F0D
  8
0
  6
CONTINUOUS
 62
     7
 10
432.0934710477768
 20
367.6276202421115
 30
0.0
 40
3.9999962
 50
90.000003000000945
 51
270.0
  0
ARC
  5
1F0E
  8
0
  6
CONTINUOUS
 62
     7
 10
409.09350104777673
 20
437.79995024211149
 30
0.0
 40
3.0
 50
0.0
 51
91.999998000000545
  0
ARC
  5
1F0F
  8
0
  6
CONTINUOUS
 62
     7
 10
402.8637010477766
 20
456.96887024211122
 30
0.0
 40
5.0
 50
272.0000000000004
 51
315.0
  0
ARC
  5
1F10
  8
0
  6
CONTINUOUS
 62
     7
 10
411.09350104777673
 20
316.50241024211152
 30
0.0
 40
3.0
 50
90.000003000000945
 51
180.000010000001
  0
POLYLINE
  5
1F11
  8
0
  6
CONTINUOUS
 62
     7
 66
     1
 10
0.0
 20
0.0
 30
0.0
  0
VERTEX
  5
1F12
  8
0
  6
CONTINUOUS
 62
     7
 10
405.0065610477767
 20
452.04064024211152
 30
0.0
 42
0.081985852
  0
VERTEX
  5
1F13
  8
0
  6
CONTINUOUS
 62
     7
 10
382.89067104777678
 20
397.12896024211148
 30
0.0
 42
0.10914194
  0
VERTEX
  5
1F14
  8
0
  6
CONTINUOUS
 62
     7
 10
382.89076104777678
 20
338.12595024211163
 30
0.0
 42
0.081985219
  0
VERTEX
  5
1F15
  8
0
  6
CONTINUOUS
 62
     7
 10
405.0065610477767
 20
283.21465024211147
 30
0.0
  0
SEQEND
  5
1F16
  8
0
 62
     7
  0
LINE
  5
203D
  8
0
  6
CONTINUOUS
 62
     7
 10
621.69691778921174
 20
162.06777328015579
 30
0.0
 11
629.69691878921174
 21
162.06777328015579
 31
0.0
  0
LINE
  5
203E
  8
0
  6
CONTINUOUS
 62
     7
 10
621.69691778921174
 20
155.06778928015581
 30
0.0
 11
629.69691878921174
 21
155.06778928015581
 31
0.0
  0
LINE
  5
203F
  8
0
  6
CONTINUOUS
 62
     7
 10
629.69691878921174
 20
155.06778928015581
 30
0.0
 11
629.69691878921174
 21
162.06777328015579
 31
0.0
  0
LINE
  5
2040
  8
0
  6
CONTINUOUS
 62
     7
 10
621.69691778921174
 20
155.06778928015581
 30
0.0
 11
621.69691778921174
 21
162.06777328015579
 31
0.0
  0
LINE
  5
2041
  8
0
  6
CONTINUOUS
 62
     7
 10
625.69693478921158
 20
52.567770280155919
 30
0.0
 11
655.6969347892117
 21
52.567770280155919
 31
0.0
  0
LINE
  5
2042
  8
0
  6
CONTINUOUS
 62
     7
 10
625.69693478921158
 20
52.567770280155919
 30
0.0
 11
595.69693478921158
 21
52.567770280155919
 31
0.0
  0
LINE
  5
2043
  8
0
  6
CONTINUOUS
 62
     7
 10
533.19694778921155
 20
175.06777228015571
 30
0.0
 11
535.60246478921181
 21
220.96782028015571
 31
0.0
  0
LINE
  5
2044
  8
0
  6
CONTINUOUS
 62
     7
 10
533.19691778921162
 20
145.06777228015571
 30
0.0
 11
533.19691778921162
 21
175.06777228015571
 31
0.0
  0
LINE
  5
2045
  8
0
  6
CONTINUOUS
 62
     7
 10
655.6969347892117
 20
237.56778028015569
 30
0.0
 11
701.59700678921172
 21
235.16226028015589
 31
0.0
  0
LINE
  5
2046
  8
0
  6
CONTINUOUS
 62
     7
 10
625.69693478921158
 20
237.56778028015569
 30
0.0
 11
655.6969347892117
 21
237.56778028015569
 31
0.0
  0
LINE
  5
2047
  8
0
  6
CONTINUOUS
 62
     7
 10
595.69693478921158
 20
52.567770280155919
 30
0.0
 11
549.79686278921179
 21
54.973287280155859
 31
0.0
  0
LINE
  5
2048
  8
0
  6
CONTINUOUS
 62
     7
 10
628.1969337892117
 20
205.68753028015601
 30
0.0
 11
628.1969337892117
 21
216.25563028015591
 31
0.0
  0
LINE
  5
2049
  8
0
  6
CONTINUOUS
 62
     7
 10
718.19693678921169
 20
145.06777228015571
 30
0.0
 11
718.19693678921169
 21
115.06777228015569
 31
0.0
  0
LINE
  5
204A
  8
0
  6
CONTINUOUS
 62
     7
 10
718.19693678921169
 20
115.0677872801558
 30
0.0
 11
715.79141078921168
 21
69.167700280155799
 31
0.0
  0
LINE
  5
204B
  8
0
  6
CONTINUOUS
 62
     7
 10
718.19693078921171
 20
175.06777228015571
 30
0.0
 11
715.79141078921168
 21
220.96782028015571
 31
0.0
  0
LINE
  5
204C
  8
0
  6
CONTINUOUS
 62
     7
 10
718.19693678921169
 20
145.06777228015571
 30
0.0
 11
718.19693678921169
 21
175.06777228015571
 31
0.0
  0
LINE
  5
204D
  8
0
  6
CONTINUOUS
 62
     7
 10
533.19691778921162
 20
115.0677572801558
 30
0.0
 11
535.60243478921166
 21
69.167700280155799
 31
0.0
  0
LINE
  5
204E
  8
0
  6
CONTINUOUS
 62
     7
 10
598.42435178921176
 20
176.58300328015579
 30
0.0
 11
573.53657978921171
 21
201.47076028015579
 31
0.0
  0
LINE
  5
204F
  8
0
  6
CONTINUOUS
 62
     7
 10
594.18172178921168
 20
172.34035528015579
 30
0.0
 11
569.29394678921165
 21
197.22811228015581
 31
0.0
  0
LINE
  5
2050
  8
0
  6
CONTINUOUS
 62
     7
 10
550.83198878921178
 20
116.8677902801558
 30
0.0
 11
581.69691878921185
 21
116.8677902801558
 31
0.0
  0
LINE
  5
2051
  8
0
  6
CONTINUOUS
 62
     7
 10
700.56188078921173
 20
116.8677902801558
 30
0.0
 11
669.69695078921166
 21
116.8677902801558
 31
0.0
  0
LINE
  5
2052
  8
0
  6
CONTINUOUS
 62
     7
 10
655.6969347892117
 20
52.567770280155919
 30
0.0
 11
701.59700678921172
 21
54.973287280155859
 31
0.0
  0
LINE
  5
2053
  8
0
  6
CONTINUOUS
 62
     7
 10
693.8789899555112
 20
213.24985119286799
 30
0.0
 11
708.68717401331867
 21
228.0580329319551
 31
0.0
  0
LINE
  5
2054
  8
0
  6
CONTINUOUS
 62
     7
 10
557.86079179107753
 20
212.90393378707071
 30
0.0
 11
542.23484464613421
 21
228.52985689852889
 31
0.0
  0
LINE
  5
2055
  8
0
  6
CONTINUOUS
 62
     7
 10
533.19691778921162
 20
145.06777228015571
 30
0.0
 11
533.19691778921162
 21
115.06777228015569
 31
0.0
  0
LINE
  5
2056
  8
0
  6
CONTINUOUS
 62
     7
 10
558.40694677052807
 20
77.777800089217038
 30
0.0
 11
542.12328129144589
 21
61.494120626920072
 31
0.0
  0
LINE
  5
2057
  8
0
  6
CONTINUOUS
 62
     7
 10
623.19691778921174
 20
205.68753028015601
 30
0.0
 11
623.19691778921174
 21
216.25563028015591
 31
0.0
  0
LINE
  5
2058
  8
0
  6
CONTINUOUS
 62
     7
 10
657.21213278921175
 20
172.34035528015579
 30
0.0
 11
682.09991978921175
 21
197.22814528015579
 31
0.0
  0
LINE
  5
2059
  8
0
  6
CONTINUOUS
 62
     7
 10
595.69693478921158
 20
237.56778028015569
 30
0.0
 11
549.79686278921179
 21
235.16226028015589
 31
0.0
  0
LINE
  5
205A
  8
0
  6
CONTINUOUS
 62
     7
 10
586.69690178921178
 20
145.06777228015571
 30
0.0
 11
586.69690178921178
 21
121.8677912801559
 31
0.0
  0
LINE
  5
205B
  8
0
  6
CONTINUOUS
 62
     7
 10
664.69694978921177
 20
145.06777228015571
 30
0.0
 11
664.69694978921177
 21
121.8677912801559
 31
0.0
  0
LINE
  5
205C
  8
0
  6
CONTINUOUS
 62
     7
 10
652.96948778921171
 20
176.58297028015571
 30
0.0
 11
677.85728978921156
 21
201.47079028015571
 31
0.0
  0
LINE
  5
205D
  8
0
  6
CONTINUOUS
 62
     7
 10
694.21573364440553
 20
76.548973997186835
 30
0.0
 11
709.03813617224898
 21
61.726576146054953
 31
0.0
  0
LINE
  5
205E
  8
0
  6
CONTINUOUS
 62
     7
 10
625.69693478921158
 20
237.56778028015569
 30
0.0
 11
595.69693478921158
 21
237.56778028015569
 31
0.0
  0
CIRCLE
  5
205F
  8
0
  6
CONTINUOUS
 62
     7
 10
625.69693478921158
 20
145.06777228015571
 30
0.0
 40
4.000000199999997
  0
ARC
  5
2060
  8
0
  6
CONTINUOUS
 62
     7
 10
625.69693478921158
 20
145.06777228015571
 30
0.0
 40
14.000001299999999
 50
106.6015399999951
 51
73.398452000004994
  0
CIRCLE
  5
2061
  8
0
  6
CONTINUOUS
 62
     7
 10
625.69693478921158
 20
145.06777228015571
 30
0.0
 40
3.0
  0
ARC
  5
2062
  8
0
  6
CONTINUOUS
 62
     7
 10
625.69693478921158
 20
121.8677912801559
 30
0.0
 40
76.000001999999995
 50
358.60644999999619
 51
12.76020199999623
  0
ARC
  5
2063
  8
0
  6
CONTINUOUS
 62
     7
 10
625.69693478921158
 20
121.8677912801559
 30
0.0
 40
76.000001999999995
 50
167.23980000000071
 51
181.3935400000023
  0
ARC
  5
2064
  8
0
  6
CONTINUOUS
 62
     7
 10
625.69693478921158
 20
145.06777228015571
 30
0.0
 40
74.400002999999998
 50
171.8834500000049
 51
184.94542000000189
  0
ARC
  5
2065
  8
0
  6
CONTINUOUS
 62
     7
 10
550.58189678921178
 20
220.18281028015591
 30
0.0
 40
15.000000299999989
 50
92.999998999995086
 51
176.99999000000659
  0
ARC
  5
2066
  8
0
  6
CONTINUOUS
 62
     7
 10
700.81196378921175
 20
220.18281028015591
 30
0.0
 40
15.000000299999989
 50
3.0000000999988461
 51
86.999998999996933
  0
ARC
  5
2067
  8
0
  6
CONTINUOUS
 62
     7
 10
700.81196378921175
 20
69.952734280155795
 30
0.0
 40
15.000000299999989
 50
273.00000000000563
 51
356.9999999999942
  0
ARC
  5
2068
  8
0
  6
CONTINUOUS
 62
     7
 10
631.1969337892117
 20
205.68753028015601
 30
0.0
 40
3.0
 50
180.000010000001
 51
266.24579999999759
  0
ARC
  5
2069
  8
0
  6
CONTINUOUS
 62
     7
 10
700.81196378921175
 20
220.18281028015591
 30
0.0
 40
15.000000299999989
 50
3.0000000999988461
 51
86.999998999996933
  0
ARC
  5
206A
  8
0
  6
CONTINUOUS
 62
     7
 10
620.19691778921174
 20
216.25563028015591
 30
0.0
 40
3.0
 50
0.0
 51
94.417919000003408
  0
ARC
  5
206B
  8
0
  6
CONTINUOUS
 62
     7
 10
700.81196378921175
 20
69.952734280155795
 30
0.0
 40
15.000000299999989
 50
273.00000000000563
 51
356.9999999999942
  0
ARC
  5
206C
  8
0
  6
CONTINUOUS
 62
     7
 10
631.1969337892117
 20
216.25563028015591
 30
0.0
 40
3.0
 50
85.582086000002178
 51
180.000010000001
  0
ARC
  5
206D
  8
0
  6
CONTINUOUS
 62
     7
 10
625.69693478921158
 20
145.06777228015571
 30
0.0
 40
74.400002999999998
 50
355.054579999998
 51
8.1165493999936871
  0
ARC
  5
206E
  8
0
  6
CONTINUOUS
 62
     7
 10
550.58189678921178
 20
69.952734280155795
 30
0.0
 40
15.000000299999989
 50
183.00000999999321
 51
266.99999999999437
  0
ARC
  5
206F
  8
0
  6
CONTINUOUS
 62
     7
 10
625.69693478921158
 20
121.8677912801559
 30
0.0
 40
81.000003000000035
 50
125.47417000000191
 51
155.41122999999681
  0
ARC
  5
2070
  8
0
  6
CONTINUOUS
 62
     7
 10
669.69695078921166
 20
121.8677912801559
 30
0.0
 40
5.0000000999999976
 50
179.999989999999
 51
270.0
  0
ARC
  5
2071
  8
0
  6
CONTINUOUS
 62
     7
 10
625.69693478921158
 20
145.06777228015571
 30
0.0
 40
39.000011999999998
 50
0.0
 51
36.786791000006623
  0
ARC
  5
2072
  8
0
  6
CONTINUOUS
 62
     7
 10
600.54567278921161
 20
178.7042792801559
 30
0.0
 40
3.0
 50
224.99999999999079
 51
306.78679000000812
  0
ARC
  5
2073
  8
0
  6
CONTINUOUS
 62
     7
 10
592.06041278921168
 20
170.21901928015589
 30
0.0
 40
3.0
 50
323.21321000000501
 51
45.000000999994569
  0
ARC
  5
2074
  8
0
  6
CONTINUOUS
 62
     7
 10
625.69693478921158
 20
145.06777228015571
 30
0.0
 40
39.000011999999998
 50
53.213207999993848
 51
126.786790000008
  0
ARC
  5
2075
  8
0
  6
CONTINUOUS
 62
     7
 10
575.65788578921172
 20
203.59206628015599
 30
0.0
 40
3.0
 50
130.5308600000055
 51
224.99999999999079
  0
ARC
  5
2076
  8
0
  6
CONTINUOUS
 62
     7
 10
625.69693478921158
 20
121.8677912801559
 30
0.0
 40
81.000003000000035
 50
58.860945000003653
 51
86.245802999997153
  0
ARC
  5
2077
  8
0
  6
CONTINUOUS
 62
     7
 10
625.69693478921158
 20
145.06777228015571
 30
0.0
 40
39.000011999999998
 50
143.21321000000489
 51
180.000010000001
  0
ARC
  5
2078
  8
0
  6
CONTINUOUS
 62
     7
 10
581.69691878921185
 20
121.8677912801559
 30
0.0
 40
5.0000000999999976
 50
270.0
 51
0.0
  0
ARC
  5
2079
  8
0
  6
CONTINUOUS
 62
     7
 10
594.36476378921168
 20
41.77847728015589
 30
0.0
 40
5.0000000999999976
 50
68.633797999996446
 51
143.26125999999189
  0
ARC
  5
207A
  8
0
  6
CONTINUOUS
 62
     7
 10
583.9469337892117
 20
49.554648280155853
 30
0.0
 40
8.0000000999999994
 50
156.73873999999799
 51
323.2612699999944
  0
ARC
  5
207B
  8
0
  6
CONTINUOUS
 62
     7
 10
667.44693578921169
 20
49.554648280155853
 30
0.0
 40
8.0000000999999994
 50
216.73874000000799
 51
23.261257999998211
  0
ARC
  5
207C
  8
0
  6
CONTINUOUS
 62
     7
 10
625.69693478921215
 20
145.06777228015659
 30
0.0
 40
107.50001099999911
 50
38.0272320000036
 51
51.884149962772838
  0
ARC
  5
207D
  8
0
  6
CONTINUOUS
 62
     7
 10
625.69693478921158
 20
121.8677912801559
 30
0.0
 40
81.000003000000035
 50
248.63380000000461
 51
270.0
  0
ARC
  5
207E
  8
0
  6
CONTINUOUS
 62
     7
 10
657.02910278921172
 20
41.77847728015589
 30
0.0
 40
5.0000000999999976
 50
36.738737000001223
 51
111.3662099999932
  0
CIRCLE
  5
207F
  8
0
  6
CONTINUOUS
 62
     7
 10
701.71091378921165
 20
221.08176028015581
 30
0.0
 40
6.0000002999999991
  0
CIRCLE
  5
2080
  8
0
  6
CONTINUOUS
 62
     7
 10
549.68297078921182
 20
221.08176028015581
 30
0.0
 40
6.0000002999999991
  0
ARC
  5
2081
  8
0
  6
CONTINUOUS
 62
     7
 10
625.69693478921215
 20
145.06777228015591
 30
0.0
 40
107.5000110000003
 50
124.63097442528191
 51
143.24632000000179
  0
ARC
  5
2082
  8
0
  6
CONTINUOUS
 62
     7
 10
567.17262578921168
 20
195.10680628015581
 30
0.0
 40
3.0
 50
45.000000999994569
 51
139.46914000000251
  0
ARC
  5
2083
  8
0
  6
CONTINUOUS
 62
     7
 10
550.58189678921178
 20
69.952734280155795
 30
0.0
 40
15.000000299999989
 50
183.00000999999321
 51
266.99999999999437
  0
ARC
  5
2084
  8
0
  6
CONTINUOUS
 62
     7
 10
625.69693478920897
 20
145.0677722801536
 30
0.0
 40
107.5000109999967
 50
218.02723999999751
 51
232.06113688221109
  0
CIRCLE
  5
2085
  8
0
  6
CONTINUOUS
 62
     7
 10
549.68297078921182
 20
69.053778280155797
 30
0.0
 40
6.0000002999999991
  0
CIRCLE
  5
2086
  8
0
  6
CONTINUOUS
 62
     7
 10
625.69693478921158
 20
145.06777228015571
 30
0.0
 40
29.000001000000001
  0
CIRCLE
  5
2087
  8
0
  6
CONTINUOUS
 62
     7
 10
701.71091378921165
 20
69.053778280155797
 30
0.0
 40
6.0000002999999991
  0
CIRCLE
  5
2088
  8
0
  6
CONTINUOUS
 62
     7
 10
625.69693478921158
 20
145.06777228015571
 30
0.0
 40
80.000000999999983
  0
ARC
  5
2089
  8
0
  6
CONTINUOUS
 62
     7
 10
625.69693478921158
 20
121.8677912801559
 30
0.0
 40
81.000003000000035
 50
24.588775000004379
 51
54.525829999998038
  0
CIRCLE
  5
208A
  8
0
  6
CONTINUOUS
 62
     7
 10
625.69693478921158
 20
145.06777228015571
 30
0.0
 40
85.000001999999995
  0
ARC
  5
208B
  8
0
  6
CONTINUOUS
 62
     7
 10
684.22125878921167
 20
195.10680628015581
 30
0.0
 40
3.0
 50
40.530864999996602
 51
135.00000000000921
  0
ARC
  5
208C
  8
0
  6
CONTINUOUS
 62
     7
 10
650.84818178921171
 20
178.7042792801559
 30
0.0
 40
3.0
 50
233.2132099999919
 51
315.00000000000921
  0
ARC
  5
208D
  8
0
  6
CONTINUOUS
 62
     7
 10
625.69693478921386
 20
145.06777228015389
 30
0.0
 40
107.500010999997
 50
304.56048499417011
 51
323.24632000000179
  0
ARC
  5
208E
  8
0
  6
CONTINUOUS
 62
     7
 10
659.33347178921167
 20
170.21901928015589
 30
0.0
 40
3.0
 50
135.00000000000921
 51
216.78678999999511
  0
ARC
  5
208F
  8
0
  6
CONTINUOUS
 62
     7
 10
675.73596878921171
 20
203.59206628015599
 30
0.0
 40
3.0
 50
315.00000000000921
 51
49.469136999988002
  0
ARC
  5
2090
  8
0
  6
CONTINUOUS
 62
     7
 10
550.58189678921178
 20
220.18281028015591
 30
0.0
 40
15.000000299999989
 50
92.999998999995086
 51
176.99999000000659
  0
ARC
  5
2091
  8
0
  6
CONTINUOUS
 62
     7
 10
625.69693478921158
 20
121.8677912801559
 30
0.0
 40
81.000003000000035
 50
270.0
 51
291.36619999999539
  0
ARC
  5
2092
  8
0
  6
CONTINUOUS
 62
     7
 10
620.19691778921174
 20
205.68753028015601
 30
0.0
 40
3.0
 50
273.75420000000253
 51
0.0
  0
ARC
  5
2093
  8
0
  6
CONTINUOUS
 62
     7
 10
625.69694826258831
 20
121.8677612801558
 30
0.0
 40
81.000003000000035
 50
93.754195000007357
 51
121.1390599999999
  0
LINE
  5
2094
  8
0
  6
AM_ISO08W050
 10
527.81019478806274
 20
145.06777228015571
 30
0.0
 11
725.43574361206856
 21
145.06777228015571
 31
0.0
1001
GENIUS_GENOBJ-N-CEN_13
1002
{
1000
OWNER
1000
GEN
1002
}
1001
GENIUS_GENODEF_13
1002
{
1000
HIER
1070
     0
1002
}
1002
{
1000
MANEDIT
1070
     0
1002
}
1002
{
1000
NOSEL
1070
     0
1002
}
1002
{
1000
BEHIND
1070
     0
1002
}
1002
{
1000
OTHER
1070
     0
1002
}
1002
{
1000
REACTOR
1002
}
1001
GENIUS_GENCEN_19
1002
{
1040
2.7939999999999978
1002
}
  0
LINE
  5
2098
  8
0
  6
CONTINUOUS
 62
     7
 10
510.19693478921192
 20
85.867732170335657
 30
0.0
 11
510.19693478921192
 21
157.8677361703356
 31
0.0
  0
LINE
  5
2099
  8
0
  6
CONTINUOUS
 62
     7
 10
532.1969447892119
 20
116.3677361703356
 30
0.0
 11
532.1969447892119
 21
127.3677361703356
 31
0.0
  0
LINE
  5
209A
  8
0
  6
CONTINUOUS
 62
     7
 10
523.1969447892119
 20
155.36771617033571
 30
0.0
 11
523.1969447892119
 21
88.367740170335622
 31
0.0
  0
LINE
  5
209B
  8
0
  6
CONTINUOUS
 62
     7
 10
533.19691778921185
 20
145.49772617033571
 30
0.0
 11
510.19693478921192
 21
145.49772617033571
 31
0.0
  0
LINE
  5
209C
  8
0
  6
CONTINUOUS
 62
     7
 10
527.19693478921192
 20
155.36771617033571
 30
0.0
 11
533.19691778921185
 21
155.36771617033571
 31
0.0
  0
LINE
  5
209D
  8
0
  6
CONTINUOUS
 62
     7
 10
510.19693478921192
 20
157.8677361703356
 30
0.0
 11
533.19691778921162
 21
157.8677361703356
 31
0.0
  0
LINE
  5
209E
  8
0
  6
CONTINUOUS
 62
     7
 10
527.19693478921192
 20
127.3677361703356
 30
0.0
 11
527.19693478921192
 21
157.8677361703356
 31
0.0
  0
LINE
  5
209F
  8
0
  6
CONTINUOUS
 62
     7
 10
510.19693478921192
 20
155.36771617033571
 30
0.0
 11
523.1969447892119
 21
155.36771617033571
 31
0.0
  0
LINE
  5
20A0
  8
0
  6
CONTINUOUS
 62
     7
 10
523.1969447892119
 20
127.3677361703356
 30
0.0
 11
532.1969447892119
 21
127.3677361703356
 31
0.0
  0
LINE
  5
20A1
  8
0
  6
CONTINUOUS
 62
     7
 10
527.19693478921192
 20
88.367740170335622
 30
0.0
 11
534.59620461488964
 21
88.367740170335651
 31
0.0
  0
LINE
  5
20A2
  8
0
  6
CONTINUOUS
 62
     7
 10
510.19693478921192
 20
98.237716170335574
 30
0.0
 11
534.07894174836224
 21
98.237716170335574
 31
0.0
  0
LINE
  5
20A3
  8
0
  6
CONTINUOUS
 62
     7
 10
534.72722431589204
 20
85.867732170335657
 30
0.0
 11
510.19693478921192
 21
85.867732170335657
 31
0.0
  0
LINE
  5
20A4
  8
0
  6
CONTINUOUS
 62
     7
 10
523.1969447892119
 20
116.3677361703356
 30
0.0
 11
532.1969447892119
 21
116.3677361703356
 31
0.0
  0
LINE
  5
20A5
  8
0
  6
CONTINUOUS
 62
     7
 10
527.19693478921192
 20
85.867732170335657
 30
0.0
 11
527.19693478921192
 21
116.3677361703356
 31
0.0
  0
LINE
  5
20A6
  8
0
  6
CONTINUOUS
 62
     7
 10
510.19693478921192
 20
88.367740170335622
 30
0.0
 11
523.1969447892119
 21
88.367740170335622
 31
0.0
  0
LINE
  5
20B6
  8
0
  6
AM_ISO08W050
 10
625.69693478921158
 20
240.3617802801557
 30
0.0
 11
625.69693478921158
 21
38.073788280155952
 31
0.0
1001
GENIUS_GENODEF_13
1002
{
1000
HIER
1070
     0
1002
}
1002
{
1000
MANEDIT
1070
     0
1002
}
1002
{
1000
NOSEL
1070
     0
1002
}
1002
{
1000
BEHIND
1070
     0
1002
}
1002
{
1000
OTHER
1070
     0
1002
}
1002
{
1000
REACTOR
1002
}
1001
GENIUS_GENOBJ-N-CEN_13
1002
{
1000
OWNER
1000
GEN
1002
}
1001
GENIUS_GENCEN_19
1002
{
1040
2.7939999999999978
1002
}
  0
TEXT
  5
231B
  8
0
  6
CONTINUOUS
 62
     0
 10
525.16190019885505
 20
365.46045941323121
 30
0.0
 40
10.0
  1
VX08-003EBF~VX08-030EBF
  0
ENDSEC
  0
EOF
