  0
SECTION
  2
HEADER
  9
$ACADVER
  1
AC1009
  9
$INSBASE
 10
0.0
 20
0.0
 30
0.0
  9
$EXTMIN
 10
106.8437838915679
 20
290.50497166889818
 30
-0.0000000000000129
  9
$EXTMAX
 10
1035.150058061515
 20
830.38707057332715
 30
0.0000000000000024
  9
$LIMMIN
 10
0.0000005999945643
 20
-0.0000005963913736
  9
$LIMMAX
 10
1138.0000005999941
 20
739.99999940360851
  9
$ORTHOMODE
 70
     1
  9
$REGENMODE
 70
     1
  9
$FILLMODE
 70
     1
  9
$QTEXTMODE
 70
     0
  9
$MIRRTEXT
 70
     0
  9
$DRAGMODE
 70
     2
  9
$LTSCALE
 40
1.0
  9
$OSMODE
 70
   551
  9
$ATTMODE
 70
     1
  9
$TEXTSIZE
 40
2.5
  9
$TRACEWID
 40
1.0
  9
$TEXTSTYLE
  7
STANDARD
  9
$CLAYER
  8
0
  9
$CELTYPE
  6
BYLAYER
  9
$CECOLOR
 62
   256
  9
$DIMSCALE
 40
1.0
  9
$DIMASZ
 40
2.0
  9
$DIMEXO
 40
1.0
  9
$DIMDLI
 40
8.0
  9
$DIMRND
 40
0.0
  9
$DIMDLE
 40
0.0
  9
$DIMEXE
 40
1.0
  9
$DIMTP
 40
-0.025
  9
$DIMTM
 40
0.043
  9
$DIMTXT
 40
2.5
  9
$DIMCEN
 40
0.0
  9
$DIMTSZ
 40
0.0
  9
$DIMTOL
 70
     0
  9
$DIMLIM
 70
     0
  9
$DIMTIH
 70
     0
  9
$DIMTOH
 70
     0
  9
$DIMSE1
 70
     0
  9
$DIMSE2
 70
     0
  9
$DIMTAD
 70
     3
  9
$DIMZIN
 70
     8
  9
$DIMBLK
  1

  9
$DIMASO
 70
     1
  9
$DIMSHO
 70
     1
  9
$DIMPOST
  1

  9
$DIMAPOST
  1
"
  9
$DIMALT
 70
     0
  9
$DIMALTD
 70
     2
  9
$DIMALTF
 40
0.0393701
  9
$DIMLFAC
 40
1.0
  9
$DIMTOFL
 70
     1
  9
$DIMTVP
 40
0.0
  9
$DIMTIX
 70
     0
  9
$DIMSOXD
 70
     0
  9
$DIMSAH
 70
     0
  9
$DIMBLK1
  1

  9
$DIMBLK2
  1

  9
$DIMSTYLE
  2
AM_JIS
  9
$DIMCLRD
 70
     2
  9
$DIMCLRE
 70
     2
  9
$DIMCLRT
 70
     4
  9
$DIMTFAC
 40
0.71
  9
$DIMGAP
 40
1.5
  9
$LUNITS
 70
     2
  9
$LUPREC
 70
     2
  9
$SKETCHINC
 40
1.0
  9
$FILLETRAD
 40
0.0
  9
$AUNITS
 70
     0
  9
$AUPREC
 70
     0
  9
$MENU
  1
.
  9
$ELEVATION
 40
0.0
  9
$PELEVATION
 40
0.0
  9
$THICKNESS
 40
0.0
  9
$LIMCHECK
 70
     0
  9
$BLIPMODE
 70
     0
  9
$CHAMFERA
 40
2.0
  9
$CHAMFERB
 40
2.0
  9
$SKPOLY
 70
     0
  9
$TDCREATE
 40
2456829.3841110538
  9
$TDUPDATE
 40
2458541.3856144678
  9
$TDINDWG
 40
0.6122814815
  9
$TDUSRTIMER
 40
0.6122809028
  9
$USRTIMER
 70
     1
  9
$ANGBASE
 50
0.0
  9
$ANGDIR
 70
     0
  9
$PDMODE
 70
     0
  9
$PDSIZE
 40
0.0
  9
$PLINEWID
 40
0.0
  9
$COORDS
 70
     1
  9
$SPLFRAME
 70
     0
  9
$SPLINETYPE
 70
     6
  9
$SPLINESEGS
 70
     8
  9
$ATTDIA
 70
     1
  9
$ATTREQ
 70
     1
  9
$HANDLING
 70
     1
  9
$HANDSEED
  5
9829
  9
$SURFTAB1
 70
     6
  9
$SURFTAB2
 70
     6
  9
$SURFTYPE
 70
     6
  9
$SURFU
 70
     6
  9
$SURFV
 70
     6
  9
$UCSNAME
  2

  9
$UCSORG
 10
0.0
 20
0.0
 30
0.0
  9
$UCSXDIR
 10
1.0
 20
0.0
 30
0.0
  9
$UCSYDIR
 10
0.0
 20
1.0
 30
0.0
  9
$PUCSNAME
  2

  9
$PUCSORG
 10
0.0
 20
0.0
 30
0.0
  9
$PUCSXDIR
 10
1.0
 20
0.0
 30
0.0
  9
$PUCSYDIR
 10
0.0
 20
1.0
 30
0.0
  9
$USERI1
 70
     0
  9
$USERI2
 70
     0
  9
$USERI3
 70
     0
  9
$USERI4
 70
     0
  9
$USERI5
 70
     0
  9
$USERR1
 40
0.0
  9
$USERR2
 40
0.0
  9
$USERR3
 40
0.0
  9
$USERR4
 40
0.0
  9
$USERR5
 40
0.0
  9
$WORLDVIEW
 70
     1
  9
$SHADEDGE
 70
     3
  9
$SHADEDIF
 70
    70
  9
$TILEMODE
 70
     1
  9
$MAXACTVP
 70
    64
  9
$PLIMCHECK
 70
     0
  9
$PEXTMIN
 10
1.0000000000000000E+020
 20
1.0000000000000000E+020
 30
1.0000000000000000E+020
  9
$PEXTMAX
 10
-1.0000000000000000E+020
 20
-1.0000000000000000E+020
 30
-1.0000000000000000E+020
  9
$PLIMMIN
 10
0.0
 20
0.0
  9
$PLIMMAX
 10
420.0
 20
297.0
  9
$UNITMODE
 70
     0
  9
$VISRETAIN
 70
     1
  9
$PLINEGEN
 70
     0
  9
$PSLTSCALE
 70
     1
  0
ENDSEC
  0
SECTION
  2
TABLES
  0
TABLE
  2
VPORT
 70
     1
  0
VPORT
  2
*ACTIVE
 70
     0
 10
0.0
 20
0.0
 11
1.0
 21
1.0
 12
570.99692097654145
 22
560.44602112111272
 13
0.0
 23
0.0
 14
10.0
 24
10.0
 15
40.0
 25
40.0
 16
0.0
 26
0.0
 36
1.0
 17
0.0
 27
0.0
 37
0.0
 40
543.58838333626716
 41
1.7571592210767459
 42
50.0
 43
0.0
 44
0.0
 50
0.0
 51
0.0
 71
     0
 72
  1000
 73
     1
 74
     3
 75
     0
 76
     0
 77
     0
 78
     0
  0
ENDTAB
  0
TABLE
  2
LTYPE
 70
    24
  0
LTYPE
  2
CONTINUOUS
 70
     0
  3
Solid line
 72
    65
 73
     0
 40
0.0
  0
LTYPE
  2
AM_ISO02W050
 70
     0
  3
__ __ __ __ __ __ __ __ __ __ __ __ __ __ __
 72
    65
 73
     2
 40
7.5
 49
6.0
 49
-1.5
  0
LTYPE
  2
AM_ISO08W050
 70
     0
  3
____ . ____ . ____ . ____ . ____ . ____ . ____
 72
    65
 73
     4
 40
18.0
 49
12.0
 49
-1.5
 49
3.0
 49
-1.5
  0
LTYPE
  2
AM_ISO09W050
 70
     0
  3
_____ . . _____ . . _____ . . ____ .. ____
 72
    65
 73
     6
 40
22.5
 49
12.0
 49
-1.5
 49
3.0
 49
-1.5
 49
3.0
 49
-1.5
  0
LTYPE
  2
AMCONSTR
 70
     0
  3
_______________________
 72
    65
 73
     2
 40
9999.0
 49
9999.0
 49
0.0
  0
LTYPE
  2
AM_ISO08W050X2
 70
     0
  3
__ . __ . __ . __ . __ . __
 72
    65
 73
     4
 40
9.0
 49
6.0
 49
-0.75
 49
1.5
 49
-0.75
  0
LTYPE
  2
AM_ISO02W050X2
 70
     0
  3
 _ _ _ _ _ _ _ _ _ _ _ _
 72
    65
 73
     2
 40
3.75
 49
3.0
 49
-0.75
  0
LTYPE
  2
AMZIGZAG
 70
     0
  3
/\/-/\/-/\/-/\/-/\/-/\/
 72
    65
 73
     2
 40
11.0001
 49
0.0001
 49
-11.0
  0
LTYPE
  2
ACANSTGBM
 70
     0
  3
__ . . __ . .
 72
    65
 73
     6
 40
9.0
 49
4.0
 49
-1.0
 49
1.0
 49
-1.0
 49
1.0
 49
-1.0
  0
LTYPE
  2
ACANSTGLM
 70
     0
  3
_ _ _ _ _
 72
    65
 73
     2
 40
3.0
 49
2.0
 49
-1.0
  0
LTYPE
  2
ACISOWELD
 70
     0
  3
_ _ _ _ _
 72
    65
 73
     2
 40
2.0
 49
2.0
 49
-1.0
  0
LTYPE
  2
ACISOTGB
 70
     0
  3
__ . . __ . .
 72
    65
 73
     6
 40
9.0
 49
4.0
 49
-1.0
 49
1.0
 49
-1.0
 49
1.0
 49
-1.0
  0
LTYPE
  2
ACISOTGL
 70
     0
  3
_ _ _ _ _
 72
    65
 73
     2
 40
3.0
 49
2.0
 49
-1.0
  0
LTYPE
  2
ACJISTGB
 70
     0
  3
__ . . __ . .
 72
    65
 73
     6
 40
9.0
 49
4.0
 49
-1.0
 49
1.0
 49
-1.0
 49
1.0
 49
-1.0
  0
LTYPE
  2
ACJISTGL
 70
     0
  3
_ _ _ _ _
 72
    65
 73
     2
 40
3.0
 49
2.0
 49
-1.0
  0
LTYPE
  2
CENTER
 70
     0
  3
Center ____ _ ____ _ ____ _ ____ _ ____ _ ____
 72
    65
 73
     4
 40
50.799999999999997
 49
31.75
 49
-6.349999999999997
 49
6.349999999999997
 49
-6.349999999999997
  0
LTYPE
  2
HIDDEN
 70
     0
  3
Hidden __ __ __ __ __ __ __ __ __ __ __ __ __ _
 72
    65
 73
     2
 40
9.5249999999999968
 49
6.349999999999997
 49
-3.174999999999998
  0
LTYPE
  2
PHANTOM2
 70
     0
  3
Phantom (.5x) ___ _ _ ___ _ _ ___ _ _ ___ _ _
 72
    65
 73
     6
 40
31.75
 49
15.875
 49
-3.174999999999998
 49
3.174999999999998
 49
-3.174999999999998
 49
3.174999999999998
 49
-3.174999999999998
  0
LTYPE
  2
CENTER2
 70
     0
  3
Center (.5x) ___ _ ___ _ ___ _ ___ _ ___ _ ___
 72
    65
 73
     4
 40
1.125
 49
0.75
 49
-0.125
 49
0.125
 49
-0.125
  0
LTYPE
  2
HIDDEN2
 70
     0
  3
Hidden (.5x) _ _ _ _ _ _ _ _ _ _ _ _ _ _ _ _ _
 72
    65
 73
     2
 40
0.1875
 49
0.125
 49
-0.0625
  0
LTYPE
  2
AMZIGZAG2
 70
     0
  3
/\/-/\/-/\/-/\/-/\/-/\/
 72
    65
 73
     2
 40
0.4401
 49
0.0001
 49
-0.4400000000000003
  0
LTYPE
  2
ACANSTGB
 70
     0
  3
__ . . __ . .
 72
    65
 73
     6
 40
0.35433070866
 49
0.15748031496
 49
-0.03937007874
 49
0.03937007874
 49
-0.03937007874
 49
0.03937007874
 49
-0.03937007874
  0
LTYPE
  2
ACANSTGL
 70
     0
  3
_ _ _ _ _
 72
    65
 73
     2
 40
0.11811023622
 49
0.07874015748
 49
-0.03937007874
  0
ENDTAB
  0
TABLE
  2
LAYER
 70
     6
  0
LAYER
  2
0
 70
     0
 62
     7
  6
CONTINUOUS
  0
LAYER
  2
DEFPOINTS
 70
     0
 62
     7
  6
CONTINUOUS
  0
LAYER
  2
1
 70
     0
 62
     7
  6
CONTINUOUS
  0
LAYER
  2
AM_CL
 70
     0
 62
     1
  6
AMCONSTR
  0
LAYER
  2
AM_5
 70
     0
 62
     2
  6
CONTINUOUS
  0
LAYER
  2
AM_0
 70
     0
 62
     7
  6
CONTINUOUS
  0
ENDTAB
  0
TABLE
  2
STYLE
 70
     9
  0
STYLE
  2
STANDARD
 70
     0
 40
0.0
 41
0.7400000000000003
 50
0.0
 71
     0
 42
2.5
  3
txt.shx
  4
bigfont.shx
  0
STYLE
  2
ANNOTATIVE
 70
     0
 40
0.0
 41
1.0
 50
0.0
 71
     0
 42
0.2
  3
txt
  4

  0
STYLE
  2

 70
     1
 40
0.0
 41
1.0
 50
0.0
 71
     0
 42
2.5
  3
ltypeshp.shx
  4

  0
STYLE
  2
ACANSTS
 70
     0
 40
1.0
 41
1.0
 50
0.0
 71
     0
 42
2.5
  3
romans.shx
  4
bigfont.shx
  0
STYLE
  2
ACANSGDT
 70
     0
 40
0.0
 41
1.0
 50
0.0
 71
     0
 42
2.5
  3
amgdt.shx
  4

  0
STYLE
  2
ACISOTS
 70
     0
 40
1.0
 41
1.0
 50
0.0
 71
     0
 42
2.5
  3
isocp.shx
  4
extfont.shx
  0
STYLE
  2
ACISOGDT
 70
     0
 40
0.0
 41
1.0
 50
0.0
 71
     0
 42
2.5
  3
amgdt.shx
  4

  0
STYLE
  2
ACJISGDT
 70
     0
 40
0.0
 41
1.0
 50
0.0
 71
     0
 42
2.5
  3
amgdt.shx
  4

  0
STYLE
  2
ACJISTS
 70
     0
 40
1.0
 41
1.0
 50
0.0
 71
     0
 42
2.5
  3
isocp.shx
  4
extfont.shx
  0
ENDTAB
  0
TABLE
  2
VIEW
 70
     6
  0
VIEW
  2
AM_VIEW1
 70
     0
 40
370.00000000000023
 10
391.06761625835759
 20
554.99999940360874
 41
782.13523131672605
 11
0.0
 21
0.0
 31
1.0
 12
0.0
 22
0.0
 32
0.0
 42
50.0
 43
0.0
 44
0.0
 50
0.0
 71
     0
  0
VIEW
  2
AM_VIEW2
 70
     0
 40
370.00000000000023
 10
746.93238494163131
 20
554.99999940360874
 41
782.13523131672605
 11
0.0
 21
0.0
 31
1.0
 12
0.0
 22
0.0
 32
0.0
 42
50.0
 43
0.0
 44
0.0
 50
0.0
 71
     0
  0
VIEW
  2
AM_VIEW3
 70
     0
 40
370.00000000000023
 10
391.06761625835759
 20
184.9999994036086
 41
782.13523131672605
 11
0.0
 21
0.0
 31
1.0
 12
0.0
 22
0.0
 32
0.0
 42
50.0
 43
0.0
 44
0.0
 50
0.0
 71
     0
  0
VIEW
  2
AM_VIEW4
 70
     0
 40
370.00000000000023
 10
746.93238494163131
 20
184.9999994036086
 41
782.13523131672605
 11
0.0
 21
0.0
 31
1.0
 12
0.0
 22
0.0
 32
0.0
 42
50.0
 43
0.0
 44
0.0
 50
0.0
 71
     0
  0
VIEW
  2
AM_VIEW5
 70
     0
 40
370.00000000000023
 10
569.00000059999422
 20
369.9999994036088
 41
782.13523131672605
 11
0.0
 21
0.0
 31
1.0
 12
0.0
 22
0.0
 32
0.0
 42
50.0
 43
0.0
 44
0.0
 50
0.0
 71
     0
  0
VIEW
  2
AM_VIEW6
 70
     0
 40
739.99260000000015
 10
569.00000059999422
 20
369.9999994036088
 41
1564.254819928826
 11
0.0
 21
0.0
 31
1.0
 12
0.0
 22
0.0
 32
0.0
 42
50.0
 43
0.0
 44
0.0
 50
0.0
 71
     0
  0
ENDTAB
  0
TABLE
  2
UCS
 70
     0
  0
ENDTAB
  0
TABLE
  2
APPID
 70
   157
  0
APPID
  2
ACAD
 70
     0
  0
APPID
  2
ACADANNOTATIVE
 70
     0
  0
APPID
  2
ACAD_MLEADERVER
 70
     0
  0
APPID
  2
MCAD_NO_VIS
 70
     0
  0
APPID
  2
ACAD_TEMP_GRAPHIC
 70
     0
  0
APPID
  2
AD_DRAW
 70
     0
  0
APPID
  2
ACATTRIBSERVICES
 70
     0
  0
APPID
  2
DESIGNERASSEMBLIES
 70
     0
  0
APPID
  2
ACADM_DIM_EDIT
 70
     0
  0
APPID
  2
AMDT_DM_ADJ
 70
     0
  0
APPID
  2
GENIUS_GENDIMSH_14
 70
     0
  0
APPID
  2
GEVID1057795304
 70
     0
  0
APPID
  2
GEVDC
 70
     0
  0
APPID
  2
GEVCON
 70
     0
  0
APPID
  2
GENIUS_GENBH_13
 70
     0
  0
APPID
  2
GENIUS_GENOENT_13
 70
     0
  0
APPID
  2
GENIUS_GENOBJ-NBEHI-BHF_13
 70
     0
  0
APPID
  2
GENIUS_GENOLIS_13
 70
     0
  0
APPID
  2
GENIUS_GENODEF_13
 70
     0
  0
APPID
  2
GENIUS_GENOREF_13
 70
     0
  0
APPID
  2
GENIUS_GENOBJ-NBEHI-BHB_13
 70
     0
  0
APPID
  2
GENIUS_GENOBJ-F-SCPASSM_13
 70
     0
  0
APPID
  2
GENIUS_GENDTOL_13
 70
     0
  0
APPID
  2
GENIUS_GENTRA_14
 70
     0
  0
APPID
  2
ASURF_PCURVE_APPNAME
 70
     0
  0
APPID
  2
GENIUS_GENCFG_13
 70
     0
  0
APPID
  2
GENIUS_GE3CFG0_13
 70
     0
  0
APPID
  2
GENIUS_GENCFG0_13
 70
     0
  0
APPID
  2
GENIUS_GENCFG1_13
 70
     0
  0
APPID
  2
GENIUS_GENCFG2_13
 70
     0
  0
APPID
  2
GENIUS_GENCFG3_13
 70
     0
  0
APPID
  2
GENIUS_GENCFG4_13
 70
     0
  0
APPID
  2
GENIUS_GEVCFG0_13
 70
     0
  0
APPID
  2
GENIUS_GENOBJ-N-TIT_13
 70
     0
  0
APPID
  2
GENIUS_GENTITLE_13
 70
     0
  0
APPID
  2
GENIUS_GENSCREG_15
 70
     0
  0
APPID
  2
GENIUS_GENOBJ-N-SDF_13
 70
     0
  0
APPID
  2
GENIUS_GENFIL_13
 70
     0
  0
APPID
  2
GENIUS_GENOBJ-N-CHA_13
 70
     0
  0
APPID
  2
GENIUS_GEFSH_13
 70
     0
  0
APPID
  2
GENIUS_GENOBJ-F-SHS_13
 70
     0
  0
APPID
  2
GENIUS_GENOBJ-N-CEN_13
 70
     0
  0
APPID
  2
GENIUS_GENREC_14
 70
     0
  0
APPID
  2
GENIUS_GENOBJ-N-REC_13
 70
     0
  0
APPID
  2
GENIUS_GENOBJ-N-HTC_13
 70
     0
  0
APPID
  2
GENIUS_GENHATCH_13
 70
     0
  0
APPID
  2
ACAD_PSEXT
 70
     0
  0
APPID
  2
ACAD_EXEMPT_FROM_CAD_STANDARDS
 70
     0
  0
APPID
  2
ACAECLAYERSTANDARD
 70
     0
  0
APPID
  2
GENIUS_GENCEN_19
 70
     0
  0
APPID
  2
ACAD_DSTYLE_DIMINSPECT
 70
     0
  0
APPID
  2
ACAD_DSTYLE_DIMANGULAR_EXT
 70
     0
  0
APPID
  2
ACADANNOPO
 70
     0
  0
APPID
  2
ACAD_NAV_VCDISPLAY
 70
     0
  0
APPID
  2
GENIUS_GENOBJ-N-FIL_13
 70
     0
  0
APPID
  2
ACAD_DSTYLE_DIMBREAK
 70
     0
  0
APPID
  2
ACAD_DSTYLE_DIMJAG
 70
     0
  0
APPID
  2
ACAD_DSTYLE_DIMRADIAL_EXTENSION
 70
     0
  0
APPID
  2
GENIUS_DUMCFG0_13
 70
     0
  0
APPID
  2
ACAD_DSTYLE_DIMTEXT_FILL
 70
     0
  0
APPID
  2
AMG_2DHIDE
 70
     0
  0
APPID
  2
GENIUS_GEFSHEP_13
 70
     0
  0
APPID
  2
GENIUS_GENOBJ-F-SHE_13
 70
     0
  0
APPID
  2
GENIUS_GEFSHE_13
 70
     0
  0
APPID
  2
ACAD_DIMASSOC_DIMLFAC
 70
     0
  0
APPID
  2
ACAD_DIMASSOC_CALC_DIMLFAC
 70
     0
  0
APPID
  2
ACAD_DIMASSOC_OVERRIDDEN_D
 70
     0
  0
APPID
  2
GENIUS_GENOBJ-F-SHSV_13
 70
     0
  0
APPID
  2
GENIUS_GEFWELD_13
 70
     0
  0
APPID
  2
GENIUS_GENOBJ-N-CRS_13
 70
     0
  0
APPID
  2
GENIUS_GENOBJ-N-RSBK_13
 70
     0
  0
APPID
  2
GENIUS_GENOBJ-N-LIB_13
 70
     0
  0
APPID
  2
GENIUS_GENSCALE_13
 70
     0
  0
APPID
  2
GENIUS_GENHINW_13
 70
     0
  0
APPID
  2
GENIUS_FIRSTVISTXT_14
 70
     0
  0
APPID
  2
GENIUS_GENOBJ-N-LEADER_13
 70
     0
  0
APPID
  2
GENIUS_GENDREL_13
 70
     0
  0
APPID
  2
GEVPT
 70
     0
  0
APPID
  2
GEVIT
 70
     0
  0
APPID
  2
VCC
 70
     0
  0
APPID
  2
GENBH
 70
     0
  0
APPID
  2
GEVMK
 70
     0
  0
APPID
  2
GENIUS_GENOBJ-F-DESC_13
 70
     0
  0
APPID
  2
GENIUS_GEFDESC_14
 70
     0
  0
APPID
  2
GENIUS_GENOBJ-F-FEAT_13
 70
     0
  0
APPID
  2
GENIUS_GEFFEAT_14
 70
     0
  0
APPID
  2
GENIUS_GEFPARTINS_13
 70
     0
  0
APPID
  2
GENIUS_GENSCREG_13
 70
     0
  0
APPID
  2
GENIUS_GEFSHP_13
 70
     0
  0
APPID
  2
GEVID1025574798
 70
     0
  0
APPID
  2
GEVID1025574769
 70
     0
  0
APPID
  2
GEVID1025757451
 70
     0
  0
APPID
  2
GEVID1240528327
 70
     0
  0
APPID
  2
AMG_2DSTRUCT_BTR
 70
     0
  0
APPID
  2
ACADM_2DVIEW_IGN_NOTIFY
 70
     0
  0
APPID
  2
GEVID1240528328
 70
     0
  0
APPID
  2
GEVID1240528329
 70
     0
  0
APPID
  2
GEVRADREF
 70
     0
  0
APPID
  2
GEVID1240528330
 70
     0
  0
APPID
  2
GEVID1240528331
 70
     0
  0
APPID
  2
GEVID1240528332
 70
     0
  0
APPID
  2
GEVID1240791080
 70
     0
  0
APPID
  2
GEVID1240791081
 70
     0
  0
APPID
  2
GEVID1240791082
 70
     0
  0
APPID
  2
GEVID1240791083
 70
     0
  0
APPID
  2
GEVID1240791084
 70
     0
  0
APPID
  2
GEVID1240791085
 70
     0
  0
APPID
  2
GEVID1240791086
 70
     0
  0
APPID
  2
GEVID1240791087
 70
     0
  0
APPID
  2
GEVID1240791088
 70
     0
  0
APPID
  2
GEVID1240791089
 70
     0
  0
APPID
  2
GEVID1240791090
 70
     0
  0
APPID
  2
GEVID1240791091
 70
     0
  0
APPID
  2
GEVID1240791092
 70
     0
  0
APPID
  2
GEVID1240791093
 70
     0
  0
APPID
  2
GEVID1240791094
 70
     0
  0
APPID
  2
GEVID1240791095
 70
     0
  0
APPID
  2
GEVID1240791096
 70
     0
  0
APPID
  2
GEVID1240791097
 70
     0
  0
APPID
  2
GEVID1240791098
 70
     0
  0
APPID
  2
GEVID1240791099
 70
     0
  0
APPID
  2
GEVID1240791100
 70
     0
  0
APPID
  2
GEVID1240791101
 70
     0
  0
APPID
  2
GEVID1240791102
 70
     0
  0
APPID
  2
GEVID1240791103
 70
     0
  0
APPID
  2
GEVID1240791104
 70
     0
  0
APPID
  2
GEVID1240791105
 70
     0
  0
APPID
  2
GEVID1240875381
 70
     0
  0
APPID
  2
GEVID1240875382
 70
     0
  0
APPID
  2
GEVID1240875383
 70
     0
  0
APPID
  2
GEVID1240875384
 70
     0
  0
APPID
  2
GEVID1240875385
 70
     0
  0
APPID
  2
GEVID1240875386
 70
     0
  0
APPID
  2
GEVID1240875387
 70
     0
  0
APPID
  2
GEVID1240875388
 70
     0
  0
APPID
  2
GEVID1240875389
 70
     0
  0
APPID
  2
GEVID1240875390
 70
     0
  0
APPID
  2
GEVID1240875391
 70
     0
  0
APPID
  2
GEVID1240875392
 70
     0
  0
APPID
  2
GEVID1240875393
 70
     0
  0
APPID
  2
GEVID1240875394
 70
     0
  0
APPID
  2
GEVID1240875395
 70
     0
  0
APPID
  2
GEVID1240875396
 70
     0
  0
APPID
  2
GEVID1240875397
 70
     0
  0
APPID
  2
GEVID1240875398
 70
     0
  0
APPID
  2
GEVID1240875399
 70
     0
  0
APPID
  2
GEVID1240908996
 70
     0
  0
APPID
  2
GEVID1240908997
 70
     0
  0
APPID
  2
GEVID1240908998
 70
     0
  0
APPID
  2
GEVID1240908999
 70
     0
  0
APPID
  2
GEVID1240909000
 70
     0
  0
APPID
  2
GENIUS_GENOBJ-N-ZOO_13
 70
     0
  0
APPID
  2
GENIUS_GENZOO_17
 70
     0
  0
APPID
  2
GENIUS_GE3SECT_13
 70
     0
  0
APPID
  2
GEV_VCCNULL_SWITCH_OFF
 70
     0
  0
APPID
  2
ACAD_DSTYLE_DIMTALN
 70
     0
  0
APPID
  2
DCO15
 70
     0
  0
ENDTAB
  0
TABLE
  2
DIMSTYLE
 70
    23
  0
DIMSTYLE
  2
STANDARD
 70
     0
  3

  4

  5

  6

  7

 40
1.0
 41
0.18
 42
0.0625
 43
0.38
 44
0.18
 45
0.0
 46
0.0
 47
0.0
 48
0.0
140
0.18
141
0.09
142
0.0
143
25.399999999999999
144
1.0
145
0.0
146
1.0
147
0.09
 71
     0
 72
     0
 73
     1
 74
     1
 75
     0
 76
     0
 77
     0
 78
     0
170
     0
171
     2
172
     0
173
     0
174
     0
175
     0
176
     0
177
     0
178
     0
  0
DIMSTYLE
  2
ANNOTATIVE
 70
     0
  3

  4

  5

  6

  7

 40
1.0
 41
0.18
 42
0.0625
 43
0.38
 44
0.18
 45
0.0
 46
0.0
 47
0.0
 48
0.0
140
0.18
141
0.09
142
0.0
143
25.399999999999999
144
1.0
145
0.0
146
1.0
147
0.09
 71
     0
 72
     0
 73
     1
 74
     1
 75
     0
 76
     0
 77
     0
 78
     0
170
     0
171
     2
172
     0
173
     0
174
     0
175
     0
176
     0
177
     0
178
     0
  0
DIMSTYLE
  2
AM_ANSI
 70
     0
  3

  4
"
  5

  6

  7

 40
1.0
 41
2.5
 42
1.0
 43
10.0
 44
1.0
 45
0.0
 46
0.0
 47
0.1
 48
0.1
140
3.5
141
0.0
142
0.0
143
0.0393701
144
1.0
145
0.0
146
0.71
147
1.5
 71
     0
 72
     0
 73
     1
 74
     1
 75
     0
 76
     0
 77
     0
 78
     8
170
     0
171
     2
172
     0
173
     0
174
     0
175
     0
176
     2
177
     2
178
     4
  0
DIMSTYLE
  2
AM_ANSI$3
 70
     0
  3

  4
"
  5

  6

  7

 40
1.0
 41
2.5
 42
1.0
 43
10.0
 44
1.0
 45
0.0
 46
0.0
 47
0.1
 48
0.1
140
3.5
141
0.0
142
0.0
143
0.0393701
144
1.0
145
0.0
146
0.71
147
1.5
 71
     0
 72
     0
 73
     1
 74
     1
 75
     0
 76
     0
 77
     0
 78
     8
170
     0
171
     2
172
     0
173
     0
174
     0
175
     0
176
     2
177
     2
178
     4
  0
DIMSTYLE
  2
AM_ANSI$4
 70
     0
  3

  4
"
  5

  6

  7

 40
1.0
 41
2.5
 42
1.0
 43
10.0
 44
1.0
 45
0.0
 46
0.0
 47
0.1
 48
0.1
140
3.5
141
0.0
142
0.0
143
0.0393701
144
1.0
145
0.0
146
0.71
147
1.5
 71
     0
 72
     0
 73
     1
 74
     1
 75
     0
 76
     0
 77
     0
 78
     8
170
     0
171
     2
172
     0
173
     0
174
     0
175
     0
176
     2
177
     2
178
     4
  0
DIMSTYLE
  2
AM_ANSI$7
 70
     0
  3

  4
"
  5

  6

  7

 40
1.0
 41
2.5
 42
1.0
 43
10.0
 44
1.0
 45
0.0
 46
0.0
 47
0.1
 48
0.1
140
5.0
141
0.0
142
0.0
143
0.0393701
144
1.0
145
0.0
146
0.71
147
1.5
 71
     0
 72
     0
 73
     1
 74
     1
 75
     0
 76
     0
 77
     0
 78
     8
170
     0
171
     2
172
     0
173
     0
174
     0
175
     0
176
     2
177
     2
178
     4
  0
DIMSTYLE
  2
AM_ANSI$SF
 70
     0
  3

  4
"
  5

  6

  7

 40
1.0
 41
2.5
 42
1.0
 43
10.0
 44
1.0
 45
0.0
 46
0.0
 47
0.1
 48
0.1
140
3.5
141
0.0
142
0.0
143
0.0393701
144
1.0
145
0.0
146
0.71
147
1.5
 71
     0
 72
     0
 73
     1
 74
     1
 75
     1
 76
     1
 77
     0
 78
     8
170
     0
171
     2
172
     0
173
     0
174
     0
175
     0
176
     2
177
     2
178
     4
  0
DIMSTYLE
  2
AM_ANSI$SH
 70
     0
  3

  4
"
  5

  6

  7

 40
1.0
 41
2.5
 42
1.0
 43
10.0
 44
1.0
 45
0.0
 46
0.0
 47
0.1
 48
0.1
140
3.5
141
0.0
142
0.0
143
0.0393701
144
1.0
145
0.0
146
0.71
147
1.5
 71
     0
 72
     0
 73
     1
 74
     1
 75
     1
 76
     1
 77
     0
 78
     8
170
     0
171
     2
172
     0
173
     1
174
     0
175
     0
176
     2
177
     2
178
     4
  0
DIMSTYLE
  2
AM_ISO
 70
     0
  3

  4
"
  5

  6

  7

 40
1.0
 41
2.5
 42
1.0
 43
10.0
 44
1.0
 45
0.0
 46
0.0
 47
0.1
 48
0.1
140
3.5
141
0.0
142
0.0
143
0.0393701
144
1.0
145
0.0
146
0.71
147
1.5
 71
     0
 72
     0
 73
     0
 74
     0
 75
     0
 76
     0
 77
     1
 78
     8
170
     0
171
     2
172
     1
173
     0
174
     0
175
     0
176
   256
177
   256
178
     2
  0
DIMSTYLE
  2
AM_ISO$3
 70
     0
  3

  4
"
  5

  6

  7

 40
1.0
 41
2.5
 42
1.0
 43
10.0
 44
1.0
 45
0.0
 46
0.0
 47
0.1
 48
0.1
140
3.5
141
0.0
142
0.0
143
0.0393701
144
1.0
145
0.0
146
0.71
147
1.5
 71
     0
 72
     0
 73
     0
 74
     1
 75
     0
 76
     0
 77
     1
 78
     8
170
     0
171
     2
172
     0
173
     0
174
     0
175
     0
176
   256
177
   256
178
     2
  0
DIMSTYLE
  2
AM_ISO$4
 70
     0
  3

  4
"
  5

  6

  7

 40
1.0
 41
2.5
 42
1.0
 43
10.0
 44
1.0
 45
0.0
 46
0.0
 47
0.1
 48
0.1
140
3.5
141
0.0
142
0.0
143
0.0393701
144
1.0
145
0.0
146
0.71
147
1.5
 71
     0
 72
     0
 73
     0
 74
     1
 75
     0
 76
     0
 77
     1
 78
     8
170
     0
171
     2
172
     0
173
     0
174
     0
175
     0
176
   256
177
   256
178
     2
  0
DIMSTYLE
  2
AM_ISO$6
 70
     0
  3

  4
"
  5

  6

  7

 40
1.0
 41
2.5
 42
1.0
 43
10.0
 44
1.0
 45
0.0
 46
0.0
 47
0.1
 48
0.1
140
3.5
141
0.0
142
0.0
143
0.0393701
144
1.0
145
0.0
146
0.71
147
1.5
 71
     0
 72
     0
 73
     0
 74
     0
 75
     0
 76
     0
 77
     0
 78
     8
170
     0
171
     2
172
     1
173
     0
174
     0
175
     0
176
   256
177
   256
178
     2
  0
DIMSTYLE
  2
AM_ISO$7
 70
     0
  3

  4
"
  5

  6

  7

 40
1.0
 41
2.5
 42
1.0
 43
10.0
 44
1.0
 45
0.0
 46
0.0
 47
0.1
 48
0.1
140
5.0
141
0.0
142
0.0
143
0.0393701
144
1.0
145
0.0
146
0.71
147
1.5
 71
     0
 72
     0
 73
     0
 74
     0
 75
     0
 76
     0
 77
     1
 78
     8
170
     0
171
     2
172
     1
173
     0
174
     0
175
     0
176
   256
177
   256
178
     2
  0
DIMSTYLE
  2
AM_ISO$SF
 70
     0
  3

  4
"
  5

  6

  7

 40
1.0
 41
2.5
 42
1.0
 43
10.0
 44
1.0
 45
0.0
 46
0.0
 47
0.1
 48
0.1
140
3.5
141
0.0
142
0.0
143
0.0393701
144
1.0
145
0.0
146
0.71
147
1.5
 71
     0
 72
     0
 73
     0
 74
     0
 75
     1
 76
     1
 77
     1
 78
     8
170
     0
171
     2
172
     1
173
     0
174
     0
175
     0
176
   256
177
   256
178
     2
  0
DIMSTYLE
  2
AM_ISO$SH
 70
     0
  3

  4
"
  5

  6

  7

 40
1.0
 41
2.5
 42
1.0
 43
10.0
 44
1.0
 45
0.0
 46
0.0
 47
0.1
 48
0.1
140
3.5
141
0.0
142
0.0
143
0.0393701
144
2.0
145
0.0
146
0.71
147
1.5
 71
     0
 72
     0
 73
     0
 74
     0
 75
     1
 76
     1
 77
     1
 78
     8
170
     0
171
     2
172
     1
173
     1
174
     0
175
     0
176
   256
177
   256
178
     2
  0
DIMSTYLE
  2
AM_JIS
 70
     0
  3

  4
"
  5

  6

  7

 40
1.0
 41
2.0
 42
1.0
 43
8.0
 44
1.0
 45
0.0
 46
0.0
 47
0.1
 48
0.1
140
2.5
141
0.0
142
0.0
143
0.0393701
144
1.0
145
0.0
146
0.71
147
1.5
 71
     0
 72
     0
 73
     0
 74
     0
 75
     0
 76
     0
 77
     3
 78
     8
170
     0
171
     2
172
     1
173
     0
174
     0
175
     0
176
     2
177
     2
178
     4
  0
DIMSTYLE
  2
AM_JIS$3
 70
     0
  3

  4
"
  5

  6

  7

 40
1.0
 41
2.0
 42
1.0
 43
10.0
 44
1.0
 45
0.0
 46
0.0
 47
0.1
 48
0.1
140
2.5
141
0.0
142
0.0
143
0.0393701
144
1.0
145
0.0
146
0.71
147
1.5
 71
     0
 72
     0
 73
     0
 74
     1
 75
     0
 76
     0
 77
     3
 78
     8
170
     0
171
     2
172
     0
173
     0
174
     0
175
     0
176
     2
177
     2
178
     4
  0
DIMSTYLE
  2
AM_JIS$4
 70
     0
  3

  4
"
  5

  6

  7

 40
1.0
 41
2.0
 42
1.0
 43
10.0
 44
1.0
 45
0.0
 46
0.0
 47
0.1
 48
0.1
140
2.5
141
0.0
142
0.0
143
0.0393701
144
1.0
145
0.0
146
0.71
147
1.5
 71
     0
 72
     0
 73
     0
 74
     0
 75
     0
 76
     0
 77
     3
 78
     8
170
     0
171
     2
172
     0
173
     0
174
     0
175
     0
176
     2
177
     2
178
     4
  0
DIMSTYLE
  2
AM_JIS$6
 70
     0
  3

  4
"
  5

  6

  7

 40
1.0
 41
2.0
 42
1.0
 43
10.0
 44
1.0
 45
0.0
 46
0.0
 47
0.1
 48
0.1
140
2.5
141
0.0
142
0.0
143
0.0393701
144
1.0
145
0.0
146
0.71
147
1.5
 71
     0
 72
     0
 73
     0
 74
     0
 75
     0
 76
     0
 77
     0
 78
     8
170
     0
171
     2
172
     1
173
     0
174
     0
175
     0
176
     2
177
     2
178
     4
  0
DIMSTYLE
  2
AM_JIS$7
 70
     0
  3

  4
"
  5

  6

  7

 40
1.0
 41
2.0
 42
1.0
 43
10.0
 44
1.0
 45
0.0
 46
0.0
 47
0.1
 48
0.1
140
2.5
141
0.0
142
0.0
143
0.0393701
144
1.0
145
0.0
146
0.71
147
1.5
 71
     0
 72
     0
 73
     0
 74
     0
 75
     0
 76
     0
 77
     3
 78
     8
170
     0
171
     2
172
     1
173
     0
174
     0
175
     0
176
     2
177
     2
178
     4
  0
DIMSTYLE
  2
AM_JIS$SF
 70
     0
  3

  4
"
  5

  6

  7

 40
1.0
 41
2.0
 42
1.0
 43
10.0
 44
1.0
 45
0.0
 46
0.0
 47
0.1
 48
0.1
140
2.5
141
0.0
142
0.0
143
0.0393701
144
1.0
145
0.0
146
0.71
147
1.5
 71
     0
 72
     0
 73
     0
 74
     0
 75
     1
 76
     1
 77
     3
 78
     8
170
     0
171
     2
172
     1
173
     0
174
     0
175
     0
176
     2
177
     2
178
     4
  0
DIMSTYLE
  2
AM_JIS$SH
 70
     0
  3

  4
"
  5

  6

  7

 40
1.0
 41
2.0
 42
1.0
 43
10.0
 44
1.0
 45
0.0
 46
0.0
 47
0.1
 48
0.1
140
2.5
141
0.0
142
0.0
143
0.0393701
144
2.0
145
0.0
146
0.71
147
1.5
 71
     0
 72
     0
 73
     0
 74
     0
 75
     1
 76
     1
 77
     3
 78
     8
170
     0
171
     2
172
     1
173
     1
174
     0
175
     0
176
     2
177
     2
178
     4
  0
DIMSTYLE
  2
AM_JIS$0
 70
     0
  3

  4
"
  5

  6

  7

 40
1.0
 41
2.0
 42
1.0
 43
8.0
 44
1.0
 45
0.0
 46
0.0
 47
0.1
 48
0.1
140
2.5
141
0.0
142
0.0
143
0.0393701
144
1.0
145
0.0
146
0.71
147
1.5
 71
     0
 72
     0
 73
     0
 74
     0
 75
     0
 76
     0
 77
     3
 78
     8
170
     0
171
     2
172
     1
173
     0
174
     0
175
     0
176
     2
177
     2
178
     4
  0
ENDTAB
  0
ENDSEC
  0
SECTION
  2
BLOCKS
  0
BLOCK
  8
0
  2
$MODEL_SPACE
 70
     0
 10
0.0
 20
0.0
 30
0.0
  3
$MODEL_SPACE
  1

  0
ENDBLK
  5
967E
  8
0
  0
BLOCK
 67
     1
  8
0
  2
$PAPER_SPACE
 70
     0
 10
0.0
 20
0.0
 30
0.0
  3
$PAPER_SPACE
  1

  0
ENDBLK
  5
967A
 67
     1
  8
0
  0
BLOCK
  8
0
  2
GENAXEH
 70
     0
 10
0.0
 20
0.0
 30
0.0
  3
GENAXEH
  1

  0
LINE
  5
9469
  8
0
 10
-1.0
 20
0.0
 30
0.0
 11
1.0
 21
0.0
 31
0.0
  0
ENDBLK
  5
946A
  8
0
  0
BLOCK
  8
0
  2
_OPEN30
 70
     0
 10
0.0
 20
0.0
 30
0.0
  3
_OPEN30
  1

  0
LINE
  5
94B0
  8
0
  6
BYBLOCK
 62
     0
 10
-1.0
 20
0.26794919
 30
0.0
 11
0.0
 21
0.0
 31
0.0
  0
LINE
  5
94B1
  8
0
  6
BYBLOCK
 62
     0
 10
0.0
 20
0.0
 30
0.0
 11
-1.0
 21
-0.26794919
 31
0.0
  0
LINE
  5
94B2
  8
0
  6
BYBLOCK
 62
     0
 10
0.0
 20
0.0
 30
0.0
 11
-1.0
 21
0.0
 31
0.0
  0
ENDBLK
  5
94B3
  8
0
  0
BLOCK
  8
0
  2
A$C527559AB
 70
     0
 10
0.0
 20
0.0
 30
0.0
  3
A$C527559AB
  1

  0
LINE
  5
93DC
  8
0
  6
CONTINUOUS
 62
     7
 10
-92.500017000000071
 20
23.199981000000012
 30
0.0
 11
-92.500017000000071
 21
-6.800019000000006
 31
0.0
  0
LINE
  5
93DD
  8
0
  6
CONTINUOUS
 62
     7
 10
-115.4999999999998
 20
-36.000059109820043
 30
0.0
 11
-115.4999999999998
 21
35.999944890179911
 31
0.0
  0
LINE
  5
93DE
  8
0
  6
CONTINUOUS
 62
     7
 10
-93.499989999999784
 20
-5.500055109820094
 30
0.0
 11
-93.499989999999784
 21
5.4999448901799033
 31
0.0
  0
LINE
  5
93DF
  8
0
  6
CONTINUOUS
 62
     7
 10
-102.4999899999998
 20
33.499924890179983
 30
0.0
 11
-102.4999899999998
 21
-33.500051109820077
 31
0.0
  0
LINE
  5
93E0
  8
0
  6
CONTINUOUS
 62
     7
 10
-92.500016999999843
 20
23.629934890179982
 30
0.0
 11
-115.4999999999998
 21
23.629934890179982
 31
0.0
  0
LINE
  5
93E1
  8
0
  6
CONTINUOUS
 62
     7
 10
-98.499999999999801
 20
33.499924890179983
 30
0.0
 11
-92.500016999999843
 21
33.499924890179983
 31
0.0
  0
LINE
  5
93E2
  8
0
  6
CONTINUOUS
 62
     7
 10
-115.4999999999998
 20
35.999944890179911
 30
0.0
 11
-92.500017000000071
 21
35.999944890179911
 31
0.0
  0
LINE
  5
93E3
  8
0
  6
CONTINUOUS
 62
     7
 10
-98.499999999999801
 20
5.4999448901799033
 30
0.0
 11
-98.499999999999801
 21
35.999944890179911
 31
0.0
  0
LINE
  5
93E4
  8
0
  6
CONTINUOUS
 62
     7
 10
-115.4999999999998
 20
33.499924890179983
 30
0.0
 11
-102.4999899999998
 21
33.499924890179983
 31
0.0
  0
LINE
  5
93E5
  8
0
  6
CONTINUOUS
 62
     7
 10
-102.4999899999998
 20
5.4999448901799033
 30
0.0
 11
-93.499989999999784
 21
5.4999448901799033
 31
0.0
  0
LINE
  5
93E6
  8
0
  6
CONTINUOUS
 62
     7
 10
-98.499999999999801
 20
-33.500051109820077
 30
0.0
 11
-91.100730174322038
 21
-33.500051109820049
 31
0.0
  0
LINE
  5
93E7
  8
0
  6
CONTINUOUS
 62
     7
 10
-115.4999999999998
 20
-23.63007510982014
 30
0.0
 11
-91.617993040849441
 21
-23.63007510982014
 31
0.0
  0
LINE
  5
93E8
  8
0
  6
CONTINUOUS
 62
     7
 10
-90.969710473319651
 20
-36.000059109820043
 30
0.0
 11
-115.4999999999998
 21
-36.000059109820043
 31
0.0
  0
LINE
  5
93E9
  8
0
  6
CONTINUOUS
 62
     7
 10
-102.4999899999998
 20
-5.500055109820094
 30
0.0
 11
-93.499989999999784
 21
-5.500055109820094
 31
0.0
  0
LINE
  5
93EA
  8
0
  6
CONTINUOUS
 62
     7
 10
-98.499999999999801
 20
-36.000059109820043
 30
0.0
 11
-98.499999999999801
 21
-5.500055109820094
 31
0.0
  0
LINE
  5
93EB
  8
0
  6
CONTINUOUS
 62
     7
 10
-115.4999999999998
 20
-33.500051109820077
 30
0.0
 11
-102.4999899999998
 21
-33.500051109820077
 31
0.0
  0
ENDBLK
  5
93EF
  8
0
  0
BLOCK
  8
0
  2
_ACMFILLEDHALF
 70
     0
 10
0.0
 20
0.0
 30
0.0
  3
_ACMFILLEDHALF
  1

  0
TRACE
  5
9571
  8
AM_0
 62
     0
 10
-0.8
 20
0.0
 30
0.0
 11
-1.0
 21
0.166666666
 31
0.0
 12
0.0
 22
0.0
 32
0.0
 13
0.0
 23
0.0
 33
0.0
  0
LINE
  5
9572
  8
AM_0
 62
     0
 10
-1.0
 20
0.0
 30
0.0
 11
-0.8
 21
0.0
 31
0.0
  0
ENDBLK
  5
9573
  8
0
  0
ENDSEC
  0
SECTION
  2
ENTITIES
  0
POINT
  5
47DB
  8
1
  6
CONTINUOUS
 10
415.01217444142742
 20
409.2751319983912
 30
0.0
  0
LINE
  5
47DC
  8
1
  6
CONTINUOUS
 10
415.01217444142742
 20
335.77513199839137
 30
0.0
 11
415.01217444142742
 21
409.2751319983912
 31
0.0
  0
POINT
  5
4861
  8
1
  6
CONTINUOUS
 10
415.01217444142742
 20
409.27507388857111
 30
0.0
  0
LINE
  5
48DC
  8
0
  6
AM_ISO08W050
 10
436.27791444142741
 20
437.27510099839151
 30
0.0
 11
649.29138444142723
 21
437.27510099839151
 31
0.0
  0
LINE
  5
48DD
  8
0
  6
AM_ISO08W050
 10
107.7548234182877
 20
409.2751319983912
 30
0.0
 11
443.85919399386893
 21
409.2751319983912
 31
0.0
  0
LINE
  5
48E9
  8
0
 10
646.51215444142758
 20
421.27513199839132
 30
0.0
 11
646.51215444142758
 21
456.2750879983912
 31
0.0
  0
LINE
  5
48EB
  8
0
  6
AM_ISO08W050
 10
858.55637965436745
 20
290.53660511687627
 30
0.0
 11
858.55638865436765
 21
564.2645653754746
 31
0.0
  0
LINE
  5
4924
  8
0
 10
415.01217444142742
 20
335.77511399839148
 30
0.0
 11
447.08199444142713
 21
334.6552109983914
 31
0.0
  0
LINE
  5
4926
  8
0
 10
415.01217444142742
 20
482.77510799839121
 30
0.0
 11
446.61684444142708
 21
483.87877799839117
 31
0.0
  0
LINE
  5
4929
  8
0
 10
415.01217444142742
 20
335.77512899839149
 30
0.0
 11
415.01217444142742
 21
482.7751379983913
 31
0.0
  0
LINE
  5
492B
  8
0
 10
449.51217444142748
 20
500.29918799839152
 30
0.0
 11
449.51217444142748
 21
318.25167599839142
 31
0.0
  0
LINE
  5
4930
  8
0
 10
415.01217444142742
 20
369.80044499839141
 30
0.0
 11
449.51217444142748
 21
369.80044499839141
 31
0.0
  0
LINE
  5
4931
  8
0
 10
415.01217444142742
 20
448.74979799839122
 30
0.0
 11
449.51217444142748
 21
448.74979799839122
 31
0.0
  0
LINE
  5
4936
  8
0
 10
415.01217444142742
 20
470.8537679983915
 30
0.0
 11
449.51217444142748
 21
470.8537679983915
 31
0.0
  0
LINE
  5
4937
  8
0
 10
415.01217444142742
 20
347.69648699839149
 30
0.0
 11
449.51217444142748
 21
347.69648699839149
 31
0.0
  0
ARC
  5
4985
  8
0
 10
446.51217444142748
 20
486.87697799839128
 30
0.0
 40
3.0
 50
272.00000000000369
 51
0.0
  0
ARC
  5
4986
  8
0
 10
446.51217444142748
 20
331.67329199839151
 30
0.0
 40
3.0
 50
0.0
 51
87.999999999996334
  0
LINE
  5
8A60
  8
0
  6
AM_ISO08W050
 10
106.9050767509445
 20
712.84573300749753
 30
0.0
 11
654.42499444142754
 21
712.84573300749753
 31
0.0
  0
LINE
  5
8A96
  8
0
  6
CONTINUOUS
 10
415.01215444142758
 20
651.26708300749783
 30
0.0
 11
449.51215444142758
 21
651.26708300749783
 31
0.0
  0
LINE
  5
8A97
  8
0
  6
CONTINUOUS
 10
415.01215444142758
 20
774.42434300749755
 30
0.0
 11
449.51215444142758
 21
774.42434300749755
 31
0.0
  0
LINE
  5
8A98
  8
0
  6
CONTINUOUS
 10
415.01215444142758
 20
752.32040300749759
 30
0.0
 11
449.51215444142758
 21
752.32040300749759
 31
0.0
  0
LINE
  5
8A99
  8
0
  6
CONTINUOUS
 10
415.01215444142758
 20
673.37106300749724
 30
0.0
 11
449.51215444142758
 21
673.37106300749724
 31
0.0
  0
LINE
  5
8A9A
  8
0
  6
CONTINUOUS
 10
415.01209444142751
 20
639.3457030074976
 30
0.0
 11
447.08198444142738
 21
638.2257930074976
 31
0.0
  0
LINE
  5
8A9B
  8
0
  6
CONTINUOUS
 10
415.01215444142758
 20
786.34573300749776
 30
0.0
 11
446.6168344414275
 21
787.44936300749771
 31
0.0
  0
ARC
  5
8ACC
  8
0
  6
CONTINUOUS
 10
446.51215444142758
 20
790.44753300749755
 30
0.0
 40
3.0
 50
271.99999999999721
 51
0.0
  0
ARC
  5
8ACD
  8
0
  6
CONTINUOUS
 10
446.51215444142758
 20
635.24389300749783
 30
0.0
 40
3.0
 50
0.0
 51
88.000000000002785
  0
LINE
  5
8AF3
  8
0
 10
415.01215444142758
 20
639.34573050749782
 30
0.0
 11
415.01215444142758
 21
786.34573550749758
 31
0.0
  0
ARC
  5
8AF4
  8
0
 10
406.01215444142758
 20
650.80692500749774
 30
0.0
 40
1.0
 50
180.0
 51
270.0
  0
ARC
  5
8AF5
  8
0
 10
406.01215444142758
 20
774.88454100749755
 30
0.0
 40
1.0
 50
90.0
 51
180.0
  0
ARC
  5
8AF6
  8
0
  6
CONTINUOUS
 10
402.61216144142782
 20
658.53676000749783
 30
0.0
 40
2.2000009999999981
 50
90.000021999998324
 51
179.9999969999958
  0
ARC
  5
8AF7
  8
0
  6
CONTINUOUS
 10
402.61216144142782
 20
653.9367540074976
 30
0.0
 40
2.1999970000000002
 50
180.00001799999919
 51
270.0
  0
LINE
  5
8AF8
  8
0
  6
CONTINUOUS
 10
405.01215244142782
 20
656.28620200749765
 30
0.0
 11
403.71215244142792
 21
657.03675700749784
 31
0.0
  0
LINE
  5
8AF9
  8
0
  6
CONTINUOUS
 10
405.01215244142782
 20
655.28620200749765
 30
0.0
 11
403.71215244142792
 21
656.0367570074975
 31
0.0
  0
LINE
  5
8AFA
  8
0
  6
CONTINUOUS
 10
403.71215244142792
 20
651.63675700749752
 30
0.0
 11
405.01215244142782
 21
651.63675700749752
 31
0.0
  0
LINE
  5
8AFB
  8
0
  6
CONTINUOUS
 10
403.71215244142792
 20
660.83675700749757
 30
0.0
 11
405.01215244142782
 21
660.83675700749757
 31
0.0
  0
LINE
  5
8AFC
  8
0
  6
CONTINUOUS
 10
405.01215244142782
 20
651.63675700749752
 30
0.0
 11
405.01215244142782
 21
660.83675700749757
 31
0.0
  0
LINE
  5
8AFD
  8
0
  6
CONTINUOUS
 10
400.4121494414278
 20
653.9367540074976
 30
0.0
 11
400.4121494414278
 21
658.53676000749783
 31
0.0
  0
LINE
  5
8AFE
  8
0
  6
CONTINUOUS
 10
403.71215244142792
 20
651.63675700749752
 30
0.0
 11
403.71215244142792
 21
660.83675700749757
 31
0.0
  0
LINE
  5
8AFF
  8
0
  6
CONTINUOUS
 10
403.71215244142792
 20
660.73675700749754
 30
0.0
 11
402.61216144142782
 21
660.73675700749754
 31
0.0
  0
LINE
  5
8B00
  8
0
  6
CONTINUOUS
 10
403.71215244142792
 20
651.73675700749754
 30
0.0
 11
402.61216144142782
 21
651.73675700749754
 31
0.0
  0
ARC
  5
8B01
  8
0
  6
CONTINUOUS
 10
402.6121634414277
 20
767.15470700749745
 30
0.0
 40
2.2000009999999981
 50
180.00000299999761
 51
269.99997799999522
  0
ARC
  5
8B02
  8
0
  6
CONTINUOUS
 10
402.6121634414277
 20
771.75471300749757
 30
0.0
 40
2.1999970000000002
 50
90.0
 51
179.99998200000081
  0
LINE
  5
8B03
  8
0
  6
CONTINUOUS
 10
405.0121544414277
 20
769.40526500749752
 30
0.0
 11
403.71215444142769
 21
768.65471000749756
 31
0.0
  0
LINE
  5
8B04
  8
0
  6
CONTINUOUS
 10
405.0121544414277
 20
770.40526500749775
 30
0.0
 11
403.71215444142769
 21
769.65471000749756
 31
0.0
  0
LINE
  5
8B05
  8
0
  6
CONTINUOUS
 10
403.71215444142769
 20
774.05471000749753
 30
0.0
 11
405.0121544414277
 21
774.05471000749753
 31
0.0
  0
LINE
  5
8B06
  8
0
  6
CONTINUOUS
 10
403.71215444142769
 20
764.85471000749772
 30
0.0
 11
405.0121544414277
 21
764.85471000749772
 31
0.0
  0
LINE
  5
8B07
  8
0
  6
CONTINUOUS
 10
405.0121544414277
 20
774.05471000749753
 30
0.0
 11
405.0121544414277
 21
764.85471000749772
 31
0.0
  0
LINE
  5
8B08
  8
0
  6
CONTINUOUS
 10
400.41215144142762
 20
771.75471300749757
 30
0.0
 11
400.41215144142762
 21
767.15470700749745
 31
0.0
  0
LINE
  5
8B09
  8
0
  6
CONTINUOUS
 10
403.71215444142769
 20
774.05471000749753
 30
0.0
 11
403.71215444142769
 21
764.85471000749772
 31
0.0
  0
LINE
  5
8B0A
  8
0
  6
CONTINUOUS
 10
403.71215444142769
 20
764.95471000749751
 30
0.0
 11
402.6121634414277
 21
764.95471000749751
 31
0.0
  0
LINE
  5
8B0B
  8
0
  6
CONTINUOUS
 10
403.71215444142769
 20
773.95471000749774
 30
0.0
 11
402.6121634414277
 21
773.95471000749774
 31
0.0
  0
LINE
  5
8B0C
  8
0
 10
415.01215444142758
 20
639.34573300749776
 30
0.0
 11
415.01215444142758
 21
786.34573800749752
 31
0.0
  0
ARC
  5
8B0D
  8
0
 10
253.03102944142771
 20
634.37080300749756
 30
0.0
 40
2.0
 50
60.31169699999522
 51
90.0
  0
LINE
  5
8B0E
  8
0
 10
243.0121544414277
 20
636.37080300749767
 30
0.0
 11
253.03102944142771
 21
636.37080300749767
 31
0.0
  0
ARC
  5
8B0F
  8
0
 10
251.08678144142769
 20
637.07667500749756
 30
0.0
 40
2.0
 50
11.084970000004841
 51
90.0
  0
LINE
  5
8B10
  8
0
 10
243.0121544414277
 20
639.07667500749744
 30
0.0
 11
251.08678144142769
 21
639.07667500749744
 31
0.0
  0
ARC
  5
8B11
  8
0
 10
255.0121544414277
 20
637.84573300749753
 30
0.0
 40
2.0
 50
180.0
 51
270.0
  0
ARC
  5
8B12
  8
0
 10
255.0121544414277
 20
646.34573700749752
 30
0.0
 40
2.0
 50
180.0
 51
270.0
  0
LINE
  5
8B13
  8
0
 10
253.0121544414277
 20
660.04622000749782
 30
0.0
 11
253.0121544414277
 21
637.84573300749753
 31
0.0
  0
LINE
  5
8B14
  8
0
 10
243.0121544414277
 20
658.65843600749781
 30
0.0
 11
253.0121544414277
 21
658.65843600749781
 31
0.0
  0
LINE
  5
8B15
  8
0
 10
243.0121544414277
 20
647.08174100749784
 30
0.0
 11
253.0121544414277
 21
647.08174100749784
 31
0.0
  0
LINE
  5
8B16
  8
0
 10
243.0121544414277
 20
641.02157800749762
 30
0.0
 11
253.0121544414277
 21
641.02157800749762
 31
0.0
  0
ARC
  5
8B17
  8
0
 10
403.01215244142742
 20
646.34572900749765
 30
0.0
 40
2.0
 50
269.99999799999722
 51
359.99999799999722
  0
LINE
  5
8B18
  8
0
 10
255.0121544414277
 20
662.04622000749748
 30
0.0
 11
403.01215144142748
 21
662.04622000749748
 31
0.0
  0
LINE
  5
8B19
  8
0
 10
255.0121544414277
 20
644.34573700749775
 30
0.0
 11
403.01785544142763
 21
644.34573700749775
 31
0.0
  0
LINE
  5
8B1A
  8
0
 10
405.0121544414277
 20
639.34573300749776
 30
0.0
 11
415.01215144142759
 21
639.34573300749776
 31
0.0
  0
LINE
  5
8B1B
  8
0
 10
406.01215444142758
 20
649.80692500749763
 30
0.0
 11
415.01215244142782
 21
649.80692500749763
 31
0.0
  0
LINE
  5
8B1C
  8
0
 10
253.0121544414277
 20
787.79852100749747
 30
0.0
 11
253.0121544414277
 21
784.75971700749756
 31
0.0
  0
ARC
  5
8B1D
  8
0
 10
255.0121544414277
 20
779.34573700749752
 30
0.0
 40
2.0
 50
90.0
 51
180.0
  0
LINE
  5
8B1E
  8
0
 10
243.0121544414277
 20
767.12033400749772
 30
0.0
 11
253.0121544414277
 21
767.12033400749772
 31
0.0
  0
LINE
  5
8B1F
  8
0
 10
243.0121544414277
 20
778.6863530074977
 30
0.0
 11
253.0121544414277
 21
778.6863530074977
 31
0.0
  0
LINE
  5
8B20
  8
0
 10
243.0121544414277
 20
784.75971700749756
 30
0.0
 11
253.0121544414277
 21
784.75971700749756
 31
0.0
  0
LINE
  5
8B21
  8
0
 10
253.0121544414277
 20
789.32397900749754
 30
0.0
 11
253.0121544414277
 21
788.7207030074976
 31
0.0
  0
ARC
  5
8B22
  8
0
 10
255.0121544414277
 20
787.79852100749747
 30
0.0
 40
2.0
 50
90.0
 51
180.0
  0
LINE
  5
8B23
  8
0
 10
243.0121544414277
 20
790.73887800749753
 30
0.0
 11
251.49282544142781
 21
790.73887800749753
 31
0.0
  0
LINE
  5
8B24
  8
0
 10
243.0121544414277
 20
789.42436600749761
 30
0.0
 11
251.1634654414278
 21
789.42436600749761
 31
0.0
  0
ARC
  5
8B25
  8
0
 10
251.1634654414278
 20
791.4243660074975
 30
0.0
 40
2.0
 50
270.0
 51
344.19037399999792
  0
ARC
  5
8B26
  8
0
 10
255.0121544414277
 20
790.33459900749745
 30
0.0
 40
2.0
 50
90.0
 51
164.19037399999749
  0
ARC
  5
8B27
  8
0
 10
251.49282544142781
 20
792.73887800749753
 30
0.0
 40
2.0
 50
270.0
 51
331.62214300000107
  0
ARC
  5
8B28
  8
0
 10
255.0121544414277
 20
790.8377410074977
 30
0.0
 40
2.0
 50
90.0
 51
151.62214399999789
  0
ARC
  5
8B29
  8
0
 10
403.01215444142758
 20
779.34573700749752
 30
0.0
 40
2.0
 50
0.0
 51
90.0
  0
ARC
  5
8B2A
  8
0
 10
401.88466244142779
 20
787.79852100749747
 30
0.0
 40
2.0
 50
15.00000000000078
 51
90.0
  0
LINE
  5
8B2B
  8
0
 10
407.01215444142758
 20
776.38986700749751
 30
0.0
 11
403.81651444142773
 21
788.31615900749739
 31
0.0
  0
ARC
  5
8B2C
  8
0
 10
402.8491784414278
 20
789.32397900749754
 30
0.0
 40
2.0
 50
15.00000000000078
 51
90.0
  0
LINE
  5
8B2D
  8
0
 10
407.01215444142758
 20
781.51495000749753
 30
0.0
 11
404.78103044142767
 21
789.84161800749746
 31
0.0
  0
ARC
  5
8B2E
  8
0
 10
403.39687244142738
 20
790.33459900749745
 30
0.0
 40
2.0
 50
15.00000000000078
 51
90.0
  0
LINE
  5
8B2F
  8
0
 10
407.01215444142758
 20
784.5695870074976
 30
0.0
 11
405.32872344142771
 21
790.85223700749759
 31
0.0
  0
ARC
  5
8B30
  8
0
 10
403.67790644142758
 20
790.8377410074977
 30
0.0
 40
2.0
 50
15.00000000000078
 51
90.0
  0
LINE
  5
8B31
  8
0
 10
407.01215444142758
 20
786.12156500749745
 30
0.0
 11
405.60975844142769
 21
791.35538000749762
 31
0.0
  0
ARC
  5
8B32
  8
0
 10
251.0121544414277
 20
788.7207030074976
 30
0.0
 40
2.0
 50
270.0
 51
0.0
  0
ARC
  5
8B33
  8
0
 10
255.0121544414277
 20
789.32397900749754
 30
0.0
 40
2.0
 50
90.0
 51
180.0
  0
LINE
  5
8B34
  8
0
 10
243.0121544414277
 20
786.72070300749749
 30
0.0
 11
251.0121544414277
 21
786.72070300749749
 31
0.0
  0
LINE
  5
8B35
  8
0
 10
253.0121544414277
 20
784.75971700749756
 30
0.0
 11
253.0121544414277
 21
765.71707300749745
 31
0.0
  0
LINE
  5
8B36
  8
0
 10
406.01215444142758
 20
775.88454100749755
 30
0.0
 11
415.01215444142758
 21
775.88454100749755
 31
0.0
  0
LINE
  5
8B37
  8
0
 10
255.0121544414277
 20
763.71707300749745
 30
0.0
 11
403.01215444142758
 21
763.71707300749745
 31
0.0
  0
LINE
  5
8B38
  8
0
 10
255.0121544414277
 20
792.83774100749747
 30
0.0
 11
403.67790644142758
 21
792.83774100749747
 31
0.0
  0
LINE
  5
8B39
  8
0
 10
255.0121544414277
 20
781.34573700749775
 30
0.0
 11
403.01215444142758
 21
781.34573700749775
 31
0.0
  0
LINE
  5
8B3A
  8
0
 10
255.0121544414277
 20
789.79852100749758
 30
0.0
 11
401.88466244142779
 21
789.79852100749758
 31
0.0
  0
LINE
  5
8B3B
  8
0
 10
255.0121544414277
 20
791.32397900749766
 30
0.0
 11
402.8491784414278
 21
791.32397900749766
 31
0.0
  0
LINE
  5
8B3C
  8
0
 10
255.0121544414277
 20
792.33459900749756
 30
0.0
 11
403.39687244142738
 21
792.33459900749756
 31
0.0
  0
LINE
  5
8B3D
  8
0
 10
392.01215444142792
 20
635.84573300749776
 30
0.0
 11
392.01215444142792
 21
633.84573300749753
 31
0.0
  0
LINE
  5
8B3E
  8
0
 10
325.01215444142781
 20
635.84573300749776
 30
0.0
 11
325.01215444142781
 21
633.84573300749753
 31
0.0
  0
LINE
  5
8B3F
  8
0
 10
325.01215444142781
 20
633.84573300749753
 30
0.0
 11
392.01215444142792
 21
633.84573300749753
 31
0.0
  0
LINE
  5
8B40
  8
0
 10
255.0121544414277
 20
635.84573300749776
 30
0.0
 11
401.79267444142761
 21
635.84573300749776
 31
0.0
  0
LINE
  5
8B41
  8
0
 10
368.51215444142792
 20
738.84573300749776
 30
0.0
 11
243.0121544414277
 21
738.84573300749776
 31
0.0
  0
LINE
  5
8B42
  8
0
 10
368.51215444142792
 20
686.84573300749776
 30
0.0
 11
243.0121544414277
 21
686.84573300749776
 31
0.0
  0
LINE
  5
8B43
  8
0
 10
384.5121544414277
 20
739.84573300749776
 30
0.0
 11
384.5121544414277
 21
745.84573300749753
 31
0.0
  0
LINE
  5
8B44
  8
0
 10
369.5121544414277
 20
739.84573300749776
 30
0.0
 11
369.5121544414277
 21
745.84573300749753
 31
0.0
  0
LINE
  5
8B45
  8
0
 10
384.5121544414277
 20
685.84573300749776
 30
0.0
 11
384.5121544414277
 21
679.84573300749753
 31
0.0
  0
LINE
  5
8B46
  8
0
 10
369.5121544414277
 20
685.84573300749776
 30
0.0
 11
369.5121544414277
 21
679.84573300749753
 31
0.0
  0
LINE
  5
8B47
  8
0
 10
341.0121544414277
 20
733.34573300749753
 30
0.0
 11
341.0121544414277
 21
692.34573300749753
 31
0.0
  0
LINE
  5
8B48
  8
0
 10
404.0121544414277
 20
733.34573300749753
 30
0.0
 11
404.0121544414277
 21
692.34573300749753
 31
0.0
  0
LINE
  5
8B49
  8
0
 10
341.0121544414277
 20
733.34573300749753
 30
0.0
 11
404.0121544414277
 21
733.34573300749753
 31
0.0
  0
LINE
  5
8B4A
  8
0
 10
341.0121544414277
 20
692.34573300749753
 30
0.0
 11
404.0121544414277
 21
692.34573300749753
 31
0.0
  0
LINE
  5
8B4B
  8
0
 10
341.0121544414277
 20
725.84573300749753
 30
0.0
 11
404.0121544414277
 21
725.84573300749753
 31
0.0
  0
LINE
  5
8B4C
  8
0
 10
253.0121544414277
 20
715.84573300749776
 30
0.0
 11
253.0121544414277
 21
709.84573300749776
 31
0.0
  0
LINE
  5
8B4D
  8
0
 10
403.72425444142777
 20
637.32702300749725
 30
0.0
 11
404.7121644414276
 21
641.0057030074978
 31
0.0
  0
LINE
  5
8B4E
  8
0
 10
403.13617444142778
 20
637.32702300749725
 30
0.0
 11
404.7121644414276
 21
643.19574300749753
 31
0.0
  0
LINE
  5
8B4F
  8
0
 10
405.0121544414277
 20
675.88751300749743
 30
0.0
 11
405.0121544414277
 21
639.34573300749776
 31
0.0
  0
LINE
  5
8B50
  8
0
 10
404.0121544414277
 20
688.84573300749776
 30
0.0
 11
243.0121544414277
 21
688.84573300749776
 31
0.0
  0
LINE
  5
8B51
  8
0
 10
404.0121544414277
 20
686.84573300749776
 30
0.0
 11
385.51215444142792
 21
686.84573300749776
 31
0.0
  0
LINE
  5
8B52
  8
0
 10
337.01215444142781
 20
696.84573300749753
 30
0.0
 11
243.0121544414277
 21
696.84573300749753
 31
0.0
  0
LINE
  5
8B53
  8
0
 10
337.01215444142781
 20
698.84573300749776
 30
0.0
 11
243.0121544414277
 21
698.84573300749776
 31
0.0
  0
LINE
  5
8B54
  8
0
 10
337.01215444142781
 20
706.84573300749776
 30
0.0
 11
243.0121544414277
 21
706.84573300749776
 31
0.0
  0
LINE
  5
8B55
  8
0
 10
337.01215444142781
 20
708.84573300749753
 30
0.0
 11
254.01215444142781
 21
708.84573300749753
 31
0.0
  0
LINE
  5
8B56
  8
0
 10
404.0121544414277
 20
666.84573300749753
 30
0.0
 11
243.0121544414277
 21
666.84573300749753
 31
0.0
  0
LINE
  5
8B57
  8
0
 10
404.0121544414277
 20
678.84573300749776
 30
0.0
 11
243.0121544414277
 21
678.84573300749776
 31
0.0
  0
LINE
  5
8B58
  8
0
 10
404.0121544414277
 20
676.84573300749776
 30
0.0
 11
243.0121544414277
 21
676.84573300749776
 31
0.0
  0
LINE
  5
8B59
  8
0
 10
404.0121544414277
 20
668.84573300749776
 30
0.0
 11
243.0121544414277
 21
668.84573300749776
 31
0.0
  0
LINE
  5
8B5A
  8
0
 10
404.0121544414277
 20
756.84573300749776
 30
0.0
 11
243.0121544414277
 21
756.84573300749776
 31
0.0
  0
LINE
  5
8B5B
  8
0
 10
404.0121544414277
 20
748.84573300749776
 30
0.0
 11
243.0121544414277
 21
748.84573300749776
 31
0.0
  0
LINE
  5
8B5C
  8
0
 10
404.0121544414277
 20
746.84573300749753
 30
0.0
 11
243.0121544414277
 21
746.84573300749753
 31
0.0
  0
LINE
  5
8B5D
  8
0
 10
404.0121544414277
 20
758.84573300749753
 30
0.0
 11
243.0121544414277
 21
758.84573300749753
 31
0.0
  0
LINE
  5
8B5E
  8
0
 10
337.01215444142781
 20
716.84573300749753
 30
0.0
 11
254.01215444142781
 21
716.84573300749753
 31
0.0
  0
LINE
  5
8B5F
  8
0
 10
337.01215444142781
 20
718.84573300749776
 30
0.0
 11
243.0121544414277
 21
718.84573300749776
 31
0.0
  0
LINE
  5
8B60
  8
0
 10
337.01215444142781
 20
726.84573300749776
 30
0.0
 11
243.0121544414277
 21
726.84573300749776
 31
0.0
  0
LINE
  5
8B61
  8
0
 10
337.01215444142781
 20
728.84573300749776
 30
0.0
 11
243.0121544414277
 21
728.84573300749776
 31
0.0
  0
LINE
  5
8B62
  8
0
 10
404.0121544414277
 20
738.84573300749776
 30
0.0
 11
385.51215444142792
 21
738.84573300749776
 31
0.0
  0
LINE
  5
8B63
  8
0
 10
404.0121544414277
 20
736.84573300749776
 30
0.0
 11
243.0121544414277
 21
736.84573300749776
 31
0.0
  0
LINE
  5
8B64
  8
0
 10
405.0121544414277
 20
749.80395300749751
 30
0.0
 11
405.0121544414277
 21
779.34573700749752
 31
0.0
  0
ARC
  5
8B65
  8
0
 10
401.79267444142761
 20
637.84573300749753
 30
0.0
 40
2.0
 50
269.999989999999
 51
344.96831000000191
  0
ARC
  5
8B66
  8
0
 10
401.20459444142767
 20
637.84573300749753
 30
0.0
 40
2.0
 50
269.999989999999
 51
344.96831000000191
  0
ARC
  5
8B67
  8
0
 10
385.51215444142792
 20
679.84573300749753
 30
0.0
 40
1.0
 50
179.999989999999
 51
270.0
  0
ARC
  5
8B68
  8
0
 10
368.51215444142792
 20
679.84573300749753
 30
0.0
 40
1.0
 50
269.999989999999
 51
0.0000010000014034
  0
ARC
  5
8B69
  8
0
 10
368.51215444142792
 20
745.84573300749753
 30
0.0
 40
1.0
 50
0.0
 51
90.00000299999769
  0
ARC
  5
8B6A
  8
0
 10
385.51215444142792
 20
745.84573300749753
 30
0.0
 40
1.0
 50
90.00000299999769
 51
180.00001000000091
  0
ARC
  5
8B6B
  8
0
 10
385.51215444142792
 20
685.84573300749776
 30
0.0
 40
1.0
 50
90.00000299999769
 51
180.00001000000091
  0
ARC
  5
8B6C
  8
0
 10
368.51215444142792
 20
685.84573300749776
 30
0.0
 40
1.0
 50
0.0
 51
90.00000299999769
  0
ARC
  5
8B6D
  8
0
 10
385.51215444142792
 20
739.84573300749776
 30
0.0
 40
1.0
 50
179.999989999999
 51
270.0
  0
ARC
  5
8B6E
  8
0
 10
368.51215444142792
 20
739.84573300749776
 30
0.0
 40
1.0
 50
269.999989999999
 51
0.0000010000014034
  0
CIRCLE
  5
8B6F
  8
0
 10
379.51215444142792
 20
741.34573300749776
 30
0.0
 40
1.0
  0
CIRCLE
  5
8B70
  8
0
 10
374.51215444142792
 20
741.34573300749776
 30
0.0
 40
1.149999999999999
  0
CIRCLE
  5
8B71
  8
0
 10
374.51215444142792
 20
741.34573300749776
 30
0.0
 40
1.1000000000000001
  0
CIRCLE
  5
8B72
  8
0
 10
374.51215444142792
 20
684.34573300749753
 30
0.0
 40
1.1000000000000001
  0
CIRCLE
  5
8B73
  8
0
 10
374.51215444142792
 20
684.34573300749753
 30
0.0
 40
1.149999999999999
  0
CIRCLE
  5
8B74
  8
0
 10
379.51215444142792
 20
684.34573300749753
 30
0.0
 40
1.0
  0
ARC
  5
8B75
  8
0
 10
337.01215444142781
 20
727.84573300749776
 30
0.0
 40
1.0
 50
269.999989999999
 51
90.00000299999769
  0
ARC
  5
8B76
  8
0
 10
337.01215444142781
 20
717.84573300749753
 30
0.0
 40
1.0
 50
269.999989999999
 51
90.00000299999769
  0
ARC
  5
8B77
  8
0
 10
337.01215444142781
 20
707.84573300749776
 30
0.0
 40
1.0
 50
269.999989999999
 51
90.00000299999769
  0
ARC
  5
8B78
  8
0
 10
337.01215444142781
 20
697.84573300749776
 30
0.0
 40
1.0
 50
269.999989999999
 51
90.00000299999769
  0
ARC
  5
8B79
  8
0
 10
402.06214444142779
 20
677.84573300749776
 30
0.0
 40
1.0
 50
269.999989999999
 51
90.00000299999769
  0
ARC
  5
8B7A
  8
0
 10
404.0121544414277
 20
677.84573300749776
 30
0.0
 40
1.0
 50
269.999989999999
 51
90.00000299999769
  0
ARC
  5
8B7B
  8
0
 10
402.06214444142779
 20
687.84573300749753
 30
0.0
 40
1.0
 50
269.999989999999
 51
90.00000299999769
  0
ARC
  5
8B7C
  8
0
 10
404.0121544414277
 20
687.84573300749753
 30
0.0
 40
1.0
 50
269.999989999999
 51
90.00000299999769
  0
ARC
  5
8B7D
  8
0
 10
402.06214444142779
 20
737.84573300749753
 30
0.0
 40
1.0
 50
269.999989999999
 51
90.00000299999769
  0
ARC
  5
8B7E
  8
0
 10
404.0121544414277
 20
737.84573300749753
 30
0.0
 40
1.0
 50
269.999989999999
 51
90.00000299999769
  0
ARC
  5
8B7F
  8
0
 10
402.06214444142779
 20
747.84573300749776
 30
0.0
 40
1.0
 50
269.999989999999
 51
90.00000299999769
  0
ARC
  5
8B80
  8
0
 10
404.0121544414277
 20
747.84573300749776
 30
0.0
 40
1.0
 50
269.999989999999
 51
90.00000299999769
  0
ARC
  5
8B81
  8
0
 10
254.01215444142781
 20
715.84573300749776
 30
0.0
 40
1.0
 50
90.00000299999769
 51
180.00001000000091
  0
ARC
  5
8B82
  8
0
 10
254.01215444142781
 20
709.84573300749776
 30
0.0
 40
1.0
 50
179.999989999999
 51
270.0
  0
ARC
  5
8B83
  8
0
 10
254.01212444142769
 20
697.84573300749776
 30
0.0
 40
1.0
 50
90.00000299999769
 51
270.0
  0
ARC
  5
8B84
  8
0
 10
254.01212444142769
 20
687.84573300749753
 30
0.0
 40
1.0
 50
90.00000299999769
 51
270.0
  0
ARC
  5
8B85
  8
0
 10
402.06214444142779
 20
667.84573300749753
 30
0.0
 40
1.0
 50
269.999989999999
 51
90.00000299999769
  0
ARC
  5
8B86
  8
0
 10
404.0121544414277
 20
667.84573300749753
 30
0.0
 40
1.0
 50
269.999989999999
 51
90.00000299999769
  0
ARC
  5
8B87
  8
0
 10
254.01212444142769
 20
667.84573300749753
 30
0.0
 40
1.0
 50
90.00000299999769
 51
270.0
  0
ARC
  5
8B88
  8
0
 10
254.01212444142769
 20
677.84573300749776
 30
0.0
 40
1.0
 50
90.00000299999769
 51
270.0
  0
ARC
  5
8B89
  8
0
 10
406.15821444142762
 20
640.62533300749783
 30
0.0
 40
1.4952499999999991
 50
140.03764999999851
 51
165.26260000000221
  0
ARC
  5
8B8A
  8
0
 10
406.1531444414278
 20
642.80123300749756
 30
0.0
 40
1.494020999999998
 50
139.79258000000141
 51
164.69034000000011
  0
ARC
  5
8B8B
  8
0
 10
406.1563144414277
 20
786.61279300749754
 30
0.0
 40
1.495147999999999
 50
195.00188999999639
 51
195.00621300000481
  0
ARC
  5
8B8C
  8
0
 10
254.01212444142769
 20
747.84573300749776
 30
0.0
 40
1.0
 50
90.00000299999769
 51
270.0
  0
ARC
  5
8B8D
  8
0
 10
254.01212444142769
 20
757.84573300749776
 30
0.0
 40
1.0
 50
90.00000299999769
 51
270.0
  0
ARC
  5
8B8E
  8
0
 10
404.0121544414277
 20
757.84573300749776
 30
0.0
 40
1.0
 50
269.999989999999
 51
90.00000299999769
  0
ARC
  5
8B8F
  8
0
 10
402.06214444142779
 20
757.84573300749776
 30
0.0
 40
1.0
 50
269.999989999999
 51
90.00000299999769
  0
ARC
  5
8B90
  8
0
 10
254.01212444142769
 20
737.84573300749753
 30
0.0
 40
1.0
 50
90.00000299999769
 51
270.0
  0
ARC
  5
8B91
  8
0
 10
254.01212444142769
 20
727.84573300749776
 30
0.0
 40
1.0
 50
90.00000299999769
 51
270.0
  0
LINE
  5
8B92
  8
0
 10
415.01216044142768
 20
786.34573800749752
 30
0.0
 11
406.95208744142758
 21
786.34573800749752
 31
0.0
  0
POINT
  5
8B93
  8
0
 10
358.51215444142781
 20
630.84573300749776
 30
0.0
  0
LINE
  5
8B94
  8
0
 10
401.2621544414277
 20
631.34573300749776
 30
0.0
 11
317.26215444142781
 21
631.34573300749776
 31
0.0
  0
LINE
  5
8B95
  8
0
 10
318.86215444142778
 20
601.34573300749753
 30
0.0
 11
395.16215444142779
 21
614.34573300749776
 31
0.0
  0
LINE
  5
8B96
  8
0
 10
318.78215444142768
 20
602.34573300749776
 30
0.0
 11
350.7621544414277
 21
607.79573300749757
 31
0.0
  0
LINE
  5
8B97
  8
0
 10
394.66215444142767
 20
597.34573300749764
 30
0.0
 11
319.1921544414277
 21
597.34573300749764
 31
0.0
  0
LINE
  5
8B98
  8
0
 10
395.49215444142777
 20
610.34573300749776
 30
0.0
 11
319.1921544414277
 21
597.34573300749764
 31
0.0
  0
ARC
  5
8B99
  8
0
 10
314.56952144142781
 20
606.03836600749764
 30
0.0
 40
0.307456
 50
91.373079999999348
 51
178.62692000000061
  0
ARC
  5
8B9A
  8
0
 10
315.76219944142781
 20
598.84577800749776
 30
0.0
 40
1.5000450000000001
 50
180.00171899999609
 51
269.99828099999741
  0
ARC
  5
8B9B
  8
0
 10
315.46207244142778
 20
606.04565100749744
 30
0.0
 40
0.300082
 50
0.0157330000002622
 51
89.98426699999969
  0
ARC
  5
8B9C
  8
0
 10
315.06952144142781
 20
601.03836600749764
 30
0.0
 40
0.307456
 50
91.373079999999348
 51
178.62692000000061
  0
ARC
  5
8B9D
  8
0
 10
316.26219944142781
 20
598.84577800749776
 30
0.0
 40
1.5000450000000001
 50
180.00171899999609
 51
269.99828099999741
  0
ARC
  5
8B9E
  8
0
 10
315.06952144142781
 20
602.03836600749764
 30
0.0
 40
0.307456
 50
91.373079999999348
 51
178.62692000000061
  0
ARC
  5
8B9F
  8
0
 10
317.26956444142769
 20
630.33832300749759
 30
0.0
 40
1.007436999999999
 50
90.421438000004656
 51
179.5785619999954
  0
LINE
  5
8BA0
  8
0
 10
315.7621544414277
 20
597.34573300749764
 30
0.0
 11
316.06215444142771
 21
597.34573300749764
 31
0.0
  0
LINE
  5
8BA1
  8
0
 10
314.26215444142781
 20
606.04573300749757
 30
0.0
 11
314.26215444142781
 21
598.84573300749776
 31
0.0
  0
LINE
  5
8BA2
  8
0
 10
315.06215444142771
 20
606.34573300749776
 30
0.0
 11
314.56215444142771
 21
606.34573300749776
 31
0.0
  0
LINE
  5
8BA3
  8
0
 10
315.4621544414278
 20
606.34573300749776
 30
0.0
 11
315.06215444142771
 21
606.34573300749776
 31
0.0
  0
LINE
  5
8BA4
  8
0
 10
314.76215444142781
 20
601.04573300749757
 30
0.0
 11
314.76215444142781
 21
598.84573300749776
 31
0.0
  0
LINE
  5
8BA5
  8
0
 10
316.26215444142781
 20
597.34573300749764
 30
0.0
 11
319.1921544414277
 21
597.34573300749764
 31
0.0
  0
LINE
  5
8BA6
  8
0
 10
315.9621544414278
 20
607.14573300749748
 30
0.0
 11
316.16215444142767
 21
607.34573300749776
 31
0.0
  0
LINE
  5
8BA7
  8
0
 10
314.76215444142781
 20
602.04573300749757
 30
0.0
 11
314.76215444142781
 21
601.34573300749753
 31
0.0
  0
LINE
  5
8BA8
  8
0
 10
318.78215444142768
 20
602.34573300749776
 30
0.0
 11
315.06215444142771
 21
602.34573300749776
 31
0.0
  0
LINE
  5
8BA9
  8
0
 10
316.26215444142781
 20
630.34573300749753
 30
0.0
 11
316.26215444142781
 21
607.34573300749776
 31
0.0
  0
LINE
  5
8BAA
  8
0
 10
315.9621544414278
 20
602.34573300749776
 30
0.0
 11
315.9621544414278
 21
603.33573300749765
 31
0.0
  0
LINE
  5
8BAB
  8
0
 10
316.26215444142781
 20
607.34573300749776
 30
0.0
 11
316.26215444142781
 21
602.34573300749776
 31
0.0
  0
LINE
  5
8BAC
  8
0
 10
315.9621544414278
 20
603.33573300749765
 30
0.0
 11
315.7621544414277
 21
603.33573300749765
 31
0.0
  0
LINE
  5
8BAD
  8
0
 10
315.9621544414278
 20
603.33573300749765
 30
0.0
 11
315.9621544414278
 21
604.53573300749781
 31
0.0
  0
LINE
  5
8BAE
  8
0
 10
315.7621544414277
 20
604.53573300749781
 30
0.0
 11
315.9621544414278
 21
604.53573300749781
 31
0.0
  0
LINE
  5
8BAF
  8
0
 10
315.9621544414278
 20
604.53573300749781
 30
0.0
 11
315.9621544414278
 21
607.14573300749748
 31
0.0
  0
LINE
  5
8BB0
  8
0
 10
316.16215444142767
 20
607.34573300749776
 30
0.0
 11
316.26215444142781
 21
607.34573300749776
 31
0.0
  0
LINE
  5
8BB1
  8
0
 10
314.76215444142781
 20
601.34573300749753
 30
0.0
 11
318.86215444142778
 21
601.34573300749753
 31
0.0
  0
LINE
  5
8BB2
  8
0
 10
315.7621544414277
 20
602.34573300749776
 30
0.0
 11
315.7621544414277
 21
606.04573300749757
 31
0.0
  0
LINE
  5
8BB3
  8
0
 10
402.2621544414277
 20
610.84573300749776
 30
0.0
 11
402.2621544414277
 21
630.34573300749753
 31
0.0
  0
LINE
  5
8BB4
  8
0
 10
322.06215444142771
 20
631.34573300749776
 30
0.0
 11
322.06215444142771
 21
614.34573300749776
 31
0.0
  0
LINE
  5
8BB5
  8
0
 10
388.54215444142773
 20
614.22573300749752
 30
0.0
 11
388.54215444142773
 21
631.34573300749776
 31
0.0
  0
LINE
  5
8BB6
  8
0
 10
340.66215444142779
 20
631.34573300749776
 30
0.0
 11
340.66215444142779
 21
614.34573300749776
 31
0.0
  0
ARC
  5
8BB7
  8
0
 10
394.6695734414277
 20
599.83831500749761
 30
0.0
 40
2.4925929999999981
 50
269.82947499999727
 51
0.1705250000027442
  0
ARC
  5
8BB8
  8
0
 10
397.66957344142781
 20
609.83831500749784
 30
0.0
 40
0.507473
 50
90.837610999997921
 51
179.16238900000209
  0
CIRCLE
  5
8BB9
  8
0
 10
380.36955944142773
 20
614.33835000749752
 30
0.0
 40
0.75
  0
CIRCLE
  5
8BBA
  8
0
 10
331.36956644142782
 20
614.33835000749752
 30
0.0
 40
6.299999999999998
  0
ARC
  5
8BBB
  8
0
 10
331.36215444142778
 20
614.34573300749776
 30
0.0
 40
9.3000030000000002
 50
180.0
 51
0.0
  0
LINE
  5
8BBC
  8
0
 10
386.89215444142769
 20
597.34573300749764
 30
0.0
 11
386.89215444142769
 21
608.87573300749784
 31
0.0
  0
LINE
  5
8BBD
  8
0
 10
387.76215444142792
 20
609.02573300749782
 30
0.0
 11
387.76215444142792
 21
613.08573300749765
 31
0.0
  0
LINE
  5
8BBE
  8
0
 10
401.7621544414277
 20
610.34573300749776
 30
0.0
 11
395.49215444142777
 21
610.34573300749776
 31
0.0
  0
LINE
  5
8BBF
  8
0
 10
397.16215444142767
 20
609.84573300749776
 30
0.0
 11
397.16215444142767
 21
599.84573300749776
 31
0.0
  0
LINE
  5
8BC0
  8
0
 10
352.7621544414277
 20
608.13573300749749
 30
0.0
 11
354.96215444142791
 21
608.50573300749784
 31
0.0
  0
LINE
  5
8BC1
  8
0
 10
356.46215444142791
 20
608.76573300749783
 30
0.0
 11
358.66215444142767
 21
609.13573300749761
 31
0.0
  0
LINE
  5
8BC2
  8
0
 10
360.16215444142767
 20
609.39573300749737
 30
0.0
 11
362.36215444142778
 21
609.76573300749783
 31
0.0
  0
LINE
  5
8BC3
  8
0
 10
364.36215444142778
 20
610.10573300749752
 30
0.0
 11
366.06215444142771
 21
610.3957330074976
 31
0.0
  0
LINE
  5
8BC4
  8
0
 10
367.56215444142771
 20
610.65573300749736
 30
0.0
 11
369.77215444142792
 21
611.02573300749759
 31
0.0
  0
LINE
  5
8BC5
  8
0
 10
371.27215444142769
 20
611.28573300749781
 30
0.0
 11
373.47215444142779
 21
611.66573300749758
 31
0.0
  0
LINE
  5
8BC6
  8
0
 10
374.9721544414279
 20
611.91573300749724
 30
0.0
 11
377.17215444142772
 21
612.29573300749757
 31
0.0
  0
LINE
  5
8BC7
  8
0
 10
378.67215444142772
 20
612.54573300749769
 30
0.0
 11
395.08215444142792
 21
615.34573300749776
 31
0.0
  0
LINE
  5
8BC8
  8
0
 10
402.2621544414277
 20
615.34573300749776
 30
0.0
 11
395.08215444142792
 21
615.34573300749776
 31
0.0
  0
LINE
  5
8BC9
  8
0
 10
378.67215444142772
 20
612.54573300749769
 30
0.0
 11
378.67215444142772
 21
626.34573300749753
 31
0.0
  0
LINE
  5
8BCA
  8
0
 10
378.67215444142772
 20
626.34573300749753
 30
0.0
 11
377.17215444142772
 21
626.34573300749753
 31
0.0
  0
LINE
  5
8BCB
  8
0
 10
377.17215444142772
 20
626.34573300749753
 30
0.0
 11
377.17215444142772
 21
612.29573300749757
 31
0.0
  0
LINE
  5
8BCC
  8
0
 10
374.9721544414279
 20
611.91573300749724
 30
0.0
 11
374.9721544414279
 21
626.34573300749753
 31
0.0
  0
LINE
  5
8BCD
  8
0
 10
374.9721544414279
 20
626.34573300749753
 30
0.0
 11
373.47215444142779
 21
626.34573300749753
 31
0.0
  0
LINE
  5
8BCE
  8
0
 10
373.47215444142779
 20
626.34573300749753
 30
0.0
 11
373.47215444142779
 21
611.66573300749758
 31
0.0
  0
LINE
  5
8BCF
  8
0
 10
371.27215444142769
 20
611.28573300749781
 30
0.0
 11
371.27215444142769
 21
626.34573300749753
 31
0.0
  0
LINE
  5
8BD0
  8
0
 10
371.27215444142769
 20
626.34573300749753
 30
0.0
 11
369.77215444142792
 21
626.34573300749753
 31
0.0
  0
LINE
  5
8BD1
  8
0
 10
369.77215444142792
 20
626.34573300749753
 30
0.0
 11
369.77215444142792
 21
611.02573300749759
 31
0.0
  0
LINE
  5
8BD2
  8
0
 10
367.56215444142771
 20
610.65573300749736
 30
0.0
 11
367.56215444142771
 21
626.34573300749753
 31
0.0
  0
LINE
  5
8BD3
  8
0
 10
367.56215444142771
 20
626.34573300749753
 30
0.0
 11
366.06215444142771
 21
626.34573300749753
 31
0.0
  0
LINE
  5
8BD4
  8
0
 10
366.06215444142771
 20
626.34573300749753
 30
0.0
 11
366.06215444142771
 21
610.3957330074976
 31
0.0
  0
LINE
  5
8BD5
  8
0
 10
364.36215444142778
 20
610.10573300749752
 30
0.0
 11
364.36215444142778
 21
623.63573300749761
 31
0.0
  0
LINE
  5
8BD6
  8
0
 10
363.66215444142767
 20
626.34573300749753
 30
0.0
 11
362.36215444142778
 21
626.34573300749753
 31
0.0
  0
LINE
  5
8BD7
  8
0
 10
362.36215444142778
 20
626.34573300749753
 30
0.0
 11
362.36215444142778
 21
609.76573300749783
 31
0.0
  0
LINE
  5
8BD8
  8
0
 10
360.16215444142767
 20
609.39573300749737
 30
0.0
 11
360.16215444142767
 21
626.34573300749753
 31
0.0
  0
LINE
  5
8BD9
  8
0
 10
360.16215444142767
 20
626.34573300749753
 30
0.0
 11
358.66215444142767
 21
626.34573300749753
 31
0.0
  0
LINE
  5
8BDA
  8
0
 10
358.66215444142767
 20
626.34573300749753
 30
0.0
 11
358.66215444142767
 21
609.13573300749761
 31
0.0
  0
LINE
  5
8BDB
  8
0
 10
356.46215444142791
 20
608.76573300749783
 30
0.0
 11
356.46215444142791
 21
626.34573300749753
 31
0.0
  0
LINE
  5
8BDC
  8
0
 10
356.46215444142791
 20
626.34573300749753
 30
0.0
 11
354.96215444142791
 21
626.34573300749753
 31
0.0
  0
LINE
  5
8BDD
  8
0
 10
354.96215444142791
 20
626.34573300749753
 30
0.0
 11
354.96215444142791
 21
608.50573300749784
 31
0.0
  0
LINE
  5
8BDE
  8
0
 10
352.7621544414277
 20
608.13573300749749
 30
0.0
 11
352.7621544414277
 21
626.34573300749753
 31
0.0
  0
LINE
  5
8BDF
  8
0
 10
352.7621544414277
 20
626.34573300749753
 30
0.0
 11
351.4621544414278
 21
626.34573300749753
 31
0.0
  0
LINE
  5
8BE0
  8
0
 10
351.4621544414278
 20
626.34573300749753
 30
0.0
 11
351.4621544414278
 21
624.29573300749757
 31
0.0
  0
LINE
  5
8BE1
  8
0
 10
378.67215444142772
 20
622.34573300749776
 30
0.0
 11
377.17215444142772
 21
622.34573300749776
 31
0.0
  0
LINE
  5
8BE2
  8
0
 10
374.9721544414279
 20
622.34573300749776
 30
0.0
 11
373.47215444142779
 21
622.34573300749776
 31
0.0
  0
LINE
  5
8BE3
  8
0
 10
371.27215444142769
 20
622.34573300749776
 30
0.0
 11
369.77215444142792
 21
622.34573300749776
 31
0.0
  0
LINE
  5
8BE4
  8
0
 10
367.56215444142771
 20
622.34573300749776
 30
0.0
 11
366.06215444142771
 21
622.34573300749776
 31
0.0
  0
LINE
  5
8BE5
  8
0
 10
364.36215444142778
 20
622.34573300749776
 30
0.0
 11
362.36215444142778
 21
622.34573300749776
 31
0.0
  0
LINE
  5
8BE6
  8
0
 10
360.16215444142767
 20
622.34573300749776
 30
0.0
 11
358.66215444142767
 21
622.34573300749776
 31
0.0
  0
LINE
  5
8BE7
  8
0
 10
356.46215444142791
 20
622.34573300749776
 30
0.0
 11
354.96215444142791
 21
622.34573300749776
 31
0.0
  0
LINE
  5
8BE8
  8
0
 10
352.7621544414277
 20
622.34573300749776
 30
0.0
 11
350.7621544414277
 21
622.34573300749776
 31
0.0
  0
LINE
  5
8BE9
  8
0
 10
350.7621544414277
 20
623.63573300749761
 30
0.0
 11
350.7621544414277
 21
607.79573300749757
 31
0.0
  0
LINE
  5
8BEA
  8
0
 10
351.4621544414278
 20
624.29573300749757
 30
0.0
 11
350.7621544414277
 21
623.63573300749761
 31
0.0
  0
LINE
  5
8BEB
  8
0
 10
364.36215444142778
 20
623.63573300749761
 30
0.0
 11
363.66215444142767
 21
624.29573300749757
 31
0.0
  0
LINE
  5
8BEC
  8
0
 10
363.66215444142767
 20
624.29573300749757
 30
0.0
 11
363.66215444142767
 21
626.34573300749753
 31
0.0
  0
LINE
  5
8BED
  8
0
 10
395.16215444142779
 20
614.34573300749776
 30
0.0
 11
402.2621544414277
 21
614.34573300749776
 31
0.0
  0
ARC
  5
8BEE
  8
0
 10
401.7621544414277
 20
610.84573300749776
 30
0.0
 40
0.5
 50
270.0
 51
0.0
  0
ARC
  5
8BEF
  8
0
 10
401.2621544414277
 20
630.34573300749753
 30
0.0
 40
1.0
 50
0.0
 51
90.0
  0
LINE
  5
8BF0
  8
0
 10
325.01215444142781
 20
631.34573300749776
 30
0.0
 11
325.01215444142781
 21
633.84573300749753
 31
0.0
  0
LINE
  5
8BF1
  8
0
 10
392.01215444142792
 20
631.34573300749776
 30
0.0
 11
392.01215444142792
 21
633.84573300749753
 31
0.0
  0
LINE
  5
8BF2
  8
0
 10
159.7121544414278
 20
632.8662940074978
 30
0.0
 11
159.7121544414278
 21
792.82573300749755
 31
0.0
  0
ARC
  5
8BF3
  8
0
 10
133.8962924414277
 20
785.48063400749754
 30
0.0
 40
5.7526239999999991
 50
92.930875000002956
 51
169.9376259999996
  0
LINE
  5
8BF4
  8
0
 10
168.0121544414277
 20
794.84573300749776
 30
0.0
 11
243.0121544414277
 21
794.84573300749776
 31
0.0
  0
LINE
  5
8BF5
  8
0
 10
168.0121544414277
 20
630.84573300749776
 30
0.0
 11
168.0121544414277
 21
794.84573300749776
 31
0.0
  0
LINE
  5
8BF6
  8
0
 10
130.78215444142779
 20
639.34573300749776
 30
0.0
 11
130.78215444142779
 21
786.86573300749751
 31
0.0
  0
LINE
  5
8BF7
  8
0
 10
160.9621544414278
 20
793.59573300749776
 30
0.0
 11
168.0121544414277
 21
793.59573300749776
 31
0.0
  0
LINE
  5
8BF8
  8
0
 10
159.00215444142771
 20
792.55573300749745
 30
0.0
 11
133.6021544414277
 21
791.22573300749775
 31
0.0
  0
ARC
  5
8BF9
  8
0
 10
160.9674914414276
 20
792.34450200749745
 30
0.0
 40
1.2512430000000001
 50
90.244380000000078
 51
144.2391029999994
  0
ARC
  5
8BFA
  8
0
 10
158.9359484414278
 20
793.80447500749756
 30
0.0
 40
1.2504959999999981
 50
273.03488699999701
 51
324.35492199999987
  0
LINE
  5
8BFB
  8
0
 10
126.7121544414278
 20
649.47509300749755
 30
0.0
 11
126.7121544414278
 21
776.49573300749751
 31
0.0
  0
LINE
  5
8BFC
  8
0
 10
159.00215444142771
 20
633.13573300749749
 30
0.0
 11
133.6021544414277
 21
634.46573300749765
 31
0.0
  0
ARC
  5
8BFD
  8
0
 10
124.96200444142769
 20
650.04127700749757
 30
0.0
 40
2.249854
 50
179.88651000000229
 51
261.61639199999928
  0
ARC
  5
8BFE
  8
0
 10
124.1964344414277
 20
644.84656400749782
 30
0.0
 40
3.0009689999999982
 50
9.9623179999985751
 51
81.616391999999394
  0
LINE
  5
8BFF
  8
0
 10
127.15215544142779
 20
645.36573300749751
 30
0.0
 11
128.23215444142781
 21
639.20573300749766
 31
0.0
  0
ARC
  5
8C00
  8
0
 10
133.89010444142781
 20
640.20382200749759
 30
0.0
 40
5.745309999999999
 50
190.00432199999901
 51
267.127177999997
  0
LINE
  5
8C01
  8
0
 10
168.0121544414277
 20
630.84573300749776
 30
0.0
 11
243.0121544414277
 21
630.84573300749776
 31
0.0
  0
LINE
  5
8C02
  8
0
 10
160.9621544414278
 20
632.09573300749753
 30
0.0
 11
168.0121544414277
 21
632.09573300749753
 31
0.0
  0
ARC
  5
8C03
  8
0
 10
160.9625184414277
 20
633.33730600749755
 30
0.0
 40
1.241573
 50
215.53333299999991
 51
269.98318399999948
  0
ARC
  5
8C04
  8
0
 10
158.9308774414277
 20
631.87772700749724
 30
0.0
 40
1.260022999999999
 50
35.853017999999189
 51
86.757172999999256
  0
ARC
  5
8C05
  8
0
 10
124.1964344414277
 20
780.84490200749747
 30
0.0
 40
3.0009689999999982
 50
278.34845900000329
 51
350.03768200000138
  0
LINE
  5
8C06
  8
0
 10
127.1521544414277
 20
780.32573300749755
 30
0.0
 11
128.23215444142781
 21
786.48573300749752
 31
0.0
  0
ARC
  5
8C07
  8
0
 10
124.96200444142769
 20
775.65018900749772
 30
0.0
 40
2.249854
 50
98.430493000000325
 51
180.11348999999771
  0
LINE
  5
8C08
  8
0
 10
243.0121544414277
 20
794.84573300749776
 30
0.0
 11
243.0121544414277
 21
630.84573300749776
 31
0.0
  0
LINE
  5
8C09
  8
0
 10
207.0100654414278
 20
804.84573300749764
 30
0.0
 11
207.0100654414278
 21
794.84573300749776
 31
0.0
  0
LINE
  5
8C0A
  8
0
 10
219.01424344142771
 20
804.84573300749764
 30
0.0
 11
219.01424344142771
 21
794.84573300749776
 31
0.0
  0
LINE
  5
8C0B
  8
0
 10
145.20737844142781
 20
799.84573300749776
 30
0.0
 11
207.0100654414278
 21
799.84573300749776
 31
0.0
  0
LINE
  5
8C0C
  8
0
 10
145.2113264414277
 20
804.84573300749764
 30
0.0
 11
223.2121544414278
 21
804.84573300749764
 31
0.0
  0
LINE
  5
8C0D
  8
0
 10
219.01424344142771
 20
799.84573300749776
 30
0.0
 11
223.2121544414278
 21
799.84573300749776
 31
0.0
  0
ARC
  5
8C0E
  8
0
 10
145.2113264414277
 20
779.84573300749753
 30
0.0
 40
25.0
 50
90.0
 51
180.0
  0
LINE
  5
8C0F
  8
0
 10
219.01424344142771
 20
630.84573300749776
 30
0.0
 11
219.01424344142771
 21
620.84573300749753
 31
0.0
  0
LINE
  5
8C10
  8
0
 10
207.0100654414278
 20
630.84573300749776
 30
0.0
 11
207.0100654414278
 21
620.84573300749753
 31
0.0
  0
LINE
  5
8C11
  8
0
 10
145.20737844142781
 20
625.84573300749753
 30
0.0
 11
207.0100654414278
 21
625.84573300749753
 31
0.0
  0
LINE
  5
8C12
  8
0
 10
145.2113264414277
 20
620.84573300749753
 30
0.0
 11
223.2121544414278
 21
620.84573300749753
 31
0.0
  0
LINE
  5
8C13
  8
0
 10
219.01424344142771
 20
625.84573300749753
 30
0.0
 11
223.2121544414278
 21
625.84573300749753
 31
0.0
  0
ARC
  5
8C14
  8
0
 10
145.20737844142781
 20
779.84573300749753
 30
0.0
 40
20.0
 50
90.0
 51
180.0
  0
LINE
  5
8C15
  8
0
 10
122.70737844142781
 20
650.04573300749769
 30
0.0
 11
122.70737844142781
 21
775.64573300749771
 31
0.0
  0
LINE
  5
8C16
  8
0
 10
117.73737844142779
 20
715.34573300749776
 30
0.0
 11
120.2113264414276
 21
715.34573300749776
 31
0.0
  0
LINE
  5
8C17
  8
0
 10
120.2113264414276
 20
645.84573300749753
 30
0.0
 11
120.2113264414276
 21
779.84573300749753
 31
0.0
  0
LINE
  5
8C18
  8
0
 10
117.73737844142779
 20
710.34573300749776
 30
0.0
 11
120.2113264414276
 21
710.34573300749776
 31
0.0
  0
ARC
  5
8C19
  8
0
 10
145.2113264414277
 20
645.84573300749753
 30
0.0
 40
25.0
 50
180.0
 51
270.0
  0
ARC
  5
8C1A
  8
0
 10
145.20737844142781
 20
645.84573300749753
 30
0.0
 40
20.0
 50
180.0
 51
270.0
  0
LINE
  5
8C1B
  8
0
 10
223.2121544414278
 20
799.84573300749776
 30
0.0
 11
223.2121544414278
 21
804.84573300749764
 31
0.0
  0
LINE
  5
8C1C
  8
0
 10
223.2121544414278
 20
625.84573300749753
 30
0.0
 11
223.2121544414278
 21
620.84573300749753
 31
0.0
  0
LINE
  5
8C1D
  8
0
 10
122.20737844142781
 20
715.34573300749776
 30
0.0
 11
122.70737844142781
 21
715.34573300749776
 31
0.0
  0
LINE
  5
8C1E
  8
0
 10
122.20737844142781
 20
710.34573300749776
 30
0.0
 11
122.70737844142781
 21
710.34573300749776
 31
0.0
  0
LINE
  5
8C1F
  8
0
 10
122.20737844142781
 20
715.34573300749776
 30
0.0
 11
122.20737844142781
 21
710.34573300749776
 31
0.0
  0
LINE
  5
8C20
  8
0
 10
117.73737844142779
 20
715.34573300749776
 30
0.0
 11
117.73737844142779
 21
710.34573300749776
 31
0.0
  0
LINE
  5
8C21
  8
0
 10
125.20737844142781
 20
779.84573300749753
 30
0.0
 11
125.20737844142781
 21
778.01933900749771
 31
0.0
  0
LINE
  5
8C22
  8
0
 10
125.20737844142781
 20
647.81546500749755
 30
0.0
 11
125.20737844142781
 21
645.84573300749753
 31
0.0
  0
LINE
  5
8C23
  8
0
 10
406.01215444142758
 20
675.88751300749743
 30
0.0
 11
415.01215444142758
 21
675.88751300749743
 31
0.0
  0
LINE
  5
8C24
  8
0
 10
406.01215444142758
 20
749.80395300749751
 30
0.0
 11
415.01215444142758
 21
749.80395300749751
 31
0.0
  0
POINT
  5
8C29
  8
1
  6
CONTINUOUS
 10
415.01217444142742
 20
409.2751319983912
 30
0.0
  0
POINT
  5
8C2A
  8
1
  6
CONTINUOUS
 10
415.01217444142742
 20
409.27507388857111
 30
0.0
  0
LINE
  5
8C2B
  8
1
  6
CONTINUOUS
 10
415.01217444142742
 20
482.77507388857089
 30
0.0
 11
415.01217444142742
 21
335.77513199839132
 31
0.0
  0
ARC
  5
8C2C
  8
0
 10
406.01217444142742
 20
347.27510294348122
 30
0.0
 40
1.0
 50
180.0
 51
270.0
  0
ARC
  5
8C2D
  8
0
 10
406.01217444142742
 20
471.2751029434811
 30
0.0
 40
1.0
 50
90.0
 51
180.0
  0
ARC
  5
8C2E
  8
0
 10
404.00379944142747
 20
342.77510294348122
 30
0.0
 40
2.0
 50
270.0
 51
344.99999999999221
  0
LINE
  5
8C2F
  8
0
 10
407.01217444142742
 20
346.27510294348122
 30
0.0
 11
405.93565144142741
 21
342.25746494348118
 31
0.0
  0
ARC
  5
8C30
  8
0
 10
402.18855544142752
 20
334.37893794348122
 30
0.0
 40
2.0
 50
270.0
 51
345.0000029999984
  0
LINE
  5
8C31
  8
0
 10
407.01217444142742
 20
344.65352194348122
 30
0.0
 11
404.12040744142752
 21
333.8612999434813
 31
0.0
  0
ARC
  5
8C32
  8
0
 10
336.01217444142748
 20
331.41290494348118
 30
0.0
 40
2.0
 50
270.0
 51
0.0
  0
ARC
  5
8C33
  8
0
 10
336.01217444142748
 20
331.84018294348112
 30
0.0
 40
2.0
 50
270.0
 51
0.0
  0
ARC
  5
8C34
  8
0
 10
336.01217444142748
 20
332.84553394348131
 30
0.0
 40
2.0
 50
270.0
 51
346.50868899999841
  0
LINE
  5
8C35
  8
0
 10
338.01217444142748
 20
331.41290494348118
 30
0.0
 11
338.01217444142748
 21
332.37893794348122
 31
0.0
  0
LINE
  5
8C36
  8
0
 10
251.0121744414275
 20
339.74673594348133
 30
0.0
 11
243.0121744414275
 21
339.74673594348133
 31
0.0
  0
LINE
  5
8C37
  8
0
 10
251.0121744414275
 20
335.39074694348119
 30
0.0
 11
243.0121744414275
 21
335.39074694348119
 31
0.0
  0
LINE
  5
8C38
  8
0
 10
251.0121744414275
 20
332.75310794348121
 30
0.0
 11
243.0121744414275
 21
332.75310794348121
 31
0.0
  0
ARC
  5
8C39
  8
0
 10
255.0121744414275
 20
331.41290494348118
 30
0.0
 40
2.0
 50
180.0
 51
270.0
  0
LINE
  5
8C3A
  8
0
 10
253.0121744414275
 20
333.39074694348119
 30
0.0
 11
253.0121744414275
 21
332.84553394348131
 31
0.0
  0
ARC
  5
8C3B
  8
0
 10
254.86162444142761
 20
331.84018294348112
 30
0.0
 40
2.0
 50
195.7695469999999
 51
270.0
  0
ARC
  5
8C3C
  8
0
 10
255.0121744414275
 20
332.84553394348131
 30
0.0
 40
2.0
 50
180.0
 51
270.0
  0
ARC
  5
8C3D
  8
0
 10
255.0121744414275
 20
334.37893794348122
 30
0.0
 40
2.0
 50
180.0
 51
270.0
  0
LINE
  5
8C3E
  8
0
 10
253.0121744414275
 20
337.74673594348133
 30
0.0
 11
253.0121744414275
 21
334.37893794348122
 31
0.0
  0
ARC
  5
8C3F
  8
0
 10
251.0121744414275
 20
337.74673594348133
 30
0.0
 40
2.0
 50
0.0
 51
90.0
  0
ARC
  5
8C40
  8
0
 10
251.0121744414275
 20
333.39074694348119
 30
0.0
 40
2.0
 50
0.0
 51
90.0
  0
ARC
  5
8C41
  8
0
 10
251.0121744414275
 20
330.75310794348121
 30
0.0
 40
2.0
 50
15.7695469999999
 51
90.0
  0
LINE
  5
8C42
  8
0
 10
255.0121744414275
 20
332.37893794348122
 30
0.0
 11
402.18855544142752
 21
332.37893794348122
 31
0.0
  0
LINE
  5
8C43
  8
0
 10
255.0121744414275
 20
330.84553394348131
 30
0.0
 11
336.01217444142748
 21
330.84553394348131
 31
0.0
  0
LINE
  5
8C44
  8
0
 10
254.86162444142761
 20
329.84018294348112
 30
0.0
 11
336.01217444142748
 21
329.84018294348112
 31
0.0
  0
LINE
  5
8C45
  8
0
 10
255.0121744414275
 20
329.41290494348118
 30
0.0
 11
336.01217444142748
 21
329.41290494348118
 31
0.0
  0
ARC
  5
8C46
  8
0
 10
402.18855544142752
 20
484.17126794348121
 30
0.0
 40
2.0
 50
14.999997000001709
 51
90.0
  0
ARC
  5
8C47
  8
0
 10
404.00379944142747
 20
475.77510294348122
 30
0.0
 40
2.0
 50
15.000000000007869
 51
90.0
  0
LINE
  5
8C48
  8
0
 10
407.01217444142742
 20
473.89668394348098
 30
0.0
 11
404.12040744142752
 21
484.68890594348102
 31
0.0
  0
LINE
  5
8C49
  8
0
 10
407.01217444142742
 20
472.27510294348122
 30
0.0
 11
405.93565144142741
 21
476.29274094348102
 31
0.0
  0
LINE
  5
8C4A
  8
0
 10
405.01217444142742
 20
365.44510294348117
 30
0.0
 11
405.01217444142742
 21
373.38174794348112
 31
0.0
  0
LINE
  5
8C4B
  8
0
 10
405.01217444142742
 20
455.44510294348117
 30
0.0
 11
405.01217444142742
 21
471.2751029434811
 31
0.0
  0
ARC
  5
8C4C
  8
0
 10
406.0115354414275
 20
362.23357194348142
 30
0.0
 40
1.0026319999999971
 50
0.054084999991942
 51
81.243759000000509
  0
LINE
  5
8C4D
  8
0
 10
406.1641674414272
 20
363.2245189434812
 30
0.0
 11
404.40536844142758
 21
363.49510294348119
 31
0.0
  0
LINE
  5
8C4E
  8
0
 10
406.15416744142709
 20
365.31451894348129
 30
0.0
 11
404.55147944142709
 21
365.09510294348109
 31
0.0
  0
ARC
  5
8C4F
  8
0
 10
406.00719944142747
 20
366.31072294348121
 30
0.0
 40
1.006985999999999
 50
278.39216300000191
 51
359.64700200000118
  0
LINE
  5
8C50
  8
0
 10
407.0141674414275
 20
366.30451894348113
 30
0.0
 11
407.0141674414275
 21
362.23451894348142
 31
0.0
  0
ARC
  5
8C51
  8
0
 10
404.47081144142749
 20
364.28116294348138
 30
0.0
 40
0.8033630000000001
 50
0.2393300000044313
 51
89.760670000002094
  0
ARC
  5
8C52
  8
0
 10
404.46910544142747
 20
364.28958094348121
 30
0.0
 40
0.8050779999999997
 50
270.3602510000016
 51
359.63974900000488
  0
ARC
  5
8C53
  8
0
 10
406.00719944142747
 20
452.23948294348088
 30
0.0
 40
1.006985999999999
 50
0.3529979999987895
 51
81.607836999998213
  0
LINE
  5
8C54
  8
0
 10
406.15416744142709
 20
453.23568694348108
 30
0.0
 11
404.55147944142709
 21
453.45510294348122
 31
0.0
  0
ARC
  5
8C55
  8
0
 10
406.0115354414275
 20
456.31663394348078
 30
0.0
 40
1.0026319999999971
 50
278.75624099999948
 51
359.94591499999501
  0
LINE
  5
8C56
  8
0
 10
407.0141674414275
 20
452.2456869434813
 30
0.0
 11
407.0141674414275
 21
456.31568694348078
 31
0.0
  0
LINE
  5
8C57
  8
0
 10
406.1641674414272
 20
455.32568694348117
 30
0.0
 11
404.40536844142758
 21
455.05510294348119
 31
0.0
  0
ARC
  5
8C58
  8
0
 10
404.47081144142749
 20
454.26904294348083
 30
0.0
 40
0.8033630000000001
 50
270.23932999999789
 51
359.7606700000087
  0
ARC
  5
8C59
  8
0
 10
404.46910544142747
 20
454.2606249434811
 30
0.0
 40
0.8050779999999997
 50
0.3602509999951178
 51
89.639748999998375
  0
LINE
  5
8C5A
  8
0
 10
405.01217444142742
 20
447.13904794348122
 30
0.0
 11
415.01217444142742
 21
447.13904794348122
 31
0.0
  0
LINE
  5
8C5B
  8
0
 10
405.01217444142742
 20
371.42115794348138
 30
0.0
 11
415.01217444142742
 21
371.42115794348138
 31
0.0
  0
LINE
  5
8C5C
  8
0
 10
397.01217444142748
 20
383.17510294348119
 30
0.0
 11
406.4221744414275
 21
383.17510294348119
 31
0.0
  0
LINE
  5
8C5D
  8
0
 10
393.10377144142751
 20
385.35510294348109
 30
0.0
 11
406.51739144142738
 21
385.35510294348109
 31
0.0
  0
LINE
  5
8C5E
  8
0
 10
393.01217444142748
 20
405.28510294348121
 30
0.0
 11
406.0060874414275
 21
405.28510294348121
 31
0.0
  0
LINE
  5
8C5F
  8
0
 10
397.01217444142748
 20
375.42510294348119
 30
0.0
 11
406.51739144142738
 21
375.42510294348119
 31
0.0
  0
LINE
  5
8C60
  8
0
 10
323.16217444142751
 20
365.44510294348117
 30
0.0
 11
406.52171344142738
 21
365.44510294348117
 31
0.0
  0
LINE
  5
8C61
  8
0
 10
243.0121744414275
 20
455.44510294348117
 30
0.0
 11
406.50722244142759
 21
455.44510294348117
 31
0.0
  0
LINE
  5
8C62
  8
0
 10
397.01217444142748
 20
443.12510294348112
 30
0.0
 11
406.51739144142738
 21
443.12510294348112
 31
0.0
  0
LINE
  5
8C63
  8
0
 10
393.01217444142748
 20
413.26510294348111
 30
0.0
 11
406.0060874414275
 21
413.26510294348111
 31
0.0
  0
LINE
  5
8C64
  8
0
 10
393.10377144142751
 20
433.19510294348117
 30
0.0
 11
406.51739144142738
 21
433.19510294348117
 31
0.0
  0
LINE
  5
8C65
  8
0
 10
397.01217444142748
 20
435.3751029434809
 30
0.0
 11
406.4221744414275
 21
435.3751029434809
 31
0.0
  0
ARC
  5
8C66
  8
0
 10
402.61218344142742
 20
463.58407694348102
 30
0.0
 40
2.2000009999999981
 50
180.00000299999761
 51
269.99997799999852
  0
ARC
  5
8C67
  8
0
 10
402.61218344142742
 20
468.18408294348097
 30
0.0
 40
2.1999970000000002
 50
90.0
 51
179.99998200000081
  0
LINE
  5
8C68
  8
0
 10
405.01217444142742
 20
465.83463494348121
 30
0.0
 11
403.71217444142752
 21
465.0840799434813
 31
0.0
  0
LINE
  5
8C69
  8
0
 10
405.01217444142742
 20
466.83463494348121
 30
0.0
 11
403.71217444142752
 21
466.08407994348119
 31
0.0
  0
LINE
  5
8C6A
  8
0
 10
403.71217444142752
 20
470.48407994348122
 30
0.0
 11
405.01217444142742
 21
470.48407994348122
 31
0.0
  0
LINE
  5
8C6B
  8
0
 10
403.71217444142752
 20
461.28407994348112
 30
0.0
 11
405.01217444142742
 21
461.28407994348112
 31
0.0
  0
LINE
  5
8C6C
  8
0
 10
405.01217444142742
 20
470.48407994348122
 30
0.0
 11
405.01217444142742
 21
461.28407994348112
 31
0.0
  0
LINE
  5
8C6D
  8
0
 10
400.4121714414274
 20
468.18408294348097
 30
0.0
 11
400.4121714414274
 21
463.58407694348102
 31
0.0
  0
LINE
  5
8C6E
  8
0
 10
403.71217444142752
 20
470.48407994348122
 30
0.0
 11
403.71217444142752
 21
461.28407994348112
 31
0.0
  0
LINE
  5
8C6F
  8
0
 10
403.71217444142752
 20
461.38407994348091
 30
0.0
 11
402.61218344142742
 21
461.38407994348091
 31
0.0
  0
LINE
  5
8C70
  8
0
 10
403.71217444142752
 20
470.38407994348108
 30
0.0
 11
402.61218344142742
 21
470.38407994348108
 31
0.0
  0
LINE
  5
8C71
  8
0
 10
415.01217444142742
 20
335.77510294348122
 30
0.0
 11
415.01217444142742
 21
482.77504494348108
 31
0.0
  0
LINE
  5
8C72
  8
0
 10
406.01217444142742
 20
346.27510294348122
 30
0.0
 11
415.01217444142742
 21
346.27510294348122
 31
0.0
  0
LINE
  5
8C73
  8
0
 10
406.01217444142742
 20
335.77510294348122
 30
0.0
 11
415.01217444142742
 21
335.77510294348122
 31
0.0
  0
LINE
  5
8C74
  8
0
 10
406.01217444142742
 20
472.27510294348122
 30
0.0
 11
415.01217444142742
 21
472.27510294348122
 31
0.0
  0
LINE
  5
8C75
  8
0
 10
406.01217444142742
 20
482.77510294348122
 30
0.0
 11
415.01217444142742
 21
482.77510294348122
 31
0.0
  0
LINE
  5
8C76
  8
0
 10
115.3121744414275
 20
332.73191494348112
 30
0.0
 11
115.66572744142751
 21
333.08546794348132
 31
0.0
  0
LINE
  5
8C77
  8
0
 10
117.89085444142751
 20
330.15323494348121
 30
0.0
 11
115.3121744414275
 21
332.73191494348112
 31
0.0
  0
LINE
  5
8C78
  8
0
 10
118.2444074414275
 20
330.50678794348119
 30
0.0
 11
115.66572744142751
 21
333.08546794348132
 31
0.0
  0
ARC
  5
8C79
  8
0
 10
120.0121744414275
 20
332.27455494348129
 30
0.0
 40
3.0
 50
220.00000000000469
 51
33.557310000003177
  0
ARC
  5
8C7A
  8
0
 10
124.9620244414275
 20
346.47064694348143
 30
0.0
 40
2.249854
 50
179.8865100000088
 51
261.61639199999888
  0
ARC
  5
8C7B
  8
0
 10
213.0121744414275
 20
409.27510294348122
 30
0.0
 40
7.0
 50
16.601550000005041
 51
163.39844999999491
  0
ARC
  5
8C7C
  8
0
 10
213.0121744414275
 20
409.27510294348122
 30
0.0
 40
6.0
 50
19.47121999999958
 51
160.52877899999211
  0
LINE
  5
8C7D
  8
0
 10
206.0121744414275
 20
411.27510294348122
 30
0.0
 11
206.0121744414275
 21
411.77510294348122
 31
0.0
  0
LINE
  5
8C7E
  8
0
 10
222.0121744414275
 20
411.27510294348122
 30
0.0
 11
222.0121744414275
 21
411.77510294348122
 31
0.0
  0
LINE
  5
8C7F
  8
0
 10
222.0121744414275
 20
411.77510294348122
 30
0.0
 11
227.0121744414275
 21
411.77510294348122
 31
0.0
  0
LINE
  5
8C80
  8
0
 10
222.0121744414275
 20
411.27510294348122
 30
0.0
 11
206.0121744414275
 21
411.27510294348122
 31
0.0
  0
LINE
  5
8C81
  8
0
 10
227.0121744414275
 20
406.77510294348122
 30
0.0
 11
227.0121744414275
 21
411.77510294348122
 31
0.0
  0
LINE
  5
8C82
  8
0
 10
130.78217444142749
 20
411.67500594348121
 30
0.0
 11
130.78217444142749
 21
483.2951029434812
 31
0.0
  0
LINE
  5
8C83
  8
0
 10
126.71217444142751
 20
404.92126794348121
 30
0.0
 11
126.71217444142751
 21
345.90446294348112
 31
0.0
  0
ARC
  5
8C84
  8
0
 10
124.19645444142741
 20
341.27593394348128
 30
0.0
 40
3.0009689999999982
 50
9.9623180000056983
 51
81.616391999998939
  0
LINE
  5
8C85
  8
0
 10
222.0121744414275
 20
407.27510294348122
 30
0.0
 11
206.0121744414275
 21
407.27510294348122
 31
0.0
  0
LINE
  5
8C86
  8
0
 10
222.0121744414275
 20
406.77510294348122
 30
0.0
 11
227.0121744414275
 21
406.77510294348122
 31
0.0
  0
LINE
  5
8C87
  8
0
 10
222.0121744414275
 20
407.27510294348122
 30
0.0
 11
222.0121744414275
 21
406.77510294348122
 31
0.0
  0
ARC
  5
8C88
  8
0
 10
213.0121744414275
 20
409.27510294348122
 30
0.0
 40
7.0
 50
196.60154999999159
 51
343.39844999999508
  0
LINE
  5
8C89
  8
0
 10
206.0121744414275
 20
407.27510294348122
 30
0.0
 11
206.0121744414275
 21
406.77510294348122
 31
0.0
  0
ARC
  5
8C8A
  8
0
 10
213.0121744414275
 20
409.27510294348122
 30
0.0
 40
6.0
 50
199.4712209999945
 51
340.52878000000038
  0
LINE
  5
8C8B
  8
0
 10
206.0121744414275
 20
411.77510294348122
 30
0.0
 11
132.5121744414275
 21
411.77510294348122
 31
0.0
  0
LINE
  5
8C8C
  8
0
 10
206.0121744414275
 20
406.77510294348122
 30
0.0
 11
132.5121744414275
 21
406.77510294348122
 31
0.0
  0
ARC
  5
8C8D
  8
0
 10
132.5121744414275
 20
396.77510294348122
 30
0.0
 40
10.0
 50
90.0
 51
180.0
  0
ARC
  5
8C8E
  8
0
 10
132.5121744414275
 20
396.77510294348122
 30
0.0
 40
15.0
 50
90.0
 51
180.0
  0
ARC
  5
8C8F
  8
0
 10
120.0121744414275
 20
332.27455494348129
 30
0.0
 40
2.5
 50
180.0
 51
0.0
  0
LINE
  5
8C90
  8
0
 10
117.5121744414275
 20
332.27455494348129
 30
0.0
 11
117.5121744414275
 21
396.77510294348122
 31
0.0
  0
LINE
  5
8C91
  8
0
 10
122.5121744414275
 20
332.27455494348129
 30
0.0
 11
122.5121744414275
 21
396.77510294348122
 31
0.0
  0
LINE
  5
8C92
  8
0
 10
406.15217444142752
 20
413.24510294348119
 30
0.0
 11
404.71217444142718
 21
413.44224594348123
 31
0.0
  0
LINE
  5
8C93
  8
0
 10
406.16217444142723
 20
415.3351029434811
 30
0.0
 11
404.71217444142718
 21
415.112025943481
 31
0.0
  0
LINE
  5
8C94
  8
0
 10
407.01217444142742
 20
412.25510294348118
 30
0.0
 11
407.01217444142742
 21
416.32510294348089
 31
0.0
  0
LINE
  5
8C95
  8
0
 10
406.15217444142752
 20
423.24510294348119
 30
0.0
 11
404.71217444142718
 21
423.44224594348123
 31
0.0
  0
LINE
  5
8C96
  8
0
 10
406.16217444142723
 20
425.3351029434811
 30
0.0
 11
404.71217444142718
 21
425.11202594348077
 31
0.0
  0
LINE
  5
8C97
  8
0
 10
407.01217444142742
 20
422.25510294348118
 30
0.0
 11
407.01217444142742
 21
426.32510294348111
 31
0.0
  0
LINE
  5
8C98
  8
0
 10
406.16217444142723
 20
435.3351029434811
 30
0.0
 11
404.71217444142718
 21
435.112025943481
 31
0.0
  0
LINE
  5
8C99
  8
0
 10
406.15217444142752
 20
433.24510294348119
 30
0.0
 11
404.71217444142718
 21
433.44224594348111
 31
0.0
  0
LINE
  5
8C9A
  8
0
 10
407.01217444142742
 20
432.25510294348118
 30
0.0
 11
407.01217444142742
 21
436.32510294348111
 31
0.0
  0
ARC
  5
8C9B
  8
0
 10
404.4637794414275
 20
414.27510294348122
 30
0.0
 40
0.8000439999999999
 50
288.0879409999975
 51
71.912059000002486
  0
ARC
  5
8C9C
  8
0
 10
406.00954244142753
 20
416.32604894348111
 30
0.0
 40
1.0026319999999971
 50
278.75624099999948
 51
359.94591499999501
  0
ARC
  5
8C9D
  8
0
 10
406.0052074414275
 20
412.24889894348121
 30
0.0
 40
1.006985999999999
 50
0.3529979999987895
 51
81.607836999998213
  0
ARC
  5
8C9E
  8
0
 10
404.4671124414275
 20
424.27004094348121
 30
0.0
 40
0.8050779999999997
 50
0.3602509999951178
 51
72.278209999997259
  0
ARC
  5
8C9F
  8
0
 10
406.00954244142753
 20
426.32604894348123
 30
0.0
 40
1.0026319999999971
 50
278.75624099999948
 51
359.94591499999501
  0
ARC
  5
8CA0
  8
0
 10
406.0052074414275
 20
422.24889894348121
 30
0.0
 40
1.006985999999999
 50
0.3529979999987895
 51
81.607836999998213
  0
ARC
  5
8CA1
  8
0
 10
404.46881844142717
 20
434.27845894348121
 30
0.0
 40
0.8033630000000001
 50
287.63315000000227
 51
359.7606700000087
  0
ARC
  5
8CA2
  8
0
 10
404.4671124414275
 20
434.27004094348121
 30
0.0
 40
0.8050779999999997
 50
0.3602509999951178
 51
72.278209999997259
  0
ARC
  5
8CA3
  8
0
 10
406.0052074414275
 20
432.24889894348121
 30
0.0
 40
1.006985999999999
 50
0.3529979999987895
 51
81.607836999998213
  0
ARC
  5
8CA4
  8
0
 10
406.00954244142753
 20
436.32604894348123
 30
0.0
 40
1.0026319999999971
 50
278.75624099999948
 51
359.94591499999501
  0
ARC
  5
8CA5
  8
0
 10
404.46881844142717
 20
424.2784589434811
 30
0.0
 40
0.8033630000000001
 50
287.63315000000227
 51
359.7606700000087
  0
ARC
  5
8CA6
  8
0
 10
406.00719944142747
 20
442.2594829434808
 30
0.0
 40
1.006985999999999
 50
0.3529979999987895
 51
81.607836999998213
  0
ARC
  5
8CA7
  8
0
 10
406.0115354414275
 20
446.33663394348122
 30
0.0
 40
1.0026319999999971
 50
278.75624099999948
 51
359.94591499999501
  0
LINE
  5
8CA8
  8
0
 10
407.0141674414275
 20
442.26568694348123
 30
0.0
 11
407.0141674414275
 21
446.33568694348122
 31
0.0
  0
ARC
  5
8CA9
  8
0
 10
404.46910544142747
 20
444.28062494348097
 30
0.0
 40
0.8050779999999997
 50
0.3602509999951178
 51
72.278209999997259
  0
LINE
  5
8CAA
  8
0
 10
406.1641674414272
 20
445.34568694348121
 30
0.0
 11
404.71416744142738
 21
445.12260994348111
 31
0.0
  0
ARC
  5
8CAB
  8
0
 10
404.47081144142749
 20
444.28904294348121
 30
0.0
 40
0.8033630000000001
 50
287.63315000000227
 51
359.7606700000087
  0
LINE
  5
8CAC
  8
0
 10
406.15416744142709
 20
443.25568694348112
 30
0.0
 11
404.71416744142738
 21
443.45282994348122
 31
0.0
  0
LINE
  5
8CAD
  8
0
 10
404.71217444142718
 20
413.4751029434812
 30
0.0
 11
393.01217444142748
 21
413.4751029434812
 31
0.0
  0
LINE
  5
8CAE
  8
0
 10
404.71217444142718
 20
415.07510294348111
 30
0.0
 11
392.51217444142748
 21
415.07510294348111
 31
0.0
  0
LINE
  5
8CAF
  8
0
 10
406.16217444142723
 20
415.29510294348103
 30
0.0
 11
392.51217444142748
 21
415.29510294348103
 31
0.0
  0
LINE
  5
8CB0
  8
0
 10
404.71217444142718
 20
423.4751029434812
 30
0.0
 11
392.51217444142748
 21
423.4751029434812
 31
0.0
  0
LINE
  5
8CB1
  8
0
 10
404.71217444142718
 20
425.07510294348123
 30
0.0
 11
392.51217444142748
 21
425.07510294348123
 31
0.0
  0
LINE
  5
8CB2
  8
0
 10
406.15217444142752
 20
423.24510294348119
 30
0.0
 11
392.51217444142748
 21
423.24510294348119
 31
0.0
  0
LINE
  5
8CB3
  8
0
 10
406.06765944142751
 20
425.32510294348111
 30
0.0
 11
392.51217444142748
 21
425.32510294348111
 31
0.0
  0
LINE
  5
8CB4
  8
0
 10
404.71217444142718
 20
445.07510294348111
 30
0.0
 11
395.88395444142748
 21
445.07510294348111
 31
0.0
  0
LINE
  5
8CB5
  8
0
 10
404.71217444142718
 20
443.4751029434812
 30
0.0
 11
397.0021494414276
 21
443.4751029434812
 31
0.0
  0
LINE
  5
8CB6
  8
0
 10
404.71217444142718
 20
435.07510294348089
 30
0.0
 11
397.01217444142748
 21
435.07510294348089
 31
0.0
  0
LINE
  5
8CB7
  8
0
 10
404.71217444142718
 20
433.47510294348098
 30
0.0
 11
393.45860944142748
 21
433.47510294348098
 31
0.0
  0
LINE
  5
8CB8
  8
0
 10
404.92461844142753
 20
481.68754694348121
 30
0.0
 11
405.01217444142742
 21
481.77510294348122
 31
0.0
  0
LINE
  5
8CB9
  8
0
 10
405.01217444142742
 20
481.78009694348111
 30
0.0
 11
405.01217444142742
 21
481.77510294348122
 31
0.0
  0
ARC
  5
8CBA
  8
0
 10
406.00967744142753
 20
481.77759994348111
 30
0.0
 40
0.9975059999999999
 50
89.856577999996375
 51
180.14342199999061
  0
LINE
  5
8CBB
  8
0
 10
405.01217444142742
 20
481.77510294348122
 30
0.0
 11
405.01217444142742
 21
481.36078594348118
 31
0.0
  0
LINE
  5
8CBC
  8
0
 10
403.51217444142742
 20
460.1761529434811
 30
0.0
 11
403.51217444142742
 21
455.44510294348117
 31
0.0
  0
LINE
  5
8CBD
  8
0
 10
405.01217444142742
 20
445.16845794348143
 30
0.0
 11
405.01217444142742
 21
453.10510294348097
 31
0.0
  0
LINE
  5
8CBE
  8
0
 10
403.51217444142742
 20
460.1761529434811
 30
0.0
 11
403.62832944142752
 21
461.38407994348091
 31
0.0
  0
LINE
  5
8CBF
  8
0
 10
403.51217444142742
 20
453.10510294348097
 30
0.0
 11
403.51217444142742
 21
445.46510294348121
 31
0.0
  0
LINE
  5
8CC0
  8
0
 10
253.0121744414275
 20
453.45510294348122
 30
0.0
 11
404.55147944142709
 21
453.45510294348122
 31
0.0
  0
LINE
  5
8CC1
  8
0
 10
243.0121744414275
 20
460.1761529434811
 30
0.0
 11
403.51217444142742
 21
460.1761529434811
 31
0.0
  0
LINE
  5
8CC2
  8
0
 10
255.0121744414275
 20
477.77510294348122
 30
0.0
 11
404.00379944142747
 21
477.77510294348122
 31
0.0
  0
LINE
  5
8CC3
  8
0
 10
338.01217444142748
 20
487.13730094348119
 30
0.0
 11
338.01217444142748
 21
486.17126794348121
 31
0.0
  0
ARC
  5
8CC4
  8
0
 10
336.01217444142748
 20
485.70467194348112
 30
0.0
 40
2.0
 50
13.49131100000157
 51
90.0
  0
ARC
  5
8CC5
  8
0
 10
336.01217444142748
 20
486.71002294348142
 30
0.0
 40
2.0
 50
0.0
 51
90.0
  0
ARC
  5
8CC6
  8
0
 10
336.01217444142748
 20
487.13730094348119
 30
0.0
 40
2.0
 50
0.0
 51
90.0
  0
LINE
  5
8CC7
  8
0
 10
323.16217444142751
 20
453.10510294348097
 30
0.0
 11
406.52171344142738
 21
453.10510294348097
 31
0.0
  0
LINE
  5
8CC8
  8
0
 10
285.6721744414275
 20
435.07510294348089
 30
0.0
 11
307.51217444142748
 21
435.07510294348089
 31
0.0
  0
LINE
  5
8CC9
  8
0
 10
285.10217444142762
 20
433.47510294348098
 30
0.0
 11
307.51217444142748
 21
433.47510294348098
 31
0.0
  0
LINE
  5
8CCA
  8
0
 10
282.14217444142758
 20
423.4751029434812
 30
0.0
 11
308.01217444142748
 21
423.4751029434812
 31
0.0
  0
LINE
  5
8CCB
  8
0
 10
282.50217444142748
 20
425.07510294348123
 30
0.0
 11
308.01217444142748
 21
425.07510294348123
 31
0.0
  0
LINE
  5
8CCC
  8
0
 10
281.66217444142751
 20
413.4751029434812
 30
0.0
 11
308.01217444142748
 21
413.4751029434812
 31
0.0
  0
LINE
  5
8CCD
  8
0
 10
281.5521744414275
 20
415.07510294348111
 30
0.0
 11
308.01217444142748
 21
415.07510294348111
 31
0.0
  0
LINE
  5
8CCE
  8
0
 10
281.68217444142749
 20
413.26510294348111
 30
0.0
 11
308.01217444142748
 21
413.26510294348111
 31
0.0
  0
LINE
  5
8CCF
  8
0
 10
281.54217444142751
 20
415.29510294348103
 30
0.0
 11
308.01217444142748
 21
415.29510294348103
 31
0.0
  0
LINE
  5
8CD0
  8
0
 10
282.09217444142757
 20
423.24510294348119
 30
0.0
 11
308.01217444142748
 21
423.24510294348119
 31
0.0
  0
LINE
  5
8CD1
  8
0
 10
282.56217444142749
 20
425.32510294348111
 30
0.0
 11
308.01217444142748
 21
425.32510294348111
 31
0.0
  0
LINE
  5
8CD2
  8
0
 10
285.00217444142748
 20
433.19510294348117
 30
0.0
 11
307.51217444142748
 21
433.19510294348117
 31
0.0
  0
LINE
  5
8CD3
  8
0
 10
285.78217444142751
 20
435.3751029434809
 30
0.0
 11
307.51217444142748
 21
435.3751029434809
 31
0.0
  0
LINE
  5
8CD4
  8
0
 10
253.0121744414275
 20
474.63102194348119
 30
0.0
 11
253.0121744414275
 21
475.77510294348122
 31
0.0
  0
ARC
  5
8CD5
  8
0
 10
251.0121744414275
 20
474.63102194348119
 30
0.0
 40
2.0
 50
270.0
 51
0.0
  0
ARC
  5
8CD6
  8
0
 10
255.0121744414275
 20
475.77510294348122
 30
0.0
 40
2.0
 50
90.0
 51
180.0
  0
LINE
  5
8CD7
  8
0
 10
253.0121744414275
 20
474.63102194348119
 30
0.0
 11
253.0121744414275
 21
462.1761529434811
 31
0.0
  0
ARC
  5
8CD8
  8
0
 10
251.0121744414275
 20
462.1761529434811
 30
0.0
 40
2.0
 50
270.0
 51
0.0
  0
LINE
  5
8CD9
  8
0
 10
253.0121744414275
 20
480.8034699434811
 30
0.0
 11
253.0121744414275
 21
484.17126794348121
 31
0.0
  0
ARC
  5
8CDA
  8
0
 10
251.0121744414275
 20
480.8034699434811
 30
0.0
 40
2.0
 50
270.0
 51
0.0
  0
ARC
  5
8CDB
  8
0
 10
255.0121744414275
 20
484.17126794348121
 30
0.0
 40
2.0
 50
90.0
 51
180.0
  0
ARC
  5
8CDC
  8
0
 10
251.0121744414275
 20
485.15945894348118
 30
0.0
 40
2.0
 50
270.0
 51
0.0
  0
ARC
  5
8CDD
  8
0
 10
255.0121744414275
 20
485.70467194348112
 30
0.0
 40
2.0
 50
90.0
 51
180.0
  0
ARC
  5
8CDE
  8
0
 10
251.0121744414275
 20
487.79709794348122
 30
0.0
 40
2.0
 50
270.0
 51
344.23045300000013
  0
ARC
  5
8CDF
  8
0
 10
254.86162444142761
 20
486.71002294348142
 30
0.0
 40
2.0
 50
90.0
 51
164.2304530000001
  0
LINE
  5
8CE0
  8
0
 10
253.0121744414275
 20
485.15945894348118
 30
0.0
 11
253.0121744414275
 21
485.70467194348112
 31
0.0
  0
ARC
  5
8CE1
  8
0
 10
255.0121744414275
 20
487.13730094348119
 30
0.0
 40
2.0
 50
90.0
 51
180.0
  0
LINE
  5
8CE2
  8
0
 10
253.0121744414275
 20
455.20643494348121
 30
0.0
 11
253.0121744414275
 21
438.55665994348118
 31
0.0
  0
LINE
  5
8CE3
  8
0
 10
253.0121744414275
 20
445.07510294348111
 30
0.0
 11
310.33986644142749
 21
445.07510294348111
 31
0.0
  0
LINE
  5
8CE4
  8
0
 10
253.0121744414275
 20
443.4751029434812
 30
0.0
 11
308.44972844142751
 21
443.4751029434812
 31
0.0
  0
LINE
  5
8CE5
  8
0
 10
253.0121744414275
 20
443.12510294348112
 30
0.0
 11
308.28054744142747
 21
443.12510294348112
 31
0.0
  0
LINE
  5
8CE6
  8
0
 10
253.0121744414275
 20
445.46510294348121
 30
0.0
 11
405.01217444142742
 21
445.46510294348121
 31
0.0
  0
LINE
  5
8CE7
  8
0
 10
285.78217444142751
 20
435.3751029434809
 30
0.0
 11
243.0121744414275
 21
435.3751029434809
 31
0.0
  0
LINE
  5
8CE8
  8
0
 10
285.00217444142748
 20
433.19510294348117
 30
0.0
 11
243.0121744414275
 21
433.19510294348117
 31
0.0
  0
LINE
  5
8CE9
  8
0
 10
282.56217444142749
 20
425.32510294348111
 30
0.0
 11
243.0121744414275
 21
425.32510294348111
 31
0.0
  0
LINE
  5
8CEA
  8
0
 10
282.09217444142757
 20
423.24510294348119
 30
0.0
 11
243.0121744414275
 21
423.24510294348119
 31
0.0
  0
LINE
  5
8CEB
  8
0
 10
281.54217444142751
 20
415.29510294348103
 30
0.0
 11
243.0121744414275
 21
415.29510294348103
 31
0.0
  0
LINE
  5
8CEC
  8
0
 10
281.68217444142749
 20
413.26510294348111
 30
0.0
 11
243.0121744414275
 21
413.26510294348111
 31
0.0
  0
LINE
  5
8CED
  8
0
 10
285.6721744414275
 20
435.07510294348089
 30
0.0
 11
243.0121744414275
 21
435.07510294348089
 31
0.0
  0
LINE
  5
8CEE
  8
0
 10
285.10217444142762
 20
433.47510294348098
 30
0.0
 11
243.0121744414275
 21
433.47510294348098
 31
0.0
  0
LINE
  5
8CEF
  8
0
 10
282.50217444142748
 20
425.07510294348123
 30
0.0
 11
243.0121744414275
 21
425.07510294348123
 31
0.0
  0
LINE
  5
8CF0
  8
0
 10
282.14217444142758
 20
423.4751029434812
 30
0.0
 11
243.0121744414275
 21
423.4751029434812
 31
0.0
  0
LINE
  5
8CF1
  8
0
 10
281.5521744414275
 20
415.07510294348111
 30
0.0
 11
243.0121744414275
 21
415.07510294348111
 31
0.0
  0
LINE
  5
8CF2
  8
0
 10
281.66217444142751
 20
413.4751029434812
 30
0.0
 11
243.0121744414275
 21
413.4751029434812
 31
0.0
  0
LINE
  5
8CF3
  8
0
 10
253.0121744414275
 20
455.05510294348119
 30
0.0
 11
404.40536844142758
 21
455.05510294348119
 31
0.0
  0
LINE
  5
8CF4
  8
0
 10
253.0121744414275
 20
453.10510294348097
 30
0.0
 11
323.16217444142751
 21
453.10510294348097
 31
0.0
  0
LINE
  5
8CF5
  8
0
 10
255.0121744414275
 20
486.17126794348121
 30
0.0
 11
402.18855544142752
 21
486.17126794348121
 31
0.0
  0
LINE
  5
8CF6
  8
0
 10
255.0121744414275
 20
487.70467194348112
 30
0.0
 11
336.01217444142748
 21
487.70467194348112
 31
0.0
  0
LINE
  5
8CF7
  8
0
 10
254.86162444142761
 20
488.71002294348108
 30
0.0
 11
336.01217444142748
 21
488.71002294348108
 31
0.0
  0
LINE
  5
8CF8
  8
0
 10
255.0121744414275
 20
489.13730094348102
 30
0.0
 11
336.01217444142748
 21
489.13730094348102
 31
0.0
  0
LINE
  5
8CF9
  8
0
 10
243.0121744414275
 20
438.55665994348118
 30
0.0
 11
253.0121744414275
 21
438.55665994348118
 31
0.0
  0
LINE
  5
8CFA
  8
0
 10
243.0121744414275
 20
444.27510294348122
 30
0.0
 11
253.0121744414275
 21
444.27510294348122
 31
0.0
  0
LINE
  5
8CFB
  8
0
 10
243.0121744414275
 20
454.7951029434812
 30
0.0
 11
253.0121744414275
 21
454.7951029434812
 31
0.0
  0
LINE
  5
8CFC
  8
0
 10
243.0121744414275
 20
455.20643494348121
 30
0.0
 11
253.0121744414275
 21
455.20643494348121
 31
0.0
  0
LINE
  5
8CFD
  8
0
 10
251.0121744414275
 20
472.6310219434813
 30
0.0
 11
243.0121744414275
 21
472.6310219434813
 31
0.0
  0
LINE
  5
8CFE
  8
0
 10
251.0121744414275
 20
478.8034699434811
 30
0.0
 11
243.0121744414275
 21
478.8034699434811
 31
0.0
  0
LINE
  5
8CFF
  8
0
 10
251.0121744414275
 20
483.15945894348118
 30
0.0
 11
243.0121744414275
 21
483.15945894348118
 31
0.0
  0
LINE
  5
8D00
  8
0
 10
251.0121744414275
 20
485.79709794348122
 30
0.0
 11
243.0121744414275
 21
485.79709794348122
 31
0.0
  0
LINE
  5
8D01
  8
0
 10
285.6721744414275
 20
383.4751029434812
 30
0.0
 11
307.51217444142748
 21
383.4751029434812
 31
0.0
  0
LINE
  5
8D02
  8
0
 10
285.10217444142762
 20
385.07510294348123
 30
0.0
 11
307.51217444142748
 21
385.07510294348123
 31
0.0
  0
LINE
  5
8D03
  8
0
 10
282.14217444142758
 20
395.07510294348123
 30
0.0
 11
308.01217444142748
 21
395.07510294348123
 31
0.0
  0
LINE
  5
8D04
  8
0
 10
282.50217444142748
 20
393.4751029434812
 30
0.0
 11
308.01217444142748
 21
393.4751029434812
 31
0.0
  0
LINE
  5
8D05
  8
0
 10
281.66217444142751
 20
405.07510294348111
 30
0.0
 11
308.01217444142748
 21
405.07510294348111
 31
0.0
  0
LINE
  5
8D06
  8
0
 10
281.5521744414275
 20
403.47510294348109
 30
0.0
 11
308.01217444142748
 21
403.47510294348109
 31
0.0
  0
LINE
  5
8D07
  8
0
 10
281.68217444142749
 20
405.28510294348121
 30
0.0
 11
308.01217444142748
 21
405.28510294348121
 31
0.0
  0
LINE
  5
8D08
  8
0
 10
281.54217444142751
 20
403.25510294348118
 30
0.0
 11
308.01217444142748
 21
403.25510294348118
 31
0.0
  0
LINE
  5
8D09
  8
0
 10
282.09217444142757
 20
395.30510294348119
 30
0.0
 11
308.01217444142748
 21
395.30510294348119
 31
0.0
  0
LINE
  5
8D0A
  8
0
 10
282.56217444142749
 20
393.2251029434812
 30
0.0
 11
308.01217444142748
 21
393.2251029434812
 31
0.0
  0
LINE
  5
8D0B
  8
0
 10
285.00217444142748
 20
385.35510294348109
 30
0.0
 11
307.51217444142748
 21
385.35510294348109
 31
0.0
  0
LINE
  5
8D0C
  8
0
 10
285.78217444142751
 20
383.17510294348119
 30
0.0
 11
307.51217444142748
 21
383.17510294348119
 31
0.0
  0
LINE
  5
8D0D
  8
0
 10
405.01217444142742
 20
347.27510294348122
 30
0.0
 11
405.01217444142742
 21
363.10510294348109
 31
0.0
  0
LINE
  5
8D0E
  8
0
 10
406.15416744142709
 20
375.29451894348119
 30
0.0
 11
404.71416744142738
 21
375.09737594348121
 31
0.0
  0
ARC
  5
8D0F
  8
0
 10
404.47081144142749
 20
374.26116294348122
 30
0.0
 40
0.8033630000000001
 50
0.2393300000044313
 51
72.366849999997839
  0
LINE
  5
8D10
  8
0
 10
406.1641674414272
 20
373.20451894348122
 30
0.0
 11
404.71416744142738
 21
373.42759594348121
 31
0.0
  0
ARC
  5
8D11
  8
0
 10
404.46910544142747
 20
374.26958094348117
 30
0.0
 40
0.8050779999999997
 50
287.7217900000029
 51
359.63974900000488
  0
LINE
  5
8D12
  8
0
 10
407.0141674414275
 20
376.28451894348109
 30
0.0
 11
407.0141674414275
 21
372.21451894348121
 31
0.0
  0
ARC
  5
8D13
  8
0
 10
406.0115354414275
 20
372.2135719434811
 30
0.0
 40
1.0026319999999971
 50
0.054084999991942
 51
81.243759000000509
  0
ARC
  5
8D14
  8
0
 10
406.00719944142747
 20
376.2907229434814
 30
0.0
 40
1.006985999999999
 50
278.39216300000191
 51
359.64700200000118
  0
LINE
  5
8D15
  8
0
 10
403.51217444142742
 20
358.37405294348122
 30
0.0
 11
403.62832944142752
 21
357.16612694348117
 31
0.0
  0
LINE
  5
8D16
  8
0
 10
403.51217444142742
 20
358.37405294348122
 30
0.0
 11
403.51217444142742
 21
363.10510294348109
 31
0.0
  0
LINE
  5
8D17
  8
0
 10
403.51217444142742
 20
365.44510294348117
 30
0.0
 11
403.51217444142742
 21
373.08510294348122
 31
0.0
  0
LINE
  5
8D18
  8
0
 10
405.01217444142742
 20
336.77510294348122
 30
0.0
 11
405.01217444142742
 21
337.1894199434812
 31
0.0
  0
ARC
  5
8D19
  8
0
 10
406.00967744142753
 20
336.77260594348132
 30
0.0
 40
0.9975059999999999
 50
179.85657799999629
 51
270.14342199999709
  0
ARC
  5
8D1A
  8
0
 10
404.46881844142717
 20
394.27174694348122
 30
0.0
 40
0.8033630000000001
 50
0.2393300000044313
 51
72.366849999997839
  0
ARC
  5
8D1B
  8
0
 10
406.00954244142753
 20
382.22415694348138
 30
0.0
 40
1.0026319999999971
 50
0.054084999991942
 51
81.243759000000509
  0
ARC
  5
8D1C
  8
0
 10
406.0052074414275
 20
386.30130694348122
 30
0.0
 40
1.006985999999999
 50
278.39216300000191
 51
359.64700200000118
  0
ARC
  5
8D1D
  8
0
 10
404.4671124414275
 20
384.28016494348122
 30
0.0
 40
0.8050779999999997
 50
287.7217900000029
 51
359.63974900000488
  0
ARC
  5
8D1E
  8
0
 10
404.46881844142717
 20
384.27174694348122
 30
0.0
 40
0.8033630000000001
 50
0.2393300000044313
 51
72.366849999997839
  0
ARC
  5
8D1F
  8
0
 10
406.0052074414275
 20
396.30130694348122
 30
0.0
 40
1.006985999999999
 50
278.39216300000191
 51
359.64700200000118
  0
ARC
  5
8D20
  8
0
 10
406.00954244142753
 20
392.22415694348109
 30
0.0
 40
1.0026319999999971
 50
0.054084999991942
 51
81.243759000000509
  0
ARC
  5
8D21
  8
0
 10
404.4671124414275
 20
394.28016494348122
 30
0.0
 40
0.8050779999999997
 50
287.7217900000029
 51
359.63974900000488
  0
ARC
  5
8D22
  8
0
 10
406.0052074414275
 20
406.30130694348122
 30
0.0
 40
1.006985999999999
 50
278.39216300000191
 51
359.64700200000118
  0
ARC
  5
8D23
  8
0
 10
406.00954244142753
 20
402.22415694348098
 30
0.0
 40
1.0026319999999971
 50
0.054084999991942
 51
81.243759000000509
  0
ARC
  5
8D24
  8
0
 10
404.4637794414275
 20
404.2751029434811
 30
0.0
 40
0.8000439999999999
 50
288.0879409999975
 51
71.912059000002486
  0
LINE
  5
8D25
  8
0
 10
407.01217444142742
 20
386.2951029434812
 30
0.0
 11
407.01217444142742
 21
382.2251029434812
 31
0.0
  0
LINE
  5
8D26
  8
0
 10
406.15217444142752
 20
385.30510294348119
 30
0.0
 11
404.71217444142718
 21
385.10795994348109
 31
0.0
  0
LINE
  5
8D27
  8
0
 10
406.16217444142723
 20
383.21510294348121
 30
0.0
 11
404.71217444142718
 21
383.43817994348137
 31
0.0
  0
LINE
  5
8D28
  8
0
 10
407.01217444142742
 20
396.2951029434812
 30
0.0
 11
407.01217444142742
 21
392.2251029434812
 31
0.0
  0
LINE
  5
8D29
  8
0
 10
406.16217444142723
 20
393.21510294348121
 30
0.0
 11
404.71217444142718
 21
393.43817994348137
 31
0.0
  0
LINE
  5
8D2A
  8
0
 10
406.15217444142752
 20
395.30510294348119
 30
0.0
 11
404.71217444142718
 21
395.10795994348121
 31
0.0
  0
LINE
  5
8D2B
  8
0
 10
407.01217444142742
 20
406.29510294348108
 30
0.0
 11
407.01217444142742
 21
402.22510294348098
 31
0.0
  0
LINE
  5
8D2C
  8
0
 10
406.16217444142723
 20
403.21510294348121
 30
0.0
 11
404.71217444142718
 21
403.43817994348137
 31
0.0
  0
LINE
  5
8D2D
  8
0
 10
406.15217444142752
 20
405.3051029434809
 30
0.0
 11
404.71217444142718
 21
405.10795994348081
 31
0.0
  0
LINE
  5
8D2E
  8
0
 10
405.01217444142742
 20
336.77010894348132
 30
0.0
 11
405.01217444142742
 21
336.77510294348122
 31
0.0
  0
LINE
  5
8D2F
  8
0
 10
404.92461844142753
 20
336.86265894348111
 30
0.0
 11
405.01217444142742
 21
336.77510294348122
 31
0.0
  0
LINE
  5
8D30
  8
0
 10
404.71217444142718
 20
405.07510294348111
 30
0.0
 11
393.01217444142748
 21
405.07510294348111
 31
0.0
  0
LINE
  5
8D31
  8
0
 10
404.71217444142718
 20
403.47510294348109
 30
0.0
 11
392.51217444142748
 21
403.47510294348109
 31
0.0
  0
LINE
  5
8D32
  8
0
 10
406.16217444142723
 20
403.25510294348118
 30
0.0
 11
392.51217444142748
 21
403.25510294348118
 31
0.0
  0
LINE
  5
8D33
  8
0
 10
404.71217444142718
 20
395.07510294348123
 30
0.0
 11
392.51217444142748
 21
395.07510294348123
 31
0.0
  0
LINE
  5
8D34
  8
0
 10
404.71217444142718
 20
393.4751029434812
 30
0.0
 11
392.51217444142748
 21
393.4751029434812
 31
0.0
  0
LINE
  5
8D35
  8
0
 10
406.15217444142752
 20
395.30510294348119
 30
0.0
 11
392.51217444142748
 21
395.30510294348119
 31
0.0
  0
LINE
  5
8D36
  8
0
 10
406.06765944142751
 20
393.2251029434812
 30
0.0
 11
392.51217444142748
 21
393.2251029434812
 31
0.0
  0
LINE
  5
8D37
  8
0
 10
404.71217444142718
 20
373.4751029434812
 30
0.0
 11
395.88395444142748
 21
373.4751029434812
 31
0.0
  0
LINE
  5
8D38
  8
0
 10
404.71217444142718
 20
375.07510294348123
 30
0.0
 11
397.0021494414276
 21
375.07510294348123
 31
0.0
  0
LINE
  5
8D39
  8
0
 10
404.71217444142718
 20
383.4751029434812
 30
0.0
 11
397.01217444142748
 21
383.4751029434812
 31
0.0
  0
LINE
  5
8D3A
  8
0
 10
404.71217444142718
 20
385.07510294348123
 30
0.0
 11
393.45860944142748
 21
385.07510294348123
 31
0.0
  0
LINE
  5
8D3B
  8
0
 10
253.0121744414275
 20
363.49510294348119
 30
0.0
 11
404.40536844142758
 21
363.49510294348119
 31
0.0
  0
LINE
  5
8D3C
  8
0
 10
243.0121744414275
 20
358.37405294348122
 30
0.0
 11
403.51217444142742
 21
358.37405294348122
 31
0.0
  0
LINE
  5
8D3D
  8
0
 10
253.0121744414275
 20
363.34377094348122
 30
0.0
 11
253.0121744414275
 21
379.99354594348119
 31
0.0
  0
ARC
  5
8D3E
  8
0
 10
251.0121744414275
 20
356.37405294348122
 30
0.0
 40
2.0
 50
0.0
 51
90.0
  0
LINE
  5
8D3F
  8
0
 10
253.0121744414275
 20
343.91918394348107
 30
0.0
 11
253.0121744414275
 21
356.37405294348122
 31
0.0
  0
ARC
  5
8D40
  8
0
 10
255.0121744414275
 20
342.77510294348122
 30
0.0
 40
2.0
 50
180.0
 51
270.0
  0
ARC
  5
8D41
  8
0
 10
251.0121744414275
 20
343.91918394348107
 30
0.0
 40
2.0
 50
0.0
 51
90.0
  0
LINE
  5
8D42
  8
0
 10
253.0121744414275
 20
343.91918394348107
 30
0.0
 11
253.0121744414275
 21
342.77510294348122
 31
0.0
  0
LINE
  5
8D43
  8
0
 10
253.0121744414275
 20
373.4751029434812
 30
0.0
 11
310.33986644142749
 21
373.4751029434812
 31
0.0
  0
LINE
  5
8D44
  8
0
 10
253.0121744414275
 20
375.07510294348123
 30
0.0
 11
308.44972844142751
 21
375.07510294348123
 31
0.0
  0
LINE
  5
8D45
  8
0
 10
253.0121744414275
 20
375.42510294348119
 30
0.0
 11
308.28054744142747
 21
375.42510294348119
 31
0.0
  0
LINE
  5
8D46
  8
0
 10
253.0121744414275
 20
373.08510294348122
 30
0.0
 11
405.01217444142742
 21
373.08510294348122
 31
0.0
  0
LINE
  5
8D47
  8
0
 10
285.78217444142751
 20
383.17510294348119
 30
0.0
 11
243.0121744414275
 21
383.17510294348119
 31
0.0
  0
LINE
  5
8D48
  8
0
 10
285.00217444142748
 20
385.35510294348109
 30
0.0
 11
243.0121744414275
 21
385.35510294348109
 31
0.0
  0
LINE
  5
8D49
  8
0
 10
282.56217444142749
 20
393.2251029434812
 30
0.0
 11
243.0121744414275
 21
393.2251029434812
 31
0.0
  0
LINE
  5
8D4A
  8
0
 10
282.09217444142757
 20
395.30510294348119
 30
0.0
 11
243.0121744414275
 21
395.30510294348119
 31
0.0
  0
LINE
  5
8D4B
  8
0
 10
281.54217444142751
 20
403.25510294348118
 30
0.0
 11
243.0121744414275
 21
403.25510294348118
 31
0.0
  0
LINE
  5
8D4C
  8
0
 10
281.68217444142749
 20
405.28510294348121
 30
0.0
 11
243.0121744414275
 21
405.28510294348121
 31
0.0
  0
LINE
  5
8D4D
  8
0
 10
285.6721744414275
 20
383.4751029434812
 30
0.0
 11
243.0121744414275
 21
383.4751029434812
 31
0.0
  0
LINE
  5
8D4E
  8
0
 10
285.10217444142762
 20
385.07510294348123
 30
0.0
 11
243.0121744414275
 21
385.07510294348123
 31
0.0
  0
LINE
  5
8D4F
  8
0
 10
282.50217444142748
 20
393.4751029434812
 30
0.0
 11
243.0121744414275
 21
393.4751029434812
 31
0.0
  0
LINE
  5
8D50
  8
0
 10
282.14217444142758
 20
395.07510294348123
 30
0.0
 11
243.0121744414275
 21
395.07510294348123
 31
0.0
  0
LINE
  5
8D51
  8
0
 10
281.5521744414275
 20
403.47510294348109
 30
0.0
 11
243.0121744414275
 21
403.47510294348109
 31
0.0
  0
LINE
  5
8D52
  8
0
 10
281.66217444142751
 20
405.07510294348111
 30
0.0
 11
243.0121744414275
 21
405.07510294348111
 31
0.0
  0
LINE
  5
8D53
  8
0
 10
253.0121744414275
 20
365.09510294348109
 30
0.0
 11
404.55147944142709
 21
365.09510294348109
 31
0.0
  0
LINE
  5
8D54
  8
0
 10
253.0121744414275
 20
365.44510294348117
 30
0.0
 11
323.16217444142751
 21
365.44510294348117
 31
0.0
  0
LINE
  5
8D55
  8
0
 10
243.0121744414275
 20
363.10510294348109
 30
0.0
 11
406.50722244142759
 21
363.10510294348109
 31
0.0
  0
LINE
  5
8D56
  8
0
 10
255.0121744414275
 20
340.77510294348122
 30
0.0
 11
404.00379944142747
 21
340.77510294348122
 31
0.0
  0
LINE
  5
8D57
  8
0
 10
243.0121744414275
 20
379.99354594348119
 30
0.0
 11
253.0121744414275
 21
379.99354594348119
 31
0.0
  0
LINE
  5
8D58
  8
0
 10
243.0121744414275
 20
374.27510294348122
 30
0.0
 11
253.0121744414275
 21
374.27510294348122
 31
0.0
  0
LINE
  5
8D59
  8
0
 10
243.0121744414275
 20
363.75510294348129
 30
0.0
 11
253.0121744414275
 21
363.75510294348129
 31
0.0
  0
LINE
  5
8D5A
  8
0
 10
243.0121744414275
 20
363.34377094348122
 30
0.0
 11
253.0121744414275
 21
363.34377094348122
 31
0.0
  0
LINE
  5
8D5B
  8
0
 10
251.0121744414275
 20
345.91918394348119
 30
0.0
 11
243.0121744414275
 21
345.91918394348119
 31
0.0
  0
LINE
  5
8D5C
  8
0
 10
168.0121744414275
 20
411.77510294348122
 30
0.0
 11
168.0121744414275
 21
491.27510294348122
 31
0.0
  0
LINE
  5
8D5D
  8
0
 10
168.0121744414275
 20
327.2751029434811
 30
0.0
 11
243.0121744414275
 21
327.2751029434811
 31
0.0
  0
LINE
  5
8D5E
  8
0
 10
168.0121744414275
 20
491.27510294348122
 30
0.0
 11
243.0121744414275
 21
491.27510294348122
 31
0.0
  0
LINE
  5
8D5F
  8
0
 10
168.0121744414275
 20
327.2751029434811
 30
0.0
 11
168.0121744414275
 21
406.77510294348122
 31
0.0
  0
LINE
  5
8D60
  8
0
 10
243.0121744414275
 20
491.27510294348122
 30
0.0
 11
243.0121744414275
 21
327.2751029434811
 31
0.0
  0
ARC
  5
8D61
  8
0
 10
311.51267344142752
 20
441.77460394348122
 30
0.0
 40
3.5004989999999969
 50
90.008164000001159
 51
179.9918359999923
  0
ARC
  5
8D62
  8
0
 10
308.01272144142752
 20
437.27455594348112
 30
0.0
 40
0.5005470000000001
 50
90.0626249999995
 51
179.9373750000004
  0
ARC
  5
8D63
  8
0
 10
308.0046664414275
 20
427.26759494348107
 30
0.0
 40
0.492549
 50
179.12656199998941
 51
270.87343799999729
  0
ARC
  5
8D64
  8
0
 10
308.01272144142752
 20
391.27455594348112
 30
0.0
 40
0.5005470000000001
 50
90.0626249999995
 51
179.9373750000004
  0
ARC
  5
8D65
  8
0
 10
308.00481844142757
 20
381.26774694348109
 30
0.0
 40
0.492699
 50
179.1445600000103
 51
270.85544000000289
  0
ARC
  5
8D66
  8
0
 10
379.55012944142749
 20
441.7696149434812
 30
0.0
 40
3.505507999999999
 50
44.924208999998719
 51
89.803122999998919
  0
LINE
  5
8D67
  8
0
 10
308.01217444142748
 20
376.77510294348122
 30
0.0
 11
308.01217444142748
 21
441.7751029434811
 31
0.0
  0
LINE
  5
8D68
  8
0
 10
391.48217444142762
 20
383.7451029434813
 30
0.0
 11
382.03217444142751
 21
374.2951029434812
 31
0.0
  0
LINE
  5
8D69
  8
0
 10
390.41217444142751
 20
385.64510294348122
 30
0.0
 11
380.14217444142753
 21
375.37510294348112
 31
0.0
  0
LINE
  5
8D6A
  8
0
 10
380.14217444142753
 20
443.17510294348119
 30
0.0
 11
390.41217444142751
 21
432.90510294348121
 31
0.0
  0
LINE
  5
8D6B
  8
0
 10
390.41217444142751
 20
432.90510294348121
 30
0.0
 11
390.41217444142751
 21
385.64510294348122
 31
0.0
  0
LINE
  5
8D6C
  8
0
 10
382.03217444142751
 20
444.24510294348119
 30
0.0
 11
391.48217444142762
 21
434.7951029434812
 31
0.0
  0
LINE
  5
8D6D
  8
0
 10
392.51217444142748
 20
432.325102943481
 30
0.0
 11
392.51217444142748
 21
386.2251029434812
 31
0.0
  0
LINE
  5
8D6E
  8
0
 10
393.01217444142748
 20
414.27510294348122
 30
0.0
 11
393.01217444142748
 21
404.2751029434811
 31
0.0
  0
ARC
  5
8D6F
  8
0
 10
392.50466544142762
 20
414.26759394348119
 30
0.0
 40
0.507564
 50
0.8476510000084919
 51
89.152348999997983
  0
ARC
  5
8D70
  8
0
 10
392.51260844142769
 20
404.27466894348112
 30
0.0
 40
0.499566
 50
269.95018499999878
 51
0.049814999994649
  0
ARC
  5
8D71
  8
0
 10
389.0071704414276
 20
432.31325894348117
 30
0.0
 40
3.505023999999997
 50
0.193606000005437
 51
45.079061999997109
  0
ARC
  5
8D72
  8
0
 10
389.00891944142762
 20
386.22619294348118
 30
0.0
 40
3.5032559999999981
 50
314.9093959999982
 51
359.98217399999498
  0
LINE
  5
8D73
  8
0
 10
307.51217444142748
 20
437.2751029434811
 30
0.0
 11
307.51217444142748
 21
427.27510294348122
 31
0.0
  0
LINE
  5
8D74
  8
0
 10
307.51217444142748
 20
391.27510294348122
 30
0.0
 11
307.51217444142748
 21
381.27510294348122
 31
0.0
  0
LINE
  5
8D75
  8
0
 10
380.14217444142753
 20
375.37510294348112
 30
0.0
 11
312.43217444142761
 21
375.37510294348112
 31
0.0
  0
LINE
  5
8D76
  8
0
 10
312.43217444142761
 20
375.37510294348112
 30
0.0
 11
312.43217444142761
 21
373.27510294348122
 31
0.0
  0
ARC
  5
8D77
  8
0
 10
379.56423444142752
 20
376.77075094348118
 30
0.0
 40
3.495648999999998
 50
269.96623299999862
 51
314.91065800000371
  0
LINE
  5
8D78
  8
0
 10
311.51217444142748
 20
373.27510294348122
 30
0.0
 11
395.01217444142748
 21
373.27510294348122
 31
0.0
  0
ARC
  5
8D79
  8
0
 10
311.50481844142757
 20
376.76774694348109
 30
0.0
 40
3.492651999999997
 50
179.87932799999501
 51
270.12067199999842
  0
LINE
  5
8D7A
  8
0
 10
312.43217444142761
 20
443.17510294348119
 30
0.0
 11
380.14217444142753
 21
443.17510294348119
 31
0.0
  0
LINE
  5
8D7B
  8
0
 10
312.43217444142761
 20
443.17510294348119
 30
0.0
 11
312.43217444142761
 21
445.27010294348122
 31
0.0
  0
LINE
  5
8D7C
  8
0
 10
311.51217444142748
 20
445.27510294348122
 30
0.0
 11
395.01217444142748
 21
445.27510294348122
 31
0.0
  0
LINE
  5
8D7D
  8
0
 10
160.96217444142741
 20
328.52510294348122
 30
0.0
 11
168.0121744414275
 21
328.52510294348122
 31
0.0
  0
LINE
  5
8D7E
  8
0
 10
160.96217444142741
 20
490.0251029434811
 30
0.0
 11
168.0121744414275
 21
490.0251029434811
 31
0.0
  0
LINE
  5
8D7F
  8
0
  6
AM_ISO08W050
 10
213.0121744414275
 20
396.5552209434814
 30
0.0
 11
213.0121744414275
 21
422.88286294348092
 31
0.0
  0
LINE
  5
8D80
  8
0
 10
122.71217444142751
 20
472.075102943481
 30
0.0
 11
122.71217444142751
 21
408.1311589434813
 31
0.0
  0
LINE
  5
8D81
  8
0
 10
127.1521744414275
 20
476.75510294348118
 30
0.0
 11
128.2321744414275
 21
482.91510294348092
 31
0.0
  0
LINE
  5
8D82
  8
0
 10
159.71217444142761
 20
329.29566394348132
 30
0.0
 11
159.71217444142761
 21
406.77510294348122
 31
0.0
  0
LINE
  5
8D83
  8
0
 10
159.00217444142751
 20
488.98510294348119
 30
0.0
 11
133.60217444142751
 21
487.65510294348121
 31
0.0
  0
LINE
  5
8D84
  8
0
 10
127.1521754414275
 20
341.7951029434812
 30
0.0
 11
128.2321744414275
 21
335.63510294348117
 31
0.0
  0
LINE
  5
8D85
  8
0
 10
159.00217444142751
 20
329.56510294348118
 30
0.0
 11
133.60217444142751
 21
330.89510294348122
 31
0.0
  0
LINE
  5
8D86
  8
0
 10
126.71217444142751
 20
472.92510294348119
 30
0.0
 11
126.71217444142751
 21
410.6083959434813
 31
0.0
  0
LINE
  5
8D87
  8
0
 10
130.78217444142749
 20
335.77510294348122
 30
0.0
 11
130.78217444142749
 21
406.62432094348122
 31
0.0
  0
ARC
  5
8D88
  8
0
 10
124.19645444142741
 20
477.2742719434811
 30
0.0
 40
3.0009689999999982
 50
278.34845900000391
 51
350.03768199999428
  0
ARC
  5
8D89
  8
0
 10
124.9620244414275
 20
472.07955894348117
 30
0.0
 40
2.249854
 50
98.430493000000325
 51
180.11348999999109
  0
ARC
  5
8D8A
  8
0
 10
160.9675114414274
 20
488.77387194348103
 30
0.0
 40
1.2512430000000001
 50
90.244380000000078
 51
144.2391030000033
  0
ARC
  5
8D8B
  8
0
 10
158.93596844142741
 20
490.23384494348119
 30
0.0
 40
1.2504959999999981
 50
273.03488699999701
 51
324.3549220000051
  0
ARC
  5
8D8C
  8
0
 10
133.89631244142751
 20
481.91000394348112
 30
0.0
 40
5.7526239999999991
 50
92.930875000003141
 51
169.9376259999998
  0
ARC
  5
8D8D
  8
0
 10
160.9625384414274
 20
329.76667594348118
 30
0.0
 40
1.241573
 50
215.53333299999741
 51
269.98318399999948
  0
ARC
  5
8D8E
  8
0
 10
158.9308974414275
 20
328.3070969434811
 30
0.0
 40
1.260022999999999
 50
35.853017999994627
 51
86.757172999999426
  0
ARC
  5
8D8F
  8
0
 10
133.8901244414275
 20
336.63319194348128
 30
0.0
 40
5.745309999999999
 50
190.00432199999841
 51
267.12717799999689
  0
LINE
  5
8D90
  8
0
 10
159.71217444142761
 20
411.77510294348122
 30
0.0
 11
159.71217444142761
 21
489.25510294348118
 31
0.0
  0
ARC
  5
8D91
  8
0
 10
394.51217444142748
 20
431.77510294348122
 30
0.0
 40
2.0
 50
90.0
 51
180.0
  0
ARC
  5
8D92
  8
0
 10
395.01217444142748
 20
435.77510294348122
 30
0.0
 40
2.0
 50
270.0
 51
0.0
  0
LINE
  5
8D93
  8
0
 10
395.01217444142748
 20
433.7751029434811
 30
0.0
 11
394.51217444142748
 21
433.7751029434811
 31
0.0
  0
LINE
  5
8D94
  8
0
 10
397.01217444142748
 20
443.27510294348122
 30
0.0
 11
397.01217444142748
 21
435.77510294348122
 31
0.0
  0
ARC
  5
8D95
  8
0
 10
395.01217444142748
 20
443.27510294348122
 30
0.0
 40
2.0
 50
0.0
 51
90.0
  0
ARC
  5
8D96
  8
0
 10
394.51217444142748
 20
386.77510294348122
 30
0.0
 40
2.0
 50
180.0
 51
270.0
  0
LINE
  5
8D97
  8
0
 10
397.01217444142748
 20
375.27510294348122
 30
0.0
 11
397.01217444142748
 21
382.77510294348122
 31
0.0
  0
ARC
  5
8D98
  8
0
 10
395.01217444142748
 20
382.77510294348122
 30
0.0
 40
2.0
 50
0.0
 51
90.0
  0
LINE
  5
8D99
  8
0
 10
395.01217444142748
 20
384.77510294348122
 30
0.0
 11
394.51217444142748
 21
384.77510294348122
 31
0.0
  0
ARC
  5
8D9A
  8
0
 10
395.01217444142748
 20
375.27510294348122
 30
0.0
 40
2.0
 50
270.0
 51
0.0
  0
CIRCLE
  5
8D9B
  8
0
 10
391.51217444142759
 20
440.27510294348122
 30
0.0
 40
3.5
  0
CIRCLE
  5
8D9C
  8
0
 10
391.51217444142759
 20
440.27510294348122
 30
0.0
 40
3.299999999999998
  0
LINE
  5
8D9D
  8
0
 10
393.16217444142751
 20
439.8196639434812
 30
0.0
 11
393.16217444142751
 21
440.730541943481
 31
0.0
  0
LINE
  5
8D9E
  8
0
 10
394.74231144142749
 20
439.8196639434812
 30
0.0
 11
394.74231144142749
 21
440.730541943481
 31
0.0
  0
LINE
  5
8D9F
  8
0
 10
389.8621744414275
 20
439.8196639434812
 30
0.0
 11
389.8621744414275
 21
440.730541943481
 31
0.0
  0
ARC
  5
8DA0
  8
0
 10
388.5020374414276
 20
440.730541943481
 30
0.0
 40
0.22
 50
90.0
 51
180.0
  0
LINE
  5
8DA1
  8
0
 10
391.18217444142761
 20
441.92510294348108
 30
0.0
 11
391.84217444142757
 21
441.92510294348108
 31
0.0
  0
LINE
  5
8DA2
  8
0
 10
390.96217444142758
 20
441.17054194348088
 30
0.0
 11
390.96217444142758
 21
441.70510294348122
 31
0.0
  0
LINE
  5
8DA3
  8
0
 10
392.0621744414276
 20
441.70510294348122
 30
0.0
 11
392.0621744414276
 21
441.17054194348088
 31
0.0
  0
ARC
  5
8DA4
  8
0
 10
390.08217444142758
 20
440.730541943481
 30
0.0
 40
0.22
 50
90.0
 51
180.0
  0
LINE
  5
8DA5
  8
0
 10
390.08217444142758
 20
440.9505419434812
 30
0.0
 11
390.74217444142761
 21
440.9505419434812
 31
0.0
  0
ARC
  5
8DA6
  8
0
 10
390.74217444142761
 20
441.17054194348088
 30
0.0
 40
0.22
 50
270.0
 51
0.0
  0
ARC
  5
8DA7
  8
0
 10
392.28217444142751
 20
441.17054194348088
 30
0.0
 40
0.22
 50
180.0
 51
270.0
  0
LINE
  5
8DA8
  8
0
 10
390.08217444142758
 20
440.9505419434812
 30
0.0
 11
388.5020374414276
 21
440.9505419434812
 31
0.0
  0
ARC
  5
8DA9
  8
0
 10
391.84217444142757
 20
441.70510294348122
 30
0.0
 40
0.22
 50
0.0
 51
90.0
  0
ARC
  5
8DAA
  8
0
 10
391.18217444142761
 20
441.70510294348122
 30
0.0
 40
0.22
 50
90.0
 51
180.0
  0
LINE
  5
8DAB
  8
0
 10
392.94217444142748
 20
440.9505419434812
 30
0.0
 11
394.52231144142752
 21
440.9505419434812
 31
0.0
  0
ARC
  5
8DAC
  8
0
 10
392.94217444142748
 20
440.730541943481
 30
0.0
 40
0.22
 50
0.0
 51
90.0
  0
ARC
  5
8DAD
  8
0
 10
394.52231144142752
 20
440.730541943481
 30
0.0
 40
0.22
 50
0.0
 51
90.0
  0
LINE
  5
8DAE
  8
0
 10
392.28217444142751
 20
440.9505419434812
 30
0.0
 11
392.94217444142748
 21
440.9505419434812
 31
0.0
  0
LINE
  5
8DAF
  8
0
 10
390.08217444142758
 20
439.59966394348112
 30
0.0
 11
388.5020374414276
 21
439.59966394348112
 31
0.0
  0
ARC
  5
8DB0
  8
0
 10
391.84217444142757
 20
438.84510294348098
 30
0.0
 40
0.22
 50
270.0
 51
0.0
  0
ARC
  5
8DB1
  8
0
 10
391.18217444142761
 20
438.84510294348098
 30
0.0
 40
0.22
 50
180.0
 51
270.0
  0
LINE
  5
8DB2
  8
0
 10
391.18217444142761
 20
438.62510294348112
 30
0.0
 11
391.84217444142757
 21
438.62510294348112
 31
0.0
  0
ARC
  5
8DB3
  8
0
 10
390.74217444142761
 20
439.37966394348109
 30
0.0
 40
0.22
 50
0.0
 51
90.0
  0
ARC
  5
8DB4
  8
0
 10
392.28217444142751
 20
439.37966394348109
 30
0.0
 40
0.22
 50
90.0
 51
180.0
  0
ARC
  5
8DB5
  8
0
 10
390.08217444142758
 20
439.8196639434812
 30
0.0
 40
0.22
 50
180.0
 51
270.0
  0
LINE
  5
8DB6
  8
0
 10
390.74217444142761
 20
439.59966394348112
 30
0.0
 11
390.08217444142758
 21
439.59966394348112
 31
0.0
  0
LINE
  5
8DB7
  8
0
 10
390.96217444142758
 20
438.84510294348098
 30
0.0
 11
390.96217444142758
 21
439.37966394348109
 31
0.0
  0
LINE
  5
8DB8
  8
0
 10
392.0621744414276
 20
438.84510294348098
 30
0.0
 11
392.0621744414276
 21
439.37966394348109
 31
0.0
  0
LINE
  5
8DB9
  8
0
 10
392.94217444142748
 20
439.59966394348112
 30
0.0
 11
394.52231144142752
 21
439.59966394348112
 31
0.0
  0
ARC
  5
8DBA
  8
0
 10
392.94217444142748
 20
439.8196639434812
 30
0.0
 40
0.22
 50
270.0
 51
0.0
  0
LINE
  5
8DBB
  8
0
 10
392.94217444142748
 20
439.59966394348112
 30
0.0
 11
392.28217444142751
 21
439.59966394348112
 31
0.0
  0
ARC
  5
8DBC
  8
0
 10
394.52231144142752
 20
439.8196639434812
 30
0.0
 40
0.22
 50
270.0
 51
0.0
  0
ARC
  5
8DBD
  8
0
 10
388.5020374414276
 20
439.8196639434812
 30
0.0
 40
0.22
 50
180.0
 51
270.0
  0
CIRCLE
  5
8DBE
  8
0
 10
391.51217444142759
 20
378.27510294348122
 30
0.0
 40
3.5
  0
CIRCLE
  5
8DBF
  8
0
 10
391.51217444142759
 20
378.27510294348122
 30
0.0
 40
3.299999999999998
  0
LINE
  5
8DC0
  8
0
 10
389.8621744414275
 20
378.73054194348111
 30
0.0
 11
389.8621744414275
 21
377.81966394348137
 31
0.0
  0
LINE
  5
8DC1
  8
0
 10
394.74231144142749
 20
378.73054194348111
 30
0.0
 11
394.74231144142749
 21
377.81966394348137
 31
0.0
  0
LINE
  5
8DC2
  8
0
 10
393.16217444142751
 20
378.73054194348111
 30
0.0
 11
393.16217444142751
 21
377.81966394348137
 31
0.0
  0
ARC
  5
8DC3
  8
0
 10
394.52231144142752
 20
377.81966394348137
 30
0.0
 40
0.22
 50
270.0
 51
0.0
  0
ARC
  5
8DC4
  8
0
 10
392.28217444142751
 20
377.37966394348121
 30
0.0
 40
0.22
 50
90.0
 51
180.0
  0
ARC
  5
8DC5
  8
0
 10
390.74217444142761
 20
377.37966394348121
 30
0.0
 40
0.22
 50
0.0
 51
90.0
  0
ARC
  5
8DC6
  8
0
 10
392.94217444142748
 20
377.81966394348137
 30
0.0
 40
0.22
 50
270.0
 51
0.0
  0
LINE
  5
8DC7
  8
0
 10
390.08217444142758
 20
377.59966394348112
 30
0.0
 11
390.74217444142761
 21
377.59966394348112
 31
0.0
  0
LINE
  5
8DC8
  8
0
 10
390.08217444142758
 20
377.59966394348112
 30
0.0
 11
388.5020374414276
 21
377.59966394348112
 31
0.0
  0
ARC
  5
8DC9
  8
0
 10
390.08217444142758
 20
377.81966394348137
 30
0.0
 40
0.22
 50
180.0
 51
270.0
  0
LINE
  5
8DCA
  8
0
 10
392.28217444142751
 20
377.59966394348112
 30
0.0
 11
392.94217444142748
 21
377.59966394348112
 31
0.0
  0
LINE
  5
8DCB
  8
0
 10
391.18217444142761
 20
376.62510294348112
 30
0.0
 11
391.84217444142757
 21
376.62510294348112
 31
0.0
  0
ARC
  5
8DCC
  8
0
 10
391.84217444142757
 20
376.84510294348121
 30
0.0
 40
0.22
 50
270.0
 51
0.0
  0
ARC
  5
8DCD
  8
0
 10
391.18217444142761
 20
376.84510294348121
 30
0.0
 40
0.22
 50
180.0
 51
270.0
  0
LINE
  5
8DCE
  8
0
 10
392.0621744414276
 20
376.84510294348121
 30
0.0
 11
392.0621744414276
 21
377.37966394348121
 31
0.0
  0
LINE
  5
8DCF
  8
0
 10
390.96217444142758
 20
377.37966394348121
 30
0.0
 11
390.96217444142758
 21
376.84510294348121
 31
0.0
  0
ARC
  5
8DD0
  8
0
 10
388.5020374414276
 20
377.81966394348137
 30
0.0
 40
0.22
 50
180.0
 51
270.0
  0
LINE
  5
8DD1
  8
0
 10
392.94217444142748
 20
377.59966394348112
 30
0.0
 11
394.52231144142752
 21
377.59966394348112
 31
0.0
  0
LINE
  5
8DD2
  8
0
 10
392.0621744414276
 20
379.70510294348122
 30
0.0
 11
392.0621744414276
 21
379.17054194348111
 31
0.0
  0
LINE
  5
8DD3
  8
0
 10
390.96217444142758
 20
379.70510294348122
 30
0.0
 11
390.96217444142758
 21
379.17054194348111
 31
0.0
  0
ARC
  5
8DD4
  8
0
 10
392.94217444142748
 20
378.73054194348111
 30
0.0
 40
0.22
 50
0.0
 51
90.0
  0
LINE
  5
8DD5
  8
0
 10
390.74217444142761
 20
378.9505419434812
 30
0.0
 11
390.08217444142758
 21
378.9505419434812
 31
0.0
  0
LINE
  5
8DD6
  8
0
 10
390.08217444142758
 20
378.9505419434812
 30
0.0
 11
388.5020374414276
 21
378.9505419434812
 31
0.0
  0
ARC
  5
8DD7
  8
0
 10
390.08217444142758
 20
378.73054194348111
 30
0.0
 40
0.22
 50
90.0
 51
180.0
  0
LINE
  5
8DD8
  8
0
 10
392.94217444142748
 20
378.9505419434812
 30
0.0
 11
392.28217444142751
 21
378.9505419434812
 31
0.0
  0
ARC
  5
8DD9
  8
0
 10
392.28217444142751
 20
379.17054194348111
 30
0.0
 40
0.22
 50
180.0
 51
270.0
  0
ARC
  5
8DDA
  8
0
 10
390.74217444142761
 20
379.17054194348111
 30
0.0
 40
0.22
 50
270.0
 51
0.0
  0
ARC
  5
8DDB
  8
0
 10
394.52231144142752
 20
378.73054194348111
 30
0.0
 40
0.22
 50
0.0
 51
90.0
  0
ARC
  5
8DDC
  8
0
 10
388.5020374414276
 20
378.73054194348111
 30
0.0
 40
0.22
 50
90.0
 51
180.0
  0
LINE
  5
8DDD
  8
0
 10
392.94217444142748
 20
378.9505419434812
 30
0.0
 11
394.52231144142752
 21
378.9505419434812
 31
0.0
  0
LINE
  5
8DDE
  8
0
 10
391.18217444142761
 20
379.92510294348119
 30
0.0
 11
391.84217444142757
 21
379.92510294348119
 31
0.0
  0
ARC
  5
8DDF
  8
0
 10
391.18217444142761
 20
379.70510294348122
 30
0.0
 40
0.22
 50
90.0
 51
180.0
  0
ARC
  5
8DE0
  8
0
 10
391.84217444142757
 20
379.70510294348122
 30
0.0
 40
0.22
 50
0.0
 51
90.0
  0
LINE
  5
8DE1
  8
0
 10
388.28203744142752
 20
440.730541943481
 30
0.0
 11
388.28203744142752
 21
439.8196639434812
 31
0.0
  0
LINE
  5
8DE2
  8
0
 10
388.28203744142752
 20
378.73054194348111
 30
0.0
 11
388.28203744142752
 21
377.81966394348137
 31
0.0
  0
ARC
  5
8DE3
  8
0
 10
402.61218144142759
 20
354.96612994348112
 30
0.0
 40
2.2000009999999981
 50
90.000022000001564
 51
179.99999700000231
  0
ARC
  5
8DE4
  8
0
 10
402.61218144142759
 20
350.36612394348128
 30
0.0
 40
2.1999970000000002
 50
180.00001799999919
 51
270.0
  0
LINE
  5
8DE5
  8
0
 10
405.01217244142748
 20
352.71557194348122
 30
0.0
 11
403.71217244142758
 21
353.46612694348119
 31
0.0
  0
LINE
  5
8DE6
  8
0
 10
405.01217244142748
 20
351.71557194348122
 30
0.0
 11
403.71217244142758
 21
352.46612694348119
 31
0.0
  0
LINE
  5
8DE7
  8
0
 10
403.71217244142758
 20
348.06612694348121
 30
0.0
 11
405.01217244142748
 21
348.06612694348121
 31
0.0
  0
LINE
  5
8DE8
  8
0
 10
403.71217244142758
 20
357.26612694348108
 30
0.0
 11
405.01217244142748
 21
357.26612694348108
 31
0.0
  0
LINE
  5
8DE9
  8
0
 10
405.01217244142748
 20
348.06612694348121
 30
0.0
 11
405.01217244142748
 21
357.26612694348108
 31
0.0
  0
LINE
  5
8DEA
  8
0
 10
400.41216944142752
 20
350.36612394348128
 30
0.0
 11
400.41216944142752
 21
354.96612994348112
 31
0.0
  0
LINE
  5
8DEB
  8
0
 10
403.71217244142758
 20
348.06612694348121
 30
0.0
 11
403.71217244142758
 21
357.26612694348108
 31
0.0
  0
LINE
  5
8DEC
  8
0
 10
403.71217244142758
 20
357.16612694348117
 30
0.0
 11
402.61218144142759
 21
357.16612694348117
 31
0.0
  0
LINE
  5
8DED
  8
0
 10
403.71217244142758
 20
348.16612694348129
 30
0.0
 11
402.61218144142759
 21
348.16612694348129
 31
0.0
  0
LINE
  5
908C
  8
0
  6
CONTINUOUS
 62
     7
 10
471.51209444142762
 20
613.34571800749768
 30
0.0
 11
471.51209444142762
 21
812.34571800749745
 31
0.0
  0
LINE
  5
908D
  8
0
  6
CONTINUOUS
 62
     7
 10
461.51209444142762
 20
647.77350800749775
 30
0.0
 11
461.51209444142762
 21
777.91791800749752
 31
0.0
  0
LINE
  5
908E
  8
0
  6
CONTINUOUS
 62
     7
 10
464.40742444142762
 20
613.59378800749755
 30
0.0
 11
471.51203444142777
 21
613.34571800749768
 31
0.0
  0
LINE
  5
908F
  8
0
  6
CONTINUOUS
 62
     7
 10
449.51209444142762
 20
621.92460800749757
 30
0.0
 11
449.51209444142762
 21
803.7668580074976
 31
0.0
  0
LINE
  5
9090
  8
0
  6
CONTINUOUS
 62
     7
 10
449.51209444142762
 20
644.77350800749775
 30
0.0
 11
458.51209444142762
 21
644.77350800749775
 31
0.0
  0
LINE
  5
9091
  8
0
  6
CONTINUOUS
 62
     7
 10
449.51209444142762
 20
655.52814800749752
 30
0.0
 11
461.51209444142762
 21
655.52814800749752
 31
0.0
  0
LINE
  5
9092
  8
0
  6
CONTINUOUS
 62
     7
 10
449.51209444142762
 20
780.91791800749752
 30
0.0
 11
458.51209444142762
 21
780.91791800749752
 31
0.0
  0
LINE
  5
9093
  8
0
  6
CONTINUOUS
 62
     7
 10
449.51209444142762
 20
770.16327800749752
 30
0.0
 11
461.51209444142762
 21
770.16327800749752
 31
0.0
  0
LINE
  5
9094
  8
0
  6
CONTINUOUS
 62
     7
 10
452.51209444142751
 20
629.95569800749763
 30
0.0
 11
458.51209444142762
 21
629.95569800749763
 31
0.0
  0
LINE
  5
9095
  8
0
  6
CONTINUOUS
 62
     7
 10
461.51209444142762
 20
616.59198800749766
 30
0.0
 11
461.51209444142762
 21
626.95569800749763
 31
0.0
  0
LINE
  5
9096
  8
0
  6
CONTINUOUS
 62
     7
 10
452.51209444142751
 20
618.92460800749757
 30
0.0
 11
458.54932444142747
 21
618.92460800749757
 31
0.0
  0
LINE
  5
9097
  8
0
  6
CONTINUOUS
 62
     7
 10
452.51209444142751
 20
806.76685800749772
 30
0.0
 11
458.54932444142747
 21
806.76685800749772
 31
0.0
  0
LINE
  5
9098
  8
0
  6
CONTINUOUS
 62
     7
 10
461.51209444142762
 20
809.09943800749772
 30
0.0
 11
461.51209444142762
 21
798.73572800749776
 31
0.0
  0
LINE
  5
9099
  8
0
  6
CONTINUOUS
 62
     7
 10
452.51209444142751
 20
795.73572800749753
 30
0.0
 11
458.51209444142762
 21
795.73572800749753
 31
0.0
  0
LINE
  5
909A
  8
0
  6
CONTINUOUS
 62
     7
 10
464.4073644414276
 20
812.09760800749757
 30
0.0
 11
471.51203444142777
 21
812.34571800749745
 31
0.0
  0
LINE
  5
909B
  8
0
  6
CONTINUOUS
 62
     7
 10
563.57093444142765
 20
608.78690800749735
 30
0.0
 11
569.51215444142747
 21
602.84568800749764
 31
0.0
  0
LINE
  5
909C
  8
0
  6
CONTINUOUS
 62
     7
 10
471.51215444142758
 20
613.34571800749768
 30
0.0
 11
560.20988444142756
 21
610.2483080074976
 31
0.0
  0
LINE
  5
909D
  8
0
  6
CONTINUOUS
 62
     7
 10
573.22758444142755
 20
619.25406800749761
 30
0.0
 11
573.40742444142757
 21
619.24778800749755
 31
0.0
  0
LINE
  5
909E
  8
0
  6
CONTINUOUS
 62
     7
 10
646.51215444142758
 20
728.84571800749745
 30
0.0
 11
588.51212444142766
 21
728.84571800749745
 31
0.0
  0
LINE
  5
909F
  8
0
  6
CONTINUOUS
 62
     7
 10
572.40742444142745
 20
595.76838800749783
 30
0.0
 11
584.51212444142766
 21
595.34568800749764
 31
0.0
  0
LINE
  5
90A0
  8
0
  6
CONTINUOUS
 62
     7
 10
646.51215444142758
 20
696.8457480074976
 30
0.0
 11
588.51212444142766
 21
696.8457480074976
 31
0.0
  0
LINE
  5
90A1
  8
0
  6
CONTINUOUS
 62
     7
 10
646.51215444142758
 20
696.8457480074976
 30
0.0
 11
646.51215444142758
 21
728.84571800749745
 31
0.0
  0
LINE
  5
90A2
  8
0
  6
CONTINUOUS
 62
     7
 10
572.51212444142755
 20
656.93497800749765
 30
0.0
 11
576.51212444142755
 21
656.93497800749765
 31
0.0
  0
LINE
  5
90A3
  8
0
  6
CONTINUOUS
 62
     7
 10
588.51212444142766
 20
607.84568800749719
 30
0.0
 11
588.51212444142766
 21
817.84571800749745
 31
0.0
  0
LINE
  5
90A4
  8
0
  6
CONTINUOUS
 62
     7
 10
584.51212444142766
 20
817.84571800749745
 30
0.0
 11
588.51212444142766
 21
817.84571800749745
 31
0.0
  0
LINE
  5
90A5
  8
0
  6
CONTINUOUS
 62
     7
 10
573.22758444142755
 20
806.4373280074974
 30
0.0
 11
573.40742444142757
 21
806.44361800749755
 31
0.0
  0
LINE
  5
90A6
  8
0
  6
CONTINUOUS
 62
     7
 10
572.51212444142755
 20
768.75647800749755
 30
0.0
 11
576.51212444142755
 21
768.75647800749755
 31
0.0
  0
LINE
  5
90A7
  8
0
  6
CONTINUOUS
 62
     7
 10
584.51212444142766
 20
595.34571800749757
 30
0.0
 11
584.51212444142766
 21
830.34571800749745
 31
0.0
  0
LINE
  5
90A8
  8
0
  6
CONTINUOUS
 62
     7
 10
572.4074544414276
 20
829.92304800749741
 30
0.0
 11
584.51212444142766
 21
830.34571800749745
 31
0.0
  0
LINE
  5
90A9
  8
0
  6
CONTINUOUS
 62
     7
 10
576.51212444142755
 20
622.24598800749766
 30
0.0
 11
576.51212444142755
 21
803.44544800749748
 31
0.0
  0
LINE
  5
90AA
  8
0
  6
CENTER
 62
     7
 10
593.99409444142782
 20
808.30518800749769
 30
0.0
 11
562.90812444142762
 21
808.30518800749769
 31
0.0
  0
LINE
  5
90AB
  8
0
  6
CONTINUOUS
 62
     7
 10
471.51215444142758
 20
812.34571800749745
 30
0.0
 11
560.2099144414276
 21
815.44312800749753
 31
0.0
  0
LINE
  5
90AC
  8
0
  6
CENTER
 62
     7
 10
593.99409444142782
 20
617.38630800749763
 30
0.0
 11
562.90812444142762
 21
617.38630800749763
 31
0.0
  0
LINE
  5
90AD
  8
0
  6
CONTINUOUS
 62
     7
 10
563.57093444142765
 20
816.90448800749755
 30
0.0
 11
569.51212444142755
 21
822.84571800749745
 31
0.0
  0
LINE
  5
90AE
  8
0
  6
CONTINUOUS
 62
     7
 10
569.51212444142755
 20
598.76658800749783
 30
0.0
 11
569.51212444142755
 21
826.92481800749715
 31
0.0
  0
LINE
  5
90AF
  8
0
  6
CONTINUOUS
 62
     7
 10
584.51212444142766
 20
607.84568800749719
 30
0.0
 11
588.51212444142766
 21
607.84568800749719
 31
0.0
  0
LINE
  5
90B0
  8
0
  6
CONTINUOUS
 62
     7
 10
601.51212444142755
 20
717.84571800749757
 30
0.0
 11
601.51212444142755
 21
707.84571800749745
 31
0.0
  0
LINE
  5
90B1
  8
0
  6
CONTINUOUS
 62
     7
 10
601.51212444142755
 20
717.84571800749757
 30
0.0
 11
646.51215444142758
 21
717.84571800749757
 31
0.0
  0
LINE
  5
90B2
  8
0
  6
CONTINUOUS
 62
     7
 10
601.51212444142755
 20
707.84571800749745
 30
0.0
 11
646.51215444142758
 21
707.84571800749745
 31
0.0
  0
ARC
  5
90B3
  8
0
  6
CONTINUOUS
 62
     7
 10
446.51209444142762
 20
790.44751800749748
 30
0.0
 40
3.0
 50
271.99999999999721
 51
0.0
  0
ARC
  5
90B4
  8
0
  6
CONTINUOUS
 62
     7
 10
446.51209444142762
 20
635.24387800749776
 30
0.0
 40
3.0
 50
0.0
 51
88.000000000002785
  0
ARC
  5
90B5
  8
0
  6
CONTINUOUS
 62
     7
 10
458.51209444142762
 20
647.77350800749775
 30
0.0
 40
3.0
 50
270.0
 51
0.0
  0
ARC
  5
90B6
  8
0
  6
CONTINUOUS
 62
     7
 10
458.51209444142762
 20
777.91791800749752
 30
0.0
 40
3.0
 50
0.0
 51
90.00000299999769
  0
ARC
  5
90B7
  8
0
  6
CONTINUOUS
 62
     7
 10
458.51209444142762
 20
626.95569800749763
 30
0.0
 40
3.0
 50
0.0
 51
90.00000299999769
  0
ARC
  5
90B8
  8
0
  6
CONTINUOUS
 62
     7
 10
464.51209444142762
 20
616.59198800749766
 30
0.0
 40
3.0
 50
180.00001000000091
 51
268.0000000000029
  0
ARC
  5
90B9
  8
0
  6
CONTINUOUS
 62
     7
 10
452.51209444142751
 20
632.95569800749763
 30
0.0
 40
3.0
 50
180.00001000000091
 51
270.0
  0
ARC
  5
90BA
  8
0
  6
CONTINUOUS
 62
     7
 10
452.51209444142751
 20
621.92460800749757
 30
0.0
 40
3.0
 50
180.00001000000091
 51
270.0
  0
ARC
  5
90BB
  8
0
  6
CONTINUOUS
 62
     7
 10
458.54932444142747
 20
615.92460800749745
 30
0.0
 40
3.0
 50
6.3862994000021516
 51
90.00000299999769
  0
ARC
  5
90BC
  8
0
  6
CONTINUOUS
 62
     7
 10
458.54932444142747
 20
809.76685800749772
 30
0.0
 40
3.0
 50
270.0
 51
353.61370000000318
  0
ARC
  5
90BD
  8
0
  6
CONTINUOUS
 62
     7
 10
452.51209444142751
 20
792.73572800749753
 30
0.0
 40
3.0
 50
90.00000299999769
 51
180.00001000000091
  0
ARC
  5
90BE
  8
0
  6
CONTINUOUS
 62
     7
 10
464.51209444142762
 20
809.09943800749772
 30
0.0
 40
3.0
 50
91.999998000000545
 51
180.00001000000091
  0
ARC
  5
90BF
  8
0
  6
CONTINUOUS
 62
     7
 10
458.51209444142762
 20
798.73572800749776
 30
0.0
 40
3.0
 50
270.0
 51
0.0
  0
ARC
  5
90C0
  8
0
  6
CONTINUOUS
 62
     7
 10
452.51209444142751
 20
803.7668580074976
 30
0.0
 40
3.0
 50
90.00000299999769
 51
180.00001000000091
  0
ARC
  5
90C1
  8
0
  6
CONTINUOUS
 62
     7
 10
560.0353844414276
 20
605.25135800749774
 30
0.0
 40
5.0
 50
45.000000999999152
 51
88.000000000002785
  0
ARC
  5
90C2
  8
0
  6
CONTINUOUS
 62
     7
 10
573.51212444142755
 20
622.24598800749766
 30
0.0
 40
3.0
 50
268.0000000000029
 51
0.0
  0
ARC
  5
90C3
  8
0
  6
CONTINUOUS
 62
     7
 10
573.51212444142755
 20
803.44544800749748
 30
0.0
 40
3.0
 50
0.0
 51
91.999998000000545
  0
ARC
  5
90C4
  8
0
  6
CONTINUOUS
 62
     7
 10
572.51212444142755
 20
826.92481800749715
 30
0.0
 40
3.0
 50
91.999998000000545
 51
180.00001000000091
  0
ARC
  5
90C5
  8
0
  6
CONTINUOUS
 62
     7
 10
572.51212444142755
 20
653.93497800749765
 30
0.0
 40
3.0
 50
90.00000299999769
 51
180.00001000000091
  0
ARC
  5
90C6
  8
0
  6
CONTINUOUS
 62
     7
 10
572.51212444142755
 20
771.75647800749755
 30
0.0
 40
3.0
 50
179.999989999999
 51
270.0
  0
ARC
  5
90C7
  8
0
  6
CONTINUOUS
 62
     7
 10
572.51212444142755
 20
598.76658800749783
 30
0.0
 40
3.0
 50
179.999989999999
 51
268.00000999999861
  0
ARC
  5
90C8
  8
0
  6
CONTINUOUS
 62
     7
 10
560.0353844414276
 20
820.44007800749728
 30
0.0
 40
5.0
 50
271.99999999999721
 51
315.00000000000011
  0
ARC
  5
90C9
  8
0
  6
CONTINUOUS
 62
     7
 10
601.51212444142755
 20
712.84571800749745
 30
0.0
 40
5.0
 50
90.00000299999769
 51
270.0
  0
POLYLINE
  5
90CA
  8
0
  6
CONTINUOUS
 62
     7
 66
     1
 10
0.0
 20
0.0
 30
0.0
  0
VERTEX
  5
90CB
  8
0
  6
CONTINUOUS
 62
     7
 10
562.17823444142766
 20
815.51184800749752
 30
0.0
 42
0.07982674
  0
VERTEX
  5
90CC
  8
0
  6
CONTINUOUS
 62
     7
 10
536.3364044414277
 20
748.60539800749746
 30
0.0
 42
0.10414855
  0
VERTEX
  5
90CD
  8
0
  6
CONTINUOUS
 62
     7
 10
536.33647444142753
 20
677.08566800749759
 30
0.0
 42
0.07982627
  0
VERTEX
  5
90CE
  8
0
  6
CONTINUOUS
 62
     7
 10
562.17823444142766
 20
610.17957800749775
 30
0.0
  0
SEQEND
  5
90CF
  8
0
 62
     7
  0
LINE
  5
9165
  8
0
  6
CONTINUOUS
 62
     7
 10
646.51215444142758
 20
453.27510099839151
 30
0.0
 11
588.51218444142717
 21
453.27510099839151
 31
0.0
  0
LINE
  5
9166
  8
0
  6
CONTINUOUS
 62
     7
 10
646.51215444142758
 20
456.27510099839162
 30
0.0
 11
601.51215444142724
 21
456.27510099839162
 31
0.0
  0
LINE
  5
9167
  8
0
  6
CONTINUOUS
 62
     7
 10
646.51215444142758
 20
421.27512099839117
 30
0.0
 11
588.51218444142717
 21
421.27512099839117
 31
0.0
  0
LINE
  5
9168
  8
0
  6
CONTINUOUS
 62
     7
 10
601.51215444142724
 20
453.27510099839151
 30
0.0
 11
601.51215444142724
 21
456.27510099839162
 31
0.0
  0
LINE
  5
9169
  8
0
  6
CONTINUOUS
 62
     7
 10
471.51218444142739
 20
508.77510099839128
 30
0.0
 11
471.51218444142739
 21
309.77509599839158
 31
0.0
  0
LINE
  5
916B
  8
0
  6
CONTINUOUS
 62
     7
 10
646.51215444142758
 20
421.27512099839117
 30
0.0
 11
646.51215444142758
 21
456.27510099839162
 31
0.0
  0
LINE
  5
916C
  8
0
  6
CONTINUOUS
 62
     7
 10
471.51218444142739
 20
439.46044099839168
 30
0.0
 11
471.51371444142723
 21
439.46044099839168
 31
0.0
  0
LINE
  5
916D
  8
0
  6
CONTINUOUS
 62
     7
 10
449.51218444142711
 20
500.29915099839121
 30
0.0
 11
449.51218444142711
 21
318.25166699839161
 31
0.0
  0
LINE
  5
916E
  8
0
  6
CONTINUOUS
 62
     7
 10
452.40751444142722
 20
503.29735099839161
 30
0.0
 11
459.58195444142717
 21
503.54788099839129
 31
0.0
  0
LINE
  5
916F
  8
0
  6
CONTINUOUS
 62
     7
 10
461.51218444142722
 20
312.05568699839159
 30
0.0
 11
461.51218444142722
 21
328.85731799839169
 31
0.0
  0
LINE
  5
9170
  8
0
  6
CONTINUOUS
 62
     7
 10
463.44236444142717
 20
508.49330099839119
 30
0.0
 11
471.51212444142737
 21
508.77510099839128
 31
0.0
  0
LINE
  5
9171
  8
0
  6
CONTINUOUS
 62
     7
 10
451.51218444142739
 20
492.57776099839151
 30
0.0
 11
459.51218444142739
 21
492.57776099839151
 31
0.0
  0
LINE
  5
9172
  8
0
  6
CONTINUOUS
 62
     7
 10
451.51218444142739
 20
475.60720099839119
 30
0.0
 11
459.51218444142739
 21
475.60720099839119
 31
0.0
  0
LINE
  5
9173
  8
0
  6
CONTINUOUS
 62
     7
 10
461.51218444142722
 20
494.57775099839142
 30
0.0
 11
461.51218444142722
 21
506.49452099839152
 31
0.0
  0
LINE
  5
9174
  8
0
  6
CONTINUOUS
 62
     7
 10
450.9907044414274
 20
466.65778099839127
 30
0.0
 11
459.94126444142722
 21
466.65778099839127
 31
0.0
  0
LINE
  5
9175
  8
0
  6
CONTINUOUS
 62
     7
 10
452.40745444142738
 20
315.2528839983915
 30
0.0
 11
459.58195444142717
 21
315.00234199839161
 31
0.0
  0
LINE
  5
9176
  8
0
  6
CONTINUOUS
 62
     7
 10
461.51218444142722
 20
348.89485499839162
 30
0.0
 11
461.51218444142722
 21
473.60721099839151
 31
0.0
  0
LINE
  5
9177
  8
0
  6
CONTINUOUS
 62
     7
 10
463.44236444142717
 20
310.05690699839158
 30
0.0
 11
471.51218444142739
 21
309.7751039983915
 31
0.0
  0
LINE
  5
9178
  8
0
  6
CONTINUOUS
 62
     7
 10
588.51218444142717
 20
332.27510399839161
 30
0.0
 11
588.51218444142717
 21
542.27513099839155
 31
0.0
  0
LINE
  5
9179
  8
0
  6
CONTINUOUS
 62
     7
 10
584.51215444142724
 20
542.27513099839155
 30
0.0
 11
588.51218444142717
 21
542.27513099839155
 31
0.0
  0
LINE
  5
917A
  8
0
  6
CONTINUOUS
 62
     7
 10
573.22761444142736
 20
530.86672099839177
 30
0.0
 11
573.40745444142738
 21
530.87300099839115
 31
0.0
  0
LINE
  5
917B
  8
0
  6
CONTINUOUS
 62
     7
 10
532.61216444142701
 20
510.37505099839137
 30
0.0
 11
539.84232444142719
 21
509.21379099839152
 31
0.0
  0
LINE
  5
917C
  8
0
  6
CONTINUOUS
 62
     7
 10
572.51215444142724
 20
375.58583099839137
 30
0.0
 11
576.51218444142728
 21
375.58583099839137
 31
0.0
  0
LINE
  5
917D
  8
0
  6
CONTINUOUS
 62
     7
 10
572.51215444142724
 20
405.51087099839162
 30
0.0
 11
576.51218444142728
 21
405.51087099839162
 31
0.0
  0
LINE
  5
917E
  8
0
  6
CONTINUOUS
 62
     7
 10
572.51215444142724
 20
493.18585099839152
 30
0.0
 11
576.51218444142728
 21
493.18585099839152
 31
0.0
  0
LINE
  5
917F
  8
0
  6
CENTER
 62
     7
 10
593.85731444142743
 20
341.81569199839163
 30
0.0
 11
562.98728444142739
 21
341.81569199839163
 31
0.0
  0
LINE
  5
9180
  8
0
  6
CONTINUOUS
 62
     7
 10
449.51218444142711
 20
348.89485499839162
 30
0.0
 11
567.77567444142721
 21
348.89485499839162
 31
0.0
  0
LINE
  5
9181
  8
0
  6
CONTINUOUS
 62
     7
 10
556.74909444142725
 20
307.54308699839157
 30
0.0
 11
577.51215444142736
 21
319.53065099839159
 31
0.0
  0
LINE
  5
9182
  8
0
  6
CONTINUOUS
 62
     7
 10
557.40003444142735
 20
486.31212099839161
 30
0.0
 11
552.97928444142735
 21
443.70825099839152
 31
0.0
  0
LINE
  5
9183
  8
0
  6
CONTINUOUS
 62
     7
 10
449.51218444142711
 20
488.47954099839131
 30
0.0
 11
556.50565444142717
 21
488.47954099839131
 31
0.0
  0
LINE
  5
9184
  8
0
  6
CONTINUOUS
 62
     7
 10
569.51215444142724
 20
408.51087099839162
 30
0.0
 11
569.51215444142724
 21
496.18585099839129
 31
0.0
  0
LINE
  5
9185
  8
0
  6
CONTINUOUS
 62
     7
 10
569.51215444142724
 20
322.35788299839157
 30
0.0
 11
569.51215444142724
 21
372.58583099839132
 31
0.0
  0
LINE
  5
9186
  8
0
  6
CONTINUOUS
 62
     7
 10
449.51218444142711
 20
328.85731799839169
 30
0.0
 11
567.77567444142721
 21
328.85731799839169
 31
0.0
  0
LINE
  5
9187
  8
0
  6
CONTINUOUS
 62
     7
 10
584.51215444142724
 20
319.77510399839161
 30
0.0
 11
584.51215444142724
 21
437.27510099839151
 31
0.0
  0
LINE
  5
9188
  8
0
  6
CONTINUOUS
 62
     7
 10
584.51215444142724
 20
437.27510099839151
 30
0.0
 11
584.51215444142724
 21
554.77510099839139
 31
0.0
  0
LINE
  5
9189
  8
0
  6
CONTINUOUS
 62
     7
 10
572.40748444142741
 20
554.35237099839117
 30
0.0
 11
584.51215444142724
 21
554.77510099839139
 31
0.0
  0
LINE
  5
918A
  8
0
  6
CONTINUOUS
 62
     7
 10
571.79670444142744
 20
342.84539399839161
 30
0.0
 11
573.61686444142742
 21
342.90895399839161
 31
0.0
  0
LINE
  5
918B
  8
0
  6
CONTINUOUS
 62
     7
 10
576.51218444142728
 20
437.27510099839151
 30
0.0
 11
576.51218444142728
 21
527.87483099839164
 31
0.0
  0
LINE
  5
918C
  8
0
  6
CONTINUOUS
 62
     7
 10
584.51215444142724
 20
332.27510399839161
 30
0.0
 11
588.51218444142717
 21
332.27510399839161
 31
0.0
  0
LINE
  5
918D
  8
0
  6
CONTINUOUS
 62
     7
 10
576.51218444142728
 20
345.90712299839163
 30
0.0
 11
576.51218444142728
 21
437.27510099839151
 31
0.0
  0
LINE
  5
918E
  8
0
  6
CENTER
 62
     7
 10
593.33408444142719
 20
532.7345109983911
 30
0.0
 11
565.08018444142738
 21
532.7345109983911
 31
0.0
  0
LINE
  5
918F
  8
0
  6
CONTINUOUS
 62
     7
 10
572.61686444142742
 20
319.35971399839161
 30
0.0
 11
584.51215444142724
 21
319.77511199839159
 31
0.0
  0
LINE
  5
9190
  8
0
  6
CONTINUOUS
 62
     7
 10
471.51218444142739
 20
309.7751039983915
 30
0.0
 11
556.74915444142744
 21
307.5430939983915
 31
0.0
  0
LINE
  5
9191
  8
0
  6
CONTINUOUS
 62
     7
 10
471.51218444142739
 20
508.77510099839128
 30
0.0
 11
530.61802444142734
 21
510.32285099839152
 31
0.0
  0
LINE
  5
9192
  8
0
  6
CONTINUOUS
 62
     7
 10
534.02268444142726
 20
511.78557099839128
 30
0.0
 11
569.51218444142728
 21
547.27510099839151
 31
0.0
  0
LINE
  5
9193
  8
0
  6
CONTINUOUS
 62
     7
 10
569.51215444142724
 20
496.18585099839129
 30
0.0
 11
569.51215444142724
 21
551.35424099839111
 31
0.0
  0
ARC
  5
9194
  8
0
  6
CONTINUOUS
 62
     7
 10
459.51218444142739
 20
505.54666099839142
 30
0.0
 40
2.0
 50
271.9999999999971
 51
0.0
  0
ARC
  5
9195
  8
0
  6
CONTINUOUS
 62
     7
 10
452.51218444142739
 20
500.29915099839121
 30
0.0
 40
3.0
 50
91.999998000000545
 51
180.0000099999977
  0
ARC
  5
9196
  8
0
  6
CONTINUOUS
 62
     7
 10
452.51218444142739
 20
318.25166699839161
 30
0.0
 40
3.0
 50
179.999989999999
 51
268.00000999999861
  0
ARC
  5
9197
  8
0
  6
CONTINUOUS
 62
     7
 10
463.51218444142739
 20
506.49452099839152
 30
0.0
 40
2.0
 50
91.999998000000545
 51
180.0000099999977
  0
ARC
  5
9198
  8
0
  6
CONTINUOUS
 62
     7
 10
446.51218444142739
 20
331.67327499839149
 30
0.0
 40
3.0
 50
0.0
 51
87.999999999996405
  0
ARC
  5
9199
  8
0
  6
CONTINUOUS
 62
     7
 10
446.51218444142739
 20
486.8769609983915
 30
0.0
 40
3.0
 50
271.9999999999971
 51
0.0
  0
ARC
  5
919A
  8
0
  6
CONTINUOUS
 62
     7
 10
459.51218444142739
 20
473.60721099839151
 30
0.0
 40
2.0
 50
0.0
 51
90.00000299999769
  0
ARC
  5
919B
  8
0
  6
CONTINUOUS
 62
     7
 10
451.51218444142739
 20
477.60720099839119
 30
0.0
 40
2.0
 50
179.999989999999
 51
270.0
  0
ARC
  5
919C
  8
0
  6
CONTINUOUS
 62
     7
 10
459.51218444142739
 20
494.57775099839142
 30
0.0
 40
2.0
 50
270.0
 51
0.0
  0
ARC
  5
919D
  8
0
  6
CONTINUOUS
 62
     7
 10
451.51218444142739
 20
490.57776099839151
 30
0.0
 40
2.0
 50
90.00000299999769
 51
180.0000099999977
  0
ARC
  5
919E
  8
0
  6
CONTINUOUS
 62
     7
 10
459.51218444142739
 20
313.00356599839148
 30
0.0
 40
2.0
 50
0.0
 51
87.999999999996405
  0
ARC
  5
919F
  8
0
  6
CONTINUOUS
 62
     7
 10
463.51218444142739
 20
312.05568699839159
 30
0.0
 40
2.0
 50
179.999989999999
 51
268.00000999999861
  0
ARC
  5
91A0
  8
0
  6
CONTINUOUS
 62
     7
 10
452.51218444142739
 20
318.25105999839161
 30
0.0
 40
3.0
 50
179.999989999999
 51
268.00000999999861
  0
ARC
  5
91A1
  8
0
  6
CONTINUOUS
 62
     7
 10
530.48710444142739
 20
515.32112099839151
 30
0.0
 40
5.0
 50
271.50000000000267
 51
315.0
  0
ARC
  5
91A2
  8
0
  6
CONTINUOUS
 62
     7
 10
573.51218444142728
 20
527.87483099839164
 30
0.0
 40
3.0
 50
0.0
 51
91.999998000000545
  0
ARC
  5
91A3
  8
0
  6
CONTINUOUS
 62
     7
 10
572.51215444142724
 20
551.35424099839111
 30
0.0
 40
3.0
 50
91.999998000000545
 51
180.0000099999977
  0
ARC
  5
91A4
  8
0
  6
CONTINUOUS
 62
     7
 10
572.51215444142724
 20
496.18585099839129
 30
0.0
 40
3.0
 50
179.999989999999
 51
270.0
  0
ARC
  5
91A5
  8
0
  6
CONTINUOUS
 62
     7
 10
573.51218444142728
 20
345.90712299839163
 30
0.0
 40
3.0
 50
271.9999999999971
 51
0.0
  0
ARC
  5
91A6
  8
0
  6
CONTINUOUS
 62
     7
 10
572.51215444142724
 20
408.51087099839162
 30
0.0
 40
3.0
 50
179.999989999999
 51
270.0
  0
ARC
  5
91A7
  8
0
  6
CONTINUOUS
 62
     7
 10
572.51215444142724
 20
372.58583099839132
 30
0.0
 40
3.0
 50
90.00000299999769
 51
180.0000099999977
  0
ARC
  5
91A8
  8
0
  6
CONTINUOUS
 62
     7
 10
592.76566444142725
 20
439.57987099839158
 30
0.0
 40
40.0
 50
174.0759799999995
 51
234.4553399999995
  0
ARC
  5
91A9
  8
0
  6
CONTINUOUS
 62
     7
 10
536.51215444142736
 20
488.47954099839131
 30
0.0
 40
21.0
 50
354.07597999999962
 51
80.875525000003066
  0
ARC
  5
91AA
  8
0
  6
CONTINUOUS
 62
     7
 10
572.51215444142724
 20
322.35788299839157
 30
0.0
 40
3.0
 50
179.999989999999
 51
271.99999000000139
  0
LINE
  5
9214
  8
0
  6
AM_ISO08W050
 10
736.2098855753635
 20
437.27510099839151
 30
0.0
 11
981.45996657536318
 21
437.27510099839151
 31
0.0
  0
LINE
  5
9218
  8
0
  6
CONTINUOUS
 62
     7
 10
906.55638057536351
 20
437.27510099839151
 30
0.0
 11
906.55638057536351
 21
399.27512099839151
 31
0.0
  0
LINE
  5
9219
  8
0
  6
CONTINUOUS
 62
     7
 10
861.55638557536327
 20
517.78981099839154
 30
0.0
 11
861.55638557536327
 21
511.59935099839151
 31
0.0
  0
LINE
  5
921A
  8
0
  6
CONTINUOUS
 62
     7
 10
855.55638557536361
 20
517.78981099839154
 30
0.0
 11
855.55638557536361
 21
511.59935099839151
 31
0.0
  0
LINE
  5
921B
  8
0
  6
CONTINUOUS
 62
     7
 10
858.55638557536349
 20
319.77510399839161
 30
0.0
 11
888.55638557536338
 21
319.77510399839161
 31
0.0
  0
LINE
  5
921C
  8
0
  6
CONTINUOUS
 62
     7
 10
976.05637657536352
 20
407.27510099839122
 30
0.0
 11
972.64152457536352
 21
342.11582499839159
 31
0.0
  0
LINE
  5
921D
  8
0
  6
CONTINUOUS
 62
     7
 10
976.05637457536363
 20
437.27510099839151
 30
0.0
 11
976.05637457536363
 21
467.27510099839128
 31
0.0
  0
LINE
  5
921E
  8
0
  6
CONTINUOUS
 62
     7
 10
888.55637557536352
 20
319.77509599839158
 30
0.0
 11
953.71565957536336
 21
323.18995199839162
 31
0.0
  0
LINE
  5
921F
  8
0
  6
CONTINUOUS
 62
     7
 10
858.55638557536349
 20
554.77510099839139
 30
0.0
 11
888.55638557536338
 21
554.77510099839139
 31
0.0
  0
LINE
  5
9220
  8
0
  6
CONTINUOUS
 62
     7
 10
888.55638557536338
 20
554.77510099839139
 30
0.0
 11
953.71565157536327
 21
551.36025099839151
 31
0.0
  0
LINE
  5
9221
  8
0
  6
CENTER
 62
     7
 10
943.01980957536352
 20
521.7385409983915
 30
0.0
 11
963.73817057536326
 21
542.45690099839135
 31
0.0
  0
LINE
  5
9222
  8
0
  6
CONTINUOUS
 62
     7
 10
898.31717557536342
 20
471.37905099839151
 30
0.0
 11
927.54748457536334
 21
500.60935099839151
 31
0.0
  0
LINE
  5
9223
  8
0
  6
CONTINUOUS
 62
     7
 10
892.66030557536305
 20
477.03591099839122
 30
0.0
 11
921.89061657536354
 21
506.26621099839127
 31
0.0
  0
LINE
  5
9224
  8
0
  6
CONTINUOUS
 62
     7
 10
818.79557557536305
 20
471.37905099839151
 30
0.0
 11
789.56527557536333
 21
500.60935099839151
 31
0.0
  0
LINE
  5
9225
  8
0
  6
CENTER
 62
     7
 10
772.74896557536351
 20
351.46770099839171
 30
0.0
 11
753.30898557536318
 21
332.02772899839158
 31
0.0
  0
LINE
  5
9226
  8
0
  6
CENTER
 62
     7
 10
774.42837557536348
 20
521.40309099839146
 30
0.0
 11
753.50968557536351
 21
542.32180099839115
 31
0.0
  0
LINE
  5
9227
  8
0
  6
CONTINUOUS
 62
     7
 10
741.05638557536338
 20
407.27510099839122
 30
0.0
 11
744.47123557536349
 21
342.11581799839149
 31
0.0
  0
LINE
  5
9228
  8
0
  6
CONTINUOUS
 62
     7
 10
976.05637457536363
 20
437.27510099839151
 30
0.0
 11
976.05637457536363
 21
407.27510099839122
 31
0.0
  0
LINE
  5
9229
  8
0
  6
CONTINUOUS
 62
     7
 10
976.05637857536351
 20
467.27510099839128
 30
0.0
 11
972.64152457536352
 21
532.4343709983915
 31
0.0
  0
LINE
  5
922A
  8
0
  6
CONTINUOUS
 62
     7
 10
828.55638557536338
 20
554.77510099839139
 30
0.0
 11
763.3971055753633
 21
551.36025099839151
 31
0.0
  0
LINE
  5
922B
  8
0
  6
CONTINUOUS
 62
     7
 10
828.55638557536338
 20
319.77509599839158
 30
0.0
 11
763.3971055753633
 21
323.18995199839162
 31
0.0
  0
LINE
  5
922C
  8
0
  6
CENTER
 62
     7
 10
942.85525457536335
 20
352.97622999839172
 30
0.0
 11
964.00488957536334
 21
331.82659499839161
 31
0.0
  0
LINE
  5
922D
  8
0
  6
CONTINUOUS
 62
     7
 10
741.05638557536338
 20
467.27510099839128
 30
0.0
 11
744.47123557536349
 21
532.43440099839154
 31
0.0
  0
LINE
  5
922E
  8
0
  6
CONTINUOUS
 62
     7
 10
741.05638557536338
 20
437.27510099839151
 30
0.0
 11
741.05638557536338
 21
407.27510099839122
 31
0.0
  0
LINE
  5
922F
  8
0
  6
CONTINUOUS
 62
     7
 10
858.55638557536349
 20
319.77510399839161
 30
0.0
 11
828.55636557536343
 21
319.77510399839161
 31
0.0
  0
LINE
  5
9230
  8
0
  6
CONTINUOUS
 62
     7
 10
858.55638557536349
 20
554.77510099839139
 30
0.0
 11
828.55636557536343
 21
554.77510099839139
 31
0.0
  0
LINE
  5
9231
  8
0
  6
CONTINUOUS
 62
     7
 10
741.05638557536338
 20
437.27510099839151
 30
0.0
 11
741.05638557536338
 21
467.27510099839128
 31
0.0
  0
LINE
  5
9232
  8
0
  6
CONTINUOUS
 62
     7
 10
810.55636557536343
 20
437.27510099839151
 30
0.0
 11
810.55636557536343
 21
399.27512099839151
 31
0.0
  0
LINE
  5
9233
  8
0
  6
CONTINUOUS
 62
     7
 10
805.55638557536338
 20
394.27512099839151
 30
0.0
 11
772.57963557536345
 21
394.27512099839151
 31
0.0
  0
LINE
  5
9234
  8
0
  6
CONTINUOUS
 62
     7
 10
824.45243557536344
 20
477.03591099839122
 30
0.0
 11
795.2221355753635
 21
506.26621099839127
 31
0.0
  0
LINE
  5
9235
  8
0
  6
CONTINUOUS
 62
     7
 10
911.55638057536362
 20
394.27512099839151
 30
0.0
 11
944.53311457536336
 21
394.27512099839151
 31
0.0
  0
LINE
  5
9236
  8
0
  6
CONTINUOUS
 62
     7
 10
853.55638557536338
 20
448.27512099839151
 30
0.0
 11
863.55636557536332
 21
448.27512099839151
 31
0.0
  0
LINE
  5
9237
  8
0
  6
CONTINUOUS
 62
     7
 10
853.55638557536338
 20
448.27512099839151
 30
0.0
 11
853.55638557536338
 21
456.27510099839162
 31
0.0
  0
LINE
  5
9238
  8
0
  6
CONTINUOUS
 62
     7
 10
863.55636557536332
 20
448.27512099839151
 30
0.0
 11
863.55636557536332
 21
456.27510099839162
 31
0.0
  0
LINE
  5
9239
  8
0
  6
CONTINUOUS
 62
     7
 10
853.55638557536338
 20
456.27510099839162
 30
0.0
 11
863.55636557536332
 21
456.27510099839162
 31
0.0
  0
ARC
  5
9241
  8
0
  6
CONTINUOUS
 62
     7
 10
864.55638557536338
 20
517.78981099839154
 30
0.0
 40
3.0
 50
90.00000299999769
 51
180.0000099999977
  0
ARC
  5
9242
  8
0
  6
CONTINUOUS
 62
     7
 10
889.1247855753636
 20
480.57144099839121
 30
0.0
 40
5.0
 50
234.77685999999909
 51
315.0
  0
ARC
  5
9243
  8
0
  6
CONTINUOUS
 62
     7
 10
952.66893357536333
 20
343.16254799839157
 30
0.0
 40
20.0
 50
272.99999999999909
 51
356.99999999999778
  0
ARC
  5
9244
  8
0
  6
CONTINUOUS
 62
     7
 10
952.66893357536333
 20
531.38768099839137
 30
0.0
 40
20.0
 50
3.0000001000020982
 51
86.99999899999699
  0
ARC
  5
9245
  8
0
  6
CONTINUOUS
 62
     7
 10
852.55638557536349
 20
511.59935099839151
 30
0.0
 40
3.0
 50
273.35581999999681
 51
0.0
  0
ARC
  5
9246
  8
0
  6
CONTINUOUS
 62
     7
 10
858.55638557536349
 20
409.27512099839117
 30
0.0
 40
93.499999999999986
 50
162.14679000000021
 51
183.00788
  0
ARC
  5
9247
  8
0
  6
CONTINUOUS
 62
     7
 10
858.55638557536349
 20
409.27512099839117
 30
0.0
 40
99.500000000000014
 50
93.355818000003964
 51
121.1615
  0
ARC
  5
9248
  8
0
  6
CONTINUOUS
 62
     7
 10
901.85270557536353
 20
467.84352099839151
 30
0.0
 40
5.0
 50
135.0
 51
215.22314999999961
  0
ARC
  5
9249
  8
0
  6
CONTINUOUS
 62
     7
 10
852.55638557536349
 20
517.78981099839154
 30
0.0
 40
3.0
 50
0.0
 51
90.00000299999769
  0
ARC
  5
924A
  8
0
  6
CONTINUOUS
 62
     7
 10
864.55638557536338
 20
511.59935099839151
 30
0.0
 40
3.0
 50
179.999989999999
 51
266.64419000000061
  0
ARC
  5
924B
  8
0
  6
CONTINUOUS
 62
     7
 10
858.55638557536349
 20
409.27512099839117
 30
0.0
 40
99.500000000000014
 50
242.8856600000008
 51
297.11435000000108
  0
ARC
  5
924C
  8
0
  6
CENTER
 62
     7
 10
858.55638557536349
 20
437.27510099839151
 30
0.0
 40
135.0
 50
38.368393000000047
 51
52.256346000001919
  0
CIRCLE
  5
924D
  8
0
  6
CONTINUOUS
 62
     7
 10
954.01579257536343
 20
532.7345109983911
 30
0.0
 40
7.5
  0
ARC
  5
924E
  8
0
  6
CONTINUOUS
 62
     7
 10
931.08301457536345
 20
497.07382099839162
 30
0.0
 40
5.0
 50
39.505817999999088
 51
135.0
  0
ARC
  5
924F
  8
0
  6
CONTINUOUS
 62
     7
 10
918.35510157536316
 20
509.8017609983915
 30
0.0
 40
5.0
 50
315.0
 51
50.49418200000094
  0
CIRCLE
  5
9250
  8
0
  6
CONTINUOUS
 62
     7
 10
858.55638557536349
 20
437.27510099839151
 30
0.0
 40
105.0
  0
CIRCLE
  5
9251
  8
0
  6
CONTINUOUS
 62
     7
 10
763.09696557536336
 20
532.7345109983911
 30
0.0
 40
7.5
  0
CIRCLE
  5
9252
  8
0
  6
CONTINUOUS
 62
     7
 10
858.55638557536349
 20
437.27510099839151
 30
0.0
 40
99.0
  0
ARC
  5
9253
  8
0
  6
CENTER
 62
     7
 10
858.55638557536349
 20
437.27510099839151
 30
0.0
 40
135.0
 50
126.37568000000179
 51
142.25635000000241
  0
ARC
  5
9254
  8
0
  6
CENTER
 62
     7
 10
858.55638557536349
 20
437.27510099839151
 30
0.0
 40
135.0
 50
218.3683899999977
 51
232.25634999999781
  0
CIRCLE
  5
9255
  8
0
  6
CONTINUOUS
 62
     7
 10
763.09696557536336
 20
341.81569199839163
 30
0.0
 40
7.5
  0
ARC
  5
9256
  8
0
  6
CONTINUOUS
 62
     7
 10
764.44381557536326
 20
531.38768099839137
 30
0.0
 40
20.0
 50
92.999999000001679
 51
176.99999000000031
  0
ARC
  5
9257
  8
0
  6
CENTER
 62
     7
 10
858.55638557536349
 20
437.27510099839151
 30
0.0
 40
135.0
 50
306.77085999999912
 51
322.2563500000025
  0
CIRCLE
  5
9258
  8
0
  6
CONTINUOUS
 62
     7
 10
954.01579257536343
 20
341.81569199839163
 30
0.0
 40
7.5
  0
ARC
  5
9259
  8
0
  6
CONTINUOUS
 62
     7
 10
764.44381557536326
 20
343.16254799839157
 30
0.0
 40
20.0
 50
183.00000999999969
 51
267.0000000000008
  0
ARC
  5
925A
  8
0
  6
CONTINUOUS
 62
     7
 10
772.57963557536345
 20
399.27512099839151
 30
0.0
 40
5.0
 50
203.84446999999949
 51
270.0
  0
ARC
  5
925B
  8
0
  6
CONTINUOUS
 62
     7
 10
827.98795557536334
 20
480.57144099839121
 30
0.0
 40
5.0
 50
225.0
 51
305.22315000000231
  0
ARC
  5
925C
  8
0
  6
CONTINUOUS
 62
     7
 10
858.55638557536349
 20
409.27512099839117
 30
0.0
 40
99.500000000000014
 50
58.838493999999237
 51
86.644179999996624
  0
ARC
  5
925D
  8
0
  6
CONTINUOUS
 62
     7
 10
858.55638557536349
 20
409.27512099839117
 30
0.0
 40
99.500000000000014
 50
29.730242999997191
 51
54.136312000000359
  0
ARC
  5
925E
  8
0
  6
CONTINUOUS
 62
     7
 10
858.55638557536349
 20
409.27512099839117
 30
0.0
 40
93.499999999999986
 50
356.99212
 51
17.85321299999983
  0
ARC
  5
925F
  8
0
  6
CONTINUOUS
 62
     7
 10
786.02973557536325
 20
497.07382099839162
 30
0.0
 40
5.0
 50
45.00000100000149
 51
140.49417999999881
  0
ARC
  5
9260
  8
0
  6
CONTINUOUS
 62
     7
 10
858.55638557536349
 20
437.27510099839151
 30
0.0
 40
48.0
 50
54.776849999997779
 51
125.2231400000008
  0
ARC
  5
9261
  8
0
  6
CONTINUOUS
 62
     7
 10
858.55638557536349
 20
437.27510099839151
 30
0.0
 40
48.0
 50
0.0
 51
35.223151999999843
  0
ARC
  5
9262
  8
0
  6
CONTINUOUS
 62
     7
 10
858.55638557536349
 20
437.27510099839151
 30
0.0
 40
89.0
 50
0.4282278599984297
 51
13.875763999998069
  0
CIRCLE
  5
9263
  8
0
  6
CONTINUOUS
 62
     7
 10
858.55638557536349
 20
437.27510099839151
 30
0.0
 40
29.0
  0
ARC
  5
9264
  8
0
  6
CONTINUOUS
 62
     7
 10
858.55638557536349
 20
437.27510099839151
 30
0.0
 40
48.0
 50
144.7768400000017
 51
180.0000099999977
  0
ARC
  5
9265
  8
0
  6
CONTINUOUS
 62
     7
 10
944.53311457536336
 20
399.27512099839151
 30
0.0
 40
5.0
 50
270.0
 51
336.15553000000051
  0
ARC
  5
9266
  8
0
  6
CONTINUOUS
 62
     7
 10
798.75764557536331
 20
509.8017609983915
 30
0.0
 40
5.0
 50
129.50581999999909
 51
225.0
  0
ARC
  5
9267
  8
0
  6
CONTINUOUS
 62
     7
 10
911.55638057536362
 20
399.27512099839151
 30
0.0
 40
5.0
 50
179.999989999999
 51
270.0
  0
ARC
  5
9268
  8
0
  6
CONTINUOUS
 62
     7
 10
858.55638557536349
 20
409.27512099839117
 30
0.0
 40
99.500000000000014
 50
125.86368999999679
 51
150.2697600000005
  0
ARC
  5
9269
  8
0
  6
CONTINUOUS
 62
     7
 10
805.55638557536338
 20
399.27512099839151
 30
0.0
 40
5.0
 50
270.0
 51
0.0
  0
ARC
  5
926A
  8
0
  6
CONTINUOUS
 62
     7
 10
815.26005557536325
 20
467.84352099839151
 30
0.0
 40
5.0
 50
324.77685000000042
 51
45.00000100000149
  0
ARC
  5
926B
  8
0
  6
CONTINUOUS
 62
     7
 10
858.55638557536349
 20
437.27510099839151
 30
0.0
 40
89.0
 50
166.12423000000121
 51
179.57177000000021
  0
ARC
  5
926C
  8
0
  6
CONTINUOUS
 62
     7
 10
858.55638557536349
 20
437.27510099839151
 30
0.0
 40
16.0
 50
108.2099599999986
 51
71.790051999998809
  0
CIRCLE
  5
926D
  8
0
  6
CONTINUOUS
 62
     7
 10
858.55638557536349
 20
437.27510099839151
 30
0.0
 40
4.0
  0
ARC
  5
926E
  8
0
  6
CONTINUOUS
 62
     7
 10
858.55638557536349
 20
437.27510099839151
 30
0.0
 40
16.0
 50
108.2099599999986
 51
71.790051999998809
  0
CIRCLE
  5
926F
  8
0
  6
CONTINUOUS
 62
     7
 10
858.55638557536349
 20
437.27510099839151
 30
0.0
 40
4.0
  0
CIRCLE
  5
9270
  8
0
  6
CONTINUOUS
 62
     7
 10
858.55638557536349
 20
437.27510099839151
 30
0.0
 40
2.75
  0
CIRCLE
  5
9271
  8
0
  6
CONTINUOUS
 62
     7
 10
858.55638557536349
 20
437.27510099839151
 30
0.0
 40
4.0
  0
CIRCLE
  5
9272
  8
0
  6
CONTINUOUS
 62
     7
 10
858.55638557536349
 20
437.27510099839151
 30
0.0
 40
2.75
  0
CIRCLE
  5
9273
  8
0
  6
CONTINUOUS
 62
     7
 10
858.55638557536349
 20
437.27510099839151
 30
0.0
 40
2.75
  0
TEXT
  5
95AA
  8
0
  6
CONTINUOUS
 62
     0
 10
705.06951471305035
 20
705.96074176425316
 30
0.0
 40
15.0
  1
VX08-040EBF~VX08-100EBF
  0
ENDSEC
  0
EOF
