  0
SECTION
  2
HEADER
  9
$ACADVER
  1
AC1009
  9
$INSBASE
 10
0.0
 20
0.0
 30
0.0
  9
$EXTMIN
 10
167.19845228780741
 20
359.31363868342311
 30
-0.0000000000112498
  9
$EXTMAX
 10
1154.587444090841
 20
990.28095655865354
 30
0.0000000000002956
  9
$LIMMIN
 10
0.0000005999945643
 20
-0.0000005963913736
  9
$LIMMAX
 10
1422.5000005999941
 20
924.99999940360874
  9
$ORTHOMODE
 70
     1
  9
$REGENMODE
 70
     1
  9
$FILLMODE
 70
     1
  9
$QTEXTMODE
 70
     0
  9
$MIRRTEXT
 70
     0
  9
$DRAGMODE
 70
     2
  9
$LTSCALE
 40
1.0
  9
$OSMODE
 70
   551
  9
$ATTMODE
 70
     1
  9
$TEXTSIZE
 40
2.5
  9
$TRACEWID
 40
1.0
  9
$TEXTSTYLE
  7
STANDARD
  9
$CLAYER
  8
0
  9
$CELTYPE
  6
BYLAYER
  9
$CECOLOR
 62
   256
  9
$DIMSCALE
 40
1.0
  9
$DIMASZ
 40
2.0
  9
$DIMEXO
 40
1.0
  9
$DIMDLI
 40
8.0
  9
$DIMRND
 40
0.0
  9
$DIMDLE
 40
0.0
  9
$DIMEXE
 40
1.0
  9
$DIMTP
 40
-0.025
  9
$DIMTM
 40
0.043
  9
$DIMTXT
 40
2.5
  9
$DIMCEN
 40
0.0
  9
$DIMTSZ
 40
0.0
  9
$DIMTOL
 70
     0
  9
$DIMLIM
 70
     0
  9
$DIMTIH
 70
     0
  9
$DIMTOH
 70
     0
  9
$DIMSE1
 70
     0
  9
$DIMSE2
 70
     0
  9
$DIMTAD
 70
     3
  9
$DIMZIN
 70
     8
  9
$DIMBLK
  1

  9
$DIMASO
 70
     1
  9
$DIMSHO
 70
     1
  9
$DIMPOST
  1

  9
$DIMAPOST
  1
"
  9
$DIMALT
 70
     0
  9
$DIMALTD
 70
     2
  9
$DIMALTF
 40
0.0393701
  9
$DIMLFAC
 40
1.0
  9
$DIMTOFL
 70
     1
  9
$DIMTVP
 40
0.0
  9
$DIMTIX
 70
     0
  9
$DIMSOXD
 70
     0
  9
$DIMSAH
 70
     0
  9
$DIMBLK1
  1

  9
$DIMBLK2
  1

  9
$DIMSTYLE
  2
AM_JIS
  9
$DIMCLRD
 70
     2
  9
$DIMCLRE
 70
     2
  9
$DIMCLRT
 70
     4
  9
$DIMTFAC
 40
0.71
  9
$DIMGAP
 40
1.5
  9
$LUNITS
 70
     2
  9
$LUPREC
 70
     2
  9
$SKETCHINC
 40
1.0
  9
$FILLETRAD
 40
0.0
  9
$AUNITS
 70
     0
  9
$AUPREC
 70
     0
  9
$MENU
  1
.
  9
$ELEVATION
 40
0.0
  9
$PELEVATION
 40
0.0
  9
$THICKNESS
 40
0.0
  9
$LIMCHECK
 70
     0
  9
$BLIPMODE
 70
     0
  9
$CHAMFERA
 40
2.5
  9
$CHAMFERB
 40
2.5
  9
$SKPOLY
 70
     0
  9
$TDCREATE
 40
2456829.3841110538
  9
$TDUPDATE
 40
2458541.3850145261
  9
$TDINDWG
 40
1.0231741898
  9
$TDUSRTIMER
 40
1.0231736343
  9
$USRTIMER
 70
     1
  9
$ANGBASE
 50
0.0
  9
$ANGDIR
 70
     0
  9
$PDMODE
 70
     0
  9
$PDSIZE
 40
0.0
  9
$PLINEWID
 40
0.0
  9
$COORDS
 70
     1
  9
$SPLFRAME
 70
     0
  9
$SPLINETYPE
 70
     6
  9
$SPLINESEGS
 70
     8
  9
$ATTDIA
 70
     1
  9
$ATTREQ
 70
     1
  9
$HANDLING
 70
     1
  9
$HANDSEED
  5
A31A
  9
$SURFTAB1
 70
     6
  9
$SURFTAB2
 70
     6
  9
$SURFTYPE
 70
     6
  9
$SURFU
 70
     6
  9
$SURFV
 70
     6
  9
$UCSNAME
  2

  9
$UCSORG
 10
0.0
 20
0.0
 30
0.0
  9
$UCSXDIR
 10
1.0
 20
0.0
 30
0.0
  9
$UCSYDIR
 10
0.0
 20
1.0
 30
0.0
  9
$PUCSNAME
  2

  9
$PUCSORG
 10
0.0
 20
0.0
 30
0.0
  9
$PUCSXDIR
 10
1.0
 20
0.0
 30
0.0
  9
$PUCSYDIR
 10
0.0
 20
1.0
 30
0.0
  9
$USERI1
 70
     0
  9
$USERI2
 70
     0
  9
$USERI3
 70
     0
  9
$USERI4
 70
     0
  9
$USERI5
 70
     0
  9
$USERR1
 40
0.0
  9
$USERR2
 40
0.0
  9
$USERR3
 40
0.0
  9
$USERR4
 40
0.0
  9
$USERR5
 40
0.0
  9
$WORLDVIEW
 70
     1
  9
$SHADEDGE
 70
     3
  9
$SHADEDIF
 70
    70
  9
$TILEMODE
 70
     1
  9
$MAXACTVP
 70
    64
  9
$PLIMCHECK
 70
     0
  9
$PEXTMIN
 10
1.0000000000000000E+020
 20
1.0000000000000000E+020
 30
1.0000000000000000E+020
  9
$PEXTMAX
 10
-1.0000000000000000E+020
 20
-1.0000000000000000E+020
 30
-1.0000000000000000E+020
  9
$PLIMMIN
 10
0.0
 20
0.0
  9
$PLIMMAX
 10
420.0
 20
297.0
  9
$UNITMODE
 70
     0
  9
$VISRETAIN
 70
     1
  9
$PLINEGEN
 70
     0
  9
$PSLTSCALE
 70
     1
  0
ENDSEC
  0
SECTION
  2
TABLES
  0
TABLE
  2
VPORT
 70
     1
  0
VPORT
  2
*ACTIVE
 70
     0
 10
0.0
 20
0.0
 11
1.0
 21
1.0
 12
660.89294818932444
 22
674.7972976210383
 13
0.0
 23
0.0
 14
12.5
 24
12.5
 15
50.0
 25
50.0
 16
0.0
 26
0.0
 36
1.0
 17
0.0
 27
0.0
 37
0.0
 40
635.29890129313821
 41
1.7571592210767459
 42
50.0
 43
0.0
 44
0.0
 50
0.0
 51
0.0
 71
     0
 72
  1000
 73
     1
 74
     3
 75
     0
 76
     0
 77
     0
 78
     0
  0
ENDTAB
  0
TABLE
  2
LTYPE
 70
    24
  0
LTYPE
  2
CONTINUOUS
 70
     0
  3
Solid line
 72
    65
 73
     0
 40
0.0
  0
LTYPE
  2
CENTER
 70
     0
  3
Center ____ _ ____ _ ____ _ ____ _ ____ _ ____
 72
    65
 73
     4
 40
50.799999999999997
 49
31.75
 49
-6.3499999999999979
 49
6.3499999999999979
 49
-6.3499999999999979
  0
LTYPE
  2
AM_ISO02W050
 70
     0
  3
__ __ __ __ __ __ __ __ __ __ __ __ __ __ __
 72
    65
 73
     2
 40
7.5
 49
6.0
 49
-1.5
  0
LTYPE
  2
AM_ISO08W050
 70
     0
  3
____ . ____ . ____ . ____ . ____ . ____ . ____
 72
    65
 73
     4
 40
18.0
 49
12.0
 49
-1.5
 49
3.0
 49
-1.5
  0
LTYPE
  2
AM_ISO09W050
 70
     0
  3
_____ . . _____ . . _____ . . ____ .. ____
 72
    65
 73
     6
 40
22.5
 49
12.0
 49
-1.5
 49
3.0
 49
-1.5
 49
3.0
 49
-1.5
  0
LTYPE
  2
AMCONSTR
 70
     0
  3
_______________________
 72
    65
 73
     2
 40
9999.0
 49
9999.0
 49
0.0
  0
LTYPE
  2
AM_ISO08W050X2
 70
     0
  3
__ . __ . __ . __ . __ . __
 72
    65
 73
     4
 40
9.0
 49
6.0
 49
-0.75
 49
1.5
 49
-0.75
  0
LTYPE
  2
AM_ISO02W050X2
 70
     0
  3
 _ _ _ _ _ _ _ _ _ _ _ _
 72
    65
 73
     2
 40
3.75
 49
3.0
 49
-0.75
  0
LTYPE
  2
AMZIGZAG
 70
     0
  3
/\/-/\/-/\/-/\/-/\/-/\/
 72
    65
 73
     2
 40
11.0001
 49
0.0001
 49
-11.0
  0
LTYPE
  2
ACANSTGBM
 70
     0
  3
__ . . __ . .
 72
    65
 73
     6
 40
9.0
 49
4.0
 49
-1.0
 49
1.0
 49
-1.0
 49
1.0
 49
-1.0
  0
LTYPE
  2
ACANSTGLM
 70
     0
  3
_ _ _ _ _
 72
    65
 73
     2
 40
3.0
 49
2.0
 49
-1.0
  0
LTYPE
  2
ACISOWELD
 70
     0
  3
_ _ _ _ _
 72
    65
 73
     2
 40
2.0
 49
2.0
 49
-1.0
  0
LTYPE
  2
ACISOTGB
 70
     0
  3
__ . . __ . .
 72
    65
 73
     6
 40
9.0
 49
4.0
 49
-1.0
 49
1.0
 49
-1.0
 49
1.0
 49
-1.0
  0
LTYPE
  2
ACISOTGL
 70
     0
  3
_ _ _ _ _
 72
    65
 73
     2
 40
3.0
 49
2.0
 49
-1.0
  0
LTYPE
  2
ACJISTGB
 70
     0
  3
__ . . __ . .
 72
    65
 73
     6
 40
9.0
 49
4.0
 49
-1.0
 49
1.0
 49
-1.0
 49
1.0
 49
-1.0
  0
LTYPE
  2
ACJISTGL
 70
     0
  3
_ _ _ _ _
 72
    65
 73
     2
 40
3.0
 49
2.0
 49
-1.0
  0
LTYPE
  2
HIDDEN
 70
     0
  3
Hidden __ __ __ __ __ __ __ __ __ __ __ __ __ _
 72
    65
 73
     2
 40
9.5249999999999968
 49
6.3499999999999979
 49
-3.174999999999998
  0
LTYPE
  2
PHANTOM2
 70
     0
  3
Phantom (.5x) ___ _ _ ___ _ _ ___ _ _ ___ _ _
 72
    65
 73
     6
 40
31.75
 49
15.875
 49
-3.174999999999998
 49
3.174999999999998
 49
-3.174999999999998
 49
3.174999999999998
 49
-3.174999999999998
  0
LTYPE
  2
CENTER2
 70
     0
  3
Center (.5x) ___ _ ___ _ ___ _ ___ _ ___ _ ___
 72
    65
 73
     4
 40
1.125
 49
0.75
 49
-0.125
 49
0.125
 49
-0.125
  0
LTYPE
  2
HIDDEN2
 70
     0
  3
Hidden (.5x) _ _ _ _ _ _ _ _ _ _ _ _ _ _ _ _ _
 72
    65
 73
     2
 40
0.1875
 49
0.125
 49
-0.0625
  0
LTYPE
  2
AMZIGZAG2
 70
     0
  3
/\/-/\/-/\/-/\/-/\/-/\/
 72
    65
 73
     2
 40
0.4401
 49
0.0001
 49
-0.4400000000000002
  0
LTYPE
  2
ACANSTGB
 70
     0
  3
__ . . __ . .
 72
    65
 73
     6
 40
0.35433070866
 49
0.15748031496
 49
-0.03937007874
 49
0.03937007874
 49
-0.03937007874
 49
0.03937007874
 49
-0.03937007874
  0
LTYPE
  2
ACANSTGL
 70
     0
  3
_ _ _ _ _
 72
    65
 73
     2
 40
0.11811023622
 49
0.07874015748
 49
-0.03937007874
  0
ENDTAB
  0
TABLE
  2
LAYER
 70
     5
  0
LAYER
  2
0
 70
     0
 62
     7
  6
CONTINUOUS
  0
LAYER
  2
DEFPOINTS
 70
     0
 62
     7
  6
CONTINUOUS
  0
LAYER
  2
AM_5
 70
     0
 62
     2
  6
CONTINUOUS
  0
LAYER
  2
AM_CL
 70
     0
 62
     1
  6
AMCONSTR
  0
LAYER
  2
AM_0
 70
     0
 62
     7
  6
CONTINUOUS
  0
ENDTAB
  0
TABLE
  2
STYLE
 70
     8
  0
STYLE
  2
STANDARD
 70
     0
 40
0.0
 41
0.7400000000000003
 50
0.0
 71
     0
 42
2.5
  3
txt.shx
  4
bigfont.shx
  0
STYLE
  2

 70
     1
 40
0.0
 41
1.0
 50
0.0
 71
     0
 42
2.5
  3
ltypeshp.shx
  4

  0
STYLE
  2
ACANSTS
 70
     0
 40
1.0
 41
1.0
 50
0.0
 71
     0
 42
2.5
  3
romans.shx
  4
bigfont.shx
  0
STYLE
  2
ACANSGDT
 70
     0
 40
0.0
 41
1.0
 50
0.0
 71
     0
 42
2.5
  3
amgdtans.shx
  4

  0
STYLE
  2
ACISOTS
 70
     0
 40
1.0
 41
1.0
 50
0.0
 71
     0
 42
2.5
  3
isocp.shx
  4
extfont.shx
  0
STYLE
  2
ACISOGDT
 70
     0
 40
0.0
 41
1.0
 50
0.0
 71
     0
 42
2.5
  3
amgdt.shx
  4

  0
STYLE
  2
ACJISGDT
 70
     0
 40
0.0
 41
1.0
 50
0.0
 71
     0
 42
2.5
  3
amgdt.shx
  4

  0
STYLE
  2
ACJISTS
 70
     0
 40
1.0
 41
1.0
 50
0.0
 71
     0
 42
2.5
  3
isocp.shx
  4
extfont.shx
  0
ENDTAB
  0
TABLE
  2
VIEW
 70
     6
  0
VIEW
  2
AM_VIEW1
 70
     0
 40
462.5
 10
488.83452017294832
 20
693.74999940360874
 41
977.66903914590773
 11
0.0
 21
0.0
 31
1.0
 12
0.0
 22
0.0
 32
0.0
 42
50.0
 43
0.0
 44
0.0
 50
0.0
 71
     0
  0
VIEW
  2
AM_VIEW2
 70
     0
 40
462.5
 10
933.66548102704076
 20
693.74999940360874
 41
977.66903914590773
 11
0.0
 21
0.0
 31
1.0
 12
0.0
 22
0.0
 32
0.0
 42
50.0
 43
0.0
 44
0.0
 50
0.0
 71
     0
  0
VIEW
  2
AM_VIEW3
 70
     0
 40
462.5
 10
488.83452017294832
 20
231.24999940360871
 41
977.66903914590773
 11
0.0
 21
0.0
 31
1.0
 12
0.0
 22
0.0
 32
0.0
 42
50.0
 43
0.0
 44
0.0
 50
0.0
 71
     0
  0
VIEW
  2
AM_VIEW4
 70
     0
 40
462.5
 10
933.66548102704076
 20
231.24999940360871
 41
977.66903914590773
 11
0.0
 21
0.0
 31
1.0
 12
0.0
 22
0.0
 32
0.0
 42
50.0
 43
0.0
 44
0.0
 50
0.0
 71
     0
  0
VIEW
  2
AM_VIEW5
 70
     0
 40
462.5
 10
711.25000059999468
 20
462.49999940360868
 41
977.66903914590773
 11
0.0
 21
0.0
 31
1.0
 12
0.0
 22
0.0
 32
0.0
 42
50.0
 43
0.0
 44
0.0
 50
0.0
 71
     0
  0
VIEW
  2
AM_VIEW6
 70
     0
 40
924.99075000000016
 10
711.25000059999468
 20
462.49999940360868
 41
1955.318524911032
 11
0.0
 21
0.0
 31
1.0
 12
0.0
 22
0.0
 32
0.0
 42
50.0
 43
0.0
 44
0.0
 50
0.0
 71
     0
  0
ENDTAB
  0
TABLE
  2
UCS
 70
     0
  0
ENDTAB
  0
TABLE
  2
APPID
 70
   157
  0
APPID
  2
ACAD
 70
     0
  0
APPID
  2
ACADANNOTATIVE
 70
     0
  0
APPID
  2
ACAD_MLEADERVER
 70
     0
  0
APPID
  2
MCAD_NO_VIS
 70
     0
  0
APPID
  2
ACAD_TEMP_GRAPHIC
 70
     0
  0
APPID
  2
AD_DRAW
 70
     0
  0
APPID
  2
ACATTRIBSERVICES
 70
     0
  0
APPID
  2
DESIGNERASSEMBLIES
 70
     0
  0
APPID
  2
ACADM_DIM_EDIT
 70
     0
  0
APPID
  2
AMDT_DM_ADJ
 70
     0
  0
APPID
  2
GENIUS_GENDIMSH_14
 70
     0
  0
APPID
  2
GEVID1057795304
 70
     0
  0
APPID
  2
GEVDC
 70
     0
  0
APPID
  2
GEVCON
 70
     0
  0
APPID
  2
GENIUS_GENBH_13
 70
     0
  0
APPID
  2
GENIUS_GENOENT_13
 70
     0
  0
APPID
  2
GENIUS_GENOBJ-NBEHI-BHF_13
 70
     0
  0
APPID
  2
GENIUS_GENOLIS_13
 70
     0
  0
APPID
  2
GENIUS_GENODEF_13
 70
     0
  0
APPID
  2
GENIUS_GENOREF_13
 70
     0
  0
APPID
  2
GENIUS_GENOBJ-NBEHI-BHB_13
 70
     0
  0
APPID
  2
GENIUS_GENOBJ-F-SCPASSM_13
 70
     0
  0
APPID
  2
GENIUS_GENDTOL_13
 70
     0
  0
APPID
  2
GENIUS_GENTRA_14
 70
     0
  0
APPID
  2
ASURF_PCURVE_APPNAME
 70
     0
  0
APPID
  2
GENIUS_GENCFG_13
 70
     0
  0
APPID
  2
GENIUS_GE3CFG0_13
 70
     0
  0
APPID
  2
GENIUS_GENCFG0_13
 70
     0
  0
APPID
  2
GENIUS_GENCFG1_13
 70
     0
  0
APPID
  2
GENIUS_GENCFG2_13
 70
     0
  0
APPID
  2
GENIUS_GENCFG3_13
 70
     0
  0
APPID
  2
GENIUS_GENCFG4_13
 70
     0
  0
APPID
  2
GENIUS_GEVCFG0_13
 70
     0
  0
APPID
  2
GENIUS_GENOBJ-N-TIT_13
 70
     0
  0
APPID
  2
GENIUS_GENTITLE_13
 70
     0
  0
APPID
  2
GENIUS_GENSCREG_15
 70
     0
  0
APPID
  2
GENIUS_GENOBJ-N-SDF_13
 70
     0
  0
APPID
  2
GENIUS_GENFIL_13
 70
     0
  0
APPID
  2
GENIUS_GENOBJ-N-CHA_13
 70
     0
  0
APPID
  2
GENIUS_GEFSH_13
 70
     0
  0
APPID
  2
GENIUS_GENOBJ-F-SHS_13
 70
     0
  0
APPID
  2
GENIUS_GENOBJ-N-CEN_13
 70
     0
  0
APPID
  2
GENIUS_GENREC_14
 70
     0
  0
APPID
  2
GENIUS_GENOBJ-N-REC_13
 70
     0
  0
APPID
  2
GENIUS_GENOBJ-N-HTC_13
 70
     0
  0
APPID
  2
GENIUS_GENHATCH_13
 70
     0
  0
APPID
  2
ACAD_PSEXT
 70
     0
  0
APPID
  2
ACAD_EXEMPT_FROM_CAD_STANDARDS
 70
     0
  0
APPID
  2
ACAECLAYERSTANDARD
 70
     0
  0
APPID
  2
GENIUS_GENCEN_19
 70
     0
  0
APPID
  2
ACAD_DSTYLE_DIMINSPECT
 70
     0
  0
APPID
  2
ACAD_DSTYLE_DIMANGULAR_EXT
 70
     0
  0
APPID
  2
ACADANNOPO
 70
     0
  0
APPID
  2
ACAD_NAV_VCDISPLAY
 70
     0
  0
APPID
  2
GENIUS_GENOBJ-N-FIL_13
 70
     0
  0
APPID
  2
ACAD_DSTYLE_DIMBREAK
 70
     0
  0
APPID
  2
ACAD_DSTYLE_DIMJAG
 70
     0
  0
APPID
  2
ACAD_DSTYLE_DIMRADIAL_EXTENSION
 70
     0
  0
APPID
  2
GENIUS_GENHINW_13
 70
     0
  0
APPID
  2
GENIUS_FIRSTVISTXT_14
 70
     0
  0
APPID
  2
GENIUS_GENOBJ-N-LEADER_13
 70
     0
  0
APPID
  2
GENIUS_DUMCFG0_13
 70
     0
  0
APPID
  2
ACAD_DSTYLE_DIMTEXT_FILL
 70
     0
  0
APPID
  2
AMG_2DHIDE
 70
     0
  0
APPID
  2
GENIUS_GEFSHEP_13
 70
     0
  0
APPID
  2
GENIUS_GENOBJ-F-SHE_13
 70
     0
  0
APPID
  2
GENIUS_GEFSHE_13
 70
     0
  0
APPID
  2
ACAD_DIMASSOC_DIMLFAC
 70
     0
  0
APPID
  2
ACAD_DIMASSOC_CALC_DIMLFAC
 70
     0
  0
APPID
  2
ACAD_DIMASSOC_OVERRIDDEN_D
 70
     0
  0
APPID
  2
GENIUS_GENOBJ-F-SHSV_13
 70
     0
  0
APPID
  2
GENIUS_GEFWELD_13
 70
     0
  0
APPID
  2
GENIUS_GENOBJ-N-CRS_13
 70
     0
  0
APPID
  2
GENIUS_GENOBJ-N-RSBK_13
 70
     0
  0
APPID
  2
GENIUS_GENOBJ-N-LIB_13
 70
     0
  0
APPID
  2
GENIUS_GENSCALE_13
 70
     0
  0
APPID
  2
GENIUS_GENDREL_13
 70
     0
  0
APPID
  2
GEVPT
 70
     0
  0
APPID
  2
GEVIT
 70
     0
  0
APPID
  2
VCC
 70
     0
  0
APPID
  2
GENBH
 70
     0
  0
APPID
  2
GEVMK
 70
     0
  0
APPID
  2
GENIUS_GENOBJ-F-DESC_13
 70
     0
  0
APPID
  2
GENIUS_GEFDESC_14
 70
     0
  0
APPID
  2
GENIUS_GENOBJ-F-FEAT_13
 70
     0
  0
APPID
  2
GENIUS_GEFFEAT_14
 70
     0
  0
APPID
  2
GENIUS_GEFPARTINS_13
 70
     0
  0
APPID
  2
GENIUS_GENSCREG_13
 70
     0
  0
APPID
  2
GENIUS_GEFSHP_13
 70
     0
  0
APPID
  2
GEVID1025574798
 70
     0
  0
APPID
  2
GEVID1025574769
 70
     0
  0
APPID
  2
GEVID1025757451
 70
     0
  0
APPID
  2
GEVID1240528327
 70
     0
  0
APPID
  2
AMG_2DSTRUCT_BTR
 70
     0
  0
APPID
  2
ACADM_2DVIEW_IGN_NOTIFY
 70
     0
  0
APPID
  2
GEVID1240528328
 70
     0
  0
APPID
  2
GEVID1240528329
 70
     0
  0
APPID
  2
GEVRADREF
 70
     0
  0
APPID
  2
GEVID1240528330
 70
     0
  0
APPID
  2
GEVID1240528331
 70
     0
  0
APPID
  2
GEVID1240528332
 70
     0
  0
APPID
  2
GEVID1240791080
 70
     0
  0
APPID
  2
GEVID1240791081
 70
     0
  0
APPID
  2
GEVID1240791082
 70
     0
  0
APPID
  2
GEVID1240791083
 70
     0
  0
APPID
  2
GEVID1240791084
 70
     0
  0
APPID
  2
GEVID1240791085
 70
     0
  0
APPID
  2
GEVID1240791086
 70
     0
  0
APPID
  2
GEVID1240791087
 70
     0
  0
APPID
  2
GEVID1240791088
 70
     0
  0
APPID
  2
GEVID1240791089
 70
     0
  0
APPID
  2
GEVID1240791090
 70
     0
  0
APPID
  2
GEVID1240791091
 70
     0
  0
APPID
  2
GEVID1240791092
 70
     0
  0
APPID
  2
GEVID1240791093
 70
     0
  0
APPID
  2
GEVID1240791094
 70
     0
  0
APPID
  2
GEVID1240791095
 70
     0
  0
APPID
  2
GEVID1240791096
 70
     0
  0
APPID
  2
GEVID1240791097
 70
     0
  0
APPID
  2
GEVID1240791098
 70
     0
  0
APPID
  2
GEVID1240791099
 70
     0
  0
APPID
  2
GEVID1240791100
 70
     0
  0
APPID
  2
GEVID1240791101
 70
     0
  0
APPID
  2
GEVID1240791102
 70
     0
  0
APPID
  2
GEVID1240791103
 70
     0
  0
APPID
  2
GEVID1240791104
 70
     0
  0
APPID
  2
GEVID1240791105
 70
     0
  0
APPID
  2
GEVID1240875381
 70
     0
  0
APPID
  2
GEVID1240875382
 70
     0
  0
APPID
  2
GEVID1240875383
 70
     0
  0
APPID
  2
GEVID1240875384
 70
     0
  0
APPID
  2
GEVID1240875385
 70
     0
  0
APPID
  2
GEVID1240875386
 70
     0
  0
APPID
  2
GEVID1240875387
 70
     0
  0
APPID
  2
GEVID1240875388
 70
     0
  0
APPID
  2
GEVID1240875389
 70
     0
  0
APPID
  2
GEVID1240875390
 70
     0
  0
APPID
  2
GEVID1240875391
 70
     0
  0
APPID
  2
GEVID1240875392
 70
     0
  0
APPID
  2
GEVID1240875393
 70
     0
  0
APPID
  2
GEVID1240875394
 70
     0
  0
APPID
  2
GEVID1240875395
 70
     0
  0
APPID
  2
GEVID1240875396
 70
     0
  0
APPID
  2
GEVID1240875397
 70
     0
  0
APPID
  2
GEVID1240875398
 70
     0
  0
APPID
  2
GEVID1240875399
 70
     0
  0
APPID
  2
GEVID1240908996
 70
     0
  0
APPID
  2
GEVID1240908997
 70
     0
  0
APPID
  2
GEVID1240908998
 70
     0
  0
APPID
  2
GEVID1240908999
 70
     0
  0
APPID
  2
GEVID1240909000
 70
     0
  0
APPID
  2
GENIUS_GENOBJ-N-ZOO_13
 70
     0
  0
APPID
  2
GENIUS_GENZOO_17
 70
     0
  0
APPID
  2
GENIUS_GE3SECT_13
 70
     0
  0
APPID
  2
GEV_VCCNULL_SWITCH_OFF
 70
     0
  0
APPID
  2
ACAD_DSTYLE_DIMTALN
 70
     0
  0
APPID
  2
DCO15
 70
     0
  0
ENDTAB
  0
TABLE
  2
DIMSTYLE
 70
    22
  0
DIMSTYLE
  2
AM_ANSI
 70
     0
  3

  4
"
  5

  6

  7

 40
1.0
 41
2.5
 42
1.0
 43
10.0
 44
1.0
 45
0.0
 46
0.0
 47
0.1
 48
0.1
140
3.5
141
0.0
142
0.0
143
0.0393701
144
1.0
145
0.0
146
0.71
147
1.5
 71
     0
 72
     0
 73
     1
 74
     1
 75
     0
 76
     0
 77
     0
 78
     8
170
     0
171
     2
172
     0
173
     0
174
     0
175
     0
176
     2
177
     2
178
     4
  0
DIMSTYLE
  2
AM_ANSI$3
 70
     0
  3

  4
"
  5

  6

  7

 40
1.0
 41
2.5
 42
1.0
 43
10.0
 44
1.0
 45
0.0
 46
0.0
 47
0.1
 48
0.1
140
3.5
141
0.0
142
0.0
143
0.0393701
144
1.0
145
0.0
146
0.71
147
1.5
 71
     0
 72
     0
 73
     1
 74
     1
 75
     0
 76
     0
 77
     0
 78
     8
170
     0
171
     2
172
     0
173
     0
174
     0
175
     0
176
     2
177
     2
178
     4
  0
DIMSTYLE
  2
AM_ANSI$4
 70
     0
  3

  4
"
  5

  6

  7

 40
1.0
 41
2.5
 42
1.0
 43
10.0
 44
1.0
 45
0.0
 46
0.0
 47
0.1
 48
0.1
140
3.5
141
0.0
142
0.0
143
0.0393701
144
1.0
145
0.0
146
0.71
147
1.5
 71
     0
 72
     0
 73
     1
 74
     1
 75
     0
 76
     0
 77
     0
 78
     8
170
     0
171
     2
172
     0
173
     0
174
     0
175
     0
176
     2
177
     2
178
     4
  0
DIMSTYLE
  2
AM_ANSI$7
 70
     0
  3

  4
"
  5

  6

  7

 40
1.0
 41
2.5
 42
1.0
 43
10.0
 44
1.0
 45
0.0
 46
0.0
 47
0.1
 48
0.1
140
5.0
141
0.0
142
0.0
143
0.0393701
144
1.0
145
0.0
146
0.71
147
1.5
 71
     0
 72
     0
 73
     1
 74
     1
 75
     0
 76
     0
 77
     0
 78
     8
170
     0
171
     2
172
     0
173
     0
174
     0
175
     0
176
     2
177
     2
178
     4
  0
DIMSTYLE
  2
AM_ANSI$SF
 70
     0
  3

  4
"
  5

  6

  7

 40
1.0
 41
2.5
 42
1.0
 43
10.0
 44
1.0
 45
0.0
 46
0.0
 47
0.1
 48
0.1
140
3.5
141
0.0
142
0.0
143
0.0393701
144
1.0
145
0.0
146
0.71
147
1.5
 71
     0
 72
     0
 73
     1
 74
     1
 75
     1
 76
     1
 77
     0
 78
     8
170
     0
171
     2
172
     0
173
     0
174
     0
175
     0
176
     2
177
     2
178
     4
  0
DIMSTYLE
  2
AM_ANSI$SH
 70
     0
  3

  4
"
  5

  6
GENAXEH
  7

 40
1.0
 41
2.5
 42
1.0
 43
10.0
 44
1.0
 45
0.0
 46
0.0
 47
0.1
 48
0.1
140
3.5
141
0.0
142
0.0
143
0.0393701
144
1.0
145
0.0
146
0.71
147
1.5
 71
     0
 72
     0
 73
     1
 74
     1
 75
     1
 76
     1
 77
     0
 78
     8
170
     0
171
     2
172
     0
173
     1
174
     0
175
     0
176
     2
177
     2
178
     4
  0
DIMSTYLE
  2
AM_ISO
 70
     0
  3

  4
"
  5

  6

  7

 40
1.0
 41
2.5
 42
1.0
 43
10.0
 44
1.0
 45
0.0
 46
0.0
 47
0.1
 48
0.1
140
3.5
141
0.0
142
0.0
143
0.0393701
144
1.0
145
0.0
146
0.71
147
1.5
 71
     0
 72
     0
 73
     0
 74
     0
 75
     0
 76
     0
 77
     1
 78
     8
170
     0
171
     2
172
     1
173
     0
174
     0
175
     0
176
   256
177
   256
178
     2
  0
DIMSTYLE
  2
AM_ISO$3
 70
     0
  3

  4
"
  5

  6

  7

 40
1.0
 41
2.5
 42
1.0
 43
10.0
 44
1.0
 45
0.0
 46
0.0
 47
0.1
 48
0.1
140
3.5
141
0.0
142
0.0
143
0.0393701
144
1.0
145
0.0
146
0.71
147
1.5
 71
     0
 72
     0
 73
     0
 74
     1
 75
     0
 76
     0
 77
     1
 78
     8
170
     0
171
     2
172
     0
173
     0
174
     0
175
     0
176
   256
177
   256
178
     2
  0
DIMSTYLE
  2
AM_ISO$4
 70
     0
  3

  4
"
  5

  6

  7

 40
1.0
 41
2.5
 42
1.0
 43
10.0
 44
1.0
 45
0.0
 46
0.0
 47
0.1
 48
0.1
140
3.5
141
0.0
142
0.0
143
0.0393701
144
1.0
145
0.0
146
0.71
147
1.5
 71
     0
 72
     0
 73
     0
 74
     1
 75
     0
 76
     0
 77
     1
 78
     8
170
     0
171
     2
172
     0
173
     0
174
     0
175
     0
176
   256
177
   256
178
     2
  0
DIMSTYLE
  2
AM_ISO$6
 70
     0
  3

  4
"
  5

  6

  7

 40
1.0
 41
2.5
 42
1.0
 43
10.0
 44
1.0
 45
0.0
 46
0.0
 47
0.1
 48
0.1
140
3.5
141
0.0
142
0.0
143
0.0393701
144
1.0
145
0.0
146
0.71
147
1.5
 71
     0
 72
     0
 73
     0
 74
     0
 75
     0
 76
     0
 77
     0
 78
     8
170
     0
171
     2
172
     1
173
     0
174
     0
175
     0
176
   256
177
   256
178
     2
  0
DIMSTYLE
  2
AM_ISO$7
 70
     0
  3

  4
"
  5

  6

  7

 40
1.0
 41
2.5
 42
1.0
 43
10.0
 44
1.0
 45
0.0
 46
0.0
 47
0.1
 48
0.1
140
5.0
141
0.0
142
0.0
143
0.0393701
144
1.0
145
0.0
146
0.71
147
1.5
 71
     0
 72
     0
 73
     0
 74
     0
 75
     0
 76
     0
 77
     1
 78
     8
170
     0
171
     2
172
     1
173
     0
174
     0
175
     0
176
   256
177
   256
178
     2
  0
DIMSTYLE
  2
AM_ISO$SF
 70
     0
  3

  4
"
  5

  6

  7

 40
1.0
 41
2.5
 42
1.0
 43
10.0
 44
1.0
 45
0.0
 46
0.0
 47
0.1
 48
0.1
140
3.5
141
0.0
142
0.0
143
0.0393701
144
1.0
145
0.0
146
0.71
147
1.5
 71
     0
 72
     0
 73
     0
 74
     0
 75
     1
 76
     1
 77
     1
 78
     8
170
     0
171
     2
172
     1
173
     0
174
     0
175
     0
176
   256
177
   256
178
     2
  0
DIMSTYLE
  2
AM_ISO$SH
 70
     0
  3

  4
"
  5

  6
GENAXEH
  7

 40
1.0
 41
2.5
 42
1.0
 43
10.0
 44
1.0
 45
0.0
 46
0.0
 47
0.1
 48
0.1
140
3.5
141
0.0
142
0.0
143
0.0393701
144
2.0
145
0.0
146
0.71
147
1.5
 71
     0
 72
     0
 73
     0
 74
     0
 75
     1
 76
     1
 77
     1
 78
     8
170
     0
171
     2
172
     1
173
     1
174
     0
175
     0
176
   256
177
   256
178
     2
  0
DIMSTYLE
  2
AM_JIS
 70
     0
  3

  4
"
  5

  6

  7

 40
1.0
 41
2.0
 42
1.0
 43
8.0
 44
1.0
 45
0.0
 46
0.0
 47
0.1
 48
0.1
140
2.5
141
0.0
142
0.0
143
0.0393701
144
1.0
145
0.0
146
0.71
147
1.5
 71
     0
 72
     0
 73
     0
 74
     0
 75
     0
 76
     0
 77
     3
 78
     8
170
     0
171
     2
172
     1
173
     0
174
     0
175
     0
176
     2
177
     2
178
     4
  0
DIMSTYLE
  2
AM_JIS$3
 70
     0
  3

  4
"
  5

  6

  7

 40
1.0
 41
2.0
 42
1.0
 43
10.0
 44
1.0
 45
0.0
 46
0.0
 47
0.1
 48
0.1
140
2.5
141
0.0
142
0.0
143
0.0393701
144
1.0
145
0.0
146
0.71
147
1.5
 71
     0
 72
     0
 73
     0
 74
     1
 75
     0
 76
     0
 77
     3
 78
     8
170
     0
171
     2
172
     0
173
     0
174
     0
175
     0
176
     2
177
     2
178
     4
  0
DIMSTYLE
  2
AM_JIS$4
 70
     0
  3

  4
"
  5

  6

  7

 40
1.0
 41
2.0
 42
1.0
 43
10.0
 44
1.0
 45
0.0
 46
0.0
 47
0.1
 48
0.1
140
2.5
141
0.0
142
0.0
143
0.0393701
144
1.0
145
0.0
146
0.71
147
1.5
 71
     0
 72
     0
 73
     0
 74
     0
 75
     0
 76
     0
 77
     3
 78
     8
170
     0
171
     2
172
     0
173
     0
174
     0
175
     0
176
     2
177
     2
178
     4
  0
DIMSTYLE
  2
AM_JIS$6
 70
     0
  3

  4
"
  5

  6

  7

 40
1.0
 41
2.0
 42
1.0
 43
10.0
 44
1.0
 45
0.0
 46
0.0
 47
0.1
 48
0.1
140
2.5
141
0.0
142
0.0
143
0.0393701
144
1.0
145
0.0
146
0.71
147
1.5
 71
     0
 72
     0
 73
     0
 74
     0
 75
     0
 76
     0
 77
     0
 78
     8
170
     0
171
     2
172
     1
173
     0
174
     0
175
     0
176
     2
177
     2
178
     4
  0
DIMSTYLE
  2
AM_JIS$7
 70
     0
  3

  4
"
  5

  6
OPEN30
  7
OPEN30
 40
1.0
 41
2.0
 42
1.0
 43
10.0
 44
1.0
 45
0.0
 46
0.0
 47
0.1
 48
0.1
140
2.5
141
0.0
142
0.0
143
0.0393701
144
1.0
145
0.0
146
0.71
147
1.5
 71
     0
 72
     0
 73
     0
 74
     0
 75
     0
 76
     0
 77
     3
 78
     8
170
     0
171
     2
172
     1
173
     0
174
     0
175
     0
176
     2
177
     2
178
     4
  0
DIMSTYLE
  2
AM_JIS$SF
 70
     0
  3

  4
"
  5

  6

  7

 40
1.0
 41
2.0
 42
1.0
 43
10.0
 44
1.0
 45
0.0
 46
0.0
 47
0.1
 48
0.1
140
2.5
141
0.0
142
0.0
143
0.0393701
144
1.0
145
0.0
146
0.71
147
1.5
 71
     0
 72
     0
 73
     0
 74
     0
 75
     1
 76
     1
 77
     3
 78
     8
170
     0
171
     2
172
     1
173
     0
174
     0
175
     0
176
     2
177
     2
178
     4
  0
DIMSTYLE
  2
AM_JIS$SH
 70
     0
  3

  4
"
  5

  6
GENAXEH
  7

 40
1.0
 41
2.0
 42
1.0
 43
10.0
 44
1.0
 45
0.0
 46
0.0
 47
0.1
 48
0.1
140
2.5
141
0.0
142
0.0
143
0.0393701
144
2.0
145
0.0
146
0.71
147
1.5
 71
     0
 72
     0
 73
     0
 74
     0
 75
     1
 76
     1
 77
     3
 78
     8
170
     0
171
     2
172
     1
173
     1
174
     0
175
     0
176
     2
177
     2
178
     4
  0
DIMSTYLE
  2
AM_JIS$0
 70
     0
  3

  4
"
  5

  6

  7

 40
1.0
 41
2.0
 42
1.0
 43
8.0
 44
1.0
 45
0.0
 46
0.0
 47
0.1
 48
0.1
140
2.5
141
0.0
142
0.0
143
0.0393701
144
1.0
145
0.0
146
0.71
147
1.5
 71
     0
 72
     0
 73
     0
 74
     0
 75
     0
 76
     0
 77
     3
 78
     8
170
     0
171
     2
172
     1
173
     0
174
     0
175
     0
176
     2
177
     2
178
     4
  0
DIMSTYLE
  2
STANDARD
 70
     0
  3

  4

  5

  6

  7

 40
1.0
 41
0.18
 42
0.0625
 43
0.38
 44
0.18
 45
0.0
 46
0.0
 47
0.0
 48
0.0
140
0.18
141
0.09
142
0.0
143
25.399999999999999
144
1.0
145
0.0
146
1.0
147
0.09
 71
     0
 72
     0
 73
     1
 74
     1
 75
     0
 76
     0
 77
     0
 78
     0
170
     0
171
     2
172
     0
173
     0
174
     0
175
     0
176
     0
177
     0
178
     0
  0
ENDTAB
  0
ENDSEC
  0
SECTION
  2
BLOCKS
  0
BLOCK
  8
0
  2
$MODEL_SPACE
 70
     0
 10
0.0
 20
0.0
 30
0.0
  3
$MODEL_SPACE
  1

  0
ENDBLK
  5
77
  8
0
  0
BLOCK
 67
     1
  8
0
  2
$PAPER_SPACE
 70
     0
 10
0.0
 20
0.0
 30
0.0
  3
$PAPER_SPACE
  1

  0
ENDBLK
  5
73
 67
     1
  8
0
  0
BLOCK
  8
0
  2
GENAXEH
 70
     0
 10
0.0
 20
0.0
 30
0.0
  3
GENAXEH
  1

  0
LINE
  5
A174
  8
0
 10
-1.0
 20
0.0
 30
0.0
 11
1.0
 21
0.0
 31
0.0
  0
ENDBLK
  5
A175
  8
0
  0
BLOCK
  8
0
  2
_OPEN30
 70
     0
 10
0.0
 20
0.0
 30
0.0
  3
_OPEN30
  1

  0
LINE
  5
A1BB
  8
0
  6
BYBLOCK
 62
     0
 10
-1.0
 20
0.26794919
 30
0.0
 11
0.0
 21
0.0
 31
0.0
  0
LINE
  5
A1BC
  8
0
  6
BYBLOCK
 62
     0
 10
0.0
 20
0.0
 30
0.0
 11
-1.0
 21
-0.26794919
 31
0.0
  0
LINE
  5
A1BD
  8
0
  6
BYBLOCK
 62
     0
 10
0.0
 20
0.0
 30
0.0
 11
-1.0
 21
0.0
 31
0.0
  0
ENDBLK
  5
A1BE
  8
0
  0
BLOCK
  8
0
  2
_ACMFILLEDHALF
 70
     0
 10
0.0
 20
0.0
 30
0.0
  3
_ACMFILLEDHALF
  1

  0
TRACE
  5
A27D
  8
AM_0
 62
     0
 10
-0.8
 20
0.0
 30
0.0
 11
-1.0
 21
0.166666666
 31
0.0
 12
0.0
 22
0.0
 32
0.0
 13
0.0
 23
0.0
 33
0.0
  0
LINE
  5
A27E
  8
AM_0
 62
     0
 10
-1.0
 20
0.0
 30
0.0
 11
-0.8
 21
0.0
 31
0.0
  0
ENDBLK
  5
A27F
  8
0
  0
ENDSEC
  0
SECTION
  2
ENTITIES
  0
LINE
  5
5E7B
  8
0
 10
475.36675871067018
 20
570.70188187311578
 30
0.0
 11
475.36675871067018
 21
497.20188187311561
 31
0.0
  0
LINE
  5
5EE7
  8
0
 10
475.36675871067018
 20
570.70188187311578
 30
0.0
 11
475.36675871067018
 21
423.70193998293593
 31
0.0
  0
LINE
  5
5F4A
  8
0
  6
AM_ISO08W050
 10
499.45535871066988
 20
535.20190998293606
 30
0.0
 11
733.33820871066973
 21
535.20190998293606
 31
0.0
  0
LINE
  5
5F61
  8
0
 10
475.36675871067018
 20
570.70196998293557
 30
0.0
 11
505.04130871067031
 21
571.73822498293555
 31
0.0
  0
LINE
  5
5F62
  8
0
 10
480.36675871067001
 20
417.45089998293599
 30
0.0
 11
480.36675871067001
 21
435.20190998293612
 31
0.0
  0
LINE
  5
5F63
  8
0
 10
483.10530871067022
 20
414.46234498293569
 30
0.0
 11
507.12825871067008
 21
412.36059998293598
 31
0.0
  0
LINE
  5
5F64
  8
0
 10
475.36675871067018
 20
423.70193998293593
 30
0.0
 11
475.36675871067018
 21
570.70193998293576
 31
0.0
  0
LINE
  5
5F6B
  8
0
 10
475.36675871067018
 20
457.727239982936
 30
0.0
 11
509.86680871067028
 21
457.727239982936
 31
0.0
  0
LINE
  5
5F6C
  8
0
 10
475.36675871067018
 20
536.67660998293604
 30
0.0
 11
509.86680871067028
 21
536.67660998293604
 31
0.0
  0
LINE
  5
5F6D
  8
0
 10
475.36675871067018
 20
558.78055498293588
 30
0.0
 11
509.86680871067028
 21
558.78055498293588
 31
0.0
  0
LINE
  5
5F6E
  8
0
 10
475.36675871067018
 20
435.62329498293582
 30
0.0
 11
509.86680871067028
 21
435.62329498293582
 31
0.0
  0
ARC
  5
5FC1
  8
0
 10
477.36680871067023
 20
420.63028498293602
 30
0.0
 40
3.0000000500000001
 50
0.0
 51
87.999999999996362
  0
ARC
  5
5FC2
  8
0
 10
483.36680871066989
 20
417.45089998293599
 30
0.0
 40
3.0000000500000001
 50
179.999989999999
 51
264.99999999999937
  0
ARC
  5
5FC3
  8
0
 10
506.86675871067001
 20
409.37204498293579
 30
0.0
 40
3.0000000500000001
 50
0.0
 51
84.999997000011817
  0
ARC
  5
5FC4
  8
0
 10
504.86680871067028
 20
576.73517498293575
 30
0.0
 40
5.0
 50
272.00000000000369
 51
0.0
  0
LINE
  5
7015
  8
0
 10
475.36675871067018
 20
423.70193998293593
 30
0.0
 11
477.47150720252279
 21
423.62845751396259
 31
0.0
  0
LINE
  5
7DED
  8
0
  6
AM_ISO08W050
 10
168.10940768753039
 20
497.20193998293598
 30
0.0
 11
504.21377826311158
 21
497.20193998293598
 31
0.0
  0
POINT
  5
94DB
  8
0
 10
475.36675871067018
 20
497.20193998293598
 30
0.0
  0
POINT
  5
94DC
  8
0
 10
475.36675871067018
 20
497.20188187311561
 30
0.0
  0
LINE
  5
94DD
  8
0
 10
475.36675871067018
 20
570.70188187311578
 30
0.0
 11
475.36675871067018
 21
423.70193998293593
 31
0.0
  0
ARC
  5
94DE
  8
0
 10
466.36675871067018
 20
435.20191092802582
 30
0.0
 40
1.0
 50
180.0
 51
270.0
  0
ARC
  5
94DF
  8
0
 10
466.36675871067018
 20
559.20191092802588
 30
0.0
 40
1.0
 50
90.0
 51
180.0
  0
ARC
  5
94E0
  8
0
 10
464.35838371066978
 20
430.70191092802582
 30
0.0
 40
2.0
 50
270.0
 51
344.99999999999221
  0
LINE
  5
94E1
  8
0
 10
467.36675871067013
 20
434.20191092802588
 30
0.0
 11
466.29023571067012
 21
430.18427292802591
 31
0.0
  0
ARC
  5
94E2
  8
0
 10
462.54313971067018
 20
422.30574592802577
 30
0.0
 40
2.0
 50
270.0
 51
345.0000029999984
  0
LINE
  5
94E3
  8
0
 10
467.36675871067013
 20
432.58032992802578
 30
0.0
 11
464.47499171066988
 21
421.78810792802591
 31
0.0
  0
ARC
  5
94E4
  8
0
 10
396.36675871067018
 20
419.33971292802528
 30
0.0
 40
2.0
 50
270.0
 51
0.0
  0
ARC
  5
94E5
  8
0
 10
396.36675871067018
 20
419.76699092802528
 30
0.0
 40
2.0
 50
270.0
 51
0.0
  0
ARC
  5
94E6
  8
0
 10
396.36675871067018
 20
420.77234192802592
 30
0.0
 40
2.0
 50
270.0
 51
346.50868899999841
  0
LINE
  5
94E7
  8
0
 10
398.36675871067018
 20
419.33971292802528
 30
0.0
 11
398.36675871067018
 21
420.30574592802537
 31
0.0
  0
LINE
  5
94E8
  8
0
 10
311.36675871067018
 20
427.67354392802571
 30
0.0
 11
303.36675871067018
 21
427.67354392802571
 31
0.0
  0
LINE
  5
94E9
  8
0
 10
311.36675871067018
 20
423.31755492802557
 30
0.0
 11
303.36675871067018
 21
423.31755492802557
 31
0.0
  0
LINE
  5
94EA
  8
0
 10
311.36675871067018
 20
420.67991592802582
 30
0.0
 11
303.36675871067018
 21
420.67991592802582
 31
0.0
  0
ARC
  5
94EB
  8
0
 10
315.36675871067018
 20
419.33971292802528
 30
0.0
 40
2.0
 50
180.0
 51
270.0
  0
LINE
  5
94EC
  8
0
 10
313.36675871067018
 20
421.3175549280258
 30
0.0
 11
313.36675871067018
 21
420.77234192802592
 31
0.0
  0
ARC
  5
94ED
  8
0
 10
315.21620871067017
 20
419.76699092802528
 30
0.0
 40
2.0
 50
195.7695469999999
 51
270.0
  0
ARC
  5
94EE
  8
0
 10
315.36675871067018
 20
420.77234192802592
 30
0.0
 40
2.0
 50
180.0
 51
270.0
  0
ARC
  5
94EF
  8
0
 10
315.36675871067018
 20
422.30574592802577
 30
0.0
 40
2.0
 50
180.0
 51
270.0
  0
LINE
  5
94F0
  8
0
 10
313.36675871067018
 20
425.67354392802599
 30
0.0
 11
313.36675871067018
 21
422.30574592802577
 31
0.0
  0
ARC
  5
94F1
  8
0
 10
311.36675871067018
 20
425.67354392802599
 30
0.0
 40
2.0
 50
0.0
 51
90.0
  0
ARC
  5
94F2
  8
0
 10
311.36675871067018
 20
421.3175549280258
 30
0.0
 40
2.0
 50
0.0
 51
90.0
  0
ARC
  5
94F3
  8
0
 10
311.36675871067018
 20
418.67991592802582
 30
0.0
 40
2.0
 50
15.7695469999999
 51
90.0
  0
LINE
  5
94F4
  8
0
 10
315.36675871067018
 20
420.30574592802537
 30
0.0
 11
462.54313971067018
 21
420.30574592802537
 31
0.0
  0
LINE
  5
94F5
  8
0
 10
315.36675871067018
 20
418.77234192802581
 30
0.0
 11
396.36675871067018
 21
418.77234192802581
 31
0.0
  0
LINE
  5
94F6
  8
0
 10
315.21620871067017
 20
417.76699092802568
 30
0.0
 11
396.36675871067018
 21
417.76699092802568
 31
0.0
  0
LINE
  5
94F7
  8
0
 10
315.36675871067018
 20
417.33971292802579
 30
0.0
 11
396.36675871067018
 21
417.33971292802579
 31
0.0
  0
ARC
  5
94F8
  8
0
 10
462.54313971067018
 20
572.09807592802588
 30
0.0
 40
2.0
 50
14.999997000001709
 51
90.0
  0
ARC
  5
94F9
  8
0
 10
464.35838371066978
 20
563.70191092802588
 30
0.0
 40
2.0
 50
15.000000000007869
 51
90.0
  0
LINE
  5
94FA
  8
0
 10
467.36675871067013
 20
561.82349192802553
 30
0.0
 11
464.47499171066988
 21
572.6157139280258
 31
0.0
  0
LINE
  5
94FB
  8
0
 10
467.36675871067013
 20
560.20191092802577
 30
0.0
 11
466.29023571067012
 21
564.21954892802592
 31
0.0
  0
LINE
  5
94FC
  8
0
 10
465.36675871067018
 20
453.37191092802601
 30
0.0
 11
465.36675871067018
 21
461.30855592802561
 31
0.0
  0
LINE
  5
94FD
  8
0
 10
465.36675871067018
 20
543.37191092802584
 30
0.0
 11
465.36675871067018
 21
559.20191092802588
 31
0.0
  0
ARC
  5
94FE
  8
0
 10
466.36611971067009
 20
450.16037992802592
 30
0.0
 40
1.0026319999999971
 50
0.054084999991942
 51
81.243759000000509
  0
LINE
  5
94FF
  8
0
 10
466.51875171067002
 20
451.15132692802581
 30
0.0
 11
464.75995271067001
 21
451.42191092802591
 31
0.0
  0
LINE
  5
9500
  8
0
 10
466.50875171067008
 20
453.2413269280259
 30
0.0
 11
464.90606371067008
 21
453.02191092802582
 31
0.0
  0
ARC
  5
9501
  8
0
 10
466.36178371066978
 20
454.23753092802588
 30
0.0
 40
1.0069859999999999
 50
278.39216300000191
 51
359.64700200000118
  0
LINE
  5
9502
  8
0
 10
467.36875171066998
 20
454.23132692802551
 30
0.0
 11
467.36875171066998
 21
450.16132692802603
 31
0.0
  0
ARC
  5
9503
  8
0
 10
464.82539571067002
 20
452.20797092802599
 30
0.0
 40
0.8033630000000001
 50
0.2393300000044313
 51
89.760670000002094
  0
ARC
  5
9504
  8
0
 10
464.82368971066978
 20
452.21638892802588
 30
0.0
 40
0.8050779999999997
 50
270.3602510000016
 51
359.63974900000488
  0
ARC
  5
9505
  8
0
 10
466.36178371066978
 20
540.16629092802577
 30
0.0
 40
1.0069859999999999
 50
0.3529979999987895
 51
81.607836999998227
  0
LINE
  5
9506
  8
0
 10
466.50875171067008
 20
541.16249492802581
 30
0.0
 11
464.90606371067008
 21
541.38191092802595
 31
0.0
  0
ARC
  5
9507
  8
0
 10
466.36611971067009
 20
544.24344192802562
 30
0.0
 40
1.0026319999999971
 50
278.75624099999948
 51
359.94591499999501
  0
LINE
  5
9508
  8
0
 10
467.36875171066998
 20
540.17249492802603
 30
0.0
 11
467.36875171066998
 21
544.24249492802562
 31
0.0
  0
LINE
  5
9509
  8
0
 10
466.51875171067002
 20
543.25249492802584
 30
0.0
 11
464.75995271067001
 21
542.98191092802585
 31
0.0
  0
ARC
  5
950A
  8
0
 10
464.82539571067002
 20
542.19585092802572
 30
0.0
 40
0.8033630000000001
 50
270.23932999999789
 51
359.7606700000087
  0
ARC
  5
950B
  8
0
 10
464.82368971066978
 20
542.18743292802583
 30
0.0
 40
0.8050779999999997
 50
0.3602509999951178
 51
89.639748999998375
  0
LINE
  5
950C
  8
0
 10
465.36675871067018
 20
535.06585592802594
 30
0.0
 11
475.36675871067018
 21
535.06585592802594
 31
0.0
  0
LINE
  5
950D
  8
0
 10
465.36675871067018
 20
459.34796592802599
 30
0.0
 11
475.36675871067018
 21
459.34796592802599
 31
0.0
  0
LINE
  5
950E
  8
0
 10
457.36675871067018
 20
471.1019109280258
 30
0.0
 11
466.77675871067009
 21
471.1019109280258
 31
0.0
  0
LINE
  5
950F
  8
0
 10
453.45835571066988
 20
473.28191092802558
 30
0.0
 11
466.87197571067009
 21
473.28191092802558
 31
0.0
  0
LINE
  5
9510
  8
0
 10
453.36675871067018
 20
493.21191092802559
 30
0.0
 11
466.36067171066998
 21
493.21191092802559
 31
0.0
  0
LINE
  5
9511
  8
0
 10
457.36675871067018
 20
463.35191092802597
 30
0.0
 11
466.87197571067009
 21
463.35191092802597
 31
0.0
  0
LINE
  5
9512
  8
0
 10
383.51675871067022
 20
453.37191092802601
 30
0.0
 11
466.87629771067009
 21
453.37191092802601
 31
0.0
  0
LINE
  5
9513
  8
0
 10
303.36675871067018
 20
543.37191092802584
 30
0.0
 11
466.86180671067012
 21
543.37191092802584
 31
0.0
  0
LINE
  5
9514
  8
0
 10
457.36675871067018
 20
531.05191092802568
 30
0.0
 11
466.87197571067009
 21
531.05191092802568
 31
0.0
  0
LINE
  5
9515
  8
0
 10
453.36675871067018
 20
501.19191092802589
 30
0.0
 11
466.36067171066998
 21
501.19191092802589
 31
0.0
  0
LINE
  5
9516
  8
0
 10
453.45835571066988
 20
521.12191092802584
 30
0.0
 11
466.87197571067009
 21
521.12191092802584
 31
0.0
  0
LINE
  5
9517
  8
0
 10
457.36675871067018
 20
523.30191092802579
 30
0.0
 11
466.77675871067009
 21
523.30191092802579
 31
0.0
  0
ARC
  5
9518
  8
0
 10
462.96676771067001
 20
551.51088492802592
 30
0.0
 40
2.2000009999999981
 50
180.00000299999761
 51
269.99997799999852
  0
ARC
  5
9519
  8
0
 10
462.96676771067001
 20
556.11089092802581
 30
0.0
 40
2.1999970000000002
 50
90.0
 51
179.99998200000081
  0
LINE
  5
951A
  8
0
 10
465.36675871067018
 20
553.76144292802576
 30
0.0
 11
464.06675871067011
 21
553.01088792802602
 31
0.0
  0
LINE
  5
951B
  8
0
 10
465.36675871067018
 20
554.76144292802576
 30
0.0
 11
464.06675871067011
 21
554.01088792802602
 31
0.0
  0
LINE
  5
951C
  8
0
 10
464.06675871067011
 20
558.41088792802577
 30
0.0
 11
465.36675871067018
 21
558.41088792802577
 31
0.0
  0
LINE
  5
951D
  8
0
 10
464.06675871067011
 20
549.21088792802584
 30
0.0
 11
465.36675871067018
 21
549.21088792802584
 31
0.0
  0
LINE
  5
951E
  8
0
 10
465.36675871067018
 20
558.41088792802577
 30
0.0
 11
465.36675871067018
 21
549.21088792802584
 31
0.0
  0
LINE
  5
951F
  8
0
 10
460.76675571067011
 20
556.11089092802581
 30
0.0
 11
460.76675571067011
 21
551.51088492802592
 31
0.0
  0
LINE
  5
9520
  8
0
 10
464.06675871067011
 20
558.41088792802577
 30
0.0
 11
464.06675871067011
 21
549.21088792802584
 31
0.0
  0
LINE
  5
9521
  8
0
 10
464.06675871067011
 20
549.31088792802564
 30
0.0
 11
462.96676771067001
 21
549.31088792802564
 31
0.0
  0
LINE
  5
9522
  8
0
 10
464.06675871067011
 20
558.31088792802564
 30
0.0
 11
462.96676771067001
 21
558.31088792802564
 31
0.0
  0
LINE
  5
9523
  8
0
 10
475.36675871067018
 20
423.70191092802582
 30
0.0
 11
475.36675871067018
 21
570.70185292802523
 31
0.0
  0
LINE
  5
9524
  8
0
 10
466.36675871067018
 20
434.20191092802588
 30
0.0
 11
475.36675871067018
 21
434.20191092802588
 31
0.0
  0
LINE
  5
9525
  8
0
 10
466.36675871067018
 20
423.70191092802582
 30
0.0
 11
475.36675871067018
 21
423.70191092802582
 31
0.0
  0
LINE
  5
9526
  8
0
 10
466.36675871067018
 20
560.20191092802577
 30
0.0
 11
475.36675871067018
 21
560.20191092802577
 31
0.0
  0
LINE
  5
9527
  8
0
 10
466.36675871067018
 20
570.70191092802588
 30
0.0
 11
475.36675871067018
 21
570.70191092802588
 31
0.0
  0
LINE
  5
9528
  8
0
 10
175.66675871067011
 20
420.6587229280255
 30
0.0
 11
176.0203117106702
 21
421.01227592802582
 31
0.0
  0
LINE
  5
9529
  8
0
 10
178.24543871067019
 20
418.08004292802582
 30
0.0
 11
175.66675871067011
 21
420.6587229280255
 31
0.0
  0
LINE
  5
952A
  8
0
 10
178.59899171067011
 20
418.43359592802562
 30
0.0
 11
176.0203117106702
 21
421.01227592802582
 31
0.0
  0
ARC
  5
952B
  8
0
 10
180.36675871067021
 20
420.2013629280259
 30
0.0
 40
3.0
 50
220.00000000000469
 51
33.557310000003177
  0
ARC
  5
952C
  8
0
 10
185.3166087106701
 20
434.39745492802592
 30
0.0
 40
2.249854
 50
179.8865100000088
 51
261.61639199999888
  0
ARC
  5
952D
  8
0
 10
273.36675871067018
 20
497.20191092802588
 30
0.0
 40
7.0
 50
16.601550000005041
 51
163.39844999999491
  0
ARC
  5
952E
  8
0
 10
273.36675871067018
 20
497.20191092802588
 30
0.0
 40
6.0
 50
19.47121999999958
 51
160.52877899999211
  0
LINE
  5
952F
  8
0
 10
266.36675871067018
 20
499.20191092802582
 30
0.0
 11
266.36675871067018
 21
499.70191092802582
 31
0.0
  0
LINE
  5
9530
  8
0
 10
282.36675871067018
 20
499.20191092802582
 30
0.0
 11
282.36675871067018
 21
499.70191092802582
 31
0.0
  0
LINE
  5
9531
  8
0
 10
282.36675871067018
 20
499.70191092802582
 30
0.0
 11
287.36675871067018
 21
499.70191092802582
 31
0.0
  0
LINE
  5
9532
  8
0
 10
282.36675871067018
 20
499.20191092802582
 30
0.0
 11
266.36675871067018
 21
499.20191092802582
 31
0.0
  0
LINE
  5
9533
  8
0
 10
287.36675871067018
 20
494.70191092802582
 30
0.0
 11
287.36675871067018
 21
499.70191092802582
 31
0.0
  0
LINE
  5
9534
  8
0
 10
191.13675871067019
 20
499.60181392802582
 30
0.0
 11
191.13675871067019
 21
571.22191092802575
 31
0.0
  0
LINE
  5
9535
  8
0
 10
187.0667587106702
 20
492.84807592802599
 30
0.0
 11
187.0667587106702
 21
433.83127092802562
 31
0.0
  0
ARC
  5
9536
  8
0
 10
184.5510387106701
 20
429.20274192802577
 30
0.0
 40
3.0009689999999982
 50
9.9623180000057001
 51
81.616391999998939
  0
LINE
  5
9537
  8
0
 10
282.36675871067018
 20
495.20191092802582
 30
0.0
 11
266.36675871067018
 21
495.20191092802582
 31
0.0
  0
LINE
  5
9538
  8
0
 10
282.36675871067018
 20
494.70191092802582
 30
0.0
 11
287.36675871067018
 21
494.70191092802582
 31
0.0
  0
LINE
  5
9539
  8
0
 10
282.36675871067018
 20
495.20191092802582
 30
0.0
 11
282.36675871067018
 21
494.70191092802582
 31
0.0
  0
ARC
  5
953A
  8
0
 10
273.36675871067018
 20
497.20191092802588
 30
0.0
 40
7.0
 50
196.60154999999159
 51
343.39844999999502
  0
LINE
  5
953B
  8
0
 10
266.36675871067018
 20
495.20191092802582
 30
0.0
 11
266.36675871067018
 21
494.70191092802582
 31
0.0
  0
ARC
  5
953C
  8
0
 10
273.36675871067018
 20
497.20191092802588
 30
0.0
 40
6.0
 50
199.4712209999945
 51
340.52878000000038
  0
LINE
  5
953D
  8
0
 10
266.36675871067018
 20
499.70191092802582
 30
0.0
 11
192.86675871067021
 21
499.70191092802582
 31
0.0
  0
LINE
  5
953E
  8
0
 10
266.36675871067018
 20
494.70191092802582
 30
0.0
 11
192.86675871067021
 21
494.70191092802582
 31
0.0
  0
ARC
  5
953F
  8
0
 10
192.86675871067021
 20
484.70191092802588
 30
0.0
 40
10.0
 50
90.0
 51
180.0
  0
ARC
  5
9540
  8
0
 10
192.86675871067021
 20
484.70191092802588
 30
0.0
 40
15.0
 50
90.0
 51
180.0
  0
ARC
  5
9541
  8
0
 10
180.36675871067021
 20
420.2013629280259
 30
0.0
 40
2.5
 50
180.0
 51
0.0
  0
LINE
  5
9542
  8
0
 10
177.86675871067021
 20
420.2013629280259
 30
0.0
 11
177.86675871067021
 21
484.70191092802588
 31
0.0
  0
LINE
  5
9543
  8
0
 10
182.86675871067021
 20
420.2013629280259
 30
0.0
 11
182.86675871067021
 21
484.70191092802588
 31
0.0
  0
LINE
  5
9544
  8
0
 10
466.50675871067011
 20
501.17191092802568
 30
0.0
 11
465.06675871067017
 21
501.36905392802589
 31
0.0
  0
LINE
  5
9545
  8
0
 10
466.5167587106701
 20
503.26191092802583
 30
0.0
 11
465.06675871067017
 21
503.03883392802561
 31
0.0
  0
LINE
  5
9546
  8
0
 10
467.36675871067013
 20
500.18191092802579
 30
0.0
 11
467.36675871067013
 21
504.25191092802578
 31
0.0
  0
LINE
  5
9547
  8
0
 10
466.50675871067011
 20
511.17191092802591
 30
0.0
 11
465.06675871067017
 21
511.36905392802578
 31
0.0
  0
LINE
  5
9548
  8
0
 10
466.5167587106701
 20
513.26191092802583
 30
0.0
 11
465.06675871067017
 21
513.03883392802561
 31
0.0
  0
LINE
  5
9549
  8
0
 10
467.36675871067013
 20
510.1819109280259
 30
0.0
 11
467.36675871067013
 21
514.25191092802584
 31
0.0
  0
LINE
  5
954A
  8
0
 10
466.5167587106701
 20
523.26191092802583
 30
0.0
 11
465.06675871067017
 21
523.0388339280255
 31
0.0
  0
LINE
  5
954B
  8
0
 10
466.50675871067011
 20
521.17191092802591
 30
0.0
 11
465.06675871067017
 21
521.36905392802601
 31
0.0
  0
LINE
  5
954C
  8
0
 10
467.36675871067013
 20
520.1819109280259
 30
0.0
 11
467.36675871067013
 21
524.25191092802584
 31
0.0
  0
ARC
  5
954D
  8
0
 10
464.81836371067021
 20
502.20191092802571
 30
0.0
 40
0.8000439999999999
 50
288.0879409999975
 51
71.912059000002486
  0
ARC
  5
954E
  8
0
 10
466.36412671067018
 20
504.25285692802589
 30
0.0
 40
1.0026319999999971
 50
278.75624099999948
 51
359.94591499999501
  0
ARC
  5
954F
  8
0
 10
466.35979171067009
 20
500.17570692802582
 30
0.0
 40
1.0069859999999999
 50
0.3529979999987895
 51
81.607836999998227
  0
ARC
  5
9550
  8
0
 10
464.8216967106701
 20
512.19684892802593
 30
0.0
 40
0.8050779999999997
 50
0.3602509999951178
 51
72.278209999997259
  0
ARC
  5
9551
  8
0
 10
466.36412671067018
 20
514.25285692802595
 30
0.0
 40
1.0026319999999971
 50
278.75624099999948
 51
359.94591499999501
  0
ARC
  5
9552
  8
0
 10
466.35979171067009
 20
510.17570692802582
 30
0.0
 40
1.0069859999999999
 50
0.3529979999987895
 51
81.607836999998227
  0
ARC
  5
9553
  8
0
 10
464.82340271067022
 20
522.20526692802582
 30
0.0
 40
0.8033630000000001
 50
287.63315000000222
 51
359.7606700000087
  0
ARC
  5
9554
  8
0
 10
464.8216967106701
 20
522.19684892802593
 30
0.0
 40
0.8050779999999997
 50
0.3602509999951178
 51
72.278209999997259
  0
ARC
  5
9555
  8
0
 10
466.35979171067009
 20
520.17570692802553
 30
0.0
 40
1.0069859999999999
 50
0.3529979999987895
 51
81.607836999998227
  0
ARC
  5
9556
  8
0
 10
466.36412671067018
 20
524.25285692802595
 30
0.0
 40
1.0026319999999971
 50
278.75624099999948
 51
359.94591499999501
  0
ARC
  5
9557
  8
0
 10
464.82340271067022
 20
512.20526692802571
 30
0.0
 40
0.8033630000000001
 50
287.63315000000222
 51
359.7606700000087
  0
ARC
  5
9558
  8
0
 10
466.36178371066978
 20
530.18629092802576
 30
0.0
 40
1.0069859999999999
 50
0.3529979999987895
 51
81.607836999998227
  0
ARC
  5
9559
  8
0
 10
466.36611971067009
 20
534.26344192802594
 30
0.0
 40
1.0026319999999971
 50
278.75624099999948
 51
359.94591499999501
  0
LINE
  5
955A
  8
0
 10
467.36875171066998
 20
530.19249492802601
 30
0.0
 11
467.36875171066998
 21
534.26249492802594
 31
0.0
  0
ARC
  5
955B
  8
0
 10
464.82368971066978
 20
532.2074329280257
 30
0.0
 40
0.8050779999999997
 50
0.3602509999951178
 51
72.278209999997259
  0
LINE
  5
955C
  8
0
 10
466.51875171067002
 20
533.27249492802594
 30
0.0
 11
465.06875171067009
 21
533.04941792802583
 31
0.0
  0
ARC
  5
955D
  8
0
 10
464.82539571067002
 20
532.21585092802593
 30
0.0
 40
0.8033630000000001
 50
287.63315000000222
 51
359.7606700000087
  0
LINE
  5
955E
  8
0
 10
466.50875171067008
 20
531.18249492802545
 30
0.0
 11
465.06875171067009
 21
531.37963792802555
 31
0.0
  0
LINE
  5
955F
  8
0
 10
465.06675871067017
 20
501.40191092802559
 30
0.0
 11
453.36675871067018
 21
501.40191092802559
 31
0.0
  0
LINE
  5
9560
  8
0
 10
465.06675871067017
 20
503.00191092802578
 30
0.0
 11
452.86675871067018
 21
503.00191092802578
 31
0.0
  0
LINE
  5
9561
  8
0
 10
466.5167587106701
 20
503.22191092802592
 30
0.0
 11
452.86675871067018
 21
503.22191092802592
 31
0.0
  0
LINE
  5
9562
  8
0
 10
465.06675871067017
 20
511.40191092802581
 30
0.0
 11
452.86675871067018
 21
511.40191092802581
 31
0.0
  0
LINE
  5
9563
  8
0
 10
465.06675871067017
 20
513.00191092802584
 30
0.0
 11
452.86675871067018
 21
513.00191092802584
 31
0.0
  0
LINE
  5
9564
  8
0
 10
466.50675871067011
 20
511.17191092802591
 30
0.0
 11
452.86675871067018
 21
511.17191092802591
 31
0.0
  0
LINE
  5
9565
  8
0
 10
466.42224371066982
 20
513.25191092802584
 30
0.0
 11
452.86675871067018
 21
513.25191092802584
 31
0.0
  0
LINE
  5
9566
  8
0
 10
465.06675871067017
 20
533.00191092802584
 30
0.0
 11
456.23853871067001
 21
533.00191092802584
 31
0.0
  0
LINE
  5
9567
  8
0
 10
465.06675871067017
 20
531.40191092802593
 30
0.0
 11
457.35673371067008
 21
531.40191092802593
 31
0.0
  0
LINE
  5
9568
  8
0
 10
465.06675871067017
 20
523.00191092802584
 30
0.0
 11
457.36675871067018
 21
523.00191092802584
 31
0.0
  0
LINE
  5
9569
  8
0
 10
465.06675871067017
 20
521.40191092802593
 30
0.0
 11
453.81319371067002
 21
521.40191092802593
 31
0.0
  0
LINE
  5
956A
  8
0
 10
465.27920271066978
 20
569.61435492802593
 30
0.0
 11
465.36675871067018
 21
569.70191092802565
 31
0.0
  0
LINE
  5
956B
  8
0
 10
465.36675871067018
 20
569.70690492802578
 30
0.0
 11
465.36675871067018
 21
569.70191092802565
 31
0.0
  0
ARC
  5
956C
  8
0
 10
466.36426171067018
 20
569.70440792802572
 30
0.0
 40
0.9975059999999999
 50
89.856577999996375
 51
180.14342199999061
  0
LINE
  5
956D
  8
0
 10
465.36675871067018
 20
569.70191092802565
 30
0.0
 11
465.36675871067018
 21
569.28759392802567
 31
0.0
  0
LINE
  5
956E
  8
0
 10
463.86675871067001
 20
548.10296092802582
 30
0.0
 11
463.86675871067001
 21
543.37191092802584
 31
0.0
  0
LINE
  5
956F
  8
0
 10
465.36675871067018
 20
533.09526592802592
 30
0.0
 11
465.36675871067018
 21
541.03191092802581
 31
0.0
  0
LINE
  5
9570
  8
0
 10
463.86675871067001
 20
548.10296092802582
 30
0.0
 11
463.98291371066978
 21
549.31088792802564
 31
0.0
  0
LINE
  5
9571
  8
0
 10
463.86675871067001
 20
541.03191092802581
 30
0.0
 11
463.86675871067001
 21
533.39191092802594
 31
0.0
  0
LINE
  5
9572
  8
0
 10
313.36675871067018
 20
541.38191092802595
 30
0.0
 11
464.90606371067008
 21
541.38191092802595
 31
0.0
  0
LINE
  5
9573
  8
0
 10
303.36675871067018
 20
548.10296092802582
 30
0.0
 11
463.86675871067001
 21
548.10296092802582
 31
0.0
  0
LINE
  5
9574
  8
0
 10
315.36675871067018
 20
565.70191092802565
 30
0.0
 11
464.35838371066978
 21
565.70191092802565
 31
0.0
  0
LINE
  5
9575
  8
0
 10
398.36675871067018
 20
575.06410892802592
 30
0.0
 11
398.36675871067018
 21
574.09807592802599
 31
0.0
  0
ARC
  5
9576
  8
0
 10
396.36675871067018
 20
573.63147992802578
 30
0.0
 40
2.0
 50
13.49131100000157
 51
90.0
  0
ARC
  5
9577
  8
0
 10
396.36675871067018
 20
574.63683092802592
 30
0.0
 40
2.0
 50
0.0
 51
90.0
  0
ARC
  5
9578
  8
0
 10
396.36675871067018
 20
575.06410892802592
 30
0.0
 40
2.0
 50
0.0
 51
90.0
  0
LINE
  5
9579
  8
0
 10
383.51675871067022
 20
541.03191092802581
 30
0.0
 11
466.87629771067009
 21
541.03191092802581
 31
0.0
  0
LINE
  5
957A
  8
0
 10
346.02675871067009
 20
523.00191092802584
 30
0.0
 11
367.86675871067018
 21
523.00191092802584
 31
0.0
  0
LINE
  5
957B
  8
0
 10
345.45675871067021
 20
521.40191092802593
 30
0.0
 11
367.86675871067018
 21
521.40191092802593
 31
0.0
  0
LINE
  5
957C
  8
0
 10
342.49675871067018
 20
511.40191092802581
 30
0.0
 11
368.36675871067018
 21
511.40191092802581
 31
0.0
  0
LINE
  5
957D
  8
0
 10
342.85675871067019
 20
513.00191092802584
 30
0.0
 11
368.36675871067018
 21
513.00191092802584
 31
0.0
  0
LINE
  5
957E
  8
0
 10
342.01675871067022
 20
501.40191092802559
 30
0.0
 11
368.36675871067018
 21
501.40191092802559
 31
0.0
  0
LINE
  5
957F
  8
0
 10
341.90675871067009
 20
503.00191092802578
 30
0.0
 11
368.36675871067018
 21
503.00191092802578
 31
0.0
  0
LINE
  5
9580
  8
0
 10
342.0367587106702
 20
501.19191092802589
 30
0.0
 11
368.36675871067018
 21
501.19191092802589
 31
0.0
  0
LINE
  5
9581
  8
0
 10
341.89675871067021
 20
503.22191092802592
 30
0.0
 11
368.36675871067018
 21
503.22191092802592
 31
0.0
  0
LINE
  5
9582
  8
0
 10
342.44675871067022
 20
511.17191092802591
 30
0.0
 11
368.36675871067018
 21
511.17191092802591
 31
0.0
  0
LINE
  5
9583
  8
0
 10
342.91675871067008
 20
513.25191092802584
 30
0.0
 11
368.36675871067018
 21
513.25191092802584
 31
0.0
  0
LINE
  5
9584
  8
0
 10
345.35675871067019
 20
521.12191092802584
 30
0.0
 11
367.86675871067018
 21
521.12191092802584
 31
0.0
  0
LINE
  5
9585
  8
0
 10
346.13675871067022
 20
523.30191092802579
 30
0.0
 11
367.86675871067018
 21
523.30191092802579
 31
0.0
  0
LINE
  5
9586
  8
0
 10
313.36675871067018
 20
562.55782992802597
 30
0.0
 11
313.36675871067018
 21
563.70191092802588
 31
0.0
  0
ARC
  5
9587
  8
0
 10
311.36675871067018
 20
562.55782992802597
 30
0.0
 40
2.0
 50
270.0
 51
0.0
  0
ARC
  5
9588
  8
0
 10
315.36675871067018
 20
563.70191092802588
 30
0.0
 40
2.0
 50
90.0
 51
180.0
  0
LINE
  5
9589
  8
0
 10
313.36675871067018
 20
562.55782992802597
 30
0.0
 11
313.36675871067018
 21
550.10296092802582
 31
0.0
  0
ARC
  5
958A
  8
0
 10
311.36675871067018
 20
550.10296092802582
 30
0.0
 40
2.0
 50
270.0
 51
0.0
  0
LINE
  5
958B
  8
0
 10
313.36675871067018
 20
568.73027792802566
 30
0.0
 11
313.36675871067018
 21
572.09807592802588
 31
0.0
  0
ARC
  5
958C
  8
0
 10
311.36675871067018
 20
568.73027792802566
 30
0.0
 40
2.0
 50
270.0
 51
0.0
  0
ARC
  5
958D
  8
0
 10
315.36675871067018
 20
572.09807592802588
 30
0.0
 40
2.0
 50
90.0
 51
180.0
  0
ARC
  5
958E
  8
0
 10
311.36675871067018
 20
573.08626692802579
 30
0.0
 40
2.0
 50
270.0
 51
0.0
  0
ARC
  5
958F
  8
0
 10
315.36675871067018
 20
573.63147992802578
 30
0.0
 40
2.0
 50
90.0
 51
180.0
  0
ARC
  5
9590
  8
0
 10
311.36675871067018
 20
575.72390592802594
 30
0.0
 40
2.0
 50
270.0
 51
344.23045300000013
  0
ARC
  5
9591
  8
0
 10
315.21620871067017
 20
574.63683092802592
 30
0.0
 40
2.0
 50
90.0
 51
164.2304530000001
  0
LINE
  5
9592
  8
0
 10
313.36675871067018
 20
573.08626692802579
 30
0.0
 11
313.36675871067018
 21
573.63147992802578
 31
0.0
  0
ARC
  5
9593
  8
0
 10
315.36675871067018
 20
575.06410892802592
 30
0.0
 40
2.0
 50
90.0
 51
180.0
  0
LINE
  5
9594
  8
0
 10
313.36675871067018
 20
543.13324292802554
 30
0.0
 11
313.36675871067018
 21
526.4834679280259
 31
0.0
  0
LINE
  5
9595
  8
0
 10
313.36675871067018
 20
533.00191092802584
 30
0.0
 11
370.69445071067008
 21
533.00191092802584
 31
0.0
  0
LINE
  5
9596
  8
0
 10
313.36675871067018
 20
531.40191092802593
 30
0.0
 11
368.80431271067022
 21
531.40191092802593
 31
0.0
  0
LINE
  5
9597
  8
0
 10
313.36675871067018
 20
531.05191092802568
 30
0.0
 11
368.63513171067018
 21
531.05191092802568
 31
0.0
  0
LINE
  5
9598
  8
0
 10
313.36675871067018
 20
533.39191092802594
 30
0.0
 11
465.36675871067018
 21
533.39191092802594
 31
0.0
  0
LINE
  5
9599
  8
0
 10
346.13675871067022
 20
523.30191092802579
 30
0.0
 11
303.36675871067018
 21
523.30191092802579
 31
0.0
  0
LINE
  5
959A
  8
0
 10
345.35675871067019
 20
521.12191092802584
 30
0.0
 11
303.36675871067018
 21
521.12191092802584
 31
0.0
  0
LINE
  5
959B
  8
0
 10
342.91675871067008
 20
513.25191092802584
 30
0.0
 11
303.36675871067018
 21
513.25191092802584
 31
0.0
  0
LINE
  5
959C
  8
0
 10
342.44675871067022
 20
511.17191092802591
 30
0.0
 11
303.36675871067018
 21
511.17191092802591
 31
0.0
  0
LINE
  5
959D
  8
0
 10
341.89675871067021
 20
503.22191092802592
 30
0.0
 11
303.36675871067018
 21
503.22191092802592
 31
0.0
  0
LINE
  5
959E
  8
0
 10
342.0367587106702
 20
501.19191092802589
 30
0.0
 11
303.36675871067018
 21
501.19191092802589
 31
0.0
  0
LINE
  5
959F
  8
0
 10
346.02675871067009
 20
523.00191092802584
 30
0.0
 11
303.36675871067018
 21
523.00191092802584
 31
0.0
  0
LINE
  5
95A0
  8
0
 10
345.45675871067021
 20
521.40191092802593
 30
0.0
 11
303.36675871067018
 21
521.40191092802593
 31
0.0
  0
LINE
  5
95A1
  8
0
 10
342.85675871067019
 20
513.00191092802584
 30
0.0
 11
303.36675871067018
 21
513.00191092802584
 31
0.0
  0
LINE
  5
95A2
  8
0
 10
342.49675871067018
 20
511.40191092802581
 30
0.0
 11
303.36675871067018
 21
511.40191092802581
 31
0.0
  0
LINE
  5
95A3
  8
0
 10
341.90675871067009
 20
503.00191092802578
 30
0.0
 11
303.36675871067018
 21
503.00191092802578
 31
0.0
  0
LINE
  5
95A4
  8
0
 10
342.01675871067022
 20
501.40191092802559
 30
0.0
 11
303.36675871067018
 21
501.40191092802559
 31
0.0
  0
LINE
  5
95A5
  8
0
 10
313.36675871067018
 20
542.98191092802585
 30
0.0
 11
464.75995271067001
 21
542.98191092802585
 31
0.0
  0
LINE
  5
95A6
  8
0
 10
313.36675871067018
 20
541.03191092802581
 30
0.0
 11
383.51675871067022
 21
541.03191092802581
 31
0.0
  0
LINE
  5
95A7
  8
0
 10
315.36675871067018
 20
574.09807592802599
 30
0.0
 11
462.54313971067018
 21
574.09807592802599
 31
0.0
  0
LINE
  5
95A8
  8
0
 10
315.36675871067018
 20
575.63147992802567
 30
0.0
 11
396.36675871067018
 21
575.63147992802567
 31
0.0
  0
LINE
  5
95A9
  8
0
 10
315.21620871067017
 20
576.63683092802592
 30
0.0
 11
396.36675871067018
 21
576.63683092802592
 31
0.0
  0
LINE
  5
95AA
  8
0
 10
315.36675871067018
 20
577.06410892802592
 30
0.0
 11
396.36675871067018
 21
577.06410892802592
 31
0.0
  0
LINE
  5
95AB
  8
0
 10
303.36675871067018
 20
526.4834679280259
 30
0.0
 11
313.36675871067018
 21
526.4834679280259
 31
0.0
  0
LINE
  5
95AC
  8
0
 10
303.36675871067018
 20
532.20191092802554
 30
0.0
 11
313.36675871067018
 21
532.20191092802554
 31
0.0
  0
LINE
  5
95AD
  8
0
 10
303.36675871067018
 20
542.72191092802575
 30
0.0
 11
313.36675871067018
 21
542.72191092802575
 31
0.0
  0
LINE
  5
95AE
  8
0
 10
303.36675871067018
 20
543.13324292802554
 30
0.0
 11
313.36675871067018
 21
543.13324292802554
 31
0.0
  0
LINE
  5
95AF
  8
0
 10
311.36675871067018
 20
560.55782992802585
 30
0.0
 11
303.36675871067018
 21
560.55782992802585
 31
0.0
  0
LINE
  5
95B0
  8
0
 10
311.36675871067018
 20
566.73027792802566
 30
0.0
 11
303.36675871067018
 21
566.73027792802566
 31
0.0
  0
LINE
  5
95B1
  8
0
 10
311.36675871067018
 20
571.08626692802591
 30
0.0
 11
303.36675871067018
 21
571.08626692802591
 31
0.0
  0
LINE
  5
95B2
  8
0
 10
311.36675871067018
 20
573.72390592802594
 30
0.0
 11
303.36675871067018
 21
573.72390592802594
 31
0.0
  0
LINE
  5
95B3
  8
0
 10
346.02675871067009
 20
471.40191092802593
 30
0.0
 11
367.86675871067018
 21
471.40191092802593
 31
0.0
  0
LINE
  5
95B4
  8
0
 10
345.45675871067021
 20
473.00191092802578
 30
0.0
 11
367.86675871067018
 21
473.00191092802578
 31
0.0
  0
LINE
  5
95B5
  8
0
 10
342.49675871067018
 20
483.00191092802578
 30
0.0
 11
368.36675871067018
 21
483.00191092802578
 31
0.0
  0
LINE
  5
95B6
  8
0
 10
342.85675871067019
 20
481.40191092802581
 30
0.0
 11
368.36675871067018
 21
481.40191092802581
 31
0.0
  0
LINE
  5
95B7
  8
0
 10
342.01675871067022
 20
493.00191092802578
 30
0.0
 11
368.36675871067018
 21
493.00191092802578
 31
0.0
  0
LINE
  5
95B8
  8
0
 10
341.90675871067009
 20
491.40191092802593
 30
0.0
 11
368.36675871067018
 21
491.40191092802593
 31
0.0
  0
LINE
  5
95B9
  8
0
 10
342.0367587106702
 20
493.21191092802559
 30
0.0
 11
368.36675871067018
 21
493.21191092802559
 31
0.0
  0
LINE
  5
95BA
  8
0
 10
341.89675871067021
 20
491.18191092802579
 30
0.0
 11
368.36675871067018
 21
491.18191092802579
 31
0.0
  0
LINE
  5
95BB
  8
0
 10
342.44675871067022
 20
483.23191092802551
 30
0.0
 11
368.36675871067018
 21
483.23191092802551
 31
0.0
  0
LINE
  5
95BC
  8
0
 10
342.91675871067008
 20
481.15191092802593
 30
0.0
 11
368.36675871067018
 21
481.15191092802593
 31
0.0
  0
LINE
  5
95BD
  8
0
 10
345.35675871067019
 20
473.28191092802558
 30
0.0
 11
367.86675871067018
 21
473.28191092802558
 31
0.0
  0
LINE
  5
95BE
  8
0
 10
346.13675871067022
 20
471.1019109280258
 30
0.0
 11
367.86675871067018
 21
471.1019109280258
 31
0.0
  0
LINE
  5
95BF
  8
0
 10
465.36675871067018
 20
435.20191092802582
 30
0.0
 11
465.36675871067018
 21
451.03191092802581
 31
0.0
  0
LINE
  5
95C0
  8
0
 10
466.50875171067008
 20
463.22132692802592
 30
0.0
 11
465.06875171067009
 21
463.02418392802582
 31
0.0
  0
ARC
  5
95C1
  8
0
 10
464.82539571067002
 20
462.18797092802578
 30
0.0
 40
0.8033630000000001
 50
0.2393300000044313
 51
72.366849999997839
  0
LINE
  5
95C2
  8
0
 10
466.51875171067002
 20
461.13132692802583
 30
0.0
 11
465.06875171067009
 21
461.35440392802587
 31
0.0
  0
ARC
  5
95C3
  8
0
 10
464.82368971066978
 20
462.1963889280259
 30
0.0
 40
0.8050779999999997
 50
287.7217900000029
 51
359.63974900000488
  0
LINE
  5
95C4
  8
0
 10
467.36875171066998
 20
464.21132692802558
 30
0.0
 11
467.36875171066998
 21
460.14132692802582
 31
0.0
  0
ARC
  5
95C5
  8
0
 10
466.36611971067009
 20
460.14037992802582
 30
0.0
 40
1.0026319999999971
 50
0.054084999991942
 51
81.243759000000509
  0
ARC
  5
95C6
  8
0
 10
466.36178371066978
 20
464.21753092802601
 30
0.0
 40
1.0069859999999999
 50
278.39216300000191
 51
359.64700200000118
  0
LINE
  5
95C7
  8
0
 10
463.86675871067001
 20
446.30086092802583
 30
0.0
 11
463.98291371066978
 21
445.0929349280259
 31
0.0
  0
LINE
  5
95C8
  8
0
 10
463.86675871067001
 20
446.30086092802583
 30
0.0
 11
463.86675871067001
 21
451.03191092802581
 31
0.0
  0
LINE
  5
95C9
  8
0
 10
463.86675871067001
 20
453.37191092802601
 30
0.0
 11
463.86675871067001
 21
461.01191092802583
 31
0.0
  0
LINE
  5
95CA
  8
0
 10
465.36675871067018
 20
424.70191092802582
 30
0.0
 11
465.36675871067018
 21
425.11622792802581
 31
0.0
  0
ARC
  5
95CB
  8
0
 10
466.36426171067018
 20
424.69941392802588
 30
0.0
 40
0.9975059999999999
 50
179.85657799999629
 51
270.14342199999709
  0
ARC
  5
95CC
  8
0
 10
464.82340271067022
 20
482.19855492802589
 30
0.0
 40
0.8033630000000001
 50
0.2393300000044313
 51
72.366849999997839
  0
ARC
  5
95CD
  8
0
 10
466.36412671067018
 20
470.15096492802599
 30
0.0
 40
1.0026319999999971
 50
0.054084999991942
 51
81.243759000000509
  0
ARC
  5
95CE
  8
0
 10
466.35979171067009
 20
474.22811492802578
 30
0.0
 40
1.0069859999999999
 50
278.39216300000191
 51
359.64700200000118
  0
ARC
  5
95CF
  8
0
 10
464.8216967106701
 20
472.20697292802578
 30
0.0
 40
0.8050779999999997
 50
287.7217900000029
 51
359.63974900000488
  0
ARC
  5
95D0
  8
0
 10
464.82340271067022
 20
472.1985549280256
 30
0.0
 40
0.8033630000000001
 50
0.2393300000044313
 51
72.366849999997839
  0
ARC
  5
95D1
  8
0
 10
466.35979171067009
 20
484.22811492802589
 30
0.0
 40
1.0069859999999999
 50
278.39216300000191
 51
359.64700200000118
  0
ARC
  5
95D2
  8
0
 10
466.36412671067018
 20
480.15096492802581
 30
0.0
 40
1.0026319999999971
 50
0.054084999991942
 51
81.243759000000509
  0
ARC
  5
95D3
  8
0
 10
464.8216967106701
 20
482.20697292802578
 30
0.0
 40
0.8050779999999997
 50
287.7217900000029
 51
359.63974900000488
  0
ARC
  5
95D4
  8
0
 10
466.35979171067009
 20
494.22811492802578
 30
0.0
 40
1.0069859999999999
 50
278.39216300000191
 51
359.64700200000118
  0
ARC
  5
95D5
  8
0
 10
466.36412671067018
 20
490.15096492802559
 30
0.0
 40
1.0026319999999971
 50
0.054084999991942
 51
81.243759000000509
  0
ARC
  5
95D6
  8
0
 10
464.81836371067021
 20
492.20191092802588
 30
0.0
 40
0.8000439999999999
 50
288.0879409999975
 51
71.912059000002486
  0
LINE
  5
95D7
  8
0
 10
467.36675871067013
 20
474.22191092802592
 30
0.0
 11
467.36675871067013
 21
470.15191092802559
 31
0.0
  0
LINE
  5
95D8
  8
0
 10
466.50675871067011
 20
473.23191092802591
 30
0.0
 11
465.06675871067017
 21
473.03476792802559
 31
0.0
  0
LINE
  5
95D9
  8
0
 10
466.5167587106701
 20
471.1419109280256
 30
0.0
 11
465.06675871067017
 21
471.36498792802598
 31
0.0
  0
LINE
  5
95DA
  8
0
 10
467.36675871067013
 20
484.22191092802558
 30
0.0
 11
467.36675871067013
 21
480.15191092802581
 31
0.0
  0
LINE
  5
95DB
  8
0
 10
466.5167587106701
 20
481.14191092802582
 30
0.0
 11
465.06675871067017
 21
481.36498792802598
 31
0.0
  0
LINE
  5
95DC
  8
0
 10
466.50675871067011
 20
483.23191092802551
 30
0.0
 11
465.06675871067017
 21
483.03476792802547
 31
0.0
  0
LINE
  5
95DD
  8
0
 10
467.36675871067013
 20
494.22191092802581
 30
0.0
 11
467.36675871067013
 21
490.15191092802593
 31
0.0
  0
LINE
  5
95DE
  8
0
 10
466.5167587106701
 20
491.14191092802588
 30
0.0
 11
465.06675871067017
 21
491.36498792802558
 31
0.0
  0
LINE
  5
95DF
  8
0
 10
466.50675871067011
 20
493.2319109280258
 30
0.0
 11
465.06675871067017
 21
493.03476792802581
 31
0.0
  0
LINE
  5
95E0
  8
0
 10
465.36675871067018
 20
424.69691692802598
 30
0.0
 11
465.36675871067018
 21
424.70191092802582
 31
0.0
  0
LINE
  5
95E1
  8
0
 10
465.27920271066978
 20
424.78946692802577
 30
0.0
 11
465.36675871067018
 21
424.70191092802582
 31
0.0
  0
LINE
  5
95E2
  8
0
 10
465.06675871067017
 20
493.00191092802578
 30
0.0
 11
453.36675871067018
 21
493.00191092802578
 31
0.0
  0
LINE
  5
95E3
  8
0
 10
465.06675871067017
 20
491.40191092802593
 30
0.0
 11
452.86675871067018
 21
491.40191092802593
 31
0.0
  0
LINE
  5
95E4
  8
0
 10
466.5167587106701
 20
491.18191092802579
 30
0.0
 11
452.86675871067018
 21
491.18191092802579
 31
0.0
  0
LINE
  5
95E5
  8
0
 10
465.06675871067017
 20
483.00191092802578
 30
0.0
 11
452.86675871067018
 21
483.00191092802578
 31
0.0
  0
LINE
  5
95E6
  8
0
 10
465.06675871067017
 20
481.40191092802581
 30
0.0
 11
452.86675871067018
 21
481.40191092802581
 31
0.0
  0
LINE
  5
95E7
  8
0
 10
466.50675871067011
 20
483.23191092802551
 30
0.0
 11
452.86675871067018
 21
483.23191092802551
 31
0.0
  0
LINE
  5
95E8
  8
0
 10
466.42224371066982
 20
481.15191092802593
 30
0.0
 11
452.86675871067018
 21
481.15191092802593
 31
0.0
  0
LINE
  5
95E9
  8
0
 10
465.06675871067017
 20
461.40191092802581
 30
0.0
 11
456.23853871067001
 21
461.40191092802581
 31
0.0
  0
LINE
  5
95EA
  8
0
 10
465.06675871067017
 20
463.00191092802578
 30
0.0
 11
457.35673371067008
 21
463.00191092802578
 31
0.0
  0
LINE
  5
95EB
  8
0
 10
465.06675871067017
 20
471.40191092802593
 30
0.0
 11
457.36675871067018
 21
471.40191092802593
 31
0.0
  0
LINE
  5
95EC
  8
0
 10
465.06675871067017
 20
473.00191092802578
 30
0.0
 11
453.81319371067002
 21
473.00191092802578
 31
0.0
  0
LINE
  5
95ED
  8
0
 10
313.36675871067018
 20
451.42191092802591
 30
0.0
 11
464.75995271067001
 21
451.42191092802591
 31
0.0
  0
LINE
  5
95EE
  8
0
 10
303.36675871067018
 20
446.30086092802583
 30
0.0
 11
463.86675871067001
 21
446.30086092802583
 31
0.0
  0
LINE
  5
95EF
  8
0
 10
313.36675871067018
 20
451.27057892802537
 30
0.0
 11
313.36675871067018
 21
467.9203539280258
 31
0.0
  0
ARC
  5
95F0
  8
0
 10
311.36675871067018
 20
444.30086092802583
 30
0.0
 40
2.0
 50
0.0
 51
90.0
  0
LINE
  5
95F1
  8
0
 10
313.36675871067018
 20
431.84599192802568
 30
0.0
 11
313.36675871067018
 21
444.30086092802583
 31
0.0
  0
ARC
  5
95F2
  8
0
 10
315.36675871067018
 20
430.70191092802582
 30
0.0
 40
2.0
 50
180.0
 51
270.0
  0
ARC
  5
95F3
  8
0
 10
311.36675871067018
 20
431.84599192802568
 30
0.0
 40
2.0
 50
0.0
 51
90.0
  0
LINE
  5
95F4
  8
0
 10
313.36675871067018
 20
431.84599192802568
 30
0.0
 11
313.36675871067018
 21
430.70191092802582
 31
0.0
  0
LINE
  5
95F5
  8
0
 10
313.36675871067018
 20
461.40191092802581
 30
0.0
 11
370.69445071067008
 21
461.40191092802581
 31
0.0
  0
LINE
  5
95F6
  8
0
 10
313.36675871067018
 20
463.00191092802578
 30
0.0
 11
368.80431271067022
 21
463.00191092802578
 31
0.0
  0
LINE
  5
95F7
  8
0
 10
313.36675871067018
 20
463.35191092802597
 30
0.0
 11
368.63513171067018
 21
463.35191092802597
 31
0.0
  0
LINE
  5
95F8
  8
0
 10
313.36675871067018
 20
461.01191092802583
 30
0.0
 11
465.36675871067018
 21
461.01191092802583
 31
0.0
  0
LINE
  5
95F9
  8
0
 10
346.13675871067022
 20
471.1019109280258
 30
0.0
 11
303.36675871067018
 21
471.1019109280258
 31
0.0
  0
LINE
  5
95FA
  8
0
 10
345.35675871067019
 20
473.28191092802558
 30
0.0
 11
303.36675871067018
 21
473.28191092802558
 31
0.0
  0
LINE
  5
95FB
  8
0
 10
342.91675871067008
 20
481.15191092802593
 30
0.0
 11
303.36675871067018
 21
481.15191092802593
 31
0.0
  0
LINE
  5
95FC
  8
0
 10
342.44675871067022
 20
483.23191092802551
 30
0.0
 11
303.36675871067018
 21
483.23191092802551
 31
0.0
  0
LINE
  5
95FD
  8
0
 10
341.89675871067021
 20
491.18191092802579
 30
0.0
 11
303.36675871067018
 21
491.18191092802579
 31
0.0
  0
LINE
  5
95FE
  8
0
 10
342.0367587106702
 20
493.21191092802559
 30
0.0
 11
303.36675871067018
 21
493.21191092802559
 31
0.0
  0
LINE
  5
95FF
  8
0
 10
346.02675871067009
 20
471.40191092802593
 30
0.0
 11
303.36675871067018
 21
471.40191092802593
 31
0.0
  0
LINE
  5
9600
  8
0
 10
345.45675871067021
 20
473.00191092802578
 30
0.0
 11
303.36675871067018
 21
473.00191092802578
 31
0.0
  0
LINE
  5
9601
  8
0
 10
342.85675871067019
 20
481.40191092802581
 30
0.0
 11
303.36675871067018
 21
481.40191092802581
 31
0.0
  0
LINE
  5
9602
  8
0
 10
342.49675871067018
 20
483.00191092802578
 30
0.0
 11
303.36675871067018
 21
483.00191092802578
 31
0.0
  0
LINE
  5
9603
  8
0
 10
341.90675871067009
 20
491.40191092802593
 30
0.0
 11
303.36675871067018
 21
491.40191092802593
 31
0.0
  0
LINE
  5
9604
  8
0
 10
342.01675871067022
 20
493.00191092802578
 30
0.0
 11
303.36675871067018
 21
493.00191092802578
 31
0.0
  0
LINE
  5
9605
  8
0
 10
313.36675871067018
 20
453.02191092802582
 30
0.0
 11
464.90606371067008
 21
453.02191092802582
 31
0.0
  0
LINE
  5
9606
  8
0
 10
313.36675871067018
 20
453.37191092802601
 30
0.0
 11
383.51675871067022
 21
453.37191092802601
 31
0.0
  0
LINE
  5
9607
  8
0
 10
303.36675871067018
 20
451.03191092802581
 30
0.0
 11
466.86180671067012
 21
451.03191092802581
 31
0.0
  0
LINE
  5
9608
  8
0
 10
315.36675871067018
 20
428.70191092802582
 30
0.0
 11
464.35838371066978
 21
428.70191092802582
 31
0.0
  0
LINE
  5
9609
  8
0
 10
303.36675871067018
 20
467.9203539280258
 30
0.0
 11
313.36675871067018
 21
467.9203539280258
 31
0.0
  0
LINE
  5
960A
  8
0
 10
303.36675871067018
 20
462.20191092802582
 30
0.0
 11
313.36675871067018
 21
462.20191092802582
 31
0.0
  0
LINE
  5
960B
  8
0
 10
303.36675871067018
 20
451.6819109280259
 30
0.0
 11
313.36675871067018
 21
451.6819109280259
 31
0.0
  0
LINE
  5
960C
  8
0
 10
303.36675871067018
 20
451.27057892802537
 30
0.0
 11
313.36675871067018
 21
451.27057892802537
 31
0.0
  0
LINE
  5
960D
  8
0
 10
311.36675871067018
 20
433.8459919280258
 30
0.0
 11
303.36675871067018
 21
433.8459919280258
 31
0.0
  0
LINE
  5
960E
  8
0
 10
228.36675871067021
 20
499.70191092802582
 30
0.0
 11
228.36675871067021
 21
579.20191092802588
 31
0.0
  0
LINE
  5
960F
  8
0
 10
228.36675871067021
 20
415.20191092802582
 30
0.0
 11
303.36675871067018
 21
415.20191092802582
 31
0.0
  0
LINE
  5
9610
  8
0
 10
228.36675871067021
 20
579.20191092802588
 30
0.0
 11
303.36675871067018
 21
579.20191092802588
 31
0.0
  0
LINE
  5
9611
  8
0
 10
228.36675871067021
 20
415.20191092802582
 30
0.0
 11
228.36675871067021
 21
494.70191092802582
 31
0.0
  0
LINE
  5
9612
  8
0
 10
303.36675871067018
 20
579.20191092802588
 30
0.0
 11
303.36675871067018
 21
415.20191092802582
 31
0.0
  0
ARC
  5
9613
  8
0
 10
371.86725771067017
 20
529.70141192802589
 30
0.0
 40
3.5004989999999978
 50
90.008164000001173
 51
179.9918359999923
  0
ARC
  5
9614
  8
0
 10
368.36730571067022
 20
525.20136392802556
 30
0.0
 40
0.5005470000000001
 50
90.0626249999995
 51
179.93737500000049
  0
ARC
  5
9615
  8
0
 10
368.3592507106701
 20
515.19440292802562
 30
0.0
 40
0.492549
 50
179.12656199998949
 51
270.87343799999729
  0
ARC
  5
9616
  8
0
 10
368.36730571067022
 20
479.20136392802573
 30
0.0
 40
0.5005470000000001
 50
90.0626249999995
 51
179.93737500000049
  0
ARC
  5
9617
  8
0
 10
368.35940271067022
 20
469.19455492802581
 30
0.0
 40
0.492699
 50
179.1445600000103
 51
270.85544000000289
  0
ARC
  5
9618
  8
0
 10
439.90471371067019
 20
529.69642292802575
 30
0.0
 40
3.5055079999999998
 50
44.924208999998719
 51
89.803122999998919
  0
LINE
  5
9619
  8
0
 10
368.36675871067018
 20
464.70191092802571
 30
0.0
 11
368.36675871067018
 21
529.70191092802588
 31
0.0
  0
LINE
  5
961A
  8
0
 10
451.8367587106701
 20
471.6719109280258
 30
0.0
 11
442.38675871067011
 21
462.22191092802581
 31
0.0
  0
LINE
  5
961B
  8
0
 10
450.7667587106701
 20
473.57191092802577
 30
0.0
 11
440.49675871067012
 21
463.30191092802551
 31
0.0
  0
LINE
  5
961C
  8
0
 10
440.49675871067012
 20
531.10191092802575
 30
0.0
 11
450.7667587106701
 21
520.83191092802576
 31
0.0
  0
LINE
  5
961D
  8
0
 10
450.7667587106701
 20
520.83191092802576
 30
0.0
 11
450.7667587106701
 21
473.57191092802577
 31
0.0
  0
LINE
  5
961E
  8
0
 10
442.38675871067011
 20
532.17191092802591
 30
0.0
 11
451.8367587106701
 21
522.72191092802575
 31
0.0
  0
LINE
  5
961F
  8
0
 10
452.86675871067018
 20
520.25191092802584
 30
0.0
 11
452.86675871067018
 21
474.15191092802559
 31
0.0
  0
LINE
  5
9620
  8
0
 10
453.36675871067018
 20
502.20191092802571
 30
0.0
 11
453.36675871067018
 21
492.20191092802588
 31
0.0
  0
ARC
  5
9621
  8
0
 10
452.8592497106701
 20
502.19440192802563
 30
0.0
 40
0.507564
 50
0.8476510000084919
 51
89.152348999997997
  0
ARC
  5
9622
  8
0
 10
452.86719271066988
 20
492.20147692802578
 30
0.0
 40
0.499566
 50
269.95018499999878
 51
0.049814999994649
  0
ARC
  5
9623
  8
0
 10
449.36175471067003
 20
520.24006692802584
 30
0.0
 40
3.5050239999999979
 50
0.193606000005437
 51
45.079061999997109
  0
ARC
  5
9624
  8
0
 10
449.3635037106701
 20
474.1530009280259
 30
0.0
 40
3.5032559999999981
 50
314.9093959999982
 51
359.98217399999498
  0
LINE
  5
9625
  8
0
 10
367.86675871067018
 20
525.20191092802588
 30
0.0
 11
367.86675871067018
 21
515.20191092802554
 31
0.0
  0
LINE
  5
9626
  8
0
 10
367.86675871067018
 20
479.20191092802588
 30
0.0
 11
367.86675871067018
 21
469.20191092802582
 31
0.0
  0
LINE
  5
9627
  8
0
 10
440.49675871067012
 20
463.30191092802551
 30
0.0
 11
372.78675871067009
 21
463.30191092802551
 31
0.0
  0
LINE
  5
9628
  8
0
 10
372.78675871067009
 20
463.30191092802551
 30
0.0
 11
372.78675871067009
 21
461.20191092802582
 31
0.0
  0
ARC
  5
9629
  8
0
 10
439.91881871067011
 20
464.69755892802579
 30
0.0
 40
3.495648999999998
 50
269.96623299999862
 51
314.91065800000371
  0
LINE
  5
962A
  8
0
 10
371.86675871067018
 20
461.20191092802582
 30
0.0
 11
455.36675871067001
 21
461.20191092802582
 31
0.0
  0
ARC
  5
962B
  8
0
 10
371.85940271067022
 20
464.69455492802581
 30
0.0
 40
3.4926519999999979
 50
179.87932799999501
 51
270.12067199999842
  0
LINE
  5
962C
  8
0
 10
372.78675871067009
 20
531.10191092802575
 30
0.0
 11
440.49675871067012
 21
531.10191092802575
 31
0.0
  0
LINE
  5
962D
  8
0
 10
372.78675871067009
 20
531.10191092802575
 30
0.0
 11
372.78675871067009
 21
533.19691092802555
 31
0.0
  0
LINE
  5
962E
  8
0
 10
371.86675871067018
 20
533.20191092802588
 30
0.0
 11
455.36675871067001
 21
533.20191092802588
 31
0.0
  0
LINE
  5
962F
  8
0
 10
221.3167587106702
 20
416.45191092802582
 30
0.0
 11
228.36675871067021
 21
416.45191092802582
 31
0.0
  0
LINE
  5
9630
  8
0
 10
221.3167587106702
 20
577.95191092802588
 30
0.0
 11
228.36675871067021
 21
577.95191092802588
 31
0.0
  0
LINE
  5
9631
  8
0
  6
AM_ISO08W050
 10
273.36675871067018
 20
484.48202892802578
 30
0.0
 11
273.36675871067018
 21
510.80967092802553
 31
0.0
  0
LINE
  5
9632
  8
0
 10
183.0667587106702
 20
560.00191092802584
 30
0.0
 11
183.0667587106702
 21
496.05796692802568
 31
0.0
  0
LINE
  5
9633
  8
0
 10
187.5067587106702
 20
564.6819109280259
 30
0.0
 11
188.58675871067021
 21
570.84191092802575
 31
0.0
  0
LINE
  5
9634
  8
0
 10
220.0667587106702
 20
417.22247192802581
 30
0.0
 11
220.0667587106702
 21
494.70191092802582
 31
0.0
  0
LINE
  5
9635
  8
0
 10
219.35675871067019
 20
576.91191092802592
 30
0.0
 11
193.95675871067019
 21
575.58191092802599
 31
0.0
  0
LINE
  5
9636
  8
0
 10
187.50675971067011
 20
429.72191092802558
 30
0.0
 11
188.58675871067021
 21
423.5619109280259
 31
0.0
  0
LINE
  5
9637
  8
0
 10
219.35675871067019
 20
417.49191092802579
 30
0.0
 11
193.95675871067019
 21
418.8219109280256
 31
0.0
  0
LINE
  5
9638
  8
0
 10
187.0667587106702
 20
560.85191092802575
 30
0.0
 11
187.0667587106702
 21
498.53520392802568
 31
0.0
  0
LINE
  5
9639
  8
0
 10
191.13675871067019
 20
423.70191092802582
 30
0.0
 11
191.13675871067019
 21
494.55112892802589
 31
0.0
  0
ARC
  5
963A
  8
0
 10
184.5510387106701
 20
565.20107992802548
 30
0.0
 40
3.0009689999999982
 50
278.34845900000391
 51
350.03768199999428
  0
ARC
  5
963B
  8
0
 10
185.3166087106701
 20
560.00636692802584
 30
0.0
 40
2.249854
 50
98.430492999999885
 51
180.11348999999109
  0
ARC
  5
963C
  8
0
 10
221.3220957106702
 20
576.70067992802592
 30
0.0
 40
1.2512430000000001
 50
90.244380000000078
 51
144.2391030000033
  0
ARC
  5
963D
  8
0
 10
219.2905527106702
 20
578.16065292802591
 30
0.0
 40
1.2504959999999981
 50
273.03488699999701
 51
324.3549220000051
  0
ARC
  5
963E
  8
0
 10
194.25089671067019
 20
569.83681192802567
 30
0.0
 40
5.7526239999999991
 50
92.930875000003141
 51
169.9376259999998
  0
ARC
  5
963F
  8
0
 10
221.31712271067011
 20
417.69348392802578
 30
0.0
 40
1.241573
 50
215.5333329999973
 51
269.98318399999948
  0
ARC
  5
9640
  8
0
 10
219.28548171067021
 20
416.23390492802582
 30
0.0
 40
1.260022999999999
 50
35.853017999994627
 51
86.757172999999426
  0
ARC
  5
9641
  8
0
 10
194.24470871067021
 20
424.55999992802572
 30
0.0
 40
5.745309999999999
 50
190.00432199999841
 51
267.12717799999689
  0
LINE
  5
9642
  8
0
 10
220.0667587106702
 20
499.70191092802582
 30
0.0
 11
220.0667587106702
 21
577.1819109280259
 31
0.0
  0
ARC
  5
9643
  8
0
 10
454.86675871067013
 20
519.70191092802554
 30
0.0
 40
2.0
 50
90.0
 51
180.0
  0
ARC
  5
9644
  8
0
 10
455.36675871067001
 20
523.70191092802554
 30
0.0
 40
2.0
 50
270.0
 51
0.0
  0
LINE
  5
9645
  8
0
 10
455.36675871067001
 20
521.70191092802588
 30
0.0
 11
454.86675871067013
 21
521.70191092802588
 31
0.0
  0
LINE
  5
9646
  8
0
 10
457.36675871067018
 20
531.20191092802577
 30
0.0
 11
457.36675871067018
 21
523.70191092802554
 31
0.0
  0
ARC
  5
9647
  8
0
 10
455.36675871067001
 20
531.20191092802577
 30
0.0
 40
2.0
 50
0.0
 51
90.0
  0
ARC
  5
9648
  8
0
 10
454.86675871067013
 20
474.70191092802582
 30
0.0
 40
2.0
 50
180.0
 51
270.0
  0
LINE
  5
9649
  8
0
 10
457.36675871067018
 20
463.20191092802588
 30
0.0
 11
457.36675871067018
 21
470.70191092802588
 31
0.0
  0
ARC
  5
964A
  8
0
 10
455.36675871067001
 20
470.70191092802588
 30
0.0
 40
2.0
 50
0.0
 51
90.0
  0
LINE
  5
964B
  8
0
 10
455.36675871067001
 20
472.70191092802582
 30
0.0
 11
454.86675871067013
 21
472.70191092802582
 31
0.0
  0
ARC
  5
964C
  8
0
 10
455.36675871067001
 20
463.20191092802588
 30
0.0
 40
2.0
 50
270.0
 51
0.0
  0
CIRCLE
  5
964D
  8
0
 10
451.86675871066979
 20
528.20191092802554
 30
0.0
 40
3.5
  0
CIRCLE
  5
964E
  8
0
 10
451.86675871066979
 20
528.20191092802554
 30
0.0
 40
3.299999999999998
  0
LINE
  5
964F
  8
0
 10
453.5167587106701
 20
527.74647192802593
 30
0.0
 11
453.5167587106701
 21
528.6573499280255
 31
0.0
  0
LINE
  5
9650
  8
0
 10
455.09689571067003
 20
527.74647192802593
 30
0.0
 11
455.09689571067003
 21
528.6573499280255
 31
0.0
  0
LINE
  5
9651
  8
0
 10
450.21675871067009
 20
527.74647192802593
 30
0.0
 11
450.21675871067009
 21
528.6573499280255
 31
0.0
  0
ARC
  5
9652
  8
0
 10
448.85662171067008
 20
528.6573499280255
 30
0.0
 40
0.22
 50
90.0
 51
180.0
  0
LINE
  5
9653
  8
0
 10
451.53675871067009
 20
529.85191092802597
 30
0.0
 11
452.19675871067011
 21
529.85191092802597
 31
0.0
  0
LINE
  5
9654
  8
0
 10
451.31675871067017
 20
529.09734992802578
 30
0.0
 11
451.31675871067017
 21
529.63191092802595
 31
0.0
  0
LINE
  5
9655
  8
0
 10
452.41675871067008
 20
529.63191092802595
 30
0.0
 11
452.41675871067008
 21
529.09734992802578
 31
0.0
  0
ARC
  5
9656
  8
0
 10
450.43675871067018
 20
528.6573499280255
 30
0.0
 40
0.22
 50
90.0
 51
180.0
  0
LINE
  5
9657
  8
0
 10
450.43675871067018
 20
528.87734992802575
 30
0.0
 11
451.09675871066997
 21
528.87734992802575
 31
0.0
  0
ARC
  5
9658
  8
0
 10
451.09675871066997
 20
529.09734992802578
 30
0.0
 40
0.22
 50
270.0
 51
0.0
  0
ARC
  5
9659
  8
0
 10
452.63675871067011
 20
529.09734992802578
 30
0.0
 40
0.22
 50
180.0
 51
270.0
  0
LINE
  5
965A
  8
0
 10
450.43675871067018
 20
528.87734992802575
 30
0.0
 11
448.85662171067008
 21
528.87734992802575
 31
0.0
  0
ARC
  5
965B
  8
0
 10
452.19675871067011
 20
529.63191092802595
 30
0.0
 40
0.22
 50
0.0
 51
90.0
  0
ARC
  5
965C
  8
0
 10
451.53675871067009
 20
529.63191092802595
 30
0.0
 40
0.22
 50
90.0
 51
180.0
  0
LINE
  5
965D
  8
0
 10
453.29675871067008
 20
528.87734992802575
 30
0.0
 11
454.87689571067011
 21
528.87734992802575
 31
0.0
  0
ARC
  5
965E
  8
0
 10
453.29675871067008
 20
528.6573499280255
 30
0.0
 40
0.22
 50
0.0
 51
90.0
  0
ARC
  5
965F
  8
0
 10
454.87689571067011
 20
528.6573499280255
 30
0.0
 40
0.22
 50
0.0
 51
90.0
  0
LINE
  5
9660
  8
0
 10
452.63675871067011
 20
528.87734992802575
 30
0.0
 11
453.29675871067008
 21
528.87734992802575
 31
0.0
  0
LINE
  5
9661
  8
0
 10
450.43675871067018
 20
527.52647192802544
 30
0.0
 11
448.85662171067008
 21
527.52647192802544
 31
0.0
  0
ARC
  5
9662
  8
0
 10
452.19675871067011
 20
526.77191092802582
 30
0.0
 40
0.22
 50
270.0
 51
0.0
  0
ARC
  5
9663
  8
0
 10
451.53675871067009
 20
526.77191092802582
 30
0.0
 40
0.22
 50
180.0
 51
270.0
  0
LINE
  5
9664
  8
0
 10
451.53675871067009
 20
526.55191092802579
 30
0.0
 11
452.19675871067011
 21
526.55191092802579
 31
0.0
  0
ARC
  5
9665
  8
0
 10
451.09675871066997
 20
527.30647192802587
 30
0.0
 40
0.22
 50
0.0
 51
90.0
  0
ARC
  5
9666
  8
0
 10
452.63675871067011
 20
527.30647192802587
 30
0.0
 40
0.22
 50
90.0
 51
180.0
  0
ARC
  5
9667
  8
0
 10
450.43675871067018
 20
527.74647192802593
 30
0.0
 40
0.22
 50
180.0
 51
270.0
  0
LINE
  5
9668
  8
0
 10
451.09675871066997
 20
527.52647192802544
 30
0.0
 11
450.43675871067018
 21
527.52647192802544
 31
0.0
  0
LINE
  5
9669
  8
0
 10
451.31675871067017
 20
526.77191092802582
 30
0.0
 11
451.31675871067017
 21
527.30647192802587
 31
0.0
  0
LINE
  5
966A
  8
0
 10
452.41675871067008
 20
526.77191092802582
 30
0.0
 11
452.41675871067008
 21
527.30647192802587
 31
0.0
  0
LINE
  5
966B
  8
0
 10
453.29675871067008
 20
527.52647192802544
 30
0.0
 11
454.87689571067011
 21
527.52647192802544
 31
0.0
  0
ARC
  5
966C
  8
0
 10
453.29675871067008
 20
527.74647192802593
 30
0.0
 40
0.22
 50
270.0
 51
0.0
  0
LINE
  5
966D
  8
0
 10
453.29675871067008
 20
527.52647192802544
 30
0.0
 11
452.63675871067011
 21
527.52647192802544
 31
0.0
  0
ARC
  5
966E
  8
0
 10
454.87689571067011
 20
527.74647192802593
 30
0.0
 40
0.22
 50
270.0
 51
0.0
  0
ARC
  5
966F
  8
0
 10
448.85662171067008
 20
527.74647192802593
 30
0.0
 40
0.22
 50
180.0
 51
270.0
  0
CIRCLE
  5
9670
  8
0
 10
451.86675871066979
 20
466.20191092802582
 30
0.0
 40
3.5
  0
CIRCLE
  5
9671
  8
0
 10
451.86675871066979
 20
466.20191092802582
 30
0.0
 40
3.299999999999998
  0
LINE
  5
9672
  8
0
 10
450.21675871067009
 20
466.65734992802538
 30
0.0
 11
450.21675871067009
 21
465.74647192802598
 31
0.0
  0
LINE
  5
9673
  8
0
 10
455.09689571067003
 20
466.65734992802538
 30
0.0
 11
455.09689571067003
 21
465.74647192802598
 31
0.0
  0
LINE
  5
9674
  8
0
 10
453.5167587106701
 20
466.65734992802538
 30
0.0
 11
453.5167587106701
 21
465.74647192802598
 31
0.0
  0
ARC
  5
9675
  8
0
 10
454.87689571067011
 20
465.74647192802598
 30
0.0
 40
0.22
 50
270.0
 51
0.0
  0
ARC
  5
9676
  8
0
 10
452.63675871067011
 20
465.30647192802581
 30
0.0
 40
0.22
 50
90.0
 51
180.0
  0
ARC
  5
9677
  8
0
 10
451.09675871066997
 20
465.30647192802581
 30
0.0
 40
0.22
 50
0.0
 51
90.0
  0
ARC
  5
9678
  8
0
 10
453.29675871067008
 20
465.74647192802598
 30
0.0
 40
0.22
 50
270.0
 51
0.0
  0
LINE
  5
9679
  8
0
 10
450.43675871067018
 20
465.52647192802579
 30
0.0
 11
451.09675871066997
 21
465.52647192802579
 31
0.0
  0
LINE
  5
967A
  8
0
 10
450.43675871067018
 20
465.52647192802579
 30
0.0
 11
448.85662171067008
 21
465.52647192802579
 31
0.0
  0
ARC
  5
967B
  8
0
 10
450.43675871067018
 20
465.74647192802598
 30
0.0
 40
0.22
 50
180.0
 51
270.0
  0
LINE
  5
967C
  8
0
 10
452.63675871067011
 20
465.52647192802579
 30
0.0
 11
453.29675871067008
 21
465.52647192802579
 31
0.0
  0
LINE
  5
967D
  8
0
 10
451.53675871067009
 20
464.55191092802568
 30
0.0
 11
452.19675871067011
 21
464.55191092802568
 31
0.0
  0
ARC
  5
967E
  8
0
 10
452.19675871067011
 20
464.77191092802582
 30
0.0
 40
0.22
 50
270.0
 51
0.0
  0
ARC
  5
967F
  8
0
 10
451.53675871067009
 20
464.77191092802582
 30
0.0
 40
0.22
 50
180.0
 51
270.0
  0
LINE
  5
9680
  8
0
 10
452.41675871067008
 20
464.77191092802582
 30
0.0
 11
452.41675871067008
 21
465.30647192802581
 31
0.0
  0
LINE
  5
9681
  8
0
 10
451.31675871067017
 20
465.30647192802581
 30
0.0
 11
451.31675871067017
 21
464.77191092802582
 31
0.0
  0
ARC
  5
9682
  8
0
 10
448.85662171067008
 20
465.74647192802598
 30
0.0
 40
0.22
 50
180.0
 51
270.0
  0
LINE
  5
9683
  8
0
 10
453.29675871067008
 20
465.52647192802579
 30
0.0
 11
454.87689571067011
 21
465.52647192802579
 31
0.0
  0
LINE
  5
9684
  8
0
 10
452.41675871067008
 20
467.63191092802577
 30
0.0
 11
452.41675871067008
 21
467.09734992802578
 31
0.0
  0
LINE
  5
9685
  8
0
 10
451.31675871067017
 20
467.63191092802577
 30
0.0
 11
451.31675871067017
 21
467.09734992802578
 31
0.0
  0
ARC
  5
9686
  8
0
 10
453.29675871067008
 20
466.65734992802538
 30
0.0
 40
0.22
 50
0.0
 51
90.0
  0
LINE
  5
9687
  8
0
 10
451.09675871066997
 20
466.87734992802592
 30
0.0
 11
450.43675871067018
 21
466.87734992802592
 31
0.0
  0
LINE
  5
9688
  8
0
 10
450.43675871067018
 20
466.87734992802592
 30
0.0
 11
448.85662171067008
 21
466.87734992802592
 31
0.0
  0
ARC
  5
9689
  8
0
 10
450.43675871067018
 20
466.65734992802538
 30
0.0
 40
0.22
 50
90.0
 51
180.0
  0
LINE
  5
968A
  8
0
 10
453.29675871067008
 20
466.87734992802592
 30
0.0
 11
452.63675871067011
 21
466.87734992802592
 31
0.0
  0
ARC
  5
968B
  8
0
 10
452.63675871067011
 20
467.09734992802578
 30
0.0
 40
0.22
 50
180.0
 51
270.0
  0
ARC
  5
968C
  8
0
 10
451.09675871066997
 20
467.09734992802578
 30
0.0
 40
0.22
 50
270.0
 51
0.0
  0
ARC
  5
968D
  8
0
 10
454.87689571067011
 20
466.65734992802538
 30
0.0
 40
0.22
 50
0.0
 51
90.0
  0
ARC
  5
968E
  8
0
 10
448.85662171067008
 20
466.65734992802538
 30
0.0
 40
0.22
 50
90.0
 51
180.0
  0
LINE
  5
968F
  8
0
 10
453.29675871067008
 20
466.87734992802592
 30
0.0
 11
454.87689571067011
 21
466.87734992802592
 31
0.0
  0
LINE
  5
9690
  8
0
 10
451.53675871067009
 20
467.85191092802597
 30
0.0
 11
452.19675871067011
 21
467.85191092802597
 31
0.0
  0
ARC
  5
9691
  8
0
 10
451.53675871067009
 20
467.63191092802577
 30
0.0
 40
0.22
 50
90.0
 51
180.0
  0
ARC
  5
9692
  8
0
 10
452.19675871067011
 20
467.63191092802577
 30
0.0
 40
0.22
 50
0.0
 51
90.0
  0
LINE
  5
9693
  8
0
 10
448.63662171067
 20
528.6573499280255
 30
0.0
 11
448.63662171067
 21
527.74647192802593
 31
0.0
  0
LINE
  5
9694
  8
0
 10
448.63662171067
 20
466.65734992802538
 30
0.0
 11
448.63662171067
 21
465.74647192802598
 31
0.0
  0
ARC
  5
9696
  8
0
 10
462.96676571067007
 20
442.89293792802567
 30
0.0
 40
2.2000009999999981
 50
90.000022000001564
 51
179.99999700000231
  0
ARC
  5
9697
  8
0
 10
462.96676571067007
 20
438.29293192802578
 30
0.0
 40
2.1999970000000002
 50
180.00001799999919
 51
270.0
  0
LINE
  5
9698
  8
0
 10
465.36675671067002
 20
440.64237992802589
 30
0.0
 11
464.06675671066978
 21
441.3929349280258
 31
0.0
  0
LINE
  5
9699
  8
0
 10
465.36675671067002
 20
439.64237992802589
 30
0.0
 11
464.06675671066978
 21
440.39293492802562
 31
0.0
  0
LINE
  5
969A
  8
0
 10
464.06675671066978
 20
435.99293492802587
 30
0.0
 11
465.36675671067002
 21
435.99293492802587
 31
0.0
  0
LINE
  5
969B
  8
0
 10
464.06675671066978
 20
445.19293492802558
 30
0.0
 11
465.36675671067002
 21
445.19293492802558
 31
0.0
  0
LINE
  5
969C
  8
0
 10
465.36675671067002
 20
435.99293492802587
 30
0.0
 11
465.36675671067002
 21
445.19293492802558
 31
0.0
  0
LINE
  5
969D
  8
0
 10
460.76675371067012
 20
438.29293192802578
 30
0.0
 11
460.76675371067012
 21
442.89293792802567
 31
0.0
  0
LINE
  5
969E
  8
0
 10
464.06675671066978
 20
435.99293492802587
 30
0.0
 11
464.06675671066978
 21
445.19293492802558
 31
0.0
  0
LINE
  5
969F
  8
0
 10
464.06675671066978
 20
445.0929349280259
 30
0.0
 11
462.96676571067007
 21
445.0929349280259
 31
0.0
  0
LINE
  5
96A0
  8
0
 10
464.06675671066978
 20
436.0929349280259
 30
0.0
 11
462.96676571067007
 21
436.0929349280259
 31
0.0
  0
LINE
  5
9A2E
  8
0
  6
AM_ISO08W050
 10
167.25967502018679
 20
847.77892577738066
 30
0.0
 11
740.38073871067024
 21
847.77892577738066
 31
0.0
  0
LINE
  5
9A2F
  8
0
  6
CONTINUOUS
 10
475.36675871066973
 20
909.35754577738066
 30
0.0
 11
509.86675871066979
 21
909.35754577738066
 31
0.0
  0
LINE
  5
9A30
  8
0
  6
CONTINUOUS
 10
475.36675871066973
 20
887.25359577738072
 30
0.0
 11
509.86675871066979
 21
887.25359577738072
 31
0.0
  0
LINE
  5
9A35
  8
0
  6
CONTINUOUS
 10
475.36675871066973
 20
921.27898577738097
 30
0.0
 11
505.04119871067053
 21
922.31524577738071
 31
0.0
  0
LINE
  5
9A3D
  8
0
  6
CONTINUOUS
 10
728.8667587106703
 20
826.77892577738055
 30
0.0
 11
728.8667587106703
 21
868.77892577738055
 31
0.0
  0
LINE
  5
9A72
  8
0
  6
CONTINUOUS
 10
475.36675871066973
 20
786.20031577738064
 30
0.0
 11
509.86675871066979
 21
786.20031577738064
 31
0.0
  0
LINE
  5
9A73
  8
0
  6
CONTINUOUS
 10
475.36675871066973
 20
808.3042557773806
 30
0.0
 11
509.86675871066979
 21
808.3042557773806
 31
0.0
  0
LINE
  5
9A76
  8
0
  6
CONTINUOUS
 10
475.36669871067022
 20
774.27892577738055
 30
0.0
 11
505.04125871066998
 21
773.24267577738055
 31
0.0
  0
LINE
  5
9AD0
  8
0
 10
475.36675871066973
 20
774.27892327738073
 30
0.0
 11
475.36675871066973
 21
921.2789282773806
 31
0.0
  0
ARC
  5
9AD1
  8
0
 10
466.36675871066973
 20
785.74011777738087
 30
0.0
 40
1.0
 50
180.0
 51
270.0
  0
ARC
  5
9AD2
  8
0
 10
466.36675871066973
 20
909.81773377738057
 30
0.0
 40
1.0
 50
90.0
 51
180.0
  0
ARC
  5
9AD3
  8
0
  6
CONTINUOUS
 10
462.96676571067002
 20
793.46995277738063
 30
0.0
 40
2.2000009999999981
 50
90.000021999998324
 51
179.99999700000231
  0
ARC
  5
9AD4
  8
0
  6
CONTINUOUS
 10
462.96676571067002
 20
788.86994677738073
 30
0.0
 40
2.1999970000000002
 50
180.00001799999919
 51
270.0
  0
LINE
  5
9AD5
  8
0
  6
CONTINUOUS
 10
465.36675671067002
 20
791.21939477738067
 30
0.0
 11
464.06675671066978
 21
791.96994977738063
 31
0.0
  0
LINE
  5
9AD6
  8
0
  6
CONTINUOUS
 10
465.36675671067002
 20
790.21939477738056
 30
0.0
 11
464.06675671066978
 21
790.96994977738063
 31
0.0
  0
LINE
  5
9AD7
  8
0
  6
CONTINUOUS
 10
464.06675671066978
 20
786.56994977738088
 30
0.0
 11
465.36675671067002
 21
786.56994977738088
 31
0.0
  0
LINE
  5
9AD8
  8
0
  6
CONTINUOUS
 10
464.06675671066978
 20
795.76994977738059
 30
0.0
 11
465.36675671067002
 21
795.76994977738059
 31
0.0
  0
LINE
  5
9AD9
  8
0
  6
CONTINUOUS
 10
465.36675671067002
 20
786.56994977738088
 30
0.0
 11
465.36675671067002
 21
795.76994977738059
 31
0.0
  0
LINE
  5
9ADA
  8
0
  6
CONTINUOUS
 10
460.76675371066972
 20
788.86994677738073
 30
0.0
 11
460.76675371066972
 21
793.46995277738063
 31
0.0
  0
LINE
  5
9ADB
  8
0
  6
CONTINUOUS
 10
464.06675671066978
 20
786.56994977738088
 30
0.0
 11
464.06675671066978
 21
795.76994977738059
 31
0.0
  0
LINE
  5
9ADC
  8
0
  6
CONTINUOUS
 10
464.06675671066978
 20
795.66994977738057
 30
0.0
 11
462.96676571067002
 21
795.66994977738057
 31
0.0
  0
LINE
  5
9ADD
  8
0
  6
CONTINUOUS
 10
464.06675671066978
 20
786.66994977738057
 30
0.0
 11
462.96676571067002
 21
786.66994977738057
 31
0.0
  0
ARC
  5
9ADE
  8
0
  6
CONTINUOUS
 10
462.96676771067001
 20
902.08789977738058
 30
0.0
 40
2.2000009999999981
 50
180.00000299999761
 51
269.99997799999522
  0
ARC
  5
9ADF
  8
0
  6
CONTINUOUS
 10
462.96676771067001
 20
906.68790577738071
 30
0.0
 40
2.1999970000000002
 50
90.0
 51
179.99998200000081
  0
LINE
  5
9AE0
  8
0
  6
CONTINUOUS
 10
465.36675871066973
 20
904.33845777738065
 30
0.0
 11
464.06675871066977
 21
903.58790277738069
 31
0.0
  0
LINE
  5
9AE1
  8
0
  6
CONTINUOUS
 10
465.36675871066973
 20
905.33845777738065
 30
0.0
 11
464.06675871066977
 21
904.58790277738069
 31
0.0
  0
LINE
  5
9AE2
  8
0
  6
CONTINUOUS
 10
464.06675871066977
 20
908.98790277738055
 30
0.0
 11
465.36675871066973
 21
908.98790277738055
 31
0.0
  0
LINE
  5
9AE3
  8
0
  6
CONTINUOUS
 10
464.06675871066977
 20
899.78790277738085
 30
0.0
 11
465.36675871066973
 21
899.78790277738085
 31
0.0
  0
LINE
  5
9AE4
  8
0
  6
CONTINUOUS
 10
465.36675871066973
 20
908.98790277738055
 30
0.0
 11
465.36675871066973
 21
899.78790277738085
 31
0.0
  0
LINE
  5
9AE5
  8
0
  6
CONTINUOUS
 10
460.7667557106696
 20
906.68790577738071
 30
0.0
 11
460.7667557106696
 21
902.08789977738058
 31
0.0
  0
LINE
  5
9AE6
  8
0
  6
CONTINUOUS
 10
464.06675871066977
 20
908.98790277738055
 30
0.0
 11
464.06675871066977
 21
899.78790277738085
 31
0.0
  0
LINE
  5
9AE7
  8
0
  6
CONTINUOUS
 10
464.06675871066977
 20
899.88790277738065
 30
0.0
 11
462.96676771067001
 21
899.88790277738065
 31
0.0
  0
LINE
  5
9AE8
  8
0
  6
CONTINUOUS
 10
464.06675871066977
 20
908.88790277738065
 30
0.0
 11
462.96676771067001
 21
908.88790277738065
 31
0.0
  0
LINE
  5
9AE9
  8
0
 10
475.36675871066973
 20
774.27892577738055
 30
0.0
 11
475.36675871066973
 21
921.27893077738065
 31
0.0
  0
ARC
  5
9AEA
  8
0
 10
313.38563371066999
 20
769.30399577738058
 30
0.0
 40
2.0
 50
60.311696999995213
 51
90.0
  0
LINE
  5
9AEB
  8
0
 10
303.36675871067001
 20
771.30399577738069
 30
0.0
 11
313.38563371066999
 21
771.30399577738069
 31
0.0
  0
ARC
  5
9AEC
  8
0
 10
311.44138571066992
 20
772.00986777738058
 30
0.0
 40
2.0
 50
11.08497000000493
 51
90.0
  0
LINE
  5
9AED
  8
0
 10
303.36675871067001
 20
774.00986777738069
 30
0.0
 11
311.44138571066992
 21
774.00986777738069
 31
0.0
  0
ARC
  5
9AEE
  8
0
 10
315.36675871067001
 20
772.77892577738066
 30
0.0
 40
2.0
 50
180.0
 51
270.0
  0
ARC
  5
9AEF
  8
0
 10
315.36675871067001
 20
781.27892977738065
 30
0.0
 40
2.0
 50
180.0
 51
270.0
  0
LINE
  5
9AF0
  8
0
 10
313.36675871067001
 20
794.97941277738096
 30
0.0
 11
313.36675871067001
 21
772.77892577738066
 31
0.0
  0
LINE
  5
9AF1
  8
0
 10
303.36675871067001
 20
793.59162877738072
 30
0.0
 11
313.36675871067001
 21
793.59162877738072
 31
0.0
  0
LINE
  5
9AF2
  8
0
 10
303.36675871067001
 20
782.01493377738063
 30
0.0
 11
313.36675871067001
 21
782.01493377738063
 31
0.0
  0
LINE
  5
9AF3
  8
0
 10
303.36675871067001
 20
775.95477077738065
 30
0.0
 11
313.36675871067001
 21
775.95477077738065
 31
0.0
  0
ARC
  5
9AF4
  8
0
 10
463.36675671066968
 20
781.27892177738056
 30
0.0
 40
2.0
 50
269.99999799999722
 51
359.99999799999722
  0
LINE
  5
9AF5
  8
0
 10
315.36675871067001
 20
796.97941277738073
 30
0.0
 11
463.36675571066968
 21
796.97941277738073
 31
0.0
  0
LINE
  5
9AF6
  8
0
 10
315.36675871067001
 20
779.27892977738088
 30
0.0
 11
463.37245971066989
 21
779.27892977738088
 31
0.0
  0
LINE
  5
9AF7
  8
0
 10
465.36675871066973
 20
774.27892577738055
 30
0.0
 11
475.36675571066968
 21
774.27892577738055
 31
0.0
  0
LINE
  5
9AF8
  8
0
 10
466.36675871066973
 20
784.74011777738065
 30
0.0
 11
475.36675671067002
 21
784.74011777738065
 31
0.0
  0
LINE
  5
9AF9
  8
0
 10
313.36675871067001
 20
922.73171377738072
 30
0.0
 11
313.36675871067001
 21
919.69290977738069
 31
0.0
  0
ARC
  5
9AFA
  8
0
 10
315.36675871067001
 20
914.27892977738065
 30
0.0
 40
2.0
 50
90.0
 51
180.0
  0
LINE
  5
9AFB
  8
0
 10
303.36675871067001
 20
902.05352677738074
 30
0.0
 11
313.36675871067001
 21
902.05352677738074
 31
0.0
  0
LINE
  5
9AFC
  8
0
 10
303.36675871067001
 20
913.61954577738072
 30
0.0
 11
313.36675871067001
 21
913.61954577738072
 31
0.0
  0
LINE
  5
9AFD
  8
0
 10
303.36675871067001
 20
919.69290977738069
 30
0.0
 11
313.36675871067001
 21
919.69290977738069
 31
0.0
  0
LINE
  5
9AFE
  8
0
 10
313.36675871067001
 20
924.25717177738102
 30
0.0
 11
313.36675871067001
 21
923.65389577738063
 31
0.0
  0
ARC
  5
9AFF
  8
0
 10
315.36675871067001
 20
922.73171377738072
 30
0.0
 40
2.0
 50
90.0
 51
180.0
  0
LINE
  5
9B00
  8
0
 10
303.36675871067001
 20
925.67207077738067
 30
0.0
 11
311.84742971066999
 21
925.67207077738067
 31
0.0
  0
LINE
  5
9B01
  8
0
 10
303.36675871067001
 20
924.35755877738063
 30
0.0
 11
311.51806971066998
 21
924.35755877738063
 31
0.0
  0
ARC
  5
9B02
  8
0
 10
311.51806971066998
 20
926.3575587773804
 30
0.0
 40
2.0
 50
270.0
 51
344.1903739999978
  0
ARC
  5
9B03
  8
0
 10
315.36675871067001
 20
925.26779177738069
 30
0.0
 40
2.0
 50
90.0
 51
164.19037399999769
  0
ARC
  5
9B04
  8
0
 10
311.84742971066999
 20
927.67207077738055
 30
0.0
 40
2.0
 50
270.0
 51
331.62214300000397
  0
ARC
  5
9B05
  8
0
 10
315.36675871067001
 20
925.77093377738072
 30
0.0
 40
2.0
 50
90.0
 51
151.6221439999978
  0
ARC
  5
9B06
  8
0
 10
463.36675871066979
 20
914.27892977738065
 30
0.0
 40
2.0
 50
0.0
 51
90.0
  0
ARC
  5
9B07
  8
0
 10
462.23926671066999
 20
922.73171377738072
 30
0.0
 40
2.0
 50
15.000000000000741
 51
90.0
  0
LINE
  5
9B08
  8
0
 10
467.36675871066979
 20
911.32305977738065
 30
0.0
 11
464.17111871066982
 21
923.24935177738041
 31
0.0
  0
ARC
  5
9B09
  8
0
 10
463.20378271066988
 20
924.25717177738102
 30
0.0
 40
2.0
 50
15.000000000000741
 51
90.0
  0
LINE
  5
9B0A
  8
0
 10
467.36675871066979
 20
916.44814277738055
 30
0.0
 11
465.13563471066959
 21
924.77481077738071
 31
0.0
  0
ARC
  5
9B0B
  8
0
 10
463.75147671066981
 20
925.26779177738069
 30
0.0
 40
2.0
 50
15.000000000000741
 51
90.0
  0
LINE
  5
9B0C
  8
0
 10
467.36675871066979
 20
919.50277977738028
 30
0.0
 11
465.68332771067003
 21
925.78542977738073
 31
0.0
  0
ARC
  5
9B0D
  8
0
 10
464.03251071066973
 20
925.77093377738072
 30
0.0
 40
2.0
 50
15.000000000000741
 51
90.0
  0
LINE
  5
9B0E
  8
0
 10
467.36675871066979
 20
921.0547577773807
 30
0.0
 11
465.96436271066977
 21
926.28857277738064
 31
0.0
  0
ARC
  5
9B0F
  8
0
 10
311.36675871067001
 20
923.65389577738063
 30
0.0
 40
2.0
 50
270.0
 51
0.0
  0
ARC
  5
9B10
  8
0
 10
315.36675871067001
 20
924.25717177738102
 30
0.0
 40
2.0
 50
90.0
 51
180.0
  0
LINE
  5
9B11
  8
0
 10
303.36675871067001
 20
921.65389577738063
 30
0.0
 11
311.36675871067001
 21
921.65389577738063
 31
0.0
  0
LINE
  5
9B12
  8
0
 10
313.36675871067001
 20
919.69290977738069
 30
0.0
 11
313.36675871067001
 21
900.65026577738058
 31
0.0
  0
LINE
  5
9B13
  8
0
 10
466.36675871066973
 20
910.81773377738057
 30
0.0
 11
475.36675871066973
 21
910.81773377738057
 31
0.0
  0
LINE
  5
9B14
  8
0
 10
315.36675871067001
 20
898.65026577738104
 30
0.0
 11
463.36675871066979
 21
898.65026577738104
 31
0.0
  0
LINE
  5
9B15
  8
0
 10
315.36675871067001
 20
927.77093377738095
 30
0.0
 11
464.03251071066973
 21
927.77093377738095
 31
0.0
  0
LINE
  5
9B16
  8
0
 10
315.36675871067001
 20
916.27892977738065
 30
0.0
 11
463.36675871066979
 21
916.27892977738065
 31
0.0
  0
LINE
  5
9B17
  8
0
 10
315.36675871067001
 20
924.73171377738072
 30
0.0
 11
462.23926671066999
 21
924.73171377738072
 31
0.0
  0
LINE
  5
9B18
  8
0
 10
315.36675871067001
 20
926.25717177738068
 30
0.0
 11
463.20378271066988
 21
926.25717177738068
 31
0.0
  0
LINE
  5
9B19
  8
0
 10
315.36675871067001
 20
927.26779177738069
 30
0.0
 11
463.75147671066981
 21
927.26779177738069
 31
0.0
  0
LINE
  5
9B1A
  8
0
 10
452.36675871066979
 20
770.77892577738055
 30
0.0
 11
452.36675871066979
 21
768.77892577738066
 31
0.0
  0
LINE
  5
9B1B
  8
0
 10
385.36675871066979
 20
770.77892577738055
 30
0.0
 11
385.36675871066979
 21
768.77892577738066
 31
0.0
  0
LINE
  5
9B1C
  8
0
 10
385.36675871066979
 20
768.77892577738066
 30
0.0
 11
452.36675871066979
 21
768.77892577738066
 31
0.0
  0
LINE
  5
9B1D
  8
0
 10
315.36675871067001
 20
770.77892577738055
 30
0.0
 11
462.14727871066958
 21
770.77892577738055
 31
0.0
  0
LINE
  5
9B1E
  8
0
 10
428.86675871066973
 20
873.77892577738055
 30
0.0
 11
303.36675871067001
 21
873.77892577738055
 31
0.0
  0
LINE
  5
9B1F
  8
0
 10
428.86675871066973
 20
821.77892577738066
 30
0.0
 11
303.36675871067001
 21
821.77892577738066
 31
0.0
  0
LINE
  5
9B20
  8
0
 10
444.86675871066961
 20
874.77892577738055
 30
0.0
 11
444.86675871066961
 21
880.77892577738066
 31
0.0
  0
LINE
  5
9B21
  8
0
 10
429.86675871066979
 20
874.77892577738055
 30
0.0
 11
429.86675871066979
 21
880.77892577738066
 31
0.0
  0
LINE
  5
9B22
  8
0
 10
444.86675871066961
 20
820.77892577738066
 30
0.0
 11
444.86675871066961
 21
814.77892577738066
 31
0.0
  0
LINE
  5
9B23
  8
0
 10
429.86675871066979
 20
820.77892577738066
 30
0.0
 11
429.86675871066979
 21
814.77892577738066
 31
0.0
  0
LINE
  5
9B24
  8
0
 10
401.36675871067001
 20
868.27892577738066
 30
0.0
 11
401.36675871067001
 21
827.27892577738066
 31
0.0
  0
LINE
  5
9B25
  8
0
 10
464.36675871066979
 20
868.27892577738066
 30
0.0
 11
464.36675871066979
 21
827.27892577738066
 31
0.0
  0
LINE
  5
9B26
  8
0
 10
401.36675871067001
 20
868.27892577738066
 30
0.0
 11
464.36675871066979
 21
868.27892577738066
 31
0.0
  0
LINE
  5
9B27
  8
0
 10
401.36675871067001
 20
827.27892577738066
 30
0.0
 11
464.36675871066979
 21
827.27892577738066
 31
0.0
  0
LINE
  5
9B28
  8
0
 10
401.36675871067001
 20
860.77892577738055
 30
0.0
 11
464.36675871066979
 21
860.77892577738055
 31
0.0
  0
LINE
  5
9B29
  8
0
 10
313.36675871067001
 20
850.77892577738055
 30
0.0
 11
313.36675871067001
 21
844.77892577738055
 31
0.0
  0
LINE
  5
9B2A
  8
0
 10
464.07885871066981
 20
772.26021577738072
 30
0.0
 11
465.06676871066981
 21
775.93889577738071
 31
0.0
  0
LINE
  5
9B2B
  8
0
 10
463.49077871066987
 20
772.26021577738072
 30
0.0
 11
465.06676871066981
 21
778.12893577738066
 31
0.0
  0
LINE
  5
9B2C
  8
0
 10
465.36675871066973
 20
810.82070577738068
 30
0.0
 11
465.36675871066973
 21
774.27892577738055
 31
0.0
  0
LINE
  5
9B2D
  8
0
 10
464.36675871066979
 20
823.77892577738055
 30
0.0
 11
303.36675871067001
 21
823.77892577738055
 31
0.0
  0
LINE
  5
9B2E
  8
0
 10
464.36675871066979
 20
821.77892577738066
 30
0.0
 11
445.86675871066973
 21
821.77892577738066
 31
0.0
  0
LINE
  5
9B2F
  8
0
 10
397.3667587106699
 20
831.77892577738066
 30
0.0
 11
303.36675871067001
 21
831.77892577738066
 31
0.0
  0
LINE
  5
9B30
  8
0
 10
397.3667587106699
 20
833.77892577738055
 30
0.0
 11
303.36675871067001
 21
833.77892577738055
 31
0.0
  0
LINE
  5
9B31
  8
0
 10
397.3667587106699
 20
841.77892577738055
 30
0.0
 11
303.36675871067001
 21
841.77892577738055
 31
0.0
  0
LINE
  5
9B32
  8
0
 10
397.3667587106699
 20
843.77892577738055
 30
0.0
 11
314.3667587106699
 21
843.77892577738055
 31
0.0
  0
LINE
  5
9B33
  8
0
 10
464.36675871066979
 20
801.77892577738055
 30
0.0
 11
303.36675871067001
 21
801.77892577738055
 31
0.0
  0
LINE
  5
9B34
  8
0
 10
464.36675871066979
 20
813.77892577738066
 30
0.0
 11
303.36675871067001
 21
813.77892577738066
 31
0.0
  0
LINE
  5
9B35
  8
0
 10
464.36675871066979
 20
811.77892577738055
 30
0.0
 11
303.36675871067001
 21
811.77892577738055
 31
0.0
  0
LINE
  5
9B36
  8
0
 10
464.36675871066979
 20
803.77892577738055
 30
0.0
 11
303.36675871067001
 21
803.77892577738055
 31
0.0
  0
LINE
  5
9B37
  8
0
 10
464.36675871066979
 20
891.77892577738055
 30
0.0
 11
303.36675871067001
 21
891.77892577738055
 31
0.0
  0
LINE
  5
9B38
  8
0
 10
464.36675871066979
 20
883.77892577738055
 30
0.0
 11
303.36675871067001
 21
883.77892577738055
 31
0.0
  0
LINE
  5
9B39
  8
0
 10
464.36675871066979
 20
881.77892577738066
 30
0.0
 11
303.36675871067001
 21
881.77892577738066
 31
0.0
  0
LINE
  5
9B3A
  8
0
 10
464.36675871066979
 20
893.77892577738055
 30
0.0
 11
303.36675871067001
 21
893.77892577738055
 31
0.0
  0
LINE
  5
9B3B
  8
0
 10
397.3667587106699
 20
851.77892577738055
 30
0.0
 11
314.3667587106699
 21
851.77892577738055
 31
0.0
  0
LINE
  5
9B3C
  8
0
 10
397.3667587106699
 20
853.77892577738066
 30
0.0
 11
303.36675871067001
 21
853.77892577738066
 31
0.0
  0
LINE
  5
9B3D
  8
0
 10
397.3667587106699
 20
861.77892577738055
 30
0.0
 11
303.36675871067001
 21
861.77892577738055
 31
0.0
  0
LINE
  5
9B3E
  8
0
 10
397.3667587106699
 20
863.77892577738066
 30
0.0
 11
303.36675871067001
 21
863.77892577738066
 31
0.0
  0
LINE
  5
9B3F
  8
0
 10
464.36675871066979
 20
873.77892577738055
 30
0.0
 11
445.86675871066973
 21
873.77892577738055
 31
0.0
  0
LINE
  5
9B40
  8
0
 10
464.36675871066979
 20
871.77892577738066
 30
0.0
 11
303.36675871067001
 21
871.77892577738066
 31
0.0
  0
LINE
  5
9B41
  8
0
 10
465.36675871066973
 20
884.73714577738065
 30
0.0
 11
465.36675871066973
 21
914.27892977738065
 31
0.0
  0
ARC
  5
9B42
  8
0
 10
462.14727871066958
 20
772.77892577738066
 30
0.0
 40
2.0
 50
269.999989999999
 51
344.96831000000168
  0
ARC
  5
9B43
  8
0
 10
461.5591987106697
 20
772.77892577738066
 30
0.0
 40
2.0
 50
269.999989999999
 51
344.96831000000168
  0
ARC
  5
9B44
  8
0
 10
445.86675871066973
 20
814.77892577738066
 30
0.0
 40
1.0
 50
179.999989999999
 51
270.0
  0
ARC
  5
9B45
  8
0
 10
428.86675871066973
 20
814.77892577738066
 30
0.0
 40
1.0
 50
269.999989999999
 51
0.0000010000014034
  0
ARC
  5
9B46
  8
0
 10
428.86675871066973
 20
880.77892577738066
 30
0.0
 40
1.0
 50
0.0
 51
90.00000299999769
  0
ARC
  5
9B47
  8
0
 10
445.86675871066973
 20
880.77892577738066
 30
0.0
 40
1.0
 50
90.00000299999769
 51
180.000010000001
  0
ARC
  5
9B48
  8
0
 10
445.86675871066973
 20
820.77892577738066
 30
0.0
 40
1.0
 50
90.00000299999769
 51
180.000010000001
  0
ARC
  5
9B49
  8
0
 10
428.86675871066973
 20
820.77892577738066
 30
0.0
 40
1.0
 50
0.0
 51
90.00000299999769
  0
ARC
  5
9B4A
  8
0
 10
445.86675871066973
 20
874.77892577738055
 30
0.0
 40
1.0
 50
179.999989999999
 51
270.0
  0
ARC
  5
9B4B
  8
0
 10
428.86675871066973
 20
874.77892577738055
 30
0.0
 40
1.0
 50
269.999989999999
 51
0.0000010000014034
  0
CIRCLE
  5
9B4C
  8
0
 10
439.86675871066979
 20
876.27892577738066
 30
0.0
 40
1.0
  0
CIRCLE
  5
9B4D
  8
0
 10
434.86675871066979
 20
876.27892577738066
 30
0.0
 40
1.149999999999999
  0
CIRCLE
  5
9B4E
  8
0
 10
434.86675871066979
 20
876.27892577738066
 30
0.0
 40
1.1000000000000001
  0
CIRCLE
  5
9B4F
  8
0
 10
434.86675871066979
 20
819.27892577738066
 30
0.0
 40
1.1000000000000001
  0
CIRCLE
  5
9B50
  8
0
 10
434.86675871066979
 20
819.27892577738066
 30
0.0
 40
1.149999999999999
  0
CIRCLE
  5
9B51
  8
0
 10
439.86675871066979
 20
819.27892577738066
 30
0.0
 40
1.0
  0
ARC
  5
9B52
  8
0
 10
397.3667587106699
 20
862.77892577738066
 30
0.0
 40
1.0
 50
269.999989999999
 51
90.00000299999769
  0
ARC
  5
9B53
  8
0
 10
397.3667587106699
 20
852.77892577738055
 30
0.0
 40
1.0
 50
269.999989999999
 51
90.00000299999769
  0
ARC
  5
9B54
  8
0
 10
397.3667587106699
 20
842.77892577738055
 30
0.0
 40
1.0
 50
269.999989999999
 51
90.00000299999769
  0
ARC
  5
9B55
  8
0
 10
397.3667587106699
 20
832.77892577738055
 30
0.0
 40
1.0
 50
269.999989999999
 51
90.00000299999769
  0
ARC
  5
9B56
  8
0
 10
462.41674871066982
 20
812.77892577738066
 30
0.0
 40
1.0
 50
269.999989999999
 51
90.00000299999769
  0
ARC
  5
9B57
  8
0
 10
464.36675871066979
 20
812.77892577738066
 30
0.0
 40
1.0
 50
269.999989999999
 51
90.00000299999769
  0
ARC
  5
9B58
  8
0
 10
462.41674871066982
 20
822.77892577738066
 30
0.0
 40
1.0
 50
269.999989999999
 51
90.00000299999769
  0
ARC
  5
9B59
  8
0
 10
464.36675871066979
 20
822.77892577738066
 30
0.0
 40
1.0
 50
269.999989999999
 51
90.00000299999769
  0
ARC
  5
9B5A
  8
0
 10
462.41674871066982
 20
872.77892577738066
 30
0.0
 40
1.0
 50
269.999989999999
 51
90.00000299999769
  0
ARC
  5
9B5B
  8
0
 10
464.36675871066979
 20
872.77892577738066
 30
0.0
 40
1.0
 50
269.999989999999
 51
90.00000299999769
  0
ARC
  5
9B5C
  8
0
 10
462.41674871066982
 20
882.77892577738055
 30
0.0
 40
1.0
 50
269.999989999999
 51
90.00000299999769
  0
ARC
  5
9B5D
  8
0
 10
464.36675871066979
 20
882.77892577738055
 30
0.0
 40
1.0
 50
269.999989999999
 51
90.00000299999769
  0
ARC
  5
9B5E
  8
0
 10
314.3667587106699
 20
850.77892577738055
 30
0.0
 40
1.0
 50
90.00000299999769
 51
180.000010000001
  0
ARC
  5
9B5F
  8
0
 10
314.3667587106699
 20
844.77892577738055
 30
0.0
 40
1.0
 50
179.999989999999
 51
270.0
  0
ARC
  5
9B60
  8
0
 10
314.36672871066992
 20
832.77892577738055
 30
0.0
 40
1.0
 50
90.00000299999769
 51
270.0
  0
ARC
  5
9B61
  8
0
 10
314.36672871066992
 20
822.77892577738066
 30
0.0
 40
1.0
 50
90.00000299999769
 51
270.0
  0
ARC
  5
9B62
  8
0
 10
462.41674871066982
 20
802.77892577738055
 30
0.0
 40
1.0
 50
269.999989999999
 51
90.00000299999769
  0
ARC
  5
9B63
  8
0
 10
464.36675871066979
 20
802.77892577738055
 30
0.0
 40
1.0
 50
269.999989999999
 51
90.00000299999769
  0
ARC
  5
9B64
  8
0
 10
314.36672871066992
 20
802.77892577738055
 30
0.0
 40
1.0
 50
90.00000299999769
 51
270.0
  0
ARC
  5
9B65
  8
0
 10
314.36672871066992
 20
812.77892577738066
 30
0.0
 40
1.0
 50
90.00000299999769
 51
270.0
  0
ARC
  5
9B66
  8
0
 10
466.51281871066988
 20
775.55852577738096
 30
0.0
 40
1.4952499999999991
 50
140.0376499999945
 51
165.2626000000021
  0
ARC
  5
9B67
  8
0
 10
466.50774871067
 20
777.73442577738069
 30
0.0
 40
1.4940209999999989
 50
139.79258000000129
 51
164.69034000000019
  0
ARC
  5
9B68
  8
0
 10
466.51091871066978
 20
921.54598577738057
 30
0.0
 40
1.495147999999999
 50
195.00188999999639
 51
195.00621300000489
  0
ARC
  5
9B69
  8
0
 10
314.36672871066992
 20
882.77892577738055
 30
0.0
 40
1.0
 50
90.00000299999769
 51
270.0
  0
ARC
  5
9B6A
  8
0
 10
314.36672871066992
 20
892.77892577738055
 30
0.0
 40
1.0
 50
90.00000299999769
 51
270.0
  0
ARC
  5
9B6B
  8
0
 10
464.36675871066979
 20
892.77892577738055
 30
0.0
 40
1.0
 50
269.999989999999
 51
90.00000299999769
  0
ARC
  5
9B6C
  8
0
 10
462.41674871066982
 20
892.77892577738055
 30
0.0
 40
1.0
 50
269.999989999999
 51
90.00000299999769
  0
ARC
  5
9B6D
  8
0
 10
314.36672871066992
 20
872.77892577738066
 30
0.0
 40
1.0
 50
90.00000299999769
 51
270.0
  0
ARC
  5
9B6E
  8
0
 10
314.36672871066992
 20
862.77892577738066
 30
0.0
 40
1.0
 50
90.00000299999769
 51
270.0
  0
LINE
  5
9B6F
  8
0
 10
475.36676471066983
 20
921.27893077738065
 30
0.0
 11
467.30669171066972
 21
921.27893077738065
 31
0.0
  0
POINT
  5
9B70
  8
0
 10
418.86675871066979
 20
765.77892577738055
 30
0.0
  0
LINE
  5
9B71
  8
0
 10
461.61675871067001
 20
766.27892577738055
 30
0.0
 11
377.61675871067001
 21
766.27892577738055
 31
0.0
  0
LINE
  5
9B72
  8
0
 10
379.21675871066998
 20
736.27892577738055
 30
0.0
 11
455.51675871066988
 21
749.27892577738055
 31
0.0
  0
LINE
  5
9B73
  8
0
 10
379.13675871066988
 20
737.27892577738055
 30
0.0
 11
411.11675871066973
 21
742.72892577738071
 31
0.0
  0
LINE
  5
9B74
  8
0
 10
455.01675871066971
 20
732.27892577738055
 30
0.0
 11
379.54675871066991
 21
732.27892577738055
 31
0.0
  0
LINE
  5
9B75
  8
0
 10
455.84675871066958
 20
745.27892577738055
 30
0.0
 11
379.54675871066991
 21
732.27892577738055
 31
0.0
  0
ARC
  5
9B76
  8
0
 10
374.9241257106699
 20
740.97155877738055
 30
0.0
 40
0.307456
 50
91.373079999999376
 51
178.62692000000061
  0
ARC
  5
9B77
  8
0
 10
376.11680371067001
 20
733.77897077738055
 30
0.0
 40
1.5000450000000001
 50
180.00171899999609
 51
269.99828099999741
  0
ARC
  5
9B78
  8
0
 10
375.81667671066998
 20
740.97884377738069
 30
0.0
 40
0.300082
 50
0.0157330000002628
 51
89.984266999999718
  0
ARC
  5
9B79
  8
0
 10
375.42412571066978
 20
735.97155877738055
 30
0.0
 40
0.307456
 50
91.373079999999376
 51
178.62692000000061
  0
ARC
  5
9B7A
  8
0
 10
376.6168037106699
 20
733.77897077738055
 30
0.0
 40
1.5000450000000001
 50
180.00171899999609
 51
269.99828099999741
  0
ARC
  5
9B7B
  8
0
 10
375.42412571066978
 20
736.97155877738055
 30
0.0
 40
0.307456
 50
91.373079999999376
 51
178.62692000000061
  0
ARC
  5
9B7C
  8
0
 10
377.62416871066978
 20
765.27151577738073
 30
0.0
 40
1.0074369999999999
 50
90.421438000004656
 51
179.5785619999954
  0
LINE
  5
9B7D
  8
0
 10
376.11675871067001
 20
732.27892577738055
 30
0.0
 11
376.4167587106698
 21
732.27892577738055
 31
0.0
  0
LINE
  5
9B7E
  8
0
 10
374.6167587106699
 20
740.97892577738071
 30
0.0
 11
374.6167587106699
 21
733.77892577738055
 31
0.0
  0
LINE
  5
9B7F
  8
0
 10
375.41675871066991
 20
741.27892577738055
 30
0.0
 11
374.91675871066991
 21
741.27892577738055
 31
0.0
  0
LINE
  5
9B80
  8
0
 10
375.81675871067
 20
741.27892577738055
 30
0.0
 11
375.41675871066991
 21
741.27892577738055
 31
0.0
  0
LINE
  5
9B81
  8
0
 10
375.11675871067001
 20
735.9789257773806
 30
0.0
 11
375.11675871067001
 21
733.77892577738055
 31
0.0
  0
LINE
  5
9B82
  8
0
 10
376.6167587106699
 20
732.27892577738055
 30
0.0
 11
379.54675871066991
 21
732.27892577738055
 31
0.0
  0
LINE
  5
9B83
  8
0
 10
376.31675871067
 20
742.07892577738073
 30
0.0
 11
376.51675871066988
 21
742.27892577738055
 31
0.0
  0
LINE
  5
9B84
  8
0
 10
375.11675871067001
 20
736.97892577738071
 30
0.0
 11
375.11675871067001
 21
736.27892577738055
 31
0.0
  0
LINE
  5
9B85
  8
0
 10
379.13675871066988
 20
737.27892577738055
 30
0.0
 11
375.41675871066991
 21
737.27892577738055
 31
0.0
  0
LINE
  5
9B86
  8
0
 10
376.6167587106699
 20
765.27892577738066
 30
0.0
 11
376.6167587106699
 21
742.27892577738055
 31
0.0
  0
LINE
  5
9B87
  8
0
 10
376.31675871067
 20
737.27892577738055
 30
0.0
 11
376.31675871067
 21
738.26892577738056
 31
0.0
  0
LINE
  5
9B88
  8
0
 10
376.6167587106699
 20
742.27892577738055
 30
0.0
 11
376.6167587106699
 21
737.27892577738055
 31
0.0
  0
LINE
  5
9B89
  8
0
 10
376.31675871067
 20
738.26892577738056
 30
0.0
 11
376.11675871067001
 21
738.26892577738056
 31
0.0
  0
LINE
  5
9B8A
  8
0
 10
376.31675871067
 20
738.26892577738056
 30
0.0
 11
376.31675871067
 21
739.46892577738072
 31
0.0
  0
LINE
  5
9B8B
  8
0
 10
376.11675871067001
 20
739.46892577738072
 30
0.0
 11
376.31675871067
 21
739.46892577738072
 31
0.0
  0
LINE
  5
9B8C
  8
0
 10
376.31675871067
 20
739.46892577738072
 30
0.0
 11
376.31675871067
 21
742.07892577738073
 31
0.0
  0
LINE
  5
9B8D
  8
0
 10
376.51675871066988
 20
742.27892577738055
 30
0.0
 11
376.6167587106699
 21
742.27892577738055
 31
0.0
  0
LINE
  5
9B8E
  8
0
 10
375.11675871067001
 20
736.27892577738055
 30
0.0
 11
379.21675871066998
 21
736.27892577738055
 31
0.0
  0
LINE
  5
9B8F
  8
0
 10
376.11675871067001
 20
737.27892577738055
 30
0.0
 11
376.11675871067001
 21
740.97892577738071
 31
0.0
  0
LINE
  5
9B90
  8
0
 10
462.61675871066979
 20
745.77892577738055
 30
0.0
 11
462.61675871066979
 21
765.27892577738066
 31
0.0
  0
LINE
  5
9B91
  8
0
 10
382.4167587106698
 20
766.27892577738055
 30
0.0
 11
382.4167587106698
 21
749.27892577738055
 31
0.0
  0
LINE
  5
9B92
  8
0
 10
448.89675871066981
 20
749.15892577738066
 30
0.0
 11
448.89675871066981
 21
766.27892577738055
 31
0.0
  0
LINE
  5
9B93
  8
0
 10
401.01675871066971
 20
766.27892577738055
 30
0.0
 11
401.01675871066971
 21
749.27892577738055
 31
0.0
  0
ARC
  5
9B94
  8
0
 10
455.02417771066968
 20
734.77150777738063
 30
0.0
 40
2.4925929999999981
 50
269.82947499999727
 51
0.1705250000027349
  0
ARC
  5
9B95
  8
0
 10
458.02417771066979
 20
744.77150777738063
 30
0.0
 40
0.507473
 50
90.837610999997921
 51
179.16238900000209
  0
CIRCLE
  5
9B96
  8
0
 10
440.72416371066981
 20
749.27154277738066
 30
0.0
 40
0.75
  0
CIRCLE
  5
9B97
  8
0
 10
391.72417071067002
 20
749.27154277738066
 30
0.0
 40
6.299999999999998
  0
ARC
  5
9B98
  8
0
 10
391.71675871067009
 20
749.27892577738055
 30
0.0
 40
9.3000030000000002
 50
180.0
 51
0.0
  0
LINE
  5
9B99
  8
0
 10
447.24675871066978
 20
732.27892577738055
 30
0.0
 11
447.24675871066978
 21
743.80892577738086
 31
0.0
  0
LINE
  5
9B9A
  8
0
 10
448.11675871066973
 20
743.95892577738095
 30
0.0
 11
448.11675871066973
 21
748.01892577738056
 31
0.0
  0
LINE
  5
9B9B
  8
0
 10
462.11675871066979
 20
745.27892577738055
 30
0.0
 11
455.84675871066958
 21
745.27892577738055
 31
0.0
  0
LINE
  5
9B9C
  8
0
 10
457.51675871066971
 20
744.77892577738055
 30
0.0
 11
457.51675871066971
 21
734.77892577738055
 31
0.0
  0
LINE
  5
9B9D
  8
0
 10
413.11675871066973
 20
743.06892577738063
 30
0.0
 11
415.31675871066989
 21
743.43892577738063
 31
0.0
  0
LINE
  5
9B9E
  8
0
 10
416.8167587106696
 20
743.69892577738085
 30
0.0
 11
419.01675871066988
 21
744.06892577738063
 31
0.0
  0
LINE
  5
9B9F
  8
0
 10
420.51675871066959
 20
744.32892577738073
 30
0.0
 11
422.71675871066981
 21
744.69892577738062
 31
0.0
  0
LINE
  5
9BA0
  8
0
 10
424.71675871066998
 20
745.03892577738065
 30
0.0
 11
426.41675871066968
 21
745.32892577738073
 31
0.0
  0
LINE
  5
9BA1
  8
0
 10
427.91675871066963
 20
745.58892577738072
 30
0.0
 11
430.12675871066972
 21
745.95892577738061
 31
0.0
  0
LINE
  5
9BA2
  8
0
 10
431.62675871066978
 20
746.21892577738072
 30
0.0
 11
433.82675871066999
 21
746.59892577738071
 31
0.0
  0
LINE
  5
9BA3
  8
0
 10
435.32675871066988
 20
746.84892577738071
 30
0.0
 11
437.52675871066981
 21
747.22892577738071
 31
0.0
  0
LINE
  5
9BA4
  8
0
 10
439.02675871066981
 20
747.47892577738071
 30
0.0
 11
455.43675871067001
 21
750.27892577738055
 31
0.0
  0
LINE
  5
9BA5
  8
0
 10
462.61675871066979
 20
750.27892577738055
 30
0.0
 11
455.43675871067001
 21
750.27892577738055
 31
0.0
  0
LINE
  5
9BA6
  8
0
 10
439.02675871066981
 20
747.47892577738071
 30
0.0
 11
439.02675871066981
 21
761.27892577738055
 31
0.0
  0
LINE
  5
9BA7
  8
0
 10
439.02675871066981
 20
761.27892577738055
 30
0.0
 11
437.52675871066981
 21
761.27892577738055
 31
0.0
  0
LINE
  5
9BA8
  8
0
 10
437.52675871066981
 20
761.27892577738055
 30
0.0
 11
437.52675871066981
 21
747.22892577738071
 31
0.0
  0
LINE
  5
9BA9
  8
0
 10
435.32675871066988
 20
746.84892577738071
 30
0.0
 11
435.32675871066988
 21
761.27892577738055
 31
0.0
  0
LINE
  5
9BAA
  8
0
 10
435.32675871066988
 20
761.27892577738055
 30
0.0
 11
433.82675871066999
 21
761.27892577738055
 31
0.0
  0
LINE
  5
9BAB
  8
0
 10
433.82675871066999
 20
761.27892577738055
 30
0.0
 11
433.82675871066999
 21
746.59892577738071
 31
0.0
  0
LINE
  5
9BAC
  8
0
 10
431.62675871066978
 20
746.21892577738072
 30
0.0
 11
431.62675871066978
 21
761.27892577738055
 31
0.0
  0
LINE
  5
9BAD
  8
0
 10
431.62675871066978
 20
761.27892577738055
 30
0.0
 11
430.12675871066972
 21
761.27892577738055
 31
0.0
  0
LINE
  5
9BAE
  8
0
 10
430.12675871066972
 20
761.27892577738055
 30
0.0
 11
430.12675871066972
 21
745.95892577738061
 31
0.0
  0
LINE
  5
9BAF
  8
0
 10
427.91675871066963
 20
745.58892577738072
 30
0.0
 11
427.91675871066963
 21
761.27892577738055
 31
0.0
  0
LINE
  5
9BB0
  8
0
 10
427.91675871066963
 20
761.27892577738055
 30
0.0
 11
426.41675871066968
 21
761.27892577738055
 31
0.0
  0
LINE
  5
9BB1
  8
0
 10
426.41675871066968
 20
761.27892577738055
 30
0.0
 11
426.41675871066968
 21
745.32892577738073
 31
0.0
  0
LINE
  5
9BB2
  8
0
 10
424.71675871066998
 20
745.03892577738065
 30
0.0
 11
424.71675871066998
 21
758.56892577738063
 31
0.0
  0
LINE
  5
9BB3
  8
0
 10
424.01675871066971
 20
761.27892577738055
 30
0.0
 11
422.71675871066981
 21
761.27892577738055
 31
0.0
  0
LINE
  5
9BB4
  8
0
 10
422.71675871066981
 20
761.27892577738055
 30
0.0
 11
422.71675871066981
 21
744.69892577738062
 31
0.0
  0
LINE
  5
9BB5
  8
0
 10
420.51675871066959
 20
744.32892577738073
 30
0.0
 11
420.51675871066959
 21
761.27892577738055
 31
0.0
  0
LINE
  5
9BB6
  8
0
 10
420.51675871066959
 20
761.27892577738055
 30
0.0
 11
419.01675871066988
 21
761.27892577738055
 31
0.0
  0
LINE
  5
9BB7
  8
0
 10
419.01675871066988
 20
761.27892577738055
 30
0.0
 11
419.01675871066988
 21
744.06892577738063
 31
0.0
  0
LINE
  5
9BB8
  8
0
 10
416.8167587106696
 20
743.69892577738085
 30
0.0
 11
416.8167587106696
 21
761.27892577738055
 31
0.0
  0
LINE
  5
9BB9
  8
0
 10
416.8167587106696
 20
761.27892577738055
 30
0.0
 11
415.31675871066989
 21
761.27892577738055
 31
0.0
  0
LINE
  5
9BBA
  8
0
 10
415.31675871066989
 20
761.27892577738055
 30
0.0
 11
415.31675871066989
 21
743.43892577738063
 31
0.0
  0
LINE
  5
9BBB
  8
0
 10
413.11675871066973
 20
743.06892577738063
 30
0.0
 11
413.11675871066973
 21
761.27892577738055
 31
0.0
  0
LINE
  5
9BBC
  8
0
 10
413.11675871066973
 20
761.27892577738055
 30
0.0
 11
411.81675871066977
 21
761.27892577738055
 31
0.0
  0
LINE
  5
9BBD
  8
0
 10
411.81675871066977
 20
761.27892577738055
 30
0.0
 11
411.81675871066977
 21
759.2289257773806
 31
0.0
  0
LINE
  5
9BBE
  8
0
 10
439.02675871066981
 20
757.27892577738055
 30
0.0
 11
437.52675871066981
 21
757.27892577738055
 31
0.0
  0
LINE
  5
9BBF
  8
0
 10
435.32675871066988
 20
757.27892577738055
 30
0.0
 11
433.82675871066999
 21
757.27892577738055
 31
0.0
  0
LINE
  5
9BC0
  8
0
 10
431.62675871066978
 20
757.27892577738055
 30
0.0
 11
430.12675871066972
 21
757.27892577738055
 31
0.0
  0
LINE
  5
9BC1
  8
0
 10
427.91675871066963
 20
757.27892577738055
 30
0.0
 11
426.41675871066968
 21
757.27892577738055
 31
0.0
  0
LINE
  5
9BC2
  8
0
 10
424.71675871066998
 20
757.27892577738055
 30
0.0
 11
422.71675871066981
 21
757.27892577738055
 31
0.0
  0
LINE
  5
9BC3
  8
0
 10
420.51675871066959
 20
757.27892577738055
 30
0.0
 11
419.01675871066988
 21
757.27892577738055
 31
0.0
  0
LINE
  5
9BC4
  8
0
 10
416.8167587106696
 20
757.27892577738055
 30
0.0
 11
415.31675871066989
 21
757.27892577738055
 31
0.0
  0
LINE
  5
9BC5
  8
0
 10
413.11675871066973
 20
757.27892577738055
 30
0.0
 11
411.11675871066973
 21
757.27892577738055
 31
0.0
  0
LINE
  5
9BC6
  8
0
 10
411.11675871066973
 20
758.56892577738063
 30
0.0
 11
411.11675871066973
 21
742.72892577738071
 31
0.0
  0
LINE
  5
9BC7
  8
0
 10
411.81675871066977
 20
759.2289257773806
 30
0.0
 11
411.11675871066973
 21
758.56892577738063
 31
0.0
  0
LINE
  5
9BC8
  8
0
 10
424.71675871066998
 20
758.56892577738063
 30
0.0
 11
424.01675871066971
 21
759.2289257773806
 31
0.0
  0
LINE
  5
9BC9
  8
0
 10
424.01675871066971
 20
759.2289257773806
 30
0.0
 11
424.01675871066971
 21
761.27892577738055
 31
0.0
  0
LINE
  5
9BCA
  8
0
 10
455.51675871066988
 20
749.27892577738055
 30
0.0
 11
462.61675871066979
 21
749.27892577738055
 31
0.0
  0
ARC
  5
9BCB
  8
0
 10
462.11675871066979
 20
745.77892577738055
 30
0.0
 40
0.5
 50
270.0
 51
0.0
  0
ARC
  5
9BCC
  8
0
 10
461.61675871067001
 20
765.27892577738066
 30
0.0
 40
1.0
 50
0.0
 51
90.0
  0
LINE
  5
9BCD
  8
0
 10
385.36675871066979
 20
766.27892577738055
 30
0.0
 11
385.36675871066979
 21
768.77892577738066
 31
0.0
  0
LINE
  5
9BCE
  8
0
 10
452.36675871066979
 20
766.27892577738055
 30
0.0
 11
452.36675871066979
 21
768.77892577738066
 31
0.0
  0
LINE
  5
9BCF
  8
0
 10
220.06675871067
 20
767.79948677738071
 30
0.0
 11
220.06675871067
 21
927.75892577738102
 31
0.0
  0
ARC
  5
9BD0
  8
0
 10
194.25089671066991
 20
920.41382677738068
 30
0.0
 40
5.7526239999999991
 50
92.930874999996476
 51
169.9376259999998
  0
LINE
  5
9BD1
  8
0
 10
228.36675871067001
 20
929.77892577738066
 30
0.0
 11
303.36675871067001
 21
929.77892577738066
 31
0.0
  0
LINE
  5
9BD2
  8
0
 10
228.36675871067001
 20
765.77892577738055
 30
0.0
 11
228.36675871067001
 21
929.77892577738066
 31
0.0
  0
LINE
  5
9BD3
  8
0
 10
191.13675871066991
 20
774.27892577738055
 30
0.0
 11
191.13675871066991
 21
921.79892577738065
 31
0.0
  0
LINE
  5
9BD4
  8
0
 10
221.31675871067
 20
928.52892577738055
 30
0.0
 11
228.36675871067001
 21
928.52892577738055
 31
0.0
  0
LINE
  5
9BD5
  8
0
 10
219.35675871066991
 20
927.4889257773807
 30
0.0
 11
193.95675871066999
 21
926.15892577738055
 31
0.0
  0
ARC
  5
9BD6
  8
0
 10
221.32209571066991
 20
927.27769477738104
 30
0.0
 40
1.2512430000000001
 50
90.244380000000078
 51
144.2391030000033
  0
ARC
  5
9BD7
  8
0
 10
219.29055271067
 20
928.73766777738058
 30
0.0
 40
1.2504959999999981
 50
273.03488699999701
 51
324.35492199999601
  0
LINE
  5
9BD8
  8
0
 10
187.06675871067
 20
784.40828577738057
 30
0.0
 11
187.06675871067
 21
911.42892577738075
 31
0.0
  0
LINE
  5
9BD9
  8
0
 10
219.35675871066991
 20
768.06892577738063
 30
0.0
 11
193.95675871066999
 21
769.39892577738055
 31
0.0
  0
ARC
  5
9BDA
  8
0
 10
185.3166087106699
 20
784.9744697773807
 30
0.0
 40
2.249854
 50
179.88651000000229
 51
261.61639199999939
  0
ARC
  5
9BDB
  8
0
 10
184.5510387106699
 20
779.77975677738073
 30
0.0
 40
3.0009689999999982
 50
9.9623179999987208
 51
81.616391999999408
  0
LINE
  5
9BDC
  8
0
 10
187.50675971066991
 20
780.29892577738065
 30
0.0
 11
188.58675871067001
 21
774.13892577738056
 31
0.0
  0
ARC
  5
9BDD
  8
0
 10
194.24470871067001
 20
775.13701477738073
 30
0.0
 40
5.745309999999999
 50
190.00432199999889
 51
267.1271780000036
  0
LINE
  5
9BDE
  8
0
 10
228.36675871067001
 20
765.77892577738055
 30
0.0
 11
303.36675871067001
 21
765.77892577738055
 31
0.0
  0
LINE
  5
9BDF
  8
0
 10
221.31675871067
 20
767.02892577738066
 30
0.0
 11
228.36675871067001
 21
767.02892577738066
 31
0.0
  0
ARC
  5
9BE0
  8
0
 10
221.31712271066991
 20
768.27049877738057
 30
0.0
 40
1.241573
 50
215.533333
 51
269.98318399999948
  0
ARC
  5
9BE1
  8
0
 10
219.28548171067001
 20
766.81091977738072
 30
0.0
 40
1.260022999999999
 50
35.853017999999182
 51
86.757172999999256
  0
ARC
  5
9BE2
  8
0
 10
184.5510387106699
 20
915.77809477738106
 30
0.0
 40
3.0009689999999982
 50
278.34845899999692
 51
350.03768200000133
  0
LINE
  5
9BE3
  8
0
 10
187.50675871066991
 20
915.25892577738102
 30
0.0
 11
188.58675871067001
 21
921.41892577738065
 31
0.0
  0
ARC
  5
9BE4
  8
0
 10
185.3166087106699
 20
910.58338177738062
 30
0.0
 40
2.249854
 50
98.430493000000325
 51
180.11348999999771
  0
LINE
  5
9BE5
  8
0
 10
303.36675871067001
 20
929.77892577738066
 30
0.0
 11
303.36675871067001
 21
765.77892577738055
 31
0.0
  0
LINE
  5
9BE6
  8
0
 10
267.36466971067
 20
939.77892577738066
 30
0.0
 11
267.36466971067
 21
929.77892577738066
 31
0.0
  0
LINE
  5
9BE7
  8
0
 10
279.36884771066991
 20
939.77892577738066
 30
0.0
 11
279.36884771066991
 21
929.77892577738066
 31
0.0
  0
LINE
  5
9BE8
  8
0
 10
205.56198271067001
 20
934.77892577738055
 30
0.0
 11
267.36466971067
 21
934.77892577738055
 31
0.0
  0
LINE
  5
9BE9
  8
0
 10
205.5659307106699
 20
939.77892577738066
 30
0.0
 11
283.56675871067
 21
939.77892577738066
 31
0.0
  0
LINE
  5
9BEA
  8
0
 10
279.36884771066991
 20
934.77892577738055
 30
0.0
 11
283.56675871067
 21
934.77892577738055
 31
0.0
  0
ARC
  5
9BEB
  8
0
 10
205.5659307106699
 20
914.77892577738066
 30
0.0
 40
25.0
 50
90.0
 51
180.0
  0
LINE
  5
9BEC
  8
0
 10
279.36884771066991
 20
765.77892577738055
 30
0.0
 11
279.36884771066991
 21
755.77892577738055
 31
0.0
  0
LINE
  5
9BED
  8
0
 10
267.36466971067
 20
765.77892577738055
 30
0.0
 11
267.36466971067
 21
755.77892577738055
 31
0.0
  0
LINE
  5
9BEE
  8
0
 10
205.56198271067001
 20
760.77892577738066
 30
0.0
 11
267.36466971067
 21
760.77892577738066
 31
0.0
  0
LINE
  5
9BEF
  8
0
 10
205.5659307106699
 20
755.77892577738055
 30
0.0
 11
283.56675871067
 21
755.77892577738055
 31
0.0
  0
LINE
  5
9BF0
  8
0
 10
279.36884771066991
 20
760.77892577738066
 30
0.0
 11
283.56675871067
 21
760.77892577738066
 31
0.0
  0
ARC
  5
9BF1
  8
0
 10
205.56198271067001
 20
914.77892577738066
 30
0.0
 40
20.0
 50
90.0
 51
180.0
  0
LINE
  5
9BF2
  8
0
 10
183.06198271067001
 20
784.97892577738071
 30
0.0
 11
183.06198271067001
 21
910.57892577738073
 31
0.0
  0
LINE
  5
9BF3
  8
0
 10
178.09198271067001
 20
850.27892577738066
 30
0.0
 11
180.5659307106699
 21
850.27892577738066
 31
0.0
  0
LINE
  5
9BF4
  8
0
 10
180.5659307106699
 20
780.77892577738055
 30
0.0
 11
180.5659307106699
 21
914.77892577738066
 31
0.0
  0
LINE
  5
9BF5
  8
0
 10
178.09198271067001
 20
845.27892577738055
 30
0.0
 11
180.5659307106699
 21
845.27892577738055
 31
0.0
  0
ARC
  5
9BF6
  8
0
 10
205.5659307106699
 20
780.77892577738055
 30
0.0
 40
25.0
 50
180.0
 51
270.0
  0
ARC
  5
9BF7
  8
0
 10
205.56198271067001
 20
780.77892577738055
 30
0.0
 40
20.0
 50
180.0
 51
270.0
  0
LINE
  5
9BF8
  8
0
 10
283.56675871067
 20
934.77892577738055
 30
0.0
 11
283.56675871067
 21
939.77892577738066
 31
0.0
  0
LINE
  5
9BF9
  8
0
 10
283.56675871067
 20
760.77892577738066
 30
0.0
 11
283.56675871067
 21
755.77892577738055
 31
0.0
  0
LINE
  5
9BFA
  8
0
 10
182.56198271067001
 20
850.27892577738066
 30
0.0
 11
183.06198271067001
 21
850.27892577738066
 31
0.0
  0
LINE
  5
9BFB
  8
0
 10
182.56198271067001
 20
845.27892577738055
 30
0.0
 11
183.06198271067001
 21
845.27892577738055
 31
0.0
  0
LINE
  5
9BFC
  8
0
 10
182.56198271067001
 20
850.27892577738066
 30
0.0
 11
182.56198271067001
 21
845.27892577738055
 31
0.0
  0
LINE
  5
9BFD
  8
0
 10
178.09198271067001
 20
850.27892577738066
 30
0.0
 11
178.09198271067001
 21
845.27892577738055
 31
0.0
  0
LINE
  5
9BFE
  8
0
 10
185.56198271067001
 20
914.77892577738066
 30
0.0
 11
185.56198271067001
 21
912.95253177738084
 31
0.0
  0
LINE
  5
9BFF
  8
0
 10
185.56198271067001
 20
782.74865777738057
 30
0.0
 11
185.56198271067001
 21
780.77892577738055
 31
0.0
  0
LINE
  5
9C00
  8
0
 10
466.36675871066973
 20
810.82070577738068
 30
0.0
 11
475.36675871066973
 21
810.82070577738068
 31
0.0
  0
LINE
  5
9C01
  8
0
 10
466.36675871066973
 20
884.73714577738065
 30
0.0
 11
475.36675871066973
 21
884.73714577738065
 31
0.0
  0
LINE
  5
9E8A
  8
0
  6
CONTINUOUS
 62
     7
 10
525.79699871067032
 20
976.52270577738057
 30
0.0
 11
536.8667587106703
 21
976.90929577738029
 31
0.0
  0
LINE
  5
9E8B
  8
0
  6
CONTINUOUS
 62
     7
 10
509.86675871066979
 20
733.67095577738053
 30
0.0
 11
509.86675871066979
 21
843.77892577738055
 31
0.0
  0
LINE
  5
9E8C
  8
0
  6
CONTINUOUS
 62
     7
 10
523.86669871067011
 20
711.56915577738073
 30
0.0
 11
523.86669871067011
 21
838.2394957773804
 31
0.0
  0
LINE
  5
9E8D
  8
0
  6
CONTINUOUS
 62
     7
 10
512.34588871067035
 20
964.85796577738063
 30
0.0
 11
521.38769871067018
 21
966.45232577738057
 31
0.0
  0
LINE
  5
9E8E
  8
0
  6
CONTINUOUS
 62
     7
 10
526.70971871067013
 20
986.98461577738033
 30
0.0
 11
536.8667587106703
 21
987.51690577738032
 31
0.0
  0
LINE
  5
9E8F
  8
0
  6
CONTINUOUS
 62
     7
 10
526.69677871067063
 20
708.57397577738072
 30
0.0
 11
536.8667587106703
 21
708.04101577738072
 31
0.0
  0
LINE
  5
9E90
  8
0
  6
CONTINUOUS
 62
     7
 10
536.8667587106703
 20
708.04095577738065
 30
0.0
 11
536.8667587106703
 21
843.77892577738055
 31
0.0
  0
LINE
  5
9E91
  8
0
  6
CONTINUOUS
 62
     7
 10
523.86669871067011
 20
770.21313577738056
 30
0.0
 11
536.8667587106703
 21
770.21313577738056
 31
0.0
  0
LINE
  5
9E92
  8
0
  6
CONTINUOUS
 62
     7
 10
523.86669871067011
 20
796.21435577738055
 30
0.0
 11
536.8667587106703
 21
796.21435577738055
 31
0.0
  0
LINE
  5
9E93
  8
0
  6
CONTINUOUS
 62
     7
 10
523.86669871067011
 20
899.34350577738053
 30
0.0
 11
536.8667587106703
 21
899.34350577738053
 31
0.0
  0
LINE
  5
9E94
  8
0
  6
CONTINUOUS
 62
     7
 10
523.86669871067011
 20
925.34472577738075
 30
0.0
 11
536.8667587106703
 21
925.34472577738075
 31
0.0
  0
LINE
  5
9E95
  8
0
  6
CONTINUOUS
 62
     7
 10
525.79693871067047
 20
719.03515577738051
 30
0.0
 11
536.8667587106703
 21
718.64855577738058
 31
0.0
  0
LINE
  5
9E96
  8
0
  6
CONTINUOUS
 62
     7
 10
512.34576871067043
 20
730.69988577738059
 30
0.0
 11
521.38769871067018
 21
729.10558577738072
 31
0.0
  0
LINE
  5
9E97
  8
0
  6
CENTER
 62
     7
 10
520.86682871067012
 20
831.07055577738083
 30
0.0
 11
520.86682871067012
 21
862.38378577738047
 31
0.0
  0
LINE
  5
9E98
  8
0
  6
CONTINUOUS
 62
     7
 10
504.36682871067018
 20
843.77892577738055
 30
0.0
 11
537.36682871067012
 21
843.77892577738055
 31
0.0
  0
LINE
  5
9E99
  8
0
  6
CONTINUOUS
 62
     7
 10
504.36682871067018
 20
851.77892577738055
 30
0.0
 11
537.36682871067012
 21
851.77892577738055
 31
0.0
  0
LINE
  5
9E9A
  8
0
  6
CONTINUOUS
 62
     7
 10
536.8667587106703
 20
851.77892577738055
 30
0.0
 11
536.8667587106703
 21
987.51690577738032
 31
0.0
  0
LINE
  5
9E9B
  8
0
  6
CONTINUOUS
 62
     7
 10
523.86669871067011
 20
857.3183557773807
 30
0.0
 11
523.86669871067011
 21
983.98870577738035
 31
0.0
  0
LINE
  5
9E9C
  8
0
  6
CONTINUOUS
 62
     7
 10
509.86675871066979
 20
851.77892577738055
 30
0.0
 11
509.86675871066979
 21
961.92010577738029
 31
0.0
  0
LINE
  5
9E9D
  8
0
  6
CONTINUOUS
 62
     7
 10
536.8667587106703
 20
796.21435577738055
 30
0.0
 11
634.86675871066996
 21
796.21435577738055
 31
0.0
  0
LINE
  5
9E9E
  8
0
  6
CONTINUOUS
 62
     7
 10
624.73541871067027
 20
920.68102577738057
 30
0.0
 11
634.86675871066996
 21
928.23907577738044
 31
0.0
  0
LINE
  5
9E9F
  8
0
  6
CONTINUOUS
 62
     7
 10
632.71935871067024
 20
944.78252577738033
 30
0.0
 11
600.2166187106701
 21
925.34472577738075
 31
0.0
  0
LINE
  5
9EA0
  8
0
  6
CONTINUOUS
 62
     7
 10
632.43304871067039
 20
951.02557577738071
 30
0.0
 11
591.01446871067014
 21
926.25573577738055
 31
0.0
  0
LINE
  5
9EA1
  8
0
  6
CONTINUOUS
 62
     7
 10
652.86675871067041
 20
727.77892577738066
 30
0.0
 11
656.86675871067041
 21
727.77892577738066
 31
0.0
  0
LINE
  5
9EA2
  8
0
  6
CONTINUOUS
 62
     7
 10
652.86675871067041
 20
967.77892577738055
 30
0.0
 11
656.86675871067041
 21
967.77892577738055
 31
0.0
  0
LINE
  5
9EA3
  8
0
  6
CONTINUOUS
 62
     7
 10
656.86675871067041
 20
727.77892577738066
 30
0.0
 11
656.86675871067041
 21
967.77892577738055
 31
0.0
  0
LINE
  5
9EA4
  8
0
  6
CONTINUOUS
 62
     7
 10
642.86675871066996
 20
736.82165577738067
 30
0.0
 11
642.86675871066996
 21
958.73620577738041
 31
0.0
  0
LINE
  5
9EA5
  8
0
  6
CONTINUOUS
 62
     7
 10
637.76196871067043
 20
989.75152577738072
 30
0.0
 11
652.86675871067041
 21
990.27898577738063
 31
0.0
  0
LINE
  5
9EA6
  8
0
  6
CONTINUOUS
 62
     7
 10
652.86675871067041
 20
705.27892577738055
 30
0.0
 11
652.86675871067041
 21
990.27892577738055
 31
0.0
  0
LINE
  5
9EA7
  8
0
  6
CONTINUOUS
 62
     7
 10
634.86675871066996
 20
708.78796577738069
 30
0.0
 11
634.86675871066996
 21
986.75329577738034
 31
0.0
  0
LINE
  5
9EA8
  8
0
  6
CONTINUOUS
 62
     7
 10
637.76202871067039
 20
705.80639577738054
 30
0.0
 11
652.86675871067041
 21
705.27892577738055
 31
0.0
  0
LINE
  5
9EA9
  8
0
  6
CONTINUOUS
 62
     7
 10
632.43304871067039
 20
744.53234577738056
 30
0.0
 11
591.01446871067014
 21
769.30212577738064
 31
0.0
  0
LINE
  5
9EAA
  8
0
  6
CONTINUOUS
 62
     7
 10
632.71935871067024
 20
750.77526577738058
 30
0.0
 11
600.2166187106701
 21
770.21313577738056
 31
0.0
  0
LINE
  5
9EAB
  8
0
  6
CONTINUOUS
 62
     7
 10
624.73541871067027
 20
774.87682577738053
 30
0.0
 11
634.86675871066996
 21
767.31878577738064
 31
0.0
  0
LINE
  5
9EAC
  8
0
  6
CONTINUOUS
 62
     7
 10
672.8667587106703
 20
841.77892577738055
 30
0.0
 11
728.8667587106703
 21
841.77892577738055
 31
0.0
  0
LINE
  5
9EAD
  8
0
  6
CONTINUOUS
 62
     7
 10
536.8667587106703
 20
770.21313577738056
 30
0.0
 11
588.66253871066999
 21
770.21313577738056
 31
0.0
  0
LINE
  5
9EAE
  8
0
  6
CONTINUOUS
 62
     7
 10
536.8667587106703
 20
708.04095577738065
 30
0.0
 11
637.80035871067025
 21
705.80529577738059
 31
0.0
  0
LINE
  5
9EAF
  8
0
  6
CONTINUOUS
 62
     7
 10
536.8667587106703
 20
718.64855577738058
 30
0.0
 11
634.86675871066996
 21
715.22631577738059
 31
0.0
  0
LINE
  5
9EB0
  8
0
  6
CONTINUOUS
 62
     7
 10
672.8667587106703
 20
853.77892577738066
 30
0.0
 11
728.8667587106703
 21
853.77892577738066
 31
0.0
  0
LINE
  5
9EB1
  8
0
  6
CONTINUOUS
 62
     7
 10
672.8667587106703
 20
853.77892577738066
 30
0.0
 11
672.8667587106703
 21
841.77892577738055
 31
0.0
  0
LINE
  5
9EB2
  8
0
  6
CONTINUOUS
 62
     7
 10
728.8667587106703
 20
826.77892577738055
 30
0.0
 11
728.8667587106703
 21
868.77892577738055
 31
0.0
  0
LINE
  5
9EB3
  8
0
  6
CONTINUOUS
 62
     7
 10
658.86675871067007
 20
825.27892577738066
 30
0.0
 11
658.86675871067007
 21
870.27892577738055
 31
0.0
  0
LINE
  5
9EB4
  8
0
  6
CONTINUOUS
 62
     7
 10
656.86675871067041
 20
825.27892577738066
 30
0.0
 11
658.86675871067007
 21
825.27892577738066
 31
0.0
  0
LINE
  5
9EB5
  8
0
  6
CONTINUOUS
 62
     7
 10
656.86675871067041
 20
870.27892577738055
 30
0.0
 11
658.86675871067007
 21
870.27892577738055
 31
0.0
  0
LINE
  5
9EB6
  8
0
  6
CONTINUOUS
 62
     7
 10
658.86675871067007
 20
826.77892577738055
 30
0.0
 11
728.8667587106703
 21
826.77892577738055
 31
0.0
  0
LINE
  5
9EB7
  8
0
  6
CONTINUOUS
 62
     7
 10
658.86675871067007
 20
868.77892577738055
 30
0.0
 11
728.8667587106703
 21
868.77892577738055
 31
0.0
  0
LINE
  5
9EB8
  8
0
  6
CONTINUOUS
 62
     7
 10
592.55425871067007
 20
774.87682577738053
 30
0.0
 11
634.86675871066996
 21
774.87682577738053
 31
0.0
  0
LINE
  5
9EB9
  8
0
  6
CONTINUOUS
 62
     7
 10
536.8667587106703
 20
899.34350577738053
 30
0.0
 11
634.86675871066996
 21
899.34350577738053
 31
0.0
  0
LINE
  5
9EBA
  8
0
  6
CONTINUOUS
 62
     7
 10
536.8667587106703
 20
976.90929577738029
 30
0.0
 11
634.86682871067023
 21
980.33147577738032
 31
0.0
  0
LINE
  5
9EBB
  8
0
  6
CONTINUOUS
 62
     7
 10
536.8667587106703
 20
987.51690577738032
 30
0.0
 11
637.80029871067052
 21
989.75262577738033
 31
0.0
  0
LINE
  5
9EBC
  8
0
  6
CONTINUOUS
 62
     7
 10
536.8667587106703
 20
925.34472577738075
 30
0.0
 11
588.66253871066999
 21
925.34472577738075
 31
0.0
  0
LINE
  5
9EBD
  8
0
  6
CONTINUOUS
 62
     7
 10
592.55425871067007
 20
920.68102577738057
 30
0.0
 11
634.86675871066996
 21
920.68102577738057
 31
0.0
  0
ARC
  5
9EBE
  8
0
  6
CONTINUOUS
 62
     7
 10
525.86675871066973
 20
974.52392577738033
 30
0.0
 40
2.0
 50
91.999998000000545
 51
180.000010000001
  0
ARC
  5
9EBF
  8
0
  6
CONTINUOUS
 62
     7
 10
512.86675871066973
 20
961.90350577738025
 30
0.0
 40
3.0
 50
99.999999999998593
 51
180.000010000001
  0
ARC
  5
9EC0
  8
0
  6
CONTINUOUS
 62
     7
 10
520.86675871067007
 20
969.40667577738066
 30
0.0
 40
3.0
 50
280.00001000000123
 51
0.0
  0
ARC
  5
9EC1
  8
0
  6
CONTINUOUS
 62
     7
 10
504.86675871066979
 20
927.3121357773806
 30
0.0
 40
5.0
 50
272.00000000000369
 51
0.0
  0
ARC
  5
9EC2
  8
0
  6
CONTINUOUS
 62
     7
 10
526.86669871066999
 20
983.98870577738035
 30
0.0
 40
3.0
 50
92.999999000001679
 51
180.000010000001
  0
ARC
  5
9EC3
  8
0
  6
CONTINUOUS
 62
     7
 10
525.86675871066973
 20
721.03393577738063
 30
0.0
 40
2.0
 50
179.999989999999
 51
268.00000999999861
  0
ARC
  5
9EC4
  8
0
  6
CONTINUOUS
 62
     7
 10
512.86675871066973
 20
733.65435577738015
 30
0.0
 40
3.0
 50
179.999989999999
 51
260.00000000000142
  0
ARC
  5
9EC5
  8
0
  6
CONTINUOUS
 62
     7
 10
520.86675871067007
 20
726.15124577738072
 30
0.0
 40
3.0
 50
0.0
 51
79.999998000001099
  0
ARC
  5
9EC6
  8
0
  6
CONTINUOUS
 62
     7
 10
504.86675871066979
 20
768.24572577738047
 30
0.0
 40
5.0
 50
0.0
 51
87.999999999996248
  0
ARC
  5
9EC7
  8
0
  6
CONTINUOUS
 62
     7
 10
526.86669871066999
 20
711.56915577738073
 30
0.0
 40
3.0
 50
180.000010000001
 51
266.99999000000031
  0
ARC
  5
9EC8
  8
0
  6
CONTINUOUS
 62
     7
 10
520.86682871067012
 20
847.77892577738066
 30
0.0
 40
10.0
 50
23.57803699999776
 51
156.42196000000089
  0
ARC
  5
9EC9
  8
0
  6
CONTINUOUS
 62
     7
 10
504.36682871067018
 20
847.77892577738066
 30
0.0
 40
3.9999962
 50
90.00000299999769
 51
270.0
  0
ARC
  5
9ECA
  8
0
  6
CONTINUOUS
 62
     7
 10
537.36682871067012
 20
847.77892577738066
 30
0.0
 40
3.9999962
 50
270.0
 51
90.00000299999769
  0
ARC
  5
9ECB
  8
0
  6
CONTINUOUS
 62
     7
 10
520.86682871067012
 20
847.77892577738066
 30
0.0
 40
10.0
 50
203.57826999999861
 51
336.4217200000013
  0
ARC
  5
9ECC
  8
0
  6
CONTINUOUS
 62
     7
 10
637.86675871067007
 20
736.82165577738067
 30
0.0
 40
5.0
 50
267.99999999999619
 51
0.0
  0
ARC
  5
9ECD
  8
0
  6
CONTINUOUS
 62
     7
 10
629.86675871067007
 20
955.31670577738032
 30
0.0
 40
5.0
 50
300.88098000000019
 51
0.0
  0
ARC
  5
9ECE
  8
0
  6
CONTINUOUS
 62
     7
 10
637.86675871067007
 20
958.73620577738041
 30
0.0
 40
5.0
 50
0.0
 51
91.999998000000545
  0
ARC
  5
9ECF
  8
0
  6
CONTINUOUS
 62
     7
 10
639.86675871067041
 20
913.91332577738058
 30
0.0
 40
5.0
 50
179.999989999999
 51
270.0
  0
ARC
  5
9ED0
  8
0
  6
CONTINUOUS
 62
     7
 10
637.86675871067007
 20
986.75329577738034
 30
0.0
 40
3.0
 50
91.999998000000545
 51
180.000010000001
  0
ARC
  5
9ED1
  8
0
  6
CONTINUOUS
 62
     7
 10
629.86675871067007
 20
740.24114577738067
 30
0.0
 40
5.0
 50
0.0
 51
59.11901699999779
  0
ARC
  5
9ED2
  8
0
  6
CONTINUOUS
 62
     7
 10
639.86675871067041
 20
781.64452577738064
 30
0.0
 40
5.0
 50
90.00000299999769
 51
180.000010000001
  0
ARC
  5
9ED3
  8
0
  6
CONTINUOUS
 62
     7
 10
637.86675871067007
 20
708.80456577738073
 30
0.0
 40
3.0
 50
179.999989999999
 51
268.00000999999861
  0
ARC
  5
9ED4
  8
0
  6
CONTINUOUS
 62
     7
 10
588.66253871066999
 20
767.21313577738067
 30
0.0
 40
3.0
 50
59.11902300000196
 51
90.00000299999769
  0
ARC
  5
9ED5
  8
0
  6
CONTINUOUS
 62
     7
 10
592.55425871067007
 20
771.87682577738053
 30
0.0
 40
3.0
 50
90.00000299999769
 51
239.11901999999989
  0
ARC
  5
9ED6
  8
0
  6
CONTINUOUS
 62
     7
 10
588.66253871066999
 20
928.34472577738063
 30
0.0
 40
3.0
 50
270.0
 51
300.88098000000019
  0
ARC
  5
9ED7
  8
0
  6
CONTINUOUS
 62
     7
 10
592.55425871067007
 20
923.68102577738068
 30
0.0
 40
3.0
 50
120.8809700000043
 51
270.0
  0
ARC
  5
9ED8
  8
0
  6
CONTINUOUS
 62
     7
 10
672.8667587106703
 20
847.77892577738066
 30
0.0
 40
6.0000037999999991
 50
90.00000299999769
 51
270.0
  0
POLYLINE
  5
9ED9
  8
0
  6
CONTINUOUS
 62
     7
 66
     1
 10
0.0
 20
0.0
 30
0.0
  0
VERTEX
  5
9EDA
  8
0
  6
CONTINUOUS
 62
     7
 10
634.86675871066996
 20
966.97179577738029
 30
0.0
  0
VERTEX
  5
9EDB
  8
0
  6
CONTINUOUS
 62
     7
 10
627.20793871067008
 20
947.90110577738062
 30
0.0
 42
-1.0
  0
SEQEND
  5
9EDC
  8
0
 62
     7
  0
POLYLINE
  5
9EDD
  8
0
  6
CONTINUOUS
 62
     7
 66
     1
 10
0.0
 20
0.0
 30
0.0
  0
VERTEX
  5
9EDE
  8
0
  6
CONTINUOUS
 62
     7
 10
627.20786871067025
 20
747.65694577738066
 30
0.0
 42
0.0052467582
  0
VERTEX
  5
9EDF
  8
0
  6
CONTINUOUS
 62
     7
 10
629.62808871067023
 20
741.24711577738015
 30
0.0
 42
0.0052066449
  0
VERTEX
  5
9EE0
  8
0
  6
CONTINUOUS
 62
     7
 10
632.18175871067024
 20
734.88928577738056
 30
0.0
 42
0.0051740769
  0
VERTEX
  5
9EE1
  8
0
  6
CONTINUOUS
 62
     7
 10
634.86675871066996
 20
728.58605577738024
 30
0.0
  0
SEQEND
  5
9EE2
  8
0
 62
     7
  0
POLYLINE
  5
9EE3
  8
0
  6
CONTINUOUS
 62
     7
 66
     1
 10
0.0
 20
0.0
 30
0.0
  0
VERTEX
  5
9EE4
  8
0
  6
CONTINUOUS
 62
     7
 10
613.73100871067015
 20
899.34344577738045
 30
0.0
 42
0.030646372
  0
VERTEX
  5
9EE5
  8
0
  6
CONTINUOUS
 62
     7
 10
609.32146871067016
 20
865.06003577738068
 30
0.0
 42
0.064801293
  0
VERTEX
  5
9EE6
  8
0
  6
CONTINUOUS
 62
     7
 10
613.73100871067015
 20
796.21438577738058
 30
0.0
  0
SEQEND
  5
9EE7
  8
0
 62
     7
  0
LINE
  5
9F40
  8
0
  6
CONTINUOUS
 62
     7
 10
534.86685871067004
 20
627.20193998293598
 30
0.0
 11
536.86678871067033
 21
627.20193998293598
 31
0.0
  0
LINE
  5
9F41
  8
0
  6
CONTINUOUS
 62
     7
 10
513.04965871067031
 20
633.70196998293613
 30
0.0
 11
528.68386871067025
 21
633.70196998293613
 31
0.0
  0
LINE
  5
9F42
  8
0
  6
CONTINUOUS
 62
     7
 10
510.54391871067031
 20
626.70196998293613
 30
0.0
 11
525.19949871067035
 21
626.70196998293613
 31
0.0
  0
LINE
  5
9F43
  8
0
  6
CONTINUOUS
 62
     7
 10
510.86678871067039
 20
626.7019399829361
 30
0.0
 11
512.57900871067068
 21
633.09201998293599
 31
0.0
  0
LINE
  5
9F44
  8
0
  6
CONTINUOUS
 62
     7
 10
520.86678871067011
 20
635.20196998293602
 30
0.0
 11
528.37020871067034
 21
633.81662998293575
 31
0.0
  0
LINE
  5
9F45
  8
0
  6
CONTINUOUS
 62
     7
 10
513.3633787106703
 20
633.81656998293602
 30
0.0
 11
520.86678871067011
 21
635.20190998293606
 31
0.0
  0
LINE
  5
9F46
  8
0
  6
CONTINUOUS
 62
     7
 10
534.86685871067004
 20
627.13211998293605
 30
0.0
 11
534.86685871067004
 21
627.20193998293598
 31
0.0
  0
LINE
  5
9F47
  8
0
  6
CONTINUOUS
 62
     7
 10
512.34579871067035
 20
614.28091998293587
 30
0.0
 11
521.38772871067033
 21
615.87524998293588
 31
0.0
  0
LINE
  5
9F48
  8
0
  6
CONTINUOUS
 62
     7
 10
523.86678871067045
 20
369.58728998293611
 30
0.0
 11
523.86678871067045
 21
624.81659998293571
 31
0.0
  0
LINE
  5
9F49
  8
0
  6
CONTINUOUS
 62
     7
 10
509.8668587106701
 20
383.07739998293607
 30
0.0
 11
509.8668587106701
 21
625.2019399829361
 31
0.0
  0
LINE
  5
9F4A
  8
0
  6
CONTINUOUS
 62
     7
 10
525.79696871067063
 20
626.81537998293595
 30
0.0
 11
536.86678871067033
 21
627.20193998293598
 31
0.0
  0
LINE
  5
9F4B
  8
0
  6
CONTINUOUS
 62
     7
 10
530.78964871067035
 20
626.98978998293614
 30
0.0
 11
529.15457871067031
 21
633.09207998293573
 31
0.0
  0
LINE
  5
9F4C
  8
0
  6
CONTINUOUS
 62
     7
 10
656.86678871067045
 20
557.70190998293594
 30
0.0
 11
658.86672871067015
 21
557.70190998293594
 31
0.0
  0
LINE
  5
9F4D
  8
0
  6
CONTINUOUS
 62
     7
 10
656.86678871067045
 20
512.70190998293594
 30
0.0
 11
658.86672871067015
 21
512.70190998293594
 31
0.0
  0
LINE
  5
9F4E
  8
0
  6
CONTINUOUS
 62
     7
 10
632.71938871067027
 20
632.20557998293566
 30
0.0
 11
590.96133871067025
 21
607.23270998293594
 31
0.0
  0
LINE
  5
9F4F
  8
0
  6
CONTINUOUS
 62
     7
 10
632.43307871067043
 20
638.44852998293607
 30
0.0
 11
595.37417871067044
 21
616.28592998293595
 31
0.0
  0
LINE
  5
9F50
  8
0
  6
CONTINUOUS
 62
     7
 10
618.80947871067019
 20
603.68326998293605
 30
0.0
 11
634.86672871067015
 21
615.66205998293594
 31
0.0
  0
LINE
  5
9F51
  8
0
  6
CONTINUOUS
 62
     7
 10
588.36678871066999
 20
602.69083998293604
 30
0.0
 11
615.81979871067028
 21
602.69083998293604
 31
0.0
  0
LINE
  5
9F52
  8
0
  6
CONTINUOUS
 62
     7
 10
564.86678871067045
 20
433.83995998293608
 30
0.0
 11
634.86678871066988
 21
433.83995998293608
 31
0.0
  0
LINE
  5
9F53
  8
0
  6
CONTINUOUS
 62
     7
 10
564.86678871067045
 20
416.24432998293611
 30
0.0
 11
564.86678871067045
 21
432.3443199829361
 31
0.0
  0
LINE
  5
9F54
  8
0
  6
CONTINUOUS
 62
     7
 10
564.86678871067045
 20
414.3976799829361
 30
0.0
 11
634.86678871066988
 21
414.3976799829361
 31
0.0
  0
LINE
  5
9F55
  8
0
  6
CONTINUOUS
 62
     7
 10
610.15963871067015
 20
630.49478998293603
 30
0.0
 11
633.40231871066999
 21
653.73746998293609
 31
0.0
  0
LINE
  5
9F56
  8
0
  6
CONTINUOUS
 62
     7
 10
652.86678871067045
 20
655.20190998293594
 30
0.0
 11
656.86678871067045
 21
655.20190998293594
 31
0.0
  0
LINE
  5
9F57
  8
0
  6
CONTINUOUS
 62
     7
 10
638.47933871067028
 20
550.125069982936
 30
0.0
 11
642.86678871066999
 21
550.125069982936
 31
0.0
  0
LINE
  5
9F58
  8
0
  6
CONTINUOUS
 62
     7
 10
523.86678871067045
 20
507.18292998293612
 30
0.0
 11
642.86678871066999
 21
507.18292998293612
 31
0.0
  0
LINE
  5
9F59
  8
0
  6
CONTINUOUS
 62
     7
 10
642.86678871066999
 20
535.20190998293606
 30
0.0
 11
642.86678871066999
 21
424.24463998293589
 31
0.0
  0
LINE
  5
9F5A
  8
0
  6
CONTINUOUS
 62
     7
 10
652.86678871067045
 20
415.20192998293601
 30
0.0
 11
656.86678871067045
 21
415.20192998293601
 31
0.0
  0
LINE
  5
9F5B
  8
0
  6
CONTINUOUS
 62
     7
 10
536.86672871067015
 20
367.20193998293598
 30
0.0
 11
596.59530871067022
 21
365.63788998293597
 31
0.0
  0
LINE
  5
9F5C
  8
0
  6
CONTINUOUS
 62
     7
 10
656.86678871067045
 20
535.20190998293606
 30
0.0
 11
656.86678871067045
 21
655.20190998293594
 31
0.0
  0
LINE
  5
9F5D
  8
0
  6
CONTINUOUS
 62
     7
 10
642.86678871066999
 20
535.20190998293606
 30
0.0
 11
642.86678871066999
 21
646.15921998293595
 31
0.0
  0
LINE
  5
9F5E
  8
0
  6
CONTINUOUS
 62
     7
 10
523.86678871067045
 20
618.91922998293603
 30
0.0
 11
599.77731871067022
 21
618.91922998293603
 31
0.0
  0
LINE
  5
9F5F
  8
0
  6
CONTINUOUS
 62
     7
 10
523.86678871067045
 20
604.46243998293573
 30
0.0
 11
585.92831871067028
 21
604.46243998293573
 31
0.0
  0
LINE
  5
9F60
  8
0
  6
CONTINUOUS
 62
     7
 10
633.73232871067046
 20
553.55487998293609
 30
0.0
 11
617.47933871067028
 21
602.69092998293604
 31
0.0
  0
LINE
  5
9F61
  8
0
  6
CONTINUOUS
 62
     7
 10
610.07449871067024
 20
625.07727998293603
 30
0.0
 11
608.74911871067025
 21
629.08426998293612
 31
0.0
  0
LINE
  5
9F62
  8
0
  6
CONTINUOUS
 62
     7
 10
637.76211871067028
 20
677.17444998293604
 30
0.0
 11
652.86678871067045
 21
677.70190998293594
 31
0.0
  0
LINE
  5
9F63
  8
0
  6
CONTINUOUS
 62
     7
 10
652.86678871067045
 20
392.70192998293601
 30
0.0
 11
652.86678871067045
 21
677.70190998293594
 31
0.0
  0
LINE
  5
9F64
  8
0
  6
CONTINUOUS
 62
     7
 10
634.86678871066988
 20
556.68875998293584
 30
0.0
 11
634.86678871066988
 21
674.17627998293574
 31
0.0
  0
LINE
  5
9F65
  8
0
  6
CONTINUOUS
 62
     7
 10
523.86678871067045
 20
487.22092998293613
 30
0.0
 11
642.86678871066999
 21
487.22092998293613
 31
0.0
  0
LINE
  5
9F66
  8
0
  6
CONTINUOUS
 62
     7
 10
656.86678871067045
 20
535.20190998293606
 30
0.0
 11
656.86678871067045
 21
415.20192998293601
 31
0.0
  0
LINE
  5
9F67
  8
0
  6
CONTINUOUS
 62
     7
 10
637.97146871067025
 20
392.18179998293601
 30
0.0
 11
652.86678871067045
 21
392.70195998293599
 31
0.0
  0
LINE
  5
9F68
  8
0
  6
CONTINUOUS
 62
     7
 10
523.86678871067045
 20
389.94145998293612
 30
0.0
 11
638.69027871067067
 21
389.94145998293612
 31
0.0
  0
LINE
  5
9F69
  8
0
  6
CONTINUOUS
 62
     7
 10
523.86678871067045
 20
375.48465998293602
 30
0.0
 11
613.65048871067029
 21
375.48465998293602
 31
0.0
  0
LINE
  5
9F6A
  8
0
  6
CONTINUOUS
 62
     7
 10
634.86678871066988
 20
395.17995998293588
 30
0.0
 11
634.86678871066988
 21
443.69507998293602
 31
0.0
  0
LINE
  5
9F6B
  8
0
  6
CONTINUOUS
 62
     7
 10
536.86678871067033
 20
367.20193998293598
 30
0.0
 11
536.86678871067033
 21
627.20190998293606
 31
0.0
  0
LINE
  5
9F6C
  8
0
  6
CONTINUOUS
 62
     7
 10
536.8666687106703
 20
627.20196998293602
 30
0.0
 11
606.75497871067023
 21
629.03204998293575
 31
0.0
  0
LINE
  5
9F6D
  8
0
  6
CONTINUOUS
 62
     7
 10
596.59530871067022
 20
365.63790998293609
 30
0.0
 11
642.86672871067015
 21
392.35275998293599
 31
0.0
  0
LINE
  5
9F6E
  8
0
  6
CONTINUOUS
 62
     7
 10
512.34579871067035
 20
380.1229699829359
 30
0.0
 11
521.38778871067007
 21
378.52862998293608
 31
0.0
  0
LINE
  5
9F6F
  8
0
  6
CONTINUOUS
 62
     7
 10
525.79702871067025
 20
367.58848998293598
 30
0.0
 11
536.86678871067033
 21
367.20191998293598
 31
0.0
  0
LINE
  5
9F70
  8
0
  6
CONTINUOUS
 62
     7
 10
658.86672871067015
 20
514.2019399829361
 30
0.0
 11
728.8667587106703
 21
514.2019399829361
 31
0.0
  0
LINE
  5
9F71
  8
0
  6
CONTINUOUS
 62
     7
 10
658.86672871067015
 20
556.20193998293598
 30
0.0
 11
728.8667587106703
 21
556.20193998293598
 31
0.0
  0
LINE
  5
9F72
  8
0
  6
CONTINUOUS
 62
     7
 10
658.86672871067015
 20
512.70190998293594
 30
0.0
 11
658.86672871067015
 21
557.70190998293594
 31
0.0
  0
LINE
  5
9F73
  8
0
  6
CONTINUOUS
 62
     7
 10
728.8667587106703
 20
514.2019399829361
 30
0.0
 11
728.8667587106703
 21
559.20190998293594
 31
0.0
  0
LINE
  5
9F74
  8
0
  6
CONTINUOUS
 62
     7
 10
672.86678871067022
 20
559.20190998293594
 30
0.0
 11
728.8667587106703
 21
559.20190998293594
 31
0.0
  0
LINE
  5
9F75
  8
0
  6
CONTINUOUS
 62
     7
 10
672.86678871067022
 20
559.20190998293594
 30
0.0
 11
672.86678871067022
 21
556.20193998293598
 31
0.0
  0
CIRCLE
  5
9F77
  8
0
  6
CONTINUOUS
 62
     7
 10
520.86678871067011
 20
647.7019399829361
 30
0.0
 40
12.5
  0
ARC
  5
9F78
  8
0
  6
CONTINUOUS
 62
     7
 10
513.54495871067036
 20
632.83319998293587
 30
0.0
 40
1.0
 50
100.4607199999961
 51
164.99998999999869
  0
ARC
  5
9F79
  8
0
  6
CONTINUOUS
 62
     7
 10
528.18868871067014
 20
632.83319998293587
 30
0.0
 40
1.0
 50
15.000000000000741
 51
79.539281000002006
  0
ARC
  5
9F7A
  8
0
  6
CONTINUOUS
 62
     7
 10
506.94979871067028
 20
627.53839998293608
 30
0.0
 40
4.0
 50
347.9293300000017
 51
55.386359000001512
  0
ARC
  5
9F7B
  8
0
  6
CONTINUOUS
 62
     7
 10
504.86685871067021
 20
576.73514998293604
 30
0.0
 40
5.0
 50
271.99999999999721
 51
0.0
  0
ARC
  5
9F7C
  8
0
  6
CONTINUOUS
 62
     7
 10
506.86678871067051
 20
409.37204998293601
 30
0.0
 40
3.0
 50
0.0
 51
84.999996999998885
  0
ARC
  5
9F7D
  8
0
  6
CONTINUOUS
 62
     7
 10
534.78372871067029
 20
627.53839998293608
 30
0.0
 40
4.0
 50
124.6136499999979
 51
187.86824999999581
  0
ARC
  5
9F7E
  8
0
  6
CONTINUOUS
 62
     7
 10
511.86678871067028
 20
625.2019399829361
 30
0.0
 40
2.0
 50
131.40961999999629
 51
180.000010000001
  0
ARC
  5
9F7F
  8
0
  6
CONTINUOUS
 62
     7
 10
520.86678871067011
 20
647.7019399829361
 30
0.0
 40
20.5
 50
304.61363999999702
 51
235.3863500000021
  0
ARC
  5
9F80
  8
0
  6
CONTINUOUS
 62
     7
 10
520.86678871067011
 20
618.82965998293571
 30
0.0
 40
3.0
 50
279.99999999999858
 51
0.0
  0
ARC
  5
9F81
  8
0
  6
CONTINUOUS
 62
     7
 10
512.86678871066999
 20
611.3264899829361
 30
0.0
 40
3.0
 50
99.999999999998593
 51
180.000010000001
  0
ARC
  5
9F82
  8
0
  6
CONTINUOUS
 62
     7
 10
525.86678871066999
 20
624.81659998293571
 30
0.0
 40
2.0
 50
91.999998000000545
 51
180.000010000001
  0
ARC
  5
9F83
  8
0
  6
CONTINUOUS
 62
     7
 10
629.86678871067011
 20
642.73971998293609
 30
0.0
 40
5.0
 50
300.88098000000019
 51
0.0
  0
ARC
  5
9F84
  8
0
  6
CONTINUOUS
 62
     7
 10
567.06661871067047
 20
628.99704998293601
 30
0.0
 40
30.946884000000011
 50
307.55230999999918
 51
335.59612999999899
  0
ARC
  5
9F85
  8
0
  6
CONTINUOUS
 62
     7
 10
588.36678871066999
 20
607.69083998293604
 30
0.0
 40
5.0
 50
229.7633299999992
 51
270.0
  0
ARC
  5
9F86
  8
0
  6
CONTINUOUS
 62
     7
 10
615.81979871067028
 20
607.69083998293604
 30
0.0
 40
5.0
 50
270.0
 51
306.7232099999984
  0
ARC
  5
9F87
  8
0
  6
CONTINUOUS
 62
     7
 10
564.86678871067045
 20
424.11882998293572
 30
0.0
 40
9.7211408999999982
 50
90.00000299999769
 51
270.0
  0
ARC
  5
9F88
  8
0
  6
CONTINUOUS
 62
     7
 10
637.86678871067011
 20
424.24463998293589
 30
0.0
 40
5.0
 50
268.0000000000029
 51
0.0
  0
ARC
  5
9F89
  8
0
  6
CONTINUOUS
 62
     7
 10
639.86678871067045
 20
443.69507998293602
 30
0.0
 40
5.0
 50
90.00000299999769
 51
180.000010000001
  0
ARC
  5
9F8A
  8
0
  6
CONTINUOUS
 62
     7
 10
525.86678871066999
 20
369.58728998293611
 30
0.0
 40
2.0
 50
179.999989999999
 51
268.00000999999861
  0
ARC
  5
9F8B
  8
0
  6
CONTINUOUS
 62
     7
 10
637.86678871067011
 20
646.15921998293595
 30
0.0
 40
5.0
 50
0.0
 51
91.999998000000545
  0
ARC
  5
9F8C
  8
0
  6
CONTINUOUS
 62
     7
 10
629.86678871067011
 20
657.272989982936
 30
0.0
 40
5.0
 50
315.0
 51
0.0
  0
ARC
  5
9F8D
  8
0
  6
CONTINUOUS
 62
     7
 10
637.86678871067011
 20
395.17995998293588
 30
0.0
 40
3.0
 50
179.999989999999
 51
271.99999000000139
  0
ARC
  5
9F8E
  8
0
  6
CONTINUOUS
 62
     7
 10
637.86678871067011
 20
674.17627998293574
 30
0.0
 40
3.0
 50
91.999998000000545
 51
180.000010000001
  0
ARC
  5
9F8F
  8
0
  6
CONTINUOUS
 62
     7
 10
638.47933871067028
 20
555.125069982936
 30
0.0
 40
5.0
 50
198.3029200000004
 51
270.0
  0
ARC
  5
9F90
  8
0
  6
CONTINUOUS
 62
     7
 10
606.62411871067036
 20
634.03030998293559
 30
0.0
 40
5.0
 50
271.50000000000267
 51
315.0
  0
ARC
  5
9F91
  8
0
  6
CONTINUOUS
 62
     7
 10
512.86678871066999
 20
383.07739998293607
 30
0.0
 40
3.0
 50
179.999989999999
 51
260.00000000000142
  0
ARC
  5
9F92
  8
0
  6
CONTINUOUS
 62
     7
 10
520.86678871067011
 20
375.57422998293612
 30
0.0
 40
3.0
 50
0.0
 51
79.999998000001099
  0
LINE
  5
9FEF
  8
0
  6
AM_ISO08W050
 10
970.02589441554017
 20
359.36469998293597
 30
0.0
 11
970.02589441554017
 21
686.39892998293601
 31
0.0
  0
LINE
  5
9FF0
  8
0
  6
AM_ISO08W050
 10
817.41852441554033
 20
535.20190998293606
 30
0.0
 11
1120.65447541554
 21
535.20190998293606
 31
0.0
  0
LINE
  5
9FF2
  8
0
  6
CONTINUOUS
 62
     7
 10
1032.0258544155399
 20
535.20190998293606
 30
0.0
 11
1032.0258544155399
 21
515.20190998293594
 31
0.0
  0
LINE
  5
9FF3
  8
0
  6
CONTINUOUS
 62
     7
 10
897.52195441554045
 20
614.77692998293605
 30
0.0
 11
926.71589441554022
 21
585.58295998293602
 31
0.0
  0
LINE
  5
9FF4
  8
0
  6
CONTINUOUS
 62
     7
 10
1049.60084441554
 20
607.70587998293604
 30
0.0
 11
1020.40687441554
 21
578.51190998293566
 31
0.0
  0
LINE
  5
9FF5
  8
0
  6
CONTINUOUS
 62
     7
 10
890.45087441554028
 20
607.70584998293612
 30
0.0
 11
919.64484441554043
 21
578.51187998293585
 31
0.0
  0
LINE
  5
9FF6
  8
0
  6
CENTER
 62
     7
 10
838.51743441554015
 20
666.71036998293596
 30
0.0
 11
862.77158441554013
 21
642.45621998293598
 31
0.0
  0
LINE
  5
9FF7
  8
0
  6
CENTER
 62
     7
 10
837.85059441554029
 20
403.02670998293598
 30
0.0
 11
861.60810441554042
 21
426.78421998293601
 31
0.0
  0
LINE
  5
9FF8
  8
0
  6
CONTINUOUS
 62
     7
 10
827.52589441554028
 20
585.20190998293606
 30
0.0
 11
827.52589441554028
 21
535.20190998293606
 31
0.0
  0
LINE
  5
9FF9
  8
0
  6
CONTINUOUS
 62
     7
 10
920.02589441554017
 20
392.70192998293601
 30
0.0
 11
970.02589441554017
 21
392.70192998293601
 31
0.0
  0
LINE
  5
9FFA
  8
0
  6
CONTINUOUS
 62
     7
 10
848.35401441554029
 20
395.20477998293609
 30
0.0
 11
920.02582441554034
 21
392.70193998293598
 31
0.0
  0
LINE
  5
9FFB
  8
0
  6
CONTINUOUS
 62
     7
 10
830.02872441554018
 20
413.53012998293599
 30
0.0
 11
827.52589441554028
 21
485.20192998293578
 31
0.0
  0
LINE
  5
9FFC
  8
0
  6
CONTINUOUS
 62
     7
 10
1091.6976964155399
 20
395.20479998293598
 30
0.0
 11
1020.02585441554
 21
392.70195998293599
 31
0.0
  0
LINE
  5
9FFD
  8
0
  6
CONTINUOUS
 62
     7
 10
1110.0230434155401
 20
413.53013998293579
 30
0.0
 11
1112.5258744155401
 21
485.20192998293578
 31
0.0
  0
LINE
  5
9FFE
  8
0
  6
CONTINUOUS
 62
     7
 10
1112.5258664155399
 20
485.20190998293612
 30
0.0
 11
1112.5258664155399
 21
535.20190998293606
 31
0.0
  0
LINE
  5
9FFF
  8
0
  6
CENTER
 62
     7
 10
1101.8235044155399
 20
403.40428998293578
 30
0.0
 11
1077.73817441554
 21
427.4896299829357
 31
0.0
  0
LINE
  5
A000
  8
0
  6
CONTINUOUS
 62
     7
 10
827.52589441554028
 20
485.20190998293612
 30
0.0
 11
827.52589441554028
 21
535.20190998293606
 31
0.0
  0
LINE
  5
A001
  8
0
  6
CONTINUOUS
 62
     7
 10
830.02866441554022
 20
656.87372998293597
 30
0.0
 11
827.52582441554046
 21
585.20190998293606
 31
0.0
  0
LINE
  5
A002
  8
0
  6
CONTINUOUS
 62
     7
 10
848.35407441554014
 20
675.19906998293573
 30
0.0
 11
920.02589441554017
 21
677.70190998293594
 31
0.0
  0
LINE
  5
A003
  8
0
  6
CONTINUOUS
 62
     7
 10
1020.0258944155401
 20
392.70192998293601
 30
0.0
 11
970.02589441554017
 21
392.70192998293601
 31
0.0
  0
LINE
  5
A004
  8
0
  6
CONTINUOUS
 62
     7
 10
908.02589441554028
 20
535.20190998293606
 30
0.0
 11
908.02589441554028
 21
515.20190998293594
 31
0.0
  0
LINE
  5
A005
  8
0
  6
CONTINUOUS
 62
     7
 10
1042.52978441554
 20
614.77692998293605
 30
0.0
 11
1013.33581441554
 21
585.58298998293571
 31
0.0
  0
LINE
  5
A006
  8
0
  6
CONTINUOUS
 62
     7
 10
973.52587441554033
 20
642.86688998293607
 30
0.0
 11
973.52587441554033
 21
623.91714998293605
 31
0.0
  0
LINE
  5
A007
  8
0
  6
CONTINUOUS
 62
     7
 10
966.52587441553999
 20
642.86688998293607
 30
0.0
 11
966.52587441553999
 21
623.91714998293605
 31
0.0
  0
LINE
  5
A008
  8
0
  6
CONTINUOUS
 62
     7
 10
864.50339441554036
 20
507.20192998293601
 30
0.0
 11
900.02589441554028
 21
507.20192998293601
 31
0.0
  0
LINE
  5
A009
  8
0
  6
CONTINUOUS
 62
     7
 10
920.02589441554017
 20
677.70190998293594
 30
0.0
 11
970.02589441554017
 21
677.70190998293594
 31
0.0
  0
LINE
  5
A00A
  8
0
  6
CONTINUOUS
 62
     7
 10
1112.5258664155399
 20
585.20190998293606
 30
0.0
 11
1112.5258664155399
 21
535.20190998293606
 31
0.0
  0
LINE
  5
A00B
  8
0
  6
CONTINUOUS
 62
     7
 10
1020.0258944155401
 20
677.70190998293594
 30
0.0
 11
970.02589441554017
 21
677.70190998293594
 31
0.0
  0
LINE
  5
A00C
  8
0
  6
CONTINUOUS
 62
     7
 10
1091.69770341554
 20
675.19906998293573
 30
0.0
 11
1020.02585441554
 21
677.70190998293594
 31
0.0
  0
LINE
  5
A00D
  8
0
  6
CONTINUOUS
 62
     7
 10
1110.02303641554
 20
656.87372998293597
 30
0.0
 11
1112.5258744155401
 21
585.20190998293606
 31
0.0
  0
LINE
  5
A00E
  8
0
  6
CENTER
 62
     7
 10
1101.3292644155399
 20
666.50534998293608
 30
0.0
 11
1076.6102444155399
 21
641.78631998293577
 31
0.0
  0
LINE
  5
A00F
  8
0
  6
CONTINUOUS
 62
     7
 10
1075.5483644155399
 20
507.20192998293601
 30
0.0
 11
1040.0258944155401
 21
507.20192998293601
 31
0.0
  0
LINE
  5
A010
  8
0
  6
CONTINUOUS
 62
     7
 10
1044.6851644155399
 20
382.03044998293598
 30
0.0
 11
1047.8045044155399
 21
393.67198998293611
 31
0.0
  0
LINE
  5
A011
  8
0
  6
CONTINUOUS
 62
     7
 10
907.61405441554029
 20
374.9593699829361
 30
0.0
 11
918.46128441554015
 21
377.86587998293612
 31
0.0
  0
LINE
  5
A012
  8
0
  6
CONTINUOUS
 62
     7
 10
1032.4377044155401
 20
374.9593699829361
 30
0.0
 11
1021.5904644155401
 21
377.86587998293612
 31
0.0
  0
LINE
  5
A013
  8
0
  6
CONTINUOUS
 62
     7
 10
895.36661441554043
 20
382.03044998293598
 30
0.0
 11
892.24726441554026
 21
393.672009982936
 31
0.0
  0
LINE
  5
A014
  8
0
  6
CONTINUOUS
 62
     7
 10
964.02587441554033
 20
559.20190998293594
 30
0.0
 11
976.02587441554044
 21
559.20190998293594
 31
0.0
  0
LINE
  5
A015
  8
0
  6
CONTINUOUS
 62
     7
 10
964.02587441554033
 20
559.20190998293594
 30
0.0
 11
964.02587441554033
 21
551.2019399829361
 31
0.0
  0
LINE
  5
A016
  8
0
  6
CONTINUOUS
 62
     7
 10
976.02587441554044
 20
559.20190998293594
 30
0.0
 11
976.02587441554044
 21
551.2019399829361
 31
0.0
  0
LINE
  5
A017
  8
0
  6
CONTINUOUS
 62
     7
 10
964.02587441554033
 20
551.2019399829361
 30
0.0
 11
976.02587441554044
 21
551.2019399829361
 31
0.0
  0
ARC
  5
A018
  8
0
  6
CONTINUOUS
 62
     7
 10
900.02589441554028
 20
515.20190998293594
 30
0.0
 40
8.0
 50
270.0
 51
0.0
  0
ARC
  5
A019
  8
0
  6
CENTER
 62
     7
 10
970.02589441554017
 20
535.20190998293606
 30
0.0
 40
170.0
 50
307.83183000000099
 51
321.87703999999781
  0
ARC
  5
A01A
  8
0
  6
CONTINUOUS
 62
     7
 10
1023.94243441554
 20
574.97635998293606
 30
0.0
 40
5.0
 50
135.0
 51
216.41631999999831
  0
ARC
  5
A01B
  8
0
  6
CONTINUOUS
 62
     7
 10
901.05750441554017
 20
618.31244998293573
 30
0.0
 40
5.0
 50
129.6872200000015
 51
225.0
  0
ARC
  5
A01C
  8
0
  6
CONTINUOUS
 62
     7
 10
916.10935441554045
 20
574.97635998293606
 30
0.0
 40
5.0
 50
323.58368000000172
 51
45.000001000003799
  0
ARC
  5
A01D
  8
0
  6
CONTINUOUS
 62
     7
 10
886.91535441554015
 20
604.17029998293594
 30
0.0
 40
5.0
 50
45.000001000003799
 51
140.31277999999841
  0
ARC
  5
A01E
  8
0
  6
CONTINUOUS
 62
     7
 10
930.25146441554034
 20
589.11850998293596
 30
0.0
 40
5.0
 50
225.0
 51
306.41631999999828
  0
ARC
  5
A01F
  8
0
  6
CONTINUOUS
 62
     7
 10
970.02589441554017
 20
535.20190998293606
 30
0.0
 40
61.999995999999989
 50
0.0
 51
36.416317999996672
  0
CIRCLE
  5
A020
  8
0
  6
CONTINUOUS
 62
     7
 10
849.81772441554028
 20
655.41006998293574
 30
0.0
 40
9.5
  0
ARC
  5
A021
  8
0
  6
CENTER
 62
     7
 10
970.02589441554017
 20
535.20190998293606
 30
0.0
 40
170.0
 50
128.1879000000005
 51
141.53650999999979
  0
ARC
  5
A022
  8
0
  6
CONTINUOUS
 62
     7
 10
849.01713441554023
 20
656.21066998293577
 30
0.0
 40
19.0
 50
91.999998000000545
 51
177.99999999999619
  0
CIRCLE
  5
A023
  8
0
  6
CONTINUOUS
 62
     7
 10
849.81772441554028
 20
414.99379998293608
 30
0.0
 40
9.5
  0
ARC
  5
A024
  8
0
  6
CONTINUOUS
 62
     7
 10
1040.0258944155401
 20
515.20190998293594
 30
0.0
 40
8.0
 50
179.999989999999
 51
270.0
  0
ARC
  5
A025
  8
0
  6
CONTINUOUS
 62
     7
 10
849.01713441554023
 20
414.19321998293589
 30
0.0
 40
19.0
 50
182.00000000000369
 51
268.0000000000029
  0
CIRCLE
  5
A026
  8
0
  6
CONTINUOUS
 62
     7
 10
970.02589441554017
 20
535.20190998293606
 30
0.0
 40
120.0
  0
ARC
  5
A027
  8
0
  6
CONTINUOUS
 62
     7
 10
1091.0346104155401
 20
414.19321998293589
 30
0.0
 40
19.0
 50
271.99999999999721
 51
357.99999999999642
  0
CIRCLE
  5
A028
  8
0
  6
CONTINUOUS
 62
     7
 10
1090.2340194155399
 20
414.99379998293608
 30
0.0
 40
9.5
  0
ARC
  5
A029
  8
0
  6
CONTINUOUS
 62
     7
 10
970.02589441554017
 20
535.20190998293606
 30
0.0
 40
61.999995999999989
 50
53.583681000000588
 51
126.41631999999829
  0
ARC
  5
A02A
  8
0
  6
CONTINUOUS
 62
     7
 10
970.02589441554017
 20
535.20190998293606
 30
0.0
 40
61.999995999999989
 50
142.1149900000031
 51
180.000010000001
  0
ARC
  5
A02B
  8
0
  6
CONTINUOUS
 62
     7
 10
1053.1363944155401
 20
604.17029998293594
 30
0.0
 40
5.0
 50
39.687224000002047
 51
135.0
  0
ARC
  5
A02C
  8
0
  6
CONTINUOUS
 62
     7
 10
1009.80028441554
 20
589.11850998293596
 30
0.0
 40
5.0
 50
233.58368000000169
 51
315.0
  0
ARC
  5
A02D
  8
0
  6
CONTINUOUS
 62
     7
 10
970.02589441554017
 20
497.20192998293589
 30
0.0
 40
122.0
 50
22.571981999999579
 51
55.326819999998243
  0
ARC
  5
A02E
  8
0
  6
CONTINUOUS
 62
     7
 10
978.52587441554022
 20
642.86688998293607
 30
0.0
 40
5.0
 50
85.485944000000956
 51
180.000010000001
  0
ARC
  5
A02F
  8
0
  6
CONTINUOUS
 62
     7
 10
961.52587441554022
 20
642.86688998293607
 30
0.0
 40
5.0
 50
0.0
 51
94.514061000000368
  0
ARC
  5
A030
  8
0
  6
CONTINUOUS
 62
     7
 10
961.52587441554022
 20
623.91714998293605
 30
0.0
 40
5.0
 50
273.83763000000238
 51
0.0
  0
ARC
  5
A031
  8
0
  6
CONTINUOUS
 62
     7
 10
1038.9942744155401
 20
618.31244998293573
 30
0.0
 40
5.0
 50
315.0
 51
50.312775000000542
  0
ARC
  5
A032
  8
0
  6
CONTINUOUS
 62
     7
 10
970.02589441554017
 20
497.20192998293589
 30
0.0
 40
122.0
 50
124.67318000000169
 51
157.42801999999691
  0
ARC
  5
A033
  8
0
  6
CONTINUOUS
 62
     7
 10
970.02589441554017
 20
497.20192998293589
 30
0.0
 40
122.0
 50
60.143060000001931
 51
86.162372000003458
  0
ARC
  5
A034
  8
0
  6
CENTER
 62
     7
 10
970.02589441554017
 20
535.20190998293606
 30
0.0
 40
170.0
 50
217.84322999999799
 51
231.86049000000071
  0
CIRCLE
  5
A035
  8
0
  6
CONTINUOUS
 62
     7
 10
1090.2340194155399
 20
655.41006998293574
 30
0.0
 40
9.5
  0
ARC
  5
A036
  8
0
  6
CONTINUOUS
 62
     7
 10
1091.0346104155401
 20
656.21066998293577
 30
0.0
 40
19.0
 50
2.000000000003725
 51
88.000000000002785
  0
CIRCLE
  5
A037
  8
0
  6
CONTINUOUS
 62
     7
 10
970.02589441554017
 20
535.20190998293606
 30
0.0
 40
113.0
  0
ARC
  5
A038
  8
0
  6
CENTER
 62
     7
 10
970.02589441554017
 20
535.20190998293606
 30
0.0
 40
170.0
 50
37.843229999998073
 51
51.939940999999457
  0
ARC
  5
A039
  8
0
  6
CONTINUOUS
 62
     7
 10
864.50339441554036
 20
512.20190998293594
 30
0.0
 40
5.0
 50
192.2960399999989
 51
270.0
  0
ARC
  5
A03A
  8
0
  6
CONTINUOUS
 62
     7
 10
1075.5483644155399
 20
512.20190998293594
 30
0.0
 40
5.0
 50
270.0
 51
347.70394999999922
  0
ARC
  5
A03B
  8
0
  6
CONTINUOUS
 62
     7
 10
905.02589441554017
 20
384.61864998293589
 30
0.0
 40
10.0
 50
195.00001000000131
 51
285.0000000000008
  0
ARC
  5
A03C
  8
0
  6
CONTINUOUS
 62
     7
 10
978.52587441554022
 20
623.91714998293605
 30
0.0
 40
5.0
 50
179.999989999999
 51
266.16236000000089
  0
ARC
  5
A03D
  8
0
  6
CONTINUOUS
 62
     7
 10
970.02589441554017
 20
497.20192998293589
 30
0.0
 40
122.0
 50
93.837625999997201
 51
119.856939999998
  0
ARC
  5
A03E
  8
0
  6
CONTINUOUS
 62
     7
 10
970.02589441554017
 20
497.20192998293589
 30
0.0
 40
130.0
 50
246.63104000000291
 51
293.368959999997
  0
CIRCLE
  5
A03F
  8
0
  6
CONTINUOUS
 62
     7
 10
970.02589441554017
 20
535.20190998293606
 30
0.0
 40
41.0
  0
ARC
  5
A040
  8
0
  6
CONTINUOUS
 62
     7
 10
1035.0258944155401
 20
384.61864998293589
 30
0.0
 40
10.0
 50
254.99999999999929
 51
344.99999999999932
  0
CIRCLE
  5
A041
  8
0
  6
CONTINUOUS
 62
     7
 10
970.02589441554017
 20
535.20190998293606
 30
0.0
 40
5.0
  0
CIRCLE
  5
A042
  8
0
  6
CONTINUOUS
 62
     7
 10
970.02589441554017
 20
535.20190998293606
 30
0.0
 40
3.5
  0
ARC
  5
A043
  8
0
  6
CONTINUOUS
 62
     7
 10
970.02589441554017
 20
535.20190998293606
 30
0.0
 40
20.999998000000001
 50
106.6015499999988
 51
73.398451999997818
  0
TEXT
  5
A2B6
  8
0
  6
CONTINUOUS
 62
     0
 10
822.05718376263849
 20
839.67539700922566
 30
0.0
 40
15.0
  1
VX08-120EBF~VX08-200EBF
  0
ENDSEC
  0
EOF
