  0
SECTION
  2
HEADER
  9
$ACADVER
  1
AC1009
  9
$INSBASE
 10
0.0
 20
0.0
 30
0.0
  9
$EXTMIN
 10
116.96337826658051
 20
331.54794456913368
 30
-0.000000000000013
  9
$EXTMAX
 10
989.61642361197255
 20
860.3654769381593
 30
0.0000000000000023
  9
$LIMMIN
 10
0.0481838304701796
 20
0.0541068901682138
  9
$LIMMAX
 10
1138.04818383047
 20
740.05410689016833
  9
$ORTHOMODE
 70
     1
  9
$REGENMODE
 70
     1
  9
$FILLMODE
 70
     1
  9
$QTEXTMODE
 70
     0
  9
$MIRRTEXT
 70
     0
  9
$DRAGMODE
 70
     2
  9
$LTSCALE
 40
1.0
  9
$OSMODE
 70
   551
  9
$ATTMODE
 70
     1
  9
$TEXTSIZE
 40
2.5
  9
$TRACEWID
 40
1.0
  9
$TEXTSTYLE
  7
STANDARD
  9
$CLAYER
  8
0
  9
$CELTYPE
  6
BYLAYER
  9
$CECOLOR
 62
   256
  9
$DIMSCALE
 40
1.0
  9
$DIMASZ
 40
2.0
  9
$DIMEXO
 40
1.0
  9
$DIMDLI
 40
8.0
  9
$DIMRND
 40
0.0
  9
$DIMDLE
 40
0.0
  9
$DIMEXE
 40
1.0
  9
$DIMTP
 40
-0.025
  9
$DIMTM
 40
0.043
  9
$DIMTXT
 40
2.5
  9
$DIMCEN
 40
0.0
  9
$DIMTSZ
 40
0.0
  9
$DIMTOL
 70
     0
  9
$DIMLIM
 70
     0
  9
$DIMTIH
 70
     0
  9
$DIMTOH
 70
     0
  9
$DIMSE1
 70
     0
  9
$DIMSE2
 70
     0
  9
$DIMTAD
 70
     3
  9
$DIMZIN
 70
     8
  9
$DIMBLK
  1

  9
$DIMASO
 70
     1
  9
$DIMSHO
 70
     1
  9
$DIMPOST
  1

  9
$DIMAPOST
  1
"
  9
$DIMALT
 70
     0
  9
$DIMALTD
 70
     2
  9
$DIMALTF
 40
0.0393701
  9
$DIMLFAC
 40
1.0
  9
$DIMTOFL
 70
     1
  9
$DIMTVP
 40
0.0
  9
$DIMTIX
 70
     0
  9
$DIMSOXD
 70
     0
  9
$DIMSAH
 70
     0
  9
$DIMBLK1
  1

  9
$DIMBLK2
  1

  9
$DIMSTYLE
  2
AM_JIS
  9
$DIMCLRD
 70
     2
  9
$DIMCLRE
 70
     2
  9
$DIMCLRT
 70
     4
  9
$DIMTFAC
 40
0.71
  9
$DIMGAP
 40
1.5
  9
$LUNITS
 70
     2
  9
$LUPREC
 70
     2
  9
$SKETCHINC
 40
1.0
  9
$FILLETRAD
 40
0.0
  9
$AUNITS
 70
     0
  9
$AUPREC
 70
     0
  9
$MENU
  1
.
  9
$ELEVATION
 40
0.0
  9
$PELEVATION
 40
0.0
  9
$THICKNESS
 40
0.0
  9
$LIMCHECK
 70
     0
  9
$BLIPMODE
 70
     0
  9
$CHAMFERA
 40
2.0
  9
$CHAMFERB
 40
2.0
  9
$SKPOLY
 70
     0
  9
$TDCREATE
 40
2456829.3841110538
  9
$TDUPDATE
 40
2458541.386834085
  9
$TDINDWG
 40
1.3220938542
  9
$TDUSRTIMER
 40
1.3220929282
  9
$USRTIMER
 70
     1
  9
$ANGBASE
 50
0.0
  9
$ANGDIR
 70
     0
  9
$PDMODE
 70
     0
  9
$PDSIZE
 40
0.0
  9
$PLINEWID
 40
0.0
  9
$COORDS
 70
     1
  9
$SPLFRAME
 70
     0
  9
$SPLINETYPE
 70
     6
  9
$SPLINESEGS
 70
     8
  9
$ATTDIA
 70
     1
  9
$ATTREQ
 70
     1
  9
$HANDLING
 70
     1
  9
$HANDSEED
  5
A510
  9
$SURFTAB1
 70
     6
  9
$SURFTAB2
 70
     6
  9
$SURFTYPE
 70
     6
  9
$SURFU
 70
     6
  9
$SURFV
 70
     6
  9
$UCSNAME
  2

  9
$UCSORG
 10
0.0
 20
0.0
 30
0.0
  9
$UCSXDIR
 10
1.0
 20
0.0
 30
0.0
  9
$UCSYDIR
 10
0.0
 20
1.0
 30
0.0
  9
$PUCSNAME
  2

  9
$PUCSORG
 10
0.0
 20
0.0
 30
0.0
  9
$PUCSXDIR
 10
1.0
 20
0.0
 30
0.0
  9
$PUCSYDIR
 10
0.0
 20
1.0
 30
0.0
  9
$USERI1
 70
     0
  9
$USERI2
 70
     0
  9
$USERI3
 70
     0
  9
$USERI4
 70
     0
  9
$USERI5
 70
     0
  9
$USERR1
 40
0.0
  9
$USERR2
 40
0.0
  9
$USERR3
 40
0.0
  9
$USERR4
 40
0.0
  9
$USERR5
 40
0.0
  9
$WORLDVIEW
 70
     1
  9
$SHADEDGE
 70
     3
  9
$SHADEDIF
 70
    70
  9
$TILEMODE
 70
     1
  9
$MAXACTVP
 70
    64
  9
$PLIMCHECK
 70
     0
  9
$PEXTMIN
 10
1.0000000000000000E+020
 20
1.0000000000000000E+020
 30
1.0000000000000000E+020
  9
$PEXTMAX
 10
-1.0000000000000000E+020
 20
-1.0000000000000000E+020
 30
-1.0000000000000000E+020
  9
$PLIMMIN
 10
0.0
 20
0.0
  9
$PLIMMAX
 10
420.0
 20
297.0
  9
$UNITMODE
 70
     0
  9
$VISRETAIN
 70
     1
  9
$PLINEGEN
 70
     0
  9
$PSLTSCALE
 70
     1
  0
ENDSEC
  0
SECTION
  2
TABLES
  0
TABLE
  2
VPORT
 70
     1
  0
VPORT
  2
*ACTIVE
 70
     0
 10
0.0
 20
0.0
 11
1.0
 21
1.0
 12
553.28990093927655
 22
595.95671075364646
 13
0.0
 23
0.0
 14
10.0
 24
10.0
 15
40.0
 25
40.0
 16
0.0
 26
0.0
 36
1.0
 17
0.0
 27
0.0
 37
0.0
 40
532.44785867819508
 41
1.7571592210767459
 42
50.0
 43
0.0
 44
0.0
 50
0.0
 51
0.0
 71
    16
 72
  1000
 73
     1
 74
     3
 75
     0
 76
     0
 77
     0
 78
     0
  0
ENDTAB
  0
TABLE
  2
LTYPE
 70
    24
  0
LTYPE
  2
CONTINUOUS
 70
     0
  3
Solid line
 72
    65
 73
     0
 40
0.0
  0
LTYPE
  2
CENTER
 70
     0
  3
Center ____ _ ____ _ ____ _ ____ _ ____ _ ____
 72
    65
 73
     4
 40
50.799999999999997
 49
31.75
 49
-6.3499999999999979
 49
6.3499999999999979
 49
-6.3499999999999979
  0
LTYPE
  2
AM_ISO02W050
 70
     0
  3
__ __ __ __ __ __ __ __ __ __ __ __ __ __ __
 72
    65
 73
     2
 40
7.5
 49
6.0
 49
-1.5
  0
LTYPE
  2
AM_ISO08W050
 70
     0
  3
____ . ____ . ____ . ____ . ____ . ____ . ____
 72
    65
 73
     4
 40
18.0
 49
12.0
 49
-1.5
 49
3.0
 49
-1.5
  0
LTYPE
  2
AM_ISO09W050
 70
     0
  3
_____ . . _____ . . _____ . . ____ .. ____
 72
    65
 73
     6
 40
22.5
 49
12.0
 49
-1.5
 49
3.0
 49
-1.5
 49
3.0
 49
-1.5
  0
LTYPE
  2
AMCONSTR
 70
     0
  3
_______________________
 72
    65
 73
     2
 40
9999.0
 49
9999.0
 49
0.0
  0
LTYPE
  2
AM_ISO08W050X2
 70
     0
  3
__ . __ . __ . __ . __ . __
 72
    65
 73
     4
 40
9.0
 49
6.0
 49
-0.75
 49
1.5
 49
-0.75
  0
LTYPE
  2
AM_ISO02W050X2
 70
     0
  3
 _ _ _ _ _ _ _ _ _ _ _ _
 72
    65
 73
     2
 40
3.75
 49
3.0
 49
-0.75
  0
LTYPE
  2
AMZIGZAG
 70
     0
  3
/\/-/\/-/\/-/\/-/\/-/\/
 72
    65
 73
     2
 40
11.0001
 49
0.0001
 49
-11.0
  0
LTYPE
  2
ACANSTGBM
 70
     0
  3
__ . . __ . .
 72
    65
 73
     6
 40
9.0
 49
4.0
 49
-1.0
 49
1.0
 49
-1.0
 49
1.0
 49
-1.0
  0
LTYPE
  2
ACANSTGLM
 70
     0
  3
_ _ _ _ _
 72
    65
 73
     2
 40
3.0
 49
2.0
 49
-1.0
  0
LTYPE
  2
ACISOWELD
 70
     0
  3
_ _ _ _ _
 72
    65
 73
     2
 40
2.0
 49
2.0
 49
-1.0
  0
LTYPE
  2
ACISOTGB
 70
     0
  3
__ . . __ . .
 72
    65
 73
     6
 40
9.0
 49
4.0
 49
-1.0
 49
1.0
 49
-1.0
 49
1.0
 49
-1.0
  0
LTYPE
  2
ACISOTGL
 70
     0
  3
_ _ _ _ _
 72
    65
 73
     2
 40
3.0
 49
2.0
 49
-1.0
  0
LTYPE
  2
ACJISTGB
 70
     0
  3
__ . . __ . .
 72
    65
 73
     6
 40
9.0
 49
4.0
 49
-1.0
 49
1.0
 49
-1.0
 49
1.0
 49
-1.0
  0
LTYPE
  2
ACJISTGL
 70
     0
  3
_ _ _ _ _
 72
    65
 73
     2
 40
3.0
 49
2.0
 49
-1.0
  0
LTYPE
  2
HIDDEN
 70
     0
  3
Hidden __ __ __ __ __ __ __ __ __ __ __ __ __ _
 72
    65
 73
     2
 40
9.5249999999999968
 49
6.349999999999997
 49
-3.174999999999998
  0
LTYPE
  2
PHANTOM2
 70
     0
  3
Phantom (.5x) ___ _ _ ___ _ _ ___ _ _ ___ _ _
 72
    65
 73
     6
 40
31.75
 49
15.875
 49
-3.174999999999998
 49
3.174999999999998
 49
-3.174999999999998
 49
3.174999999999998
 49
-3.174999999999998
  0
LTYPE
  2
CENTER2
 70
     0
  3
Center (.5x) ___ _ ___ _ ___ _ ___ _ ___ _ ___
 72
    65
 73
     4
 40
1.125
 49
0.75
 49
-0.125
 49
0.125
 49
-0.125
  0
LTYPE
  2
HIDDEN2
 70
     0
  3
Hidden (.5x) _ _ _ _ _ _ _ _ _ _ _ _ _ _ _ _ _
 72
    65
 73
     2
 40
0.1875
 49
0.125
 49
-0.0625
  0
LTYPE
  2
AMZIGZAG2
 70
     0
  3
/\/-/\/-/\/-/\/-/\/-/\/
 72
    65
 73
     2
 40
0.4401
 49
0.0001
 49
-0.4400000000000002
  0
LTYPE
  2
ACANSTGB
 70
     0
  3
__ . . __ . .
 72
    65
 73
     6
 40
0.35433070866
 49
0.15748031496
 49
-0.03937007874
 49
0.03937007874
 49
-0.03937007874
 49
0.03937007874
 49
-0.03937007874
  0
LTYPE
  2
ACANSTGL
 70
     0
  3
_ _ _ _ _
 72
    65
 73
     2
 40
0.11811023622
 49
0.07874015748
 49
-0.03937007874
  0
ENDTAB
  0
TABLE
  2
LAYER
 70
     5
  0
LAYER
  2
0
 70
     0
 62
     7
  6
CONTINUOUS
  0
LAYER
  2
DEFPOINTS
 70
     0
 62
     7
  6
CONTINUOUS
  0
LAYER
  2
AM_0
 70
     0
 62
     7
  6
CONTINUOUS
  0
LAYER
  2
AM_CL
 70
     0
 62
     1
  6
AMCONSTR
  0
LAYER
  2
AM_5
 70
     0
 62
     2
  6
CONTINUOUS
  0
ENDTAB
  0
TABLE
  2
STYLE
 70
     8
  0
STYLE
  2
STANDARD
 70
     0
 40
0.0
 41
0.7400000000000003
 50
0.0
 71
     0
 42
2.5
  3
txt.shx
  4
bigfont.shx
  0
STYLE
  2

 70
     1
 40
0.0
 41
1.0
 50
0.0
 71
     0
 42
2.5
  3
ltypeshp.shx
  4

  0
STYLE
  2
ACANSTS
 70
     0
 40
1.0
 41
1.0
 50
0.0
 71
     0
 42
2.5
  3
romans.shx
  4
bigfont.shx
  0
STYLE
  2
ACANSGDT
 70
     0
 40
0.0
 41
1.0
 50
0.0
 71
     0
 42
2.5
  3
amgdtans.shx
  4

  0
STYLE
  2
ACISOTS
 70
     0
 40
1.0
 41
1.0
 50
0.0
 71
     0
 42
2.5
  3
isocp.shx
  4
extfont.shx
  0
STYLE
  2
ACISOGDT
 70
     0
 40
0.0
 41
1.0
 50
0.0
 71
     0
 42
2.5
  3
amgdt.shx
  4

  0
STYLE
  2
ACJISGDT
 70
     0
 40
0.0
 41
1.0
 50
0.0
 71
     0
 42
2.5
  3
amgdt.shx
  4

  0
STYLE
  2
ACJISTS
 70
     0
 40
1.0
 41
1.0
 50
0.0
 71
     0
 42
2.5
  3
isocp.shx
  4
extfont.shx
  0
ENDTAB
  0
TABLE
  2
VIEW
 70
     6
  0
VIEW
  2
AM_VIEW1
 70
     0
 40
370.00000000000023
 10
391.11579948883332
 20
555.05410689016833
 41
782.13523131672605
 11
0.0
 21
0.0
 31
1.0
 12
0.0
 22
0.0
 32
0.0
 42
50.0
 43
0.0
 44
0.0
 50
0.0
 71
    16
  0
VIEW
  2
AM_VIEW2
 70
     0
 40
370.00000000000023
 10
746.98056817210693
 20
555.05410689016833
 41
782.13523131672605
 11
0.0
 21
0.0
 31
1.0
 12
0.0
 22
0.0
 32
0.0
 42
50.0
 43
0.0
 44
0.0
 50
0.0
 71
    16
  0
VIEW
  2
AM_VIEW3
 70
     0
 40
370.00000000000023
 10
391.11579948883332
 20
185.05410689016821
 41
782.13523131672605
 11
0.0
 21
0.0
 31
1.0
 12
0.0
 22
0.0
 32
0.0
 42
50.0
 43
0.0
 44
0.0
 50
0.0
 71
    16
  0
VIEW
  2
AM_VIEW4
 70
     0
 40
370.00000000000023
 10
746.98056817210693
 20
185.05410689016821
 41
782.13523131672605
 11
0.0
 21
0.0
 31
1.0
 12
0.0
 22
0.0
 32
0.0
 42
50.0
 43
0.0
 44
0.0
 50
0.0
 71
    16
  0
VIEW
  2
AM_VIEW5
 70
     0
 40
370.00000000000023
 10
569.04818383047029
 20
370.05410689016833
 41
782.13523131672616
 11
0.0
 21
0.0
 31
1.0
 12
0.0
 22
0.0
 32
0.0
 42
50.0
 43
0.0
 44
0.0
 50
0.0
 71
    16
  0
VIEW
  2
AM_VIEW6
 70
     0
 40
739.99260000000015
 10
569.04818383047029
 20
370.05410689016833
 41
1564.254819928826
 11
0.0
 21
0.0
 31
1.0
 12
0.0
 22
0.0
 32
0.0
 42
50.0
 43
0.0
 44
0.0
 50
0.0
 71
    16
  0
ENDTAB
  0
TABLE
  2
UCS
 70
     0
  0
ENDTAB
  0
TABLE
  2
APPID
 70
   162
  0
APPID
  2
ACAD
 70
     0
  0
APPID
  2
ACADANNOTATIVE
 70
     0
  0
APPID
  2
ACAD_MLEADERVER
 70
     0
  0
APPID
  2
MCAD_NO_VIS
 70
     0
  0
APPID
  2
ACAD_TEMP_GRAPHIC
 70
     0
  0
APPID
  2
AD_DRAW
 70
     0
  0
APPID
  2
ACATTRIBSERVICES
 70
     0
  0
APPID
  2
DESIGNERASSEMBLIES
 70
     0
  0
APPID
  2
ACADM_DIM_EDIT
 70
     0
  0
APPID
  2
AMDT_DM_ADJ
 70
     0
  0
APPID
  2
GENIUS_GENDIMSH_14
 70
     0
  0
APPID
  2
GEVID1057795304
 70
     0
  0
APPID
  2
GEVDC
 70
     0
  0
APPID
  2
GEVCON
 70
     0
  0
APPID
  2
GENIUS_GENBH_13
 70
     0
  0
APPID
  2
GENIUS_GENOENT_13
 70
     0
  0
APPID
  2
GENIUS_GENOBJ-NBEHI-BHF_13
 70
     0
  0
APPID
  2
GENIUS_GENOLIS_13
 70
     0
  0
APPID
  2
GENIUS_GENODEF_13
 70
     0
  0
APPID
  2
GENIUS_GENOREF_13
 70
     0
  0
APPID
  2
GENIUS_GENOBJ-NBEHI-BHB_13
 70
     0
  0
APPID
  2
GENIUS_GENOBJ-F-SCPASSM_13
 70
     0
  0
APPID
  2
GENIUS_GENDTOL_13
 70
     0
  0
APPID
  2
GENIUS_GENTRA_14
 70
     0
  0
APPID
  2
ASURF_PCURVE_APPNAME
 70
     0
  0
APPID
  2
GENIUS_GENCFG_13
 70
     0
  0
APPID
  2
GENIUS_GE3CFG0_13
 70
     0
  0
APPID
  2
GENIUS_GENCFG0_13
 70
     0
  0
APPID
  2
GENIUS_GENCFG1_13
 70
     0
  0
APPID
  2
GENIUS_GENCFG2_13
 70
     0
  0
APPID
  2
GENIUS_GENCFG3_13
 70
     0
  0
APPID
  2
GENIUS_GENCFG4_13
 70
     0
  0
APPID
  2
GENIUS_GEVCFG0_13
 70
     0
  0
APPID
  2
GENIUS_GENOBJ-N-TIT_13
 70
     0
  0
APPID
  2
GENIUS_GENTITLE_13
 70
     0
  0
APPID
  2
GENIUS_GENSCREG_15
 70
     0
  0
APPID
  2
GENIUS_GENOBJ-N-SDF_13
 70
     0
  0
APPID
  2
GENIUS_GENFIL_13
 70
     0
  0
APPID
  2
GENIUS_GENOBJ-N-CHA_13
 70
     0
  0
APPID
  2
GENIUS_GEFSH_13
 70
     0
  0
APPID
  2
GENIUS_GENOBJ-F-SHS_13
 70
     0
  0
APPID
  2
GENIUS_GENOBJ-N-CEN_13
 70
     0
  0
APPID
  2
GENIUS_GENREC_14
 70
     0
  0
APPID
  2
GENIUS_GENOBJ-N-REC_13
 70
     0
  0
APPID
  2
GENIUS_GENOBJ-N-HTC_13
 70
     0
  0
APPID
  2
GENIUS_GENHATCH_13
 70
     0
  0
APPID
  2
ACAD_PSEXT
 70
     0
  0
APPID
  2
ACAD_EXEMPT_FROM_CAD_STANDARDS
 70
     0
  0
APPID
  2
ACAECLAYERSTANDARD
 70
     0
  0
APPID
  2
GENIUS_GENCEN_19
 70
     0
  0
APPID
  2
ACAD_DSTYLE_DIMINSPECT
 70
     0
  0
APPID
  2
ACAD_DSTYLE_DIMANGULAR_EXT
 70
     0
  0
APPID
  2
ACADANNOPO
 70
     0
  0
APPID
  2
ACAD_NAV_VCDISPLAY
 70
     0
  0
APPID
  2
GENIUS_GENOBJ-N-FIL_13
 70
     0
  0
APPID
  2
ACAUTHENVIRON
 70
     0
  0
APPID
  2
ACDBDYNAMICBLOCKTRUENAME
 70
     0
  0
APPID
  2
ACDBDYNAMICBLOCKGUID
 70
     0
  0
APPID
  2
ACDBBLOCKREPETAG
 70
     0
  0
APPID
  2
ACAD_DSTYLE_DIMBREAK
 70
     0
  0
APPID
  2
ACAD_DSTYLE_DIMJAG
 70
     0
  0
APPID
  2
DCO15
 70
     0
  0
APPID
  2
GENIUS_DUMCFG0_13
 70
     0
  0
APPID
  2
ACAD_DSTYLE_DIMTEXT_FILL
 70
     0
  0
APPID
  2
AMG_2DHIDE
 70
     0
  0
APPID
  2
GENIUS_GEFSHEP_13
 70
     0
  0
APPID
  2
GENIUS_GENOBJ-F-SHE_13
 70
     0
  0
APPID
  2
GENIUS_GEFSHE_13
 70
     0
  0
APPID
  2
ACAD_DIMASSOC_DIMLFAC
 70
     0
  0
APPID
  2
ACAD_DIMASSOC_CALC_DIMLFAC
 70
     0
  0
APPID
  2
ACAD_DIMASSOC_OVERRIDDEN_D
 70
     0
  0
APPID
  2
GENIUS_GENOBJ-F-SHSV_13
 70
     0
  0
APPID
  2
GENIUS_GEFWELD_13
 70
     0
  0
APPID
  2
GENIUS_GENOBJ-N-CRS_13
 70
     0
  0
APPID
  2
GENIUS_GENOBJ-N-RSBK_13
 70
     0
  0
APPID
  2
GENIUS_GENOBJ-N-LIB_13
 70
     0
  0
APPID
  2
GENIUS_GENSCALE_13
 70
     0
  0
APPID
  2
GENIUS_GENHINW_13
 70
     0
  0
APPID
  2
GENIUS_FIRSTVISTXT_14
 70
     0
  0
APPID
  2
GENIUS_GENOBJ-N-LEADER_13
 70
     0
  0
APPID
  2
GENIUS_GENDREL_13
 70
     0
  0
APPID
  2
GEVPT
 70
     0
  0
APPID
  2
GEVIT
 70
     0
  0
APPID
  2
VCC
 70
     0
  0
APPID
  2
GENBH
 70
     0
  0
APPID
  2
GEVMK
 70
     0
  0
APPID
  2
GENIUS_GENOBJ-F-DESC_13
 70
     0
  0
APPID
  2
GENIUS_GEFDESC_14
 70
     0
  0
APPID
  2
GENIUS_GENOBJ-F-FEAT_13
 70
     0
  0
APPID
  2
GENIUS_GEFFEAT_14
 70
     0
  0
APPID
  2
GENIUS_GEFPARTINS_13
 70
     0
  0
APPID
  2
GENIUS_GENSCREG_13
 70
     0
  0
APPID
  2
GENIUS_GEFSHP_13
 70
     0
  0
APPID
  2
GEVID1025574798
 70
     0
  0
APPID
  2
GEVID1025574769
 70
     0
  0
APPID
  2
GEVID1025757451
 70
     0
  0
APPID
  2
GEVID1240528327
 70
     0
  0
APPID
  2
AMG_2DSTRUCT_BTR
 70
     0
  0
APPID
  2
ACADM_2DVIEW_IGN_NOTIFY
 70
     0
  0
APPID
  2
GEVID1240528328
 70
     0
  0
APPID
  2
GEVID1240528329
 70
     0
  0
APPID
  2
GEVRADREF
 70
     0
  0
APPID
  2
GEVID1240528330
 70
     0
  0
APPID
  2
GEVID1240528331
 70
     0
  0
APPID
  2
GEVID1240528332
 70
     0
  0
APPID
  2
GEVID1240791080
 70
     0
  0
APPID
  2
GEVID1240791081
 70
     0
  0
APPID
  2
GEVID1240791082
 70
     0
  0
APPID
  2
GEVID1240791083
 70
     0
  0
APPID
  2
GEVID1240791084
 70
     0
  0
APPID
  2
GEVID1240791085
 70
     0
  0
APPID
  2
GEVID1240791086
 70
     0
  0
APPID
  2
GEVID1240791087
 70
     0
  0
APPID
  2
GEVID1240791088
 70
     0
  0
APPID
  2
GEVID1240791089
 70
     0
  0
APPID
  2
GEVID1240791090
 70
     0
  0
APPID
  2
GEVID1240791091
 70
     0
  0
APPID
  2
GEVID1240791092
 70
     0
  0
APPID
  2
GEVID1240791093
 70
     0
  0
APPID
  2
GEVID1240791094
 70
     0
  0
APPID
  2
GEVID1240791095
 70
     0
  0
APPID
  2
GEVID1240791096
 70
     0
  0
APPID
  2
GEVID1240791097
 70
     0
  0
APPID
  2
GEVID1240791098
 70
     0
  0
APPID
  2
GEVID1240791099
 70
     0
  0
APPID
  2
GEVID1240791100
 70
     0
  0
APPID
  2
GEVID1240791101
 70
     0
  0
APPID
  2
GEVID1240791102
 70
     0
  0
APPID
  2
GEVID1240791103
 70
     0
  0
APPID
  2
GEVID1240791104
 70
     0
  0
APPID
  2
GEVID1240791105
 70
     0
  0
APPID
  2
GEVID1240875381
 70
     0
  0
APPID
  2
GEVID1240875382
 70
     0
  0
APPID
  2
GEVID1240875383
 70
     0
  0
APPID
  2
GEVID1240875384
 70
     0
  0
APPID
  2
GEVID1240875385
 70
     0
  0
APPID
  2
GEVID1240875386
 70
     0
  0
APPID
  2
GEVID1240875387
 70
     0
  0
APPID
  2
GEVID1240875388
 70
     0
  0
APPID
  2
GEVID1240875389
 70
     0
  0
APPID
  2
GEVID1240875390
 70
     0
  0
APPID
  2
GEVID1240875391
 70
     0
  0
APPID
  2
GEVID1240875392
 70
     0
  0
APPID
  2
GEVID1240875393
 70
     0
  0
APPID
  2
GEVID1240875394
 70
     0
  0
APPID
  2
GEVID1240875395
 70
     0
  0
APPID
  2
GEVID1240875396
 70
     0
  0
APPID
  2
GEVID1240875397
 70
     0
  0
APPID
  2
GEVID1240875398
 70
     0
  0
APPID
  2
GEVID1240875399
 70
     0
  0
APPID
  2
GEVID1240908996
 70
     0
  0
APPID
  2
GEVID1240908997
 70
     0
  0
APPID
  2
GEVID1240908998
 70
     0
  0
APPID
  2
GEVID1240908999
 70
     0
  0
APPID
  2
GEVID1240909000
 70
     0
  0
APPID
  2
GENIUS_GENOBJ-N-ZOO_13
 70
     0
  0
APPID
  2
GENIUS_GENZOO_17
 70
     0
  0
APPID
  2
ACAD_DSTYLE_DIMRADIAL_EXTENSION
 70
     0
  0
APPID
  2
GENIUS_GE3SECT_13
 70
     0
  0
APPID
  2
GEV_VCCNULL_SWITCH_OFF
 70
     0
  0
APPID
  2
ACAD_DSTYLE_DIMTALN
 70
     0
  0
APPID
  2
CONTENTBLOCKDESCRIPTION
 70
     0
  0
ENDTAB
  0
TABLE
  2
DIMSTYLE
 70
    22
  0
DIMSTYLE
  2
AM_ANSI
 70
     0
  3

  4
"
  5

  6

  7

 40
1.0
 41
2.5
 42
1.0
 43
10.0
 44
1.0
 45
0.0
 46
0.0
 47
0.1
 48
0.1
140
3.5
141
0.0
142
0.0
143
0.0393701
144
1.0
145
0.0
146
0.71
147
1.5
 71
     0
 72
     0
 73
     1
 74
     1
 75
     0
 76
     0
 77
     0
 78
     8
170
     0
171
     2
172
     0
173
     0
174
     0
175
     0
176
     2
177
     2
178
     4
  0
DIMSTYLE
  2
AM_ANSI$3
 70
     0
  3

  4
"
  5

  6

  7

 40
1.0
 41
2.5
 42
1.0
 43
10.0
 44
1.0
 45
0.0
 46
0.0
 47
0.1
 48
0.1
140
3.5
141
0.0
142
0.0
143
0.0393701
144
1.0
145
0.0
146
0.71
147
1.5
 71
     0
 72
     0
 73
     1
 74
     1
 75
     0
 76
     0
 77
     0
 78
     8
170
     0
171
     2
172
     0
173
     0
174
     0
175
     0
176
     2
177
     2
178
     4
  0
DIMSTYLE
  2
AM_ANSI$4
 70
     0
  3

  4
"
  5

  6

  7

 40
1.0
 41
2.5
 42
1.0
 43
10.0
 44
1.0
 45
0.0
 46
0.0
 47
0.1
 48
0.1
140
3.5
141
0.0
142
0.0
143
0.0393701
144
1.0
145
0.0
146
0.71
147
1.5
 71
     0
 72
     0
 73
     1
 74
     1
 75
     0
 76
     0
 77
     0
 78
     8
170
     0
171
     2
172
     0
173
     0
174
     0
175
     0
176
     2
177
     2
178
     4
  0
DIMSTYLE
  2
AM_ANSI$7
 70
     0
  3

  4
"
  5

  6

  7

 40
1.0
 41
2.5
 42
1.0
 43
10.0
 44
1.0
 45
0.0
 46
0.0
 47
0.1
 48
0.1
140
5.0
141
0.0
142
0.0
143
0.0393701
144
1.0
145
0.0
146
0.71
147
1.5
 71
     0
 72
     0
 73
     1
 74
     1
 75
     0
 76
     0
 77
     0
 78
     8
170
     0
171
     2
172
     0
173
     0
174
     0
175
     0
176
     2
177
     2
178
     4
  0
DIMSTYLE
  2
AM_ANSI$SF
 70
     0
  3

  4
"
  5

  6

  7

 40
1.0
 41
2.5
 42
1.0
 43
10.0
 44
1.0
 45
0.0
 46
0.0
 47
0.1
 48
0.1
140
3.5
141
0.0
142
0.0
143
0.0393701
144
1.0
145
0.0
146
0.71
147
1.5
 71
     0
 72
     0
 73
     1
 74
     1
 75
     1
 76
     1
 77
     0
 78
     8
170
     0
171
     2
172
     0
173
     0
174
     0
175
     0
176
     2
177
     2
178
     4
  0
DIMSTYLE
  2
AM_ANSI$SH
 70
     0
  3

  4
"
  5

  6
GENAXEH
  7

 40
1.0
 41
2.5
 42
1.0
 43
10.0
 44
1.0
 45
0.0
 46
0.0
 47
0.1
 48
0.1
140
3.5
141
0.0
142
0.0
143
0.0393701
144
1.0
145
0.0
146
0.71
147
1.5
 71
     0
 72
     0
 73
     1
 74
     1
 75
     1
 76
     1
 77
     0
 78
     8
170
     0
171
     2
172
     0
173
     1
174
     0
175
     0
176
     2
177
     2
178
     4
  0
DIMSTYLE
  2
AM_ISO
 70
     0
  3

  4
"
  5

  6

  7

 40
1.0
 41
2.5
 42
1.0
 43
10.0
 44
1.0
 45
0.0
 46
0.0
 47
0.1
 48
0.1
140
3.5
141
0.0
142
0.0
143
0.0393701
144
1.0
145
0.0
146
0.71
147
1.5
 71
     0
 72
     0
 73
     0
 74
     0
 75
     0
 76
     0
 77
     1
 78
     8
170
     0
171
     2
172
     1
173
     0
174
     0
175
     0
176
   256
177
   256
178
     2
  0
DIMSTYLE
  2
AM_ISO$3
 70
     0
  3

  4
"
  5

  6

  7

 40
1.0
 41
2.5
 42
1.0
 43
10.0
 44
1.0
 45
0.0
 46
0.0
 47
0.1
 48
0.1
140
3.5
141
0.0
142
0.0
143
0.0393701
144
1.0
145
0.0
146
0.71
147
1.5
 71
     0
 72
     0
 73
     0
 74
     1
 75
     0
 76
     0
 77
     1
 78
     8
170
     0
171
     2
172
     0
173
     0
174
     0
175
     0
176
   256
177
   256
178
     2
  0
DIMSTYLE
  2
AM_ISO$4
 70
     0
  3

  4
"
  5

  6

  7

 40
1.0
 41
2.5
 42
1.0
 43
10.0
 44
1.0
 45
0.0
 46
0.0
 47
0.1
 48
0.1
140
3.5
141
0.0
142
0.0
143
0.0393701
144
1.0
145
0.0
146
0.71
147
1.5
 71
     0
 72
     0
 73
     0
 74
     1
 75
     0
 76
     0
 77
     1
 78
     8
170
     0
171
     2
172
     0
173
     0
174
     0
175
     0
176
   256
177
   256
178
     2
  0
DIMSTYLE
  2
AM_ISO$6
 70
     0
  3

  4
"
  5

  6

  7

 40
1.0
 41
2.5
 42
1.0
 43
10.0
 44
1.0
 45
0.0
 46
0.0
 47
0.1
 48
0.1
140
3.5
141
0.0
142
0.0
143
0.0393701
144
1.0
145
0.0
146
0.71
147
1.5
 71
     0
 72
     0
 73
     0
 74
     0
 75
     0
 76
     0
 77
     0
 78
     8
170
     0
171
     2
172
     1
173
     0
174
     0
175
     0
176
   256
177
   256
178
     2
  0
DIMSTYLE
  2
AM_ISO$7
 70
     0
  3

  4
"
  5

  6

  7

 40
1.0
 41
2.5
 42
1.0
 43
10.0
 44
1.0
 45
0.0
 46
0.0
 47
0.1
 48
0.1
140
5.0
141
0.0
142
0.0
143
0.0393701
144
1.0
145
0.0
146
0.71
147
1.5
 71
     0
 72
     0
 73
     0
 74
     0
 75
     0
 76
     0
 77
     1
 78
     8
170
     0
171
     2
172
     1
173
     0
174
     0
175
     0
176
   256
177
   256
178
     2
  0
DIMSTYLE
  2
AM_ISO$SF
 70
     0
  3

  4
"
  5

  6

  7

 40
1.0
 41
2.5
 42
1.0
 43
10.0
 44
1.0
 45
0.0
 46
0.0
 47
0.1
 48
0.1
140
3.5
141
0.0
142
0.0
143
0.0393701
144
1.0
145
0.0
146
0.71
147
1.5
 71
     0
 72
     0
 73
     0
 74
     0
 75
     1
 76
     1
 77
     1
 78
     8
170
     0
171
     2
172
     1
173
     0
174
     0
175
     0
176
   256
177
   256
178
     2
  0
DIMSTYLE
  2
AM_ISO$SH
 70
     0
  3

  4
"
  5

  6
GENAXEH
  7

 40
1.0
 41
2.5
 42
1.0
 43
10.0
 44
1.0
 45
0.0
 46
0.0
 47
0.1
 48
0.1
140
3.5
141
0.0
142
0.0
143
0.0393701
144
2.0
145
0.0
146
0.71
147
1.5
 71
     0
 72
     0
 73
     0
 74
     0
 75
     1
 76
     1
 77
     1
 78
     8
170
     0
171
     2
172
     1
173
     1
174
     0
175
     0
176
   256
177
   256
178
     2
  0
DIMSTYLE
  2
AM_JIS
 70
     0
  3

  4
"
  5

  6

  7

 40
1.0
 41
2.0
 42
1.0
 43
8.0
 44
1.0
 45
0.0
 46
0.0
 47
0.1
 48
0.1
140
2.5
141
0.0
142
0.0
143
0.0393701
144
1.0
145
0.0
146
0.71
147
1.5
 71
     0
 72
     0
 73
     0
 74
     0
 75
     0
 76
     0
 77
     3
 78
     8
170
     0
171
     2
172
     1
173
     0
174
     0
175
     0
176
     2
177
     2
178
     4
  0
DIMSTYLE
  2
AM_JIS$3
 70
     0
  3

  4
"
  5

  6

  7

 40
1.0
 41
2.0
 42
1.0
 43
10.0
 44
1.0
 45
0.0
 46
0.0
 47
0.1
 48
0.1
140
2.5
141
0.0
142
0.0
143
0.0393701
144
1.0
145
0.0
146
0.71
147
1.5
 71
     0
 72
     0
 73
     0
 74
     1
 75
     0
 76
     0
 77
     3
 78
     8
170
     0
171
     2
172
     0
173
     0
174
     0
175
     0
176
     2
177
     2
178
     4
  0
DIMSTYLE
  2
AM_JIS$4
 70
     0
  3

  4
"
  5

  6

  7

 40
1.0
 41
2.0
 42
1.0
 43
10.0
 44
1.0
 45
0.0
 46
0.0
 47
0.1
 48
0.1
140
2.5
141
0.0
142
0.0
143
0.0393701
144
1.0
145
0.0
146
0.71
147
1.5
 71
     0
 72
     0
 73
     0
 74
     0
 75
     0
 76
     0
 77
     3
 78
     8
170
     0
171
     2
172
     0
173
     0
174
     0
175
     0
176
     2
177
     2
178
     4
  0
DIMSTYLE
  2
AM_JIS$6
 70
     0
  3

  4
"
  5

  6

  7

 40
1.0
 41
2.0
 42
1.0
 43
10.0
 44
1.0
 45
0.0
 46
0.0
 47
0.1
 48
0.1
140
2.5
141
0.0
142
0.0
143
0.0393701
144
1.0
145
0.0
146
0.71
147
1.5
 71
     0
 72
     0
 73
     0
 74
     0
 75
     0
 76
     0
 77
     0
 78
     8
170
     0
171
     2
172
     1
173
     0
174
     0
175
     0
176
     2
177
     2
178
     4
  0
DIMSTYLE
  2
AM_JIS$7
 70
     0
  3

  4
"
  5

  6
OPEN30
  7
OPEN30
 40
1.0
 41
2.0
 42
1.0
 43
10.0
 44
1.0
 45
0.0
 46
0.0
 47
0.1
 48
0.1
140
2.5
141
0.0
142
0.0
143
0.0393701
144
1.0
145
0.0
146
0.71
147
1.5
 71
     0
 72
     0
 73
     0
 74
     0
 75
     0
 76
     0
 77
     3
 78
     8
170
     0
171
     2
172
     1
173
     0
174
     0
175
     0
176
     2
177
     2
178
     4
  0
DIMSTYLE
  2
AM_JIS$SF
 70
     0
  3

  4
"
  5

  6

  7

 40
1.0
 41
2.0
 42
1.0
 43
10.0
 44
1.0
 45
0.0
 46
0.0
 47
0.1
 48
0.1
140
2.5
141
0.0
142
0.0
143
0.0393701
144
1.0
145
0.0
146
0.71
147
1.5
 71
     0
 72
     0
 73
     0
 74
     0
 75
     1
 76
     1
 77
     3
 78
     8
170
     0
171
     2
172
     1
173
     0
174
     0
175
     0
176
     2
177
     2
178
     4
  0
DIMSTYLE
  2
AM_JIS$SH
 70
     0
  3

  4
"
  5

  6
GENAXEH
  7

 40
1.0
 41
2.0
 42
1.0
 43
10.0
 44
1.0
 45
0.0
 46
0.0
 47
0.1
 48
0.1
140
2.5
141
0.0
142
0.0
143
0.0393701
144
2.0
145
0.0
146
0.71
147
1.5
 71
     0
 72
     0
 73
     0
 74
     0
 75
     1
 76
     1
 77
     3
 78
     8
170
     0
171
     2
172
     1
173
     1
174
     0
175
     0
176
     2
177
     2
178
     4
  0
DIMSTYLE
  2
AM_JIS$0
 70
     0
  3

  4
"
  5

  6

  7

 40
1.0
 41
2.0
 42
1.0
 43
8.0
 44
1.0
 45
0.0
 46
0.0
 47
0.1
 48
0.1
140
2.5
141
0.0
142
0.0
143
0.0393701
144
1.0
145
0.0
146
0.71
147
1.5
 71
     0
 72
     0
 73
     0
 74
     0
 75
     0
 76
     0
 77
     3
 78
     8
170
     0
171
     2
172
     1
173
     0
174
     0
175
     0
176
     2
177
     2
178
     4
  0
DIMSTYLE
  2
STANDARD
 70
     0
  3

  4

  5

  6

  7

 40
1.0
 41
0.18
 42
0.0625
 43
0.38
 44
0.18
 45
0.0
 46
0.0
 47
0.0
 48
0.0
140
0.18
141
0.09
142
0.0
143
25.399999999999999
144
1.0
145
0.0
146
1.0
147
0.09
 71
     0
 72
     0
 73
     1
 74
     1
 75
     0
 76
     0
 77
     0
 78
     0
170
     0
171
     2
172
     0
173
     0
174
     0
175
     0
176
     0
177
     0
178
     0
  0
ENDTAB
  0
ENDSEC
  0
SECTION
  2
BLOCKS
  0
BLOCK
  8
0
  2
$MODEL_SPACE
 70
     0
 10
0.0
 20
0.0
 30
0.0
  3
$MODEL_SPACE
  1

  0
ENDBLK
  5
77
  8
0
  0
BLOCK
 67
     1
  8
0
  2
$PAPER_SPACE
 70
     0
 10
0.0
 20
0.0
 30
0.0
  3
$PAPER_SPACE
  1

  0
ENDBLK
  5
73
 67
     1
  8
0
  0
BLOCK
  8
0
  2
GENAXEH
 70
     0
 10
0.0
 20
0.0
 30
0.0
  3
GENAXEH
  1

  0
LINE
  5
9EDA
  8
0
 10
-1.0
 20
0.0
 30
0.0
 11
1.0
 21
0.0
 31
0.0
  0
ENDBLK
  5
9EDB
  8
0
  0
BLOCK
  8
0
  6
BYBLOCK
 62
     0
  2
$6-45
 70
     0
 10
0.0
 20
0.0
 30
0.0
  3
$6-45
  1

  0
ARC
  5
6E0E
  8
0
  6
CONTINUOUS
 62
     0
 10
-2.6499939999999902
 20
2.800201000000015
 30
0.0
 40
2.6003989999999999
 50
89.999982000000799
 51
179.99997799999841
  0
ARC
  5
6E0F
  8
0
  6
CONTINUOUS
 62
     0
 10
2.6499939999999902
 20
2.800201000000015
 30
0.0
 40
2.600403
 50
0.0
 51
89.999982000000799
  0
LINE
  5
6E10
  8
0
  6
CONTINUOUS
 62
     0
 10
0.0660250000000247
 20
0.0
 30
0.0
 11
-0.8000000000000112
 21
1.5
 31
0.0
  0
LINE
  5
6E11
  8
0
  6
CONTINUOUS
 62
     0
 10
1.0660250000000211
 20
0.0
 30
0.0
 11
0.1999999999999886
 21
1.5
 31
0.0
  0
LINE
  5
6E12
  8
0
  6
CONTINUOUS
 62
     0
 10
6.1000000000000218
 20
0.0
 30
0.0
 11
-6.1000000000000218
 21
0.0
 31
0.0
  0
LINE
  5
6E13
  8
0
  6
CONTINUOUS
 62
     0
 10
6.1000000000000218
 20
1.5
 30
0.0
 11
6.1000000000000218
 21
0.0
 31
0.0
  0
LINE
  5
6E14
  8
0
  6
CONTINUOUS
 62
     0
 10
-6.1000000000000218
 20
1.5
 30
0.0
 11
-6.1000000000000218
 21
0.0
 31
0.0
  0
LINE
  5
6E15
  8
0
  6
CONTINUOUS
 62
     0
 10
2.6499939999999902
 20
5.3999939999999906
 30
0.0
 11
-2.6499939999999902
 21
5.3999939999999906
 31
0.0
  0
LINE
  5
6E16
  8
0
  6
CONTINUOUS
 62
     0
 10
6.1000000000000218
 20
1.5
 30
0.0
 11
-6.1000000000000218
 21
1.5
 31
0.0
  0
LINE
  5
6E17
  8
0
  6
CONTINUOUS
 62
     0
 10
-5.25
 20
1.5
 30
0.0
 11
-5.25
 21
2.800201000000015
 31
0.0
  0
LINE
  5
6E18
  8
0
  6
CONTINUOUS
 62
     0
 10
5.25
 20
1.5
 30
0.0
 11
5.25
 21
2.800201000000015
 31
0.0
  0
ENDBLK
  5
6E19
  8
0
  6
BYBLOCK
 62
     0
  0
BLOCK
  8
0
  2
_OPEN30
 70
     0
 10
0.0
 20
0.0
 30
0.0
  3
_OPEN30
  1

  0
LINE
  5
9F21
  8
0
  6
BYBLOCK
 62
     0
 10
-1.0
 20
0.26794919
 30
0.0
 11
0.0
 21
0.0
 31
0.0
  0
LINE
  5
9F22
  8
0
  6
BYBLOCK
 62
     0
 10
0.0
 20
0.0
 30
0.0
 11
-1.0
 21
-0.26794919
 31
0.0
  0
LINE
  5
9F23
  8
0
  6
BYBLOCK
 62
     0
 10
0.0
 20
0.0
 30
0.0
 11
-1.0
 21
0.0
 31
0.0
  0
ENDBLK
  5
9F24
  8
0
  0
BLOCK
  8
0
  2
_ACMFILLEDHALF
 70
     0
 10
0.0
 20
0.0
 30
0.0
  3
_ACMFILLEDHALF
  1

  0
TRACE
  5
9FE2
  8
AM_0
 62
     0
 10
-0.8
 20
0.0
 30
0.0
 11
-1.0
 21
0.166666666
 31
0.0
 12
0.0
 22
0.0
 32
0.0
 13
0.0
 23
0.0
 33
0.0
  0
LINE
  5
9FE3
  8
AM_0
 62
     0
 10
-1.0
 20
0.0
 30
0.0
 11
-0.8
 21
0.0
 31
0.0
  0
ENDBLK
  5
9FE4
  8
0
  0
ENDSEC
  0
SECTION
  2
ENTITIES
  0
LINE
  5
86D6
  8
0
  6
AM_ISO08W050
 62
     0
 10
470.41855397185998
 20
464.3266005337133
 30
0.0
 11
673.03950042780491
 21
464.3266005337133
 31
0.0
  0
LINE
  5
86E2
  8
0
 62
     0
 10
665.77717284542575
 20
448.32662853371318
 30
0.0
 11
665.77717284542575
 21
483.32663553371327
 31
0.0
  0
LINE
  5
8729
  8
0
 62
     0
 10
460.77718284542573
 20
521.16149602618304
 30
0.0
 11
475.95169284542578
 21
521.69138602618204
 31
0.0
  0
LINE
  5
872B
  8
0
 62
     0
 10
460.77718284542573
 20
351.16149602618327
 30
0.0
 11
475.63654284542599
 21
350.6425890261836
 31
0.0
  0
ARC
  5
8753
  8
0
 62
     0
 10
475.4620628454262
 20
345.6456420261834
 30
0.0
 40
5.0000000999999976
 50
15.764915886639329
 51
87.999999999996405
  0
ARC
  5
8754
  8
0
 62
     0
 10
482.77717284542632
 20
533.54603553371305
 30
0.0
 40
2.00000007
 50
91.999997999994051
 51
109.0653999999879
  0
ARC
  5
8755
  8
0
 62
     0
 10
482.77717284542632
 20
533.54603553371305
 30
0.0
 40
2.00000007
 50
109.0653999999879
 51
180.000010000001
  0
ARC
  5
8756
  8
0
 62
     0
 10
475.77718284542578
 20
526.68833602618304
 30
0.0
 40
5.0000000999999976
 50
272.00000000000358
 51
0.0
  0
LINE
  5
877D
  8
0
  6
AM_ISO08W050
 62
     0
 10
118.3554589968016
 20
436.16149602618327
 30
0.0
 11
486.6496441214457
 21
436.16149602618327
 31
0.0
  0
LINE
  5
8795
  8
0
 62
     0
 10
460.77718284542573
 20
355.66578896358408
 30
0.0
 11
460.77718284542573
 21
436.16149602618327
 31
0.0
  0
LINE
  5
8796
  8
0
 62
     0
 10
460.77718284542573
 20
351.16149602618327
 30
0.0
 11
460.77718284542573
 21
521.16149602618304
 31
0.0
  0
LINE
  5
8797
  8
0
 62
     0
 10
256.77718284542578
 20
362.32402102618317
 30
0.0
 11
258.34901584542581
 21
347.36281002618318
 31
0.0
  0
LINE
  5
8798
  8
0
 62
     0
 10
256.77718284542578
 20
357.33153602618319
 30
0.0
 11
258.33849384542589
 21
343.36094502618317
 31
0.0
  0
LINE
  5
8799
  8
0
 62
     0
 10
256.77718284542578
 20
354.11078002618331
 30
0.0
 11
258.33040184542591
 21
340.83345202618318
 31
0.0
  0
LINE
  5
879A
  8
0
 62
     0
 10
256.73040584542588
 20
352.54119902618328
 30
0.0
 11
258.3209218454258
 21
339.63046502618329
 31
0.0
  0
ARC
  5
879B
  8
0
 62
     0
 10
260.33806884542582
 20
347.57178102618309
 30
0.0
 40
2.0
 50
185.99752600000019
 51
270.0
  0
ARC
  5
879C
  8
0
 62
     0
 10
260.32611984542592
 20
343.58307602618322
 30
0.0
 40
2.0
 50
186.37674199999441
 51
270.0
  0
ARC
  5
879D
  8
0
 62
     0
 10
260.31685584542578
 20
341.06583302618321
 30
0.0
 40
2.0
 50
186.6722939999984
 51
270.0
  0
ARC
  5
879E
  8
0
 62
     0
 10
260.30591584542577
 20
339.87500302618321
 30
0.0
 40
2.0
 50
187.02306899999661
 51
270.0
  0
LINE
  5
879F
  8
0
 62
     0
 10
460.77718284542573
 20
351.16149602618327
 30
0.0
 11
460.77718284542573
 21
521.16149602618304
 31
0.0
  0
LINE
  5
87A0
  8
0
 62
     0
 10
254.2771828454259
 20
433.66149602618299
 30
0.0
 11
254.2771828454259
 21
339.16149602618327
 31
0.0
  0
LINE
  5
87A1
  8
0
 62
     0
 10
391.27718284542578
 20
460.92944502618298
 30
0.0
 11
391.27718284542578
 21
411.393547026183
 31
0.0
  0
LINE
  5
87A2
  8
0
 62
     0
 10
405.73405884542558
 20
485.34649602618282
 30
0.0
 11
405.73405884542558
 21
464.98149602618309
 31
0.0
  0
LINE
  5
87A3
  8
0
 62
     0
 10
421.77718184542579
 20
485.34649602618282
 30
0.0
 11
421.77718184542579
 21
464.98149602618309
 31
0.0
  0
LINE
  5
87A4
  8
0
 62
     0
 10
436.32657784542567
 20
380.1407000261832
 30
0.0
 11
421.77718184542579
 21
380.1407000261832
 31
0.0
  0
LINE
  5
87A5
  8
0
 62
     0
 10
441.27718284542578
 20
391.55305002618331
 30
0.0
 11
421.77718184542579
 21
391.55305002618331
 31
0.0
  0
LINE
  5
87A6
  8
0
 62
     0
 10
406.48257984542579
 20
384.8557900261834
 30
0.0
 11
421.77718284542578
 21
380.1407000261832
 31
0.0
  0
LINE
  5
87A7
  8
0
 62
     0
 10
421.77718284542578
 20
391.55305002618331
 30
0.0
 11
406.74124184542569
 21
391.01229902618331
 31
0.0
  0
ARC
  5
87A8
  8
0
 62
     0
 10
406.77718284542573
 20
390.01294502618327
 30
0.0
 40
1.0
 50
92.059691000003724
 51
180.0
  0
ARC
  5
87A9
  8
0
 62
     0
 10
406.77718284542573
 20
385.8114100261833
 30
0.0
 40
1.0
 50
180.0
 51
252.8662750000021
  0
LINE
  5
87AA
  8
0
 62
     0
 10
421.77718284542578
 20
512.01428302618331
 30
0.0
 11
406.47672384542568
 21
507.19441702618298
 31
0.0
  0
ARC
  5
87AB
  8
0
 62
     0
 10
406.77718284542573
 20
506.24062202618319
 30
0.0
 40
1.0
 50
107.485179
 51
180.0
  0
ARC
  5
87AC
  8
0
 62
     0
 10
406.77718284542573
 20
503.8895570261833
 30
0.0
 40
1.0
 50
180.0
 51
270.0
  0
LINE
  5
87AD
  8
0
 62
     0
 10
406.82573784542581
 20
502.89073602618328
 30
0.0
 11
421.77718284542578
 21
503.61755602618302
 31
0.0
  0
LINE
  5
87AE
  8
0
 62
     0
 10
441.27718284542578
 20
503.61755602618302
 30
0.0
 11
421.77718284542578
 21
503.61755602618302
 31
0.0
  0
LINE
  5
87AF
  8
0
 62
     0
 10
364.7771828454259
 20
534.44798902618322
 30
0.0
 11
452.22436784542572
 21
534.44798902618322
 31
0.0
  0
ARC
  5
87B0
  8
0
 62
     0
 10
276.04142784542591
 20
532.44798902618322
 30
0.0
 40
2.0
 50
90.0
 51
156.1017999999998
  0
ARC
  5
87B1
  8
0
 62
     0
 10
452.22436784542572
 20
532.44798902618322
 30
0.0
 40
2.0
 50
10.000001999999039
 51
90.0
  0
LINE
  5
87B2
  8
0
 62
     0
 10
455.77718284542561
 20
523.81651302618309
 30
0.0
 11
454.19398284542581
 21
532.79528602618313
 31
0.0
  0
LINE
  5
87B3
  8
0
 62
     0
 10
455.51637484542567
 20
523.81651302618309
 30
0.0
 11
455.77718284542561
 21
523.81651302618309
 31
0.0
  0
ARC
  5
87B4
  8
0
 62
     0
 10
261.10839784542588
 20
531.25821502618328
 30
0.0
 40
2.0
 50
90.0
 51
169.999998000001
  0
LINE
  5
87B5
  8
0
 62
     0
 10
256.77718284542578
 20
518.21221202618335
 30
0.0
 11
259.13878284542579
 21
531.60551202618319
 31
0.0
  0
ARC
  5
87B6
  8
0
 62
     0
 10
452.17334884542572
 20
531.25821502618328
 30
0.0
 40
2.0
 50
10.000001999999039
 51
90.0
  0
LINE
  5
87B7
  8
0
 62
     0
 10
455.77718284542561
 20
522.33739502618312
 30
0.0
 11
454.14296384542581
 21
531.60551202618319
 31
0.0
  0
LINE
  5
87B8
  8
0
 62
     0
 10
256.77718284542578
 20
518.21221202618335
 30
0.0
 11
257.34508884542578
 21
518.21221202618335
 31
0.0
  0
LINE
  5
87B9
  8
0
 62
     0
 10
455.24121184542582
 20
522.33739502618312
 30
0.0
 11
455.77718284542561
 21
522.33739502618312
 31
0.0
  0
ARC
  5
87BA
  8
0
 62
     0
 10
452.0874938454258
 20
528.70548102618329
 30
0.0
 40
2.0
 50
10.00000099999875
 51
90.0
  0
ARC
  5
87BB
  8
0
 62
     0
 10
261.22618884542578
 20
528.70548102618329
 30
0.0
 40
2.0
 50
90.0
 51
169.9999990000012
  0
LINE
  5
87BC
  8
0
 62
     0
 10
256.77718284542578
 20
514.9914560261833
 30
0.0
 11
259.25657284542592
 21
529.05277702618321
 31
0.0
  0
ARC
  5
87BD
  8
0
 62
     0
 10
261.40732984542581
 20
524.74029602618305
 30
0.0
 40
2.0
 50
90.0
 51
169.9999999999981
  0
LINE
  5
87BE
  8
0
 62
     0
 10
256.77718284542578
 20
509.99897102618331
 30
0.0
 11
259.43771384542578
 21
525.08759202618296
 31
0.0
  0
ARC
  5
87BF
  8
0
 62
     0
 10
261.68855784542592
 20
519.16286802618333
 30
0.0
 40
2.0
 50
90.0
 51
169.9999999999981
  0
LINE
  5
87C0
  8
0
 62
     0
 10
256.77718284542578
 20
502.82661902618298
 30
0.0
 11
259.71894184542577
 21
519.51016502618313
 31
0.0
  0
ARC
  5
87C1
  8
0
 62
     0
 10
261.78382184542579
 20
513.16220102618331
 30
0.0
 40
2.0
 50
90.0
 51
169.9999990000012
  0
LINE
  5
87C2
  8
0
 62
     0
 10
256.77718284542578
 20
496.28568302618322
 30
0.0
 11
259.81420584542587
 21
513.50949702618311
 31
0.0
  0
LINE
  5
87C3
  8
0
 62
     0
 10
455.64892384542588
 20
520.02514502618305
 30
0.0
 11
454.05710884542577
 21
529.05277702618321
 31
0.0
  0
LINE
  5
87C4
  8
0
 62
     0
 10
256.77718284542578
 20
514.9914560261833
 30
0.0
 11
257.65749284542591
 21
514.9914560261833
 31
0.0
  0
ARC
  5
87C5
  8
0
 62
     0
 10
451.95811584542582
 20
524.74029602618305
 30
0.0
 40
2.0
 50
10.00000000000181
 51
90.0
  0
LINE
  5
87C6
  8
0
 62
     0
 10
454.82037784542581
 20
520.02514502618305
 30
0.0
 11
453.92773184542568
 21
525.08759202618296
 31
0.0
  0
ARC
  5
87C7
  8
0
 62
     0
 10
387.16620084542581
 20
519.16286802618333
 30
0.0
 40
2.0
 50
5.5986530000021189
 51
90.0
  0
ARC
  5
87C8
  8
0
 62
     0
 10
387.16424584542591
 20
513.16220102618331
 30
0.0
 40
2.0
 50
5.4290190000019001
 51
90.0
  0
LINE
  5
87C9
  8
0
 62
     0
 10
457.77718284542578
 20
396.43879002618331
 30
0.0
 11
457.77718284542578
 21
498.22742902618279
 31
0.0
  0
LINE
  5
87CA
  8
0
 62
     0
 10
457.77718284542578
 20
520.02514502618305
 30
0.0
 11
457.77718284542578
 21
524.16149602618316
 31
0.0
  0
LINE
  5
87CB
  8
0
 62
     0
 10
405.73405884542558
 20
509.99897102618331
 30
0.0
 11
421.77718184542579
 21
514.59883302618312
 31
0.0
  0
LINE
  5
87CC
  8
0
 62
     0
 10
390.07409784542591
 20
509.99897102618331
 30
0.0
 11
405.73405884542558
 21
509.99897102618331
 31
0.0
  0
LINE
  5
87CD
  8
0
 62
     0
 10
421.77718184542579
 20
514.59883302618312
 30
0.0
 11
436.47046584542568
 21
514.59883302618312
 31
0.0
  0
INSERT
  5
87CE
  8
0
 62
     0
  2
$6-45
 10
441.27718284542578
 20
510.29475602618311
 30
0.0
 50
90.0
  0
INSERT
  5
87CF
  8
0
 62
     0
  2
$6-45
 10
441.27718284542578
 20
384.25282902618318
 30
0.0
 50
90.0
  0
LINE
  5
87D0
  8
0
 62
     0
 10
222.77718284542581
 20
439.1614960261831
 30
0.0
 11
154.78565084542581
 21
439.1614960261831
 31
0.0
  0
LINE
  5
87D1
  8
0
 62
     0
 10
455.71635284542589
 20
524.16149602618316
 30
0.0
 11
457.77718284542578
 21
524.16149602618316
 31
0.0
  0
LINE
  5
87D2
  8
0
 62
     0
 10
261.40732984542581
 20
526.74029602618305
 30
0.0
 11
451.95811584542582
 21
526.74029602618305
 31
0.0
  0
LINE
  5
87D3
  8
0
 62
     0
 10
261.22618884542578
 20
530.70548102618295
 30
0.0
 11
452.0874938454258
 21
530.70548102618295
 31
0.0
  0
LINE
  5
87D4
  8
0
 62
     0
 10
261.10839784542588
 20
533.25821502618305
 30
0.0
 11
452.17334884542572
 21
533.25821502618305
 31
0.0
  0
LINE
  5
87D5
  8
0
 62
     0
 10
254.2771828454259
 20
529.66149602618304
 30
0.0
 11
258.79600084542579
 21
529.66149602618304
 31
0.0
  0
LINE
  5
87D6
  8
0
 62
     0
 10
276.04142784542591
 20
534.44798902618322
 30
0.0
 11
342.77718284542578
 21
534.44798902618322
 31
0.0
  0
LINE
  5
87D7
  8
0
 62
     0
 10
421.77718184542579
 20
493.32149602618318
 30
0.0
 11
421.77718184542579
 21
487.97649602618282
 31
0.0
  0
LINE
  5
87D8
  8
0
 62
     0
 10
405.73405884542558
 20
493.32149602618318
 30
0.0
 11
405.73405884542558
 21
487.97649602618282
 31
0.0
  0
LINE
  5
87D9
  8
0
 62
     0
 10
421.77718184542579
 20
503.61755602618302
 30
0.0
 11
421.77718184542579
 21
496.02149602618329
 31
0.0
  0
LINE
  5
87DA
  8
0
 62
     0
 10
421.77718184542579
 20
512.01428302618331
 30
0.0
 11
435.87718884542568
 21
512.01428302618331
 31
0.0
  0
LINE
  5
87DB
  8
0
 62
     0
 10
256.77718284542578
 20
496.28568302618322
 30
0.0
 11
390.77718284542578
 21
496.28568302618322
 31
0.0
  0
LINE
  5
87DC
  8
0
 62
     0
 10
390.09955584542593
 20
502.82661902618298
 30
0.0
 11
390.77718284542578
 21
502.82661902618298
 31
0.0
  0
LINE
  5
87DD
  8
0
 62
     0
 10
261.78382184542579
 20
515.16220102618308
 30
0.0
 11
387.16424584542591
 21
515.16220102618308
 31
0.0
  0
LINE
  5
87DE
  8
0
 62
     0
 10
256.77718284542578
 20
502.82661902618298
 30
0.0
 11
257.93052584542579
 21
502.82661902618298
 31
0.0
  0
LINE
  5
87DF
  8
0
 62
     0
 10
261.68855784542592
 20
521.16286802618333
 30
0.0
 11
387.16620084542581
 21
521.16286802618333
 31
0.0
  0
LINE
  5
87E0
  8
0
 62
     0
 10
457.77718284542578
 20
498.22742902618279
 30
0.0
 11
460.77718284542573
 21
496.49537802618329
 31
0.0
  0
ARC
  5
87E1
  8
0
 62
     0
 10
440.27718284542573
 20
499.22742902618302
 30
0.0
 40
1.0
 50
270.0
 51
0.0
  0
ARC
  5
87E2
  8
0
 62
     0
 10
443.27718284542561
 20
518.02514502618328
 30
0.0
 40
2.0
 50
90.0
 51
180.0
  0
ARC
  5
87E3
  8
0
 62
     0
 10
443.27718284542561
 20
513.90114002618304
 30
0.0
 40
2.0
 50
180.0
 51
270.0
  0
ARC
  5
87E4
  8
0
 62
     0
 10
443.27718284542561
 20
509.90114002618282
 30
0.0
 40
2.0
 50
90.0
 51
180.0
  0
LINE
  5
87E5
  8
0
 62
     0
 10
443.27718284542561
 20
520.02514502618305
 30
0.0
 11
460.77718284542573
 21
520.02514502618305
 31
0.0
  0
LINE
  5
87E6
  8
0
 62
     0
 10
441.27718284542578
 20
498.22742902618279
 30
0.0
 11
457.77718284542578
 21
498.22742902618279
 31
0.0
  0
LINE
  5
87E7
  8
0
 62
     0
 10
443.27718284542561
 20
511.90114002618321
 30
0.0
 11
460.77718284542573
 21
511.90114002618321
 31
0.0
  0
LINE
  5
87E8
  8
0
 62
     0
 10
441.27718284542578
 20
499.22742902618302
 30
0.0
 11
441.27718284542578
 21
518.02514502618328
 31
0.0
  0
LINE
  5
87E9
  8
0
 62
     0
 10
256.77718284542578
 20
352.16149602618327
 30
0.0
 11
254.2771828454257
 21
352.16149602618327
 31
0.0
  0
LINE
  5
87EA
  8
0
 62
     0
 10
256.77718284542578
 20
401.8027070261831
 30
0.0
 11
261.38455884542577
 21
395.37110102618328
 31
0.0
  0
LINE
  5
87EB
  8
0
 62
     0
 10
261.38455884542577
 20
395.37110102618328
 30
0.0
 11
262.24035884542582
 21
397.99802102618332
 31
0.0
  0
LINE
  5
87EC
  8
0
 62
     0
 10
256.77718284542578
 20
401.8027070261831
 30
0.0
 11
262.24035884542582
 21
397.99802102618332
 31
0.0
  0
LINE
  5
87ED
  8
0
 62
     0
 10
262.24035884542582
 20
397.99802102618332
 30
0.0
 11
263.45228884542581
 21
397.4420610261833
 31
0.0
  0
LINE
  5
87EE
  8
0
 62
     0
 10
254.2771828454257
 20
395.37110102618328
 30
0.0
 11
261.38455884542577
 21
395.37110102618328
 31
0.0
  0
LINE
  5
87EF
  8
0
 62
     0
 10
254.2771828454257
 20
401.8027070261831
 30
0.0
 11
256.77718284542578
 21
401.8027070261831
 31
0.0
  0
LINE
  5
87F0
  8
0
 62
     0
 10
256.77718284542578
 20
379.22932102618319
 30
0.0
 11
256.77718284542578
 21
376.03642702618328
 31
0.0
  0
LINE
  5
87F1
  8
0
 62
     0
 10
258.53718284542578
 20
378.66088702618327
 30
0.0
 11
258.53718284542578
 21
376.66210502618333
 31
0.0
  0
LINE
  5
87F2
  8
0
 62
     0
 10
273.53718284542578
 20
387.66149602618327
 30
0.0
 11
273.53718284542578
 21
385.66210502618333
 31
0.0
  0
LINE
  5
87F3
  8
0
 62
     0
 10
271.77718284542578
 20
388.12303802618328
 30
0.0
 11
271.77718284542578
 21
385.05530302618331
 31
0.0
  0
LINE
  5
87F4
  8
0
 62
     0
 10
271.77718284542578
 20
388.12303802618328
 30
0.0
 11
353.77718284542578
 21
388.12303802618328
 31
0.0
  0
LINE
  5
87F5
  8
0
 62
     0
 10
271.77718284542578
 20
385.05530302618331
 30
0.0
 11
353.77718284542578
 21
385.05530302618331
 31
0.0
  0
LINE
  5
87F6
  8
0
 62
     0
 10
256.77718284542578
 20
376.03642702618328
 30
0.0
 11
353.77718284542578
 21
376.03642702618328
 31
0.0
  0
LINE
  5
87F7
  8
0
 62
     0
 10
256.77718284542578
 20
379.22932102618319
 30
0.0
 11
353.77718284542578
 21
379.22932102618319
 31
0.0
  0
LINE
  5
87F8
  8
0
 62
     0
 10
258.53718284542578
 20
378.66088702618327
 30
0.0
 11
353.77718284542578
 21
378.66088702618327
 31
0.0
  0
LINE
  5
87F9
  8
0
 62
     0
 10
258.53718284542578
 20
376.66210502618333
 30
0.0
 11
353.77718284542578
 21
376.66210502618333
 31
0.0
  0
LINE
  5
87FA
  8
0
 62
     0
 10
258.53718284542578
 20
378.66088702618327
 30
0.0
 11
256.77718284542578
 21
379.22932102618319
 31
0.0
  0
LINE
  5
87FB
  8
0
 62
     0
 10
258.53718284542578
 20
376.66210502618333
 30
0.0
 11
256.77718284542578
 21
376.03642702618328
 31
0.0
  0
LINE
  5
87FC
  8
0
 62
     0
 10
261.72044884542578
 20
385.40341702618332
 30
0.0
 11
262.90153984542587
 21
385.16600802618331
 31
0.0
  0
LINE
  5
87FD
  8
0
 62
     0
 10
273.53718284542578
 20
387.66149602618327
 30
0.0
 11
353.77718284542578
 21
387.66149602618327
 31
0.0
  0
LINE
  5
87FE
  8
0
 62
     0
 10
273.53718284542578
 20
385.66210502618333
 30
0.0
 11
353.77718284542578
 21
385.66210502618333
 31
0.0
  0
LINE
  5
87FF
  8
0
 62
     0
 10
273.53718284542578
 20
387.66149602618327
 30
0.0
 11
271.77718284542578
 21
388.12303802618328
 31
0.0
  0
LINE
  5
8800
  8
0
 62
     0
 10
273.53718284542578
 20
385.66210502618333
 30
0.0
 11
271.77718284542578
 21
385.05530302618331
 31
0.0
  0
LINE
  5
8801
  8
0
 62
     0
 10
390.77718284542578
 20
388.12303802618328
 30
0.0
 11
353.77718284542578
 21
388.12303802618328
 31
0.0
  0
LINE
  5
8802
  8
0
 62
     0
 10
390.77718284542578
 20
385.05530302618331
 30
0.0
 11
353.77718284542578
 21
385.05530302618331
 31
0.0
  0
LINE
  5
8803
  8
0
 62
     0
 10
389.01718284542579
 20
387.66149602618327
 30
0.0
 11
353.77718284542578
 21
387.66149602618327
 31
0.0
  0
LINE
  5
8804
  8
0
 62
     0
 10
389.01718284542579
 20
385.66210502618333
 30
0.0
 11
353.77718284542578
 21
385.66210502618333
 31
0.0
  0
LINE
  5
8805
  8
0
 62
     0
 10
389.01718284542579
 20
385.66210502618333
 30
0.0
 11
390.77718284542578
 21
385.05530302618331
 31
0.0
  0
LINE
  5
8806
  8
0
 62
     0
 10
389.01718284542579
 20
387.66149602618327
 30
0.0
 11
390.77718284542578
 21
388.12303802618328
 31
0.0
  0
LINE
  5
8807
  8
0
 62
     0
 10
390.77718284542578
 20
388.12303802618328
 30
0.0
 11
390.77718284542578
 21
385.05530302618331
 31
0.0
  0
LINE
  5
8808
  8
0
 62
     0
 10
389.01718284542579
 20
387.66149602618327
 30
0.0
 11
389.01718284542579
 21
385.66210502618333
 31
0.0
  0
LINE
  5
8809
  8
0
 62
     0
 10
390.77718284542578
 20
379.22932102618319
 30
0.0
 11
353.77718284542578
 21
379.22932102618319
 31
0.0
  0
LINE
  5
880A
  8
0
 62
     0
 10
389.01718284542579
 20
378.66088702618327
 30
0.0
 11
353.77718284542578
 21
378.66088702618327
 31
0.0
  0
LINE
  5
880B
  8
0
 62
     0
 10
389.01718284542579
 20
376.66210502618333
 30
0.0
 11
353.77718284542578
 21
376.66210502618333
 31
0.0
  0
LINE
  5
880C
  8
0
 62
     0
 10
389.01718284542579
 20
376.66210502618333
 30
0.0
 11
390.77718284542578
 21
376.03642702618328
 31
0.0
  0
LINE
  5
880D
  8
0
 62
     0
 10
389.01718284542579
 20
378.66088702618327
 30
0.0
 11
390.77718284542578
 21
379.22932102618319
 31
0.0
  0
LINE
  5
880E
  8
0
 62
     0
 10
389.01718284542579
 20
378.66088702618327
 30
0.0
 11
389.01718284542579
 21
376.66210502618333
 31
0.0
  0
LINE
  5
880F
  8
0
 62
     0
 10
390.77718284542578
 20
379.22932102618319
 30
0.0
 11
390.77718284542578
 21
376.03642702618328
 31
0.0
  0
LINE
  5
8810
  8
0
 62
     0
 10
256.77718284542578
 20
376.03642702618328
 30
0.0
 11
258.36992484542588
 21
358.73724002618331
 31
0.0
  0
LINE
  5
8811
  8
0
 62
     0
 10
256.77718284542578
 20
369.49637302618328
 30
0.0
 11
257.37932784542591
 21
369.49637302618328
 31
0.0
  0
LINE
  5
8812
  8
0
 62
     0
 10
256.77718284542578
 20
362.3240210261834
 30
0.0
 11
257.45995984542577
 21
362.3240210261834
 31
0.0
  0
LINE
  5
8813
  8
0
 62
     0
 10
256.77718284542578
 20
357.33153602618319
 30
0.0
 11
257.3016958454258
 21
357.33153602618319
 31
0.0
  0
LINE
  5
8814
  8
0
 62
     0
 10
256.77718284542578
 20
354.11078002618331
 30
0.0
 11
257.13712484542589
 21
354.11078002618331
 31
0.0
  0
LINE
  5
8815
  8
0
 62
     0
 10
256.73040584542588
 20
352.54119902618328
 30
0.0
 11
256.96079684542582
 21
352.54119902618328
 31
0.0
  0
LINE
  5
8816
  8
0
 62
     0
 10
256.77718284542578
 20
369.49637302618328
 30
0.0
 11
258.36483484542578
 21
352.81859902618328
 31
0.0
  0
LINE
  5
8817
  8
0
 62
     0
 10
256.77718284542578
 20
362.3240210261834
 30
0.0
 11
258.34901584542581
 21
347.3628100261833
 31
0.0
  0
LINE
  5
8818
  8
0
 62
     0
 10
256.77718284542578
 20
357.33153602618319
 30
0.0
 11
258.33849384542589
 21
343.3609450261834
 31
0.0
  0
LINE
  5
8819
  8
0
 62
     0
 10
256.77718284542578
 20
354.11078002618331
 30
0.0
 11
258.33040184542591
 21
340.83345202618329
 31
0.0
  0
LINE
  5
881A
  8
0
 62
     0
 10
256.73040584542588
 20
352.54119902618328
 30
0.0
 11
258.3209218454258
 21
339.63046502618329
 31
0.0
  0
ARC
  5
881B
  8
0
 62
     0
 10
260.36150084542578
 20
358.92060502618318
 30
0.0
 40
2.0
 50
185.2604109999981
 51
270.0
  0
ARC
  5
881C
  8
0
 62
     0
 10
260.35583284542588
 20
353.0081340261832
 30
0.0
 40
2.0
 50
185.4379219999999
 51
270.0
  0
ARC
  5
881D
  8
0
 62
     0
 10
260.33806884542582
 20
347.57178102618332
 30
0.0
 40
2.0
 50
185.99752600000019
 51
270.0
  0
ARC
  5
881E
  8
0
 62
     0
 10
260.32611984542592
 20
343.58307602618328
 30
0.0
 40
2.0
 50
186.376742000001
 51
270.0
  0
ARC
  5
881F
  8
0
 62
     0
 10
260.31685584542578
 20
341.06583302618333
 30
0.0
 40
2.0
 50
186.6722939999984
 51
270.0
  0
ARC
  5
8820
  8
0
 62
     0
 10
260.30591584542577
 20
339.87500302618332
 30
0.0
 40
2.0
 50
187.02306899999991
 51
270.0
  0
LINE
  5
8821
  8
0
 62
     0
 10
263.45228884542581
 20
397.4420610261833
 30
0.0
 11
263.45228884542581
 21
385.05530302618331
 31
0.0
  0
LINE
  5
8822
  8
0
 62
     0
 10
261.38455884542577
 20
395.37110102618328
 30
0.0
 11
261.38455884542577
 21
385.47093402618339
 31
0.0
  0
LINE
  5
8823
  8
0
 62
     0
 10
254.2771828454259
 20
385.05530302618331
 30
0.0
 11
263.45228884542581
 21
385.05530302618331
 31
0.0
  0
LINE
  5
8824
  8
0
 62
     0
 10
254.2771828454257
 20
385.47093402618339
 30
0.0
 11
261.38455884542577
 21
385.47093402618339
 31
0.0
  0
LINE
  5
8825
  8
0
 62
     0
 10
455.77718284542561
 20
451.34149602618299
 30
0.0
 11
454.01718284542579
 21
451.89149602618329
 31
0.0
  0
LINE
  5
8826
  8
0
 62
     0
 10
455.77718284542561
 20
453.98149602618298
 30
0.0
 11
455.77718284542561
 21
451.34149602618299
 31
0.0
  0
LINE
  5
8827
  8
0
 62
     0
 10
454.01718284542579
 20
453.49149602618331
 30
0.0
 11
455.77718284542561
 21
453.98149602618298
 31
0.0
  0
LINE
  5
8828
  8
0
 62
     0
 10
454.01718284542579
 20
453.49149602618331
 30
0.0
 11
454.01718284542579
 21
451.89149602618329
 31
0.0
  0
LINE
  5
8829
  8
0
 62
     0
 10
455.77718284542561
 20
440.34149602618328
 30
0.0
 11
454.01718284542579
 21
440.89149602618318
 31
0.0
  0
LINE
  5
882A
  8
0
 62
     0
 10
455.77718284542561
 20
442.98149602618332
 30
0.0
 11
455.77718284542561
 21
440.34149602618328
 31
0.0
  0
LINE
  5
882B
  8
0
 62
     0
 10
454.01718284542579
 20
442.49149602618309
 30
0.0
 11
455.77718284542561
 21
442.98149602618332
 31
0.0
  0
LINE
  5
882C
  8
0
 62
     0
 10
454.01718284542579
 20
442.49149602618309
 30
0.0
 11
454.01718284542579
 21
440.89149602618318
 31
0.0
  0
LINE
  5
882D
  8
0
 62
     0
 10
455.77718284542561
 20
429.34149602618328
 30
0.0
 11
454.01718284542579
 21
429.89149602618278
 31
0.0
  0
LINE
  5
882E
  8
0
 62
     0
 10
455.77718284542561
 20
431.98149602618298
 30
0.0
 11
455.77718284542561
 21
429.34149602618328
 31
0.0
  0
LINE
  5
882F
  8
0
 62
     0
 10
454.01718284542579
 20
431.49149602618331
 30
0.0
 11
455.77718284542561
 21
431.98149602618298
 31
0.0
  0
LINE
  5
8830
  8
0
 62
     0
 10
454.01718284542579
 20
431.49149602618331
 30
0.0
 11
454.01718284542579
 21
429.89149602618278
 31
0.0
  0
LINE
  5
8831
  8
0
 62
     0
 10
455.77718284542561
 20
418.34149602618299
 30
0.0
 11
454.01718284542579
 21
418.89149602618329
 31
0.0
  0
LINE
  5
8832
  8
0
 62
     0
 10
455.77718284542561
 20
420.98149602618298
 30
0.0
 11
455.77718284542561
 21
418.34149602618299
 31
0.0
  0
LINE
  5
8833
  8
0
 62
     0
 10
454.01718284542579
 20
420.49149602618331
 30
0.0
 11
455.77718284542561
 21
420.98149602618298
 31
0.0
  0
LINE
  5
8834
  8
0
 62
     0
 10
454.01718284542579
 20
420.49149602618331
 30
0.0
 11
454.01718284542579
 21
418.89149602618329
 31
0.0
  0
LINE
  5
8835
  8
0
 62
     0
 10
455.18885184542592
 20
349.65221602618328
 30
0.0
 11
454.15722287471141
 21
340.83345527652961
 31
0.0
  0
LINE
  5
8836
  8
0
 62
     0
 10
454.1219658454259
 20
343.3606490261833
 30
0.0
 11
455.17692284542579
 21
352.78763602618329
 31
0.0
  0
LINE
  5
8837
  8
0
 62
     0
 10
454.1490358454256
 20
347.36150502618329
 30
0.0
 11
455.24794784542581
 21
357.75567902618332
 31
0.0
  0
LINE
  5
8838
  8
0
 62
     0
 10
455.29888884542572
 20
364.29229902618329
 30
0.0
 11
454.17360784542581
 21
352.81301502618339
 31
0.0
  0
LINE
  5
8839
  8
0
 62
     0
 10
455.34005584542558
 20
371.70204102618339
 30
0.0
 11
454.10733884542577
 21
358.73138002618327
 31
0.0
  0
LINE
  5
883A
  8
0
 62
     0
 10
455.24897484542589
 20
348.51588802618329
 30
0.0
 11
454.17694184382299
 21
339.63531001290607
 31
0.0
  0
LINE
  5
883B
  8
0
 62
     0
 10
454.01718284542579
 20
409.49149602618309
 30
0.0
 11
454.01718284542579
 21
407.89149602618312
 31
0.0
  0
LINE
  5
883C
  8
0
 62
     0
 10
454.01718284542579
 20
409.49149602618309
 30
0.0
 11
455.77718284542561
 21
409.98149602618332
 31
0.0
  0
LINE
  5
883D
  8
0
 62
     0
 10
455.77718284542561
 20
409.98149602618332
 30
0.0
 11
455.77718284542561
 21
407.34149602618328
 31
0.0
  0
LINE
  5
883E
  8
0
 62
     0
 10
455.77718284542561
 20
407.34149602618328
 30
0.0
 11
454.01718284542579
 21
407.89149602618312
 31
0.0
  0
LINE
  5
883F
  8
0
 62
     0
 10
454.01718284542579
 20
464.49149602618331
 30
0.0
 11
454.01718284542579
 21
462.89149602618301
 31
0.0
  0
LINE
  5
8840
  8
0
 62
     0
 10
454.01718284542579
 20
464.49149602618331
 30
0.0
 11
455.77718284542561
 21
464.98149602618309
 31
0.0
  0
LINE
  5
8841
  8
0
 62
     0
 10
455.77718284542561
 20
464.98149602618309
 30
0.0
 11
455.77718284542561
 21
462.34149602618328
 31
0.0
  0
LINE
  5
8842
  8
0
 62
     0
 10
455.77718284542561
 20
462.34149602618328
 30
0.0
 11
454.01718284542579
 21
462.89149602618301
 31
0.0
  0
LINE
  5
8843
  8
0
 62
     0
 10
405.73405884542558
 20
462.34149602618328
 30
0.0
 11
405.73405884542558
 21
453.98149602618298
 31
0.0
  0
LINE
  5
8844
  8
0
 62
     0
 10
421.77718184542579
 20
462.34149602618328
 30
0.0
 11
421.77718184542579
 21
453.98149602618298
 31
0.0
  0
LINE
  5
8845
  8
0
 62
     0
 10
421.77718184542579
 20
451.34149602618299
 30
0.0
 11
421.77718184542579
 21
442.98149602618332
 31
0.0
  0
LINE
  5
8846
  8
0
 62
     0
 10
405.73405884542558
 20
451.34149602618299
 30
0.0
 11
405.73405884542558
 21
442.98149602618332
 31
0.0
  0
LINE
  5
8847
  8
0
 62
     0
 10
405.73405884542558
 20
440.34149602618328
 30
0.0
 11
405.73405884542558
 21
431.98149602618298
 31
0.0
  0
LINE
  5
8848
  8
0
 62
     0
 10
421.77718184542579
 20
440.34149602618328
 30
0.0
 11
421.77718184542579
 21
431.98149602618298
 31
0.0
  0
LINE
  5
8849
  8
0
 62
     0
 10
421.77718184542579
 20
429.34149602618328
 30
0.0
 11
421.77718184542579
 21
420.98149602618298
 31
0.0
  0
LINE
  5
884A
  8
0
 62
     0
 10
405.73405884542558
 20
429.34149602618328
 30
0.0
 11
405.73405884542558
 21
420.98149602618298
 31
0.0
  0
LINE
  5
884B
  8
0
 62
     0
 10
405.73405884542558
 20
418.34149602618299
 30
0.0
 11
405.73405884542558
 21
409.98149602618332
 31
0.0
  0
LINE
  5
884C
  8
0
 62
     0
 10
421.77718184542579
 20
418.34149602618299
 30
0.0
 11
421.77718184542579
 21
409.98149602618332
 31
0.0
  0
LINE
  5
884D
  8
0
 62
     0
 10
421.77718184542579
 20
407.34149602618328
 30
0.0
 11
421.77718184542579
 21
391.55305002618331
 31
0.0
  0
LINE
  5
884E
  8
0
 62
     0
 10
405.73405884542558
 20
407.34149602618328
 30
0.0
 11
405.73405884542558
 21
376.03642702618328
 31
0.0
  0
LINE
  5
884F
  8
0
 62
     0
 10
455.34005584542558
 20
371.70204102618339
 30
0.0
 11
421.77718184542579
 21
371.70204102618339
 31
0.0
  0
LINE
  5
8850
  8
0
 62
     0
 10
455.29888884542572
 20
364.29229902618329
 30
0.0
 11
454.63584284542571
 21
364.29229902618329
 31
0.0
  0
ARC
  5
8851
  8
0
 62
     0
 10
452.1163108454258
 20
358.92060502618318
 30
0.0
 40
2.0
 50
270.0
 51
354.57098099999808
  0
ARC
  5
8852
  8
0
 62
     0
 10
452.18314884542582
 20
353.0081340261832
 30
0.0
 40
2.0
 50
270.0
 51
354.40134699999788
  0
ARC
  5
8853
  8
0
 62
     0
 10
452.16012084542558
 20
347.57178102618332
 30
0.0
 40
2.0
 50
270.0
 51
353.9648860000006
  0
ARC
  5
8854
  8
0
 62
     0
 10
452.1343728454259
 20
343.58307602618328
 30
0.0
 40
2.0
 50
270.0
 51
353.61470099999968
  0
LINE
  5
8855
  8
0
 62
     0
 10
455.24794784542581
 20
357.75567902618332
 30
0.0
 11
454.65812284542568
 21
357.75567902618332
 31
0.0
  0
LINE
  5
8856
  8
0
 62
     0
 10
455.17692284542579
 20
352.78763602618329
 30
0.0
 11
454.72270784542582
 21
352.78763602618329
 31
0.0
  0
LINE
  5
8857
  8
0
 62
     0
 10
455.18885184542592
 20
349.65221602618328
 30
0.0
 11
454.8260438454256
 21
349.65221602618328
 31
0.0
  0
LINE
  5
8858
  8
0
 62
     0
 10
455.24897484542589
 20
348.51588802618329
 30
0.0
 11
455.0559228454257
 21
348.51588802618329
 31
0.0
  0
LINE
  5
8859
  8
0
 62
     0
 10
457.77718284542578
 20
396.43879002618331
 30
0.0
 11
441.27718284542578
 21
396.43879002618331
 31
0.0
  0
LINE
  5
885A
  8
0
 62
     0
 10
460.77718284542573
 20
386.25949802618339
 30
0.0
 11
443.27718284542561
 21
386.25949802618339
 31
0.0
  0
LINE
  5
885B
  8
0
 62
     0
 10
460.77718284542573
 20
373.97221702618327
 30
0.0
 11
443.27718284542561
 21
373.97221702618327
 31
0.0
  0
LINE
  5
885C
  8
0
 62
     0
 10
441.27718284542578
 20
395.43879002618331
 30
0.0
 11
441.27718284542578
 21
375.97221702618327
 31
0.0
  0
LINE
  5
885D
  8
0
 62
     0
 10
457.77718284542578
 20
396.43879002618331
 30
0.0
 11
460.77718284542573
 21
398.17084102618333
 31
0.0
  0
ARC
  5
885E
  8
0
 62
     0
 10
443.27718284542561
 20
388.25949802618328
 30
0.0
 40
2.0
 50
180.0
 51
270.0
  0
ARC
  5
885F
  8
0
 62
     0
 10
443.27718284542561
 20
375.97221702618327
 30
0.0
 40
2.0
 50
180.0
 51
270.0
  0
ARC
  5
8860
  8
0
 62
     0
 10
443.27718284542561
 20
384.25949802618339
 30
0.0
 40
2.0
 50
90.0
 51
180.0
  0
LINE
  5
8861
  8
0
 62
     0
 10
421.77718184542579
 20
380.1407000261832
 30
0.0
 11
421.77718184542579
 21
371.70204102618339
 31
0.0
  0
LINE
  5
8862
  8
0
 62
     0
 10
405.73405884542558
 20
376.03642702618328
 30
0.0
 11
421.77718184542579
 21
371.70204102618339
 31
0.0
  0
ARC
  5
8863
  8
0
 62
     0
 10
440.27718284542573
 20
395.43879002618331
 30
0.0
 40
1.0
 50
0.0
 51
90.0
  0
LINE
  5
8864
  8
0
 62
     0
 10
405.73405884542558
 20
376.03642702618328
 30
0.0
 11
353.77718284542578
 21
376.03642702618328
 31
0.0
  0
LINE
  5
8865
  8
0
 62
     0
 10
452.1913569779997
 20
337.87500302618332
 30
0.0
 11
260.30591584542577
 21
337.87500302618332
 31
0.0
  0
LINE
  5
8866
  8
0
 62
     0
 10
452.17076860102009
 20
339.06583302618333
 30
0.0
 11
260.31685584542578
 21
339.06583302618333
 31
0.0
  0
LINE
  5
8867
  8
0
 62
     0
 10
452.1343728454259
 20
341.58307602618339
 30
0.0
 11
260.32611984542592
 21
341.58307602618339
 31
0.0
  0
LINE
  5
8868
  8
0
 62
     0
 10
452.16012084542558
 20
345.57178102618332
 30
0.0
 11
260.33806884542582
 21
345.57178102618332
 31
0.0
  0
LINE
  5
8869
  8
0
 62
     0
 10
452.18314884542582
 20
351.0081340261832
 30
0.0
 11
260.35583284542588
 21
351.0081340261832
 31
0.0
  0
LINE
  5
886A
  8
0
 62
     0
 10
452.1163108454258
 20
356.92060502618318
 30
0.0
 11
260.36150084542578
 21
356.92060502618318
 31
0.0
  0
LINE
  5
886B
  8
0
 62
     0
 10
405.73405884542558
 20
509.99897102618331
 30
0.0
 11
405.73405884542558
 21
496.02149602618329
 31
0.0
  0
LINE
  5
886C
  8
0
 62
     0
 10
421.77718184542579
 20
514.59883302618312
 30
0.0
 11
421.77718184542579
 21
512.01428302618331
 31
0.0
  0
LINE
  5
886D
  8
0
 62
     0
 10
392.27718284542578
 20
464.98149602618309
 30
0.0
 11
455.77718284542561
 21
464.98149602618309
 31
0.0
  0
LINE
  5
886E
  8
0
 62
     0
 10
392.27718284542578
 20
464.49149602618331
 30
0.0
 11
454.01718284542579
 21
464.49149602618331
 31
0.0
  0
LINE
  5
886F
  8
0
 62
     0
 10
392.27718284542578
 20
462.89149602618301
 30
0.0
 11
454.01718284542579
 21
462.89149602618301
 31
0.0
  0
LINE
  5
8870
  8
0
 62
     0
 10
392.27718284542578
 20
462.34149602618328
 30
0.0
 11
455.77718284542561
 21
462.34149602618328
 31
0.0
  0
LINE
  5
8871
  8
0
 62
     0
 10
392.27718284542578
 20
409.98149602618332
 30
0.0
 11
455.77718284542561
 21
409.98149602618332
 31
0.0
  0
LINE
  5
8872
  8
0
 62
     0
 10
392.27718284542578
 20
409.49149602618309
 30
0.0
 11
454.01718284542579
 21
409.49149602618309
 31
0.0
  0
LINE
  5
8873
  8
0
 62
     0
 10
392.27718284542578
 20
407.89149602618312
 30
0.0
 11
454.01718284542579
 21
407.89149602618312
 31
0.0
  0
LINE
  5
8874
  8
0
 62
     0
 10
392.27718284542578
 20
407.34149602618328
 30
0.0
 11
455.77718284542561
 21
407.34149602618328
 31
0.0
  0
LINE
  5
8875
  8
0
 62
     0
 10
392.27718284542578
 20
440.34149602618328
 30
0.0
 11
455.77718284542561
 21
440.34149602618328
 31
0.0
  0
LINE
  5
8876
  8
0
 62
     0
 10
392.27718284542578
 20
440.89149602618318
 30
0.0
 11
454.01718284542579
 21
440.89149602618318
 31
0.0
  0
LINE
  5
8877
  8
0
 62
     0
 10
392.27718284542578
 20
420.98149602618298
 30
0.0
 11
455.77718284542561
 21
420.98149602618298
 31
0.0
  0
LINE
  5
8878
  8
0
 62
     0
 10
392.27718284542578
 20
420.49149602618331
 30
0.0
 11
454.01718284542579
 21
420.49149602618331
 31
0.0
  0
LINE
  5
8879
  8
0
 62
     0
 10
392.27718284542578
 20
418.89149602618329
 30
0.0
 11
454.01718284542579
 21
418.89149602618329
 31
0.0
  0
LINE
  5
887A
  8
0
 62
     0
 10
392.27718284542578
 20
418.34149602618299
 30
0.0
 11
455.77718284542561
 21
418.34149602618299
 31
0.0
  0
LINE
  5
887B
  8
0
 62
     0
 10
392.27718284542578
 20
431.98149602618298
 30
0.0
 11
455.77718284542561
 21
431.98149602618298
 31
0.0
  0
LINE
  5
887C
  8
0
 62
     0
 10
392.27718284542578
 20
431.49149602618331
 30
0.0
 11
454.01718284542579
 21
431.49149602618331
 31
0.0
  0
LINE
  5
887D
  8
0
 62
     0
 10
392.27718284542578
 20
429.89149602618278
 30
0.0
 11
454.01718284542579
 21
429.89149602618278
 31
0.0
  0
LINE
  5
887E
  8
0
 62
     0
 10
392.27718284542578
 20
429.34149602618328
 30
0.0
 11
455.77718284542561
 21
429.34149602618328
 31
0.0
  0
LINE
  5
887F
  8
0
 62
     0
 10
392.27718284542578
 20
453.98149602618298
 30
0.0
 11
455.77718284542561
 21
453.98149602618298
 31
0.0
  0
LINE
  5
8880
  8
0
 62
     0
 10
392.27718284542578
 20
453.49149602618331
 30
0.0
 11
454.01718284542579
 21
453.49149602618331
 31
0.0
  0
LINE
  5
8881
  8
0
 62
     0
 10
392.27718284542578
 20
451.89149602618329
 30
0.0
 11
454.01718284542579
 21
451.89149602618329
 31
0.0
  0
LINE
  5
8882
  8
0
 62
     0
 10
392.27718284542578
 20
451.34149602618299
 30
0.0
 11
455.77718284542561
 21
451.34149602618299
 31
0.0
  0
LINE
  5
8883
  8
0
 62
     0
 10
392.27718284542578
 20
442.98149602618332
 30
0.0
 11
455.77718284542561
 21
442.98149602618332
 31
0.0
  0
LINE
  5
8884
  8
0
 62
     0
 10
392.27718284542578
 20
442.49149602618309
 30
0.0
 11
454.01718284542579
 21
442.49149602618309
 31
0.0
  0
LINE
  5
8885
  8
0
 62
     0
 10
457.77718284542578
 20
348.16149602618327
 30
0.0
 11
457.77718284542578
 21
373.97221702618327
 31
0.0
  0
LINE
  5
8886
  8
0
 62
     0
 10
455.2061938454259
 20
348.16149602618327
 30
0.0
 11
457.77718284542578
 21
348.16149602618327
 31
0.0
  0
LINE
  5
8887
  8
0
 62
     0
 10
455.77718284542561
 20
496.02149602618329
 30
0.0
 11
454.01718284542579
 21
495.46149602618328
 31
0.0
  0
LINE
  5
8888
  8
0
 62
     0
 10
454.01718284542579
 20
493.86149602618309
 30
0.0
 11
455.77718284542561
 21
493.32149602618318
 31
0.0
  0
LINE
  5
8889
  8
0
 62
     0
 10
455.77718284542561
 20
493.32149602618318
 30
0.0
 11
455.77718284542561
 21
496.02149602618329
 31
0.0
  0
LINE
  5
888A
  8
0
 62
     0
 10
454.01718284542579
 20
493.86149602618309
 30
0.0
 11
454.01718284542579
 21
495.46149602618328
 31
0.0
  0
LINE
  5
888B
  8
0
 62
     0
 10
455.77718284542561
 20
487.97649602618282
 30
0.0
 11
454.01718284542579
 21
487.43649602618279
 31
0.0
  0
LINE
  5
888C
  8
0
 62
     0
 10
454.01718284542579
 20
485.83649602618289
 30
0.0
 11
455.77718284542561
 21
485.34649602618282
 31
0.0
  0
LINE
  5
888D
  8
0
 62
     0
 10
454.01718284542579
 20
485.83649602618289
 30
0.0
 11
454.01718284542579
 21
487.43649602618279
 31
0.0
  0
LINE
  5
888E
  8
0
 62
     0
 10
455.77718284542561
 20
485.34649602618282
 30
0.0
 11
455.77718284542561
 21
487.97649602618282
 31
0.0
  0
LINE
  5
888F
  8
0
 62
     0
 10
390.77718284542578
 20
496.28568302618322
 30
0.0
 11
389.15527384542588
 21
513.35142602618305
 31
0.0
  0
LINE
  5
8890
  8
0
 62
     0
 10
390.77718284542578
 20
502.82661902618298
 30
0.0
 11
389.15665984542579
 21
519.3579870261832
 31
0.0
  0
LINE
  5
8891
  8
0
 62
     0
 10
141.8357158454258
 20
501.49346602618323
 30
0.0
 11
146.83681384542581
 21
529.85607602618313
 31
0.0
  0
LINE
  5
8892
  8
0
 62
     0
 10
149.5570288454258
 20
526.72723102618329
 30
0.0
 11
149.5570288454258
 21
437.83938402618298
 31
0.0
  0
ARC
  5
8893
  8
0
 62
     0
 10
150.77605384542579
 20
529.16149602618304
 30
0.0
 40
4.0
 50
90.0
 51
170.00018299999971
  0
LINE
  5
8894
  8
0
 62
     0
 10
141.77718284542581
 20
493.76147202618318
 30
0.0
 11
141.77718284542581
 21
407.45046802618299
 31
0.0
  0
ARC
  5
8895
  8
0
 62
     0
 10
142.77718284542581
 20
498.16149602618327
 30
0.0
 40
3.0
 50
118.787689000001
 51
180.0
  0
LINE
  5
8896
  8
0
 62
     0
 10
139.77718284542581
 20
498.16149602618327
 30
0.0
 11
139.77718284542581
 21
386.30978202618309
 31
0.0
  0
LINE
  5
8897
  8
0
 62
     0
 10
149.5570288454258
 20
425.98087102618319
 30
0.0
 11
150.77605384542579
 21
343.16149602618327
 31
0.0
  0
LINE
  5
8898
  8
0
 62
     0
 10
143.4652018454259
 20
361.58817402618331
 30
0.0
 11
146.83606471095541
 21
342.47121664777558
 31
0.0
  0
ARC
  5
8899
  8
0
 62
     0
 10
150.77605384542579
 20
343.16149602618327
 30
0.0
 40
4.0
 50
189.9372689923992
 51
270.0
  0
ARC
  5
889A
  8
0
 62
     0
 10
140.8509128454258
 20
501.66717202618321
 30
0.0
 40
1.0
 50
298.7879640000001
 51
350.00021400000242
  0
LINE
  5
889B
  8
0
 62
     0
 10
143.83454784542579
 20
429.19751802618322
 30
0.0
 11
136.79051884542579
 21
354.73971502618332
 31
0.0
  0
LINE
  5
889C
  8
0
 62
     0
 10
149.80787684542591
 20
428.63241502618308
 30
0.0
 11
142.7638468454258
 21
354.17461202618318
 31
0.0
  0
ARC
  5
889D
  8
0
 62
     0
 10
154.78565084542581
 20
428.16149602618322
 30
0.0
 40
5.0
 50
90.0
 51
174.59565699999811
  0
ARC
  5
889E
  8
0
 62
     0
 10
154.78565084542581
 20
428.16149602618322
 30
0.0
 40
11.0
 50
90.0
 51
174.59565699999811
  0
ARC
  5
889F
  8
0
 62
     0
 10
139.77718284542581
 20
354.45716302618308
 30
0.0
 40
3.0
 50
174.59565699999811
 51
354.59565699999808
  0
ARC
  5
88A0
  8
0
 62
     0
 10
139.77718284542581
 20
354.45716302618308
 30
0.0
 40
3.799999999999998
 50
220.00000000000011
 51
32.140571999998528
  0
LINE
  5
88A1
  8
0
 62
     0
 10
134.39342984542569
 20
355.81399102618332
 30
0.0
 11
136.80797284542581
 21
352.09330502618332
 31
0.0
  0
LINE
  5
88A2
  8
0
 62
     0
 10
135.01089284542579
 20
356.3321040261834
 30
0.0
 11
137.47904984542581
 21
352.52880002618321
 31
0.0
  0
LINE
  5
88A3
  8
0
 62
     0
 10
135.01089284542579
 20
356.3321040261834
 30
0.0
 11
134.39342984542569
 21
355.81399102618332
 31
0.0
  0
LINE
  5
88A4
  8
0
 62
     0
 10
258.04186184542579
 20
509.99897102618331
 30
0.0
 11
256.77718284542578
 21
509.99897102618331
 31
0.0
  0
LINE
  5
88A5
  8
0
 62
     0
 10
256.77718284542578
 20
496.02149602618329
 30
0.0
 11
258.53718284542578
 21
495.46149602618328
 31
0.0
  0
LINE
  5
88A6
  8
0
 62
     0
 10
258.53718284542578
 20
493.86149602618309
 30
0.0
 11
256.77718284542578
 21
493.32149602618318
 31
0.0
  0
LINE
  5
88A7
  8
0
 62
     0
 10
256.77718284542578
 20
487.97649602618282
 30
0.0
 11
258.53718284542578
 21
487.43649602618279
 31
0.0
  0
LINE
  5
88A8
  8
0
 62
     0
 10
258.53718284542578
 20
485.83649602618289
 30
0.0
 11
256.77718284542578
 21
485.34649602618282
 31
0.0
  0
LINE
  5
88A9
  8
0
 62
     0
 10
256.77718284542578
 20
493.32149602618318
 30
0.0
 11
256.77718284542578
 21
496.02149602618329
 31
0.0
  0
LINE
  5
88AA
  8
0
 62
     0
 10
258.53718284542578
 20
493.86149602618309
 30
0.0
 11
258.53718284542578
 21
495.46149602618328
 31
0.0
  0
LINE
  5
88AB
  8
0
 62
     0
 10
258.53718284542578
 20
485.83649602618289
 30
0.0
 11
258.53718284542578
 21
487.43649602618279
 31
0.0
  0
LINE
  5
88AC
  8
0
 62
     0
 10
256.77718284542578
 20
485.34649602618282
 30
0.0
 11
256.77718284542578
 21
487.97649602618282
 31
0.0
  0
LINE
  5
88AD
  8
0
 62
     0
 10
303.27718284542578
 20
403.6614960261831
 30
0.0
 11
303.27718284542578
 21
468.66149602618327
 31
0.0
  0
LINE
  5
88AE
  8
0
 62
     0
 10
302.77718284542578
 20
464.1614960261831
 30
0.0
 11
302.77718284542578
 21
454.16149602618299
 31
0.0
  0
ARC
  5
88AF
  8
0
 62
     0
 10
303.27772984542582
 20
464.16094902618312
 30
0.0
 40
0.5005470000000001
 50
90.0626249999995
 51
179.93737500000049
  0
ARC
  5
88B0
  8
0
 62
     0
 10
306.77768184542578
 20
468.66099702618328
 30
0.0
 40
3.5004989999999978
 50
90.008164000001173
 51
179.991836000002
  0
LINE
  5
88B1
  8
0
 62
     0
 10
307.6971828454258
 20
470.06149602618291
 30
0.0
 11
375.40718284542578
 21
470.06149602618291
 31
0.0
  0
LINE
  5
88B2
  8
0
 62
     0
 10
307.6971828454258
 20
470.06149602618291
 30
0.0
 11
307.6971828454258
 21
472.15649602618288
 31
0.0
  0
LINE
  5
88B3
  8
0
 62
     0
 10
306.77718284542578
 20
472.16149602618282
 30
0.0
 11
390.2771828454259
 21
472.16149602618282
 31
0.0
  0
LINE
  5
88B4
  8
0
 62
     0
 10
375.40718284542578
 20
470.06149602618291
 30
0.0
 11
385.67718284542582
 21
459.7914960261831
 31
0.0
  0
LINE
  5
88B5
  8
0
 62
     0
 10
377.29718284542582
 20
471.1314960261833
 30
0.0
 11
386.74718284542593
 21
461.68149602618303
 31
0.0
  0
CIRCLE
  5
88B6
  8
0
 62
     0
 10
386.77718284542578
 20
467.16149602618287
 30
0.0
 40
3.5
  0
CIRCLE
  5
88B7
  8
0
 62
     0
 10
386.77718284542578
 20
467.16149602618287
 30
0.0
 40
3.299999999999998
  0
LINE
  5
88B8
  8
0
 62
     0
 10
388.20718284542579
 20
467.83693502618308
 30
0.0
 11
389.78731984542583
 21
467.83693502618308
 31
0.0
  0
LINE
  5
88B9
  8
0
 62
     0
 10
388.20718284542579
 20
466.48605702618329
 30
0.0
 11
389.78731984542583
 21
466.48605702618329
 31
0.0
  0
LINE
  5
88BA
  8
0
 62
     0
 10
383.54704584542583
 20
467.616935026183
 30
0.0
 11
383.54704584542583
 21
466.70605702618332
 31
0.0
  0
ARC
  5
88BB
  8
0
 62
     0
 10
383.76704584542591
 20
466.70605702618332
 30
0.0
 40
0.22
 50
180.0
 51
270.0
  0
LINE
  5
88BC
  8
0
 62
     0
 10
388.20718284542579
 20
466.48605702618329
 30
0.0
 11
387.54718284542582
 21
466.48605702618329
 31
0.0
  0
ARC
  5
88BD
  8
0
 62
     0
 10
388.20718284542579
 20
466.70605702618332
 30
0.0
 40
0.22
 50
270.0
 51
0.0
  0
LINE
  5
88BE
  8
0
 62
     0
 10
387.3271828454258
 20
465.73149602618332
 30
0.0
 11
387.3271828454258
 21
466.26605702618332
 31
0.0
  0
LINE
  5
88BF
  8
0
 62
     0
 10
386.22718284542589
 20
465.73149602618332
 30
0.0
 11
386.22718284542589
 21
466.26605702618332
 31
0.0
  0
LINE
  5
88C0
  8
0
 62
     0
 10
386.00718284542592
 20
466.48605702618329
 30
0.0
 11
385.34718284542589
 21
466.48605702618329
 31
0.0
  0
ARC
  5
88C1
  8
0
 62
     0
 10
385.34718284542589
 20
466.70605702618332
 30
0.0
 40
0.22
 50
180.0
 51
270.0
  0
ARC
  5
88C2
  8
0
 62
     0
 10
387.54718284542582
 20
466.26605702618332
 30
0.0
 40
0.22
 50
90.0
 51
180.0
  0
ARC
  5
88C3
  8
0
 62
     0
 10
386.00718284542592
 20
466.26605702618332
 30
0.0
 40
0.22
 50
0.0
 51
90.0
  0
LINE
  5
88C4
  8
0
 62
     0
 10
386.4471828454258
 20
465.51149602618318
 30
0.0
 11
387.10718284542588
 21
465.51149602618318
 31
0.0
  0
ARC
  5
88C5
  8
0
 62
     0
 10
386.4471828454258
 20
465.73149602618332
 30
0.0
 40
0.22
 50
180.0
 51
270.0
  0
ARC
  5
88C6
  8
0
 62
     0
 10
387.10718284542588
 20
465.73149602618332
 30
0.0
 40
0.22
 50
270.0
 51
0.0
  0
LINE
  5
88C7
  8
0
 62
     0
 10
385.34718284542589
 20
466.48605702618329
 30
0.0
 11
383.76704584542591
 21
466.48605702618329
 31
0.0
  0
LINE
  5
88C8
  8
0
 62
     0
 10
387.54718284542582
 20
467.83693502618308
 30
0.0
 11
388.20718284542579
 21
467.83693502618308
 31
0.0
  0
ARC
  5
88C9
  8
0
 62
     0
 10
388.20718284542579
 20
467.616935026183
 30
0.0
 40
0.22
 50
0.0
 51
90.0
  0
ARC
  5
88CA
  8
0
 62
     0
 10
386.4471828454258
 20
468.59149602618328
 30
0.0
 40
0.22
 50
90.0
 51
180.0
  0
ARC
  5
88CB
  8
0
 62
     0
 10
387.10718284542588
 20
468.59149602618328
 30
0.0
 40
0.22
 50
0.0
 51
90.0
  0
LINE
  5
88CC
  8
0
 62
     0
 10
385.34718284542589
 20
467.83693502618308
 30
0.0
 11
383.76704584542591
 21
467.83693502618308
 31
0.0
  0
ARC
  5
88CD
  8
0
 62
     0
 10
387.54718284542582
 20
468.05693502618328
 30
0.0
 40
0.22
 50
180.0
 51
270.0
  0
ARC
  5
88CE
  8
0
 62
     0
 10
386.00718284542592
 20
468.05693502618328
 30
0.0
 40
0.22
 50
270.0
 51
0.0
  0
LINE
  5
88CF
  8
0
 62
     0
 10
385.34718284542589
 20
467.83693502618308
 30
0.0
 11
386.00718284542592
 21
467.83693502618308
 31
0.0
  0
ARC
  5
88D0
  8
0
 62
     0
 10
385.34718284542589
 20
467.616935026183
 30
0.0
 40
0.22
 50
90.0
 51
180.0
  0
LINE
  5
88D1
  8
0
 62
     0
 10
387.3271828454258
 20
468.59149602618328
 30
0.0
 11
387.3271828454258
 21
468.05693502618328
 31
0.0
  0
LINE
  5
88D2
  8
0
 62
     0
 10
386.22718284542589
 20
468.05693502618328
 30
0.0
 11
386.22718284542589
 21
468.59149602618328
 31
0.0
  0
LINE
  5
88D3
  8
0
 62
     0
 10
386.4471828454258
 20
468.81149602618319
 30
0.0
 11
387.10718284542588
 21
468.81149602618319
 31
0.0
  0
ARC
  5
88D4
  8
0
 62
     0
 10
383.76704584542591
 20
467.616935026183
 30
0.0
 40
0.22
 50
90.0
 51
180.0
  0
LINE
  5
88D5
  8
0
 62
     0
 10
385.12718284542581
 20
466.70605702618332
 30
0.0
 11
385.12718284542581
 21
467.616935026183
 31
0.0
  0
LINE
  5
88D6
  8
0
 62
     0
 10
388.42718284542582
 20
466.70605702618332
 30
0.0
 11
388.42718284542582
 21
467.616935026183
 31
0.0
  0
ARC
  5
88D7
  8
0
 62
     0
 10
374.81513784542591
 20
468.65600802618309
 30
0.0
 40
3.5055079999999998
 50
44.924208999998719
 51
89.803122999998919
  0
LINE
  5
88D8
  8
0
 62
     0
 10
392.27718284542578
 20
470.16149602618322
 30
0.0
 11
392.27718284542578
 21
462.66149602618299
 31
0.0
  0
ARC
  5
88D9
  8
0
 62
     0
 10
389.78731984542583
 20
466.70605702618332
 30
0.0
 40
0.22
 50
270.0
 51
0.0
  0
ARC
  5
88DA
  8
0
 62
     0
 10
389.78731984542583
 20
467.616935026183
 30
0.0
 40
0.22
 50
0.0
 51
90.0
  0
LINE
  5
88DB
  8
0
 62
     0
 10
390.00731984542591
 20
466.70605702618332
 30
0.0
 11
390.00731984542591
 21
467.616935026183
 31
0.0
  0
ARC
  5
88DC
  8
0
 62
     0
 10
390.2771828454259
 20
470.16149602618322
 30
0.0
 40
2.0
 50
0.0
 51
90.0
  0
LINE
  5
88DD
  8
0
 62
     0
 10
385.67718284542582
 20
459.7914960261831
 30
0.0
 11
385.67718284542582
 21
412.53149602618328
 31
0.0
  0
LINE
  5
88DE
  8
0
 62
     0
 10
387.7771828454259
 20
459.21149602618328
 30
0.0
 11
387.7771828454259
 21
413.11149602618309
 31
0.0
  0
ARC
  5
88DF
  8
0
 62
     0
 10
389.77718284542578
 20
458.66149602618299
 30
0.0
 40
2.0
 50
90.0
 51
180.0
  0
ARC
  5
88E0
  8
0
 62
     0
 10
384.27217884542591
 20
459.199652026183
 30
0.0
 40
3.5050239999999979
 50
0.1936059999989261
 51
45.07906200000054
  0
ARC
  5
88E1
  8
0
 62
     0
 10
390.2771828454259
 20
462.66149602618299
 30
0.0
 40
2.0
 50
270.0
 51
0.0
  0
LINE
  5
88E2
  8
0
 62
     0
 10
390.2771828454259
 20
460.66149602618327
 30
0.0
 11
389.77718284542578
 21
460.66149602618327
 31
0.0
  0
ARC
  5
88E3
  8
0
 62
     0
 10
387.76967384542581
 20
441.15398702618302
 30
0.0
 40
0.507564
 50
0.8476510000019549
 51
89.152348999997997
  0
LINE
  5
88E4
  8
0
 62
     0
 10
388.27718284542578
 20
441.1614960261831
 30
0.0
 11
388.27718284542578
 21
431.16149602618327
 31
0.0
  0
ARC
  5
88E5
  8
0
 62
     0
 10
387.77761684542588
 20
431.16106202618317
 30
0.0
 40
0.499566
 50
269.95018499999878
 51
0.0498149999979073
  0
LINE
  5
88E6
  8
0
 62
     0
 10
386.74718284542593
 20
410.63149602618319
 30
0.0
 11
377.29718284542582
 21
401.18149602618308
 31
0.0
  0
LINE
  5
88E7
  8
0
 62
     0
 10
385.67718284542582
 20
412.53149602618328
 30
0.0
 11
375.40718284542578
 21
402.26149602618278
 31
0.0
  0
ARC
  5
88E8
  8
0
 62
     0
 10
389.77718284542578
 20
413.66149602618282
 30
0.0
 40
2.0
 50
180.0
 51
270.0
  0
ARC
  5
88E9
  8
0
 62
     0
 10
384.27392784542587
 20
413.11258602618329
 30
0.0
 40
3.5032559999999981
 50
314.9093960000028
 51
359.98217399999822
  0
LINE
  5
88EA
  8
0
 62
     0
 10
383.54704584542583
 20
405.61693502618289
 30
0.0
 11
383.54704584542583
 21
404.70605702618332
 31
0.0
  0
ARC
  5
88EB
  8
0
 62
     0
 10
387.10718284542588
 20
406.59149602618322
 30
0.0
 40
0.22
 50
0.0
 51
90.0
  0
ARC
  5
88EC
  8
0
 62
     0
 10
386.4471828454258
 20
406.59149602618322
 30
0.0
 40
0.22
 50
90.0
 51
180.0
  0
LINE
  5
88ED
  8
0
 62
     0
 10
386.4471828454258
 20
406.81149602618319
 30
0.0
 11
387.10718284542588
 21
406.81149602618319
 31
0.0
  0
LINE
  5
88EE
  8
0
 62
     0
 10
388.20718284542579
 20
405.83693502618303
 30
0.0
 11
389.78731984542583
 21
405.83693502618303
 31
0.0
  0
ARC
  5
88EF
  8
0
 62
     0
 10
383.76704584542591
 20
405.61693502618289
 30
0.0
 40
0.22
 50
90.0
 51
180.0
  0
ARC
  5
88F0
  8
0
 62
     0
 10
389.78731984542583
 20
405.61693502618289
 30
0.0
 40
0.22
 50
0.0
 51
90.0
  0
ARC
  5
88F1
  8
0
 62
     0
 10
386.00718284542592
 20
406.05693502618323
 30
0.0
 40
0.22
 50
270.0
 51
0.0
  0
ARC
  5
88F2
  8
0
 62
     0
 10
387.54718284542582
 20
406.05693502618323
 30
0.0
 40
0.22
 50
180.0
 51
270.0
  0
LINE
  5
88F3
  8
0
 62
     0
 10
388.20718284542579
 20
405.83693502618303
 30
0.0
 11
387.54718284542582
 21
405.83693502618303
 31
0.0
  0
ARC
  5
88F4
  8
0
 62
     0
 10
385.34718284542589
 20
405.61693502618289
 30
0.0
 40
0.22
 50
90.0
 51
180.0
  0
LINE
  5
88F5
  8
0
 62
     0
 10
385.34718284542589
 20
405.83693502618303
 30
0.0
 11
383.76704584542591
 21
405.83693502618303
 31
0.0
  0
LINE
  5
88F6
  8
0
 62
     0
 10
386.00718284542592
 20
405.83693502618303
 30
0.0
 11
385.34718284542589
 21
405.83693502618303
 31
0.0
  0
ARC
  5
88F7
  8
0
 62
     0
 10
388.20718284542579
 20
405.61693502618289
 30
0.0
 40
0.22
 50
0.0
 51
90.0
  0
LINE
  5
88F8
  8
0
 62
     0
 10
386.22718284542589
 20
406.59149602618322
 30
0.0
 11
386.22718284542589
 21
406.05693502618323
 31
0.0
  0
LINE
  5
88F9
  8
0
 62
     0
 10
387.3271828454258
 20
406.59149602618322
 30
0.0
 11
387.3271828454258
 21
406.05693502618323
 31
0.0
  0
LINE
  5
88FA
  8
0
 62
     0
 10
388.20718284542579
 20
404.48605702618329
 30
0.0
 11
389.78731984542583
 21
404.48605702618329
 31
0.0
  0
ARC
  5
88FB
  8
0
 62
     0
 10
383.76704584542591
 20
404.70605702618332
 30
0.0
 40
0.22
 50
180.0
 51
270.0
  0
LINE
  5
88FC
  8
0
 62
     0
 10
386.22718284542589
 20
404.26605702618332
 30
0.0
 11
386.22718284542589
 21
403.73149602618332
 31
0.0
  0
LINE
  5
88FD
  8
0
 62
     0
 10
387.3271828454258
 20
403.73149602618332
 30
0.0
 11
387.3271828454258
 21
404.26605702618332
 31
0.0
  0
ARC
  5
88FE
  8
0
 62
     0
 10
386.4471828454258
 20
403.73149602618332
 30
0.0
 40
0.22
 50
180.0
 51
270.0
  0
ARC
  5
88FF
  8
0
 62
     0
 10
387.10718284542588
 20
403.73149602618332
 30
0.0
 40
0.22
 50
270.0
 51
0.0
  0
LINE
  5
8900
  8
0
 62
     0
 10
386.4471828454258
 20
403.51149602618312
 30
0.0
 11
387.10718284542588
 21
403.51149602618312
 31
0.0
  0
LINE
  5
8901
  8
0
 62
     0
 10
387.54718284542582
 20
404.48605702618329
 30
0.0
 11
388.20718284542579
 21
404.48605702618329
 31
0.0
  0
ARC
  5
8902
  8
0
 62
     0
 10
385.34718284542589
 20
404.70605702618332
 30
0.0
 40
0.22
 50
180.0
 51
270.0
  0
LINE
  5
8903
  8
0
 62
     0
 10
385.34718284542589
 20
404.48605702618329
 30
0.0
 11
383.76704584542591
 21
404.48605702618329
 31
0.0
  0
LINE
  5
8904
  8
0
 62
     0
 10
385.34718284542589
 20
404.48605702618329
 30
0.0
 11
386.00718284542592
 21
404.48605702618329
 31
0.0
  0
ARC
  5
8905
  8
0
 62
     0
 10
388.20718284542579
 20
404.70605702618332
 30
0.0
 40
0.22
 50
270.0
 51
0.0
  0
ARC
  5
8906
  8
0
 62
     0
 10
386.00718284542592
 20
404.26605702618332
 30
0.0
 40
0.22
 50
0.0
 51
90.0
  0
ARC
  5
8907
  8
0
 62
     0
 10
387.54718284542582
 20
404.26605702618332
 30
0.0
 40
0.22
 50
90.0
 51
180.0
  0
ARC
  5
8908
  8
0
 62
     0
 10
389.78731984542583
 20
404.70605702618332
 30
0.0
 40
0.22
 50
270.0
 51
0.0
  0
LINE
  5
8909
  8
0
 62
     0
 10
388.42718284542582
 20
405.61693502618289
 30
0.0
 11
388.42718284542582
 21
404.70605702618332
 31
0.0
  0
LINE
  5
890A
  8
0
 62
     0
 10
390.00731984542591
 20
405.61693502618289
 30
0.0
 11
390.00731984542591
 21
404.70605702618332
 31
0.0
  0
LINE
  5
890B
  8
0
 62
     0
 10
385.12718284542581
 20
405.61693502618289
 30
0.0
 11
385.12718284542581
 21
404.70605702618332
 31
0.0
  0
CIRCLE
  5
890C
  8
0
 62
     0
 10
386.77718284542578
 20
405.16149602618282
 30
0.0
 40
3.299999999999998
  0
CIRCLE
  5
890D
  8
0
 62
     0
 10
386.77718284542578
 20
405.16149602618282
 30
0.0
 40
3.5
  0
ARC
  5
890E
  8
0
 62
     0
 10
390.2771828454259
 20
409.66149602618282
 30
0.0
 40
2.0
 50
0.0
 51
90.0
  0
LINE
  5
890F
  8
0
 62
     0
 10
392.27718284542578
 20
402.16149602618327
 30
0.0
 11
392.27718284542578
 21
409.66149602618282
 31
0.0
  0
LINE
  5
8910
  8
0
 62
     0
 10
390.2771828454259
 20
411.66149602618322
 30
0.0
 11
389.77718284542578
 21
411.66149602618322
 31
0.0
  0
ARC
  5
8911
  8
0
 62
     0
 10
390.2771828454259
 20
402.16149602618327
 30
0.0
 40
2.0
 50
270.0
 51
0.0
  0
LINE
  5
8912
  8
0
 62
     0
 10
375.40718284542578
 20
402.26149602618278
 30
0.0
 11
307.6971828454258
 21
402.26149602618278
 31
0.0
  0
LINE
  5
8913
  8
0
 62
     0
 10
306.77718284542578
 20
400.16149602618299
 30
0.0
 11
390.2771828454259
 21
400.16149602618299
 31
0.0
  0
ARC
  5
8914
  8
0
 62
     0
 10
374.82924284542582
 20
403.657144026183
 30
0.0
 40
3.495648999999998
 50
269.96623299999862
 51
314.91065800000371
  0
LINE
  5
8915
  8
0
 62
     0
 10
307.6971828454258
 20
402.26149602618278
 30
0.0
 11
307.6971828454258
 21
400.16149602618299
 31
0.0
  0
LINE
  5
8916
  8
0
 62
     0
 10
302.77718284542578
 20
418.1614960261827
 30
0.0
 11
302.77718284542578
 21
408.1614960261831
 31
0.0
  0
ARC
  5
8917
  8
0
 62
     0
 10
303.27772984542582
 20
418.16094902618312
 30
0.0
 40
0.5005470000000001
 50
90.0626249999995
 51
179.93737500000049
  0
ARC
  5
8918
  8
0
 62
     0
 10
303.26982684542588
 20
408.15414002618309
 30
0.0
 40
0.492699
 50
179.1445600000005
 51
270.85544000000289
  0
ARC
  5
8919
  8
0
 62
     0
 10
306.76982684542588
 20
403.65414002618297
 30
0.0
 40
3.4926519999999979
 50
179.87932800000161
 51
270.12067199999842
  0
ARC
  5
891A
  8
0
 62
     0
 10
303.26967484542581
 20
454.15398802618279
 30
0.0
 40
0.492549
 50
179.12656199999941
 51
270.87343799999729
  0
LINE
  5
891B
  8
0
 62
     0
 10
256.77718284542578
 20
474.88093102618302
 30
0.0
 11
389.27718284542578
 21
474.88093102618302
 31
0.0
  0
LINE
  5
891C
  8
0
 62
     0
 10
265.14718284542579
 20
474.0291580261831
 30
0.0
 11
314.7771828454259
 21
474.0291580261831
 31
0.0
  0
LINE
  5
891D
  8
0
 62
     0
 10
256.77718284542578
 20
474.88093102618302
 30
0.0
 11
265.14718284542579
 21
474.0291580261831
 31
0.0
  0
LINE
  5
891E
  8
0
 62
     0
 10
263.45228884542581
 20
397.4420610261833
 30
0.0
 11
389.27718284542578
 21
397.4420610261833
 31
0.0
  0
LINE
  5
891F
  8
0
 62
     0
 10
265.14718284542579
 20
398.29383402618328
 30
0.0
 11
314.7771828454259
 21
398.29383402618328
 31
0.0
  0
LINE
  5
8920
  8
0
 62
     0
 10
256.77718284542578
 20
401.8027070261831
 30
0.0
 11
256.77718284542578
 21
474.88093102618302
 31
0.0
  0
LINE
  5
8921
  8
0
 62
     0
 10
262.24035884542582
 20
397.99802102618332
 30
0.0
 11
265.14718284542579
 21
398.29383402618328
 31
0.0
  0
LINE
  5
8922
  8
0
 62
     0
 10
265.14718284542579
 20
398.29383402618328
 30
0.0
 11
265.14718284542579
 21
474.0291580261831
 31
0.0
  0
ARC
  5
8923
  8
0
 62
     0
 10
389.27718284542578
 20
471.88093102618302
 30
0.0
 40
3.0
 50
0.0
 51
90.0
  0
LINE
  5
8924
  8
0
 62
     0
 10
392.27718284542578
 20
471.88093102618302
 30
0.0
 11
392.27718284542578
 21
400.44206102618301
 31
0.0
  0
ARC
  5
8925
  8
0
 62
     0
 10
389.27718284542578
 20
400.44206102618301
 30
0.0
 40
3.0
 50
270.0
 51
0.0
  0
LINE
  5
8926
  8
0
 62
     0
 10
318.27718284542578
 20
473.66149602618327
 30
0.0
 11
389.27718284542578
 21
473.66149602618327
 31
0.0
  0
LINE
  5
8927
  8
0
 62
     0
 10
315.77718284542578
 20
473.02915802618298
 30
0.0
 11
315.77718284542578
 21
472.16149602618282
 31
0.0
  0
ARC
  5
8928
  8
0
 62
     0
 10
318.27190984542591
 20
471.66676902618298
 30
0.0
 40
1.994734
 50
89.848547999999084
 51
165.63982299999881
  0
ARC
  5
8929
  8
0
 62
     0
 10
314.7771828454259
 20
473.02915802618298
 30
0.0
 40
1.0
 50
0.0
 51
90.0
  0
ARC
  5
892A
  8
0
 62
     0
 10
389.27665084542582
 20
471.66096402618319
 30
0.0
 40
2.0005329999999999
 50
6.9164320000012927
 51
89.984749999998257
  0
ARC
  5
892B
  8
0
 62
     0
 10
314.7771828454259
 20
399.29383402618328
 30
0.0
 40
1.0
 50
270.0
 51
0.0
  0
ARC
  5
892C
  8
0
 62
     0
 10
318.27190984542591
 20
400.65622302618328
 30
0.0
 40
1.994734
 50
194.36017700000119
 51
270.15145200000092
  0
LINE
  5
892D
  8
0
 62
     0
 10
318.27718284542578
 20
398.66149602618327
 30
0.0
 11
389.27718284542578
 21
398.66149602618327
 31
0.0
  0
ARC
  5
892E
  8
0
 62
     0
 10
389.27665084542582
 20
400.66202802618329
 30
0.0
 40
2.0005329999999999
 50
270.01524999999521
 51
353.08356799999871
  0
LINE
  5
892F
  8
0
 62
     0
 10
254.2771828454259
 20
519.78179302618332
 30
0.0
 11
257.05394184542581
 21
519.78179302618332
 31
0.0
  0
LINE
  5
8930
  8
0
  6
AM_ISO08W050
 62
     0
 10
237.7771828454259
 20
446.86089702618318
 30
0.0
 11
237.7771828454259
 21
425.17849602618298
 31
0.0
  0
LINE
  5
8931
  8
0
 62
     0
 10
223.2771828454259
 20
438.66149602618282
 30
0.0
 11
254.2771828454259
 21
438.66149602618282
 31
0.0
  0
ARC
  5
8932
  8
0
 62
     0
 10
237.7771828454259
 20
436.16149602618327
 30
0.0
 40
9.0
 50
16.127619999997879
 51
163.8723909999996
  0
ARC
  5
8933
  8
0
 62
     0
 10
237.7771828454259
 20
436.16149602618327
 30
0.0
 40
5.5
 50
27.03569200000079
 51
152.96430799999919
  0
LINE
  5
8934
  8
0
 62
     0
 10
223.2771828454259
 20
433.66149602618299
 30
0.0
 11
254.2771828454259
 21
433.66149602618299
 31
0.0
  0
ARC
  5
8935
  8
0
 62
     0
 10
237.7771828454259
 20
436.16149602618327
 30
0.0
 40
9.0
 50
196.1276090000004
 51
343.87238000000212
  0
ARC
  5
8936
  8
0
 62
     0
 10
237.7771828454259
 20
436.16149602618327
 30
0.0
 40
5.5
 50
207.03569200000081
 51
332.96430799999882
  0
LINE
  5
8937
  8
0
 62
     0
 10
254.2771828454259
 20
533.16149602618304
 30
0.0
 11
254.2771828454259
 21
438.66149602618282
 31
0.0
  0
LINE
  5
8938
  8
0
 62
     0
 10
223.2771828454259
 20
438.66149602618282
 30
0.0
 11
222.77718284542581
 21
439.1614960261831
 31
0.0
  0
LINE
  5
8939
  8
0
 62
     0
 10
223.2771828454259
 20
433.66149602618299
 30
0.0
 11
222.77718284542581
 21
433.1614960261831
 31
0.0
  0
LINE
  5
893A
  8
0
 62
     0
 10
254.2771828454259
 20
438.66149602618282
 30
0.0
 11
254.77718284542581
 21
439.1614960261831
 31
0.0
  0
LINE
  5
893B
  8
0
 62
     0
 10
254.2771828454259
 20
433.66149602618299
 30
0.0
 11
254.77718284542581
 21
433.1614960261831
 31
0.0
  0
LINE
  5
893C
  8
0
 62
     0
 10
254.77718284542581
 20
439.1614960261831
 30
0.0
 11
256.77718284542578
 21
439.1614960261831
 31
0.0
  0
LINE
  5
893D
  8
0
 62
     0
 10
254.77718284542581
 20
433.1614960261831
 30
0.0
 11
256.77718284542578
 21
433.1614960261831
 31
0.0
  0
LINE
  5
893E
  8
0
 62
     0
 10
256.77718284542578
 20
439.1614960261831
 30
0.0
 11
256.77718284542578
 21
433.1614960261831
 31
0.0
  0
LINE
  5
893F
  8
0
 62
     0
 10
342.77718284542578
 20
537.16149602618304
 30
0.0
 11
364.7771828454259
 21
537.16149602618304
 31
0.0
  0
LINE
  5
8940
  8
0
 62
     0
 10
342.77718284542578
 20
537.16149602618304
 30
0.0
 11
342.77718284542578
 21
533.25821502618305
 31
0.0
  0
LINE
  5
8941
  8
0
 62
     0
 10
364.7771828454259
 20
537.16149602618304
 30
0.0
 11
364.7771828454259
 21
533.25821502618305
 31
0.0
  0
LINE
  5
8942
  8
0
 62
     0
 10
222.77718284542581
 20
433.1614960261831
 30
0.0
 11
154.78565084542581
 21
433.1614960261831
 31
0.0
  0
LINE
  5
8943
  8
0
 62
     0
 10
254.2771828454259
 20
339.16149602618327
 30
0.0
 11
150.77605384542579
 21
339.16149602618327
 31
0.0
  0
LINE
  5
8944
  8
0
 62
     0
 10
254.2771828454259
 20
533.16149602618304
 30
0.0
 11
150.77605384542579
 21
533.16149602618304
 31
0.0
  0
LINE
  5
8945
  8
0
 62
     0
 10
258.53718284542578
 20
493.86149602618309
 30
0.0
 11
454.01718284542579
 21
493.86149602618309
 31
0.0
  0
LINE
  5
8946
  8
0
 62
     0
 10
258.53718284542578
 20
495.46149602618328
 30
0.0
 11
454.01718284542579
 21
495.46149602618328
 31
0.0
  0
LINE
  5
8947
  8
0
 62
     0
 10
256.77718284542578
 20
493.32149602618318
 30
0.0
 11
455.77718284542561
 21
493.32149602618318
 31
0.0
  0
LINE
  5
8948
  8
0
 62
     0
 10
256.77718284542578
 20
496.02149602618329
 30
0.0
 11
455.77718284542561
 21
496.02149602618329
 31
0.0
  0
LINE
  5
8949
  8
0
 62
     0
 10
256.77718284542578
 20
485.34649602618282
 30
0.0
 11
455.77718284542561
 21
485.34649602618282
 31
0.0
  0
LINE
  5
894A
  8
0
 62
     0
 10
256.77718284542578
 20
487.97649602618282
 30
0.0
 11
455.77718284542561
 21
487.97649602618282
 31
0.0
  0
LINE
  5
894B
  8
0
 62
     0
 10
258.53718284542578
 20
485.83649602618289
 30
0.0
 11
454.01718284542579
 21
485.83649602618289
 31
0.0
  0
LINE
  5
894C
  8
0
 62
     0
 10
258.53718284542578
 20
487.43649602618279
 30
0.0
 11
454.01718284542579
 21
487.43649602618279
 31
0.0
  0
LINE
  5
894D
  8
0
 62
     0
 10
460.77718284542573
 20
351.16149602618327
 30
0.0
 11
457.77718284542578
 21
348.16149602618327
 31
0.0
  0
LINE
  5
894E
  8
0
 62
     0
 10
460.77718284542573
 20
351.16149602618327
 30
0.0
 11
460.77718284542573
 21
521.16149602618304
 31
0.0
  0
LINE
  5
894F
  8
0
 62
     0
 10
460.77718284542573
 20
521.16149602618304
 30
0.0
 11
457.77718284542578
 21
524.16149602618316
 31
0.0
  0
LINE
  5
8950
  8
0
 62
     0
 10
315.77718284542578
 20
399.29383402618328
 30
0.0
 11
315.77718284542578
 21
400.16149602618299
 31
0.0
1001
GENIUS_GENOBJ-N-CEN_13
1002
{
1000
OWNER
1000
GEN
1002
}
1001
GENIUS_GENODEF_13
1002
{
1000
HIER
1070
     0
1002
}
1002
{
1000
MANEDIT
1070
     0
1002
}
1002
{
1000
NOSEL
1070
     0
1002
}
1002
{
1000
BEHIND
1070
     0
1002
}
1002
{
1000
OTHER
1070
     0
1002
}
1002
{
1000
REACTOR
1002
}
1001
GENIUS_GENCEN_19
1002
{
1040
11.176
1002
}
  0
LINE
  5
939D
  8
0
  6
AM_ISO08W050
 62
     0
 10
117.0434840951457
 20
742.8131221365918
 30
0.0
 11
673.69001284542605
 21
742.8131221365918
 31
0.0
  0
ARC
  5
93D0
  8
0
 62
     0
 10
475.77717284542558
 20
652.28625566645974
 30
0.0
 40
5.0
 50
0.0
 51
87.999974140733016
1001
GENIUS_GENOBJ-N-FIL_13
1002
{
1000
OWNER
1000
GEN
1002
}
1001
GENIUS_GENODEF_13
1002
{
1000
HIER
1070
     0
1002
}
1002
{
1000
MANEDIT
1070
     0
1002
}
1002
{
1000
NOSEL
1070
     0
1002
}
1002
{
1000
BEHIND
1070
     0
1002
}
1002
{
1000
OTHER
1070
     0
1002
}
1002
{
1000
REACTOR
1002
}
  0
LINE
  5
9411
  8
0
 62
     0
 10
460.77716284542657
 20
657.81312213659157
 30
0.0
 11
460.77716284542657
 21
827.81312213659169
 31
0.0
  0
LINE
  5
9412
  8
0
 62
     0
 10
460.7771028454253
 20
747.84327413659184
 30
0.0
 11
460.7771028454253
 21
750.79096613659181
 31
0.0
  0
LINE
  5
9413
  8
0
 62
     0
 10
460.7771028454253
 20
757.8427501365918
 30
0.0
 11
460.7771028454253
 21
760.80422913659197
 31
0.0
  0
LINE
  5
9414
  8
0
 62
     0
 10
460.7771028454253
 20
768.83493013659165
 30
0.0
 11
460.7771028454253
 21
771.82755713659117
 31
0.0
  0
LINE
  5
9415
  8
0
 62
     0
 10
460.7771028454253
 20
779.81772513659189
 30
0.0
 11
460.7771028454253
 21
782.86343113659188
 31
0.0
  0
LINE
  5
9416
  8
0
 62
     0
 10
460.7771028454253
 20
790.78760413659165
 30
0.0
 11
460.7771028454253
 21
793.91851713659184
 31
0.0
  0
LINE
  5
9417
  8
0
 62
     0
 10
460.7771028454253
 20
799.74608013659167
 30
0.0
 11
460.7771028454253
 21
802.99039013659171
 31
0.0
  0
LINE
  5
9418
  8
0
 62
     0
 10
460.7771028454253
 20
705.80851913659183
 30
0.0
 11
460.7771028454253
 21
702.76281313659183
 31
0.0
  0
LINE
  5
9419
  8
0
 62
     0
 10
460.7771028454253
 20
716.79131413659184
 30
0.0
 11
460.7771028454253
 21
713.79868713659175
 31
0.0
  0
LINE
  5
941A
  8
0
 62
     0
 10
460.7771028454253
 20
727.7834941365918
 30
0.0
 11
460.7771028454253
 21
724.82201513659106
 31
0.0
  0
LINE
  5
941B
  8
0
 62
     0
 10
460.7771028454253
 20
737.78297013659164
 30
0.0
 11
460.7771028454253
 21
734.83527813659168
 31
0.0
  0
LINE
  5
941F
  8
0
 62
     0
 10
460.77716284542657
 20
657.81312213659157
 30
0.0
 11
475.9516725842106
 21
657.2832097227988
 31
0.0
  0
ARC
  5
942B
  8
0
 10
261.72074684542571
 20
660.41244213659161
 30
0.0
 40
2.0
 50
189.99999999999861
 51
270.0
  0
LINE
  5
942C
  8
0
 10
259.75113184542539
 20
660.06514613659169
 30
0.0
 11
256.77710284542547
 21
676.93170013659176
 31
0.0
  0
LINE
  5
942D
  8
0
 10
256.77710284542547
 20
676.93170013659176
 30
0.0
 11
257.83884184542552
 21
676.93170013659176
 31
0.0
  0
LINE
  5
942E
  8
0
 10
455.24124384542557
 20
828.98542913659185
 30
0.0
 11
455.7771028454253
 21
828.98542913659185
 31
0.0
  0
LINE
  5
942F
  8
0
 10
455.50163484542531
 20
830.54768613659166
 30
0.0
 11
455.7771028454253
 21
830.54768613659166
 31
0.0
  0
LINE
  5
9430
  8
0
 10
457.45530184542531
 20
654.81327313659165
 30
0.0
 11
457.77710284542547
 21
654.81327313659165
 31
0.0
  0
LINE
  5
9431
  8
0
 10
453.59770784542559
 20
659.66113613659161
 30
0.0
 11
455.7771028454253
 21
659.66113613659161
 31
0.0
  0
LINE
  5
9432
  8
0
 10
454.60379084542529
 20
671.76670613659155
 30
0.0
 11
455.7771028454253
 21
671.76670613659155
 31
0.0
  0
LINE
  5
9433
  8
0
 10
353.77710284542547
 20
635.15715713659165
 30
0.0
 11
353.77710284542547
 21
644.33887313659159
 31
0.0
  0
ARC
  5
9434
  8
0
 10
452.01998284542549
 20
831.82137013659178
 30
0.0
 40
2.0
 50
9.9999999999986073
 51
90.0
  0
ARC
  5
9435
  8
0
 10
452.08599984542548
 20
835.36216913659166
 30
0.0
 40
2.0
 50
9.9999999999986073
 51
90.0
  0
ARC
  5
9436
  8
0
 10
452.17191784542541
 20
837.91390613659166
 30
0.0
 40
2.0
 50
9.9999999999986073
 51
90.0
  0
ARC
  5
9437
  8
0
 10
452.2006668454253
 20
839.31312213659169
 30
0.0
 40
2.0
 50
9.9999999999986073
 51
90.0
  0
LINE
  5
9438
  8
0
 10
460.77710584542558
 20
827.81312213659169
 30
0.0
 11
457.77710584542552
 21
830.8131221365918
 31
0.0
  0
LINE
  5
9439
  8
0
 10
254.2771028454255
 20
839.81309613659175
 30
0.0
 11
254.2771028454255
 21
645.81312213659169
 31
0.0
  0
LINE
  5
943A
  8
0
 10
455.7302988454253
 20
830.8131221365918
 30
0.0
 11
457.77710284542547
 21
830.8131221365918
 31
0.0
  0
LINE
  5
943B
  8
0
 10
460.7771028454253
 20
657.81312213659157
 30
0.0
 11
457.77710284542547
 21
654.81312213659169
 31
0.0
  0
LINE
  5
943C
  8
0
 10
457.77710284542547
 20
654.81312213659169
 30
0.0
 11
457.77710284542547
 21
680.43350813659174
 31
0.0
  0
LINE
  5
943D
  8
0
 10
460.7771028454253
 20
657.81312213659157
 30
0.0
 11
460.7771028454253
 21
827.81312213659169
 31
0.0
  0
CIRCLE
  5
943E
  8
0
 10
353.77710284542547
 20
742.8131221365918
 30
0.0
 40
11.0
  0
LINE
  5
943F
  8
0
 10
261.0632228454254
 20
841.31312213659169
 30
0.0
 11
312.77710284542547
 21
841.31312213659169
 31
0.0
  0
LINE
  5
9440
  8
0
 10
392.77710284542547
 20
833.8213701365919
 30
0.0
 11
392.77710284542547
 21
839.31312213659169
 31
0.0
  0
LINE
  5
9441
  8
0
 10
314.77710284542547
 20
833.8213701365919
 30
0.0
 11
314.77710284542547
 21
839.31312213659169
 31
0.0
  0
ARC
  5
9442
  8
0
 10
312.77710284542547
 20
839.31312213659169
 30
0.0
 40
2.0
 50
0.0
 51
90.0
  0
ARC
  5
9443
  8
0
 10
394.77710284542547
 20
839.31312213659169
 30
0.0
 40
2.0
 50
90.0
 51
180.0
  0
LINE
  5
9444
  8
0
 10
394.77710284542547
 20
841.31312213659169
 30
0.0
 11
452.2006668454253
 21
841.31312213659169
 31
0.0
  0
LINE
  5
9445
  8
0
 10
452.17191784542541
 20
839.91390613659178
 30
0.0
 11
394.77710284542547
 21
839.91390613659178
 31
0.0
  0
LINE
  5
9446
  8
0
 10
455.7771028454253
 20
828.98542913659185
 30
0.0
 11
454.14153384542527
 21
838.26120213659181
 31
0.0
  0
LINE
  5
9447
  8
0
 10
455.7771028454253
 20
830.54768613659166
 30
0.0
 11
454.17028184542528
 21
839.66041813659172
 31
0.0
  0
LINE
  5
9448
  8
0
 10
256.77710284542547
 20
826.5228681365918
 30
0.0
 11
259.09360784542548
 21
839.66041813659172
 31
0.0
  0
ARC
  5
9449
  8
0
 10
261.0632228454254
 20
839.31312213659169
 30
0.0
 40
2.0
 50
90.0
 51
170.00000000000139
  0
LINE
  5
944A
  8
0
 10
256.77710284542547
 20
824.86380713659184
 30
0.0
 11
259.13942484542542
 21
838.26120213659181
 31
0.0
  0
ARC
  5
944B
  8
0
 10
261.10904084542551
 20
837.91390613659166
 30
0.0
 40
2.0
 50
90.0
 51
170.00000000000139
  0
ARC
  5
944C
  8
0
 10
312.77710284542547
 20
837.91390613659166
 30
0.0
 40
2.0
 50
0.0
 51
90.0
  0
ARC
  5
944D
  8
0
 10
394.77710284542547
 20
837.91390613659166
 30
0.0
 40
2.0
 50
90.0
 51
180.0
  0
LINE
  5
944E
  8
0
 10
312.77710284542547
 20
839.91390613659178
 30
0.0
 11
261.10904084542551
 21
839.91390613659178
 31
0.0
  0
LINE
  5
944F
  8
0
 10
452.08599984542548
 20
837.36216913659166
 30
0.0
 11
394.77710284542547
 21
837.36216913659166
 31
0.0
  0
LINE
  5
9450
  8
0
 10
455.6483228454253
 20
826.67677113659181
 30
0.0
 11
454.05561484542551
 21
835.7094661365918
 31
0.0
  0
LINE
  5
9451
  8
0
 10
256.77710284542547
 20
821.64301613659165
 30
0.0
 11
259.2573978454256
 21
835.7094661365918
 31
0.0
  0
ARC
  5
9452
  8
0
 10
261.22701284542552
 20
835.36216913659166
 30
0.0
 40
2.0
 50
90.0
 51
170.00000000000139
  0
ARC
  5
9453
  8
0
 10
312.77710284542547
 20
835.36216913659166
 30
0.0
 40
2.0
 50
0.0
 51
90.0
  0
ARC
  5
9454
  8
0
 10
394.77710284542547
 20
835.36216913659166
 30
0.0
 40
2.0
 50
90.0
 51
180.0
  0
LINE
  5
9455
  8
0
 10
312.77710284542547
 20
837.36216913659166
 30
0.0
 11
261.22701284542552
 21
837.36216913659166
 31
0.0
  0
LINE
  5
9456
  8
0
 10
452.01998284542549
 20
833.8213701365919
 30
0.0
 11
261.38852184542549
 21
833.8213701365919
 31
0.0
  0
LINE
  5
9457
  8
0
 10
454.95796784542551
 20
826.67677113659181
 30
0.0
 11
453.98959884542541
 21
832.16866613659181
 31
0.0
  0
LINE
  5
9458
  8
0
 10
256.77710284542547
 20
817.18625613659185
 30
0.0
 11
259.4189058454254
 21
832.16866613659181
 31
0.0
  0
ARC
  5
9459
  8
0
 10
261.38852184542549
 20
831.82137013659178
 30
0.0
 40
2.0
 50
90.0
 51
170.00000000000139
  0
LINE
  5
945A
  8
0
 10
385.8334588454253
 20
827.21380213659165
 30
0.0
 11
261.72074684542571
 21
827.21380213659165
 31
0.0
  0
LINE
  5
945B
  8
0
 10
390.77710284542547
 20
808.69454413659184
 30
0.0
 11
387.8030738454255
 21
825.56109813659168
 31
0.0
  0
ARC
  5
945C
  8
0
 10
385.8334588454253
 20
825.21380213659165
 30
0.0
 40
2.0
 50
9.9999999999986073
 51
90.0
  0
LINE
  5
945D
  8
0
 10
256.77710284542547
 20
808.69454413659184
 30
0.0
 11
259.75113184542539
 21
825.56109813659168
 31
0.0
  0
ARC
  5
945E
  8
0
 10
261.72074684542571
 20
825.21380213659165
 30
0.0
 40
2.0
 50
90.0
 51
170.00000000000139
  0
LINE
  5
945F
  8
0
 10
385.50319484542558
 20
821.81175813659183
 30
0.0
 11
262.05101084542542
 21
821.81175813659183
 31
0.0
  0
LINE
  5
9460
  8
0
 10
390.55605184542549
 20
802.6731221365917
 30
0.0
 11
387.47281084542527
 21
820.15905513659186
 31
0.0
  0
ARC
  5
9461
  8
0
 10
385.50319484542558
 20
819.81175813659183
 30
0.0
 40
2.0
 50
9.9999999999986073
 51
90.0
  0
LINE
  5
9462
  8
0
 10
257.05409684542548
 20
802.99039013659171
 30
0.0
 11
260.08139484542551
 21
820.15905513659186
 31
0.0
  0
ARC
  5
9463
  8
0
 10
262.05101084542542
 20
819.81175813659183
 30
0.0
 40
2.0
 50
90.0
 51
170.00000000000139
  0
LINE
  5
9464
  8
0
 10
455.7771028454253
 20
747.84327413659184
 30
0.0
 11
455.7771028454253
 21
750.79096613659181
 31
0.0
  0
LINE
  5
9465
  8
0
 10
455.7771028454253
 20
757.8427501365918
 30
0.0
 11
455.7771028454253
 21
760.80422913659197
 31
0.0
  0
LINE
  5
9466
  8
0
 10
455.7771028454253
 20
768.83493013659165
 30
0.0
 11
455.7771028454253
 21
771.82755713659185
 31
0.0
  0
LINE
  5
9467
  8
0
 10
455.7771028454253
 20
779.81772513659189
 30
0.0
 11
455.7771028454253
 21
782.86343113659177
 31
0.0
  0
LINE
  5
9468
  8
0
 10
455.7771028454253
 20
790.78760413659165
 30
0.0
 11
455.7771028454253
 21
793.91851713659184
 31
0.0
  0
LINE
  5
9469
  8
0
 10
455.7771028454253
 20
799.74608013659167
 30
0.0
 11
455.7771028454253
 21
802.99039013659171
 31
0.0
  0
LINE
  5
946A
  8
0
 10
405.7771028454253
 20
817.18625613659185
 30
0.0
 11
389.27978484542552
 21
817.18625613659185
 31
0.0
  0
LINE
  5
946B
  8
0
 10
437.5638798454255
 20
822.03122413659185
 30
0.0
 11
421.77710284542542
 21
822.03122413659185
 31
0.0
  0
LINE
  5
946C
  8
0
 10
405.7771028454253
 20
817.18625613659185
 30
0.0
 11
421.77710284542542
 21
822.03122413659185
 31
0.0
  0
LINE
  5
946D
  8
0
 10
421.77710284542542
 20
822.03122413659185
 30
0.0
 11
421.77710284542542
 21
818.66590913659184
 31
0.0
  0
LINE
  5
946E
  8
0
 10
405.7771028454253
 20
817.18625613659185
 30
0.0
 11
405.7771028454253
 21
802.99039013659171
 31
0.0
  0
LINE
  5
946F
  8
0
 10
441.27710284542547
 20
805.8790841365917
 30
0.0
 11
441.27710284542547
 21
824.6767711365917
 31
0.0
  0
ARC
  5
9470
  8
0
 10
443.2771028454253
 20
824.6767711365917
 30
0.0
 40
2.0
 50
90.0
 51
180.0
  0
LINE
  5
9471
  8
0
 10
441.27710284542547
 20
810.26918213659167
 30
0.0
 11
421.77710284542542
 21
810.26918213659167
 31
0.0
  0
LINE
  5
9472
  8
0
 10
435.87710884542531
 20
818.66590913659184
 30
0.0
 11
421.77710284542542
 21
818.66590913659184
 31
0.0
  0
LINE
  5
9473
  8
0
 10
421.77710284542542
 20
810.26918213659167
 30
0.0
 11
421.77710284542542
 21
802.99039013659171
 31
0.0
  0
ARC
  5
9474
  8
0
  6
CONTINUOUS
 10
438.47690184542529
 20
814.29638813659164
 30
0.0
 40
2.6003989999999999
 50
179.99998200000081
 51
269.99997799999522
  0
ARC
  5
9475
  8
0
  6
CONTINUOUS
 10
438.47690184542529
 20
819.59637613659163
 30
0.0
 40
2.600403
 50
90.0
 51
179.99998200000081
  0
LINE
  5
9476
  8
0
  6
CONTINUOUS
 10
441.27710284542547
 20
817.01240713659183
 30
0.0
 11
439.7771028454253
 21
816.1463821365918
 31
0.0
  0
LINE
  5
9477
  8
0
  6
CONTINUOUS
 10
441.27710284542547
 20
818.01240713659161
 30
0.0
 11
439.7771028454253
 21
817.1463821365918
 31
0.0
  0
LINE
  5
9478
  8
0
  6
CONTINUOUS
 10
441.27710284542547
 20
823.04638213659166
 30
0.0
 11
441.27710284542547
 21
810.84638213659173
 31
0.0
  0
LINE
  5
9479
  8
0
  6
CONTINUOUS
 10
439.7771028454253
 20
823.04638213659166
 30
0.0
 11
441.27710284542547
 21
823.04638213659166
 31
0.0
  0
LINE
  5
947A
  8
0
  6
CONTINUOUS
 10
439.7771028454253
 20
810.84638213659173
 30
0.0
 11
441.27710284542547
 21
810.84638213659173
 31
0.0
  0
LINE
  5
947B
  8
0
  6
CONTINUOUS
 10
435.87710884542531
 20
819.59637613659163
 30
0.0
 11
435.87710884542531
 21
814.29638813659164
 31
0.0
  0
LINE
  5
947C
  8
0
  6
CONTINUOUS
 10
439.7771028454253
 20
823.04638213659166
 30
0.0
 11
439.7771028454253
 21
810.84638213659173
 31
0.0
  0
LINE
  5
947D
  8
0
  6
CONTINUOUS
 10
439.7771028454253
 20
811.69638213659175
 30
0.0
 11
438.47690184542529
 21
811.69638213659175
 31
0.0
  0
LINE
  5
947E
  8
0
  6
CONTINUOUS
 10
439.7771028454253
 20
822.19638213659175
 30
0.0
 11
438.47690184542529
 21
822.19638213659175
 31
0.0
  0
LINE
  5
947F
  8
0
 10
460.7771028454253
 20
826.67677113659181
 30
0.0
 11
443.2771028454253
 21
826.67677113659181
 31
0.0
  0
LINE
  5
9480
  8
0
 10
460.7771028454253
 20
804.8790841365917
 30
0.0
 11
440.2771028454253
 21
804.8790841365917
 31
0.0
  0
ARC
  5
9481
  8
0
 10
440.2771028454253
 20
805.8790841365917
 30
0.0
 40
1.0
 50
270.0
 51
0.0
  0
LINE
  5
9482
  8
0
 10
460.7771028454253
 20
818.5527661365918
 30
0.0
 11
443.2771028454253
 21
818.5527661365918
 31
0.0
  0
LINE
  5
9483
  8
0
 10
254.2771028454255
 20
826.81312213659169
 30
0.0
 11
256.77710284542547
 21
826.81312213659169
 31
0.0
  0
ARC
  5
9484
  8
0
 10
457.45530184542531
 20
652.81312213659157
 30
0.0
 40
2.0
 50
90.0
 51
170.00000000000139
  0
ARC
  5
9485
  8
0
 10
393.51974484542541
 20
647.81946513659159
 30
0.0
 40
1.9936590000000001
 50
90.075931000003507
 51
178.17025399999861
  0
LINE
  5
9486
  8
0
 10
393.51710284542548
 20
649.81312213659157
 30
0.0
 11
453.21726884542551
 21
649.81312213659157
 31
0.0
  0
LINE
  5
9487
  8
0
 10
391.27710284542547
 20
640.81312213659157
 30
0.0
 11
391.8931318454255
 21
658.41244213659172
 31
0.0
  0
LINE
  5
9488
  8
0
 10
455.48568684542528
 20
653.16041813659172
 30
0.0
 11
455.18688384542548
 21
651.46582613659177
 31
0.0
  0
ARC
  5
9489
  8
0
 10
453.21726884542551
 20
651.81312213659169
 30
0.0
 40
2.0
 50
270.0
 51
350.00000000000142
  0
LINE
  5
948A
  8
0
 10
257.3544528454255
 20
657.81312213659157
 30
0.0
 11
264.57133184542528
 21
645.31312213659157
 31
0.0
  0
LINE
  5
948B
  8
0
 10
266.30338184542541
 20
644.31312213659157
 30
0.0
 11
314.2220738454256
 21
644.31312213659157
 31
0.0
  0
LINE
  5
948C
  8
0
 10
316.27710284542547
 20
640.81312213659157
 30
0.0
 11
316.22079084542548
 21
642.38473713659175
 31
0.0
  0
ARC
  5
948D
  8
0
 10
255.62240184542549
 20
656.81312213659157
 30
0.0
 40
2.0
 50
29.999999999991651
 51
90.0
  0
ARC
  5
948E
  8
0
 10
266.30338184542541
 20
646.31312213659169
 30
0.0
 40
2.0
 50
209.9999999999917
 51
270.0
  0
ARC
  5
948F
  8
0
 10
314.2220738454256
 20
642.31312213659169
 30
0.0
 40
2.0
 50
2.0520649999985339
 51
90.0
  0
LINE
  5
9490
  8
0
 10
316.27710284542547
 20
640.81312213659157
 30
0.0
 11
391.27710284542547
 21
640.81312213659157
 31
0.0
  0
LINE
  5
9491
  8
0
 10
265.30338184542541
 20
644.58107113659173
 30
0.0
 11
265.30338184542541
 21
658.41244213659172
 31
0.0
  0
LINE
  5
9492
  8
0
 10
451.74418684542542
 20
658.41244213659172
 30
0.0
 11
261.72074684542571
 21
658.41244213659172
 31
0.0
  0
LINE
  5
9493
  8
0
 10
451.5234008454255
 20
663.81448613659165
 30
0.0
 11
261.82995984542538
 21
663.81448613659165
 31
0.0
  0
LINE
  5
9494
  8
0
 10
455.7771028454253
 20
678.42088813659188
 30
0.0
 11
421.77710284542542
 21
678.42088813659188
 31
0.0
  0
LINE
  5
9495
  8
0
 10
455.7771028454253
 20
678.42088813659188
 30
0.0
 11
453.49301584542548
 21
665.46718913659174
 31
0.0
  0
ARC
  5
9496
  8
0
 10
451.5234008454255
 20
665.81448613659177
 30
0.0
 40
2.0
 50
270.0
 51
350.00000000000142
  0
LINE
  5
9497
  8
0
 10
455.7771028454253
 20
671.76670613659155
 30
0.0
 11
453.71380184542551
 21
660.06514613659169
 31
0.0
  0
ARC
  5
9498
  8
0
 10
451.74418684542542
 20
660.41244213659161
 30
0.0
 40
2.0
 50
270.0
 51
350.00000000000142
  0
LINE
  5
9499
  8
0
 10
260.51984084542562
 20
658.81312213659169
 30
0.0
 11
254.27710284542519
 21
658.81312213659169
 31
0.0
  0
LINE
  5
949A
  8
0
 10
455.7771028454253
 20
659.66113613659161
 30
0.0
 11
454.33204884542528
 21
651.46582613659177
 31
0.0
  0
ARC
  5
949B
  8
0
 10
452.3624328454253
 20
651.81312213659169
 30
0.0
 40
2.0
 50
270.0
 51
350.00000000000142
  0
LINE
  5
949C
  8
0
 10
390.77710284542547
 20
694.65312213659161
 30
0.0
 11
390.77710284542547
 21
691.95312213659167
 31
0.0
  0
LINE
  5
949D
  8
0
 10
460.7771028454253
 20
680.60348513659164
 30
0.0
 11
443.2771028454253
 21
680.60348513659164
 31
0.0
  0
LINE
  5
949E
  8
0
 10
460.7771028454253
 20
692.91112413659175
 30
0.0
 11
443.2771028454253
 21
692.91112413659175
 31
0.0
  0
LINE
  5
949F
  8
0
 10
460.7771028454253
 20
703.09041613659167
 30
0.0
 11
455.7771028454253
 21
703.09041613659167
 31
0.0
  0
LINE
  5
94A0
  8
0
 10
441.27710284542547
 20
702.09041613659167
 30
0.0
 11
441.27710284542547
 21
682.60348513659187
 31
0.0
  0
ARC
  5
94A1
  8
0
 10
440.2771028454253
 20
702.09041613659167
 30
0.0
 40
1.0
 50
0.0
 51
42.252324000004279
  0
ARC
  5
94A2
  8
0
 10
443.2771028454253
 20
682.60348513659187
 30
0.0
 40
2.0
 50
180.0
 51
270.0
  0
LINE
  5
94A3
  8
0
 10
405.7771028454253
 20
799.74608013659167
 30
0.0
 11
405.7771028454253
 21
793.91851713659184
 31
0.0
  0
LINE
  5
94A4
  8
0
 10
421.77710284542542
 20
799.74608013659167
 30
0.0
 11
421.77710284542542
 21
793.91851713659184
 31
0.0
  0
LINE
  5
94A5
  8
0
 10
405.7771028454253
 20
790.78760413659165
 30
0.0
 11
405.7771028454253
 21
782.86343113659177
 31
0.0
  0
LINE
  5
94A6
  8
0
 10
405.7771028454253
 20
779.81772513659189
 30
0.0
 11
405.7771028454253
 21
771.82755713659185
 31
0.0
  0
LINE
  5
94A7
  8
0
 10
405.7771028454253
 20
768.83493013659165
 30
0.0
 11
405.7771028454253
 21
760.80422913659197
 31
0.0
  0
LINE
  5
94A8
  8
0
 10
405.7771028454253
 20
757.8427501365918
 30
0.0
 11
405.7771028454253
 21
750.79096613659181
 31
0.0
  0
LINE
  5
94A9
  8
0
 10
405.7771028454253
 20
747.97312213659166
 30
0.0
 11
405.7771028454253
 21
737.78297013659164
 31
0.0
  0
LINE
  5
94AA
  8
0
 10
421.77710284542542
 20
747.97312213659166
 30
0.0
 11
421.77710284542542
 21
737.78297013659164
 31
0.0
  0
LINE
  5
94AB
  8
0
 10
421.77710284542542
 20
757.8427501365918
 30
0.0
 11
421.77710284542542
 21
750.79096613659181
 31
0.0
  0
LINE
  5
94AC
  8
0
 10
421.77710284542542
 20
768.83493013659165
 30
0.0
 11
421.77710284542542
 21
760.80422913659197
 31
0.0
  0
LINE
  5
94AD
  8
0
 10
421.77710284542542
 20
779.81772513659189
 30
0.0
 11
421.77710284542542
 21
771.82755713659185
 31
0.0
  0
LINE
  5
94AE
  8
0
 10
421.77710284542542
 20
790.78760413659165
 30
0.0
 11
421.77710284542542
 21
782.86343113659177
 31
0.0
  0
LINE
  5
94AF
  8
0
 10
405.7771028454253
 20
734.83527813659168
 30
0.0
 11
405.7771028454253
 21
727.7834941365918
 31
0.0
  0
LINE
  5
94B0
  8
0
 10
421.77710284542542
 20
734.83527813659168
 30
0.0
 11
421.77710284542542
 21
727.7834941365918
 31
0.0
  0
LINE
  5
94B1
  8
0
 10
421.77710284542542
 20
724.82201513659174
 30
0.0
 11
421.77710284542542
 21
716.79131413659184
 31
0.0
  0
LINE
  5
94B2
  8
0
 10
405.7771028454253
 20
724.82201513659174
 30
0.0
 11
405.7771028454253
 21
716.79131413659184
 31
0.0
  0
LINE
  5
94B3
  8
0
 10
405.7771028454253
 20
713.79868713659175
 30
0.0
 11
405.7771028454253
 21
705.80851913659183
 31
0.0
  0
LINE
  5
94B4
  8
0
 10
421.77710284542542
 20
713.79868713659175
 30
0.0
 11
421.77710284542542
 21
705.80851913659183
 31
0.0
  0
LINE
  5
94B5
  8
0
 10
436.32649784542531
 20
686.79232613659156
 30
0.0
 11
421.77710184542542
 21
686.79232613659156
 31
0.0
  0
LINE
  5
94B6
  8
0
 10
441.27710284542547
 20
698.20467613659184
 30
0.0
 11
421.77710184542542
 21
698.20467613659184
 31
0.0
  0
LINE
  5
94B7
  8
0
 10
405.7771028454253
 20
702.76281313659183
 30
0.0
 11
405.7771028454253
 21
682.76281313659172
 31
0.0
  0
LINE
  5
94B8
  8
0
 10
457.77710284542547
 20
826.67677113659181
 30
0.0
 11
457.77710284542547
 21
830.8131221365918
 31
0.0
  0
LINE
  5
94B9
  8
0
 10
455.7771028454253
 20
656.61137813659172
 30
0.0
 11
454.86980284542528
 21
651.46582613659177
 31
0.0
  0
ARC
  5
94BA
  8
0
 10
452.90018784542531
 20
651.81312213659169
 30
0.0
 40
2.0
 50
270.0
 51
350.00000000000142
  0
LINE
  5
94BB
  8
0
 10
421.77710284542542
 20
702.76281313659183
 30
0.0
 11
421.77710284542542
 21
698.20467613659184
 31
0.0
  0
LINE
  5
94BC
  8
0
 10
457.77710284542547
 20
703.09041613659167
 30
0.0
 11
457.77710284542547
 21
804.8790841365917
 31
0.0
  0
LINE
  5
94BD
  8
0
 10
256.77710284542547
 20
682.95312213659156
 30
0.0
 11
259.8603448454254
 21
665.46718913659174
 31
0.0
  0
ARC
  5
94BE
  8
0
 10
261.82995984542538
 20
665.81448613659177
 30
0.0
 40
2.0
 50
189.99999999999861
 51
270.0
  0
LINE
  5
94BF
  8
0
 10
406.48249984542542
 20
691.50741613659181
 30
0.0
 11
421.77710284542542
 21
686.79232613659156
 31
0.0
  0
LINE
  5
94C0
  8
0
 10
421.77710284542542
 20
698.20467613659184
 30
0.0
 11
406.74116184542561
 21
697.66392513659184
 31
0.0
  0
LINE
  5
94C1
  8
0
 10
421.77710284542542
 20
686.79232613659156
 30
0.0
 11
421.77710284542542
 21
678.42088813659188
 31
0.0
  0
ARC
  5
94C2
  8
0
 10
406.7771028454253
 20
696.66457113659169
 30
0.0
 40
1.0
 50
92.059691000003568
 51
180.0
  0
ARC
  5
94C3
  8
0
 10
406.7771028454253
 20
692.46303613659188
 30
0.0
 40
1.0
 50
180.0
 51
252.8662750000021
  0
LINE
  5
94C4
  8
0
 10
421.77710284542542
 20
818.66590913659184
 30
0.0
 11
406.4766438454256
 21
813.84604313659167
 31
0.0
  0
LINE
  5
94C5
  8
0
 10
406.8256578454255
 20
809.54236213659181
 30
0.0
 11
421.77710284542542
 21
810.26918213659167
 31
0.0
  0
ARC
  5
94C6
  8
0
 10
406.7771028454253
 20
812.89224813659166
 30
0.0
 40
1.0
 50
107.485179
 51
180.0
  0
ARC
  5
94C7
  8
0
 10
406.7771028454253
 20
810.54118313659183
 30
0.0
 40
1.0
 50
180.0
 51
270.0
  0
ARC
  5
94C8
  8
0
  6
CONTINUOUS
 10
438.47690184542529
 20
688.25446113659177
 30
0.0
 40
2.6003989999999999
 50
179.99998200000081
 51
269.99997799999522
  0
ARC
  5
94C9
  8
0
  6
CONTINUOUS
 10
438.47690184542529
 20
693.55444913659176
 30
0.0
 40
2.600403
 50
90.0
 51
179.99998200000081
  0
LINE
  5
94CA
  8
0
  6
CONTINUOUS
 10
441.27710284542547
 20
690.97048013659185
 30
0.0
 11
439.7771028454253
 21
690.1044551365917
 31
0.0
  0
LINE
  5
94CB
  8
0
  6
CONTINUOUS
 10
441.27710284542547
 20
691.97048013659185
 30
0.0
 11
439.7771028454253
 21
691.10445513659181
 31
0.0
  0
LINE
  5
94CC
  8
0
  6
CONTINUOUS
 10
441.27710284542547
 20
697.00445513659167
 30
0.0
 11
441.27710284542547
 21
684.80445513659174
 31
0.0
  0
LINE
  5
94CD
  8
0
  6
CONTINUOUS
 10
439.7771028454253
 20
697.00445513659167
 30
0.0
 11
441.27710284542547
 21
697.00445513659167
 31
0.0
  0
LINE
  5
94CE
  8
0
  6
CONTINUOUS
 10
439.7771028454253
 20
684.80445513659174
 30
0.0
 11
441.27710284542547
 21
684.80445513659174
 31
0.0
  0
LINE
  5
94CF
  8
0
  6
CONTINUOUS
 10
435.87710884542531
 20
693.55444913659176
 30
0.0
 11
435.87710884542531
 21
688.25446113659177
 31
0.0
  0
LINE
  5
94D0
  8
0
  6
CONTINUOUS
 10
439.7771028454253
 20
697.00445513659167
 30
0.0
 11
439.7771028454253
 21
684.80445513659174
 31
0.0
  0
LINE
  5
94D1
  8
0
  6
CONTINUOUS
 10
439.7771028454253
 20
685.65445513659165
 30
0.0
 11
438.47690184542529
 21
685.65445513659165
 31
0.0
  0
LINE
  5
94D2
  8
0
  6
CONTINUOUS
 10
439.7771028454253
 20
696.15445513659188
 30
0.0
 11
438.47690184542529
 21
696.15445513659188
 31
0.0
  0
LINE
  5
94D3
  8
0
 10
455.7771028454253
 20
802.99039013659171
 30
0.0
 11
256.77710284542547
 21
802.99039013659171
 31
0.0
  0
LINE
  5
94D4
  8
0
 10
455.7771028454253
 20
799.74608013659167
 30
0.0
 11
256.77710284542547
 21
799.74608013659167
 31
0.0
  0
LINE
  5
94D5
  8
0
 10
455.7771028454253
 20
793.91851713659184
 30
0.0
 11
256.77710284542547
 21
793.91851713659184
 31
0.0
  0
LINE
  5
94D6
  8
0
 10
455.7771028454253
 20
790.78760413659165
 30
0.0
 11
256.77710284542547
 21
790.78760413659165
 31
0.0
  0
LINE
  5
94D7
  8
0
 10
455.7771028454253
 20
782.86343113659177
 30
0.0
 11
256.77710284542547
 21
782.86343113659177
 31
0.0
  0
LINE
  5
94D8
  8
0
 10
455.7771028454253
 20
779.81772513659189
 30
0.0
 11
256.77710284542547
 21
779.81772513659189
 31
0.0
  0
LINE
  5
94D9
  8
0
 10
455.7771028454253
 20
771.82755713659185
 30
0.0
 11
256.77710284542547
 21
771.82755713659185
 31
0.0
  0
LINE
  5
94DA
  8
0
 10
455.7771028454253
 20
768.83493013659165
 30
0.0
 11
256.77710284542547
 21
768.83493013659165
 31
0.0
  0
LINE
  5
94DB
  8
0
 10
455.7771028454253
 20
760.80422913659197
 30
0.0
 11
256.77710284542547
 21
760.80422913659197
 31
0.0
  0
LINE
  5
94DC
  8
0
 10
455.7771028454253
 20
757.8427501365918
 30
0.0
 11
256.77710284542547
 21
757.8427501365918
 31
0.0
  0
LINE
  5
94DD
  8
0
 10
455.7771028454253
 20
750.79096613659181
 30
0.0
 11
361.35034584542552
 21
750.79096613659181
 31
0.0
  0
LINE
  5
94DE
  8
0
 10
455.7771028454253
 20
747.84327413659184
 30
0.0
 11
368.16274984542542
 21
747.84327413659184
 31
0.0
  0
LINE
  5
94DF
  8
0
 10
453.69818184542532
 20
802.3131221365918
 30
0.0
 11
453.69818184542532
 21
800.31312213659169
 31
0.0
  0
LINE
  5
94E0
  8
0
 10
258.85602384542551
 20
800.31312213659169
 30
0.0
 11
453.69818184542532
 21
800.31312213659169
 31
0.0
  0
LINE
  5
94E1
  8
0
 10
258.85602384542551
 20
802.3131221365918
 30
0.0
 11
453.69818184542532
 21
802.3131221365918
 31
0.0
  0
LINE
  5
94E2
  8
0
 10
258.85602384542551
 20
791.3131221365918
 30
0.0
 11
453.69818184542532
 21
791.3131221365918
 31
0.0
  0
LINE
  5
94E3
  8
0
 10
258.85602384542551
 20
793.31312213659169
 30
0.0
 11
453.69818184542532
 21
793.31312213659169
 31
0.0
  0
LINE
  5
94E4
  8
0
 10
258.85602384542551
 20
780.3131221365918
 30
0.0
 11
453.69818184542532
 21
780.3131221365918
 31
0.0
  0
LINE
  5
94E5
  8
0
 10
258.85602384542551
 20
782.3131221365918
 30
0.0
 11
453.69818184542532
 21
782.3131221365918
 31
0.0
  0
LINE
  5
94E6
  8
0
 10
258.85602384542551
 20
769.31312213659169
 30
0.0
 11
453.69818184542532
 21
769.31312213659169
 31
0.0
  0
LINE
  5
94E7
  8
0
 10
258.85602384542551
 20
771.3131221365918
 30
0.0
 11
453.69818184542532
 21
771.3131221365918
 31
0.0
  0
LINE
  5
94E8
  8
0
 10
258.85602384542551
 20
758.3131221365918
 30
0.0
 11
453.69818184542532
 21
758.3131221365918
 31
0.0
  0
LINE
  5
94E9
  8
0
 10
258.85602384542551
 20
760.31312213659169
 30
0.0
 11
453.69818184542532
 21
760.31312213659169
 31
0.0
  0
LINE
  5
94EA
  8
0
 10
367.55207984542528
 20
748.31312213659169
 30
0.0
 11
453.69818184542532
 21
748.31312213659169
 31
0.0
  0
LINE
  5
94EB
  8
0
 10
361.82384084542548
 20
750.3131221365918
 30
0.0
 11
453.69818184542532
 21
750.3131221365918
 31
0.0
  0
LINE
  5
94EC
  8
0
 10
453.69818184542532
 20
802.3131221365918
 30
0.0
 11
455.7771028454253
 21
802.99039013659171
 31
0.0
  0
LINE
  5
94ED
  8
0
 10
453.69818184542532
 20
800.31312213659169
 30
0.0
 11
455.7771028454253
 21
799.74608013659167
 31
0.0
  0
LINE
  5
94EE
  8
0
 10
453.69818184542532
 20
793.31312213659169
 30
0.0
 11
455.7771028454253
 21
793.91851713659184
 31
0.0
  0
LINE
  5
94EF
  8
0
 10
453.69818184542532
 20
791.3131221365918
 30
0.0
 11
455.7771028454253
 21
790.78760413659165
 31
0.0
  0
LINE
  5
94F0
  8
0
 10
453.69818184542532
 20
782.3131221365918
 30
0.0
 11
455.7771028454253
 21
782.86343113659177
 31
0.0
  0
LINE
  5
94F1
  8
0
 10
453.69818184542532
 20
780.3131221365918
 30
0.0
 11
455.7771028454253
 21
779.81772513659189
 31
0.0
  0
LINE
  5
94F2
  8
0
 10
453.69818184542532
 20
771.3131221365918
 30
0.0
 11
455.7771028454253
 21
771.82755713659185
 31
0.0
  0
LINE
  5
94F3
  8
0
 10
453.69818184542532
 20
769.31312213659169
 30
0.0
 11
455.7771028454253
 21
768.83493013659165
 31
0.0
  0
LINE
  5
94F4
  8
0
 10
453.69818184542532
 20
760.31312213659169
 30
0.0
 11
455.7771028454253
 21
760.80422913659197
 31
0.0
  0
LINE
  5
94F5
  8
0
 10
453.69818184542532
 20
758.3131221365918
 30
0.0
 11
455.7771028454253
 21
757.8427501365918
 31
0.0
  0
LINE
  5
94F6
  8
0
 10
453.69818184542532
 20
750.3131221365918
 30
0.0
 11
455.7771028454253
 21
750.79096613659181
 31
0.0
  0
LINE
  5
94F7
  8
0
 10
453.69818184542532
 20
748.31312213659169
 30
0.0
 11
455.7771028454253
 21
747.84327413659184
 31
0.0
  0
LINE
  5
94F8
  8
0
 10
453.69818184542532
 20
793.31312213659169
 30
0.0
 11
453.69818184542532
 21
791.3131221365918
 31
0.0
  0
LINE
  5
94F9
  8
0
 10
453.69818184542532
 20
782.3131221365918
 30
0.0
 11
453.69818184542532
 21
780.3131221365918
 31
0.0
  0
LINE
  5
94FA
  8
0
 10
453.69818184542532
 20
771.3131221365918
 30
0.0
 11
453.69818184542532
 21
769.31312213659169
 31
0.0
  0
LINE
  5
94FB
  8
0
 10
453.69818184542532
 20
760.31312213659169
 30
0.0
 11
453.69818184542532
 21
758.3131221365918
 31
0.0
  0
LINE
  5
94FC
  8
0
 10
453.69818184542532
 20
750.3131221365918
 30
0.0
 11
453.69818184542532
 21
748.31312213659169
 31
0.0
  0
ARC
  5
94FD
  8
0
 10
367.55207984542528
 20
745.3131221365918
 30
0.0
 40
3.0
 50
90.0
 51
190.2865610000006
  0
ARC
  5
94FE
  8
0
 10
368.16274984542542
 20
744.37327413659182
 30
0.0
 40
3.4700000000000002
 50
90.0
 51
186.1896490000004
  0
LINE
  5
94FF
  8
0
 10
273.85602384542551
 20
750.3131221365918
 30
0.0
 11
273.85602384542551
 21
748.31312213659169
 31
0.0
  0
LINE
  5
9500
  8
0
 10
258.85602384542551
 20
760.31312213659169
 30
0.0
 11
258.85602384542551
 21
758.3131221365918
 31
0.0
  0
LINE
  5
9501
  8
0
 10
258.85602384542551
 20
771.3131221365918
 30
0.0
 11
258.85602384542551
 21
769.31312213659169
 31
0.0
  0
LINE
  5
9502
  8
0
 10
258.85602384542551
 20
782.3131221365918
 30
0.0
 11
258.85602384542551
 21
780.3131221365918
 31
0.0
  0
LINE
  5
9503
  8
0
 10
258.85602384542551
 20
793.31312213659169
 30
0.0
 11
258.85602384542551
 21
791.3131221365918
 31
0.0
  0
LINE
  5
9504
  8
0
 10
273.85602384542551
 20
748.31312213659169
 30
0.0
 11
271.77710284542547
 21
747.84327413659184
 31
0.0
  0
LINE
  5
9505
  8
0
 10
273.85602384542551
 20
750.3131221365918
 30
0.0
 11
271.77710284542547
 21
750.79096613659181
 31
0.0
  0
LINE
  5
9506
  8
0
 10
258.85602384542551
 20
758.3131221365918
 30
0.0
 11
256.77710284542547
 21
757.8427501365918
 31
0.0
  0
LINE
  5
9507
  8
0
 10
258.85602384542551
 20
760.31312213659169
 30
0.0
 11
256.77710284542547
 21
760.80422913659197
 31
0.0
  0
LINE
  5
9508
  8
0
 10
258.85602384542551
 20
769.31312213659169
 30
0.0
 11
256.77710284542547
 21
768.83493013659165
 31
0.0
  0
LINE
  5
9509
  8
0
 10
258.85602384542551
 20
771.3131221365918
 30
0.0
 11
256.77710284542547
 21
771.82755713659185
 31
0.0
  0
LINE
  5
950A
  8
0
 10
258.85602384542551
 20
780.3131221365918
 30
0.0
 11
256.77710284542547
 21
779.81772513659189
 31
0.0
  0
LINE
  5
950B
  8
0
 10
258.85602384542551
 20
782.3131221365918
 30
0.0
 11
256.77710284542547
 21
782.86343113659177
 31
0.0
  0
LINE
  5
950C
  8
0
 10
258.85602384542551
 20
791.3131221365918
 30
0.0
 11
256.77710284542547
 21
790.78760413659165
 31
0.0
  0
LINE
  5
950D
  8
0
 10
258.85602384542551
 20
793.31312213659169
 30
0.0
 11
256.77710284542547
 21
793.91851713659184
 31
0.0
  0
LINE
  5
950E
  8
0
 10
258.85602384542551
 20
800.31312213659169
 30
0.0
 11
256.77710284542547
 21
799.74608013659167
 31
0.0
  0
LINE
  5
950F
  8
0
 10
258.85602384542551
 20
802.3131221365918
 30
0.0
 11
256.77710284542547
 21
802.99039013659171
 31
0.0
  0
LINE
  5
9510
  8
0
 10
258.85602384542551
 20
802.3131221365918
 30
0.0
 11
258.85602384542551
 21
800.31312213659169
 31
0.0
  0
LINE
  5
9511
  8
0
 10
256.77710284542547
 20
799.74608013659167
 30
0.0
 11
256.77710284542547
 21
802.99039013659171
 31
0.0
  0
LINE
  5
9512
  8
0
 10
256.77710284542547
 20
790.78760413659165
 30
0.0
 11
256.77710284542547
 21
793.91851713659184
 31
0.0
  0
LINE
  5
9513
  8
0
 10
256.77710284542547
 20
779.81772513659189
 30
0.0
 11
256.77710284542547
 21
782.86343113659177
 31
0.0
  0
LINE
  5
9514
  8
0
 10
256.77710284542547
 20
768.83493013659165
 30
0.0
 11
256.77710284542547
 21
771.82755713659185
 31
0.0
  0
LINE
  5
9515
  8
0
 10
256.77710284542547
 20
757.8427501365918
 30
0.0
 11
256.77710284542547
 21
760.80422913659197
 31
0.0
  0
LINE
  5
9516
  8
0
 10
271.77710284542547
 20
747.84327413659184
 30
0.0
 11
271.77710284542547
 21
750.79096613659181
 31
0.0
  0
LINE
  5
9517
  8
0
 10
271.77710284542547
 20
750.79096613659181
 30
0.0
 11
346.20385984542531
 21
750.79096613659181
 31
0.0
  0
LINE
  5
9518
  8
0
 10
271.77710284542547
 20
747.84327413659184
 30
0.0
 11
339.39145584542558
 21
747.84327413659184
 31
0.0
  0
LINE
  5
9519
  8
0
 10
340.00212584542572
 20
748.31312213659169
 30
0.0
 11
273.85602384542551
 21
748.31312213659169
 31
0.0
  0
LINE
  5
951A
  8
0
 10
345.73036484542553
 20
750.3131221365918
 30
0.0
 11
273.85602384542551
 21
750.3131221365918
 31
0.0
  0
ARC
  5
951B
  8
0
 10
340.00212584542572
 20
745.3131221365918
 30
0.0
 40
3.0
 50
349.71343899999943
 51
90.0
  0
ARC
  5
951C
  8
0
 10
339.39145584542558
 20
744.37327413659182
 30
0.0
 40
3.4700000000000002
 50
353.81035099999951
 51
90.0
  0
LINE
  5
951D
  8
0
 10
455.7771028454253
 20
702.76281313659183
 30
0.0
 11
256.77710284542547
 21
702.76281313659183
 31
0.0
  0
LINE
  5
951E
  8
0
 10
455.7771028454253
 20
705.80851913659183
 30
0.0
 11
256.77710284542547
 21
705.80851913659183
 31
0.0
  0
LINE
  5
951F
  8
0
 10
455.7771028454253
 20
713.79868713659175
 30
0.0
 11
256.77710284542547
 21
713.79868713659175
 31
0.0
  0
LINE
  5
9520
  8
0
 10
455.7771028454253
 20
716.79131413659184
 30
0.0
 11
256.77710284542547
 21
716.79131413659184
 31
0.0
  0
LINE
  5
9521
  8
0
 10
455.7771028454253
 20
724.82201513659174
 30
0.0
 11
256.77710284542547
 21
724.82201513659174
 31
0.0
  0
LINE
  5
9522
  8
0
 10
455.7771028454253
 20
727.7834941365918
 30
0.0
 11
256.77710284542547
 21
727.7834941365918
 31
0.0
  0
LINE
  5
9523
  8
0
 10
258.85602384542551
 20
705.3131221365918
 30
0.0
 11
453.69818184542532
 21
705.3131221365918
 31
0.0
  0
LINE
  5
9524
  8
0
 10
258.85602384542551
 20
703.3131221365918
 30
0.0
 11
453.69818184542532
 21
703.3131221365918
 31
0.0
  0
LINE
  5
9525
  8
0
 10
258.85602384542551
 20
716.3131221365918
 30
0.0
 11
453.69818184542532
 21
716.3131221365918
 31
0.0
  0
LINE
  5
9526
  8
0
 10
258.85602384542551
 20
714.31312213659169
 30
0.0
 11
453.69818184542532
 21
714.31312213659169
 31
0.0
  0
LINE
  5
9527
  8
0
 10
258.85602384542551
 20
727.31312213659169
 30
0.0
 11
453.69818184542532
 21
727.31312213659169
 31
0.0
  0
LINE
  5
9528
  8
0
 10
258.85602384542551
 20
725.3131221365918
 30
0.0
 11
453.69818184542532
 21
725.3131221365918
 31
0.0
  0
LINE
  5
9529
  8
0
 10
271.77710284542547
 20
734.83527813659168
 30
0.0
 11
346.20385984542531
 21
734.83527813659168
 31
0.0
  0
LINE
  5
952A
  8
0
 10
271.77710284542547
 20
737.78297013659164
 30
0.0
 11
339.39145584542558
 21
737.78297013659164
 31
0.0
  0
LINE
  5
952B
  8
0
 10
340.00212584542572
 20
737.3131221365918
 30
0.0
 11
273.85602384542551
 21
737.3131221365918
 31
0.0
  0
LINE
  5
952C
  8
0
 10
345.73036484542553
 20
735.31312213659169
 30
0.0
 11
273.85602384542551
 21
735.31312213659169
 31
0.0
  0
LINE
  5
952D
  8
0
 10
271.77710284542547
 20
737.78297013659164
 30
0.0
 11
271.77710284542547
 21
734.83527813659168
 31
0.0
  0
LINE
  5
952E
  8
0
 10
256.77710284542547
 20
727.7834941365918
 30
0.0
 11
256.77710284542547
 21
724.82201513659174
 31
0.0
  0
LINE
  5
952F
  8
0
 10
256.77710284542547
 20
716.79131413659184
 30
0.0
 11
256.77710284542547
 21
713.79868713659175
 31
0.0
  0
LINE
  5
9530
  8
0
 10
256.77710284542547
 20
705.80851913659183
 30
0.0
 11
256.77710284542547
 21
702.76281313659183
 31
0.0
  0
LINE
  5
9531
  8
0
 10
258.85602384542551
 20
703.3131221365918
 30
0.0
 11
256.77710284542547
 21
702.76281313659183
 31
0.0
  0
LINE
  5
9532
  8
0
 10
258.85602384542551
 20
705.3131221365918
 30
0.0
 11
256.77710284542547
 21
705.80851913659183
 31
0.0
  0
LINE
  5
9533
  8
0
 10
258.85602384542551
 20
714.31312213659169
 30
0.0
 11
256.77710284542547
 21
713.79868713659175
 31
0.0
  0
LINE
  5
9534
  8
0
 10
258.85602384542551
 20
716.3131221365918
 30
0.0
 11
256.77710284542547
 21
716.79131413659184
 31
0.0
  0
LINE
  5
9535
  8
0
 10
258.85602384542551
 20
725.3131221365918
 30
0.0
 11
256.77710284542547
 21
724.82201513659174
 31
0.0
  0
LINE
  5
9536
  8
0
 10
258.85602384542551
 20
727.31312213659169
 30
0.0
 11
256.77710284542547
 21
727.7834941365918
 31
0.0
  0
LINE
  5
9537
  8
0
 10
273.85602384542551
 20
735.31312213659169
 30
0.0
 11
271.77710284542547
 21
734.83527813659168
 31
0.0
  0
LINE
  5
9538
  8
0
 10
273.85602384542551
 20
737.3131221365918
 30
0.0
 11
271.77710284542547
 21
737.78297013659164
 31
0.0
  0
LINE
  5
9539
  8
0
 10
258.85602384542551
 20
703.3131221365918
 30
0.0
 11
258.85602384542551
 21
705.3131221365918
 31
0.0
  0
LINE
  5
953A
  8
0
 10
258.85602384542551
 20
714.31312213659169
 30
0.0
 11
258.85602384542551
 21
716.3131221365918
 31
0.0
  0
LINE
  5
953B
  8
0
 10
258.85602384542551
 20
725.3131221365918
 30
0.0
 11
258.85602384542551
 21
727.31312213659169
 31
0.0
  0
LINE
  5
953C
  8
0
 10
273.85602384542551
 20
735.31312213659169
 30
0.0
 11
273.85602384542551
 21
737.3131221365918
 31
0.0
  0
ARC
  5
953D
  8
0
 10
340.00212584542572
 20
740.31312213659169
 30
0.0
 40
3.0
 50
270.0
 51
10.286561000000651
  0
ARC
  5
953E
  8
0
 10
339.39145584542558
 20
741.25297013659178
 30
0.0
 40
3.4700000000000002
 50
270.0
 51
6.1896490000005366
  0
LINE
  5
953F
  8
0
 10
455.7771028454253
 20
734.83527813659168
 30
0.0
 11
361.35034584542552
 21
734.83527813659168
 31
0.0
  0
LINE
  5
9540
  8
0
 10
455.7771028454253
 20
737.78297013659164
 30
0.0
 11
368.16274984542542
 21
737.78297013659164
 31
0.0
  0
LINE
  5
9541
  8
0
 10
367.55207984542528
 20
737.3131221365918
 30
0.0
 11
453.69818184542532
 21
737.3131221365918
 31
0.0
  0
LINE
  5
9542
  8
0
 10
361.82384084542548
 20
735.31312213659169
 30
0.0
 11
453.69818184542532
 21
735.31312213659169
 31
0.0
  0
ARC
  5
9543
  8
0
 10
367.55207984542528
 20
740.31312213659169
 30
0.0
 40
3.0
 50
169.71343899999931
 51
270.0
  0
ARC
  5
9544
  8
0
 10
368.16274984542542
 20
741.25297013659178
 30
0.0
 40
3.4700000000000002
 50
173.8103509999994
 51
270.0
  0
LINE
  5
9545
  8
0
 10
453.69818184542532
 20
735.31312213659169
 30
0.0
 11
453.69818184542532
 21
737.3131221365918
 31
0.0
  0
LINE
  5
9546
  8
0
 10
453.69818184542532
 20
725.3131221365918
 30
0.0
 11
453.69818184542532
 21
727.31312213659169
 31
0.0
  0
LINE
  5
9547
  8
0
 10
453.69818184542532
 20
714.31312213659169
 30
0.0
 11
453.69818184542532
 21
716.3131221365918
 31
0.0
  0
LINE
  5
9548
  8
0
 10
453.69818184542532
 20
703.3131221365918
 30
0.0
 11
453.69818184542532
 21
705.3131221365918
 31
0.0
  0
LINE
  5
9549
  8
0
 10
453.69818184542532
 20
737.3131221365918
 30
0.0
 11
455.7771028454253
 21
737.78297013659164
 31
0.0
  0
LINE
  5
954A
  8
0
 10
453.69818184542532
 20
735.31312213659169
 30
0.0
 11
455.7771028454253
 21
734.83527813659168
 31
0.0
  0
LINE
  5
954B
  8
0
 10
453.69818184542532
 20
727.31312213659169
 30
0.0
 11
455.7771028454253
 21
727.7834941365918
 31
0.0
  0
LINE
  5
954C
  8
0
 10
453.69818184542532
 20
725.3131221365918
 30
0.0
 11
455.7771028454253
 21
724.82201513659174
 31
0.0
  0
LINE
  5
954D
  8
0
 10
453.69818184542532
 20
716.3131221365918
 30
0.0
 11
455.7771028454253
 21
716.79131413659184
 31
0.0
  0
LINE
  5
954E
  8
0
 10
453.69818184542532
 20
714.31312213659169
 30
0.0
 11
455.7771028454253
 21
713.79868713659175
 31
0.0
  0
LINE
  5
954F
  8
0
 10
453.69818184542532
 20
705.3131221365918
 30
0.0
 11
455.7771028454253
 21
705.80851913659183
 31
0.0
  0
LINE
  5
9550
  8
0
 10
453.69818184542532
 20
703.3131221365918
 30
0.0
 11
455.7771028454253
 21
702.76281313659183
 31
0.0
  0
LINE
  5
9551
  8
0
 10
455.7771028454253
 20
705.80851913659183
 30
0.0
 11
455.7771028454253
 21
702.76281313659183
 31
0.0
  0
LINE
  5
9552
  8
0
 10
455.7771028454253
 20
716.79131413659184
 30
0.0
 11
455.7771028454253
 21
713.79868713659175
 31
0.0
  0
LINE
  5
9553
  8
0
 10
455.7771028454253
 20
727.7834941365918
 30
0.0
 11
455.7771028454253
 21
724.82201513659174
 31
0.0
  0
LINE
  5
9554
  8
0
 10
455.7771028454253
 20
737.78297013659164
 30
0.0
 11
455.7771028454253
 21
734.83527813659168
 31
0.0
  0
LINE
  5
9555
  8
0
 10
388.69818184542549
 20
694.31312213659169
 30
0.0
 11
390.77710284542547
 21
694.80851913659183
 31
0.0
  0
LINE
  5
9556
  8
0
 10
390.77710284542547
 20
694.80851913659183
 30
0.0
 11
256.77710284542547
 21
694.80851913659183
 31
0.0
  0
LINE
  5
9557
  8
0
 10
258.85602384542551
 20
694.31312213659169
 30
0.0
 11
388.69818184542549
 21
694.31312213659169
 31
0.0
  0
LINE
  5
9558
  8
0
 10
388.69818184542549
 20
692.3131221365918
 30
0.0
 11
388.69818184542549
 21
694.31312213659169
 31
0.0
  0
LINE
  5
9559
  8
0
 10
390.77710284542547
 20
691.76281313659183
 30
0.0
 11
256.77710284542547
 21
691.76281313659183
 31
0.0
  0
LINE
  5
955A
  8
0
 10
258.85602384542551
 20
692.3131221365918
 30
0.0
 11
388.69818184542549
 21
692.3131221365918
 31
0.0
  0
LINE
  5
955B
  8
0
 10
388.69818184542549
 20
692.3131221365918
 30
0.0
 11
390.77710284542547
 21
691.76281313659183
 31
0.0
  0
LINE
  5
955C
  8
0
 10
390.77710284542547
 20
685.80851913659149
 30
0.0
 11
256.77710284542547
 21
685.80851913659149
 31
0.0
  0
LINE
  5
955D
  8
0
 10
258.85602384542551
 20
685.31312213659169
 30
0.0
 11
388.69818184542549
 21
685.31312213659169
 31
0.0
  0
LINE
  5
955E
  8
0
 10
390.77710284542547
 20
682.76281313659172
 30
0.0
 11
256.81065984542539
 21
682.76281313659172
 31
0.0
  0
LINE
  5
955F
  8
0
 10
258.85602384542551
 20
683.31312213659169
 30
0.0
 11
388.69818184542549
 21
683.31312213659169
 31
0.0
  0
LINE
  5
9560
  8
0
 10
388.69818184542549
 20
683.31312213659169
 30
0.0
 11
390.77710284542547
 21
682.76281313659172
 31
0.0
  0
LINE
  5
9561
  8
0
 10
390.77710284542547
 20
685.80851913659149
 30
0.0
 11
390.77710284542547
 21
682.76281313659172
 31
0.0
  0
LINE
  5
9562
  8
0
 10
388.69818184542549
 20
683.31312213659169
 30
0.0
 11
388.69818184542549
 21
685.31312213659169
 31
0.0
  0
LINE
  5
9563
  8
0
 10
388.69818184542549
 20
685.31312213659169
 30
0.0
 11
390.77710284542547
 21
685.80851913659149
 31
0.0
  0
LINE
  5
9564
  8
0
 10
390.77710284542547
 20
682.76281313659172
 30
0.0
 11
405.7771028454253
 21
682.76281313659172
 31
0.0
  0
LINE
  5
9565
  8
0
 10
405.7771028454253
 20
682.76281313659172
 30
0.0
 11
421.77710284542542
 21
678.42088813659188
 31
0.0
  0
LINE
  5
9566
  8
0
 10
256.77710284542547
 20
694.80851913659183
 30
0.0
 11
256.77710284542547
 21
691.76281313659183
 31
0.0
  0
LINE
  5
9567
  8
0
 10
256.77710284542547
 20
685.80851913659149
 30
0.0
 11
256.77710284542547
 21
682.76281313659172
 31
0.0
  0
LINE
  5
9568
  8
0
 10
258.85602384542551
 20
692.3131221365918
 30
0.0
 11
258.85602384542551
 21
694.31312213659169
 31
0.0
  0
LINE
  5
9569
  8
0
 10
258.85602384542551
 20
694.31312213659169
 30
0.0
 11
256.77710284542547
 21
694.80851913659183
 31
0.0
  0
LINE
  5
956A
  8
0
 10
258.85602384542551
 20
692.3131221365918
 30
0.0
 11
256.77710284542547
 21
691.76281313659183
 31
0.0
  0
LINE
  5
956B
  8
0
 10
258.85602384542551
 20
685.31312213659169
 30
0.0
 11
256.77710284542547
 21
685.80851913659149
 31
0.0
  0
LINE
  5
956C
  8
0
 10
258.85602384542551
 20
683.31312213659169
 30
0.0
 11
258.85602384542551
 21
685.31312213659169
 31
0.0
  0
LINE
  5
956D
  8
0
 10
258.85602384542551
 20
683.31312213659169
 30
0.0
 11
256.77710284542547
 21
682.76281313659172
 31
0.0
  0
LINE
  5
956E
  8
0
 10
154.67713284542549
 20
842.8131221365918
 30
0.0
 11
232.2771028454255
 21
842.8131221365918
 31
0.0
  0
LINE
  5
956F
  8
0
 10
154.67713284542549
 20
848.8131221365918
 30
0.0
 11
232.2771028454255
 21
848.8131221365918
 31
0.0
  0
LINE
  5
9570
  8
0
 10
254.2771028454255
 20
839.8131221365918
 30
0.0
 11
150.77710284542539
 21
839.8131221365918
 31
0.0
  0
LINE
  5
9571
  8
0
 10
243.2771028454255
 20
842.8131221365918
 30
0.0
 11
256.77710284542547
 21
842.8131221365918
 31
0.0
  0
ARC
  5
9572
  8
0
 10
901.06408284542545
 20
742.8131221365918
 30
0.0
 40
764.28698999999995
 50
172.82194999999871
 51
187.17804000000049
  0
LINE
  5
9573
  8
0
 10
147.42713284542549
 20
649.21308213659165
 30
0.0
 11
147.42713284542549
 21
836.50306213659189
 31
0.0
  0
LINE
  5
9574
  8
0
 10
141.7771028454255
 20
805.25306213659189
 30
0.0
 11
141.7771028454255
 21
679.67310213659175
 31
0.0
  0
LINE
  5
9575
  8
0
 10
139.7771028454255
 20
805.25306213659189
 30
0.0
 11
139.7771028454255
 21
680.36304213659173
 31
0.0
  0
LINE
  5
9576
  8
0
 10
254.2771028454255
 20
645.81312213659169
 30
0.0
 11
150.77710284542539
 21
645.81312213659169
 31
0.0
  0
LINE
  5
9577
  8
0
 10
141.9270728454255
 20
676.98310213659158
 30
0.0
 11
146.83710284542539
 21
649.11310213659169
 31
0.0
  0
ARC
  5
9578
  8
0
 10
154.67884284542549
 20
648.81116213659175
 30
0.0
 40
5.9980479999999998
 50
207.05351000000039
 51
269.98324000000241
  0
ARC
  5
9579
  8
0
 10
154.67957284542541
 20
648.80921213659155
 30
0.0
 40
11.996128000000001
 50
187.16444000000149
 51
269.98821999999512
  0
ARC
  5
957A
  8
0
 10
140.9375028454254
 20
676.81617213659172
 30
0.0
 40
1.0035289999999999
 50
9.5734909999996063
 51
62.101815000001061
  0
ARC
  5
957B
  8
0
 10
142.77564284542549
 20
680.37110213659173
 30
0.0
 40
2.9985330000000001
 50
180.1533100000014
 51
242.84513000000379
  0
ARC
  5
957C
  8
0
 10
150.77649284542551
 20
649.81446213659149
 30
0.0
 40
4.0014059999999976
 50
190.09553000000011
 51
270.00784999999382
  0
LINE
  5
957D
  8
0
 10
141.9270728454255
 20
808.63306213659166
 30
0.0
 11
146.8370428454254
 21
836.50306213659189
 31
0.0
  0
ARC
  5
957E
  8
0
 10
150.77662284542549
 20
835.81373213659185
 30
0.0
 40
3.9993959999999982
 50
89.993274999998206
 51
170.07405999999821
  0
ARC
  5
957F
  8
0
 10
140.93775284542551
 20
808.81226213659181
 30
0.0
 40
1.0054319999999941
 50
297.82706000000729
 51
349.73527000000468
  0
ARC
  5
9580
  8
0
 10
142.7743028454255
 20
805.25587213659185
 30
0.0
 40
2.997211999999998
 50
117.13965999999481
 51
180.05330999999691
  0
ARC
  5
9581
  8
0
 10
154.6779828454255
 20
836.81641213659179
 30
0.0
 40
5.9966319999999991
 50
90.008472000000253
 51
152.954760000004
  0
ARC
  5
9582
  8
0
 10
154.6785928454255
 20
836.81806213659195
 30
0.0
 40
11.995034
 50
90.007167000000024
 51
172.84015999999829
  0
LINE
  5
9583
  8
0
 10
134.38709284542551
 20
737.8131221365918
 30
0.0
 11
134.38709284542551
 21
747.81312213659169
 31
0.0
  0
LINE
  5
9584
  8
0
 10
136.79712284542549
 20
747.81312213659169
 30
0.0
 11
134.38709284542551
 21
747.81312213659169
 31
0.0
  0
LINE
  5
9585
  8
0
 10
136.79712284542549
 20
737.8131221365918
 30
0.0
 11
134.38709284542551
 21
737.8131221365918
 31
0.0
  0
LINE
  5
9586
  8
0
 10
385.90197684542528
 20
617.31265213659174
 30
0.0
 11
383.72767184542562
 21
617.31265213659174
 31
0.0
  0
LINE
  5
9587
  8
0
 10
391.77710284542547
 20
621.31273213659165
 30
0.0
 11
383.40197684542539
 21
621.31273213659165
 31
0.0
  0
POLYLINE
  5
9588
  8
0
 10
382.90197684542528
 20
604.31239213659182
 30
0.0
 66
     1
 70
     8
  0
VERTEX
  8
0
  5
A07E
 10
382.902
 20
604.312
 30
0.000000
  70
    32
  0
VERTEX
  8
0
  5
A07F
 10
382.933
 20
604.313
 30
0.000000
  70
    32
  0
VERTEX
  8
0
  5
A080
 10
382.963
 20
604.313
 30
0.000000
  70
    32
  0
VERTEX
  8
0
  5
A081
 10
382.994
 20
604.314
 30
0.000000
  70
    32
  0
VERTEX
  8
0
  5
A082
 10
383.025
 20
604.315
 30
0.000000
  70
    32
  0
VERTEX
  8
0
  5
A083
 10
383.055
 20
604.317
 30
0.000000
  70
    32
  0
VERTEX
  8
0
  5
A084
 10
383.086
 20
604.319
 30
0.000000
  70
    32
  0
VERTEX
  8
0
  5
A085
 10
383.116
 20
604.322
 30
0.000000
  70
    32
  0
VERTEX
  8
0
  5
A086
 10
383.147
 20
604.324
 30
0.000000
  70
    32
  0
VERTEX
  8
0
  5
A087
 10
383.178
 20
604.328
 30
0.000000
  70
    32
  0
VERTEX
  8
0
  5
A088
 10
383.208
 20
604.331
 30
0.000000
  70
    32
  0
VERTEX
  8
0
  5
A089
 10
383.238
 20
604.335
 30
0.000000
  70
    32
  0
VERTEX
  8
0
  5
A08A
 10
383.269
 20
604.339
 30
0.000000
  70
    32
  0
VERTEX
  8
0
  5
A08B
 10
383.299
 20
604.344
 30
0.000000
  70
    32
  0
VERTEX
  8
0
  5
A08C
 10
383.329
 20
604.349
 30
0.000000
  70
    32
  0
VERTEX
  8
0
  5
A08D
 10
383.360
 20
604.355
 30
0.000000
  70
    32
  0
VERTEX
  8
0
  5
A08E
 10
383.390
 20
604.360
 30
0.000000
  70
    32
  0
VERTEX
  8
0
  5
A08F
 10
383.420
 20
604.367
 30
0.000000
  70
    32
  0
VERTEX
  8
0
  5
A090
 10
383.450
 20
604.373
 30
0.000000
  70
    32
  0
VERTEX
  8
0
  5
A091
 10
383.480
 20
604.380
 30
0.000000
  70
    32
  0
VERTEX
  8
0
  5
A092
 10
383.509
 20
604.387
 30
0.000000
  70
    32
  0
VERTEX
  8
0
  5
A093
 10
383.539
 20
604.395
 30
0.000000
  70
    32
  0
VERTEX
  8
0
  5
A094
 10
383.569
 20
604.403
 30
0.000000
  70
    32
  0
VERTEX
  8
0
  5
A095
 10
383.598
 20
604.411
 30
0.000000
  70
    32
  0
VERTEX
  8
0
  5
A096
 10
383.628
 20
604.420
 30
0.000000
  70
    32
  0
VERTEX
  8
0
  5
A097
 10
383.657
 20
604.429
 30
0.000000
  70
    32
  0
VERTEX
  8
0
  5
A098
 10
383.686
 20
604.439
 30
0.000000
  70
    32
  0
VERTEX
  8
0
  5
A099
 10
383.715
 20
604.448
 30
0.000000
  70
    32
  0
VERTEX
  8
0
  5
A09A
 10
383.744
 20
604.459
 30
0.000000
  70
    32
  0
VERTEX
  8
0
  5
A09B
 10
383.773
 20
604.469
 30
0.000000
  70
    32
  0
VERTEX
  8
0
  5
A09C
 10
383.802
 20
604.480
 30
0.000000
  70
    32
  0
VERTEX
  8
0
  5
A09D
 10
383.830
 20
604.491
 30
0.000000
  70
    32
  0
VERTEX
  8
0
  5
A09E
 10
383.859
 20
604.503
 30
0.000000
  70
    32
  0
VERTEX
  8
0
  5
A09F
 10
383.887
 20
604.515
 30
0.000000
  70
    32
  0
VERTEX
  8
0
  5
A0A0
 10
383.915
 20
604.527
 30
0.000000
  70
    32
  0
VERTEX
  8
0
  5
A0A1
 10
383.943
 20
604.539
 30
0.000000
  70
    32
  0
VERTEX
  8
0
  5
A0A2
 10
383.971
 20
604.552
 30
0.000000
  70
    32
  0
VERTEX
  8
0
  5
A0A3
 10
383.999
 20
604.566
 30
0.000000
  70
    32
  0
VERTEX
  8
0
  5
A0A4
 10
384.026
 20
604.579
 30
0.000000
  70
    32
  0
VERTEX
  8
0
  5
A0A5
 10
384.053
 20
604.593
 30
0.000000
  70
    32
  0
VERTEX
  8
0
  5
A0A6
 10
384.080
 20
604.608
 30
0.000000
  70
    32
  0
VERTEX
  8
0
  5
A0A7
 10
384.107
 20
604.622
 30
0.000000
  70
    32
  0
VERTEX
  8
0
  5
A0A8
 10
384.134
 20
604.637
 30
0.000000
  70
    32
  0
VERTEX
  8
0
  5
A0A9
 10
384.161
 20
604.652
 30
0.000000
  70
    32
  0
VERTEX
  8
0
  5
A0AA
 10
384.187
 20
604.668
 30
0.000000
  70
    32
  0
VERTEX
  8
0
  5
A0AB
 10
384.213
 20
604.684
 30
0.000000
  70
    32
  0
VERTEX
  8
0
  5
A0AC
 10
384.239
 20
604.700
 30
0.000000
  70
    32
  0
VERTEX
  8
0
  5
A0AD
 10
384.265
 20
604.717
 30
0.000000
  70
    32
  0
VERTEX
  8
0
  5
A0AE
 10
384.291
 20
604.734
 30
0.000000
  70
    32
  0
VERTEX
  8
0
  5
A0AF
 10
384.316
 20
604.751
 30
0.000000
  70
    32
  0
VERTEX
  8
0
  5
A0B0
 10
384.341
 20
604.768
 30
0.000000
  70
    32
  0
VERTEX
  8
0
  5
A0B1
 10
384.366
 20
604.786
 30
0.000000
  70
    32
  0
VERTEX
  8
0
  5
A0B2
 10
384.391
 20
604.804
 30
0.000000
  70
    32
  0
VERTEX
  8
0
  5
A0B3
 10
384.416
 20
604.823
 30
0.000000
  70
    32
  0
VERTEX
  8
0
  5
A0B4
 10
384.440
 20
604.842
 30
0.000000
  70
    32
  0
VERTEX
  8
0
  5
A0B5
 10
384.464
 20
604.861
 30
0.000000
  70
    32
  0
VERTEX
  8
0
  5
A0B6
 10
384.488
 20
604.880
 30
0.000000
  70
    32
  0
VERTEX
  8
0
  5
A0B7
 10
384.512
 20
604.899
 30
0.000000
  70
    32
  0
VERTEX
  8
0
  5
A0B8
 10
384.535
 20
604.919
 30
0.000000
  70
    32
  0
VERTEX
  8
0
  5
A0B9
 10
384.558
 20
604.940
 30
0.000000
  70
    32
  0
VERTEX
  8
0
  5
A0BA
 10
384.581
 20
604.960
 30
0.000000
  70
    32
  0
VERTEX
  8
0
  5
A0BB
 10
384.603
 20
604.981
 30
0.000000
  70
    32
  0
VERTEX
  8
0
  5
A0BC
 10
384.626
 20
605.002
 30
0.000000
  70
    32
  0
VERTEX
  8
0
  5
A0BD
 10
384.648
 20
605.023
 30
0.000000
  70
    32
  0
VERTEX
  8
0
  5
A0BE
 10
384.670
 20
605.045
 30
0.000000
  70
    32
  0
VERTEX
  8
0
  5
A0BF
 10
384.691
 20
605.066
 30
0.000000
  70
    32
  0
VERTEX
  8
0
  5
A0C0
 10
384.713
 20
605.089
 30
0.000000
  70
    32
  0
VERTEX
  8
0
  5
A0C1
 10
384.734
 20
605.111
 30
0.000000
  70
    32
  0
VERTEX
  8
0
  5
A0C2
 10
384.754
 20
605.134
 30
0.000000
  70
    32
  0
VERTEX
  8
0
  5
A0C3
 10
384.775
 20
605.156
 30
0.000000
  70
    32
  0
VERTEX
  8
0
  5
A0C4
 10
384.795
 20
605.179
 30
0.000000
  70
    32
  0
VERTEX
  8
0
  5
A0C5
 10
384.815
 20
605.203
 30
0.000000
  70
    32
  0
VERTEX
  8
0
  5
A0C6
 10
384.835
 20
605.226
 30
0.000000
  70
    32
  0
VERTEX
  8
0
  5
A0C7
 10
384.854
 20
605.250
 30
0.000000
  70
    32
  0
VERTEX
  8
0
  5
A0C8
 10
384.873
 20
605.274
 30
0.000000
  70
    32
  0
VERTEX
  8
0
  5
A0C9
 10
384.892
 20
605.299
 30
0.000000
  70
    32
  0
VERTEX
  8
0
  5
A0CA
 10
384.910
 20
605.323
 30
0.000000
  70
    32
  0
VERTEX
  8
0
  5
A0CB
 10
384.928
 20
605.348
 30
0.000000
  70
    32
  0
VERTEX
  8
0
  5
A0CC
 10
384.946
 20
605.373
 30
0.000000
  70
    32
  0
VERTEX
  8
0
  5
A0CD
 10
384.963
 20
605.398
 30
0.000000
  70
    32
  0
VERTEX
  8
0
  5
A0CE
 10
384.981
 20
605.423
 30
0.000000
  70
    32
  0
VERTEX
  8
0
  5
A0CF
 10
384.998
 20
605.449
 30
0.000000
  70
    32
  0
VERTEX
  8
0
  5
A0D0
 10
385.014
 20
605.475
 30
0.000000
  70
    32
  0
VERTEX
  8
0
  5
A0D1
 10
385.030
 20
605.501
 30
0.000000
  70
    32
  0
VERTEX
  8
0
  5
A0D2
 10
385.046
 20
605.527
 30
0.000000
  70
    32
  0
VERTEX
  8
0
  5
A0D3
 10
385.062
 20
605.554
 30
0.000000
  70
    32
  0
VERTEX
  8
0
  5
A0D4
 10
385.077
 20
605.580
 30
0.000000
  70
    32
  0
VERTEX
  8
0
  5
A0D5
 10
385.092
 20
605.607
 30
0.000000
  70
    32
  0
VERTEX
  8
0
  5
A0D6
 10
385.107
 20
605.634
 30
0.000000
  70
    32
  0
VERTEX
  8
0
  5
A0D7
 10
385.121
 20
605.661
 30
0.000000
  70
    32
  0
VERTEX
  8
0
  5
A0D8
 10
385.135
 20
605.688
 30
0.000000
  70
    32
  0
VERTEX
  8
0
  5
A0D9
 10
385.149
 20
605.716
 30
0.000000
  70
    32
  0
VERTEX
  8
0
  5
A0DA
 10
385.162
 20
605.744
 30
0.000000
  70
    32
  0
VERTEX
  8
0
  5
A0DB
 10
385.175
 20
605.771
 30
0.000000
  70
    32
  0
VERTEX
  8
0
  5
A0DC
 10
385.188
 20
605.799
 30
0.000000
  70
    32
  0
VERTEX
  8
0
  5
A0DD
 10
385.200
 20
605.827
 30
0.000000
  70
    32
  0
VERTEX
  8
0
  5
A0DE
 10
385.212
 20
605.856
 30
0.000000
  70
    32
  0
VERTEX
  8
0
  5
A0DF
 10
385.223
 20
605.884
 30
0.000000
  70
    32
  0
VERTEX
  8
0
  5
A0E0
 10
385.234
 20
605.913
 30
0.000000
  70
    32
  0
VERTEX
  8
0
  5
A0E1
 10
385.245
 20
605.941
 30
0.000000
  70
    32
  0
VERTEX
  8
0
  5
A0E2
 10
385.256
 20
605.970
 30
0.000000
  70
    32
  0
VERTEX
  8
0
  5
A0E3
 10
385.266
 20
605.999
 30
0.000000
  70
    32
  0
VERTEX
  8
0
  5
A0E4
 10
385.276
 20
606.028
 30
0.000000
  70
    32
  0
VERTEX
  8
0
  5
A0E5
 10
385.285
 20
606.057
 30
0.000000
  70
    32
  0
VERTEX
  8
0
  5
A0E6
 10
385.294
 20
606.087
 30
0.000000
  70
    32
  0
VERTEX
  8
0
  5
A0E7
 10
385.303
 20
606.116
 30
0.000000
  70
    32
  0
VERTEX
  8
0
  5
A0E8
 10
385.311
 20
606.146
 30
0.000000
  70
    32
  0
VERTEX
  8
0
  5
A0E9
 10
385.319
 20
606.175
 30
0.000000
  70
    32
  0
VERTEX
  8
0
  5
A0EA
 10
385.327
 20
606.205
 30
0.000000
  70
    32
  0
VERTEX
  8
0
  5
A0EB
 10
385.334
 20
606.235
 30
0.000000
  70
    32
  0
VERTEX
  8
0
  5
A0EC
 10
385.341
 20
606.265
 30
0.000000
  70
    32
  0
VERTEX
  8
0
  5
A0ED
 10
385.348
 20
606.295
 30
0.000000
  70
    32
  0
VERTEX
  8
0
  5
A0EE
 10
385.354
 20
606.325
 30
0.000000
  70
    32
  0
VERTEX
  8
0
  5
A0EF
 10
385.360
 20
606.355
 30
0.000000
  70
    32
  0
VERTEX
  8
0
  5
A0F0
 10
385.365
 20
606.385
 30
0.000000
  70
    32
  0
VERTEX
  8
0
  5
A0F1
 10
385.370
 20
606.415
 30
0.000000
  70
    32
  0
VERTEX
  8
0
  5
A0F2
 10
385.375
 20
606.446
 30
0.000000
  70
    32
  0
VERTEX
  8
0
  5
A0F3
 10
385.379
 20
606.476
 30
0.000000
  70
    32
  0
VERTEX
  8
0
  5
A0F4
 10
385.383
 20
606.506
 30
0.000000
  70
    32
  0
VERTEX
  8
0
  5
A0F5
 10
385.387
 20
606.537
 30
0.000000
  70
    32
  0
VERTEX
  8
0
  5
A0F6
 10
385.390
 20
606.567
 30
0.000000
  70
    32
  0
VERTEX
  8
0
  5
A0F7
 10
385.393
 20
606.598
 30
0.000000
  70
    32
  0
VERTEX
  8
0
  5
A0F8
 10
385.395
 20
606.629
 30
0.000000
  70
    32
  0
VERTEX
  8
0
  5
A0F9
 10
385.397
 20
606.659
 30
0.000000
  70
    32
  0
VERTEX
  8
0
  5
A0FA
 10
385.399
 20
606.690
 30
0.000000
  70
    32
  0
VERTEX
  8
0
  5
A0FB
 10
385.400
 20
606.720
 30
0.000000
  70
    32
  0
VERTEX
  8
0
  5
A0FC
 10
385.401
 20
606.751
 30
0.000000
  70
    32
  0
VERTEX
  8
0
  5
A0FD
 10
385.402
 20
606.782
 30
0.000000
  70
    32
  0
VERTEX
  8
0
  5
A0FE
 10
385.402
 20
606.812
 30
0.000000
  70
    32
  0
SEQEND
  8
0
  5
A0FF
  0
LINE
  5
9589
  8
0
 10
310.30197684542537
 20
638.31307213659159
 30
0.0
 11
390.77710284542547
 21
638.31307213659159
 31
0.0
  0
LINE
  5
958A
  8
0
 10
376.77710284542547
 20
621.19785613659155
 30
0.0
 11
376.77710284542547
 21
638.31307213659159
 31
0.0
  0
LINE
  5
958B
  8
0
 10
328.90197684542528
 20
638.31307213659159
 30
0.0
 11
328.90197684542528
 21
621.31273213659165
 31
0.0
  0
LINE
  5
958C
  8
0
 10
310.30197684542537
 20
638.31307213659159
 30
0.0
 11
310.30197684542537
 21
621.31273213659165
 31
0.0
  0
LINE
  5
958D
  8
0
 10
304.50197684542547
 20
637.31305213659175
 30
0.0
 11
304.50197684542547
 21
609.31249213659169
 31
0.0
  0
LINE
  5
958E
  8
0
 10
307.02055284542558
 20
609.31249213659169
 30
0.0
 11
338.99862284542547
 21
614.76102713659157
 31
0.0
  0
LINE
  5
958F
  8
0
 10
307.10197684542572
 20
608.31247213659174
 30
0.0
 11
383.40197684542539
 21
621.31273213659165
 31
0.0
  0
LINE
  5
9590
  8
0
 10
382.90197684542528
 20
604.31239213659171
 30
0.0
 11
307.42767184542572
 21
604.31239213659171
 31
0.0
  0
LINE
  5
9591
  8
0
 10
383.72767184542562
 20
617.31265213659174
 30
0.0
 11
307.42767184542572
 21
604.31239213659171
 31
0.0
  0
LINE
  5
9592
  8
0
 10
304.50197684542547
 20
613.3125721365916
 30
0.0
 11
303.30197684542537
 21
613.3125721365916
 31
0.0
  0
LINE
  5
9593
  8
0
 10
307.02055284542558
 20
609.31249213659169
 30
0.0
 11
303.00197684542547
 21
609.31249213659169
 31
0.0
  0
LINE
  5
9594
  8
0
 10
303.00197684542547
 20
608.31247213659174
 30
0.0
 11
307.10197684542572
 21
608.31247213659174
 31
0.0
  0
POLYLINE
  5
9595
  8
0
 10
303.00197684602534
 20
605.81242213659175
 30
0.0
 66
     1
 70
     8
  0
VERTEX
  8
0
  5
A100
 10
303.002
 20
605.812
 30
0.000000
  70
    32
  0
VERTEX
  8
0
  5
A101
 10
303.002
 20
605.794
 30
0.000000
  70
    32
  0
VERTEX
  8
0
  5
A102
 10
303.002
 20
605.776
 30
0.000000
  70
    32
  0
VERTEX
  8
0
  5
A103
 10
303.003
 20
605.757
 30
0.000000
  70
    32
  0
VERTEX
  8
0
  5
A104
 10
303.004
 20
605.739
 30
0.000000
  70
    32
  0
VERTEX
  8
0
  5
A105
 10
303.005
 20
605.720
 30
0.000000
  70
    32
  0
VERTEX
  8
0
  5
A106
 10
303.006
 20
605.702
 30
0.000000
  70
    32
  0
VERTEX
  8
0
  5
A107
 10
303.008
 20
605.684
 30
0.000000
  70
    32
  0
VERTEX
  8
0
  5
A108
 10
303.009
 20
605.665
 30
0.000000
  70
    32
  0
VERTEX
  8
0
  5
A109
 10
303.011
 20
605.647
 30
0.000000
  70
    32
  0
VERTEX
  8
0
  5
A10A
 10
303.013
 20
605.629
 30
0.000000
  70
    32
  0
VERTEX
  8
0
  5
A10B
 10
303.016
 20
605.611
 30
0.000000
  70
    32
  0
VERTEX
  8
0
  5
A10C
 10
303.018
 20
605.592
 30
0.000000
  70
    32
  0
VERTEX
  8
0
  5
A10D
 10
303.021
 20
605.574
 30
0.000000
  70
    32
  0
VERTEX
  8
0
  5
A10E
 10
303.024
 20
605.556
 30
0.000000
  70
    32
  0
VERTEX
  8
0
  5
A10F
 10
303.027
 20
605.538
 30
0.000000
  70
    32
  0
VERTEX
  8
0
  5
A110
 10
303.031
 20
605.520
 30
0.000000
  70
    32
  0
VERTEX
  8
0
  5
A111
 10
303.035
 20
605.502
 30
0.000000
  70
    32
  0
VERTEX
  8
0
  5
A112
 10
303.038
 20
605.484
 30
0.000000
  70
    32
  0
VERTEX
  8
0
  5
A113
 10
303.043
 20
605.466
 30
0.000000
  70
    32
  0
VERTEX
  8
0
  5
A114
 10
303.047
 20
605.448
 30
0.000000
  70
    32
  0
VERTEX
  8
0
  5
A115
 10
303.052
 20
605.430
 30
0.000000
  70
    32
  0
VERTEX
  8
0
  5
A116
 10
303.056
 20
605.412
 30
0.000000
  70
    32
  0
VERTEX
  8
0
  5
A117
 10
303.061
 20
605.395
 30
0.000000
  70
    32
  0
VERTEX
  8
0
  5
A118
 10
303.067
 20
605.377
 30
0.000000
  70
    32
  0
VERTEX
  8
0
  5
A119
 10
303.072
 20
605.359
 30
0.000000
  70
    32
  0
VERTEX
  8
0
  5
A11A
 10
303.078
 20
605.342
 30
0.000000
  70
    32
  0
VERTEX
  8
0
  5
A11B
 10
303.084
 20
605.324
 30
0.000000
  70
    32
  0
VERTEX
  8
0
  5
A11C
 10
303.090
 20
605.307
 30
0.000000
  70
    32
  0
VERTEX
  8
0
  5
A11D
 10
303.096
 20
605.290
 30
0.000000
  70
    32
  0
VERTEX
  8
0
  5
A11E
 10
303.102
 20
605.273
 30
0.000000
  70
    32
  0
VERTEX
  8
0
  5
A11F
 10
303.109
 20
605.255
 30
0.000000
  70
    32
  0
VERTEX
  8
0
  5
A120
 10
303.116
 20
605.238
 30
0.000000
  70
    32
  0
VERTEX
  8
0
  5
A121
 10
303.123
 20
605.221
 30
0.000000
  70
    32
  0
VERTEX
  8
0
  5
A122
 10
303.131
 20
605.205
 30
0.000000
  70
    32
  0
VERTEX
  8
0
  5
A123
 10
303.138
 20
605.188
 30
0.000000
  70
    32
  0
VERTEX
  8
0
  5
A124
 10
303.146
 20
605.171
 30
0.000000
  70
    32
  0
VERTEX
  8
0
  5
A125
 10
303.154
 20
605.154
 30
0.000000
  70
    32
  0
VERTEX
  8
0
  5
A126
 10
303.162
 20
605.138
 30
0.000000
  70
    32
  0
VERTEX
  8
0
  5
A127
 10
303.171
 20
605.122
 30
0.000000
  70
    32
  0
VERTEX
  8
0
  5
A128
 10
303.179
 20
605.105
 30
0.000000
  70
    32
  0
VERTEX
  8
0
  5
A129
 10
303.188
 20
605.089
 30
0.000000
  70
    32
  0
VERTEX
  8
0
  5
A12A
 10
303.197
 20
605.073
 30
0.000000
  70
    32
  0
VERTEX
  8
0
  5
A12B
 10
303.206
 20
605.057
 30
0.000000
  70
    32
  0
VERTEX
  8
0
  5
A12C
 10
303.215
 20
605.041
 30
0.000000
  70
    32
  0
VERTEX
  8
0
  5
A12D
 10
303.225
 20
605.026
 30
0.000000
  70
    32
  0
VERTEX
  8
0
  5
A12E
 10
303.235
 20
605.010
 30
0.000000
  70
    32
  0
VERTEX
  8
0
  5
A12F
 10
303.245
 20
604.994
 30
0.000000
  70
    32
  0
VERTEX
  8
0
  5
A130
 10
303.255
 20
604.979
 30
0.000000
  70
    32
  0
VERTEX
  8
0
  5
A131
 10
303.265
 20
604.964
 30
0.000000
  70
    32
  0
VERTEX
  8
0
  5
A132
 10
303.276
 20
604.949
 30
0.000000
  70
    32
  0
VERTEX
  8
0
  5
A133
 10
303.286
 20
604.934
 30
0.000000
  70
    32
  0
VERTEX
  8
0
  5
A134
 10
303.297
 20
604.919
 30
0.000000
  70
    32
  0
VERTEX
  8
0
  5
A135
 10
303.308
 20
604.904
 30
0.000000
  70
    32
  0
VERTEX
  8
0
  5
A136
 10
303.319
 20
604.890
 30
0.000000
  70
    32
  0
VERTEX
  8
0
  5
A137
 10
303.331
 20
604.875
 30
0.000000
  70
    32
  0
VERTEX
  8
0
  5
A138
 10
303.342
 20
604.861
 30
0.000000
  70
    32
  0
VERTEX
  8
0
  5
A139
 10
303.354
 20
604.847
 30
0.000000
  70
    32
  0
VERTEX
  8
0
  5
A13A
 10
303.366
 20
604.833
 30
0.000000
  70
    32
  0
VERTEX
  8
0
  5
A13B
 10
303.378
 20
604.819
 30
0.000000
  70
    32
  0
VERTEX
  8
0
  5
A13C
 10
303.391
 20
604.805
 30
0.000000
  70
    32
  0
VERTEX
  8
0
  5
A13D
 10
303.403
 20
604.792
 30
0.000000
  70
    32
  0
VERTEX
  8
0
  5
A13E
 10
303.416
 20
604.778
 30
0.000000
  70
    32
  0
VERTEX
  8
0
  5
A13F
 10
303.428
 20
604.765
 30
0.000000
  70
    32
  0
VERTEX
  8
0
  5
A140
 10
303.441
 20
604.752
 30
0.000000
  70
    32
  0
VERTEX
  8
0
  5
A141
 10
303.454
 20
604.739
 30
0.000000
  70
    32
  0
VERTEX
  8
0
  5
A142
 10
303.468
 20
604.726
 30
0.000000
  70
    32
  0
VERTEX
  8
0
  5
A143
 10
303.481
 20
604.713
 30
0.000000
  70
    32
  0
VERTEX
  8
0
  5
A144
 10
303.495
 20
604.701
 30
0.000000
  70
    32
  0
VERTEX
  8
0
  5
A145
 10
303.508
 20
604.689
 30
0.000000
  70
    32
  0
VERTEX
  8
0
  5
A146
 10
303.522
 20
604.677
 30
0.000000
  70
    32
  0
VERTEX
  8
0
  5
A147
 10
303.536
 20
604.665
 30
0.000000
  70
    32
  0
VERTEX
  8
0
  5
A148
 10
303.550
 20
604.653
 30
0.000000
  70
    32
  0
VERTEX
  8
0
  5
A149
 10
303.565
 20
604.641
 30
0.000000
  70
    32
  0
VERTEX
  8
0
  5
A14A
 10
303.579
 20
604.630
 30
0.000000
  70
    32
  0
VERTEX
  8
0
  5
A14B
 10
303.594
 20
604.619
 30
0.000000
  70
    32
  0
VERTEX
  8
0
  5
A14C
 10
303.608
 20
604.608
 30
0.000000
  70
    32
  0
VERTEX
  8
0
  5
A14D
 10
303.623
 20
604.597
 30
0.000000
  70
    32
  0
VERTEX
  8
0
  5
A14E
 10
303.638
 20
604.586
 30
0.000000
  70
    32
  0
VERTEX
  8
0
  5
A14F
 10
303.653
 20
604.576
 30
0.000000
  70
    32
  0
VERTEX
  8
0
  5
A150
 10
303.669
 20
604.565
 30
0.000000
  70
    32
  0
VERTEX
  8
0
  5
A151
 10
303.684
 20
604.555
 30
0.000000
  70
    32
  0
VERTEX
  8
0
  5
A152
 10
303.699
 20
604.545
 30
0.000000
  70
    32
  0
VERTEX
  8
0
  5
A153
 10
303.715
 20
604.535
 30
0.000000
  70
    32
  0
VERTEX
  8
0
  5
A154
 10
303.731
 20
604.526
 30
0.000000
  70
    32
  0
VERTEX
  8
0
  5
A155
 10
303.747
 20
604.516
 30
0.000000
  70
    32
  0
VERTEX
  8
0
  5
A156
 10
303.763
 20
604.507
 30
0.000000
  70
    32
  0
VERTEX
  8
0
  5
A157
 10
303.779
 20
604.498
 30
0.000000
  70
    32
  0
VERTEX
  8
0
  5
A158
 10
303.795
 20
604.490
 30
0.000000
  70
    32
  0
VERTEX
  8
0
  5
A159
 10
303.811
 20
604.481
 30
0.000000
  70
    32
  0
VERTEX
  8
0
  5
A15A
 10
303.828
 20
604.473
 30
0.000000
  70
    32
  0
VERTEX
  8
0
  5
A15B
 10
303.844
 20
604.464
 30
0.000000
  70
    32
  0
VERTEX
  8
0
  5
A15C
 10
303.861
 20
604.456
 30
0.000000
  70
    32
  0
VERTEX
  8
0
  5
A15D
 10
303.877
 20
604.449
 30
0.000000
  70
    32
  0
VERTEX
  8
0
  5
A15E
 10
303.894
 20
604.441
 30
0.000000
  70
    32
  0
VERTEX
  8
0
  5
A15F
 10
303.911
 20
604.434
 30
0.000000
  70
    32
  0
VERTEX
  8
0
  5
A160
 10
303.928
 20
604.427
 30
0.000000
  70
    32
  0
VERTEX
  8
0
  5
A161
 10
303.945
 20
604.420
 30
0.000000
  70
    32
  0
VERTEX
  8
0
  5
A162
 10
303.962
 20
604.413
 30
0.000000
  70
    32
  0
VERTEX
  8
0
  5
A163
 10
303.979
 20
604.406
 30
0.000000
  70
    32
  0
VERTEX
  8
0
  5
A164
 10
303.997
 20
604.400
 30
0.000000
  70
    32
  0
VERTEX
  8
0
  5
A165
 10
304.014
 20
604.394
 30
0.000000
  70
    32
  0
VERTEX
  8
0
  5
A166
 10
304.031
 20
604.388
 30
0.000000
  70
    32
  0
VERTEX
  8
0
  5
A167
 10
304.049
 20
604.382
 30
0.000000
  70
    32
  0
VERTEX
  8
0
  5
A168
 10
304.067
 20
604.377
 30
0.000000
  70
    32
  0
VERTEX
  8
0
  5
A169
 10
304.084
 20
604.372
 30
0.000000
  70
    32
  0
VERTEX
  8
0
  5
A16A
 10
304.102
 20
604.367
 30
0.000000
  70
    32
  0
VERTEX
  8
0
  5
A16B
 10
304.120
 20
604.362
 30
0.000000
  70
    32
  0
VERTEX
  8
0
  5
A16C
 10
304.138
 20
604.357
 30
0.000000
  70
    32
  0
VERTEX
  8
0
  5
A16D
 10
304.155
 20
604.353
 30
0.000000
  70
    32
  0
VERTEX
  8
0
  5
A16E
 10
304.173
 20
604.349
 30
0.000000
  70
    32
  0
VERTEX
  8
0
  5
A16F
 10
304.191
 20
604.345
 30
0.000000
  70
    32
  0
VERTEX
  8
0
  5
A170
 10
304.209
 20
604.341
 30
0.000000
  70
    32
  0
VERTEX
  8
0
  5
A171
 10
304.227
 20
604.338
 30
0.000000
  70
    32
  0
VERTEX
  8
0
  5
A172
 10
304.246
 20
604.334
 30
0.000000
  70
    32
  0
VERTEX
  8
0
  5
A173
 10
304.264
 20
604.331
 30
0.000000
  70
    32
  0
VERTEX
  8
0
  5
A174
 10
304.282
 20
604.329
 30
0.000000
  70
    32
  0
VERTEX
  8
0
  5
A175
 10
304.300
 20
604.326
 30
0.000000
  70
    32
  0
VERTEX
  8
0
  5
A176
 10
304.318
 20
604.324
 30
0.000000
  70
    32
  0
VERTEX
  8
0
  5
A177
 10
304.337
 20
604.322
 30
0.000000
  70
    32
  0
VERTEX
  8
0
  5
A178
 10
304.355
 20
604.320
 30
0.000000
  70
    32
  0
VERTEX
  8
0
  5
A179
 10
304.373
 20
604.318
 30
0.000000
  70
    32
  0
VERTEX
  8
0
  5
A17A
 10
304.392
 20
604.316
 30
0.000000
  70
    32
  0
VERTEX
  8
0
  5
A17B
 10
304.410
 20
604.315
 30
0.000000
  70
    32
  0
VERTEX
  8
0
  5
A17C
 10
304.428
 20
604.314
 30
0.000000
  70
    32
  0
VERTEX
  8
0
  5
A17D
 10
304.447
 20
604.313
 30
0.000000
  70
    32
  0
VERTEX
  8
0
  5
A17E
 10
304.465
 20
604.313
 30
0.000000
  70
    32
  0
VERTEX
  8
0
  5
A17F
 10
304.484
 20
604.313
 30
0.000000
  70
    32
  0
VERTEX
  8
0
  5
A180
 10
304.502
 20
604.312
 30
0.000000
  70
    32
  0
SEQEND
  8
0
  5
A181
  0
POLYLINE
  5
9596
  8
0
 10
302.50197684602534
 20
605.81242213659175
 30
0.0
 66
     1
 70
     8
  0
VERTEX
  8
0
  5
A182
 10
302.502
 20
605.812
 30
0.000000
  70
    32
  0
VERTEX
  8
0
  5
A183
 10
302.502
 20
605.794
 30
0.000000
  70
    32
  0
VERTEX
  8
0
  5
A184
 10
302.502
 20
605.776
 30
0.000000
  70
    32
  0
VERTEX
  8
0
  5
A185
 10
302.503
 20
605.757
 30
0.000000
  70
    32
  0
VERTEX
  8
0
  5
A186
 10
302.504
 20
605.739
 30
0.000000
  70
    32
  0
VERTEX
  8
0
  5
A187
 10
302.505
 20
605.720
 30
0.000000
  70
    32
  0
VERTEX
  8
0
  5
A188
 10
302.506
 20
605.702
 30
0.000000
  70
    32
  0
VERTEX
  8
0
  5
A189
 10
302.508
 20
605.684
 30
0.000000
  70
    32
  0
VERTEX
  8
0
  5
A18A
 10
302.509
 20
605.665
 30
0.000000
  70
    32
  0
VERTEX
  8
0
  5
A18B
 10
302.511
 20
605.647
 30
0.000000
  70
    32
  0
VERTEX
  8
0
  5
A18C
 10
302.513
 20
605.629
 30
0.000000
  70
    32
  0
VERTEX
  8
0
  5
A18D
 10
302.516
 20
605.611
 30
0.000000
  70
    32
  0
VERTEX
  8
0
  5
A18E
 10
302.518
 20
605.592
 30
0.000000
  70
    32
  0
VERTEX
  8
0
  5
A18F
 10
302.521
 20
605.574
 30
0.000000
  70
    32
  0
VERTEX
  8
0
  5
A190
 10
302.524
 20
605.556
 30
0.000000
  70
    32
  0
VERTEX
  8
0
  5
A191
 10
302.527
 20
605.538
 30
0.000000
  70
    32
  0
VERTEX
  8
0
  5
A192
 10
302.531
 20
605.520
 30
0.000000
  70
    32
  0
VERTEX
  8
0
  5
A193
 10
302.535
 20
605.502
 30
0.000000
  70
    32
  0
VERTEX
  8
0
  5
A194
 10
302.538
 20
605.484
 30
0.000000
  70
    32
  0
VERTEX
  8
0
  5
A195
 10
302.543
 20
605.466
 30
0.000000
  70
    32
  0
VERTEX
  8
0
  5
A196
 10
302.547
 20
605.448
 30
0.000000
  70
    32
  0
VERTEX
  8
0
  5
A197
 10
302.552
 20
605.430
 30
0.000000
  70
    32
  0
VERTEX
  8
0
  5
A198
 10
302.556
 20
605.412
 30
0.000000
  70
    32
  0
VERTEX
  8
0
  5
A199
 10
302.561
 20
605.395
 30
0.000000
  70
    32
  0
VERTEX
  8
0
  5
A19A
 10
302.567
 20
605.377
 30
0.000000
  70
    32
  0
VERTEX
  8
0
  5
A19B
 10
302.572
 20
605.359
 30
0.000000
  70
    32
  0
VERTEX
  8
0
  5
A19C
 10
302.578
 20
605.342
 30
0.000000
  70
    32
  0
VERTEX
  8
0
  5
A19D
 10
302.584
 20
605.324
 30
0.000000
  70
    32
  0
VERTEX
  8
0
  5
A19E
 10
302.590
 20
605.307
 30
0.000000
  70
    32
  0
VERTEX
  8
0
  5
A19F
 10
302.596
 20
605.290
 30
0.000000
  70
    32
  0
VERTEX
  8
0
  5
A1A0
 10
302.602
 20
605.273
 30
0.000000
  70
    32
  0
VERTEX
  8
0
  5
A1A1
 10
302.609
 20
605.255
 30
0.000000
  70
    32
  0
VERTEX
  8
0
  5
A1A2
 10
302.616
 20
605.238
 30
0.000000
  70
    32
  0
VERTEX
  8
0
  5
A1A3
 10
302.623
 20
605.221
 30
0.000000
  70
    32
  0
VERTEX
  8
0
  5
A1A4
 10
302.631
 20
605.205
 30
0.000000
  70
    32
  0
VERTEX
  8
0
  5
A1A5
 10
302.638
 20
605.188
 30
0.000000
  70
    32
  0
VERTEX
  8
0
  5
A1A6
 10
302.646
 20
605.171
 30
0.000000
  70
    32
  0
VERTEX
  8
0
  5
A1A7
 10
302.654
 20
605.154
 30
0.000000
  70
    32
  0
VERTEX
  8
0
  5
A1A8
 10
302.662
 20
605.138
 30
0.000000
  70
    32
  0
VERTEX
  8
0
  5
A1A9
 10
302.671
 20
605.122
 30
0.000000
  70
    32
  0
VERTEX
  8
0
  5
A1AA
 10
302.679
 20
605.105
 30
0.000000
  70
    32
  0
VERTEX
  8
0
  5
A1AB
 10
302.688
 20
605.089
 30
0.000000
  70
    32
  0
VERTEX
  8
0
  5
A1AC
 10
302.697
 20
605.073
 30
0.000000
  70
    32
  0
VERTEX
  8
0
  5
A1AD
 10
302.706
 20
605.057
 30
0.000000
  70
    32
  0
VERTEX
  8
0
  5
A1AE
 10
302.715
 20
605.041
 30
0.000000
  70
    32
  0
VERTEX
  8
0
  5
A1AF
 10
302.725
 20
605.026
 30
0.000000
  70
    32
  0
VERTEX
  8
0
  5
A1B0
 10
302.735
 20
605.010
 30
0.000000
  70
    32
  0
VERTEX
  8
0
  5
A1B1
 10
302.745
 20
604.994
 30
0.000000
  70
    32
  0
VERTEX
  8
0
  5
A1B2
 10
302.755
 20
604.979
 30
0.000000
  70
    32
  0
VERTEX
  8
0
  5
A1B3
 10
302.765
 20
604.964
 30
0.000000
  70
    32
  0
VERTEX
  8
0
  5
A1B4
 10
302.776
 20
604.949
 30
0.000000
  70
    32
  0
VERTEX
  8
0
  5
A1B5
 10
302.786
 20
604.934
 30
0.000000
  70
    32
  0
VERTEX
  8
0
  5
A1B6
 10
302.797
 20
604.919
 30
0.000000
  70
    32
  0
VERTEX
  8
0
  5
A1B7
 10
302.808
 20
604.904
 30
0.000000
  70
    32
  0
VERTEX
  8
0
  5
A1B8
 10
302.819
 20
604.890
 30
0.000000
  70
    32
  0
VERTEX
  8
0
  5
A1B9
 10
302.831
 20
604.875
 30
0.000000
  70
    32
  0
VERTEX
  8
0
  5
A1BA
 10
302.842
 20
604.861
 30
0.000000
  70
    32
  0
VERTEX
  8
0
  5
A1BB
 10
302.854
 20
604.847
 30
0.000000
  70
    32
  0
VERTEX
  8
0
  5
A1BC
 10
302.866
 20
604.833
 30
0.000000
  70
    32
  0
VERTEX
  8
0
  5
A1BD
 10
302.878
 20
604.819
 30
0.000000
  70
    32
  0
VERTEX
  8
0
  5
A1BE
 10
302.891
 20
604.805
 30
0.000000
  70
    32
  0
VERTEX
  8
0
  5
A1BF
 10
302.903
 20
604.792
 30
0.000000
  70
    32
  0
VERTEX
  8
0
  5
A1C0
 10
302.916
 20
604.778
 30
0.000000
  70
    32
  0
VERTEX
  8
0
  5
A1C1
 10
302.928
 20
604.765
 30
0.000000
  70
    32
  0
VERTEX
  8
0
  5
A1C2
 10
302.941
 20
604.752
 30
0.000000
  70
    32
  0
VERTEX
  8
0
  5
A1C3
 10
302.954
 20
604.739
 30
0.000000
  70
    32
  0
VERTEX
  8
0
  5
A1C4
 10
302.968
 20
604.726
 30
0.000000
  70
    32
  0
VERTEX
  8
0
  5
A1C5
 10
302.981
 20
604.713
 30
0.000000
  70
    32
  0
VERTEX
  8
0
  5
A1C6
 10
302.995
 20
604.701
 30
0.000000
  70
    32
  0
VERTEX
  8
0
  5
A1C7
 10
303.008
 20
604.689
 30
0.000000
  70
    32
  0
VERTEX
  8
0
  5
A1C8
 10
303.022
 20
604.677
 30
0.000000
  70
    32
  0
VERTEX
  8
0
  5
A1C9
 10
303.036
 20
604.665
 30
0.000000
  70
    32
  0
VERTEX
  8
0
  5
A1CA
 10
303.050
 20
604.653
 30
0.000000
  70
    32
  0
VERTEX
  8
0
  5
A1CB
 10
303.065
 20
604.641
 30
0.000000
  70
    32
  0
VERTEX
  8
0
  5
A1CC
 10
303.079
 20
604.630
 30
0.000000
  70
    32
  0
VERTEX
  8
0
  5
A1CD
 10
303.094
 20
604.619
 30
0.000000
  70
    32
  0
VERTEX
  8
0
  5
A1CE
 10
303.108
 20
604.608
 30
0.000000
  70
    32
  0
VERTEX
  8
0
  5
A1CF
 10
303.123
 20
604.597
 30
0.000000
  70
    32
  0
VERTEX
  8
0
  5
A1D0
 10
303.138
 20
604.586
 30
0.000000
  70
    32
  0
VERTEX
  8
0
  5
A1D1
 10
303.153
 20
604.576
 30
0.000000
  70
    32
  0
VERTEX
  8
0
  5
A1D2
 10
303.169
 20
604.565
 30
0.000000
  70
    32
  0
VERTEX
  8
0
  5
A1D3
 10
303.184
 20
604.555
 30
0.000000
  70
    32
  0
VERTEX
  8
0
  5
A1D4
 10
303.199
 20
604.545
 30
0.000000
  70
    32
  0
VERTEX
  8
0
  5
A1D5
 10
303.215
 20
604.535
 30
0.000000
  70
    32
  0
VERTEX
  8
0
  5
A1D6
 10
303.231
 20
604.526
 30
0.000000
  70
    32
  0
VERTEX
  8
0
  5
A1D7
 10
303.247
 20
604.516
 30
0.000000
  70
    32
  0
VERTEX
  8
0
  5
A1D8
 10
303.263
 20
604.507
 30
0.000000
  70
    32
  0
VERTEX
  8
0
  5
A1D9
 10
303.279
 20
604.498
 30
0.000000
  70
    32
  0
VERTEX
  8
0
  5
A1DA
 10
303.295
 20
604.490
 30
0.000000
  70
    32
  0
VERTEX
  8
0
  5
A1DB
 10
303.311
 20
604.481
 30
0.000000
  70
    32
  0
VERTEX
  8
0
  5
A1DC
 10
303.328
 20
604.473
 30
0.000000
  70
    32
  0
VERTEX
  8
0
  5
A1DD
 10
303.344
 20
604.464
 30
0.000000
  70
    32
  0
VERTEX
  8
0
  5
A1DE
 10
303.361
 20
604.456
 30
0.000000
  70
    32
  0
VERTEX
  8
0
  5
A1DF
 10
303.377
 20
604.449
 30
0.000000
  70
    32
  0
VERTEX
  8
0
  5
A1E0
 10
303.394
 20
604.441
 30
0.000000
  70
    32
  0
VERTEX
  8
0
  5
A1E1
 10
303.411
 20
604.434
 30
0.000000
  70
    32
  0
VERTEX
  8
0
  5
A1E2
 10
303.428
 20
604.427
 30
0.000000
  70
    32
  0
VERTEX
  8
0
  5
A1E3
 10
303.445
 20
604.420
 30
0.000000
  70
    32
  0
VERTEX
  8
0
  5
A1E4
 10
303.462
 20
604.413
 30
0.000000
  70
    32
  0
VERTEX
  8
0
  5
A1E5
 10
303.479
 20
604.406
 30
0.000000
  70
    32
  0
VERTEX
  8
0
  5
A1E6
 10
303.497
 20
604.400
 30
0.000000
  70
    32
  0
VERTEX
  8
0
  5
A1E7
 10
303.514
 20
604.394
 30
0.000000
  70
    32
  0
VERTEX
  8
0
  5
A1E8
 10
303.531
 20
604.388
 30
0.000000
  70
    32
  0
VERTEX
  8
0
  5
A1E9
 10
303.549
 20
604.382
 30
0.000000
  70
    32
  0
VERTEX
  8
0
  5
A1EA
 10
303.567
 20
604.377
 30
0.000000
  70
    32
  0
VERTEX
  8
0
  5
A1EB
 10
303.584
 20
604.372
 30
0.000000
  70
    32
  0
VERTEX
  8
0
  5
A1EC
 10
303.602
 20
604.367
 30
0.000000
  70
    32
  0
VERTEX
  8
0
  5
A1ED
 10
303.620
 20
604.362
 30
0.000000
  70
    32
  0
VERTEX
  8
0
  5
A1EE
 10
303.638
 20
604.357
 30
0.000000
  70
    32
  0
VERTEX
  8
0
  5
A1EF
 10
303.655
 20
604.353
 30
0.000000
  70
    32
  0
VERTEX
  8
0
  5
A1F0
 10
303.673
 20
604.349
 30
0.000000
  70
    32
  0
VERTEX
  8
0
  5
A1F1
 10
303.691
 20
604.345
 30
0.000000
  70
    32
  0
VERTEX
  8
0
  5
A1F2
 10
303.709
 20
604.341
 30
0.000000
  70
    32
  0
VERTEX
  8
0
  5
A1F3
 10
303.727
 20
604.338
 30
0.000000
  70
    32
  0
VERTEX
  8
0
  5
A1F4
 10
303.746
 20
604.334
 30
0.000000
  70
    32
  0
VERTEX
  8
0
  5
A1F5
 10
303.764
 20
604.331
 30
0.000000
  70
    32
  0
VERTEX
  8
0
  5
A1F6
 10
303.782
 20
604.329
 30
0.000000
  70
    32
  0
VERTEX
  8
0
  5
A1F7
 10
303.800
 20
604.326
 30
0.000000
  70
    32
  0
VERTEX
  8
0
  5
A1F8
 10
303.818
 20
604.324
 30
0.000000
  70
    32
  0
VERTEX
  8
0
  5
A1F9
 10
303.837
 20
604.322
 30
0.000000
  70
    32
  0
VERTEX
  8
0
  5
A1FA
 10
303.855
 20
604.320
 30
0.000000
  70
    32
  0
VERTEX
  8
0
  5
A1FB
 10
303.873
 20
604.318
 30
0.000000
  70
    32
  0
VERTEX
  8
0
  5
A1FC
 10
303.892
 20
604.316
 30
0.000000
  70
    32
  0
VERTEX
  8
0
  5
A1FD
 10
303.910
 20
604.315
 30
0.000000
  70
    32
  0
VERTEX
  8
0
  5
A1FE
 10
303.928
 20
604.314
 30
0.000000
  70
    32
  0
VERTEX
  8
0
  5
A1FF
 10
303.947
 20
604.313
 30
0.000000
  70
    32
  0
VERTEX
  8
0
  5
A200
 10
303.965
 20
604.313
 30
0.000000
  70
    32
  0
VERTEX
  8
0
  5
A201
 10
303.984
 20
604.313
 30
0.000000
  70
    32
  0
VERTEX
  8
0
  5
A202
 10
304.002
 20
604.312
 30
0.000000
  70
    32
  0
SEQEND
  8
0
  5
A203
  0
LINE
  5
9597
  8
0
 10
303.30197684542537
 20
613.3125721365916
 30
0.0
 11
302.50197684542547
 21
613.3125721365916
 31
0.0
  0
LINE
  5
9598
  8
0
 10
302.50197684542547
 20
613.3125721365916
 30
0.0
 11
302.50197684542547
 21
605.81242213659175
 31
0.0
  0
LINE
  5
9599
  8
0
 10
303.00197684542547
 20
609.31249213659169
 30
0.0
 11
303.00197684542547
 21
605.81242213659175
 31
0.0
  0
POLYLINE
  5
959A
  8
0
 10
310.301976849146
 20
621.31273213659165
 30
0.0
 66
     1
 70
     8
  0
VERTEX
  8
0
  5
A204
 10
310.302
 20
621.313
 30
0.000000
  70
    32
  0
VERTEX
  8
0
  5
A205
 10
310.305
 20
621.084
 30
0.000000
  70
    32
  0
VERTEX
  8
0
  5
A206
 10
310.313
 20
620.856
 30
0.000000
  70
    32
  0
VERTEX
  8
0
  5
A207
 10
310.327
 20
620.629
 30
0.000000
  70
    32
  0
VERTEX
  8
0
  5
A208
 10
310.347
 20
620.401
 30
0.000000
  70
    32
  0
VERTEX
  8
0
  5
A209
 10
310.372
 20
620.174
 30
0.000000
  70
    32
  0
VERTEX
  8
0
  5
A20A
 10
310.403
 20
619.948
 30
0.000000
  70
    32
  0
VERTEX
  8
0
  5
A20B
 10
310.439
 20
619.723
 30
0.000000
  70
    32
  0
VERTEX
  8
0
  5
A20C
 10
310.481
 20
619.498
 30
0.000000
  70
    32
  0
VERTEX
  8
0
  5
A20D
 10
310.528
 20
619.275
 30
0.000000
  70
    32
  0
VERTEX
  8
0
  5
A20E
 10
310.581
 20
619.053
 30
0.000000
  70
    32
  0
VERTEX
  8
0
  5
A20F
 10
310.639
 20
618.832
 30
0.000000
  70
    32
  0
VERTEX
  8
0
  5
A210
 10
310.702
 20
618.613
 30
0.000000
  70
    32
  0
VERTEX
  8
0
  5
A211
 10
310.771
 20
618.395
 30
0.000000
  70
    32
  0
VERTEX
  8
0
  5
A212
 10
310.846
 20
618.180
 30
0.000000
  70
    32
  0
VERTEX
  8
0
  5
A213
 10
310.925
 20
617.966
 30
0.000000
  70
    32
  0
VERTEX
  8
0
  5
A214
 10
311.010
 20
617.754
 30
0.000000
  70
    32
  0
VERTEX
  8
0
  5
A215
 10
311.100
 20
617.544
 30
0.000000
  70
    32
  0
VERTEX
  8
0
  5
A216
 10
311.195
 20
617.336
 30
0.000000
  70
    32
  0
VERTEX
  8
0
  5
A217
 10
311.295
 20
617.131
 30
0.000000
  70
    32
  0
VERTEX
  8
0
  5
A218
 10
311.400
 20
616.929
 30
0.000000
  70
    32
  0
VERTEX
  8
0
  5
A219
 10
311.510
 20
616.729
 30
0.000000
  70
    32
  0
VERTEX
  8
0
  5
A21A
 10
311.625
 20
616.531
 30
0.000000
  70
    32
  0
VERTEX
  8
0
  5
A21B
 10
311.745
 20
616.337
 30
0.000000
  70
    32
  0
VERTEX
  8
0
  5
A21C
 10
311.869
 20
616.146
 30
0.000000
  70
    32
  0
VERTEX
  8
0
  5
A21D
 10
311.998
 20
615.958
 30
0.000000
  70
    32
  0
VERTEX
  8
0
  5
A21E
 10
312.132
 20
615.773
 30
0.000000
  70
    32
  0
VERTEX
  8
0
  5
A21F
 10
312.270
 20
615.591
 30
0.000000
  70
    32
  0
VERTEX
  8
0
  5
A220
 10
312.413
 20
615.413
 30
0.000000
  70
    32
  0
VERTEX
  8
0
  5
A221
 10
312.560
 20
615.238
 30
0.000000
  70
    32
  0
VERTEX
  8
0
  5
A222
 10
312.711
 20
615.067
 30
0.000000
  70
    32
  0
VERTEX
  8
0
  5
A223
 10
312.866
 20
614.900
 30
0.000000
  70
    32
  0
VERTEX
  8
0
  5
A224
 10
313.026
 20
614.737
 30
0.000000
  70
    32
  0
VERTEX
  8
0
  5
A225
 10
313.189
 20
614.577
 30
0.000000
  70
    32
  0
VERTEX
  8
0
  5
A226
 10
313.356
 20
614.422
 30
0.000000
  70
    32
  0
VERTEX
  8
0
  5
A227
 10
313.527
 20
614.271
 30
0.000000
  70
    32
  0
VERTEX
  8
0
  5
A228
 10
313.702
 20
614.124
 30
0.000000
  70
    32
  0
VERTEX
  8
0
  5
A229
 10
313.880
 20
613.981
 30
0.000000
  70
    32
  0
VERTEX
  8
0
  5
A22A
 10
314.062
 20
613.843
 30
0.000000
  70
    32
  0
VERTEX
  8
0
  5
A22B
 10
314.247
 20
613.709
 30
0.000000
  70
    32
  0
VERTEX
  8
0
  5
A22C
 10
314.435
 20
613.580
 30
0.000000
  70
    32
  0
VERTEX
  8
0
  5
A22D
 10
314.626
 20
613.455
 30
0.000000
  70
    32
  0
VERTEX
  8
0
  5
A22E
 10
314.821
 20
613.336
 30
0.000000
  70
    32
  0
VERTEX
  8
0
  5
A22F
 10
315.018
 20
613.221
 30
0.000000
  70
    32
  0
VERTEX
  8
0
  5
A230
 10
315.218
 20
613.111
 30
0.000000
  70
    32
  0
VERTEX
  8
0
  5
A231
 10
315.421
 20
613.006
 30
0.000000
  70
    32
  0
VERTEX
  8
0
  5
A232
 10
315.626
 20
612.905
 30
0.000000
  70
    32
  0
VERTEX
  8
0
  5
A233
 10
315.833
 20
612.810
 30
0.000000
  70
    32
  0
VERTEX
  8
0
  5
A234
 10
316.043
 20
612.720
 30
0.000000
  70
    32
  0
VERTEX
  8
0
  5
A235
 10
316.255
 20
612.636
 30
0.000000
  70
    32
  0
VERTEX
  8
0
  5
A236
 10
316.469
 20
612.556
 30
0.000000
  70
    32
  0
VERTEX
  8
0
  5
A237
 10
316.685
 20
612.482
 30
0.000000
  70
    32
  0
VERTEX
  8
0
  5
A238
 10
316.902
 20
612.413
 30
0.000000
  70
    32
  0
VERTEX
  8
0
  5
A239
 10
317.122
 20
612.349
 30
0.000000
  70
    32
  0
VERTEX
  8
0
  5
A23A
 10
317.342
 20
612.291
 30
0.000000
  70
    32
  0
VERTEX
  8
0
  5
A23B
 10
317.564
 20
612.239
 30
0.000000
  70
    32
  0
VERTEX
  8
0
  5
A23C
 10
317.788
 20
612.191
 30
0.000000
  70
    32
  0
VERTEX
  8
0
  5
A23D
 10
318.012
 20
612.149
 30
0.000000
  70
    32
  0
VERTEX
  8
0
  5
A23E
 10
318.237
 20
612.113
 30
0.000000
  70
    32
  0
VERTEX
  8
0
  5
A23F
 10
318.464
 20
612.082
 30
0.000000
  70
    32
  0
VERTEX
  8
0
  5
A240
 10
318.690
 20
612.057
 30
0.000000
  70
    32
  0
VERTEX
  8
0
  5
A241
 10
318.918
 20
612.038
 30
0.000000
  70
    32
  0
VERTEX
  8
0
  5
A242
 10
319.146
 20
612.024
 30
0.000000
  70
    32
  0
VERTEX
  8
0
  5
A243
 10
319.374
 20
612.015
 30
0.000000
  70
    32
  0
VERTEX
  8
0
  5
A244
 10
319.602
 20
612.013
 30
0.000000
  70
    32
  0
VERTEX
  8
0
  5
A245
 10
319.830
 20
612.015
 30
0.000000
  70
    32
  0
VERTEX
  8
0
  5
A246
 10
320.058
 20
612.024
 30
0.000000
  70
    32
  0
VERTEX
  8
0
  5
A247
 10
320.286
 20
612.038
 30
0.000000
  70
    32
  0
VERTEX
  8
0
  5
A248
 10
320.514
 20
612.057
 30
0.000000
  70
    32
  0
VERTEX
  8
0
  5
A249
 10
320.740
 20
612.082
 30
0.000000
  70
    32
  0
VERTEX
  8
0
  5
A24A
 10
320.967
 20
612.113
 30
0.000000
  70
    32
  0
VERTEX
  8
0
  5
A24B
 10
321.192
 20
612.149
 30
0.000000
  70
    32
  0
VERTEX
  8
0
  5
A24C
 10
321.416
 20
612.191
 30
0.000000
  70
    32
  0
VERTEX
  8
0
  5
A24D
 10
321.640
 20
612.239
 30
0.000000
  70
    32
  0
VERTEX
  8
0
  5
A24E
 10
321.862
 20
612.291
 30
0.000000
  70
    32
  0
VERTEX
  8
0
  5
A24F
 10
322.082
 20
612.349
 30
0.000000
  70
    32
  0
VERTEX
  8
0
  5
A250
 10
322.302
 20
612.413
 30
0.000000
  70
    32
  0
VERTEX
  8
0
  5
A251
 10
322.519
 20
612.482
 30
0.000000
  70
    32
  0
VERTEX
  8
0
  5
A252
 10
322.735
 20
612.556
 30
0.000000
  70
    32
  0
VERTEX
  8
0
  5
A253
 10
322.949
 20
612.636
 30
0.000000
  70
    32
  0
VERTEX
  8
0
  5
A254
 10
323.161
 20
612.720
 30
0.000000
  70
    32
  0
VERTEX
  8
0
  5
A255
 10
323.371
 20
612.810
 30
0.000000
  70
    32
  0
VERTEX
  8
0
  5
A256
 10
323.578
 20
612.905
 30
0.000000
  70
    32
  0
VERTEX
  8
0
  5
A257
 10
323.783
 20
613.006
 30
0.000000
  70
    32
  0
VERTEX
  8
0
  5
A258
 10
323.986
 20
613.111
 30
0.000000
  70
    32
  0
VERTEX
  8
0
  5
A259
 10
324.186
 20
613.221
 30
0.000000
  70
    32
  0
VERTEX
  8
0
  5
A25A
 10
324.383
 20
613.336
 30
0.000000
  70
    32
  0
VERTEX
  8
0
  5
A25B
 10
324.577
 20
613.455
 30
0.000000
  70
    32
  0
VERTEX
  8
0
  5
A25C
 10
324.769
 20
613.580
 30
0.000000
  70
    32
  0
VERTEX
  8
0
  5
A25D
 10
324.957
 20
613.709
 30
0.000000
  70
    32
  0
VERTEX
  8
0
  5
A25E
 10
325.142
 20
613.843
 30
0.000000
  70
    32
  0
VERTEX
  8
0
  5
A25F
 10
325.324
 20
613.981
 30
0.000000
  70
    32
  0
VERTEX
  8
0
  5
A260
 10
325.502
 20
614.124
 30
0.000000
  70
    32
  0
VERTEX
  8
0
  5
A261
 10
325.676
 20
614.271
 30
0.000000
  70
    32
  0
VERTEX
  8
0
  5
A262
 10
325.847
 20
614.422
 30
0.000000
  70
    32
  0
VERTEX
  8
0
  5
A263
 10
326.015
 20
614.577
 30
0.000000
  70
    32
  0
VERTEX
  8
0
  5
A264
 10
326.178
 20
614.737
 30
0.000000
  70
    32
  0
VERTEX
  8
0
  5
A265
 10
326.337
 20
614.900
 30
0.000000
  70
    32
  0
VERTEX
  8
0
  5
A266
 10
326.493
 20
615.067
 30
0.000000
  70
    32
  0
VERTEX
  8
0
  5
A267
 10
326.644
 20
615.238
 30
0.000000
  70
    32
  0
VERTEX
  8
0
  5
A268
 10
326.791
 20
615.413
 30
0.000000
  70
    32
  0
VERTEX
  8
0
  5
A269
 10
326.934
 20
615.591
 30
0.000000
  70
    32
  0
VERTEX
  8
0
  5
A26A
 10
327.072
 20
615.773
 30
0.000000
  70
    32
  0
VERTEX
  8
0
  5
A26B
 10
327.206
 20
615.958
 30
0.000000
  70
    32
  0
VERTEX
  8
0
  5
A26C
 10
327.335
 20
616.146
 30
0.000000
  70
    32
  0
VERTEX
  8
0
  5
A26D
 10
327.459
 20
616.337
 30
0.000000
  70
    32
  0
VERTEX
  8
0
  5
A26E
 10
327.579
 20
616.531
 30
0.000000
  70
    32
  0
VERTEX
  8
0
  5
A26F
 10
327.694
 20
616.729
 30
0.000000
  70
    32
  0
VERTEX
  8
0
  5
A270
 10
327.804
 20
616.929
 30
0.000000
  70
    32
  0
VERTEX
  8
0
  5
A271
 10
327.909
 20
617.131
 30
0.000000
  70
    32
  0
VERTEX
  8
0
  5
A272
 10
328.009
 20
617.336
 30
0.000000
  70
    32
  0
VERTEX
  8
0
  5
A273
 10
328.104
 20
617.544
 30
0.000000
  70
    32
  0
VERTEX
  8
0
  5
A274
 10
328.194
 20
617.754
 30
0.000000
  70
    32
  0
VERTEX
  8
0
  5
A275
 10
328.279
 20
617.966
 30
0.000000
  70
    32
  0
VERTEX
  8
0
  5
A276
 10
328.358
 20
618.180
 30
0.000000
  70
    32
  0
VERTEX
  8
0
  5
A277
 10
328.433
 20
618.395
 30
0.000000
  70
    32
  0
VERTEX
  8
0
  5
A278
 10
328.502
 20
618.613
 30
0.000000
  70
    32
  0
VERTEX
  8
0
  5
A279
 10
328.565
 20
618.832
 30
0.000000
  70
    32
  0
VERTEX
  8
0
  5
A27A
 10
328.623
 20
619.053
 30
0.000000
  70
    32
  0
VERTEX
  8
0
  5
A27B
 10
328.676
 20
619.275
 30
0.000000
  70
    32
  0
VERTEX
  8
0
  5
A27C
 10
328.723
 20
619.498
 30
0.000000
  70
    32
  0
VERTEX
  8
0
  5
A27D
 10
328.765
 20
619.723
 30
0.000000
  70
    32
  0
VERTEX
  8
0
  5
A27E
 10
328.801
 20
619.948
 30
0.000000
  70
    32
  0
VERTEX
  8
0
  5
A27F
 10
328.832
 20
620.174
 30
0.000000
  70
    32
  0
VERTEX
  8
0
  5
A280
 10
328.857
 20
620.401
 30
0.000000
  70
    32
  0
VERTEX
  8
0
  5
A281
 10
328.877
 20
620.629
 30
0.000000
  70
    32
  0
VERTEX
  8
0
  5
A282
 10
328.891
 20
620.856
 30
0.000000
  70
    32
  0
VERTEX
  8
0
  5
A283
 10
328.899
 20
621.084
 30
0.000000
  70
    32
  0
VERTEX
  8
0
  5
A284
 10
328.902
 20
621.313
 30
0.000000
  70
    32
  0
SEQEND
  8
0
  5
A285
  0
LINE
  5
959B
  8
0
 10
304.00197684542547
 20
604.31239213659171
 30
0.0
 11
304.30046284542539
 21
604.31239213659171
 31
0.0
  0
LINE
  5
959C
  8
0
 10
304.50197684542547
 20
604.31239213659171
 30
0.0
 11
307.42767184542572
 21
604.31239213659171
 31
0.0
  0
POLYLINE
  5
959D
  8
0
 10
319.60197685273005
 20
627.61285813659129
 30
0.0
 66
     1
 70
     8
  0
VERTEX
  8
0
  5
A286
 10
319.602
 20
627.613
 30
0.000000
  70
    32
  0
VERTEX
  8
0
  5
A287
 10
319.293
 20
627.605
 30
0.000000
  70
    32
  0
VERTEX
  8
0
  5
A288
 10
318.984
 20
627.583
 30
0.000000
  70
    32
  0
VERTEX
  8
0
  5
A289
 10
318.678
 20
627.545
 30
0.000000
  70
    32
  0
VERTEX
  8
0
  5
A28A
 10
318.373
 20
627.492
 30
0.000000
  70
    32
  0
VERTEX
  8
0
  5
A28B
 10
318.071
 20
627.424
 30
0.000000
  70
    32
  0
VERTEX
  8
0
  5
A28C
 10
317.773
 20
627.342
 30
0.000000
  70
    32
  0
VERTEX
  8
0
  5
A28D
 10
317.480
 20
627.245
 30
0.000000
  70
    32
  0
VERTEX
  8
0
  5
A28E
 10
317.191
 20
627.133
 30
0.000000
  70
    32
  0
VERTEX
  8
0
  5
A28F
 10
316.908
 20
627.008
 30
0.000000
  70
    32
  0
VERTEX
  8
0
  5
A290
 10
316.632
 20
626.869
 30
0.000000
  70
    32
  0
VERTEX
  8
0
  5
A291
 10
316.363
 20
626.717
 30
0.000000
  70
    32
  0
VERTEX
  8
0
  5
A292
 10
316.102
 20
626.551
 30
0.000000
  70
    32
  0
VERTEX
  8
0
  5
A293
 10
315.849
 20
626.373
 30
0.000000
  70
    32
  0
VERTEX
  8
0
  5
A294
 10
315.605
 20
626.183
 30
0.000000
  70
    32
  0
VERTEX
  8
0
  5
A295
 10
315.371
 20
625.981
 30
0.000000
  70
    32
  0
VERTEX
  8
0
  5
A296
 10
315.147
 20
625.768
 30
0.000000
  70
    32
  0
VERTEX
  8
0
  5
A297
 10
314.934
 20
625.544
 30
0.000000
  70
    32
  0
VERTEX
  8
0
  5
A298
 10
314.732
 20
625.309
 30
0.000000
  70
    32
  0
VERTEX
  8
0
  5
A299
 10
314.542
 20
625.066
 30
0.000000
  70
    32
  0
VERTEX
  8
0
  5
A29A
 10
314.364
 20
624.813
 30
0.000000
  70
    32
  0
VERTEX
  8
0
  5
A29B
 10
314.198
 20
624.552
 30
0.000000
  70
    32
  0
VERTEX
  8
0
  5
A29C
 10
314.046
 20
624.283
 30
0.000000
  70
    32
  0
VERTEX
  8
0
  5
A29D
 10
313.907
 20
624.006
 30
0.000000
  70
    32
  0
VERTEX
  8
0
  5
A29E
 10
313.782
 20
623.724
 30
0.000000
  70
    32
  0
VERTEX
  8
0
  5
A29F
 10
313.670
 20
623.435
 30
0.000000
  70
    32
  0
VERTEX
  8
0
  5
A2A0
 10
313.573
 20
623.142
 30
0.000000
  70
    32
  0
VERTEX
  8
0
  5
A2A1
 10
313.491
 20
622.844
 30
0.000000
  70
    32
  0
VERTEX
  8
0
  5
A2A2
 10
313.423
 20
622.542
 30
0.000000
  70
    32
  0
VERTEX
  8
0
  5
A2A3
 10
313.370
 20
622.237
 30
0.000000
  70
    32
  0
VERTEX
  8
0
  5
A2A4
 10
313.332
 20
621.930
 30
0.000000
  70
    32
  0
VERTEX
  8
0
  5
A2A5
 10
313.310
 20
621.622
 30
0.000000
  70
    32
  0
VERTEX
  8
0
  5
A2A6
 10
313.302
 20
621.313
 30
0.000000
  70
    32
  0
VERTEX
  8
0
  5
A2A7
 10
313.310
 20
621.004
 30
0.000000
  70
    32
  0
VERTEX
  8
0
  5
A2A8
 10
313.332
 20
620.695
 30
0.000000
  70
    32
  0
VERTEX
  8
0
  5
A2A9
 10
313.370
 20
620.388
 30
0.000000
  70
    32
  0
VERTEX
  8
0
  5
A2AA
 10
313.423
 20
620.084
 30
0.000000
  70
    32
  0
VERTEX
  8
0
  5
A2AB
 10
313.491
 20
619.782
 30
0.000000
  70
    32
  0
VERTEX
  8
0
  5
A2AC
 10
313.573
 20
619.484
 30
0.000000
  70
    32
  0
VERTEX
  8
0
  5
A2AD
 10
313.670
 20
619.190
 30
0.000000
  70
    32
  0
VERTEX
  8
0
  5
A2AE
 10
313.782
 20
618.902
 30
0.000000
  70
    32
  0
VERTEX
  8
0
  5
A2AF
 10
313.907
 20
618.619
 30
0.000000
  70
    32
  0
VERTEX
  8
0
  5
A2B0
 10
314.046
 20
618.343
 30
0.000000
  70
    32
  0
VERTEX
  8
0
  5
A2B1
 10
314.198
 20
618.074
 30
0.000000
  70
    32
  0
VERTEX
  8
0
  5
A2B2
 10
314.364
 20
617.813
 30
0.000000
  70
    32
  0
VERTEX
  8
0
  5
A2B3
 10
314.542
 20
617.560
 30
0.000000
  70
    32
  0
VERTEX
  8
0
  5
A2B4
 10
314.732
 20
617.316
 30
0.000000
  70
    32
  0
VERTEX
  8
0
  5
A2B5
 10
314.934
 20
617.082
 30
0.000000
  70
    32
  0
VERTEX
  8
0
  5
A2B6
 10
315.147
 20
616.858
 30
0.000000
  70
    32
  0
VERTEX
  8
0
  5
A2B7
 10
315.371
 20
616.645
 30
0.000000
  70
    32
  0
VERTEX
  8
0
  5
A2B8
 10
315.605
 20
616.443
 30
0.000000
  70
    32
  0
VERTEX
  8
0
  5
A2B9
 10
315.849
 20
616.252
 30
0.000000
  70
    32
  0
VERTEX
  8
0
  5
A2BA
 10
316.102
 20
616.074
 30
0.000000
  70
    32
  0
VERTEX
  8
0
  5
A2BB
 10
316.363
 20
615.909
 30
0.000000
  70
    32
  0
VERTEX
  8
0
  5
A2BC
 10
316.632
 20
615.757
 30
0.000000
  70
    32
  0
VERTEX
  8
0
  5
A2BD
 10
316.908
 20
615.617
 30
0.000000
  70
    32
  0
VERTEX
  8
0
  5
A2BE
 10
317.191
 20
615.492
 30
0.000000
  70
    32
  0
VERTEX
  8
0
  5
A2BF
 10
317.480
 20
615.381
 30
0.000000
  70
    32
  0
VERTEX
  8
0
  5
A2C0
 10
317.773
 20
615.284
 30
0.000000
  70
    32
  0
VERTEX
  8
0
  5
A2C1
 10
318.071
 20
615.201
 30
0.000000
  70
    32
  0
VERTEX
  8
0
  5
A2C2
 10
318.373
 20
615.134
 30
0.000000
  70
    32
  0
VERTEX
  8
0
  5
A2C3
 10
318.678
 20
615.081
 30
0.000000
  70
    32
  0
VERTEX
  8
0
  5
A2C4
 10
318.984
 20
615.043
 30
0.000000
  70
    32
  0
VERTEX
  8
0
  5
A2C5
 10
319.293
 20
615.020
 30
0.000000
  70
    32
  0
VERTEX
  8
0
  5
A2C6
 10
319.602
 20
615.013
 30
0.000000
  70
    32
  0
VERTEX
  8
0
  5
A2C7
 10
319.911
 20
615.020
 30
0.000000
  70
    32
  0
VERTEX
  8
0
  5
A2C8
 10
320.219
 20
615.043
 30
0.000000
  70
    32
  0
VERTEX
  8
0
  5
A2C9
 10
320.526
 20
615.081
 30
0.000000
  70
    32
  0
VERTEX
  8
0
  5
A2CA
 10
320.831
 20
615.134
 30
0.000000
  70
    32
  0
VERTEX
  8
0
  5
A2CB
 10
321.133
 20
615.201
 30
0.000000
  70
    32
  0
VERTEX
  8
0
  5
A2CC
 10
321.431
 20
615.284
 30
0.000000
  70
    32
  0
VERTEX
  8
0
  5
A2CD
 10
321.724
 20
615.381
 30
0.000000
  70
    32
  0
VERTEX
  8
0
  5
A2CE
 10
322.013
 20
615.492
 30
0.000000
  70
    32
  0
VERTEX
  8
0
  5
A2CF
 10
322.296
 20
615.617
 30
0.000000
  70
    32
  0
VERTEX
  8
0
  5
A2D0
 10
322.572
 20
615.757
 30
0.000000
  70
    32
  0
VERTEX
  8
0
  5
A2D1
 10
322.841
 20
615.909
 30
0.000000
  70
    32
  0
VERTEX
  8
0
  5
A2D2
 10
323.102
 20
616.074
 30
0.000000
  70
    32
  0
VERTEX
  8
0
  5
A2D3
 10
323.355
 20
616.252
 30
0.000000
  70
    32
  0
VERTEX
  8
0
  5
A2D4
 10
323.599
 20
616.443
 30
0.000000
  70
    32
  0
VERTEX
  8
0
  5
A2D5
 10
323.833
 20
616.645
 30
0.000000
  70
    32
  0
VERTEX
  8
0
  5
A2D6
 10
324.057
 20
616.858
 30
0.000000
  70
    32
  0
VERTEX
  8
0
  5
A2D7
 10
324.270
 20
617.082
 30
0.000000
  70
    32
  0
VERTEX
  8
0
  5
A2D8
 10
324.472
 20
617.316
 30
0.000000
  70
    32
  0
VERTEX
  8
0
  5
A2D9
 10
324.662
 20
617.560
 30
0.000000
  70
    32
  0
VERTEX
  8
0
  5
A2DA
 10
324.840
 20
617.813
 30
0.000000
  70
    32
  0
VERTEX
  8
0
  5
A2DB
 10
325.006
 20
618.074
 30
0.000000
  70
    32
  0
VERTEX
  8
0
  5
A2DC
 10
325.158
 20
618.343
 30
0.000000
  70
    32
  0
VERTEX
  8
0
  5
A2DD
 10
325.297
 20
618.619
 30
0.000000
  70
    32
  0
VERTEX
  8
0
  5
A2DE
 10
325.422
 20
618.902
 30
0.000000
  70
    32
  0
VERTEX
  8
0
  5
A2DF
 10
325.534
 20
619.190
 30
0.000000
  70
    32
  0
VERTEX
  8
0
  5
A2E0
 10
325.631
 20
619.484
 30
0.000000
  70
    32
  0
VERTEX
  8
0
  5
A2E1
 10
325.713
 20
619.782
 30
0.000000
  70
    32
  0
VERTEX
  8
0
  5
A2E2
 10
325.781
 20
620.084
 30
0.000000
  70
    32
  0
VERTEX
  8
0
  5
A2E3
 10
325.834
 20
620.388
 30
0.000000
  70
    32
  0
VERTEX
  8
0
  5
A2E4
 10
325.872
 20
620.695
 30
0.000000
  70
    32
  0
VERTEX
  8
0
  5
A2E5
 10
325.894
 20
621.004
 30
0.000000
  70
    32
  0
VERTEX
  8
0
  5
A2E6
 10
325.902
 20
621.313
 30
0.000000
  70
    32
  0
VERTEX
  8
0
  5
A2E7
 10
325.894
 20
621.622
 30
0.000000
  70
    32
  0
VERTEX
  8
0
  5
A2E8
 10
325.872
 20
621.930
 30
0.000000
  70
    32
  0
VERTEX
  8
0
  5
A2E9
 10
325.834
 20
622.237
 30
0.000000
  70
    32
  0
VERTEX
  8
0
  5
A2EA
 10
325.781
 20
622.542
 30
0.000000
  70
    32
  0
VERTEX
  8
0
  5
A2EB
 10
325.713
 20
622.844
 30
0.000000
  70
    32
  0
VERTEX
  8
0
  5
A2EC
 10
325.631
 20
623.142
 30
0.000000
  70
    32
  0
VERTEX
  8
0
  5
A2ED
 10
325.534
 20
623.435
 30
0.000000
  70
    32
  0
VERTEX
  8
0
  5
A2EE
 10
325.422
 20
623.724
 30
0.000000
  70
    32
  0
VERTEX
  8
0
  5
A2EF
 10
325.297
 20
624.006
 30
0.000000
  70
    32
  0
VERTEX
  8
0
  5
A2F0
 10
325.158
 20
624.283
 30
0.000000
  70
    32
  0
VERTEX
  8
0
  5
A2F1
 10
325.006
 20
624.552
 30
0.000000
  70
    32
  0
VERTEX
  8
0
  5
A2F2
 10
324.840
 20
624.813
 30
0.000000
  70
    32
  0
VERTEX
  8
0
  5
A2F3
 10
324.662
 20
625.066
 30
0.000000
  70
    32
  0
VERTEX
  8
0
  5
A2F4
 10
324.472
 20
625.309
 30
0.000000
  70
    32
  0
VERTEX
  8
0
  5
A2F5
 10
324.270
 20
625.544
 30
0.000000
  70
    32
  0
VERTEX
  8
0
  5
A2F6
 10
324.057
 20
625.768
 30
0.000000
  70
    32
  0
VERTEX
  8
0
  5
A2F7
 10
323.833
 20
625.981
 30
0.000000
  70
    32
  0
VERTEX
  8
0
  5
A2F8
 10
323.599
 20
626.183
 30
0.000000
  70
    32
  0
VERTEX
  8
0
  5
A2F9
 10
323.355
 20
626.373
 30
0.000000
  70
    32
  0
VERTEX
  8
0
  5
A2FA
 10
323.102
 20
626.551
 30
0.000000
  70
    32
  0
VERTEX
  8
0
  5
A2FB
 10
322.841
 20
626.717
 30
0.000000
  70
    32
  0
VERTEX
  8
0
  5
A2FC
 10
322.572
 20
626.869
 30
0.000000
  70
    32
  0
VERTEX
  8
0
  5
A2FD
 10
322.296
 20
627.008
 30
0.000000
  70
    32
  0
VERTEX
  8
0
  5
A2FE
 10
322.013
 20
627.133
 30
0.000000
  70
    32
  0
VERTEX
  8
0
  5
A2FF
 10
321.724
 20
627.245
 30
0.000000
  70
    32
  0
VERTEX
  8
0
  5
A300
 10
321.431
 20
627.342
 30
0.000000
  70
    32
  0
VERTEX
  8
0
  5
A301
 10
321.133
 20
627.424
 30
0.000000
  70
    32
  0
VERTEX
  8
0
  5
A302
 10
320.831
 20
627.492
 30
0.000000
  70
    32
  0
VERTEX
  8
0
  5
A303
 10
320.526
 20
627.545
 30
0.000000
  70
    32
  0
VERTEX
  8
0
  5
A304
 10
320.219
 20
627.583
 30
0.000000
  70
    32
  0
VERTEX
  8
0
  5
A305
 10
319.911
 20
627.605
 30
0.000000
  70
    32
  0
VERTEX
  8
0
  5
A306
 10
319.602
 20
627.613
 30
0.000000
  70
    32
  0
SEQEND
  8
0
  5
A307
  0
LINE
  5
959E
  8
0
 10
355.80533084542532
 20
617.62461313659173
 30
0.0
 11
358.00868484542571
 21
618.0000281365916
 31
0.0
  0
LINE
  5
959F
  8
0
 10
338.99862284542547
 20
633.31297213659172
 30
0.0
 11
338.99862284542547
 21
614.76102713659157
 31
0.0
  0
LINE
  5
95A0
  8
0
 10
344.69862284542558
 20
633.31297213659172
 30
0.0
 11
343.19862284542569
 21
633.31297213659172
 31
0.0
  0
LINE
  5
95A1
  8
0
 10
344.69862284542558
 20
629.3128921365917
 30
0.0
 11
343.19862284542569
 21
629.3128921365917
 31
0.0
  0
LINE
  5
95A2
  8
0
 10
343.19862284542569
 20
633.31297213659172
 30
0.0
 11
343.19862284542569
 21
615.47663813659165
 31
0.0
  0
LINE
  5
95A3
  8
0
 10
340.99862284542547
 20
615.10179413659171
 30
0.0
 11
340.99862284542547
 21
633.31297213659172
 31
0.0
  0
LINE
  5
95A4
  8
0
 10
340.99862284542547
 20
615.10179413659171
 30
0.0
 11
343.19862284542569
 21
615.47663813659165
 31
0.0
  0
LINE
  5
95A5
  8
0
 10
340.99862284542547
 20
633.31297213659172
 30
0.0
 11
338.99862284542547
 21
633.31297213659172
 31
0.0
  0
LINE
  5
95A6
  8
0
 10
340.99862284542547
 20
629.3128921365917
 30
0.0
 11
338.99862284542547
 21
629.3128921365917
 31
0.0
  0
LINE
  5
95A7
  8
0
 10
352.60197684542572
 20
617.07881413659175
 30
0.0
 11
352.60197684542572
 21
633.31297213659172
 31
0.0
  0
LINE
  5
95A8
  8
0
 10
355.80533084542532
 20
617.62461313659173
 30
0.0
 11
355.80533084542532
 21
633.31297213659172
 31
0.0
  0
LINE
  5
95A9
  8
0
 10
354.30533084542532
 20
633.31297213659172
 30
0.0
 11
354.30533084542532
 21
617.36903713659171
 31
0.0
  0
LINE
  5
95AA
  8
0
 10
350.60197684542572
 20
633.31297213659172
 30
0.0
 11
350.60197684542572
 21
616.73804713659172
 31
0.0
  0
LINE
  5
95AB
  8
0
 10
344.69862284542558
 20
615.73221313659155
 30
0.0
 11
344.69862284542558
 21
633.31297213659172
 31
0.0
  0
LINE
  5
95AC
  8
0
 10
346.89862284542528
 20
633.31297213659172
 30
0.0
 11
346.89862284542528
 21
616.10705713659172
 31
0.0
  0
LINE
  5
95AD
  8
0
 10
348.39862284542528
 20
616.36263213659174
 30
0.0
 11
348.39862284542528
 21
633.31297213659172
 31
0.0
  0
LINE
  5
95AE
  8
0
 10
344.69862284542558
 20
615.73221313659155
 30
0.0
 11
346.89862284542528
 21
616.10705713659172
 31
0.0
  0
LINE
  5
95AF
  8
0
 10
348.39862284542528
 20
616.36263213659174
 30
0.0
 11
350.60197684542572
 21
616.73804713659172
 31
0.0
  0
LINE
  5
95B0
  8
0
 10
352.60197684542572
 20
617.07881413659175
 30
0.0
 11
354.30533084542532
 21
617.36903713659171
 31
0.0
  0
LINE
  5
95B1
  8
0
 10
352.60197684542572
 20
633.31297213659172
 30
0.0
 11
350.60197684542572
 21
633.31297213659172
 31
0.0
  0
LINE
  5
95B2
  8
0
 10
352.60197684542572
 20
629.3128921365917
 30
0.0
 11
350.60197684542572
 21
629.3128921365917
 31
0.0
  0
LINE
  5
95B3
  8
0
 10
348.39862284542528
 20
633.31297213659172
 30
0.0
 11
346.89862284542528
 21
633.31297213659172
 31
0.0
  0
LINE
  5
95B4
  8
0
 10
348.39862284542528
 20
629.3128921365917
 30
0.0
 11
346.89862284542528
 21
629.3128921365917
 31
0.0
  0
LINE
  5
95B5
  8
0
 10
355.80533084542532
 20
629.3128921365917
 30
0.0
 11
354.30533084542532
 21
629.3128921365917
 31
0.0
  0
LINE
  5
95B6
  8
0
 10
355.80533084542532
 20
633.31297213659172
 30
0.0
 11
354.30533084542532
 21
633.31297213659172
 31
0.0
  0
LINE
  5
95B7
  8
0
 10
375.1321278454256
 20
604.31239213659171
 30
0.0
 11
375.1321278454256
 21
615.84811313659168
 31
0.0
  0
LINE
  5
95B8
  8
0
 10
366.91539284542557
 20
619.51758413659172
 30
0.0
 11
376.77710284542547
 21
621.19785613659155
 31
0.0
  0
LINE
  5
95B9
  8
0
 10
361.7120388454253
 20
633.31297213659172
 30
0.0
 11
361.7120388454253
 21
618.63101813659171
 31
0.0
  0
LINE
  5
95BA
  8
0
 10
363.21203884542541
 20
618.88659313659173
 30
0.0
 11
363.21203884542541
 21
633.31297213659172
 31
0.0
  0
LINE
  5
95BB
  8
0
 10
365.41539284542569
 20
633.31297213659172
 30
0.0
 11
365.41539284542569
 21
619.2620081365917
 31
0.0
  0
LINE
  5
95BC
  8
0
 10
358.00868484542571
 20
633.31297213659172
 30
0.0
 11
358.00868484542571
 21
618.0000281365916
 31
0.0
  0
LINE
  5
95BD
  8
0
 10
359.50868484542559
 20
618.25560313659173
 30
0.0
 11
359.50868484542559
 21
633.31297213659172
 31
0.0
  0
LINE
  5
95BE
  8
0
 10
366.91539284542557
 20
619.51758413659172
 30
0.0
 11
366.91539284542557
 21
633.31297213659172
 31
0.0
  0
LINE
  5
95BF
  8
0
 10
363.21203884542541
 20
618.88659313659173
 30
0.0
 11
365.41539284542569
 21
619.2620081365917
 31
0.0
  0
LINE
  5
95C0
  8
0
 10
359.50868484542559
 20
618.25560313659173
 30
0.0
 11
361.7120388454253
 21
618.63101813659171
 31
0.0
  0
LINE
  5
95C1
  8
0
 10
363.21203884542541
 20
633.31297213659172
 30
0.0
 11
361.7120388454253
 21
633.31297213659172
 31
0.0
  0
LINE
  5
95C2
  8
0
 10
363.21203884542541
 20
629.3128921365917
 30
0.0
 11
361.7120388454253
 21
629.3128921365917
 31
0.0
  0
LINE
  5
95C3
  8
0
 10
359.50868484542559
 20
633.31297213659172
 30
0.0
 11
358.00868484542571
 21
633.31297213659172
 31
0.0
  0
LINE
  5
95C4
  8
0
 10
359.50868484542559
 20
629.3128921365917
 30
0.0
 11
358.00868484542571
 21
629.3128921365917
 31
0.0
  0
LINE
  5
95C5
  8
0
 10
366.91539284542557
 20
633.31297213659172
 30
0.0
 11
365.41539284542569
 21
633.31297213659172
 31
0.0
  0
LINE
  5
95C6
  8
0
 10
366.91539284542557
 20
629.3128921365917
 30
0.0
 11
365.41539284542569
 21
629.3128921365917
 31
0.0
  0
LINE
  5
95C7
  8
0
 10
376.00197684542547
 20
615.99842013659156
 30
0.0
 11
376.00197684542547
 21
620.05189413659173
 31
0.0
  0
LINE
  5
95C8
  8
0
 10
305.50197684542547
 20
638.31307213659159
 30
0.0
 11
310.30197684542537
 21
638.31307213659159
 31
0.0
  0
POLYLINE
  5
95C9
  8
0
 10
305.50197684542547
 20
638.3130721365917
 30
0.0
 66
     1
 70
     8
  0
VERTEX
  8
0
  5
A308
 10
305.502
 20
638.313
 30
0.000000
  70
    32
  0
VERTEX
  8
0
  5
A309
 10
305.490
 20
638.313
 30
0.000000
  70
    32
  0
VERTEX
  8
0
  5
A30A
 10
305.477
 20
638.313
 30
0.000000
  70
    32
  0
VERTEX
  8
0
  5
A30B
 10
305.465
 20
638.312
 30
0.000000
  70
    32
  0
VERTEX
  8
0
  5
A30C
 10
305.453
 20
638.312
 30
0.000000
  70
    32
  0
VERTEX
  8
0
  5
A30D
 10
305.441
 20
638.311
 30
0.000000
  70
    32
  0
VERTEX
  8
0
  5
A30E
 10
305.428
 20
638.310
 30
0.000000
  70
    32
  0
VERTEX
  8
0
  5
A30F
 10
305.416
 20
638.309
 30
0.000000
  70
    32
  0
VERTEX
  8
0
  5
A310
 10
305.404
 20
638.308
 30
0.000000
  70
    32
  0
VERTEX
  8
0
  5
A311
 10
305.392
 20
638.307
 30
0.000000
  70
    32
  0
VERTEX
  8
0
  5
A312
 10
305.380
 20
638.306
 30
0.000000
  70
    32
  0
VERTEX
  8
0
  5
A313
 10
305.367
 20
638.304
 30
0.000000
  70
    32
  0
VERTEX
  8
0
  5
A314
 10
305.355
 20
638.302
 30
0.000000
  70
    32
  0
VERTEX
  8
0
  5
A315
 10
305.343
 20
638.300
 30
0.000000
  70
    32
  0
VERTEX
  8
0
  5
A316
 10
305.331
 20
638.298
 30
0.000000
  70
    32
  0
VERTEX
  8
0
  5
A317
 10
305.319
 20
638.296
 30
0.000000
  70
    32
  0
VERTEX
  8
0
  5
A318
 10
305.307
 20
638.294
 30
0.000000
  70
    32
  0
VERTEX
  8
0
  5
A319
 10
305.295
 20
638.291
 30
0.000000
  70
    32
  0
VERTEX
  8
0
  5
A31A
 10
305.283
 20
638.289
 30
0.000000
  70
    32
  0
VERTEX
  8
0
  5
A31B
 10
305.271
 20
638.286
 30
0.000000
  70
    32
  0
VERTEX
  8
0
  5
A31C
 10
305.259
 20
638.283
 30
0.000000
  70
    32
  0
VERTEX
  8
0
  5
A31D
 10
305.247
 20
638.280
 30
0.000000
  70
    32
  0
VERTEX
  8
0
  5
A31E
 10
305.235
 20
638.277
 30
0.000000
  70
    32
  0
VERTEX
  8
0
  5
A31F
 10
305.223
 20
638.274
 30
0.000000
  70
    32
  0
VERTEX
  8
0
  5
A320
 10
305.212
 20
638.270
 30
0.000000
  70
    32
  0
VERTEX
  8
0
  5
A321
 10
305.200
 20
638.266
 30
0.000000
  70
    32
  0
VERTEX
  8
0
  5
A322
 10
305.188
 20
638.263
 30
0.000000
  70
    32
  0
VERTEX
  8
0
  5
A323
 10
305.177
 20
638.259
 30
0.000000
  70
    32
  0
VERTEX
  8
0
  5
A324
 10
305.165
 20
638.255
 30
0.000000
  70
    32
  0
VERTEX
  8
0
  5
A325
 10
305.154
 20
638.250
 30
0.000000
  70
    32
  0
VERTEX
  8
0
  5
A326
 10
305.142
 20
638.246
 30
0.000000
  70
    32
  0
VERTEX
  8
0
  5
A327
 10
305.131
 20
638.242
 30
0.000000
  70
    32
  0
VERTEX
  8
0
  5
A328
 10
305.119
 20
638.237
 30
0.000000
  70
    32
  0
VERTEX
  8
0
  5
A329
 10
305.108
 20
638.232
 30
0.000000
  70
    32
  0
VERTEX
  8
0
  5
A32A
 10
305.097
 20
638.227
 30
0.000000
  70
    32
  0
VERTEX
  8
0
  5
A32B
 10
305.086
 20
638.222
 30
0.000000
  70
    32
  0
VERTEX
  8
0
  5
A32C
 10
305.074
 20
638.217
 30
0.000000
  70
    32
  0
VERTEX
  8
0
  5
A32D
 10
305.063
 20
638.212
 30
0.000000
  70
    32
  0
VERTEX
  8
0
  5
A32E
 10
305.052
 20
638.206
 30
0.000000
  70
    32
  0
VERTEX
  8
0
  5
A32F
 10
305.041
 20
638.201
 30
0.000000
  70
    32
  0
VERTEX
  8
0
  5
A330
 10
305.031
 20
638.195
 30
0.000000
  70
    32
  0
VERTEX
  8
0
  5
A331
 10
305.020
 20
638.189
 30
0.000000
  70
    32
  0
VERTEX
  8
0
  5
A332
 10
305.009
 20
638.183
 30
0.000000
  70
    32
  0
VERTEX
  8
0
  5
A333
 10
304.998
 20
638.177
 30
0.000000
  70
    32
  0
VERTEX
  8
0
  5
A334
 10
304.988
 20
638.171
 30
0.000000
  70
    32
  0
VERTEX
  8
0
  5
A335
 10
304.977
 20
638.164
 30
0.000000
  70
    32
  0
VERTEX
  8
0
  5
A336
 10
304.967
 20
638.158
 30
0.000000
  70
    32
  0
VERTEX
  8
0
  5
A337
 10
304.957
 20
638.151
 30
0.000000
  70
    32
  0
VERTEX
  8
0
  5
A338
 10
304.946
 20
638.145
 30
0.000000
  70
    32
  0
VERTEX
  8
0
  5
A339
 10
304.936
 20
638.138
 30
0.000000
  70
    32
  0
VERTEX
  8
0
  5
A33A
 10
304.926
 20
638.131
 30
0.000000
  70
    32
  0
VERTEX
  8
0
  5
A33B
 10
304.916
 20
638.124
 30
0.000000
  70
    32
  0
VERTEX
  8
0
  5
A33C
 10
304.906
 20
638.116
 30
0.000000
  70
    32
  0
VERTEX
  8
0
  5
A33D
 10
304.896
 20
638.109
 30
0.000000
  70
    32
  0
VERTEX
  8
0
  5
A33E
 10
304.887
 20
638.101
 30
0.000000
  70
    32
  0
VERTEX
  8
0
  5
A33F
 10
304.877
 20
638.094
 30
0.000000
  70
    32
  0
VERTEX
  8
0
  5
A340
 10
304.868
 20
638.086
 30
0.000000
  70
    32
  0
VERTEX
  8
0
  5
A341
 10
304.858
 20
638.078
 30
0.000000
  70
    32
  0
VERTEX
  8
0
  5
A342
 10
304.849
 20
638.070
 30
0.000000
  70
    32
  0
VERTEX
  8
0
  5
A343
 10
304.840
 20
638.062
 30
0.000000
  70
    32
  0
VERTEX
  8
0
  5
A344
 10
304.830
 20
638.054
 30
0.000000
  70
    32
  0
VERTEX
  8
0
  5
A345
 10
304.821
 20
638.046
 30
0.000000
  70
    32
  0
VERTEX
  8
0
  5
A346
 10
304.812
 20
638.037
 30
0.000000
  70
    32
  0
VERTEX
  8
0
  5
A347
 10
304.804
 20
638.029
 30
0.000000
  70
    32
  0
VERTEX
  8
0
  5
A348
 10
304.795
 20
638.020
 30
0.000000
  70
    32
  0
VERTEX
  8
0
  5
A349
 10
304.786
 20
638.011
 30
0.000000
  70
    32
  0
VERTEX
  8
0
  5
A34A
 10
304.778
 20
638.003
 30
0.000000
  70
    32
  0
VERTEX
  8
0
  5
A34B
 10
304.769
 20
637.994
 30
0.000000
  70
    32
  0
VERTEX
  8
0
  5
A34C
 10
304.761
 20
637.985
 30
0.000000
  70
    32
  0
VERTEX
  8
0
  5
A34D
 10
304.753
 20
637.975
 30
0.000000
  70
    32
  0
VERTEX
  8
0
  5
A34E
 10
304.745
 20
637.966
 30
0.000000
  70
    32
  0
VERTEX
  8
0
  5
A34F
 10
304.737
 20
637.957
 30
0.000000
  70
    32
  0
VERTEX
  8
0
  5
A350
 10
304.729
 20
637.947
 30
0.000000
  70
    32
  0
VERTEX
  8
0
  5
A351
 10
304.721
 20
637.938
 30
0.000000
  70
    32
  0
VERTEX
  8
0
  5
A352
 10
304.714
 20
637.928
 30
0.000000
  70
    32
  0
VERTEX
  8
0
  5
A353
 10
304.706
 20
637.919
 30
0.000000
  70
    32
  0
VERTEX
  8
0
  5
A354
 10
304.699
 20
637.909
 30
0.000000
  70
    32
  0
VERTEX
  8
0
  5
A355
 10
304.692
 20
637.899
 30
0.000000
  70
    32
  0
VERTEX
  8
0
  5
A356
 10
304.684
 20
637.889
 30
0.000000
  70
    32
  0
VERTEX
  8
0
  5
A357
 10
304.677
 20
637.879
 30
0.000000
  70
    32
  0
VERTEX
  8
0
  5
A358
 10
304.671
 20
637.869
 30
0.000000
  70
    32
  0
VERTEX
  8
0
  5
A359
 10
304.664
 20
637.858
 30
0.000000
  70
    32
  0
VERTEX
  8
0
  5
A35A
 10
304.657
 20
637.848
 30
0.000000
  70
    32
  0
VERTEX
  8
0
  5
A35B
 10
304.651
 20
637.838
 30
0.000000
  70
    32
  0
VERTEX
  8
0
  5
A35C
 10
304.644
 20
637.827
 30
0.000000
  70
    32
  0
VERTEX
  8
0
  5
A35D
 10
304.638
 20
637.817
 30
0.000000
  70
    32
  0
VERTEX
  8
0
  5
A35E
 10
304.632
 20
637.806
 30
0.000000
  70
    32
  0
VERTEX
  8
0
  5
A35F
 10
304.626
 20
637.795
 30
0.000000
  70
    32
  0
VERTEX
  8
0
  5
A360
 10
304.620
 20
637.784
 30
0.000000
  70
    32
  0
VERTEX
  8
0
  5
A361
 10
304.614
 20
637.774
 30
0.000000
  70
    32
  0
VERTEX
  8
0
  5
A362
 10
304.609
 20
637.763
 30
0.000000
  70
    32
  0
VERTEX
  8
0
  5
A363
 10
304.603
 20
637.752
 30
0.000000
  70
    32
  0
VERTEX
  8
0
  5
A364
 10
304.598
 20
637.741
 30
0.000000
  70
    32
  0
VERTEX
  8
0
  5
A365
 10
304.593
 20
637.729
 30
0.000000
  70
    32
  0
VERTEX
  8
0
  5
A366
 10
304.588
 20
637.718
 30
0.000000
  70
    32
  0
VERTEX
  8
0
  5
A367
 10
304.583
 20
637.707
 30
0.000000
  70
    32
  0
VERTEX
  8
0
  5
A368
 10
304.578
 20
637.696
 30
0.000000
  70
    32
  0
VERTEX
  8
0
  5
A369
 10
304.573
 20
637.684
 30
0.000000
  70
    32
  0
VERTEX
  8
0
  5
A36A
 10
304.569
 20
637.673
 30
0.000000
  70
    32
  0
VERTEX
  8
0
  5
A36B
 10
304.565
 20
637.661
 30
0.000000
  70
    32
  0
VERTEX
  8
0
  5
A36C
 10
304.560
 20
637.650
 30
0.000000
  70
    32
  0
VERTEX
  8
0
  5
A36D
 10
304.556
 20
637.638
 30
0.000000
  70
    32
  0
VERTEX
  8
0
  5
A36E
 10
304.552
 20
637.627
 30
0.000000
  70
    32
  0
VERTEX
  8
0
  5
A36F
 10
304.549
 20
637.615
 30
0.000000
  70
    32
  0
VERTEX
  8
0
  5
A370
 10
304.545
 20
637.603
 30
0.000000
  70
    32
  0
VERTEX
  8
0
  5
A371
 10
304.542
 20
637.592
 30
0.000000
  70
    32
  0
VERTEX
  8
0
  5
A372
 10
304.538
 20
637.580
 30
0.000000
  70
    32
  0
VERTEX
  8
0
  5
A373
 10
304.535
 20
637.568
 30
0.000000
  70
    32
  0
VERTEX
  8
0
  5
A374
 10
304.532
 20
637.556
 30
0.000000
  70
    32
  0
VERTEX
  8
0
  5
A375
 10
304.529
 20
637.544
 30
0.000000
  70
    32
  0
VERTEX
  8
0
  5
A376
 10
304.526
 20
637.532
 30
0.000000
  70
    32
  0
VERTEX
  8
0
  5
A377
 10
304.524
 20
637.520
 30
0.000000
  70
    32
  0
VERTEX
  8
0
  5
A378
 10
304.521
 20
637.508
 30
0.000000
  70
    32
  0
VERTEX
  8
0
  5
A379
 10
304.519
 20
637.496
 30
0.000000
  70
    32
  0
VERTEX
  8
0
  5
A37A
 10
304.517
 20
637.484
 30
0.000000
  70
    32
  0
VERTEX
  8
0
  5
A37B
 10
304.515
 20
637.472
 30
0.000000
  70
    32
  0
VERTEX
  8
0
  5
A37C
 10
304.513
 20
637.460
 30
0.000000
  70
    32
  0
VERTEX
  8
0
  5
A37D
 10
304.511
 20
637.448
 30
0.000000
  70
    32
  0
VERTEX
  8
0
  5
A37E
 10
304.509
 20
637.435
 30
0.000000
  70
    32
  0
VERTEX
  8
0
  5
A37F
 10
304.508
 20
637.423
 30
0.000000
  70
    32
  0
VERTEX
  8
0
  5
A380
 10
304.507
 20
637.411
 30
0.000000
  70
    32
  0
VERTEX
  8
0
  5
A381
 10
304.506
 20
637.399
 30
0.000000
  70
    32
  0
VERTEX
  8
0
  5
A382
 10
304.505
 20
637.387
 30
0.000000
  70
    32
  0
VERTEX
  8
0
  5
A383
 10
304.504
 20
637.374
 30
0.000000
  70
    32
  0
VERTEX
  8
0
  5
A384
 10
304.503
 20
637.362
 30
0.000000
  70
    32
  0
VERTEX
  8
0
  5
A385
 10
304.503
 20
637.350
 30
0.000000
  70
    32
  0
VERTEX
  8
0
  5
A386
 10
304.502
 20
637.338
 30
0.000000
  70
    32
  0
VERTEX
  8
0
  5
A387
 10
304.502
 20
637.325
 30
0.000000
  70
    32
  0
VERTEX
  8
0
  5
A388
 10
304.502
 20
637.313
 30
0.000000
  70
    32
  0
SEQEND
  8
0
  5
A389
  0
LINE
  5
95CA
  8
0
 10
391.77710284542547
 20
621.31273213659165
 30
0.0
 11
391.77710284542547
 21
637.31305213659175
 31
0.0
  0
LINE
  5
95CB
  8
0
 10
385.40197684542539
 20
616.81264213659188
 30
0.0
 11
385.40197684542539
 21
606.8124421365917
 31
0.0
  0
POLYLINE
  5
95CC
  8
0
 10
391.27710284542547
 20
617.31265213659174
 30
0.0
 66
     1
 70
     8
  0
VERTEX
  8
0
  5
A38A
 10
391.277
 20
617.313
 30
0.000000
  70
    32
  0
VERTEX
  8
0
  5
A38B
 10
391.283
 20
617.313
 30
0.000000
  70
    32
  0
VERTEX
  8
0
  5
A38C
 10
391.289
 20
617.313
 30
0.000000
  70
    32
  0
VERTEX
  8
0
  5
A38D
 10
391.296
 20
617.313
 30
0.000000
  70
    32
  0
VERTEX
  8
0
  5
A38E
 10
391.302
 20
617.313
 30
0.000000
  70
    32
  0
VERTEX
  8
0
  5
A38F
 10
391.308
 20
617.314
 30
0.000000
  70
    32
  0
VERTEX
  8
0
  5
A390
 10
391.314
 20
617.314
 30
0.000000
  70
    32
  0
VERTEX
  8
0
  5
A391
 10
391.320
 20
617.314
 30
0.000000
  70
    32
  0
VERTEX
  8
0
  5
A392
 10
391.326
 20
617.315
 30
0.000000
  70
    32
  0
VERTEX
  8
0
  5
A393
 10
391.332
 20
617.316
 30
0.000000
  70
    32
  0
VERTEX
  8
0
  5
A394
 10
391.338
 20
617.316
 30
0.000000
  70
    32
  0
VERTEX
  8
0
  5
A395
 10
391.344
 20
617.317
 30
0.000000
  70
    32
  0
VERTEX
  8
0
  5
A396
 10
391.350
 20
617.318
 30
0.000000
  70
    32
  0
VERTEX
  8
0
  5
A397
 10
391.357
 20
617.319
 30
0.000000
  70
    32
  0
VERTEX
  8
0
  5
A398
 10
391.363
 20
617.320
 30
0.000000
  70
    32
  0
VERTEX
  8
0
  5
A399
 10
391.369
 20
617.321
 30
0.000000
  70
    32
  0
VERTEX
  8
0
  5
A39A
 10
391.375
 20
617.322
 30
0.000000
  70
    32
  0
VERTEX
  8
0
  5
A39B
 10
391.381
 20
617.323
 30
0.000000
  70
    32
  0
VERTEX
  8
0
  5
A39C
 10
391.387
 20
617.325
 30
0.000000
  70
    32
  0
VERTEX
  8
0
  5
A39D
 10
391.393
 20
617.326
 30
0.000000
  70
    32
  0
VERTEX
  8
0
  5
A39E
 10
391.399
 20
617.328
 30
0.000000
  70
    32
  0
VERTEX
  8
0
  5
A39F
 10
391.405
 20
617.329
 30
0.000000
  70
    32
  0
VERTEX
  8
0
  5
A3A0
 10
391.410
 20
617.331
 30
0.000000
  70
    32
  0
VERTEX
  8
0
  5
A3A1
 10
391.416
 20
617.332
 30
0.000000
  70
    32
  0
VERTEX
  8
0
  5
A3A2
 10
391.422
 20
617.334
 30
0.000000
  70
    32
  0
VERTEX
  8
0
  5
A3A3
 10
391.428
 20
617.336
 30
0.000000
  70
    32
  0
VERTEX
  8
0
  5
A3A4
 10
391.434
 20
617.338
 30
0.000000
  70
    32
  0
VERTEX
  8
0
  5
A3A5
 10
391.440
 20
617.340
 30
0.000000
  70
    32
  0
VERTEX
  8
0
  5
A3A6
 10
391.446
 20
617.342
 30
0.000000
  70
    32
  0
VERTEX
  8
0
  5
A3A7
 10
391.451
 20
617.344
 30
0.000000
  70
    32
  0
VERTEX
  8
0
  5
A3A8
 10
391.457
 20
617.346
 30
0.000000
  70
    32
  0
VERTEX
  8
0
  5
A3A9
 10
391.463
 20
617.348
 30
0.000000
  70
    32
  0
VERTEX
  8
0
  5
A3AA
 10
391.468
 20
617.351
 30
0.000000
  70
    32
  0
VERTEX
  8
0
  5
A3AB
 10
391.474
 20
617.353
 30
0.000000
  70
    32
  0
VERTEX
  8
0
  5
A3AC
 10
391.480
 20
617.356
 30
0.000000
  70
    32
  0
VERTEX
  8
0
  5
A3AD
 10
391.485
 20
617.358
 30
0.000000
  70
    32
  0
VERTEX
  8
0
  5
A3AE
 10
391.491
 20
617.361
 30
0.000000
  70
    32
  0
VERTEX
  8
0
  5
A3AF
 10
391.496
 20
617.363
 30
0.000000
  70
    32
  0
VERTEX
  8
0
  5
A3B0
 10
391.502
 20
617.366
 30
0.000000
  70
    32
  0
VERTEX
  8
0
  5
A3B1
 10
391.507
 20
617.369
 30
0.000000
  70
    32
  0
VERTEX
  8
0
  5
A3B2
 10
391.513
 20
617.372
 30
0.000000
  70
    32
  0
VERTEX
  8
0
  5
A3B3
 10
391.518
 20
617.375
 30
0.000000
  70
    32
  0
VERTEX
  8
0
  5
A3B4
 10
391.524
 20
617.378
 30
0.000000
  70
    32
  0
VERTEX
  8
0
  5
A3B5
 10
391.529
 20
617.381
 30
0.000000
  70
    32
  0
VERTEX
  8
0
  5
A3B6
 10
391.534
 20
617.384
 30
0.000000
  70
    32
  0
VERTEX
  8
0
  5
A3B7
 10
391.539
 20
617.387
 30
0.000000
  70
    32
  0
VERTEX
  8
0
  5
A3B8
 10
391.545
 20
617.390
 30
0.000000
  70
    32
  0
VERTEX
  8
0
  5
A3B9
 10
391.550
 20
617.394
 30
0.000000
  70
    32
  0
VERTEX
  8
0
  5
A3BA
 10
391.555
 20
617.397
 30
0.000000
  70
    32
  0
VERTEX
  8
0
  5
A3BB
 10
391.560
 20
617.400
 30
0.000000
  70
    32
  0
VERTEX
  8
0
  5
A3BC
 10
391.565
 20
617.404
 30
0.000000
  70
    32
  0
VERTEX
  8
0
  5
A3BD
 10
391.570
 20
617.407
 30
0.000000
  70
    32
  0
VERTEX
  8
0
  5
A3BE
 10
391.575
 20
617.411
 30
0.000000
  70
    32
  0
VERTEX
  8
0
  5
A3BF
 10
391.580
 20
617.415
 30
0.000000
  70
    32
  0
VERTEX
  8
0
  5
A3C0
 10
391.585
 20
617.418
 30
0.000000
  70
    32
  0
VERTEX
  8
0
  5
A3C1
 10
391.590
 20
617.422
 30
0.000000
  70
    32
  0
VERTEX
  8
0
  5
A3C2
 10
391.594
 20
617.426
 30
0.000000
  70
    32
  0
VERTEX
  8
0
  5
A3C3
 10
391.599
 20
617.430
 30
0.000000
  70
    32
  0
VERTEX
  8
0
  5
A3C4
 10
391.604
 20
617.434
 30
0.000000
  70
    32
  0
VERTEX
  8
0
  5
A3C5
 10
391.608
 20
617.438
 30
0.000000
  70
    32
  0
VERTEX
  8
0
  5
A3C6
 10
391.613
 20
617.442
 30
0.000000
  70
    32
  0
VERTEX
  8
0
  5
A3C7
 10
391.617
 20
617.446
 30
0.000000
  70
    32
  0
VERTEX
  8
0
  5
A3C8
 10
391.622
 20
617.451
 30
0.000000
  70
    32
  0
VERTEX
  8
0
  5
A3C9
 10
391.626
 20
617.455
 30
0.000000
  70
    32
  0
VERTEX
  8
0
  5
A3CA
 10
391.631
 20
617.459
 30
0.000000
  70
    32
  0
VERTEX
  8
0
  5
A3CB
 10
391.635
 20
617.463
 30
0.000000
  70
    32
  0
VERTEX
  8
0
  5
A3CC
 10
391.639
 20
617.468
 30
0.000000
  70
    32
  0
VERTEX
  8
0
  5
A3CD
 10
391.643
 20
617.472
 30
0.000000
  70
    32
  0
VERTEX
  8
0
  5
A3CE
 10
391.648
 20
617.477
 30
0.000000
  70
    32
  0
VERTEX
  8
0
  5
A3CF
 10
391.652
 20
617.481
 30
0.000000
  70
    32
  0
VERTEX
  8
0
  5
A3D0
 10
391.656
 20
617.486
 30
0.000000
  70
    32
  0
VERTEX
  8
0
  5
A3D1
 10
391.660
 20
617.491
 30
0.000000
  70
    32
  0
VERTEX
  8
0
  5
A3D2
 10
391.664
 20
617.495
 30
0.000000
  70
    32
  0
VERTEX
  8
0
  5
A3D3
 10
391.667
 20
617.500
 30
0.000000
  70
    32
  0
VERTEX
  8
0
  5
A3D4
 10
391.671
 20
617.505
 30
0.000000
  70
    32
  0
VERTEX
  8
0
  5
A3D5
 10
391.675
 20
617.510
 30
0.000000
  70
    32
  0
VERTEX
  8
0
  5
A3D6
 10
391.679
 20
617.515
 30
0.000000
  70
    32
  0
VERTEX
  8
0
  5
A3D7
 10
391.682
 20
617.520
 30
0.000000
  70
    32
  0
VERTEX
  8
0
  5
A3D8
 10
391.686
 20
617.525
 30
0.000000
  70
    32
  0
VERTEX
  8
0
  5
A3D9
 10
391.689
 20
617.530
 30
0.000000
  70
    32
  0
VERTEX
  8
0
  5
A3DA
 10
391.693
 20
617.535
 30
0.000000
  70
    32
  0
VERTEX
  8
0
  5
A3DB
 10
391.696
 20
617.540
 30
0.000000
  70
    32
  0
VERTEX
  8
0
  5
A3DC
 10
391.700
 20
617.545
 30
0.000000
  70
    32
  0
VERTEX
  8
0
  5
A3DD
 10
391.703
 20
617.550
 30
0.000000
  70
    32
  0
VERTEX
  8
0
  5
A3DE
 10
391.706
 20
617.556
 30
0.000000
  70
    32
  0
VERTEX
  8
0
  5
A3DF
 10
391.709
 20
617.561
 30
0.000000
  70
    32
  0
VERTEX
  8
0
  5
A3E0
 10
391.712
 20
617.566
 30
0.000000
  70
    32
  0
VERTEX
  8
0
  5
A3E1
 10
391.715
 20
617.572
 30
0.000000
  70
    32
  0
VERTEX
  8
0
  5
A3E2
 10
391.718
 20
617.577
 30
0.000000
  70
    32
  0
VERTEX
  8
0
  5
A3E3
 10
391.721
 20
617.582
 30
0.000000
  70
    32
  0
VERTEX
  8
0
  5
A3E4
 10
391.724
 20
617.588
 30
0.000000
  70
    32
  0
VERTEX
  8
0
  5
A3E5
 10
391.726
 20
617.593
 30
0.000000
  70
    32
  0
VERTEX
  8
0
  5
A3E6
 10
391.729
 20
617.599
 30
0.000000
  70
    32
  0
VERTEX
  8
0
  5
A3E7
 10
391.732
 20
617.604
 30
0.000000
  70
    32
  0
VERTEX
  8
0
  5
A3E8
 10
391.734
 20
617.610
 30
0.000000
  70
    32
  0
VERTEX
  8
0
  5
A3E9
 10
391.737
 20
617.616
 30
0.000000
  70
    32
  0
VERTEX
  8
0
  5
A3EA
 10
391.739
 20
617.621
 30
0.000000
  70
    32
  0
VERTEX
  8
0
  5
A3EB
 10
391.741
 20
617.627
 30
0.000000
  70
    32
  0
VERTEX
  8
0
  5
A3EC
 10
391.744
 20
617.633
 30
0.000000
  70
    32
  0
VERTEX
  8
0
  5
A3ED
 10
391.746
 20
617.638
 30
0.000000
  70
    32
  0
VERTEX
  8
0
  5
A3EE
 10
391.748
 20
617.644
 30
0.000000
  70
    32
  0
VERTEX
  8
0
  5
A3EF
 10
391.750
 20
617.650
 30
0.000000
  70
    32
  0
VERTEX
  8
0
  5
A3F0
 10
391.752
 20
617.656
 30
0.000000
  70
    32
  0
VERTEX
  8
0
  5
A3F1
 10
391.754
 20
617.662
 30
0.000000
  70
    32
  0
VERTEX
  8
0
  5
A3F2
 10
391.756
 20
617.668
 30
0.000000
  70
    32
  0
VERTEX
  8
0
  5
A3F3
 10
391.757
 20
617.673
 30
0.000000
  70
    32
  0
VERTEX
  8
0
  5
A3F4
 10
391.759
 20
617.679
 30
0.000000
  70
    32
  0
VERTEX
  8
0
  5
A3F5
 10
391.761
 20
617.685
 30
0.000000
  70
    32
  0
VERTEX
  8
0
  5
A3F6
 10
391.762
 20
617.691
 30
0.000000
  70
    32
  0
VERTEX
  8
0
  5
A3F7
 10
391.764
 20
617.697
 30
0.000000
  70
    32
  0
VERTEX
  8
0
  5
A3F8
 10
391.765
 20
617.703
 30
0.000000
  70
    32
  0
VERTEX
  8
0
  5
A3F9
 10
391.766
 20
617.709
 30
0.000000
  70
    32
  0
VERTEX
  8
0
  5
A3FA
 10
391.767
 20
617.715
 30
0.000000
  70
    32
  0
VERTEX
  8
0
  5
A3FB
 10
391.769
 20
617.721
 30
0.000000
  70
    32
  0
VERTEX
  8
0
  5
A3FC
 10
391.770
 20
617.727
 30
0.000000
  70
    32
  0
VERTEX
  8
0
  5
A3FD
 10
391.771
 20
617.733
 30
0.000000
  70
    32
  0
VERTEX
  8
0
  5
A3FE
 10
391.772
 20
617.739
 30
0.000000
  70
    32
  0
VERTEX
  8
0
  5
A3FF
 10
391.773
 20
617.745
 30
0.000000
  70
    32
  0
VERTEX
  8
0
  5
A400
 10
391.773
 20
617.751
 30
0.000000
  70
    32
  0
VERTEX
  8
0
  5
A401
 10
391.774
 20
617.758
 30
0.000000
  70
    32
  0
VERTEX
  8
0
  5
A402
 10
391.775
 20
617.764
 30
0.000000
  70
    32
  0
VERTEX
  8
0
  5
A403
 10
391.775
 20
617.770
 30
0.000000
  70
    32
  0
VERTEX
  8
0
  5
A404
 10
391.776
 20
617.776
 30
0.000000
  70
    32
  0
VERTEX
  8
0
  5
A405
 10
391.776
 20
617.782
 30
0.000000
  70
    32
  0
VERTEX
  8
0
  5
A406
 10
391.777
 20
617.788
 30
0.000000
  70
    32
  0
VERTEX
  8
0
  5
A407
 10
391.777
 20
617.794
 30
0.000000
  70
    32
  0
VERTEX
  8
0
  5
A408
 10
391.777
 20
617.800
 30
0.000000
  70
    32
  0
VERTEX
  8
0
  5
A409
 10
391.777
 20
617.807
 30
0.000000
  70
    32
  0
VERTEX
  8
0
  5
A40A
 10
391.777
 20
617.813
 30
0.000000
  70
    32
  0
SEQEND
  8
0
  5
A40B
  0
POLYLINE
  5
95CD
  8
0
 10
385.90197684542528
 20
617.31265213659208
 30
0.0
 66
     1
 70
     8
  0
VERTEX
  8
0
  5
A40C
 10
385.902
 20
617.313
 30
0.000000
  70
    32
  0
VERTEX
  8
0
  5
A40D
 10
385.896
 20
617.313
 30
0.000000
  70
    32
  0
VERTEX
  8
0
  5
A40E
 10
385.890
 20
617.313
 30
0.000000
  70
    32
  0
VERTEX
  8
0
  5
A40F
 10
385.884
 20
617.312
 30
0.000000
  70
    32
  0
VERTEX
  8
0
  5
A410
 10
385.877
 20
617.312
 30
0.000000
  70
    32
  0
VERTEX
  8
0
  5
A411
 10
385.871
 20
617.312
 30
0.000000
  70
    32
  0
VERTEX
  8
0
  5
A412
 10
385.865
 20
617.311
 30
0.000000
  70
    32
  0
VERTEX
  8
0
  5
A413
 10
385.859
 20
617.311
 30
0.000000
  70
    32
  0
VERTEX
  8
0
  5
A414
 10
385.853
 20
617.310
 30
0.000000
  70
    32
  0
VERTEX
  8
0
  5
A415
 10
385.847
 20
617.310
 30
0.000000
  70
    32
  0
VERTEX
  8
0
  5
A416
 10
385.841
 20
617.309
 30
0.000000
  70
    32
  0
VERTEX
  8
0
  5
A417
 10
385.835
 20
617.308
 30
0.000000
  70
    32
  0
VERTEX
  8
0
  5
A418
 10
385.829
 20
617.307
 30
0.000000
  70
    32
  0
VERTEX
  8
0
  5
A419
 10
385.823
 20
617.306
 30
0.000000
  70
    32
  0
VERTEX
  8
0
  5
A41A
 10
385.816
 20
617.305
 30
0.000000
  70
    32
  0
VERTEX
  8
0
  5
A41B
 10
385.810
 20
617.304
 30
0.000000
  70
    32
  0
VERTEX
  8
0
  5
A41C
 10
385.804
 20
617.303
 30
0.000000
  70
    32
  0
VERTEX
  8
0
  5
A41D
 10
385.798
 20
617.302
 30
0.000000
  70
    32
  0
VERTEX
  8
0
  5
A41E
 10
385.792
 20
617.301
 30
0.000000
  70
    32
  0
VERTEX
  8
0
  5
A41F
 10
385.786
 20
617.299
 30
0.000000
  70
    32
  0
VERTEX
  8
0
  5
A420
 10
385.780
 20
617.298
 30
0.000000
  70
    32
  0
VERTEX
  8
0
  5
A421
 10
385.775
 20
617.296
 30
0.000000
  70
    32
  0
VERTEX
  8
0
  5
A422
 10
385.769
 20
617.295
 30
0.000000
  70
    32
  0
VERTEX
  8
0
  5
A423
 10
385.763
 20
617.293
 30
0.000000
  70
    32
  0
VERTEX
  8
0
  5
A424
 10
385.757
 20
617.291
 30
0.000000
  70
    32
  0
VERTEX
  8
0
  5
A425
 10
385.751
 20
617.289
 30
0.000000
  70
    32
  0
VERTEX
  8
0
  5
A426
 10
385.745
 20
617.287
 30
0.000000
  70
    32
  0
VERTEX
  8
0
  5
A427
 10
385.739
 20
617.285
 30
0.000000
  70
    32
  0
VERTEX
  8
0
  5
A428
 10
385.734
 20
617.283
 30
0.000000
  70
    32
  0
VERTEX
  8
0
  5
A429
 10
385.728
 20
617.281
 30
0.000000
  70
    32
  0
VERTEX
  8
0
  5
A42A
 10
385.722
 20
617.279
 30
0.000000
  70
    32
  0
VERTEX
  8
0
  5
A42B
 10
385.716
 20
617.277
 30
0.000000
  70
    32
  0
VERTEX
  8
0
  5
A42C
 10
385.711
 20
617.275
 30
0.000000
  70
    32
  0
VERTEX
  8
0
  5
A42D
 10
385.705
 20
617.272
 30
0.000000
  70
    32
  0
VERTEX
  8
0
  5
A42E
 10
385.699
 20
617.270
 30
0.000000
  70
    32
  0
VERTEX
  8
0
  5
A42F
 10
385.694
 20
617.267
 30
0.000000
  70
    32
  0
VERTEX
  8
0
  5
A430
 10
385.688
 20
617.265
 30
0.000000
  70
    32
  0
VERTEX
  8
0
  5
A431
 10
385.683
 20
617.262
 30
0.000000
  70
    32
  0
VERTEX
  8
0
  5
A432
 10
385.677
 20
617.259
 30
0.000000
  70
    32
  0
VERTEX
  8
0
  5
A433
 10
385.672
 20
617.256
 30
0.000000
  70
    32
  0
VERTEX
  8
0
  5
A434
 10
385.666
 20
617.254
 30
0.000000
  70
    32
  0
VERTEX
  8
0
  5
A435
 10
385.661
 20
617.251
 30
0.000000
  70
    32
  0
VERTEX
  8
0
  5
A436
 10
385.656
 20
617.248
 30
0.000000
  70
    32
  0
VERTEX
  8
0
  5
A437
 10
385.650
 20
617.245
 30
0.000000
  70
    32
  0
VERTEX
  8
0
  5
A438
 10
385.645
 20
617.242
 30
0.000000
  70
    32
  0
VERTEX
  8
0
  5
A439
 10
385.640
 20
617.238
 30
0.000000
  70
    32
  0
VERTEX
  8
0
  5
A43A
 10
385.634
 20
617.235
 30
0.000000
  70
    32
  0
VERTEX
  8
0
  5
A43B
 10
385.629
 20
617.232
 30
0.000000
  70
    32
  0
VERTEX
  8
0
  5
A43C
 10
385.624
 20
617.228
 30
0.000000
  70
    32
  0
VERTEX
  8
0
  5
A43D
 10
385.619
 20
617.225
 30
0.000000
  70
    32
  0
VERTEX
  8
0
  5
A43E
 10
385.614
 20
617.221
 30
0.000000
  70
    32
  0
VERTEX
  8
0
  5
A43F
 10
385.609
 20
617.218
 30
0.000000
  70
    32
  0
VERTEX
  8
0
  5
A440
 10
385.604
 20
617.214
 30
0.000000
  70
    32
  0
VERTEX
  8
0
  5
A441
 10
385.599
 20
617.211
 30
0.000000
  70
    32
  0
VERTEX
  8
0
  5
A442
 10
385.594
 20
617.207
 30
0.000000
  70
    32
  0
VERTEX
  8
0
  5
A443
 10
385.590
 20
617.203
 30
0.000000
  70
    32
  0
VERTEX
  8
0
  5
A444
 10
385.585
 20
617.199
 30
0.000000
  70
    32
  0
VERTEX
  8
0
  5
A445
 10
385.580
 20
617.195
 30
0.000000
  70
    32
  0
VERTEX
  8
0
  5
A446
 10
385.575
 20
617.191
 30
0.000000
  70
    32
  0
VERTEX
  8
0
  5
A447
 10
385.571
 20
617.187
 30
0.000000
  70
    32
  0
VERTEX
  8
0
  5
A448
 10
385.566
 20
617.183
 30
0.000000
  70
    32
  0
VERTEX
  8
0
  5
A449
 10
385.562
 20
617.179
 30
0.000000
  70
    32
  0
VERTEX
  8
0
  5
A44A
 10
385.557
 20
617.175
 30
0.000000
  70
    32
  0
VERTEX
  8
0
  5
A44B
 10
385.553
 20
617.171
 30
0.000000
  70
    32
  0
VERTEX
  8
0
  5
A44C
 10
385.548
 20
617.166
 30
0.000000
  70
    32
  0
VERTEX
  8
0
  5
A44D
 10
385.544
 20
617.162
 30
0.000000
  70
    32
  0
VERTEX
  8
0
  5
A44E
 10
385.540
 20
617.157
 30
0.000000
  70
    32
  0
VERTEX
  8
0
  5
A44F
 10
385.536
 20
617.153
 30
0.000000
  70
    32
  0
VERTEX
  8
0
  5
A450
 10
385.532
 20
617.148
 30
0.000000
  70
    32
  0
VERTEX
  8
0
  5
A451
 10
385.527
 20
617.144
 30
0.000000
  70
    32
  0
VERTEX
  8
0
  5
A452
 10
385.523
 20
617.139
 30
0.000000
  70
    32
  0
VERTEX
  8
0
  5
A453
 10
385.519
 20
617.135
 30
0.000000
  70
    32
  0
VERTEX
  8
0
  5
A454
 10
385.515
 20
617.130
 30
0.000000
  70
    32
  0
VERTEX
  8
0
  5
A455
 10
385.512
 20
617.125
 30
0.000000
  70
    32
  0
VERTEX
  8
0
  5
A456
 10
385.508
 20
617.120
 30
0.000000
  70
    32
  0
VERTEX
  8
0
  5
A457
 10
385.504
 20
617.115
 30
0.000000
  70
    32
  0
VERTEX
  8
0
  5
A458
 10
385.500
 20
617.110
 30
0.000000
  70
    32
  0
VERTEX
  8
0
  5
A459
 10
385.497
 20
617.106
 30
0.000000
  70
    32
  0
VERTEX
  8
0
  5
A45A
 10
385.493
 20
617.101
 30
0.000000
  70
    32
  0
VERTEX
  8
0
  5
A45B
 10
385.490
 20
617.096
 30
0.000000
  70
    32
  0
VERTEX
  8
0
  5
A45C
 10
385.486
 20
617.090
 30
0.000000
  70
    32
  0
VERTEX
  8
0
  5
A45D
 10
385.483
 20
617.085
 30
0.000000
  70
    32
  0
VERTEX
  8
0
  5
A45E
 10
385.480
 20
617.080
 30
0.000000
  70
    32
  0
VERTEX
  8
0
  5
A45F
 10
385.476
 20
617.075
 30
0.000000
  70
    32
  0
VERTEX
  8
0
  5
A460
 10
385.473
 20
617.070
 30
0.000000
  70
    32
  0
VERTEX
  8
0
  5
A461
 10
385.470
 20
617.064
 30
0.000000
  70
    32
  0
VERTEX
  8
0
  5
A462
 10
385.467
 20
617.059
 30
0.000000
  70
    32
  0
VERTEX
  8
0
  5
A463
 10
385.464
 20
617.054
 30
0.000000
  70
    32
  0
VERTEX
  8
0
  5
A464
 10
385.461
 20
617.048
 30
0.000000
  70
    32
  0
VERTEX
  8
0
  5
A465
 10
385.458
 20
617.043
 30
0.000000
  70
    32
  0
VERTEX
  8
0
  5
A466
 10
385.455
 20
617.037
 30
0.000000
  70
    32
  0
VERTEX
  8
0
  5
A467
 10
385.453
 20
617.032
 30
0.000000
  70
    32
  0
VERTEX
  8
0
  5
A468
 10
385.450
 20
617.026
 30
0.000000
  70
    32
  0
VERTEX
  8
0
  5
A469
 10
385.447
 20
617.021
 30
0.000000
  70
    32
  0
VERTEX
  8
0
  5
A46A
 10
385.445
 20
617.015
 30
0.000000
  70
    32
  0
VERTEX
  8
0
  5
A46B
 10
385.442
 20
617.010
 30
0.000000
  70
    32
  0
VERTEX
  8
0
  5
A46C
 10
385.440
 20
617.004
 30
0.000000
  70
    32
  0
VERTEX
  8
0
  5
A46D
 10
385.438
 20
616.998
 30
0.000000
  70
    32
  0
VERTEX
  8
0
  5
A46E
 10
385.435
 20
616.993
 30
0.000000
  70
    32
  0
VERTEX
  8
0
  5
A46F
 10
385.433
 20
616.987
 30
0.000000
  70
    32
  0
VERTEX
  8
0
  5
A470
 10
385.431
 20
616.981
 30
0.000000
  70
    32
  0
VERTEX
  8
0
  5
A471
 10
385.429
 20
616.975
 30
0.000000
  70
    32
  0
VERTEX
  8
0
  5
A472
 10
385.427
 20
616.969
 30
0.000000
  70
    32
  0
VERTEX
  8
0
  5
A473
 10
385.425
 20
616.964
 30
0.000000
  70
    32
  0
VERTEX
  8
0
  5
A474
 10
385.424
 20
616.958
 30
0.000000
  70
    32
  0
VERTEX
  8
0
  5
A475
 10
385.422
 20
616.952
 30
0.000000
  70
    32
  0
VERTEX
  8
0
  5
A476
 10
385.420
 20
616.946
 30
0.000000
  70
    32
  0
VERTEX
  8
0
  5
A477
 10
385.418
 20
616.940
 30
0.000000
  70
    32
  0
VERTEX
  8
0
  5
A478
 10
385.417
 20
616.934
 30
0.000000
  70
    32
  0
VERTEX
  8
0
  5
A479
 10
385.416
 20
616.928
 30
0.000000
  70
    32
  0
VERTEX
  8
0
  5
A47A
 10
385.414
 20
616.922
 30
0.000000
  70
    32
  0
VERTEX
  8
0
  5
A47B
 10
385.413
 20
616.916
 30
0.000000
  70
    32
  0
VERTEX
  8
0
  5
A47C
 10
385.412
 20
616.910
 30
0.000000
  70
    32
  0
VERTEX
  8
0
  5
A47D
 10
385.410
 20
616.904
 30
0.000000
  70
    32
  0
VERTEX
  8
0
  5
A47E
 10
385.409
 20
616.898
 30
0.000000
  70
    32
  0
VERTEX
  8
0
  5
A47F
 10
385.408
 20
616.892
 30
0.000000
  70
    32
  0
VERTEX
  8
0
  5
A480
 10
385.407
 20
616.886
 30
0.000000
  70
    32
  0
VERTEX
  8
0
  5
A481
 10
385.407
 20
616.880
 30
0.000000
  70
    32
  0
VERTEX
  8
0
  5
A482
 10
385.406
 20
616.874
 30
0.000000
  70
    32
  0
VERTEX
  8
0
  5
A483
 10
385.405
 20
616.868
 30
0.000000
  70
    32
  0
VERTEX
  8
0
  5
A484
 10
385.404
 20
616.862
 30
0.000000
  70
    32
  0
VERTEX
  8
0
  5
A485
 10
385.404
 20
616.856
 30
0.000000
  70
    32
  0
VERTEX
  8
0
  5
A486
 10
385.403
 20
616.849
 30
0.000000
  70
    32
  0
VERTEX
  8
0
  5
A487
 10
385.403
 20
616.843
 30
0.000000
  70
    32
  0
VERTEX
  8
0
  5
A488
 10
385.403
 20
616.837
 30
0.000000
  70
    32
  0
VERTEX
  8
0
  5
A489
 10
385.402
 20
616.831
 30
0.000000
  70
    32
  0
VERTEX
  8
0
  5
A48A
 10
385.402
 20
616.825
 30
0.000000
  70
    32
  0
VERTEX
  8
0
  5
A48B
 10
385.402
 20
616.819
 30
0.000000
  70
    32
  0
VERTEX
  8
0
  5
A48C
 10
385.402
 20
616.813
 30
0.000000
  70
    32
  0
SEQEND
  8
0
  5
A48D
  0
LINE
  5
95CE
  8
0
 10
385.90197684542528
 20
617.31265213659174
 30
0.0
 11
391.27710284542547
 21
617.31265213659174
 31
0.0
  0
LINE
  5
95CF
  8
0
 10
391.77710284542547
 20
621.31273213659165
 30
0.0
 11
391.77710284542547
 21
617.81266213659171
 31
0.0
  0
POLYLINE
  5
95D0
  8
0
 10
391.77710284502541
 20
637.31305213659175
 30
0.0
 66
     1
 70
     8
  0
VERTEX
  8
0
  5
A48E
 10
391.777
 20
637.313
 30
0.000000
  70
    32
  0
VERTEX
  8
0
  5
A48F
 10
391.777
 20
637.325
 30
0.000000
  70
    32
  0
VERTEX
  8
0
  5
A490
 10
391.777
 20
637.338
 30
0.000000
  70
    32
  0
VERTEX
  8
0
  5
A491
 10
391.776
 20
637.350
 30
0.000000
  70
    32
  0
VERTEX
  8
0
  5
A492
 10
391.776
 20
637.362
 30
0.000000
  70
    32
  0
VERTEX
  8
0
  5
A493
 10
391.775
 20
637.374
 30
0.000000
  70
    32
  0
VERTEX
  8
0
  5
A494
 10
391.774
 20
637.387
 30
0.000000
  70
    32
  0
VERTEX
  8
0
  5
A495
 10
391.773
 20
637.399
 30
0.000000
  70
    32
  0
VERTEX
  8
0
  5
A496
 10
391.772
 20
637.411
 30
0.000000
  70
    32
  0
VERTEX
  8
0
  5
A497
 10
391.771
 20
637.423
 30
0.000000
  70
    32
  0
VERTEX
  8
0
  5
A498
 10
391.770
 20
637.435
 30
0.000000
  70
    32
  0
VERTEX
  8
0
  5
A499
 10
391.768
 20
637.448
 30
0.000000
  70
    32
  0
VERTEX
  8
0
  5
A49A
 10
391.766
 20
637.460
 30
0.000000
  70
    32
  0
VERTEX
  8
0
  5
A49B
 10
391.764
 20
637.472
 30
0.000000
  70
    32
  0
VERTEX
  8
0
  5
A49C
 10
391.762
 20
637.484
 30
0.000000
  70
    32
  0
VERTEX
  8
0
  5
A49D
 10
391.760
 20
637.496
 30
0.000000
  70
    32
  0
VERTEX
  8
0
  5
A49E
 10
391.758
 20
637.508
 30
0.000000
  70
    32
  0
VERTEX
  8
0
  5
A49F
 10
391.755
 20
637.520
 30
0.000000
  70
    32
  0
VERTEX
  8
0
  5
A4A0
 10
391.753
 20
637.532
 30
0.000000
  70
    32
  0
VERTEX
  8
0
  5
A4A1
 10
391.750
 20
637.544
 30
0.000000
  70
    32
  0
VERTEX
  8
0
  5
A4A2
 10
391.747
 20
637.556
 30
0.000000
  70
    32
  0
VERTEX
  8
0
  5
A4A3
 10
391.744
 20
637.568
 30
0.000000
  70
    32
  0
VERTEX
  8
0
  5
A4A4
 10
391.741
 20
637.580
 30
0.000000
  70
    32
  0
VERTEX
  8
0
  5
A4A5
 10
391.738
 20
637.592
 30
0.000000
  70
    32
  0
VERTEX
  8
0
  5
A4A6
 10
391.734
 20
637.603
 30
0.000000
  70
    32
  0
VERTEX
  8
0
  5
A4A7
 10
391.730
 20
637.615
 30
0.000000
  70
    32
  0
VERTEX
  8
0
  5
A4A8
 10
391.727
 20
637.627
 30
0.000000
  70
    32
  0
VERTEX
  8
0
  5
A4A9
 10
391.723
 20
637.638
 30
0.000000
  70
    32
  0
VERTEX
  8
0
  5
A4AA
 10
391.719
 20
637.650
 30
0.000000
  70
    32
  0
VERTEX
  8
0
  5
A4AB
 10
391.714
 20
637.661
 30
0.000000
  70
    32
  0
VERTEX
  8
0
  5
A4AC
 10
391.710
 20
637.673
 30
0.000000
  70
    32
  0
VERTEX
  8
0
  5
A4AD
 10
391.706
 20
637.684
 30
0.000000
  70
    32
  0
VERTEX
  8
0
  5
A4AE
 10
391.701
 20
637.696
 30
0.000000
  70
    32
  0
VERTEX
  8
0
  5
A4AF
 10
391.696
 20
637.707
 30
0.000000
  70
    32
  0
VERTEX
  8
0
  5
A4B0
 10
391.691
 20
637.718
 30
0.000000
  70
    32
  0
VERTEX
  8
0
  5
A4B1
 10
391.686
 20
637.729
 30
0.000000
  70
    32
  0
VERTEX
  8
0
  5
A4B2
 10
391.681
 20
637.741
 30
0.000000
  70
    32
  0
VERTEX
  8
0
  5
A4B3
 10
391.676
 20
637.752
 30
0.000000
  70
    32
  0
VERTEX
  8
0
  5
A4B4
 10
391.670
 20
637.763
 30
0.000000
  70
    32
  0
VERTEX
  8
0
  5
A4B5
 10
391.665
 20
637.774
 30
0.000000
  70
    32
  0
VERTEX
  8
0
  5
A4B6
 10
391.659
 20
637.784
 30
0.000000
  70
    32
  0
VERTEX
  8
0
  5
A4B7
 10
391.653
 20
637.795
 30
0.000000
  70
    32
  0
VERTEX
  8
0
  5
A4B8
 10
391.647
 20
637.806
 30
0.000000
  70
    32
  0
VERTEX
  8
0
  5
A4B9
 10
391.641
 20
637.817
 30
0.000000
  70
    32
  0
VERTEX
  8
0
  5
A4BA
 10
391.635
 20
637.827
 30
0.000000
  70
    32
  0
VERTEX
  8
0
  5
A4BB
 10
391.628
 20
637.838
 30
0.000000
  70
    32
  0
VERTEX
  8
0
  5
A4BC
 10
391.622
 20
637.848
 30
0.000000
  70
    32
  0
VERTEX
  8
0
  5
A4BD
 10
391.615
 20
637.858
 30
0.000000
  70
    32
  0
VERTEX
  8
0
  5
A4BE
 10
391.609
 20
637.869
 30
0.000000
  70
    32
  0
VERTEX
  8
0
  5
A4BF
 10
391.602
 20
637.879
 30
0.000000
  70
    32
  0
VERTEX
  8
0
  5
A4C0
 10
391.595
 20
637.889
 30
0.000000
  70
    32
  0
VERTEX
  8
0
  5
A4C1
 10
391.588
 20
637.899
 30
0.000000
  70
    32
  0
VERTEX
  8
0
  5
A4C2
 10
391.580
 20
637.909
 30
0.000000
  70
    32
  0
VERTEX
  8
0
  5
A4C3
 10
391.573
 20
637.919
 30
0.000000
  70
    32
  0
VERTEX
  8
0
  5
A4C4
 10
391.565
 20
637.928
 30
0.000000
  70
    32
  0
VERTEX
  8
0
  5
A4C5
 10
391.558
 20
637.938
 30
0.000000
  70
    32
  0
VERTEX
  8
0
  5
A4C6
 10
391.550
 20
637.947
 30
0.000000
  70
    32
  0
VERTEX
  8
0
  5
A4C7
 10
391.542
 20
637.957
 30
0.000000
  70
    32
  0
VERTEX
  8
0
  5
A4C8
 10
391.534
 20
637.966
 30
0.000000
  70
    32
  0
VERTEX
  8
0
  5
A4C9
 10
391.526
 20
637.975
 30
0.000000
  70
    32
  0
VERTEX
  8
0
  5
A4CA
 10
391.518
 20
637.985
 30
0.000000
  70
    32
  0
VERTEX
  8
0
  5
A4CB
 10
391.510
 20
637.994
 30
0.000000
  70
    32
  0
VERTEX
  8
0
  5
A4CC
 10
391.501
 20
638.003
 30
0.000000
  70
    32
  0
VERTEX
  8
0
  5
A4CD
 10
391.493
 20
638.011
 30
0.000000
  70
    32
  0
VERTEX
  8
0
  5
A4CE
 10
391.484
 20
638.020
 30
0.000000
  70
    32
  0
VERTEX
  8
0
  5
A4CF
 10
391.475
 20
638.029
 30
0.000000
  70
    32
  0
VERTEX
  8
0
  5
A4D0
 10
391.467
 20
638.037
 30
0.000000
  70
    32
  0
VERTEX
  8
0
  5
A4D1
 10
391.458
 20
638.046
 30
0.000000
  70
    32
  0
VERTEX
  8
0
  5
A4D2
 10
391.449
 20
638.054
 30
0.000000
  70
    32
  0
VERTEX
  8
0
  5
A4D3
 10
391.440
 20
638.062
 30
0.000000
  70
    32
  0
VERTEX
  8
0
  5
A4D4
 10
391.430
 20
638.070
 30
0.000000
  70
    32
  0
VERTEX
  8
0
  5
A4D5
 10
391.421
 20
638.078
 30
0.000000
  70
    32
  0
VERTEX
  8
0
  5
A4D6
 10
391.411
 20
638.086
 30
0.000000
  70
    32
  0
VERTEX
  8
0
  5
A4D7
 10
391.402
 20
638.094
 30
0.000000
  70
    32
  0
VERTEX
  8
0
  5
A4D8
 10
391.392
 20
638.101
 30
0.000000
  70
    32
  0
VERTEX
  8
0
  5
A4D9
 10
391.383
 20
638.109
 30
0.000000
  70
    32
  0
VERTEX
  8
0
  5
A4DA
 10
391.373
 20
638.116
 30
0.000000
  70
    32
  0
VERTEX
  8
0
  5
A4DB
 10
391.363
 20
638.124
 30
0.000000
  70
    32
  0
VERTEX
  8
0
  5
A4DC
 10
391.353
 20
638.131
 30
0.000000
  70
    32
  0
VERTEX
  8
0
  5
A4DD
 10
391.343
 20
638.138
 30
0.000000
  70
    32
  0
VERTEX
  8
0
  5
A4DE
 10
391.333
 20
638.145
 30
0.000000
  70
    32
  0
VERTEX
  8
0
  5
A4DF
 10
391.322
 20
638.151
 30
0.000000
  70
    32
  0
VERTEX
  8
0
  5
A4E0
 10
391.312
 20
638.158
 30
0.000000
  70
    32
  0
VERTEX
  8
0
  5
A4E1
 10
391.302
 20
638.164
 30
0.000000
  70
    32
  0
VERTEX
  8
0
  5
A4E2
 10
391.291
 20
638.171
 30
0.000000
  70
    32
  0
VERTEX
  8
0
  5
A4E3
 10
391.281
 20
638.177
 30
0.000000
  70
    32
  0
VERTEX
  8
0
  5
A4E4
 10
391.270
 20
638.183
 30
0.000000
  70
    32
  0
VERTEX
  8
0
  5
A4E5
 10
391.259
 20
638.189
 30
0.000000
  70
    32
  0
VERTEX
  8
0
  5
A4E6
 10
391.248
 20
638.195
 30
0.000000
  70
    32
  0
VERTEX
  8
0
  5
A4E7
 10
391.238
 20
638.201
 30
0.000000
  70
    32
  0
VERTEX
  8
0
  5
A4E8
 10
391.227
 20
638.206
 30
0.000000
  70
    32
  0
VERTEX
  8
0
  5
A4E9
 10
391.216
 20
638.212
 30
0.000000
  70
    32
  0
VERTEX
  8
0
  5
A4EA
 10
391.205
 20
638.217
 30
0.000000
  70
    32
  0
VERTEX
  8
0
  5
A4EB
 10
391.194
 20
638.222
 30
0.000000
  70
    32
  0
VERTEX
  8
0
  5
A4EC
 10
391.182
 20
638.227
 30
0.000000
  70
    32
  0
VERTEX
  8
0
  5
A4ED
 10
391.171
 20
638.232
 30
0.000000
  70
    32
  0
VERTEX
  8
0
  5
A4EE
 10
391.160
 20
638.237
 30
0.000000
  70
    32
  0
VERTEX
  8
0
  5
A4EF
 10
391.148
 20
638.242
 30
0.000000
  70
    32
  0
VERTEX
  8
0
  5
A4F0
 10
391.137
 20
638.246
 30
0.000000
  70
    32
  0
VERTEX
  8
0
  5
A4F1
 10
391.126
 20
638.250
 30
0.000000
  70
    32
  0
VERTEX
  8
0
  5
A4F2
 10
391.114
 20
638.255
 30
0.000000
  70
    32
  0
VERTEX
  8
0
  5
A4F3
 10
391.102
 20
638.259
 30
0.000000
  70
    32
  0
VERTEX
  8
0
  5
A4F4
 10
391.091
 20
638.263
 30
0.000000
  70
    32
  0
VERTEX
  8
0
  5
A4F5
 10
391.079
 20
638.266
 30
0.000000
  70
    32
  0
VERTEX
  8
0
  5
A4F6
 10
391.067
 20
638.270
 30
0.000000
  70
    32
  0
VERTEX
  8
0
  5
A4F7
 10
391.056
 20
638.274
 30
0.000000
  70
    32
  0
VERTEX
  8
0
  5
A4F8
 10
391.044
 20
638.277
 30
0.000000
  70
    32
  0
VERTEX
  8
0
  5
A4F9
 10
391.032
 20
638.280
 30
0.000000
  70
    32
  0
VERTEX
  8
0
  5
A4FA
 10
391.020
 20
638.283
 30
0.000000
  70
    32
  0
VERTEX
  8
0
  5
A4FB
 10
391.008
 20
638.286
 30
0.000000
  70
    32
  0
VERTEX
  8
0
  5
A4FC
 10
390.996
 20
638.289
 30
0.000000
  70
    32
  0
VERTEX
  8
0
  5
A4FD
 10
390.984
 20
638.291
 30
0.000000
  70
    32
  0
VERTEX
  8
0
  5
A4FE
 10
390.972
 20
638.294
 30
0.000000
  70
    32
  0
VERTEX
  8
0
  5
A4FF
 10
390.960
 20
638.296
 30
0.000000
  70
    32
  0
VERTEX
  8
0
  5
A500
 10
390.948
 20
638.298
 30
0.000000
  70
    32
  0
VERTEX
  8
0
  5
A501
 10
390.936
 20
638.300
 30
0.000000
  70
    32
  0
VERTEX
  8
0
  5
A502
 10
390.924
 20
638.302
 30
0.000000
  70
    32
  0
VERTEX
  8
0
  5
A503
 10
390.912
 20
638.304
 30
0.000000
  70
    32
  0
VERTEX
  8
0
  5
A504
 10
390.900
 20
638.306
 30
0.000000
  70
    32
  0
VERTEX
  8
0
  5
A505
 10
390.887
 20
638.307
 30
0.000000
  70
    32
  0
VERTEX
  8
0
  5
A506
 10
390.875
 20
638.308
 30
0.000000
  70
    32
  0
VERTEX
  8
0
  5
A507
 10
390.863
 20
638.309
 30
0.000000
  70
    32
  0
VERTEX
  8
0
  5
A508
 10
390.851
 20
638.310
 30
0.000000
  70
    32
  0
VERTEX
  8
0
  5
A509
 10
390.838
 20
638.311
 30
0.000000
  70
    32
  0
VERTEX
  8
0
  5
A50A
 10
390.826
 20
638.312
 30
0.000000
  70
    32
  0
VERTEX
  8
0
  5
A50B
 10
390.814
 20
638.312
 30
0.000000
  70
    32
  0
VERTEX
  8
0
  5
A50C
 10
390.802
 20
638.313
 30
0.000000
  70
    32
  0
VERTEX
  8
0
  5
A50D
 10
390.789
 20
638.313
 30
0.000000
  70
    32
  0
VERTEX
  8
0
  5
A50E
 10
390.777
 20
638.313
 30
0.000000
  70
    32
  0
SEQEND
  8
0
  5
A50F
  0
LINE
  5
95D1
  8
0
 10
309.50197684542547
 20
625.81282213659165
 30
0.0
 11
299.50197684542547
 21
625.81282213659165
 31
0.0
  0
LINE
  5
95D2
  8
0
 10
387.27710284542547
 20
638.31307213659159
 30
0.0
 11
387.27710284542547
 21
640.81312213659157
 31
0.0
  0
LINE
  5
95D3
  8
0
 10
320.27710284542547
 20
638.31307213659159
 30
0.0
 11
320.27710284542547
 21
640.81312213659157
 31
0.0
  0
LINE
  5
95D4
  8
0
 10
256.77710284542547
 20
848.8131221365918
 30
0.0
 11
256.77710284542547
 21
842.8131221365918
 31
0.0
  0
LINE
  5
95D5
  8
0
 10
232.2771028454255
 20
849.8131221365918
 30
0.0
 11
232.2771028454255
 21
839.8131221365918
 31
0.0
  0
LINE
  5
95D6
  8
0
 10
243.2771028454255
 20
849.8131221365918
 30
0.0
 11
243.2771028454255
 21
839.8131221365918
 31
0.0
  0
LINE
  5
95D7
  8
0
 10
243.2771028454255
 20
848.8131221365918
 30
0.0
 11
256.77710284542547
 21
848.8131221365918
 31
0.0
  0
LINE
  5
95D8
  8
0
 10
232.2771028454255
 20
849.8131221365918
 30
0.0
 11
243.2771028454255
 21
849.8131221365918
 31
0.0
  0
LINE
  5
95D9
  8
0
 10
154.6771288454255
 20
642.81308113659168
 30
0.0
 11
232.27709884542551
 21
642.81307813659168
 31
0.0
  0
LINE
  5
95DA
  8
0
 10
154.6771288454255
 20
636.81308113659156
 30
0.0
 11
232.27709884542551
 21
636.81307813659157
 31
0.0
  0
LINE
  5
95DB
  8
0
 10
232.27709884542551
 20
635.81307813659157
 30
0.0
 11
232.27709884542551
 21
645.81307813659157
 31
0.0
  0
LINE
  5
95DC
  8
0
 10
232.27709884542551
 20
635.81307813659157
 30
0.0
 11
243.27709884542551
 21
635.81307813659157
 31
0.0
  0
LINE
  5
95DD
  8
0
 10
243.27709884542551
 20
635.81307813659157
 30
0.0
 11
243.27709884542551
 21
645.81307813659157
 31
0.0
  0
LINE
  5
95DE
  8
0
 10
243.27709884542551
 20
636.81307813659157
 30
0.0
 11
256.77709884542548
 21
636.81307813659157
 31
0.0
  0
LINE
  5
95DF
  8
0
 10
256.77709884542548
 20
636.81307813659157
 30
0.0
 11
256.77709884542548
 21
642.81307813659168
 31
0.0
  0
LINE
  5
95E0
  8
0
 10
243.27709884542551
 20
642.81307813659168
 30
0.0
 11
256.77709884542548
 21
642.81307813659168
 31
0.0
  0
LINE
  5
95E1
  8
0
 10
254.2771028454255
 20
750.45689313659182
 30
0.0
 11
259.77710284542547
 21
750.45689313659182
 31
0.0
  0
LINE
  5
95E2
  8
0
 10
254.27710284542519
 20
750.79097113659168
 30
0.0
 11
260.45710284542548
 21
750.79097113659168
 31
0.0
  0
LINE
  5
95E3
  8
0
 10
261.77710284542547
 20
748.45689313659182
 30
0.0
 11
261.77710284542547
 21
742.81312613659168
 31
0.0
  0
LINE
  5
95E4
  8
0
 10
263.4571028454256
 20
753.79097113659191
 30
0.0
 11
263.4571028454256
 21
742.81312613659168
 31
0.0
  0
ARC
  5
95E5
  8
0
 10
260.45710284542548
 20
753.79097113659191
 30
0.0
 40
3.0
 50
270.0
 51
0.0
  0
LINE
  5
95E6
  8
0
 10
254.2771028454255
 20
735.16935813659177
 30
0.0
 11
259.77710284542547
 21
735.16935813659177
 31
0.0
  0
LINE
  5
95E7
  8
0
 10
254.27710284542519
 20
734.83528058834622
 30
0.0
 11
260.45710284542548
 21
734.83528013659168
 31
0.0
  0
LINE
  5
95E8
  8
0
 10
261.77710284542547
 20
737.16935813659165
 30
0.0
 11
261.77710284542547
 21
742.81312613659168
 31
0.0
  0
LINE
  5
95E9
  8
0
 10
263.4571028454256
 20
731.83528013659179
 30
0.0
 11
263.4571028454256
 21
742.81312613659168
 31
0.0
  0
ARC
  5
95EA
  8
0
 10
260.45710284542548
 20
731.83528013659179
 30
0.0
 40
3.0
 50
359.99999799999722
 51
89.999997999997177
  0
LINE
  5
95F0
  8
0
  6
CONTINUOUS
 62
     0
 10
460.77704284542563
 20
826.67677113659181
 30
0.0
 11
475.9516028454255
 21
826.84296213659161
 31
0.0
  0
ARC
  5
95F1
  8
0
  6
CONTINUOUS
 62
     0
 10
475.77710284542542
 20
831.8399721365912
 30
0.0
 40
5.0
 50
272.00000000000369
 51
0.0
  0
LINE
  5
95F3
  8
0
 62
     0
 10
460.77718284542573
 20
520.02514502618305
 30
0.0
 11
480.77719284542582
 21
520.02514502618305
 31
0.0
1001
GENIUS_GENODEF_13
1002
{
1000
HIER
1070
     0
1002
}
1002
{
1000
MANEDIT
1070
     0
1002
}
1002
{
1000
NOSEL
1070
     0
1002
}
1002
{
1000
BEHIND
1070
     0
1002
}
1002
{
1000
OTHER
1070
     0
1002
}
1002
{
1000
REACTOR
1002
}
1001
GENIUS_GENOBJ-N-CEN_13
1002
{
1000
OWNER
1000
GEN
1002
}
1001
GENIUS_GENCEN_19
1002
{
1040
2.7939999999999978
1002
}
  0
LINE
  5
95F4
  8
0
 62
     0
 10
460.77718284542573
 20
511.90114002618321
 30
0.0
 11
480.77719284542582
 21
511.90114002618321
 31
0.0
1001
GENIUS_GENODEF_13
1002
{
1000
HIER
1070
     0
1002
}
1002
{
1000
MANEDIT
1070
     0
1002
}
1002
{
1000
NOSEL
1070
     0
1002
}
1002
{
1000
BEHIND
1070
     0
1002
}
1002
{
1000
OTHER
1070
     0
1002
}
1002
{
1000
REACTOR
1002
}
1001
GENIUS_GENOBJ-N-CEN_13
1002
{
1000
OWNER
1000
GEN
1002
}
1001
GENIUS_GENCEN_19
1002
{
1040
2.7939999999999978
1002
}
  0
LINE
  5
95F5
  8
0
 62
     0
 10
460.77718284542573
 20
498.22742902618279
 30
0.0
 11
480.77719284542582
 21
498.22742902618279
 31
0.0
1001
GENIUS_GENOBJ-N-CEN_13
1002
{
1000
OWNER
1000
GEN
1002
}
1001
GENIUS_GENODEF_13
1002
{
1000
HIER
1070
     0
1002
}
1002
{
1000
MANEDIT
1070
     0
1002
}
1002
{
1000
NOSEL
1070
     0
1002
}
1002
{
1000
BEHIND
1070
     0
1002
}
1002
{
1000
OTHER
1070
     0
1002
}
1002
{
1000
REACTOR
1002
}
1001
GENIUS_GENCEN_19
1002
{
1040
2.7939999999999978
1002
}
  0
LINE
  5
95F6
  8
0
 62
     0
 10
460.77718284542573
 20
396.43879002618331
 30
0.0
 11
480.77719284542582
 21
396.43879002618331
 31
0.0
1001
GENIUS_GENOBJ-N-CEN_13
1002
{
1000
OWNER
1000
GEN
1002
}
1001
GENIUS_GENODEF_13
1002
{
1000
HIER
1070
     0
1002
}
1002
{
1000
MANEDIT
1070
     0
1002
}
1002
{
1000
NOSEL
1070
     0
1002
}
1002
{
1000
BEHIND
1070
     0
1002
}
1002
{
1000
OTHER
1070
     0
1002
}
1002
{
1000
REACTOR
1002
}
1001
GENIUS_GENCEN_19
1002
{
1040
2.7939999999999978
1002
}
  0
LINE
  5
95F9
  8
0
 62
     0
 10
460.77718284542573
 20
386.25949802618339
 30
0.0
 11
480.77719284542587
 21
386.25949802618339
 31
0.0
1001
GENIUS_GENOBJ-N-CEN_13
1002
{
1000
OWNER
1000
GEN
1002
}
1001
GENIUS_GENODEF_13
1002
{
1000
HIER
1070
     0
1002
}
1002
{
1000
MANEDIT
1070
     0
1002
}
1002
{
1000
NOSEL
1070
     0
1002
}
1002
{
1000
BEHIND
1070
     0
1002
}
1002
{
1000
OTHER
1070
     0
1002
}
1002
{
1000
REACTOR
1002
}
1001
GENIUS_GENCEN_19
1002
{
1040
2.7939999999999978
1002
}
  0
LINE
  5
95FA
  8
0
 62
     0
 10
460.77718284542573
 20
373.97221702618339
 30
0.0
 11
480.77719284542587
 21
373.97221702618339
 31
0.0
1001
GENIUS_GENOBJ-N-CEN_13
1002
{
1000
OWNER
1000
GEN
1002
}
1001
GENIUS_GENODEF_13
1002
{
1000
HIER
1070
     0
1002
}
1002
{
1000
MANEDIT
1070
     0
1002
}
1002
{
1000
NOSEL
1070
     0
1002
}
1002
{
1000
BEHIND
1070
     0
1002
}
1002
{
1000
OTHER
1070
     0
1002
}
1002
{
1000
REACTOR
1002
}
1001
GENIUS_GENCEN_19
1002
{
1040
2.7939999999999978
1002
}
  0
LINE
  5
998A
  8
0
  6
CONTINUOUS
 62
     7
 10
490.77711284542579
 20
643.31312213659169
 30
0.0
 11
490.77711284542579
 21
842.31312213659169
 31
0.0
  0
LINE
  5
998B
  8
0
  6
CONTINUOUS
 62
     7
 10
483.67244284542568
 20
643.56123213659157
 30
0.0
 11
490.77705284542571
 21
643.31312213659169
 31
0.0
  0
LINE
  5
998C
  8
0
  6
CONTINUOUS
 62
     7
 10
480.77711284542568
 20
646.55939213659167
 30
0.0
 11
480.77711284542568
 21
839.06684213659173
 31
0.0
  0
LINE
  5
998D
  8
0
  6
CONTINUOUS
 62
     7
 10
483.67238284542577
 20
842.0650121365918
 30
0.0
 11
490.77705284542571
 21
842.31312213659169
 31
0.0
  0
LINE
  5
9995
  8
0
  6
CONTINUOUS
 62
     7
 10
620.77714284542571
 20
737.8131221365918
 30
0.0
 11
665.77717284542575
 21
737.8131221365918
 31
0.0
  0
LINE
  5
9996
  8
0
  6
CONTINUOUS
 62
     7
 10
620.77714284542571
 20
747.81312213659169
 30
0.0
 11
665.77717284542575
 21
747.81312213659169
 31
0.0
  0
LINE
  5
9997
  8
0
  6
CONTINUOUS
 62
     7
 10
620.77714284542571
 20
747.81312213659169
 30
0.0
 11
620.77714284542571
 21
737.8131221365918
 31
0.0
  0
LINE
  5
9998
  8
0
  6
CONTINUOUS
 62
     7
 10
603.77714284542571
 20
637.81309213659188
 30
0.0
 11
607.77714284542571
 21
637.81309213659188
 31
0.0
  0
LINE
  5
9999
  8
0
  6
CONTINUOUS
 62
     7
 10
588.77714284542549
 20
628.73399213659172
 30
0.0
 11
588.77714284542549
 21
856.89222213659161
 31
0.0
  0
LINE
  5
999A
  8
0
  6
CONTINUOUS
 62
     7
 10
582.83595284542571
 20
846.87196213659183
 30
0.0
 11
588.77714284542549
 21
852.81312213659135
 31
0.0
  0
LINE
  5
999B
  8
0
  6
CENTER
 62
     7
 10
613.25911284542565
 20
647.35371213659175
 30
0.0
 11
582.17314284542556
 21
647.35371213659175
 31
0.0
  0
LINE
  5
999C
  8
0
  6
CONTINUOUS
 62
     7
 10
490.77711284542579
 20
842.31312213659169
 30
0.0
 11
579.47490284542573
 21
845.41047213659192
 31
0.0
  0
LINE
  5
999D
  8
0
  6
CENTER
 62
     7
 10
613.25911284542565
 20
838.2725921365917
 30
0.0
 11
582.17314284542556
 21
838.2725921365917
 31
0.0
  0
LINE
  5
999E
  8
0
  6
CONTINUOUS
 62
     7
 10
595.77714284542571
 20
652.21339213659166
 30
0.0
 11
595.77714284542571
 21
833.41285213659114
 31
0.0
  0
LINE
  5
999F
  8
0
  6
CONTINUOUS
 62
     7
 10
591.67247284542577
 20
859.89039213659146
 30
0.0
 11
603.77714284542571
 21
860.3131221365918
 31
0.0
  0
LINE
  5
99A0
  8
0
  6
CONTINUOUS
 62
     7
 10
603.77714284542571
 20
625.31312213659169
 30
0.0
 11
603.77714284542571
 21
860.3131221365918
 31
0.0
  0
LINE
  5
99A1
  8
0
  6
CONTINUOUS
 62
     7
 10
591.77714284542571
 20
798.72388213659178
 30
0.0
 11
595.77714284542571
 21
798.72388213659178
 31
0.0
  0
LINE
  5
99A2
  8
0
  6
CONTINUOUS
 62
     7
 10
592.49260284542572
 20
836.40473213659186
 30
0.0
 11
592.6724128454257
 21
836.41102213659144
 31
0.0
  0
LINE
  5
99A3
  8
0
  6
CONTINUOUS
 62
     7
 10
603.77714284542571
 20
847.8131221365918
 30
0.0
 11
607.77714284542571
 21
847.8131221365918
 31
0.0
  0
LINE
  5
99A4
  8
0
  6
CONTINUOUS
 62
     7
 10
607.77714284542571
 20
637.81309213659188
 30
0.0
 11
607.77714284542571
 21
847.8131221365918
 31
0.0
  0
LINE
  5
99A5
  8
0
  6
CONTINUOUS
 62
     7
 10
591.77714284542571
 20
686.90238213659165
 30
0.0
 11
595.77714284542571
 21
686.90238213659165
 31
0.0
  0
LINE
  5
99A6
  8
0
  6
CONTINUOUS
 62
     7
 10
665.77717284542575
 20
726.81315213659184
 30
0.0
 11
665.77717284542575
 21
758.8131221365918
 31
0.0
  0
LINE
  5
99A7
  8
0
  6
CONTINUOUS
 62
     7
 10
665.77717284542575
 20
726.81315213659184
 30
0.0
 11
607.77714284542571
 21
726.81315213659184
 31
0.0
  0
LINE
  5
99A8
  8
0
  6
CONTINUOUS
 62
     7
 10
591.67247284542577
 20
625.73582213659165
 30
0.0
 11
603.77714284542571
 21
625.31312213659169
 31
0.0
  0
LINE
  5
99A9
  8
0
  6
CONTINUOUS
 62
     7
 10
665.77717284542575
 20
758.8131221365918
 30
0.0
 11
607.77714284542571
 21
758.8131221365918
 31
0.0
  0
LINE
  5
99AA
  8
0
  6
CONTINUOUS
 62
     7
 10
592.49260284542572
 20
649.22150213659165
 30
0.0
 11
592.67244284542573
 21
649.21522213659125
 31
0.0
  0
LINE
  5
99AB
  8
0
  6
CONTINUOUS
 62
     7
 10
490.77717284542592
 20
643.31312213659169
 30
0.0
 11
579.47490284542573
 21
640.21574213659176
 31
0.0
  0
LINE
  5
99AC
  8
0
  6
CONTINUOUS
 62
     7
 10
582.83592284542567
 20
638.75431213659169
 30
0.0
 11
588.77717284542575
 21
632.81309213659165
 31
0.0
  0
ARC
  5
99AD
  8
0
  6
CONTINUOUS
 62
     7
 10
483.77711284542568
 20
646.55939213659167
 30
0.0
 40
3.0
 50
180.000010000001
 51
267.99999999999619
  0
ARC
  5
99AE
  8
0
  6
CONTINUOUS
 62
     7
 10
483.77711284542568
 20
839.06684213659173
 30
0.0
 40
3.0
 50
91.999998000000545
 51
180.000010000001
  0
ARC
  5
99B1
  8
0
  6
CONTINUOUS
 62
     7
 10
620.77714284542571
 20
742.8131221365918
 30
0.0
 40
5.0
 50
90.00000299999769
 51
270.0
  0
ARC
  5
99B2
  8
0
  6
CONTINUOUS
 62
     7
 10
579.30040284542565
 20
850.40748213659197
 30
0.0
 40
5.0
 50
272.00000000000369
 51
315.0
  0
ARC
  5
99B3
  8
0
  6
CONTINUOUS
 62
     7
 10
591.77714284542571
 20
628.73399213659172
 30
0.0
 40
3.0
 50
179.999989999999
 51
268.00000999999861
  0
ARC
  5
99B4
  8
0
  6
CONTINUOUS
 62
     7
 10
591.77714284542571
 20
801.72388213659156
 30
0.0
 40
3.0
 50
179.999989999999
 51
270.0
  0
ARC
  5
99B5
  8
0
  6
CONTINUOUS
 62
     7
 10
591.77714284542571
 20
683.90238213659165
 30
0.0
 40
3.0
 50
90.00000299999769
 51
180.000010000001
  0
ARC
  5
99B6
  8
0
  6
CONTINUOUS
 62
     7
 10
591.77714284542571
 20
856.89222213659161
 30
0.0
 40
3.0
 50
91.999998000000545
 51
180.000010000001
  0
ARC
  5
99B7
  8
0
  6
CONTINUOUS
 62
     7
 10
592.77714284542549
 20
833.41285213659114
 30
0.0
 40
3.0
 50
0.0
 51
91.999998000000545
  0
ARC
  5
99B8
  8
0
  6
CONTINUOUS
 62
     7
 10
592.77714284542549
 20
652.21339213659166
 30
0.0
 40
3.0
 50
267.99999999999619
 51
0.0
  0
ARC
  5
99B9
  8
0
  6
CONTINUOUS
 62
     7
 10
579.30040284542565
 20
635.21876213659175
 30
0.0
 40
5.0
 50
45.000001000003799
 51
87.999999999996248
  0
POLYLINE
  5
99BA
  8
0
  6
CONTINUOUS
 62
     7
 66
     1
 10
0.0
 20
0.0
 30
0.0
  0
VERTEX
  5
99BB
  8
0
  6
CONTINUOUS
 62
     7
 10
581.44325284542572
 20
845.47925213659164
 30
0.0
 42
0.07982674
  0
VERTEX
  5
99BC
  8
0
  6
CONTINUOUS
 62
     7
 10
555.60142284542565
 20
778.57280213659146
 30
0.0
 42
0.10414855
  0
VERTEX
  5
99BD
  8
0
  6
CONTINUOUS
 62
     7
 10
555.60149284542558
 20
707.0530721365916
 30
0.0
 42
0.07982627
  0
VERTEX
  5
99BE
  8
0
  6
CONTINUOUS
 62
     7
 10
581.44325284542572
 20
640.14698213659176
 30
0.0
  0
SEQEND
  5
99BF
  8
0
 62
     7
  0
ARC
  5
99D6
  8
0
 62
     0
 10
482.77717284542638
 20
338.77695651865349
 30
0.0
 40
2.00000007
 50
179.999989999999
 51
250.93460000001289
  0
ARC
  5
99D7
  8
0
 62
     0
 10
452.17076860102009
 20
341.06583302618333
 30
0.0
 40
2.0
 50
270.0
 51
353.32779772930388
1001
GENIUS_GENOBJ-N-FIL_13
1002
{
1000
OWNER
1000
GEN
1002
}
1001
GENIUS_GENODEF_13
1002
{
1000
HIER
1070
     0
1002
}
1002
{
1000
MANEDIT
1070
     0
1002
}
1002
{
1000
NOSEL
1070
     0
1002
}
1002
{
1000
BEHIND
1070
     0
1002
}
1002
{
1000
OTHER
1070
     0
1002
}
1002
{
1000
REACTOR
1002
}
  0
ARC
  5
99D8
  8
0
 62
     0
 10
452.1913569779997
 20
339.87500302618332
 30
0.0
 40
2.0
 50
270.0
 51
353.11675587243599
1001
GENIUS_GENOBJ-N-FIL_13
1002
{
1000
OWNER
1000
GEN
1002
}
1001
GENIUS_GENODEF_13
1002
{
1000
HIER
1070
     0
1002
}
1002
{
1000
MANEDIT
1070
     0
1002
}
1002
{
1000
NOSEL
1070
     0
1002
}
1002
{
1000
BEHIND
1070
     0
1002
}
1002
{
1000
OTHER
1070
     0
1002
}
1002
{
1000
REACTOR
1002
}
  0
LINE
  5
9A1D
  8
0
  6
CONTINUOUS
 62
     7
 10
665.77717284542575
 20
480.3266005337133
 30
0.0
 11
607.77717284542575
 21
480.3266005337133
 31
0.0
  0
LINE
  5
9A1E
  8
0
  6
CONTINUOUS
 62
     7
 10
665.77717284542575
 20
483.3266005337133
 30
0.0
 11
620.77714284542571
 21
483.3266005337133
 31
0.0
  0
LINE
  5
9A1F
  8
0
  6
CONTINUOUS
 62
     7
 10
603.77717284542575
 20
569.32663053371311
 30
0.0
 11
607.77717284542575
 21
569.32663053371311
 31
0.0
  0
LINE
  5
9A20
  8
0
  6
CONTINUOUS
 62
     7
 10
607.77717284542575
 20
359.32661853371337
 30
0.0
 11
607.77717284542575
 21
569.32663053371311
 31
0.0
  0
LINE
  5
9A21
  8
0
  6
CONTINUOUS
 62
     7
 10
592.49263284542565
 20
557.91825053371315
 30
0.0
 11
592.67247284542566
 21
557.92450053371306
 31
0.0
  0
LINE
  5
9A22
  8
0
  6
CONTINUOUS
 62
     7
 10
576.66505284542575
 20
513.36365053371333
 30
0.0
 11
572.24430284542575
 21
470.75977053371309
 31
0.0
  0
LINE
  5
9A23
  8
0
  6
CONTINUOUS
 62
     7
 10
480.77717284542581
 20
375.94636953371338
 30
0.0
 11
587.04066284542557
 21
375.94636953371338
 31
0.0
  0
LINE
  5
9A24
  8
0
  6
CENTER
 62
     7
 10
613.12230284542568
 20
368.86719953371329
 30
0.0
 11
585.39940284542604
 21
368.86719953371329
 31
0.0
  0
LINE
  5
9A25
  8
0
  6
CONTINUOUS
 62
     7
 10
665.77717284542575
 20
448.32662053371308
 30
0.0
 11
607.77717284542575
 21
448.32662053371308
 31
0.0
  0
LINE
  5
9A2A
  8
0
  6
CONTINUOUS
 62
     7
 10
620.77714284542571
 20
480.3266005337133
 30
0.0
 11
620.77714284542571
 21
483.3266005337133
 31
0.0
  0
LINE
  5
9A2F
  8
0
  6
CONTINUOUS
 62
     7
 10
665.77717284542575
 20
448.32662053371308
 30
0.0
 11
665.77717284542575
 21
483.3266005337133
 31
0.0
  0
LINE
  5
9A31
  8
0
  6
CONTINUOUS
 62
     7
 10
551.87715284542571
 20
537.42656053371343
 30
0.0
 11
559.10734284542582
 21
536.26531053371332
 31
0.0
  0
LINE
  5
9A32
  8
0
  6
CONTINUOUS
 62
     7
 10
591.77717284542575
 20
402.63734053371343
 30
0.0
 11
595.77717284542575
 21
402.63734053371343
 31
0.0
  0
LINE
  5
9A33
  8
0
  6
CONTINUOUS
 62
     7
 10
591.77717284542575
 20
432.56237053371308
 30
0.0
 11
595.77717284542575
 21
432.56237053371308
 31
0.0
  0
LINE
  5
9A34
  8
0
  6
CONTINUOUS
 62
     7
 10
591.77717284542575
 20
520.23735053371342
 30
0.0
 11
595.77717284542575
 21
520.23735053371342
 31
0.0
  0
LINE
  5
9A35
  8
0
  6
CONTINUOUS
 62
     7
 10
576.01411284542564
 20
334.59460553371338
 30
0.0
 11
596.77717284542575
 21
346.5821695337134
 31
0.0
  0
LINE
  5
9A36
  8
0
  6
CONTINUOUS
 62
     7
 10
480.77717284542581
 20
515.53104053371305
 30
0.0
 11
575.77064284542575
 21
515.53104053371305
 31
0.0
  0
LINE
  5
9A37
  8
0
  6
CONTINUOUS
 62
     7
 10
588.77717284542575
 20
435.56237053371342
 30
0.0
 11
588.77717284542575
 21
523.2373505337132
 31
0.0
  0
LINE
  5
9A38
  8
0
  6
CONTINUOUS
 62
     7
 10
588.77717284542575
 20
349.40939753371339
 30
0.0
 11
588.77717284542575
 21
399.63734053371343
 31
0.0
  0
LINE
  5
9A3D
  8
0
  6
CONTINUOUS
 62
     7
 10
490.77717284542581
 20
336.8266075337134
 30
0.0
 11
490.77717284542581
 21
535.82660053371319
 31
0.0
  0
LINE
  5
9A3E
  8
0
  6
CONTINUOUS
 62
     7
 10
480.77717284542581
 20
355.90882553371341
 30
0.0
 11
587.04066284542557
 21
355.90882553371341
 31
0.0
  0
LINE
  5
9A3F
  8
0
  6
CONTINUOUS
 62
     7
 10
603.77717284542575
 20
346.82661153371339
 30
0.0
 11
603.77717284542575
 21
464.3266005337133
 31
0.0
  0
LINE
  5
9A40
  8
0
  6
CONTINUOUS
 62
     7
 10
603.77717284542575
 20
464.3266005337133
 30
0.0
 11
603.77717284542575
 21
581.82660053371319
 31
0.0
  0
LINE
  5
9A41
  8
0
  6
CONTINUOUS
 62
     7
 10
603.77717284542575
 20
359.32661853371337
 30
0.0
 11
607.77717284542575
 21
359.32661853371337
 31
0.0
  0
LINE
  5
9A42
  8
0
  6
CONTINUOUS
 62
     7
 10
595.77717284542575
 20
464.3266005337133
 30
0.0
 11
595.77717284542575
 21
554.92633053371333
 31
0.0
  0
LINE
  5
9A43
  8
0
  6
CONTINUOUS
 62
     7
 10
591.67247284542577
 20
581.40390053371323
 30
0.0
 11
603.77717284542575
 21
581.82660053371319
 31
0.0
  0
LINE
  5
9A44
  8
0
  6
CONTINUOUS
 62
     7
 10
591.06175284542564
 20
369.89690853371337
 30
0.0
 11
592.88188284542559
 21
369.96046853371331
 31
0.0
  0
LINE
  5
9A45
  8
0
  6
CONTINUOUS
 62
     7
 10
595.77717284542575
 20
372.95863753371339
 30
0.0
 11
595.77717284542575
 21
464.3266005337133
 31
0.0
  0
LINE
  5
9A46
  8
0
  6
CENTER
 62
     7
 10
612.5991028454257
 20
559.78601053371335
 30
0.0
 11
584.34520284542566
 21
559.78601053371335
 31
0.0
  0
LINE
  5
9A47
  8
0
  6
CONTINUOUS
 62
     7
 10
591.88188284542571
 20
346.41122153371339
 30
0.0
 11
603.77714284542571
 21
346.82661153371339
 31
0.0
  0
LINE
  5
9A48
  8
0
  6
CONTINUOUS
 62
     7
 10
490.77717284542581
 20
336.82661153371339
 30
0.0
 11
576.01408284542572
 21
334.59460553371338
 31
0.0
  0
LINE
  5
9A49
  8
0
  6
CONTINUOUS
 62
     7
 10
490.77717284542581
 20
535.82662053371314
 30
0.0
 11
549.88301284542558
 21
537.37436053371334
 31
0.0
  0
LINE
  5
9A4A
  8
0
  6
CONTINUOUS
 62
     7
 10
553.28767284542573
 20
538.83713053371343
 30
0.0
 11
588.77717284542575
 21
574.32663053371323
 31
0.0
  0
LINE
  5
9A4B
  8
0
  6
CONTINUOUS
 62
     7
 10
588.77717284542575
 20
523.2373505337132
 30
0.0
 11
588.77717284542575
 21
578.40574053371324
 31
0.0
  0
LINE
  5
9A4C
  8
0
  6
CONTINUOUS
 62
     7
 10
490.77717284542581
 20
466.51192053371312
 30
0.0
 11
490.77876284542572
 21
466.51192053371312
 31
0.0
  0
LINE
  5
9A4D
  8
0
  6
CONTINUOUS
 62
     7
 10
480.77717284542581
 20
339.03678153371339
 30
0.0
 11
480.77717284542581
 21
533.61643053371336
 31
0.0
  0
LINE
  5
9A4E
  8
0
  6
CONTINUOUS
 62
     7
 10
490.77717284542581
 20
535.82662053371314
 30
0.0
 11
482.72480284542559
 21
535.61576053371334
 31
0.0
  0
LINE
  5
9A4F
  8
0
  6
CONTINUOUS
 62
     7
 10
490.77717284542581
 20
336.82661153371339
 30
0.0
 11
482.72487284542558
 21
337.03746853371342
 31
0.0
  0
ARC
  5
9A50
  8
0
  6
CONTINUOUS
 62
     7
 10
549.75215284542571
 20
542.3726205337133
 30
0.0
 40
5.0
 50
271.50000000000267
 51
315.0
  0
ARC
  5
9A51
  8
0
  6
CONTINUOUS
 62
     7
 10
592.77717284542575
 20
554.92633053371333
 30
0.0
 40
3.0
 50
0.0
 51
91.999998000000545
  0
ARC
  5
9A52
  8
0
  6
CONTINUOUS
 62
     7
 10
591.77717284542575
 20
578.40574053371324
 30
0.0
 40
3.0
 50
91.999998000000545
 51
180.0000099999977
  0
ARC
  5
9A53
  8
0
  6
CONTINUOUS
 62
     7
 10
612.03065284542572
 20
466.63137053371338
 30
0.0
 40
40.0
 50
174.0759799999995
 51
234.4553399999995
  0
ARC
  5
9A54
  8
0
  6
CONTINUOUS
 62
     7
 10
591.77717284542575
 20
523.2373505337132
 30
0.0
 40
3.0
 50
179.999989999999
 51
270.0
  0
ARC
  5
9A55
  8
0
  6
CONTINUOUS
 62
     7
 10
592.77717284542575
 20
372.95863753371339
 30
0.0
 40
3.0
 50
271.9999999999971
 51
0.0
  0
ARC
  5
9A56
  8
0
  6
CONTINUOUS
 62
     7
 10
591.77717284542575
 20
435.56237053371342
 30
0.0
 40
3.0
 50
179.999989999999
 51
270.0
  0
ARC
  5
9A57
  8
0
  6
CONTINUOUS
 62
     7
 10
591.77717284542575
 20
399.63734053371343
 30
0.0
 40
3.0
 50
90.00000299999769
 51
180.0000099999977
  0
ARC
  5
9A58
  8
0
  6
CONTINUOUS
 62
     7
 10
555.77717284542575
 20
515.53104053371305
 30
0.0
 40
21.0
 50
354.07597999999962
 51
80.875525000003066
  0
ARC
  5
9A59
  8
0
  6
CONTINUOUS
 62
     7
 10
591.77717284542575
 20
349.40939753371339
 30
0.0
 40
3.0
 50
179.999989999999
 51
271.99999000000139
  0
ARC
  5
9A5A
  8
0
  6
CONTINUOUS
 62
     7
 10
482.77717284542581
 20
533.61643053371336
 30
0.0
 40
2.0
 50
91.500001000001546
 51
180.0000099999977
  0
ARC
  5
9A5B
  8
0
  6
CONTINUOUS
 62
     7
 10
482.77717284542581
 20
339.03678153371339
 30
0.0
 40
2.0
 50
179.999989999999
 51
268.50000999999878
  0
POINT
  5
9C85
  8
AM_0
 10
867.29261870671394
 20
464.3266005337133
 30
0.0
  0
POINT
  5
9C86
  8
AM_0
 10
867.29261870671394
 20
464.3266005337133
 30
0.0
  0
LINE
  5
9C87
  8
AM_0
 10
862.29260270671386
 20
483.3265845337134
 30
0.0
 11
872.29260170671375
 21
483.3265845337134
 31
0.0
  0
LINE
  5
9C88
  8
AM_0
 10
872.29260170671375
 20
475.32661653371338
 30
0.0
 11
872.29260170671375
 21
483.3265845337134
 31
0.0
  0
LINE
  5
9C89
  8
AM_0
 10
862.29260270671386
 20
475.32661653371338
 30
0.0
 11
862.29260270671386
 21
483.3265845337134
 31
0.0
  0
LINE
  5
9C8A
  8
AM_0
 10
862.29260270671386
 20
475.32661653371338
 30
0.0
 11
872.29260170671375
 21
475.32661653371338
 31
0.0
  0
LINE
  5
9C8B
  8
AM_0
 10
920.29261270671361
 20
421.3266135337131
 30
0.0
 11
953.26935170671345
 21
421.3266135337131
 31
0.0
  0
LINE
  5
9C8C
  8
AM_0
 10
833.18867270671365
 20
504.08738853371312
 30
0.0
 11
803.95835570671386
 21
533.31770253371337
 31
0.0
  0
LINE
  5
9C8D
  8
AM_0
 10
814.29259970671376
 20
421.3266135337131
 30
0.0
 11
781.31587070671355
 21
421.3266135337131
 31
0.0
  0
LINE
  5
9C8E
  8
AM_0
 10
819.29260070671364
 20
464.3266005337133
 30
0.0
 11
819.29260070671364
 21
426.32659953371302
 31
0.0
  0
LINE
  5
9C8F
  8
AM_0
 10
749.79261470671372
 20
434.32602809983848
 30
0.0
 11
749.79261470671372
 21
494.32658553371323
 31
0.0
  0
LINE
  5
9C90
  8
AM_0
 10
867.29261870671394
 20
581.82662253371348
 30
0.0
 11
837.29260070671353
 21
581.82662253371348
 31
0.0
  0
LINE
  5
9C91
  8
AM_0
 10
867.29261870671394
 20
346.82659653371343
 30
0.0
 11
837.29260070671353
 21
346.82659653371343
 31
0.0
  0
LINE
  5
9C92
  8
AM_0
 10
749.79261470671372
 20
494.32658553371323
 30
0.0
 11
753.20746970671371
 21
559.48589253371313
 31
0.0
  0
LINE
  5
9C93
  8
AM_0
 10
837.29260070671353
 20
346.82659653371343
 30
0.0
 11
772.13334470671373
 21
350.24145153371342
 31
0.0
  0
LINE
  5
9C94
  8
AM_0
 10
837.29260070671353
 20
581.82662253371348
 30
0.0
 11
772.13334470671373
 21
578.41175253371273
 31
0.0
  0
LINE
  5
9C95
  8
AM_0
 10
984.7926137067135
 20
494.32658553371323
 30
0.0
 11
981.37776170671361
 21
559.48586253371354
 31
0.0
  0
LINE
  5
9C96
  8
AM_0
 10
984.79261070671362
 20
464.3266005337133
 30
0.0
 11
984.79261070671362
 21
434.32660053371342
 31
0.0
  0
LINE
  5
9C97
  8
AM_0
 10
749.79261470671372
 20
434.32602809983848
 30
0.0
 11
753.20743970671367
 21
369.16731153371319
 31
0.0
  0
LINE
  5
9C98
  8
AM_0
 10
827.53181270671371
 20
498.4305285337133
 30
0.0
 11
798.30149570671369
 21
527.66084253371332
 31
0.0
  0
LINE
  5
9C99
  8
AM_0
 10
901.39654670671348
 20
504.08738853371312
 30
0.0
 11
930.62686370671361
 21
533.31770253371337
 31
0.0
  0
LINE
  5
9C9A
  8
AM_0
 10
907.05342170671361
 20
498.4305285337133
 30
0.0
 11
936.28373270671375
 21
527.66084253371332
 31
0.0
  0
LINE
  5
9C9B
  8
0
  6
AM_ISO08W050
 62
     0
 10
952.14544029019532
 20
549.17941067764525
 30
0.0
 11
973.35865412103885
 21
570.39260371798923
 31
0.0
  0
LINE
  5
9C9C
  8
AM_0
 10
897.29261870671371
 20
581.82659253371321
 30
0.0
 11
962.45188370671406
 21
578.41172253371337
 31
0.0
  0
LINE
  5
9C9D
  8
AM_0
 10
867.29261870671394
 20
581.82662253371348
 30
0.0
 11
897.29261870671371
 21
581.82662253371348
 31
0.0
  0
LINE
  5
9C9E
  8
AM_0
 10
897.29260370671375
 20
346.82659653371343
 30
0.0
 11
962.45188370671406
 21
350.24143653371328
 31
0.0
  0
LINE
  5
9C9F
  8
AM_0
 10
984.79261070671362
 20
464.3266005337133
 30
0.0
 11
984.79261070671362
 21
494.32658553371323
 31
0.0
  0
LINE
  5
9CA0
  8
AM_0
 10
984.79261670671383
 20
434.32660053371342
 30
0.0
 11
981.37776470671349
 21
369.16731153371319
 31
0.0
  0
LINE
  5
9CA1
  8
AM_0
 10
867.29261870671394
 20
346.82659653371343
 30
0.0
 11
897.29261870671371
 21
346.82659653371343
 31
0.0
  0
LINE
  5
9CA2
  8
AM_0
 10
864.29261870671371
 20
544.84133253371283
 30
0.0
 11
864.29261870671371
 21
538.65083253371336
 31
0.0
  0
LINE
  5
9CA3
  8
AM_0
 10
870.2926187067136
 20
544.84133253371283
 30
0.0
 11
870.2926187067136
 21
538.65083253371336
 31
0.0
  0
LINE
  5
9CA4
  8
AM_0
 10
915.29261270671361
 20
464.3266005337133
 30
0.0
 11
915.29263760671404
 21
426.32659953371399
 31
0.0
  0
LINE
  5
9CA5
  8
0
  6
AM_ISO08W050
 62
     0
 10
867.29261870671394
 20
331.55586753371313
 30
0.0
 11
867.29261870671394
 21
587.82125183581559
 31
0.0
  0
LINE
  5
9CA6
  8
0
  6
AM_ISO08W050
 62
     0
 10
745.05391820671389
 20
464.3266005337133
 30
0.0
 11
989.53131920671353
 21
464.3266005337133
 31
0.0
  0
CIRCLE
  5
9CA7
  8
AM_0
 10
867.29261870671394
 20
464.3266005337133
 30
0.0
 40
2.75000007
  0
CIRCLE
  5
9CA8
  8
AM_0
 10
867.29261870671394
 20
464.3266005337133
 30
0.0
 40
2.75000007
  0
CIRCLE
  5
9CA9
  8
0
  6
AM_ISO08W050
 62
     0
 10
867.29261870671394
 20
464.3266005337133
 30
0.0
 40
4.000000199999997
  0
CIRCLE
  5
9CAA
  8
AM_0
 10
867.29261870671394
 20
464.3266005337133
 30
0.0
 40
2.75000007
  0
ARC
  5
9CAB
  8
AM_0
 10
867.29261870671394
 20
464.3266005337133
 30
0.0
 40
16.000000499999999
 50
108.2099599999986
 51
71.790052000019401
  0
ARC
  5
9CAC
  8
AM_0
 10
867.29261870671394
 20
464.3266005337133
 30
0.0
 40
16.000000499999999
 50
108.2099599999986
 51
71.790052000019401
  0
ARC
  5
9CAD
  8
AM_0
 10
867.29261870671394
 20
464.3266005337133
 30
0.0
 40
89.000003999999961
 50
166.12423000001061
 51
179.5717699999872
  0
ARC
  5
9CAE
  8
AM_0
 10
823.99627670671373
 20
494.89500753371323
 30
0.0
 40
5.0000000999999976
 50
324.77685000000309
 51
45.000001000031432
  0
ARC
  5
9CAF
  8
AM_0
 10
814.29259970671376
 20
426.32659953371302
 30
0.0
 40
5.0000000999999976
 50
270.0
 51
0.0
  0
ARC
  5
9CB0
  8
AM_0
 10
867.29261870671394
 20
436.32661353371321
 30
0.0
 40
99.500004000000004
 50
125.8636899999878
 51
150.2697600000094
  0
ARC
  5
9CB1
  8
AM_0
 10
807.49387970671376
 20
536.85326253371363
 30
0.0
 40
5.0000000999999976
 50
129.50581999996439
 51
225.0000000000276
  0
ARC
  5
9CB2
  8
AM_0
 10
953.26935170671345
 20
426.32659953371302
 30
0.0
 40
5.0000000999999976
 50
270.0
 51
336.15553000000051
  0
ARC
  5
9CB3
  8
AM_0
 10
867.29261870671394
 20
464.3266005337133
 30
0.0
 40
48.0
 50
144.7768400000017
 51
180.000010000001
  0
CIRCLE
  5
9CB4
  8
AM_0
 10
867.29261870671394
 20
464.3266005337133
 30
0.0
 40
29.000001000000001
  0
ARC
  5
9CB5
  8
AM_0
 10
867.29261870671394
 20
464.3266005337133
 30
0.0
 40
89.000003999999961
 50
0.4282278599951728
 51
13.87576399999174
  0
ARC
  5
9CB6
  8
AM_0
 10
867.29261870671394
 20
464.3266005337133
 30
0.0
 40
48.0
 50
0.0
 51
35.223152000011581
  0
ARC
  5
9CB7
  8
AM_0
 10
867.29261870671394
 20
464.3266005337133
 30
0.0
 40
48.0
 50
54.776850000014051
 51
125.2231400000171
  0
ARC
  5
9CB8
  8
AM_0
 10
794.76595670671361
 20
524.1253125337131
 30
0.0
 40
5.0000000999999976
 50
45.000001000031432
 51
140.494180000017
  0
ARC
  5
9CB9
  8
AM_0
 10
867.29261870671394
 20
436.32661353371321
 30
0.0
 40
93.500003999999976
 50
356.99212
 51
17.85321299999983
  0
ARC
  5
9CBA
  8
AM_0
 10
867.29261870671394
 20
436.32661353371321
 30
0.0
 40
99.500004000000004
 50
29.730243000000019
 51
54.136312000000359
  0
ARC
  5
9CBB
  8
AM_0
 10
867.29261870671394
 20
436.32661353371321
 30
0.0
 40
99.500004000000004
 50
58.838493999983072
 51
86.644179999983422
  0
ARC
  5
9CBC
  8
AM_0
 10
836.72419670671366
 20
507.622942533713
 30
0.0
 40
5.0000000999999976
 50
225.0000000000276
 51
305.22314999998588
  0
ARC
  5
9CBD
  8
AM_0
 10
781.31587070671355
 20
426.32659953371302
 30
0.0
 40
5.0000000999999976
 50
203.84446999999949
 51
270.0
  0
ARC
  5
9CBE
  8
AM_0
 10
773.18006570671389
 20
370.21404753371348
 30
0.0
 40
20.000000700000001
 50
183.00001000000611
 51
266.99999999999437
  0
CIRCLE
  5
9CBF
  8
0
 10
962.75202470671354
 20
368.86718553371321
 30
0.0
 40
7.5000002999999991
  0
ARC
  5
9CC0
  8
AM_0
 10
773.18006570671389
 20
558.4391625337131
 30
0.0
 40
20.000000700000001
 50
92.999999000021177
 51
176.9999899999938
  0
CIRCLE
  5
9CC1
  8
AM_0
 10
771.83320370671368
 20
368.86718553371321
 30
0.0
 40
7.5000002999999991
  0
CIRCLE
  5
9CC2
  8
AM_0
 10
771.83320370671368
 20
559.78604253371304
 30
0.0
 40
7.5000002999999991
  0
ARC
  5
9CC3
  8
AM_0
 10
927.09133370671373
 20
536.85326253371363
 30
0.0
 40
5.0000000999999976
 50
314.99999999997237
 51
50.494181999991717
  0
ARC
  5
9CC4
  8
AM_0
 10
939.81924470671345
 20
524.1253125337131
 30
0.0
 40
5.0000000999999976
 50
39.505818000008261
 51
134.9999999999724
  0
CIRCLE
  5
9CC5
  8
AM_0
 10
962.75202470671354
 20
559.78604253371304
 30
0.0
 40
7.5000002999999991
  0
ARC
  5
9CC6
  8
0
  6
AM_ISO08W050
 62
     0
 10
867.29261870671394
 20
464.3266005337133
 30
0.0
 40
135.00000299999999
 50
38.630516515502613
 51
51.3694703790052
  0
ARC
  5
9CC7
  8
AM_0
 10
873.29261870671371
 20
538.65083253371336
 30
0.0
 40
3.0
 50
179.999989999999
 51
266.64419000001362
  0
ARC
  5
9CC8
  8
AM_0
 10
861.2926187067136
 20
544.84133253371283
 30
0.0
 40
3.0
 50
0.0
 51
90.000002999984659
  0
ARC
  5
9CC9
  8
AM_0
 10
910.58894570671396
 20
494.89500753371323
 30
0.0
 40
5.0000000999999976
 50
134.9999999999724
 51
215.22314999999691
  0
ARC
  5
9CCA
  8
AM_0
 10
867.29261870671394
 20
436.32661353371321
 30
0.0
 40
93.500003999999976
 50
162.14679000000021
 51
183.00788
  0
ARC
  5
9CCB
  8
AM_0
 10
861.2926187067136
 20
538.65083253371336
 30
0.0
 40
3.0
 50
273.35582000001659
 51
0.0
  0
ARC
  5
9CCC
  8
AM_0
 10
961.40516870671354
 20
558.4391625337131
 30
0.0
 40
20.000000700000001
 50
3.000000100011857
 51
86.999999000010007
  0
ARC
  5
9CCD
  8
AM_0
 10
961.40516870671354
 20
370.21404753371348
 30
0.0
 40
20.000000700000001
 50
273.00000000000563
 51
356.9999999999942
  0
ARC
  5
9CCE
  8
AM_0
 10
897.86102270671358
 20
507.622942533713
 30
0.0
 40
5.0000000999999976
 50
234.77685999998289
 51
314.99999999997237
  0
ARC
  5
9CCF
  8
AM_0
 10
873.29261870671371
 20
544.84133253371283
 30
0.0
 40
3.0
 50
90.000002999984659
 51
180.000010000001
  0
ARC
  5
9CD0
  8
AM_0
 10
867.29261870671394
 20
436.32661353371321
 30
0.0
 40
99.500004000000004
 50
93.355817999984424
 51
121.1614999999983
  0
ARC
  5
9CD1
  8
0
 10
867.29261870671394
 20
436.32661353371321
 30
0.0
 40
102.5
 50
239.53491965219911
 51
300.4650758066557
  0
CIRCLE
  5
9CD2
  8
0
 10
867.29261870671394
 20
464.3266005337133
 30
0.0
 40
99.000003000000021
  0
CIRCLE
  5
9CD3
  8
0
 10
867.29261870671394
 20
464.3266005337133
 30
0.0
 40
105.00000300000001
  0
LINE
  5
9CD4
  8
0
  6
AM_ISO08W050
 62
     0
 10
782.43980856278188
 20
549.17942211719492
 30
0.0
 11
761.2266155224379
 21
570.39263594803845
 31
0.0
  0
ARC
  5
9CD5
  8
0
  6
AM_ISO08W050
 62
     0
 10
867.29261870671394
 20
464.3266005337133
 30
0.0
 40
135.00000299999991
 50
122.5383327669082
 51
141.36947037900009
  0
LINE
  5
9CD6
  8
0
  6
AM_ISO08W050
 62
     0
 10
782.43979712323244
 20
379.47379038978153
 30
0.0
 11
761.22658329238868
 21
358.26059734943738
 31
0.0
  0
ARC
  5
9CD7
  8
0
  6
AM_ISO08W050
 62
     0
 10
867.29261870671394
 20
464.3266005337133
 30
0.0
 40
135.00000299999999
 50
218.63051651550259
 51
231.36947037902149
  0
LINE
  5
9CD8
  8
0
  6
AM_ISO08W050
 62
     0
 10
952.14542885064554
 20
379.47377895023192
 30
0.0
 11
973.35862189098975
 21
358.26056511938827
 31
0.0
  0
ARC
  5
9CD9
  8
0
  6
AM_ISO08W050
 62
     0
 10
867.29261870671394
 20
464.3266005337133
 30
0.0
 40
135.00000299999999
 50
301.3936327961959
 51
321.36947037901427
  0
ARC
  5
9CDA
  8
AM_0
 10
920.29263770671389
 20
426.32659953371399
 30
0.0
 40
5.0000000999999976
 50
180.0
 51
270.0
  0
LINE
  5
9CDE
  8
0
 10
745.29261870671371
 20
446.41379143138528
 30
0.0
 11
745.29261870671371
 21
476.91379143138528
 31
0.0
  0
LINE
  5
9CDF
  8
0
 10
741.29262870671346
 20
474.41377143138533
 30
0.0
 11
741.29262870671346
 21
407.41379543138532
 31
0.0
  0
LINE
  5
9CE0
  8
0
 10
728.29261870671371
 20
404.91378743138551
 30
0.0
 11
728.29261870671371
 21
476.91379143138528
 31
0.0
  0
LINE
  5
9CE1
  8
0
 10
728.29261870671371
 20
474.41377143138533
 30
0.0
 11
741.29262870671346
 21
474.41377143138533
 31
0.0
  0
LINE
  5
9CE2
  8
0
 10
728.29261870671371
 20
476.91379143138528
 30
0.0
 11
749.79261470671372
 21
476.91379143138528
 31
0.0
  0
LINE
  5
9CE3
  8
0
 10
745.29261870671371
 20
474.41377143138533
 30
0.0
 11
749.79261470671372
 21
474.41377143138533
 31
0.0
  0
LINE
  5
9CE4
  8
0
 10
762.29261870671371
 20
464.5437814313853
 30
0.0
 11
728.29261870671371
 21
464.5437814313853
 31
0.0
  0
LINE
  5
9CE5
  8
0
 10
728.29261870671371
 20
417.28377143138528
 30
0.0
 11
750.68576188939005
 21
417.28377143138528
 31
0.0
  0
LINE
  5
9CE6
  8
0
 10
745.29261870671371
 20
407.41379543138532
 30
0.0
 11
751.20302561971539
 21
407.41379543138532
 31
0.0
  0
LINE
  5
9CE7
  8
0
 10
728.29261870671371
 20
407.41379543138532
 30
0.0
 11
741.29262870671346
 21
407.41379543138532
 31
0.0
  0
LINE
  5
9CE8
  8
0
 10
745.29261870671371
 20
404.91378743138551
 30
0.0
 11
745.29261870671371
 21
435.41379143138528
 31
0.0
  0
LINE
  5
9CE9
  8
0
 10
741.29262870671346
 20
446.41379143138528
 30
0.0
 11
749.79261470671372
 21
446.41379143138528
 31
0.0
  0
LINE
  5
9CEA
  8
0
 10
751.33404553951289
 20
404.91378743138551
 30
0.0
 11
728.29261870671371
 21
404.91378743138551
 31
0.0
  0
LINE
  5
9CEB
  8
0
 10
741.29262870671346
 20
435.41379143138528
 30
0.0
 11
749.79261470671372
 21
435.4137914313855
 31
0.0
  0
LINE
  5
9E5B
  8
0
  6
CONTINUOUS
 62
     7
 10
460.7771028454253
 20
680.60348513659164
 30
0.0
 11
480.77711284542568
 21
680.60348513659164
 31
0.0
  0
LINE
  5
9E5C
  8
0
  6
CONTINUOUS
 62
     7
 10
460.7771028454253
 20
692.91112413659175
 30
0.0
 11
480.77711284542568
 21
692.91112413659175
 31
0.0
  0
LINE
  5
9E5E
  8
0
  6
CONTINUOUS
 62
     7
 10
460.7771028454253
 20
703.09041613659167
 30
0.0
 11
480.77711284542568
 21
703.09041613659167
 31
0.0
  0
LINE
  5
9E5F
  8
0
  6
CONTINUOUS
 62
     7
 10
460.7771028454253
 20
804.8790841365917
 30
0.0
 11
480.77711284542568
 21
804.8790841365917
 31
0.0
  0
LINE
  5
9E60
  8
0
  6
CONTINUOUS
 62
     7
 10
460.7771028454253
 20
818.5527661365918
 30
0.0
 11
480.77711284542568
 21
818.5527661365918
 31
0.0
  0
TEXT
  5
A01A
  8
0
  6
CONTINUOUS
 62
     0
 10
763.74635635256629
 20
732.19744260163338
 30
0.0
 40
10.0
  1
VX15-003EBF~VX15-030EBF
  0
ENDSEC
  0
EOF
