  0
SECTION
  2
HEADER
  9
$ACADVER
  1
AC1009
  9
$INSBASE
 10
0.0
 20
0.0
 30
0.0
  9
$EXTMIN
 10
106.8513510682105
 20
340.03586090385301
 30
-0.000000000000013
  9
$EXTMAX
 10
1147.8532427139321
 20
995.82221369278147
 30
0.0000000000000023
  9
$LIMMIN
 10
-2.7186596955807532
 20
0.0935949875579354
  9
$LIMMAX
 10
1419.781340304419
 20
925.09359498755794
  9
$ORTHOMODE
 70
     1
  9
$REGENMODE
 70
     1
  9
$FILLMODE
 70
     1
  9
$QTEXTMODE
 70
     0
  9
$MIRRTEXT
 70
     0
  9
$DRAGMODE
 70
     2
  9
$LTSCALE
 40
1.0
  9
$OSMODE
 70
   551
  9
$ATTMODE
 70
     1
  9
$TEXTSIZE
 40
2.5
  9
$TRACEWID
 40
1.0
  9
$TEXTSTYLE
  7
STANDARD
  9
$CLAYER
  8
0
  9
$CELTYPE
  6
BYLAYER
  9
$CECOLOR
 62
   256
  9
$DIMSCALE
 40
1.0
  9
$DIMASZ
 40
2.0
  9
$DIMEXO
 40
1.0
  9
$DIMDLI
 40
8.0
  9
$DIMRND
 40
0.0
  9
$DIMDLE
 40
0.0
  9
$DIMEXE
 40
1.0
  9
$DIMTP
 40
-0.025
  9
$DIMTM
 40
0.043
  9
$DIMTXT
 40
2.5
  9
$DIMCEN
 40
0.0
  9
$DIMTSZ
 40
0.0
  9
$DIMTOL
 70
     0
  9
$DIMLIM
 70
     0
  9
$DIMTIH
 70
     0
  9
$DIMTOH
 70
     0
  9
$DIMSE1
 70
     0
  9
$DIMSE2
 70
     0
  9
$DIMTAD
 70
     3
  9
$DIMZIN
 70
     8
  9
$DIMBLK
  1

  9
$DIMASO
 70
     1
  9
$DIMSHO
 70
     1
  9
$DIMPOST
  1

  9
$DIMAPOST
  1
"
  9
$DIMALT
 70
     0
  9
$DIMALTD
 70
     2
  9
$DIMALTF
 40
0.0393701
  9
$DIMLFAC
 40
1.0
  9
$DIMTOFL
 70
     1
  9
$DIMTVP
 40
0.0
  9
$DIMTIX
 70
     0
  9
$DIMSOXD
 70
     0
  9
$DIMSAH
 70
     0
  9
$DIMBLK1
  1

  9
$DIMBLK2
  1

  9
$DIMSTYLE
  2
AM_JIS
  9
$DIMCLRD
 70
     2
  9
$DIMCLRE
 70
     2
  9
$DIMCLRT
 70
     4
  9
$DIMTFAC
 40
0.71
  9
$DIMGAP
 40
1.5
  9
$LUNITS
 70
     2
  9
$LUPREC
 70
     2
  9
$SKETCHINC
 40
1.0
  9
$FILLETRAD
 40
0.0
  9
$AUNITS
 70
     0
  9
$AUPREC
 70
     0
  9
$MENU
  1
.
  9
$ELEVATION
 40
0.0
  9
$PELEVATION
 40
0.0
  9
$THICKNESS
 40
0.0
  9
$LIMCHECK
 70
     0
  9
$BLIPMODE
 70
     0
  9
$CHAMFERA
 40
2.5
  9
$CHAMFERB
 40
2.5
  9
$SKPOLY
 70
     0
  9
$TDCREATE
 40
2456829.3841110538
  9
$TDUPDATE
 40
2458541.387923935
  9
$TDINDWG
 40
0.4101087037
  9
$TDUSRTIMER
 40
0.410108125
  9
$USRTIMER
 70
     1
  9
$ANGBASE
 50
0.0
  9
$ANGDIR
 70
     0
  9
$PDMODE
 70
     0
  9
$PDSIZE
 40
0.0
  9
$PLINEWID
 40
0.0
  9
$COORDS
 70
     1
  9
$SPLFRAME
 70
     0
  9
$SPLINETYPE
 70
     6
  9
$SPLINESEGS
 70
     8
  9
$ATTDIA
 70
     1
  9
$ATTREQ
 70
     1
  9
$HANDLING
 70
     1
  9
$HANDSEED
  5
AF0B
  9
$SURFTAB1
 70
     6
  9
$SURFTAB2
 70
     6
  9
$SURFTYPE
 70
     6
  9
$SURFU
 70
     6
  9
$SURFV
 70
     6
  9
$UCSNAME
  2

  9
$UCSORG
 10
0.0
 20
0.0
 30
0.0
  9
$UCSXDIR
 10
1.0
 20
0.0
 30
0.0
  9
$UCSYDIR
 10
0.0
 20
1.0
 30
0.0
  9
$PUCSNAME
  2

  9
$PUCSORG
 10
0.0
 20
0.0
 30
0.0
  9
$PUCSXDIR
 10
1.0
 20
0.0
 30
0.0
  9
$PUCSYDIR
 10
0.0
 20
1.0
 30
0.0
  9
$USERI1
 70
     0
  9
$USERI2
 70
     0
  9
$USERI3
 70
     0
  9
$USERI4
 70
     0
  9
$USERI5
 70
     0
  9
$USERR1
 40
0.0
  9
$USERR2
 40
0.0
  9
$USERR3
 40
0.0
  9
$USERR4
 40
0.0
  9
$USERR5
 40
0.0
  9
$WORLDVIEW
 70
     1
  9
$SHADEDGE
 70
     3
  9
$SHADEDIF
 70
    70
  9
$TILEMODE
 70
     1
  9
$MAXACTVP
 70
    64
  9
$PLIMCHECK
 70
     0
  9
$PEXTMIN
 10
1.0000000000000000E+020
 20
1.0000000000000000E+020
 30
1.0000000000000000E+020
  9
$PEXTMAX
 10
-1.0000000000000000E+020
 20
-1.0000000000000000E+020
 30
-1.0000000000000000E+020
  9
$PLIMMIN
 10
0.0
 20
0.0
  9
$PLIMMAX
 10
420.0
 20
297.0
  9
$UNITMODE
 70
     0
  9
$VISRETAIN
 70
     1
  9
$PLINEGEN
 70
     0
  9
$PSLTSCALE
 70
     1
  0
ENDSEC
  0
SECTION
  2
TABLES
  0
TABLE
  2
VPORT
 70
     1
  0
VPORT
  2
*ACTIVE
 70
     0
 10
0.0
 20
0.0
 11
1.0
 21
1.0
 12
627.35229689107109
 22
667.92903729831733
 13
0.0
 23
0.0
 14
12.5
 24
12.5
 15
50.0
 25
50.0
 16
0.0
 26
0.0
 36
1.0
 17
0.0
 27
0.0
 37
0.0
 40
660.28831859754814
 41
1.7571592210767459
 42
50.0
 43
0.0
 44
0.0
 50
0.0
 51
0.0
 71
    16
 72
  1000
 73
     1
 74
     3
 75
     0
 76
     0
 77
     0
 78
     0
  0
ENDTAB
  0
TABLE
  2
LTYPE
 70
    24
  0
LTYPE
  2
CONTINUOUS
 70
     0
  3
Solid line
 72
    65
 73
     0
 40
0.0
  0
LTYPE
  2
CENTER
 70
     0
  3
Center ____ _ ____ _ ____ _ ____ _ ____ _ ____
 72
    65
 73
     4
 40
50.799999999999997
 49
31.75
 49
-6.3499999999999979
 49
6.3499999999999979
 49
-6.3499999999999979
  0
LTYPE
  2
AM_ISO02W050
 70
     0
  3
__ __ __ __ __ __ __ __ __ __ __ __ __ __ __
 72
    65
 73
     2
 40
7.5
 49
6.0
 49
-1.5
  0
LTYPE
  2
AM_ISO08W050
 70
     0
  3
____ . ____ . ____ . ____ . ____ . ____ . ____
 72
    65
 73
     4
 40
18.0
 49
12.0
 49
-1.5
 49
3.0
 49
-1.5
  0
LTYPE
  2
AM_ISO09W050
 70
     0
  3
_____ . . _____ . . _____ . . ____ .. ____
 72
    65
 73
     6
 40
22.5
 49
12.0
 49
-1.5
 49
3.0
 49
-1.5
 49
3.0
 49
-1.5
  0
LTYPE
  2
AMCONSTR
 70
     0
  3
_______________________
 72
    65
 73
     2
 40
9999.0
 49
9999.0
 49
0.0
  0
LTYPE
  2
AM_ISO08W050X2
 70
     0
  3
__ . __ . __ . __ . __ . __
 72
    65
 73
     4
 40
9.0
 49
6.0
 49
-0.75
 49
1.5
 49
-0.75
  0
LTYPE
  2
AM_ISO02W050X2
 70
     0
  3
 _ _ _ _ _ _ _ _ _ _ _ _
 72
    65
 73
     2
 40
3.75
 49
3.0
 49
-0.75
  0
LTYPE
  2
AMZIGZAG
 70
     0
  3
/\/-/\/-/\/-/\/-/\/-/\/
 72
    65
 73
     2
 40
11.0001
 49
0.0001
 49
-11.0
  0
LTYPE
  2
ACANSTGBM
 70
     0
  3
__ . . __ . .
 72
    65
 73
     6
 40
9.0
 49
4.0
 49
-1.0
 49
1.0
 49
-1.0
 49
1.0
 49
-1.0
  0
LTYPE
  2
ACANSTGLM
 70
     0
  3
_ _ _ _ _
 72
    65
 73
     2
 40
3.0
 49
2.0
 49
-1.0
  0
LTYPE
  2
ACISOWELD
 70
     0
  3
_ _ _ _ _
 72
    65
 73
     2
 40
2.0
 49
2.0
 49
-1.0
  0
LTYPE
  2
ACISOTGB
 70
     0
  3
__ . . __ . .
 72
    65
 73
     6
 40
9.0
 49
4.0
 49
-1.0
 49
1.0
 49
-1.0
 49
1.0
 49
-1.0
  0
LTYPE
  2
ACISOTGL
 70
     0
  3
_ _ _ _ _
 72
    65
 73
     2
 40
3.0
 49
2.0
 49
-1.0
  0
LTYPE
  2
ACJISTGB
 70
     0
  3
__ . . __ . .
 72
    65
 73
     6
 40
9.0
 49
4.0
 49
-1.0
 49
1.0
 49
-1.0
 49
1.0
 49
-1.0
  0
LTYPE
  2
ACJISTGL
 70
     0
  3
_ _ _ _ _
 72
    65
 73
     2
 40
3.0
 49
2.0
 49
-1.0
  0
LTYPE
  2
HIDDEN
 70
     0
  3
Hidden __ __ __ __ __ __ __ __ __ __ __ __ __ _
 72
    65
 73
     2
 40
9.5249999999999968
 49
6.3499999999999979
 49
-3.174999999999998
  0
LTYPE
  2
PHANTOM2
 70
     0
  3
Phantom (.5x) ___ _ _ ___ _ _ ___ _ _ ___ _ _
 72
    65
 73
     6
 40
31.75
 49
15.875
 49
-3.174999999999998
 49
3.174999999999998
 49
-3.174999999999998
 49
3.174999999999998
 49
-3.174999999999998
  0
LTYPE
  2
CENTER2
 70
     0
  3
Center (.5x) ___ _ ___ _ ___ _ ___ _ ___ _ ___
 72
    65
 73
     4
 40
1.125
 49
0.75
 49
-0.125
 49
0.125
 49
-0.125
  0
LTYPE
  2
HIDDEN2
 70
     0
  3
Hidden (.5x) _ _ _ _ _ _ _ _ _ _ _ _ _ _ _ _ _
 72
    65
 73
     2
 40
0.1875
 49
0.125
 49
-0.0625
  0
LTYPE
  2
AMZIGZAG2
 70
     0
  3
/\/-/\/-/\/-/\/-/\/-/\/
 72
    65
 73
     2
 40
0.4401
 49
0.0001
 49
-0.4400000000000002
  0
LTYPE
  2
ACANSTGB
 70
     0
  3
__ . . __ . .
 72
    65
 73
     6
 40
0.35433070866
 49
0.15748031496
 49
-0.03937007874
 49
0.03937007874
 49
-0.03937007874
 49
0.03937007874
 49
-0.03937007874
  0
LTYPE
  2
ACANSTGL
 70
     0
  3
_ _ _ _ _
 72
    65
 73
     2
 40
0.11811023622
 49
0.07874015748
 49
-0.03937007874
  0
ENDTAB
  0
TABLE
  2
LAYER
 70
     5
  0
LAYER
  2
0
 70
     0
 62
     7
  6
CONTINUOUS
  0
LAYER
  2
DEFPOINTS
 70
     0
 62
     7
  6
CONTINUOUS
  0
LAYER
  2
AM_0
 70
     0
 62
     7
  6
CONTINUOUS
  0
LAYER
  2
AM_5
 70
     0
 62
     2
  6
CONTINUOUS
  0
LAYER
  2
AM_CL
 70
     0
 62
     1
  6
AMCONSTR
  0
ENDTAB
  0
TABLE
  2
STYLE
 70
     8
  0
STYLE
  2
STANDARD
 70
     0
 40
0.0
 41
0.7400000000000003
 50
0.0
 71
     0
 42
2.5
  3
txt.shx
  4
bigfont.shx
  0
STYLE
  2

 70
     1
 40
0.0
 41
1.0
 50
0.0
 71
     0
 42
2.5
  3
ltypeshp.shx
  4

  0
STYLE
  2
ACANSTS
 70
     0
 40
1.0
 41
1.0
 50
0.0
 71
     0
 42
2.5
  3
romans.shx
  4
bigfont.shx
  0
STYLE
  2
ACANSGDT
 70
     0
 40
0.0
 41
1.0
 50
0.0
 71
     0
 42
2.5
  3
amgdtans.shx
  4

  0
STYLE
  2
ACISOTS
 70
     0
 40
1.0
 41
1.0
 50
0.0
 71
     0
 42
2.5
  3
isocp.shx
  4
extfont.shx
  0
STYLE
  2
ACISOGDT
 70
     0
 40
0.0
 41
1.0
 50
0.0
 71
     0
 42
2.5
  3
amgdt.shx
  4

  0
STYLE
  2
ACJISGDT
 70
     0
 40
0.0
 41
1.0
 50
0.0
 71
     0
 42
2.5
  3
amgdt.shx
  4

  0
STYLE
  2
ACJISTS
 70
     0
 40
1.0
 41
1.0
 50
0.0
 71
     0
 42
2.5
  3
isocp.shx
  4
extfont.shx
  0
ENDTAB
  0
TABLE
  2
VIEW
 70
     6
  0
VIEW
  2
AM_VIEW1
 70
     0
 40
462.5
 10
486.11585987737283
 20
693.84359498755771
 41
977.66903914590773
 11
0.0
 21
0.0
 31
1.0
 12
0.0
 22
0.0
 32
0.0
 42
50.0
 43
0.0
 44
0.0
 50
0.0
 71
    16
  0
VIEW
  2
AM_VIEW2
 70
     0
 40
462.5
 10
930.94682073146555
 20
693.84359498755771
 41
977.66903914590773
 11
0.0
 21
0.0
 31
1.0
 12
0.0
 22
0.0
 32
0.0
 42
50.0
 43
0.0
 44
0.0
 50
0.0
 71
    16
  0
VIEW
  2
AM_VIEW3
 70
     0
 40
462.5
 10
486.11585987737283
 20
231.34359498755799
 41
977.66903914590773
 11
0.0
 21
0.0
 31
1.0
 12
0.0
 22
0.0
 32
0.0
 42
50.0
 43
0.0
 44
0.0
 50
0.0
 71
    16
  0
VIEW
  2
AM_VIEW4
 70
     0
 40
462.5
 10
930.94682073146555
 20
231.34359498755799
 41
977.66903914590773
 11
0.0
 21
0.0
 31
1.0
 12
0.0
 22
0.0
 32
0.0
 42
50.0
 43
0.0
 44
0.0
 50
0.0
 71
    16
  0
VIEW
  2
AM_VIEW5
 70
     0
 40
462.5
 10
708.53134030441925
 20
462.59359498755799
 41
977.66903914590773
 11
0.0
 21
0.0
 31
1.0
 12
0.0
 22
0.0
 32
0.0
 42
50.0
 43
0.0
 44
0.0
 50
0.0
 71
    16
  0
VIEW
  2
AM_VIEW6
 70
     0
 40
924.99075000000016
 10
708.53134030441925
 20
462.59359498755799
 41
1955.318524911032
 11
0.0
 21
0.0
 31
1.0
 12
0.0
 22
0.0
 32
0.0
 42
50.0
 43
0.0
 44
0.0
 50
0.0
 71
    16
  0
ENDTAB
  0
TABLE
  2
UCS
 70
     0
  0
ENDTAB
  0
TABLE
  2
APPID
 70
   162
  0
APPID
  2
ACAD
 70
     0
  0
APPID
  2
ACADANNOTATIVE
 70
     0
  0
APPID
  2
ACAD_MLEADERVER
 70
     0
  0
APPID
  2
MCAD_NO_VIS
 70
     0
  0
APPID
  2
ACAD_TEMP_GRAPHIC
 70
     0
  0
APPID
  2
AD_DRAW
 70
     0
  0
APPID
  2
ACATTRIBSERVICES
 70
     0
  0
APPID
  2
DESIGNERASSEMBLIES
 70
     0
  0
APPID
  2
ACADM_DIM_EDIT
 70
     0
  0
APPID
  2
AMDT_DM_ADJ
 70
     0
  0
APPID
  2
GENIUS_GENDIMSH_14
 70
     0
  0
APPID
  2
GEVID1057795304
 70
     0
  0
APPID
  2
GEVDC
 70
     0
  0
APPID
  2
GEVCON
 70
     0
  0
APPID
  2
GENIUS_GENBH_13
 70
     0
  0
APPID
  2
GENIUS_GENOENT_13
 70
     0
  0
APPID
  2
GENIUS_GENOBJ-NBEHI-BHF_13
 70
     0
  0
APPID
  2
GENIUS_GENOLIS_13
 70
     0
  0
APPID
  2
GENIUS_GENODEF_13
 70
     0
  0
APPID
  2
GENIUS_GENOREF_13
 70
     0
  0
APPID
  2
GENIUS_GENOBJ-NBEHI-BHB_13
 70
     0
  0
APPID
  2
GENIUS_GENOBJ-F-SCPASSM_13
 70
     0
  0
APPID
  2
GENIUS_GENDTOL_13
 70
     0
  0
APPID
  2
GENIUS_GENTRA_14
 70
     0
  0
APPID
  2
ASURF_PCURVE_APPNAME
 70
     0
  0
APPID
  2
GENIUS_GENCFG_13
 70
     0
  0
APPID
  2
GENIUS_GE3CFG0_13
 70
     0
  0
APPID
  2
GENIUS_GENCFG0_13
 70
     0
  0
APPID
  2
GENIUS_GENCFG1_13
 70
     0
  0
APPID
  2
GENIUS_GENCFG2_13
 70
     0
  0
APPID
  2
GENIUS_GENCFG3_13
 70
     0
  0
APPID
  2
GENIUS_GENCFG4_13
 70
     0
  0
APPID
  2
GENIUS_GEVCFG0_13
 70
     0
  0
APPID
  2
GENIUS_GENOBJ-N-TIT_13
 70
     0
  0
APPID
  2
GENIUS_GENTITLE_13
 70
     0
  0
APPID
  2
GENIUS_GENSCREG_15
 70
     0
  0
APPID
  2
GENIUS_GENOBJ-N-SDF_13
 70
     0
  0
APPID
  2
GENIUS_GENFIL_13
 70
     0
  0
APPID
  2
GENIUS_GENOBJ-N-CHA_13
 70
     0
  0
APPID
  2
GENIUS_GEFSH_13
 70
     0
  0
APPID
  2
GENIUS_GENOBJ-F-SHS_13
 70
     0
  0
APPID
  2
GENIUS_GENOBJ-N-CEN_13
 70
     0
  0
APPID
  2
GENIUS_GENREC_14
 70
     0
  0
APPID
  2
GENIUS_GENOBJ-N-REC_13
 70
     0
  0
APPID
  2
GENIUS_GENOBJ-N-HTC_13
 70
     0
  0
APPID
  2
GENIUS_GENHATCH_13
 70
     0
  0
APPID
  2
ACAD_PSEXT
 70
     0
  0
APPID
  2
ACAD_EXEMPT_FROM_CAD_STANDARDS
 70
     0
  0
APPID
  2
ACAECLAYERSTANDARD
 70
     0
  0
APPID
  2
GENIUS_GENCEN_19
 70
     0
  0
APPID
  2
ACAD_DSTYLE_DIMINSPECT
 70
     0
  0
APPID
  2
ACAD_DSTYLE_DIMANGULAR_EXT
 70
     0
  0
APPID
  2
ACADANNOPO
 70
     0
  0
APPID
  2
ACAD_NAV_VCDISPLAY
 70
     0
  0
APPID
  2
GENIUS_GENOBJ-N-FIL_13
 70
     0
  0
APPID
  2
ACAUTHENVIRON
 70
     0
  0
APPID
  2
ACDBDYNAMICBLOCKTRUENAME
 70
     0
  0
APPID
  2
ACDBDYNAMICBLOCKGUID
 70
     0
  0
APPID
  2
ACDBBLOCKREPETAG
 70
     0
  0
APPID
  2
ACAD_DSTYLE_DIMBREAK
 70
     0
  0
APPID
  2
ACAD_DSTYLE_DIMJAG
 70
     0
  0
APPID
  2
GENIUS_GENHINW_13
 70
     0
  0
APPID
  2
GENIUS_FIRSTVISTXT_14
 70
     0
  0
APPID
  2
GENIUS_GENOBJ-N-LEADER_13
 70
     0
  0
APPID
  2
DCO15
 70
     0
  0
APPID
  2
GENIUS_DUMCFG0_13
 70
     0
  0
APPID
  2
ACAD_DSTYLE_DIMTEXT_FILL
 70
     0
  0
APPID
  2
AMG_2DHIDE
 70
     0
  0
APPID
  2
GENIUS_GEFSHEP_13
 70
     0
  0
APPID
  2
GENIUS_GENOBJ-F-SHE_13
 70
     0
  0
APPID
  2
GENIUS_GEFSHE_13
 70
     0
  0
APPID
  2
ACAD_DIMASSOC_DIMLFAC
 70
     0
  0
APPID
  2
ACAD_DIMASSOC_CALC_DIMLFAC
 70
     0
  0
APPID
  2
ACAD_DIMASSOC_OVERRIDDEN_D
 70
     0
  0
APPID
  2
GENIUS_GENOBJ-F-SHSV_13
 70
     0
  0
APPID
  2
GENIUS_GEFWELD_13
 70
     0
  0
APPID
  2
GENIUS_GENOBJ-N-CRS_13
 70
     0
  0
APPID
  2
GENIUS_GENOBJ-N-RSBK_13
 70
     0
  0
APPID
  2
GENIUS_GENOBJ-N-LIB_13
 70
     0
  0
APPID
  2
GENIUS_GENSCALE_13
 70
     0
  0
APPID
  2
GENIUS_GENDREL_13
 70
     0
  0
APPID
  2
GEVPT
 70
     0
  0
APPID
  2
GEVIT
 70
     0
  0
APPID
  2
VCC
 70
     0
  0
APPID
  2
GENBH
 70
     0
  0
APPID
  2
GEVMK
 70
     0
  0
APPID
  2
GENIUS_GENOBJ-F-DESC_13
 70
     0
  0
APPID
  2
GENIUS_GEFDESC_14
 70
     0
  0
APPID
  2
GENIUS_GENOBJ-F-FEAT_13
 70
     0
  0
APPID
  2
GENIUS_GEFFEAT_14
 70
     0
  0
APPID
  2
GENIUS_GEFPARTINS_13
 70
     0
  0
APPID
  2
GENIUS_GENSCREG_13
 70
     0
  0
APPID
  2
GENIUS_GEFSHP_13
 70
     0
  0
APPID
  2
GEVID1025574798
 70
     0
  0
APPID
  2
GEVID1025574769
 70
     0
  0
APPID
  2
GEVID1025757451
 70
     0
  0
APPID
  2
GEVID1240528327
 70
     0
  0
APPID
  2
AMG_2DSTRUCT_BTR
 70
     0
  0
APPID
  2
ACADM_2DVIEW_IGN_NOTIFY
 70
     0
  0
APPID
  2
GEVID1240528328
 70
     0
  0
APPID
  2
GEVID1240528329
 70
     0
  0
APPID
  2
GEVRADREF
 70
     0
  0
APPID
  2
GEVID1240528330
 70
     0
  0
APPID
  2
GEVID1240528331
 70
     0
  0
APPID
  2
GEVID1240528332
 70
     0
  0
APPID
  2
GEVID1240791080
 70
     0
  0
APPID
  2
GEVID1240791081
 70
     0
  0
APPID
  2
GEVID1240791082
 70
     0
  0
APPID
  2
GEVID1240791083
 70
     0
  0
APPID
  2
GEVID1240791084
 70
     0
  0
APPID
  2
GEVID1240791085
 70
     0
  0
APPID
  2
GEVID1240791086
 70
     0
  0
APPID
  2
GEVID1240791087
 70
     0
  0
APPID
  2
GEVID1240791088
 70
     0
  0
APPID
  2
GEVID1240791089
 70
     0
  0
APPID
  2
GEVID1240791090
 70
     0
  0
APPID
  2
GEVID1240791091
 70
     0
  0
APPID
  2
GEVID1240791092
 70
     0
  0
APPID
  2
GEVID1240791093
 70
     0
  0
APPID
  2
GEVID1240791094
 70
     0
  0
APPID
  2
GEVID1240791095
 70
     0
  0
APPID
  2
GEVID1240791096
 70
     0
  0
APPID
  2
GEVID1240791097
 70
     0
  0
APPID
  2
GEVID1240791098
 70
     0
  0
APPID
  2
GEVID1240791099
 70
     0
  0
APPID
  2
GEVID1240791100
 70
     0
  0
APPID
  2
GEVID1240791101
 70
     0
  0
APPID
  2
GEVID1240791102
 70
     0
  0
APPID
  2
GEVID1240791103
 70
     0
  0
APPID
  2
GEVID1240791104
 70
     0
  0
APPID
  2
GEVID1240791105
 70
     0
  0
APPID
  2
GEVID1240875381
 70
     0
  0
APPID
  2
GEVID1240875382
 70
     0
  0
APPID
  2
GEVID1240875383
 70
     0
  0
APPID
  2
GEVID1240875384
 70
     0
  0
APPID
  2
GEVID1240875385
 70
     0
  0
APPID
  2
GEVID1240875386
 70
     0
  0
APPID
  2
GEVID1240875387
 70
     0
  0
APPID
  2
GEVID1240875388
 70
     0
  0
APPID
  2
GEVID1240875389
 70
     0
  0
APPID
  2
GEVID1240875390
 70
     0
  0
APPID
  2
GEVID1240875391
 70
     0
  0
APPID
  2
GEVID1240875392
 70
     0
  0
APPID
  2
GEVID1240875393
 70
     0
  0
APPID
  2
GEVID1240875394
 70
     0
  0
APPID
  2
GEVID1240875395
 70
     0
  0
APPID
  2
GEVID1240875396
 70
     0
  0
APPID
  2
GEVID1240875397
 70
     0
  0
APPID
  2
GEVID1240875398
 70
     0
  0
APPID
  2
GEVID1240875399
 70
     0
  0
APPID
  2
GEVID1240908996
 70
     0
  0
APPID
  2
GEVID1240908997
 70
     0
  0
APPID
  2
GEVID1240908998
 70
     0
  0
APPID
  2
GEVID1240908999
 70
     0
  0
APPID
  2
GEVID1240909000
 70
     0
  0
APPID
  2
GENIUS_GENOBJ-N-ZOO_13
 70
     0
  0
APPID
  2
GENIUS_GENZOO_17
 70
     0
  0
APPID
  2
ACAD_DSTYLE_DIMRADIAL_EXTENSION
 70
     0
  0
APPID
  2
GENIUS_GE3SECT_13
 70
     0
  0
APPID
  2
GEV_VCCNULL_SWITCH_OFF
 70
     0
  0
APPID
  2
ACAD_DSTYLE_DIMTALN
 70
     0
  0
APPID
  2
CONTENTBLOCKDESCRIPTION
 70
     0
  0
ENDTAB
  0
TABLE
  2
DIMSTYLE
 70
    22
  0
DIMSTYLE
  2
AM_ANSI
 70
     0
  3

  4
"
  5

  6

  7

 40
1.0
 41
2.5
 42
1.0
 43
10.0
 44
1.0
 45
0.0
 46
0.0
 47
0.1
 48
0.1
140
3.5
141
0.0
142
0.0
143
0.0393701
144
1.0
145
0.0
146
0.71
147
1.5
 71
     0
 72
     0
 73
     1
 74
     1
 75
     0
 76
     0
 77
     0
 78
     8
170
     0
171
     2
172
     0
173
     0
174
     0
175
     0
176
     2
177
     2
178
     4
  0
DIMSTYLE
  2
AM_ANSI$3
 70
     0
  3

  4
"
  5

  6

  7

 40
1.0
 41
2.5
 42
1.0
 43
10.0
 44
1.0
 45
0.0
 46
0.0
 47
0.1
 48
0.1
140
3.5
141
0.0
142
0.0
143
0.0393701
144
1.0
145
0.0
146
0.71
147
1.5
 71
     0
 72
     0
 73
     1
 74
     1
 75
     0
 76
     0
 77
     0
 78
     8
170
     0
171
     2
172
     0
173
     0
174
     0
175
     0
176
     2
177
     2
178
     4
  0
DIMSTYLE
  2
AM_ANSI$4
 70
     0
  3

  4
"
  5

  6

  7

 40
1.0
 41
2.5
 42
1.0
 43
10.0
 44
1.0
 45
0.0
 46
0.0
 47
0.1
 48
0.1
140
3.5
141
0.0
142
0.0
143
0.0393701
144
1.0
145
0.0
146
0.71
147
1.5
 71
     0
 72
     0
 73
     1
 74
     1
 75
     0
 76
     0
 77
     0
 78
     8
170
     0
171
     2
172
     0
173
     0
174
     0
175
     0
176
     2
177
     2
178
     4
  0
DIMSTYLE
  2
AM_ANSI$7
 70
     0
  3

  4
"
  5

  6

  7

 40
1.0
 41
2.5
 42
1.0
 43
10.0
 44
1.0
 45
0.0
 46
0.0
 47
0.1
 48
0.1
140
5.0
141
0.0
142
0.0
143
0.0393701
144
1.0
145
0.0
146
0.71
147
1.5
 71
     0
 72
     0
 73
     1
 74
     1
 75
     0
 76
     0
 77
     0
 78
     8
170
     0
171
     2
172
     0
173
     0
174
     0
175
     0
176
     2
177
     2
178
     4
  0
DIMSTYLE
  2
AM_ANSI$SF
 70
     0
  3

  4
"
  5

  6

  7

 40
1.0
 41
2.5
 42
1.0
 43
10.0
 44
1.0
 45
0.0
 46
0.0
 47
0.1
 48
0.1
140
3.5
141
0.0
142
0.0
143
0.0393701
144
1.0
145
0.0
146
0.71
147
1.5
 71
     0
 72
     0
 73
     1
 74
     1
 75
     1
 76
     1
 77
     0
 78
     8
170
     0
171
     2
172
     0
173
     0
174
     0
175
     0
176
     2
177
     2
178
     4
  0
DIMSTYLE
  2
AM_ANSI$SH
 70
     0
  3

  4
"
  5

  6
GENAXEH
  7

 40
1.0
 41
2.5
 42
1.0
 43
10.0
 44
1.0
 45
0.0
 46
0.0
 47
0.1
 48
0.1
140
3.5
141
0.0
142
0.0
143
0.0393701
144
1.0
145
0.0
146
0.71
147
1.5
 71
     0
 72
     0
 73
     1
 74
     1
 75
     1
 76
     1
 77
     0
 78
     8
170
     0
171
     2
172
     0
173
     1
174
     0
175
     0
176
     2
177
     2
178
     4
  0
DIMSTYLE
  2
AM_ISO
 70
     0
  3

  4
"
  5

  6

  7

 40
1.0
 41
2.5
 42
1.0
 43
10.0
 44
1.0
 45
0.0
 46
0.0
 47
0.1
 48
0.1
140
3.5
141
0.0
142
0.0
143
0.0393701
144
1.0
145
0.0
146
0.71
147
1.5
 71
     0
 72
     0
 73
     0
 74
     0
 75
     0
 76
     0
 77
     1
 78
     8
170
     0
171
     2
172
     1
173
     0
174
     0
175
     0
176
   256
177
   256
178
     2
  0
DIMSTYLE
  2
AM_ISO$3
 70
     0
  3

  4
"
  5

  6

  7

 40
1.0
 41
2.5
 42
1.0
 43
10.0
 44
1.0
 45
0.0
 46
0.0
 47
0.1
 48
0.1
140
3.5
141
0.0
142
0.0
143
0.0393701
144
1.0
145
0.0
146
0.71
147
1.5
 71
     0
 72
     0
 73
     0
 74
     1
 75
     0
 76
     0
 77
     1
 78
     8
170
     0
171
     2
172
     0
173
     0
174
     0
175
     0
176
   256
177
   256
178
     2
  0
DIMSTYLE
  2
AM_ISO$4
 70
     0
  3

  4
"
  5

  6

  7

 40
1.0
 41
2.5
 42
1.0
 43
10.0
 44
1.0
 45
0.0
 46
0.0
 47
0.1
 48
0.1
140
3.5
141
0.0
142
0.0
143
0.0393701
144
1.0
145
0.0
146
0.71
147
1.5
 71
     0
 72
     0
 73
     0
 74
     1
 75
     0
 76
     0
 77
     1
 78
     8
170
     0
171
     2
172
     0
173
     0
174
     0
175
     0
176
   256
177
   256
178
     2
  0
DIMSTYLE
  2
AM_ISO$6
 70
     0
  3

  4
"
  5

  6

  7

 40
1.0
 41
2.5
 42
1.0
 43
10.0
 44
1.0
 45
0.0
 46
0.0
 47
0.1
 48
0.1
140
3.5
141
0.0
142
0.0
143
0.0393701
144
1.0
145
0.0
146
0.71
147
1.5
 71
     0
 72
     0
 73
     0
 74
     0
 75
     0
 76
     0
 77
     0
 78
     8
170
     0
171
     2
172
     1
173
     0
174
     0
175
     0
176
   256
177
   256
178
     2
  0
DIMSTYLE
  2
AM_ISO$7
 70
     0
  3

  4
"
  5

  6

  7

 40
1.0
 41
2.5
 42
1.0
 43
10.0
 44
1.0
 45
0.0
 46
0.0
 47
0.1
 48
0.1
140
5.0
141
0.0
142
0.0
143
0.0393701
144
1.0
145
0.0
146
0.71
147
1.5
 71
     0
 72
     0
 73
     0
 74
     0
 75
     0
 76
     0
 77
     1
 78
     8
170
     0
171
     2
172
     1
173
     0
174
     0
175
     0
176
   256
177
   256
178
     2
  0
DIMSTYLE
  2
AM_ISO$SF
 70
     0
  3

  4
"
  5

  6

  7

 40
1.0
 41
2.5
 42
1.0
 43
10.0
 44
1.0
 45
0.0
 46
0.0
 47
0.1
 48
0.1
140
3.5
141
0.0
142
0.0
143
0.0393701
144
1.0
145
0.0
146
0.71
147
1.5
 71
     0
 72
     0
 73
     0
 74
     0
 75
     1
 76
     1
 77
     1
 78
     8
170
     0
171
     2
172
     1
173
     0
174
     0
175
     0
176
   256
177
   256
178
     2
  0
DIMSTYLE
  2
AM_ISO$SH
 70
     0
  3

  4
"
  5

  6
GENAXEH
  7

 40
1.0
 41
2.5
 42
1.0
 43
10.0
 44
1.0
 45
0.0
 46
0.0
 47
0.1
 48
0.1
140
3.5
141
0.0
142
0.0
143
0.0393701
144
2.0
145
0.0
146
0.71
147
1.5
 71
     0
 72
     0
 73
     0
 74
     0
 75
     1
 76
     1
 77
     1
 78
     8
170
     0
171
     2
172
     1
173
     1
174
     0
175
     0
176
   256
177
   256
178
     2
  0
DIMSTYLE
  2
AM_JIS
 70
     0
  3

  4
"
  5

  6

  7

 40
1.0
 41
2.0
 42
1.0
 43
8.0
 44
1.0
 45
0.0
 46
0.0
 47
0.1
 48
0.1
140
2.5
141
0.0
142
0.0
143
0.0393701
144
1.0
145
0.0
146
0.71
147
1.5
 71
     0
 72
     0
 73
     0
 74
     0
 75
     0
 76
     0
 77
     3
 78
     8
170
     0
171
     2
172
     1
173
     0
174
     0
175
     0
176
     2
177
     2
178
     4
  0
DIMSTYLE
  2
AM_JIS$3
 70
     0
  3

  4
"
  5

  6

  7

 40
1.0
 41
2.0
 42
1.0
 43
10.0
 44
1.0
 45
0.0
 46
0.0
 47
0.1
 48
0.1
140
2.5
141
0.0
142
0.0
143
0.0393701
144
1.0
145
0.0
146
0.71
147
1.5
 71
     0
 72
     0
 73
     0
 74
     1
 75
     0
 76
     0
 77
     3
 78
     8
170
     0
171
     2
172
     0
173
     0
174
     0
175
     0
176
     2
177
     2
178
     4
  0
DIMSTYLE
  2
AM_JIS$4
 70
     0
  3

  4
"
  5

  6

  7

 40
1.0
 41
2.0
 42
1.0
 43
10.0
 44
1.0
 45
0.0
 46
0.0
 47
0.1
 48
0.1
140
2.5
141
0.0
142
0.0
143
0.0393701
144
1.0
145
0.0
146
0.71
147
1.5
 71
     0
 72
     0
 73
     0
 74
     0
 75
     0
 76
     0
 77
     3
 78
     8
170
     0
171
     2
172
     0
173
     0
174
     0
175
     0
176
     2
177
     2
178
     4
  0
DIMSTYLE
  2
AM_JIS$6
 70
     0
  3

  4
"
  5

  6

  7

 40
1.0
 41
2.0
 42
1.0
 43
10.0
 44
1.0
 45
0.0
 46
0.0
 47
0.1
 48
0.1
140
2.5
141
0.0
142
0.0
143
0.0393701
144
1.0
145
0.0
146
0.71
147
1.5
 71
     0
 72
     0
 73
     0
 74
     0
 75
     0
 76
     0
 77
     0
 78
     8
170
     0
171
     2
172
     1
173
     0
174
     0
175
     0
176
     2
177
     2
178
     4
  0
DIMSTYLE
  2
AM_JIS$7
 70
     0
  3

  4
"
  5

  6
OPEN30
  7
OPEN30
 40
1.0
 41
2.0
 42
1.0
 43
10.0
 44
1.0
 45
0.0
 46
0.0
 47
0.1
 48
0.1
140
2.5
141
0.0
142
0.0
143
0.0393701
144
1.0
145
0.0
146
0.71
147
1.5
 71
     0
 72
     0
 73
     0
 74
     0
 75
     0
 76
     0
 77
     3
 78
     8
170
     0
171
     2
172
     1
173
     0
174
     0
175
     0
176
     2
177
     2
178
     4
  0
DIMSTYLE
  2
AM_JIS$SF
 70
     0
  3

  4
"
  5

  6

  7

 40
1.0
 41
2.0
 42
1.0
 43
10.0
 44
1.0
 45
0.0
 46
0.0
 47
0.1
 48
0.1
140
2.5
141
0.0
142
0.0
143
0.0393701
144
1.0
145
0.0
146
0.71
147
1.5
 71
     0
 72
     0
 73
     0
 74
     0
 75
     1
 76
     1
 77
     3
 78
     8
170
     0
171
     2
172
     1
173
     0
174
     0
175
     0
176
     2
177
     2
178
     4
  0
DIMSTYLE
  2
AM_JIS$SH
 70
     0
  3

  4
"
  5

  6
GENAXEH
  7

 40
1.0
 41
2.0
 42
1.0
 43
10.0
 44
1.0
 45
0.0
 46
0.0
 47
0.1
 48
0.1
140
2.5
141
0.0
142
0.0
143
0.0393701
144
2.0
145
0.0
146
0.71
147
1.5
 71
     0
 72
     0
 73
     0
 74
     0
 75
     1
 76
     1
 77
     3
 78
     8
170
     0
171
     2
172
     1
173
     1
174
     0
175
     0
176
     2
177
     2
178
     4
  0
DIMSTYLE
  2
AM_JIS$0
 70
     0
  3

  4
"
  5

  6

  7

 40
1.0
 41
2.0
 42
1.0
 43
8.0
 44
1.0
 45
0.0
 46
0.0
 47
0.1
 48
0.1
140
2.5
141
0.0
142
0.0
143
0.0393701
144
1.0
145
0.0
146
0.71
147
1.5
 71
     0
 72
     0
 73
     0
 74
     0
 75
     0
 76
     0
 77
     3
 78
     8
170
     0
171
     2
172
     1
173
     0
174
     0
175
     0
176
     2
177
     2
178
     4
  0
DIMSTYLE
  2
STANDARD
 70
     0
  3

  4

  5

  6

  7

 40
1.0
 41
0.18
 42
0.0625
 43
0.38
 44
0.18
 45
0.0
 46
0.0
 47
0.0
 48
0.0
140
0.18
141
0.09
142
0.0
143
25.399999999999999
144
1.0
145
0.0
146
1.0
147
0.09
 71
     0
 72
     0
 73
     1
 74
     1
 75
     0
 76
     0
 77
     0
 78
     0
170
     0
171
     2
172
     0
173
     0
174
     0
175
     0
176
     0
177
     0
178
     0
  0
ENDTAB
  0
ENDSEC
  0
SECTION
  2
BLOCKS
  0
BLOCK
  8
0
  2
$MODEL_SPACE
 70
     0
 10
0.0
 20
0.0
 30
0.0
  3
$MODEL_SPACE
  1

  0
ENDBLK
  5
77
  8
0
  0
BLOCK
 67
     1
  8
0
  2
$PAPER_SPACE
 70
     0
 10
0.0
 20
0.0
 30
0.0
  3
$PAPER_SPACE
  1

  0
ENDBLK
  5
73
 67
     1
  8
0
  0
BLOCK
  8
0
  2
GENAXEH
 70
     0
 10
0.0
 20
0.0
 30
0.0
  3
GENAXEH
  1

  0
LINE
  5
A8D4
  8
0
 10
-1.0
 20
0.0
 30
0.0
 11
1.0
 21
0.0
 31
0.0
  0
ENDBLK
  5
A8D5
  8
0
  0
BLOCK
  8
0
  6
BYBLOCK
 62
     0
  2
$6-45
 70
     0
 10
0.0
 20
0.0
 30
0.0
  3
$6-45
  1

  0
ARC
  5
83F8
  8
0
  6
CONTINUOUS
 62
     0
 10
-2.6499939999999902
 20
2.800201000000015
 30
0.0
 40
2.6003989999999999
 50
89.999982000000799
 51
179.99997799999841
  0
ARC
  5
83F9
  8
0
  6
CONTINUOUS
 62
     0
 10
2.6499939999999902
 20
2.800201000000015
 30
0.0
 40
2.600403
 50
0.0
 51
89.999982000000799
  0
LINE
  5
83FA
  8
0
  6
CONTINUOUS
 62
     0
 10
0.0660249999999678
 20
0.0
 30
0.0
 11
-0.7999999999999548
 21
1.5
 31
0.0
  0
LINE
  5
83FB
  8
0
  6
CONTINUOUS
 62
     0
 10
1.0660249999999669
 20
0.0
 30
0.0
 11
0.2000000000000455
 21
1.5
 31
0.0
  0
LINE
  5
83FC
  8
0
  6
CONTINUOUS
 62
     0
 10
6.1000000000000218
 20
0.0
 30
0.0
 11
-6.1000000000000218
 21
0.0
 31
0.0
  0
LINE
  5
83FD
  8
0
  6
CONTINUOUS
 62
     0
 10
6.1000000000000218
 20
1.5
 30
0.0
 11
6.1000000000000218
 21
0.0
 31
0.0
  0
LINE
  5
83FE
  8
0
  6
CONTINUOUS
 62
     0
 10
-6.1000000000000218
 20
1.5
 30
0.0
 11
-6.1000000000000218
 21
0.0
 31
0.0
  0
LINE
  5
83FF
  8
0
  6
CONTINUOUS
 62
     0
 10
2.6499939999999902
 20
5.3999939999999906
 30
0.0
 11
-2.6499939999999902
 21
5.3999939999999906
 31
0.0
  0
LINE
  5
8400
  8
0
  6
CONTINUOUS
 62
     0
 10
6.1000000000000218
 20
1.5
 30
0.0
 11
-6.1000000000000218
 21
1.5
 31
0.0
  0
LINE
  5
8401
  8
0
  6
CONTINUOUS
 62
     0
 10
-5.25
 20
1.5
 30
0.0
 11
-5.25
 21
2.800201000000015
 31
0.0
  0
LINE
  5
8402
  8
0
  6
CONTINUOUS
 62
     0
 10
5.25
 20
1.5
 30
0.0
 11
5.25
 21
2.800201000000015
 31
0.0
  0
ENDBLK
  5
8403
  8
0
  6
BYBLOCK
 62
     0
  0
BLOCK
  8
0
  2
_OPEN30
 70
     0
 10
0.0
 20
0.0
 30
0.0
  3
_OPEN30
  1

  0
LINE
  5
A91B
  8
0
  6
BYBLOCK
 62
     0
 10
-1.0
 20
0.26794919
 30
0.0
 11
0.0
 21
0.0
 31
0.0
  0
LINE
  5
A91C
  8
0
  6
BYBLOCK
 62
     0
 10
0.0
 20
0.0
 30
0.0
 11
-1.0
 21
-0.26794919
 31
0.0
  0
LINE
  5
A91D
  8
0
  6
BYBLOCK
 62
     0
 10
0.0
 20
0.0
 30
0.0
 11
-1.0
 21
0.0
 31
0.0
  0
ENDBLK
  5
A91E
  8
0
  0
BLOCK
  8
0
  2
_ACMFILLEDHALF
 70
     0
 10
0.0
 20
0.0
 30
0.0
  3
_ACMFILLEDHALF
  1

  0
TRACE
  5
A9DD
  8
AM_0
 62
     0
 10
-0.8
 20
0.0
 30
0.0
 11
-1.0
 21
0.166666666
 31
0.0
 12
0.0
 22
0.0
 32
0.0
 13
0.0
 23
0.0
 33
0.0
  0
LINE
  5
A9DE
  8
AM_0
 62
     0
 10
-1.0
 20
0.0
 30
0.0
 11
-0.8
 21
0.0
 31
0.0
  0
ENDBLK
  5
A9DF
  8
0
  0
ENDSEC
  0
SECTION
  2
ENTITIES
  0
LINE
  5
93C4
  8
0
  6
AM_ISO08W050
 10
471.72332887361063
 20
516.04916096030854
 30
0.0
 11
711.43795787518604
 21
516.04916096030854
 31
0.0
  0
LINE
  5
9454
  8
0
 10
447.49346987956329
 20
393.04916096030848
 30
0.0
 11
483.13311743425407
 21
391.80460090047319
 31
0.0
  0
ARC
  5
9456
  8
0
 10
482.99351987956311
 20
387.80703757730709
 30
0.0
 40
4.0
 50
0.0
 51
88.000006193419722
1001
GENIUS_GENODEF_13
1002
{
1000
HIER
1070
     0
1002
}
1002
{
1000
MANEDIT
1070
     0
1002
}
1002
{
1000
NOSEL
1070
     0
1002
}
1002
{
1000
BEHIND
1070
     0
1002
}
1002
{
1000
OTHER
1070
     0
1002
}
1002
{
1000
REACTOR
1002
}
1001
GENIUS_GENOBJ-N-FIL_13
1002
{
1000
OWNER
1000
GEN
1002
}
  0
LINE
  5
9458
  8
0
 10
447.49346987956329
 20
563.04916096030854
 30
0.0
 11
483.13311523279322
 21
564.29370129255756
 31
0.0
  0
ARC
  5
945C
  8
0
 10
482.99351987956311
 20
568.29126469259961
 30
0.0
 40
4.0
 50
271.99996225375321
 51
0.0
1001
GENIUS_GENOBJ-N-FIL_13
1002
{
1000
OWNER
1000
GEN
1002
}
1001
GENIUS_GENODEF_13
1002
{
1000
HIER
1070
     0
1002
}
1002
{
1000
MANEDIT
1070
     0
1002
}
1002
{
1000
NOSEL
1070
     0
1002
}
1002
{
1000
BEHIND
1070
     0
1002
}
1002
{
1000
OTHER
1070
     0
1002
}
1002
{
1000
REACTOR
1002
}
  0
LINE
  5
9490
  8
0
 10
447.49346987956329
 20
561.91280996030855
 30
0.0
 11
486.99351987956311
 21
561.91280996030855
 31
0.0
  0
LINE
  5
9491
  8
0
 10
447.49346987956329
 20
540.11509396030863
 30
0.0
 11
486.99351987956311
 21
540.11509396030863
 31
0.0
  0
LINE
  5
9492
  8
0
 10
447.49346987956329
 20
553.78880496030865
 30
0.0
 11
486.99351987956311
 21
553.78880496030865
 31
0.0
  0
LINE
  5
9493
  8
0
 10
486.99351987956311
 20
438.32645496030852
 30
0.0
 11
447.49346987956329
 21
438.32645496030869
 31
0.0
  0
LINE
  5
9494
  8
0
 10
486.99351987956311
 20
428.14716296030849
 30
0.0
 11
447.49346987956329
 21
428.14716296030849
 31
0.0
  0
LINE
  5
9495
  8
0
 10
486.99351987956311
 20
415.8598819603086
 30
0.0
 11
447.49346987956329
 21
415.8598819603086
 31
0.0
  0
LINE
  5
9496
  8
0
 10
447.49346987956329
 20
397.5534538977094
 30
0.0
 11
447.49346987956329
 21
478.04916096030848
 31
0.0
  0
LINE
  5
9497
  8
0
 10
447.49346987956329
 20
558.54486802290864
 30
0.0
 11
447.49346987956329
 21
478.04916096030848
 31
0.0
  0
LINE
  5
9498
  8
0
 10
447.49346987956329
 20
393.04916096030848
 30
0.0
 11
447.49346987956329
 21
563.04916096030854
 31
0.0
  0
LINE
  5
9499
  8
0
 10
447.49346987956329
 20
393.04916096030848
 30
0.0
 11
447.49346987956329
 21
563.04916096030854
 31
0.0
  0
LINE
  5
949A
  8
0
 10
240.99346987956349
 20
475.54916096030848
 30
0.0
 11
240.99346987956349
 21
381.0491609603086
 31
0.0
  0
LINE
  5
949B
  8
0
 10
377.99346987956352
 20
502.81710996030858
 30
0.0
 11
377.99346987956352
 21
453.28121196030861
 31
0.0
  0
LINE
  5
949C
  8
0
 10
392.45034587956337
 20
527.23416096030849
 30
0.0
 11
392.45034587956337
 21
506.8691609603087
 31
0.0
  0
LINE
  5
949D
  8
0
 10
408.49346887956318
 20
527.23416096030849
 30
0.0
 11
408.49346887956318
 21
506.8691609603087
 31
0.0
  0
LINE
  5
949E
  8
0
 10
423.0428648795633
 20
422.02836496030869
 30
0.0
 11
408.49346887956318
 21
422.02836496030869
 31
0.0
  0
LINE
  5
949F
  8
0
 10
427.99346987956318
 20
433.44071496030858
 30
0.0
 11
408.49346887956318
 21
433.44071496030858
 31
0.0
  0
LINE
  5
94A0
  8
0
 10
393.19886687956341
 20
426.74345496030872
 30
0.0
 11
408.49346987956329
 21
422.02836496030869
 31
0.0
  0
LINE
  5
94A1
  8
0
 10
408.49346987956329
 20
433.44071496030858
 30
0.0
 11
393.4575288795636
 21
432.89996396030853
 31
0.0
  0
ARC
  5
94A2
  8
0
 10
393.49346987956352
 20
431.90060996030871
 30
0.0
 40
1.0
 50
92.059691000003724
 51
180.0
  0
ARC
  5
94A3
  8
0
 10
393.49346987956352
 20
427.69907496030851
 30
0.0
 40
1.0
 50
180.0
 51
252.86627500000071
  0
LINE
  5
94A4
  8
0
 10
408.49346987956329
 20
553.9019479603088
 30
0.0
 11
393.19301087956347
 21
549.08208196030853
 31
0.0
  0
ARC
  5
94A5
  8
0
 10
393.49346987956352
 20
548.12828696030863
 30
0.0
 40
1.0
 50
107.4851789999985
 51
180.0
  0
ARC
  5
94A6
  8
0
 10
393.49346987956352
 20
545.77722196030879
 30
0.0
 40
1.0
 50
180.0
 51
270.0
  0
LINE
  5
94A7
  8
0
 10
393.54202487956343
 20
544.77840096030855
 30
0.0
 11
408.49346987956329
 21
545.50522096030852
 31
0.0
  0
LINE
  5
94A8
  8
0
 10
427.99346987956318
 20
545.50522096030852
 30
0.0
 11
408.49346987956329
 21
545.50522096030852
 31
0.0
  0
LINE
  5
94A9
  8
0
 10
351.49346987956352
 20
576.3356539603086
 30
0.0
 11
438.94065487956328
 21
576.3356539603086
 31
0.0
  0
ARC
  5
94AA
  8
0
 10
262.75771487956348
 20
574.3356539603086
 30
0.0
 40
2.0
 50
90.0
 51
156.1017999999998
  0
ARC
  5
94AB
  8
0
 10
438.94065487956328
 20
574.3356539603086
 30
0.0
 40
2.0
 50
10.000001999999039
 51
90.0
  0
LINE
  5
94AC
  8
0
 10
442.49346987956352
 20
565.70417796030847
 30
0.0
 11
440.91026987956332
 21
574.68295096030863
 31
0.0
  0
LINE
  5
94AD
  8
0
 10
442.23266187956352
 20
565.70417796030847
 30
0.0
 11
442.49346987956352
 21
565.70417796030847
 31
0.0
  0
ARC
  5
94AE
  8
0
 10
247.82468487956351
 20
573.14587996030855
 30
0.0
 40
2.0
 50
90.0
 51
169.999998000001
  0
LINE
  5
94AF
  8
0
 10
243.49346987956349
 20
560.09987696030873
 30
0.0
 11
245.85506987956339
 21
573.49317696030846
 31
0.0
  0
ARC
  5
94B0
  8
0
 10
438.88963587956329
 20
573.14587996030855
 30
0.0
 40
2.0
 50
10.000001999999039
 51
90.0
  0
LINE
  5
94B1
  8
0
 10
442.49346987956352
 20
564.22505996030861
 30
0.0
 11
440.85925087956332
 21
573.49317696030846
 31
0.0
  0
LINE
  5
94B2
  8
0
 10
243.49346987956349
 20
560.09987696030873
 30
0.0
 11
244.06137587956351
 21
560.09987696030873
 31
0.0
  0
LINE
  5
94B3
  8
0
 10
441.9574988795631
 20
564.22505996030861
 30
0.0
 11
442.49346987956352
 21
564.22505996030861
 31
0.0
  0
ARC
  5
94B4
  8
0
 10
438.80378087956308
 20
570.59314596030868
 30
0.0
 40
2.0
 50
10.000001000002101
 51
90.0
  0
ARC
  5
94B5
  8
0
 10
247.9424758795634
 20
570.59314596030868
 30
0.0
 40
2.0
 50
90.0
 51
169.9999989999979
  0
LINE
  5
94B6
  8
0
 10
243.49346987956349
 20
556.87912096030857
 30
0.0
 11
245.9728598795636
 21
570.94044196030882
 31
0.0
  0
ARC
  5
94B7
  8
0
 10
248.12361687956351
 20
566.62796096030866
 30
0.0
 40
2.0
 50
90.0
 51
169.9999999999948
  0
LINE
  5
94B8
  8
0
 10
243.49346987956349
 20
551.88663596030858
 30
0.0
 11
246.15400087956351
 21
566.9752569603088
 31
0.0
  0
ARC
  5
94B9
  8
0
 10
248.40484487956351
 20
561.0505329603086
 30
0.0
 40
2.0
 50
90.0
 51
169.9999999999948
  0
LINE
  5
94BA
  8
0
 10
243.49346987956349
 20
544.71428396030865
 30
0.0
 11
246.4352288795634
 21
561.3978299603084
 31
0.0
  0
ARC
  5
94BB
  8
0
 10
248.50010887956341
 20
555.04986596030858
 30
0.0
 40
2.0
 50
90.0
 51
169.9999989999979
  0
LINE
  5
94BC
  8
0
 10
243.49346987956349
 20
538.17334796030855
 30
0.0
 11
246.53049287956361
 21
555.39716196030849
 31
0.0
  0
LINE
  5
94BD
  8
0
 10
442.36521087956351
 20
561.91280996030855
 30
0.0
 11
440.7733958795634
 21
570.94044196030882
 31
0.0
  0
LINE
  5
94BE
  8
0
 10
243.49346987956349
 20
556.87912096030857
 30
0.0
 11
244.3737798795635
 21
556.87912096030857
 31
0.0
  0
ARC
  5
94BF
  8
0
 10
438.6744028795631
 20
566.62796096030866
 30
0.0
 40
2.0
 50
10.00000000000516
 51
90.0
  0
LINE
  5
94C0
  8
0
 10
441.5366648795632
 20
561.91280996030855
 30
0.0
 11
440.64401887956342
 21
566.9752569603088
 31
0.0
  0
ARC
  5
94C1
  8
0
 10
373.88248787956343
 20
561.0505329603086
 30
0.0
 40
2.0
 50
5.5986529999987971
 51
90.0
  0
ARC
  5
94C2
  8
0
 10
373.88053287956348
 20
555.04986596030858
 30
0.0
 40
2.0
 50
5.4290190000019001
 51
90.0
  0
LINE
  5
94C3
  8
0
 10
444.49346987956318
 20
438.32645496030852
 30
0.0
 11
444.49346987956318
 21
540.11509396030863
 31
0.0
  0
LINE
  5
94C4
  8
0
 10
444.49346987956318
 20
561.91280996030855
 30
0.0
 11
444.49346987956318
 21
566.04916096030854
 31
0.0
  0
LINE
  5
94C5
  8
0
 10
392.45034587956337
 20
551.88663596030858
 30
0.0
 11
408.49346887956318
 21
556.48649796030884
 31
0.0
  0
LINE
  5
94C6
  8
0
 10
376.79038487956359
 20
551.88663596030858
 30
0.0
 11
392.45034587956337
 21
551.88663596030858
 31
0.0
  0
LINE
  5
94C7
  8
0
 10
408.49346887956318
 20
556.48649796030884
 30
0.0
 11
423.1867528795633
 21
556.48649796030884
 31
0.0
  0
INSERT
  5
94C8
  8
0
  2
$6-45
 10
427.99346987956318
 20
552.1824209603086
 30
0.0
 50
90.0
  0
INSERT
  5
94C9
  8
0
  2
$6-45
 10
427.99346987956318
 20
426.14049396030862
 30
0.0
 50
90.0
  0
LINE
  5
94CA
  8
0
 10
209.49346987956349
 20
481.04916096030848
 30
0.0
 11
141.50193787956351
 21
481.04916096030848
 31
0.0
  0
LINE
  5
94CB
  8
0
 10
442.43263987956351
 20
566.04916096030854
 30
0.0
 11
444.49346987956318
 21
566.04916096030854
 31
0.0
  0
LINE
  5
94CC
  8
0
 10
248.12361687956351
 20
568.62796096030866
 30
0.0
 11
438.6744028795631
 21
568.62796096030866
 31
0.0
  0
LINE
  5
94CD
  8
0
 10
247.9424758795634
 20
572.59314596030879
 30
0.0
 11
438.80378087956308
 21
572.59314596030879
 31
0.0
  0
LINE
  5
94CE
  8
0
 10
247.82468487956351
 20
575.14587996030855
 30
0.0
 11
438.88963587956329
 21
575.14587996030855
 31
0.0
  0
LINE
  5
94CF
  8
0
 10
240.99346987956349
 20
571.54916096030854
 30
0.0
 11
245.5122878795635
 21
571.54916096030854
 31
0.0
  0
LINE
  5
94D0
  8
0
 10
262.75771487956348
 20
576.3356539603086
 30
0.0
 11
329.49346987956352
 21
576.3356539603086
 31
0.0
  0
LINE
  5
94D1
  8
0
 10
408.49346887956318
 20
535.20916096030851
 30
0.0
 11
408.49346887956318
 21
529.8641609603086
 31
0.0
  0
LINE
  5
94D2
  8
0
 10
392.45034587956337
 20
535.20916096030851
 30
0.0
 11
392.45034587956337
 21
529.8641609603086
 31
0.0
  0
LINE
  5
94D3
  8
0
 10
408.49346887956318
 20
545.50522096030852
 30
0.0
 11
408.49346887956318
 21
537.90916096030855
 31
0.0
  0
LINE
  5
94D4
  8
0
 10
408.49346887956318
 20
553.9019479603088
 30
0.0
 11
422.5934758795633
 21
553.9019479603088
 31
0.0
  0
LINE
  5
94D5
  8
0
 10
243.49346987956349
 20
538.17334796030855
 30
0.0
 11
377.49346987956352
 21
538.17334796030855
 31
0.0
  0
LINE
  5
94D6
  8
0
 10
376.8158428795636
 20
544.71428396030865
 30
0.0
 11
377.49346987956352
 21
544.71428396030865
 31
0.0
  0
LINE
  5
94D7
  8
0
 10
248.50010887956341
 20
557.04986596030835
 30
0.0
 11
373.88053287956348
 21
557.04986596030835
 31
0.0
  0
LINE
  5
94D8
  8
0
 10
243.49346987956349
 20
544.71428396030865
 30
0.0
 11
244.64681287956341
 21
544.71428396030865
 31
0.0
  0
LINE
  5
94D9
  8
0
 10
248.40484487956351
 20
563.05053296030871
 30
0.0
 11
373.88248787956343
 21
563.05053296030871
 31
0.0
  0
LINE
  5
94DA
  8
0
 10
444.49346987956318
 20
540.11509396030863
 30
0.0
 11
447.49346987956329
 21
538.38304296030856
 31
0.0
  0
ARC
  5
94DB
  8
0
 10
426.99346987956329
 20
541.11509396030863
 30
0.0
 40
1.0
 50
270.0
 51
0.0
  0
ARC
  5
94DC
  8
0
 10
429.99346987956352
 20
559.91280996030855
 30
0.0
 40
2.0
 50
90.0
 51
180.0
  0
ARC
  5
94DD
  8
0
 10
429.99346987956352
 20
555.78880496030877
 30
0.0
 40
2.0
 50
180.0
 51
270.0
  0
ARC
  5
94DE
  8
0
 10
429.99346987956352
 20
551.78880496030865
 30
0.0
 40
2.0
 50
90.0
 51
180.0
  0
LINE
  5
94DF
  8
0
 10
429.99346987956352
 20
561.91280996030855
 30
0.0
 11
447.49346987956329
 21
561.91280996030855
 31
0.0
  0
LINE
  5
94E0
  8
0
 10
427.99346987956318
 20
540.11509396030863
 30
0.0
 11
444.49346987956318
 21
540.11509396030863
 31
0.0
  0
LINE
  5
94E1
  8
0
 10
429.99346987956352
 20
553.78880496030865
 30
0.0
 11
447.49346987956329
 21
553.78880496030865
 31
0.0
  0
LINE
  5
94E2
  8
0
 10
427.99346987956318
 20
541.11509396030863
 30
0.0
 11
427.99346987956318
 21
559.91280996030855
 31
0.0
  0
LINE
  5
94E3
  8
0
 10
243.49346987956349
 20
394.04916096030848
 30
0.0
 11
240.99346987956341
 21
394.04916096030848
 31
0.0
  0
LINE
  5
94E4
  8
0
 10
243.49346987956349
 20
443.6903719603086
 30
0.0
 11
248.10084587956339
 21
437.25876596030849
 31
0.0
  0
LINE
  5
94E5
  8
0
 10
248.10084587956339
 20
437.25876596030849
 30
0.0
 11
248.9566458795635
 21
439.88568596030848
 31
0.0
  0
LINE
  5
94E6
  8
0
 10
243.49346987956349
 20
443.6903719603086
 30
0.0
 11
248.9566458795635
 21
439.88568596030848
 31
0.0
  0
LINE
  5
94E7
  8
0
 10
248.9566458795635
 20
439.88568596030848
 30
0.0
 11
250.16857587956341
 21
439.32972596030862
 31
0.0
  0
LINE
  5
94E8
  8
0
 10
240.99346987956341
 20
437.25876596030849
 30
0.0
 11
248.10084587956339
 21
437.25876596030849
 31
0.0
  0
LINE
  5
94E9
  8
0
 10
240.99346987956341
 20
443.6903719603086
 30
0.0
 11
243.49346987956349
 21
443.6903719603086
 31
0.0
  0
LINE
  5
94EA
  8
0
 10
243.49346987956349
 20
421.11698596030863
 30
0.0
 11
243.49346987956349
 21
417.9240919603086
 31
0.0
  0
LINE
  5
94EB
  8
0
 10
245.25346987956351
 20
420.5485519603086
 30
0.0
 11
245.25346987956351
 21
418.54976996030871
 31
0.0
  0
LINE
  5
94EC
  8
0
 10
260.25346987956351
 20
429.54916096030848
 30
0.0
 11
260.25346987956351
 21
427.54976996030871
 31
0.0
  0
LINE
  5
94ED
  8
0
 10
258.49346987956352
 20
430.01070296030849
 30
0.0
 11
258.49346987956352
 21
426.94296796030869
 31
0.0
  0
LINE
  5
94EE
  8
0
 10
258.49346987956352
 20
430.01070296030849
 30
0.0
 11
340.49346987956352
 21
430.01070296030849
 31
0.0
  0
LINE
  5
94EF
  8
0
 10
258.49346987956352
 20
426.94296796030869
 30
0.0
 11
340.49346987956352
 21
426.94296796030869
 31
0.0
  0
LINE
  5
94F0
  8
0
 10
243.49346987956349
 20
417.9240919603086
 30
0.0
 11
340.49346987956352
 21
417.9240919603086
 31
0.0
  0
LINE
  5
94F1
  8
0
 10
243.49346987956349
 20
421.11698596030863
 30
0.0
 11
340.49346987956352
 21
421.11698596030863
 31
0.0
  0
LINE
  5
94F2
  8
0
 10
245.25346987956351
 20
420.5485519603086
 30
0.0
 11
340.49346987956352
 21
420.5485519603086
 31
0.0
  0
LINE
  5
94F3
  8
0
 10
245.25346987956351
 20
418.54976996030871
 30
0.0
 11
340.49346987956352
 21
418.54976996030871
 31
0.0
  0
LINE
  5
94F4
  8
0
 10
245.25346987956351
 20
420.5485519603086
 30
0.0
 11
243.49346987956349
 21
421.11698596030863
 31
0.0
  0
LINE
  5
94F5
  8
0
 10
245.25346987956351
 20
418.54976996030871
 30
0.0
 11
243.49346987956349
 21
417.9240919603086
 31
0.0
  0
LINE
  5
94F6
  8
0
 10
248.43673587956351
 20
427.29108196030859
 30
0.0
 11
249.61782687956349
 21
427.05367296030852
 31
0.0
  0
LINE
  5
94F7
  8
0
 10
260.25346987956351
 20
429.54916096030848
 30
0.0
 11
340.49346987956352
 21
429.54916096030848
 31
0.0
  0
LINE
  5
94F8
  8
0
 10
260.25346987956351
 20
427.54976996030871
 30
0.0
 11
340.49346987956352
 21
427.54976996030871
 31
0.0
  0
LINE
  5
94F9
  8
0
 10
260.25346987956351
 20
429.54916096030848
 30
0.0
 11
258.49346987956352
 21
430.01070296030849
 31
0.0
  0
LINE
  5
94FA
  8
0
 10
260.25346987956351
 20
427.54976996030871
 30
0.0
 11
258.49346987956352
 21
426.94296796030869
 31
0.0
  0
LINE
  5
94FB
  8
0
 10
377.49346987956352
 20
430.01070296030849
 30
0.0
 11
340.49346987956352
 21
430.01070296030849
 31
0.0
  0
LINE
  5
94FC
  8
0
 10
377.49346987956352
 20
426.94296796030869
 30
0.0
 11
340.49346987956352
 21
426.94296796030869
 31
0.0
  0
LINE
  5
94FD
  8
0
 10
375.73346987956347
 20
429.54916096030848
 30
0.0
 11
340.49346987956352
 21
429.54916096030848
 31
0.0
  0
LINE
  5
94FE
  8
0
 10
375.73346987956347
 20
427.54976996030871
 30
0.0
 11
340.49346987956352
 21
427.54976996030871
 31
0.0
  0
LINE
  5
94FF
  8
0
 10
375.73346987956347
 20
427.54976996030871
 30
0.0
 11
377.49346987956352
 21
426.94296796030869
 31
0.0
  0
LINE
  5
9500
  8
0
 10
375.73346987956347
 20
429.54916096030848
 30
0.0
 11
377.49346987956352
 21
430.01070296030849
 31
0.0
  0
LINE
  5
9501
  8
0
 10
377.49346987956352
 20
430.01070296030849
 30
0.0
 11
377.49346987956352
 21
426.94296796030869
 31
0.0
  0
LINE
  5
9502
  8
0
 10
375.73346987956347
 20
429.54916096030848
 30
0.0
 11
375.73346987956347
 21
427.54976996030871
 31
0.0
  0
LINE
  5
9503
  8
0
 10
377.49346987956352
 20
421.11698596030863
 30
0.0
 11
340.49346987956352
 21
421.11698596030863
 31
0.0
  0
LINE
  5
9504
  8
0
 10
375.73346987956347
 20
420.5485519603086
 30
0.0
 11
340.49346987956352
 21
420.5485519603086
 31
0.0
  0
LINE
  5
9505
  8
0
 10
375.73346987956347
 20
418.54976996030871
 30
0.0
 11
340.49346987956352
 21
418.54976996030871
 31
0.0
  0
LINE
  5
9506
  8
0
 10
375.73346987956347
 20
418.54976996030871
 30
0.0
 11
377.49346987956352
 21
417.9240919603086
 31
0.0
  0
LINE
  5
9507
  8
0
 10
375.73346987956347
 20
420.5485519603086
 30
0.0
 11
377.49346987956352
 21
421.11698596030863
 31
0.0
  0
LINE
  5
9508
  8
0
 10
375.73346987956347
 20
420.5485519603086
 30
0.0
 11
375.73346987956347
 21
418.54976996030871
 31
0.0
  0
LINE
  5
9509
  8
0
 10
377.49346987956352
 20
421.11698596030863
 30
0.0
 11
377.49346987956352
 21
417.9240919603086
 31
0.0
  0
LINE
  5
950A
  8
0
 10
243.49346987956349
 20
417.9240919603086
 30
0.0
 11
245.08621187956351
 21
400.6249049603087
 31
0.0
  0
LINE
  5
950B
  8
0
 10
243.49346987956349
 20
411.38403796030877
 30
0.0
 11
244.09561487956361
 21
411.38403796030877
 31
0.0
  0
LINE
  5
950C
  8
0
 10
243.49346987956349
 20
404.21168596030861
 30
0.0
 11
244.17624687956351
 21
404.21168596030861
 31
0.0
  0
LINE
  5
950D
  8
0
 10
243.49346987956349
 20
399.21920096030851
 30
0.0
 11
244.01798287956339
 21
399.21920096030851
 31
0.0
  0
LINE
  5
950E
  8
0
 10
243.49346987956349
 20
395.99844496030857
 30
0.0
 11
243.85341187956351
 21
395.99844496030857
 31
0.0
  0
LINE
  5
950F
  8
0
 10
243.44669287956361
 20
394.4288639603086
 30
0.0
 11
243.67708387956341
 21
394.4288639603086
 31
0.0
  0
LINE
  5
9510
  8
0
 10
243.49346987956349
 20
411.38403796030877
 30
0.0
 11
245.0811218795634
 21
394.70626396030849
 31
0.0
  0
LINE
  5
9511
  8
0
 10
243.49346987956349
 20
404.21168596030861
 30
0.0
 11
245.06530287956349
 21
389.25047496030868
 31
0.0
  0
LINE
  5
9512
  8
0
 10
243.49346987956349
 20
399.21920096030851
 30
0.0
 11
245.05478087956359
 21
385.24860996030873
 31
0.0
  0
LINE
  5
9513
  8
0
 10
243.49346987956349
 20
395.99844496030857
 30
0.0
 11
245.0466888795635
 21
382.72111696030868
 31
0.0
  0
LINE
  5
9514
  8
0
 10
243.44669287956361
 20
394.4288639603086
 30
0.0
 11
245.03720887956351
 21
381.51812996030861
 31
0.0
  0
ARC
  5
9515
  8
0
 10
247.0777878795634
 20
400.80826996030862
 30
0.0
 40
2.0
 50
185.26041099999159
 51
270.0
  0
ARC
  5
9516
  8
0
 10
247.0721198795635
 20
394.89579896030853
 30
0.0
 40
2.0
 50
185.4379219999999
 51
270.0
  0
ARC
  5
9517
  8
0
 10
247.0543558795635
 20
389.4594459603087
 30
0.0
 40
2.0
 50
185.99752600000019
 51
270.0
  0
ARC
  5
9518
  8
0
 10
247.04240687956349
 20
385.47074096030872
 30
0.0
 40
2.0
 50
186.37674199999441
 51
270.0
  0
ARC
  5
9519
  8
0
 10
247.03314287956351
 20
382.95349796030871
 30
0.0
 40
2.0
 50
186.6722939999984
 51
270.0
  0
ARC
  5
951A
  8
0
 10
247.02220287956351
 20
381.7626679603087
 30
0.0
 40
2.0
 50
187.02306899999661
 51
270.0
  0
LINE
  5
951B
  8
0
 10
250.16857587956341
 20
439.32972596030862
 30
0.0
 11
250.16857587956341
 21
426.94296796030869
 31
0.0
  0
LINE
  5
951C
  8
0
 10
248.10084587956339
 20
437.25876596030849
 30
0.0
 11
248.10084587956339
 21
427.35859896030883
 31
0.0
  0
LINE
  5
951D
  8
0
 10
240.99346987956349
 20
426.94296796030869
 30
0.0
 11
250.16857587956341
 21
426.94296796030869
 31
0.0
  0
LINE
  5
951E
  8
0
 10
240.99346987956341
 20
427.35859896030883
 30
0.0
 11
248.10084587956339
 21
427.35859896030883
 31
0.0
  0
LINE
  5
951F
  8
0
 10
442.49346987956352
 20
493.22916096030877
 30
0.0
 11
440.73346987956347
 21
493.77916096030862
 31
0.0
  0
LINE
  5
9520
  8
0
 10
442.49346987956352
 20
495.8691609603087
 30
0.0
 11
442.49346987956352
 21
493.22916096030877
 31
0.0
  0
LINE
  5
9521
  8
0
 10
440.73346987956347
 20
495.37916096030858
 30
0.0
 11
442.49346987956352
 21
495.8691609603087
 31
0.0
  0
LINE
  5
9522
  8
0
 10
440.73346987956347
 20
495.37916096030858
 30
0.0
 11
440.73346987956347
 21
493.77916096030862
 31
0.0
  0
LINE
  5
9523
  8
0
 10
442.49346987956352
 20
482.22916096030877
 30
0.0
 11
440.73346987956347
 21
482.7791609603085
 31
0.0
  0
LINE
  5
9524
  8
0
 10
442.49346987956352
 20
484.86916096030848
 30
0.0
 11
442.49346987956352
 21
482.22916096030877
 31
0.0
  0
LINE
  5
9525
  8
0
 10
440.73346987956347
 20
484.37916096030852
 30
0.0
 11
442.49346987956352
 21
484.86916096030848
 31
0.0
  0
LINE
  5
9526
  8
0
 10
440.73346987956347
 20
484.37916096030852
 30
0.0
 11
440.73346987956347
 21
482.7791609603085
 31
0.0
  0
LINE
  5
9527
  8
0
 10
442.49346987956352
 20
471.22916096030877
 30
0.0
 11
440.73346987956347
 21
471.7791609603085
 31
0.0
  0
LINE
  5
9528
  8
0
 10
442.49346987956352
 20
473.8691609603087
 30
0.0
 11
442.49346987956352
 21
471.22916096030877
 31
0.0
  0
LINE
  5
9529
  8
0
 10
440.73346987956347
 20
473.3791609603087
 30
0.0
 11
442.49346987956352
 21
473.8691609603087
 31
0.0
  0
LINE
  5
952A
  8
0
 10
440.73346987956347
 20
473.3791609603087
 30
0.0
 11
440.73346987956347
 21
471.7791609603085
 31
0.0
  0
LINE
  5
952B
  8
0
 10
442.49346987956352
 20
460.2291609603086
 30
0.0
 11
440.73346987956347
 21
460.7791609603085
 31
0.0
  0
LINE
  5
952C
  8
0
 10
442.49346987956352
 20
462.8691609603087
 30
0.0
 11
442.49346987956352
 21
460.2291609603086
 31
0.0
  0
LINE
  5
952D
  8
0
 10
440.73346987956347
 20
462.37916096030852
 30
0.0
 11
442.49346987956352
 21
462.8691609603087
 31
0.0
  0
LINE
  5
952E
  8
0
 10
440.73346987956347
 20
462.37916096030852
 30
0.0
 11
440.73346987956347
 21
460.7791609603085
 31
0.0
  0
LINE
  5
952F
  8
0
 10
441.90513887956348
 20
391.53988096030878
 30
0.0
 11
440.8735098795633
 21
382.72111996030878
 31
0.0
  0
LINE
  5
9530
  8
0
 10
440.8382528795633
 20
385.24831396030862
 30
0.0
 11
441.89320987956353
 21
394.67530096030862
 31
0.0
  0
LINE
  5
9531
  8
0
 10
440.86532287956351
 20
389.24916996030868
 30
0.0
 11
441.96423487956321
 21
399.6433439603087
 31
0.0
  0
LINE
  5
9532
  8
0
 10
442.01517587956329
 20
406.1799639603085
 30
0.0
 11
440.8898948795632
 21
394.70067996030849
 31
0.0
  0
LINE
  5
9533
  8
0
 10
442.05634287956349
 20
413.58970596030849
 30
0.0
 11
440.82362587956339
 21
400.61904496030849
 31
0.0
  0
LINE
  5
9534
  8
0
 10
441.96526187956351
 20
390.40355296030867
 30
0.0
 11
440.89322887956308
 21
381.52297496030872
 31
0.0
  0
LINE
  5
9535
  8
0
 10
440.73346987956347
 20
451.3791609603087
 30
0.0
 11
440.73346987956347
 21
449.7791609603085
 31
0.0
  0
LINE
  5
9536
  8
0
 10
440.73346987956347
 20
451.3791609603087
 30
0.0
 11
442.49346987956352
 21
451.8691609603087
 31
0.0
  0
LINE
  5
9537
  8
0
 10
442.49346987956352
 20
451.8691609603087
 30
0.0
 11
442.49346987956352
 21
449.2291609603086
 31
0.0
  0
LINE
  5
9538
  8
0
 10
442.49346987956352
 20
449.2291609603086
 30
0.0
 11
440.73346987956347
 21
449.7791609603085
 31
0.0
  0
LINE
  5
9539
  8
0
 10
440.73346987956347
 20
506.3791609603087
 30
0.0
 11
440.73346987956347
 21
504.7791609603085
 31
0.0
  0
LINE
  5
953A
  8
0
 10
440.73346987956347
 20
506.3791609603087
 30
0.0
 11
442.49346987956352
 21
506.8691609603087
 31
0.0
  0
LINE
  5
953B
  8
0
 10
442.49346987956352
 20
506.8691609603087
 30
0.0
 11
442.49346987956352
 21
504.22916096030877
 31
0.0
  0
LINE
  5
953C
  8
0
 10
442.49346987956352
 20
504.22916096030877
 30
0.0
 11
440.73346987956347
 21
504.7791609603085
 31
0.0
  0
LINE
  5
953D
  8
0
 10
392.45034587956337
 20
504.22916096030877
 30
0.0
 11
392.45034587956337
 21
495.8691609603087
 31
0.0
  0
LINE
  5
953E
  8
0
 10
408.49346887956318
 20
504.22916096030877
 30
0.0
 11
408.49346887956318
 21
495.8691609603087
 31
0.0
  0
LINE
  5
953F
  8
0
 10
408.49346887956318
 20
493.22916096030877
 30
0.0
 11
408.49346887956318
 21
484.86916096030848
 31
0.0
  0
LINE
  5
9540
  8
0
 10
392.45034587956337
 20
493.22916096030877
 30
0.0
 11
392.45034587956337
 21
484.86916096030848
 31
0.0
  0
LINE
  5
9541
  8
0
 10
392.45034587956337
 20
482.22916096030877
 30
0.0
 11
392.45034587956337
 21
473.8691609603087
 31
0.0
  0
LINE
  5
9542
  8
0
 10
408.49346887956318
 20
482.22916096030877
 30
0.0
 11
408.49346887956318
 21
473.8691609603087
 31
0.0
  0
LINE
  5
9543
  8
0
 10
408.49346887956318
 20
471.22916096030877
 30
0.0
 11
408.49346887956318
 21
462.8691609603087
 31
0.0
  0
LINE
  5
9544
  8
0
 10
392.45034587956337
 20
471.22916096030877
 30
0.0
 11
392.45034587956337
 21
462.8691609603087
 31
0.0
  0
LINE
  5
9545
  8
0
 10
392.45034587956337
 20
460.2291609603086
 30
0.0
 11
392.45034587956337
 21
451.8691609603087
 31
0.0
  0
LINE
  5
9546
  8
0
 10
408.49346887956318
 20
460.2291609603086
 30
0.0
 11
408.49346887956318
 21
451.8691609603087
 31
0.0
  0
LINE
  5
9547
  8
0
 10
408.49346887956318
 20
449.2291609603086
 30
0.0
 11
408.49346887956318
 21
433.44071496030858
 31
0.0
  0
LINE
  5
9548
  8
0
 10
392.45034587956337
 20
449.2291609603086
 30
0.0
 11
392.45034587956337
 21
417.9240919603086
 31
0.0
  0
LINE
  5
9549
  8
0
 10
442.05634287956349
 20
413.58970596030849
 30
0.0
 11
408.49346887956318
 21
413.58970596030849
 31
0.0
  0
LINE
  5
954A
  8
0
 10
442.01517587956329
 20
406.1799639603085
 30
0.0
 11
441.35212987956322
 21
406.1799639603085
 31
0.0
  0
ARC
  5
954B
  8
0
 10
438.83259787956348
 20
400.80826996030862
 30
0.0
 40
2.0
 50
270.0
 51
354.57098099999808
  0
ARC
  5
954C
  8
0
 10
438.8994358795635
 20
394.89579896030853
 30
0.0
 40
2.0
 50
270.0
 51
354.40134700000118
  0
ARC
  5
954D
  8
0
 10
438.87640787956337
 20
389.4594459603087
 30
0.0
 40
2.0
 50
270.0
 51
353.9648860000006
  0
ARC
  5
954E
  8
0
 10
438.85065987956352
 20
385.47074096030872
 30
0.0
 40
2.0
 50
270.0
 51
353.61470100000639
  0
ARC
  5
954F
  8
0
 10
438.88705587956349
 20
382.95349796030871
 30
0.0
 40
2.0
 50
270.0
 51
353.32779999999138
  0
ARC
  5
9550
  8
0
 10
438.90764487956318
 20
381.7626679603087
 30
0.0
 40
2.0
 50
270.0
 51
353.11676000000131
  0
LINE
  5
9551
  8
0
 10
441.96423487956321
 20
399.6433439603087
 30
0.0
 11
441.37440987956347
 21
399.6433439603087
 31
0.0
  0
LINE
  5
9552
  8
0
 10
441.89320987956353
 20
394.67530096030862
 30
0.0
 11
441.43899487956332
 21
394.67530096030862
 31
0.0
  0
LINE
  5
9553
  8
0
 10
441.90513887956348
 20
391.53988096030878
 30
0.0
 11
441.54233087956339
 21
391.53988096030878
 31
0.0
  0
LINE
  5
9554
  8
0
 10
441.96526187956351
 20
390.40355296030867
 30
0.0
 11
441.77220987956338
 21
390.40355296030867
 31
0.0
  0
LINE
  5
9555
  8
0
 10
444.49346987956318
 20
438.32645496030852
 30
0.0
 11
427.99346987956318
 21
438.32645496030852
 31
0.0
  0
LINE
  5
9556
  8
0
 10
447.49346987956329
 20
428.14716296030849
 30
0.0
 11
429.99346987956352
 21
428.14716296030849
 31
0.0
  0
LINE
  5
9557
  8
0
 10
447.49346987956329
 20
415.8598819603086
 30
0.0
 11
429.99346987956352
 21
415.8598819603086
 31
0.0
  0
LINE
  5
9558
  8
0
 10
427.99346987956318
 20
437.32645496030852
 30
0.0
 11
427.99346987956318
 21
417.85988196030848
 31
0.0
  0
LINE
  5
9559
  8
0
 10
444.49346987956318
 20
438.32645496030852
 30
0.0
 11
447.49346987956329
 21
440.05850596030871
 31
0.0
  0
ARC
  5
955A
  8
0
 10
429.99346987956352
 20
430.14716296030861
 30
0.0
 40
2.0
 50
180.0
 51
270.0
  0
ARC
  5
955B
  8
0
 10
429.99346987956352
 20
417.85988196030848
 30
0.0
 40
2.0
 50
180.0
 51
270.0
  0
ARC
  5
955C
  8
0
 10
429.99346987956352
 20
426.14716296030861
 30
0.0
 40
2.0
 50
90.0
 51
180.0
  0
LINE
  5
955D
  8
0
 10
408.49346887956318
 20
422.02836496030869
 30
0.0
 11
408.49346887956318
 21
413.58970596030849
 31
0.0
  0
LINE
  5
955E
  8
0
 10
392.45034587956337
 20
417.9240919603086
 30
0.0
 11
408.49346887956318
 21
413.58970596030849
 31
0.0
  0
ARC
  5
955F
  8
0
 10
426.99346987956329
 20
437.32645496030852
 30
0.0
 40
1.0
 50
0.0
 51
90.0
  0
LINE
  5
9560
  8
0
 10
392.45034587956337
 20
417.9240919603086
 30
0.0
 11
340.49346987956352
 21
417.9240919603086
 31
0.0
  0
LINE
  5
9561
  8
0
 10
438.90764487956318
 20
379.7626679603087
 30
0.0
 11
247.02220287956351
 21
379.7626679603087
 31
0.0
  0
LINE
  5
9562
  8
0
 10
438.88705587956349
 20
380.95349796030871
 30
0.0
 11
247.03314287956351
 21
380.95349796030871
 31
0.0
  0
LINE
  5
9563
  8
0
 10
438.85065987956352
 20
383.47074096030872
 30
0.0
 11
247.04240687956349
 21
383.47074096030872
 31
0.0
  0
LINE
  5
9564
  8
0
 10
438.87640787956337
 20
387.4594459603087
 30
0.0
 11
247.0543558795635
 21
387.4594459603087
 31
0.0
  0
LINE
  5
9565
  8
0
 10
438.8994358795635
 20
392.89579896030853
 30
0.0
 11
247.0721198795635
 21
392.89579896030853
 31
0.0
  0
LINE
  5
9566
  8
0
 10
438.83259787956348
 20
398.80826996030862
 30
0.0
 11
247.0777878795634
 21
398.80826996030862
 31
0.0
  0
LINE
  5
9567
  8
0
 10
392.45034587956337
 20
551.88663596030858
 30
0.0
 11
392.45034587956337
 21
537.90916096030855
 31
0.0
  0
LINE
  5
9568
  8
0
 10
408.49346887956318
 20
556.48649796030884
 30
0.0
 11
408.49346887956318
 21
553.9019479603088
 31
0.0
  0
LINE
  5
9569
  8
0
 10
378.99346987956352
 20
506.8691609603087
 30
0.0
 11
442.49346987956352
 21
506.8691609603087
 31
0.0
  0
LINE
  5
956A
  8
0
 10
378.99346987956352
 20
506.3791609603087
 30
0.0
 11
440.73346987956347
 21
506.3791609603087
 31
0.0
  0
LINE
  5
956B
  8
0
 10
378.99346987956352
 20
504.7791609603085
 30
0.0
 11
440.73346987956347
 21
504.7791609603085
 31
0.0
  0
LINE
  5
956C
  8
0
 10
378.99346987956352
 20
504.22916096030877
 30
0.0
 11
442.49346987956352
 21
504.22916096030877
 31
0.0
  0
LINE
  5
956D
  8
0
 10
378.99346987956352
 20
451.8691609603087
 30
0.0
 11
442.49346987956352
 21
451.8691609603087
 31
0.0
  0
LINE
  5
956E
  8
0
 10
378.99346987956352
 20
451.3791609603087
 30
0.0
 11
440.73346987956347
 21
451.3791609603087
 31
0.0
  0
LINE
  5
956F
  8
0
 10
378.99346987956352
 20
449.7791609603085
 30
0.0
 11
440.73346987956347
 21
449.7791609603085
 31
0.0
  0
LINE
  5
9570
  8
0
 10
378.99346987956352
 20
449.2291609603086
 30
0.0
 11
442.49346987956352
 21
449.2291609603086
 31
0.0
  0
LINE
  5
9571
  8
0
 10
378.99346987956352
 20
482.22916096030877
 30
0.0
 11
442.49346987956352
 21
482.22916096030877
 31
0.0
  0
LINE
  5
9572
  8
0
 10
378.99346987956352
 20
482.7791609603085
 30
0.0
 11
440.73346987956347
 21
482.7791609603085
 31
0.0
  0
LINE
  5
9573
  8
0
 10
378.99346987956352
 20
462.8691609603087
 30
0.0
 11
442.49346987956352
 21
462.8691609603087
 31
0.0
  0
LINE
  5
9574
  8
0
 10
378.99346987956352
 20
462.37916096030852
 30
0.0
 11
440.73346987956347
 21
462.37916096030852
 31
0.0
  0
LINE
  5
9575
  8
0
 10
378.99346987956352
 20
460.7791609603085
 30
0.0
 11
440.73346987956347
 21
460.7791609603085
 31
0.0
  0
LINE
  5
9576
  8
0
 10
378.99346987956352
 20
460.2291609603086
 30
0.0
 11
442.49346987956352
 21
460.2291609603086
 31
0.0
  0
LINE
  5
9577
  8
0
 10
378.99346987956352
 20
473.8691609603087
 30
0.0
 11
442.49346987956352
 21
473.8691609603087
 31
0.0
  0
LINE
  5
9578
  8
0
 10
378.99346987956352
 20
473.3791609603087
 30
0.0
 11
440.73346987956347
 21
473.3791609603087
 31
0.0
  0
LINE
  5
9579
  8
0
 10
378.99346987956352
 20
471.7791609603085
 30
0.0
 11
440.73346987956347
 21
471.7791609603085
 31
0.0
  0
LINE
  5
957A
  8
0
 10
378.99346987956352
 20
471.22916096030877
 30
0.0
 11
442.49346987956352
 21
471.22916096030877
 31
0.0
  0
LINE
  5
957B
  8
0
 10
378.99346987956352
 20
495.8691609603087
 30
0.0
 11
442.49346987956352
 21
495.8691609603087
 31
0.0
  0
LINE
  5
957C
  8
0
 10
378.99346987956352
 20
495.37916096030858
 30
0.0
 11
440.73346987956347
 21
495.37916096030858
 31
0.0
  0
LINE
  5
957D
  8
0
 10
378.99346987956352
 20
493.77916096030862
 30
0.0
 11
440.73346987956347
 21
493.77916096030862
 31
0.0
  0
LINE
  5
957E
  8
0
 10
378.99346987956352
 20
493.22916096030877
 30
0.0
 11
442.49346987956352
 21
493.22916096030877
 31
0.0
  0
LINE
  5
957F
  8
0
 10
378.99346987956352
 20
484.86916096030848
 30
0.0
 11
442.49346987956352
 21
484.86916096030848
 31
0.0
  0
LINE
  5
9580
  8
0
 10
378.99346987956352
 20
484.37916096030852
 30
0.0
 11
440.73346987956347
 21
484.37916096030852
 31
0.0
  0
LINE
  5
9581
  8
0
  6
AM_ISO08W050
 10
115.9688975395437
 20
478.04916096030848
 30
0.0
 11
481.79065546371908
 21
478.04916096030848
 31
0.0
  0
LINE
  5
9582
  8
0
 10
444.49346987956318
 20
390.04916096030848
 30
0.0
 11
444.49346987956318
 21
415.8598819603086
 31
0.0
  0
LINE
  5
9583
  8
0
 10
441.92248087956352
 20
390.04916096030848
 30
0.0
 11
444.49346987956318
 21
390.04916096030848
 31
0.0
  0
LINE
  5
9584
  8
0
 10
442.49346987956352
 20
537.90916096030855
 30
0.0
 11
440.73346987956347
 21
537.34916096030872
 31
0.0
  0
LINE
  5
9585
  8
0
 10
440.73346987956347
 20
535.74916096030881
 30
0.0
 11
442.49346987956352
 21
535.20916096030851
 31
0.0
  0
LINE
  5
9586
  8
0
 10
442.49346987956352
 20
535.20916096030851
 30
0.0
 11
442.49346987956352
 21
537.90916096030855
 31
0.0
  0
LINE
  5
9587
  8
0
 10
440.73346987956347
 20
535.74916096030881
 30
0.0
 11
440.73346987956347
 21
537.34916096030872
 31
0.0
  0
LINE
  5
9588
  8
0
 10
442.49346987956352
 20
529.8641609603086
 30
0.0
 11
440.73346987956347
 21
529.32416096030863
 31
0.0
  0
LINE
  5
9589
  8
0
 10
440.73346987956347
 20
527.72416096030872
 30
0.0
 11
442.49346987956352
 21
527.23416096030849
 31
0.0
  0
LINE
  5
958A
  8
0
 10
440.73346987956347
 20
527.72416096030872
 30
0.0
 11
440.73346987956347
 21
529.32416096030863
 31
0.0
  0
LINE
  5
958B
  8
0
 10
442.49346987956352
 20
527.23416096030849
 30
0.0
 11
442.49346987956352
 21
529.8641609603086
 31
0.0
  0
LINE
  5
958C
  8
0
 10
377.49346987956352
 20
538.17334796030855
 30
0.0
 11
375.8715608795635
 21
555.23909096030854
 31
0.0
  0
LINE
  5
958D
  8
0
 10
377.49346987956352
 20
544.71428396030865
 30
0.0
 11
375.87294687956341
 21
561.24565196030846
 31
0.0
  0
LINE
  5
958E
  8
0
 10
128.5520028795635
 20
543.38113096030872
 30
0.0
 11
133.5531008795634
 21
571.74374096030851
 31
0.0
  0
LINE
  5
958F
  8
0
 10
136.27331587956351
 20
568.61489596030856
 30
0.0
 11
136.27331587956351
 21
479.72704896030871
 31
0.0
  0
ARC
  5
9590
  8
0
 10
137.4923408795635
 20
571.04916096030854
 30
0.0
 40
4.0
 50
90.0
 51
170.00018299999641
  0
LINE
  5
9591
  8
0
 10
128.49346987956349
 20
535.64913696030851
 30
0.0
 11
128.49346987956349
 21
449.3381329603086
 31
0.0
  0
ARC
  5
9592
  8
0
 10
129.49346987956349
 20
540.04916096030854
 30
0.0
 40
3.0
 50
118.7876889999966
 51
180.0
  0
LINE
  5
9593
  8
0
 10
126.49346987956351
 20
540.04916096030854
 30
0.0
 11
126.49346987956351
 21
428.19744696030858
 31
0.0
  0
LINE
  5
9594
  8
0
 10
136.27331587956351
 20
467.86853596030852
 30
0.0
 11
136.27331594372839
 21
384.95362924567041
 31
0.0
  0
LINE
  5
9595
  8
0
 10
130.18148887956349
 20
403.47583896030881
 30
0.0
 11
133.5523517450932
 21
384.35888158189971
 31
0.0
  0
ARC
  5
9596
  8
0
 10
137.4923408795635
 20
385.0491609603086
 30
0.0
 40
4.0
 50
189.93726899240889
 51
270.0
  0
ARC
  5
9597
  8
0
 10
127.5671998795634
 20
543.55483696030865
 30
0.0
 40
1.0
 50
298.7879640000001
 51
350.00021400000242
  0
LINE
  5
9598
  8
0
 10
130.5508348795635
 20
471.08518296030849
 30
0.0
 11
123.5068058795635
 21
396.62737996030847
 31
0.0
  0
LINE
  5
9599
  8
0
 10
136.5241638795635
 20
470.52007996030858
 30
0.0
 11
129.48013387956351
 21
396.06227696030862
 31
0.0
  0
ARC
  5
959A
  8
0
 10
141.50193787956351
 20
470.04916096030848
 30
0.0
 40
5.0
 50
90.0
 51
174.59565700000141
  0
ARC
  5
959B
  8
0
 10
141.50193787956351
 20
470.04916096030848
 30
0.0
 40
11.0
 50
90.0
 51
174.59565700000141
  0
ARC
  5
959C
  8
0
 10
126.49346987956351
 20
396.34482796030858
 30
0.0
 40
3.0
 50
174.59565700000141
 51
354.59565700000149
  0
ARC
  5
959D
  8
0
 10
126.49346987956351
 20
396.34482796030858
 30
0.0
 40
3.799999999999998
 50
220.00000000000361
 51
32.140571999998528
  0
LINE
  5
959E
  8
0
 10
121.10971687956339
 20
397.70165596030859
 30
0.0
 11
123.5242598795635
 21
393.9809699603087
 31
0.0
  0
LINE
  5
959F
  8
0
 10
121.72717987956339
 20
398.21976896030873
 30
0.0
 11
124.1953368795635
 21
394.4164649603087
 31
0.0
  0
LINE
  5
95A0
  8
0
 10
121.72717987956339
 20
398.21976896030873
 30
0.0
 11
121.10971687956339
 21
397.70165596030859
 31
0.0
  0
LINE
  5
95A1
  8
0
 10
244.75814887956349
 20
551.88663596030858
 30
0.0
 11
243.49346987956349
 21
551.88663596030858
 31
0.0
  0
LINE
  5
95A2
  8
0
 10
243.49346987956349
 20
537.90916096030855
 30
0.0
 11
245.25346987956351
 21
537.34916096030872
 31
0.0
  0
LINE
  5
95A3
  8
0
 10
245.25346987956351
 20
535.74916096030881
 30
0.0
 11
243.49346987956349
 21
535.20916096030851
 31
0.0
  0
LINE
  5
95A4
  8
0
 10
243.49346987956349
 20
529.8641609603086
 30
0.0
 11
245.25346987956351
 21
529.32416096030863
 31
0.0
  0
LINE
  5
95A5
  8
0
 10
245.25346987956351
 20
527.72416096030872
 30
0.0
 11
243.49346987956349
 21
527.23416096030849
 31
0.0
  0
LINE
  5
95A6
  8
0
 10
243.49346987956349
 20
535.20916096030851
 30
0.0
 11
243.49346987956349
 21
537.90916096030855
 31
0.0
  0
LINE
  5
95A7
  8
0
 10
245.25346987956351
 20
535.74916096030881
 30
0.0
 11
245.25346987956351
 21
537.34916096030872
 31
0.0
  0
LINE
  5
95A8
  8
0
 10
245.25346987956351
 20
527.72416096030872
 30
0.0
 11
245.25346987956351
 21
529.32416096030863
 31
0.0
  0
LINE
  5
95A9
  8
0
 10
243.49346987956349
 20
527.23416096030849
 30
0.0
 11
243.49346987956349
 21
529.8641609603086
 31
0.0
  0
LINE
  5
95AA
  8
0
 10
289.99346987956352
 20
445.54916096030848
 30
0.0
 11
289.99346987956352
 21
510.54916096030848
 31
0.0
  0
LINE
  5
95AB
  8
0
 10
289.49346987956352
 20
506.04916096030848
 30
0.0
 11
289.49346987956352
 21
496.04916096030848
 31
0.0
  0
ARC
  5
95AC
  8
0
 10
289.99401687956339
 20
506.04861396030861
 30
0.0
 40
0.5005470000000001
 50
90.0626249999995
 51
179.93737500000049
  0
ARC
  5
95AD
  8
0
 10
293.49396887956351
 20
510.54866196030872
 30
0.0
 40
3.5004989999999978
 50
90.008164000001173
 51
179.99183600000529
  0
LINE
  5
95AE
  8
0
 10
294.41346987956342
 20
511.94916096030857
 30
0.0
 11
362.1234698795634
 21
511.94916096030857
 31
0.0
  0
LINE
  5
95AF
  8
0
 10
294.41346987956342
 20
511.94916096030857
 30
0.0
 11
294.41346987956342
 21
514.04416096030855
 31
0.0
  0
LINE
  5
95B0
  8
0
 10
293.49346987956352
 20
514.04916096030854
 30
0.0
 11
376.99346987956352
 21
514.04916096030854
 31
0.0
  0
LINE
  5
95B1
  8
0
 10
362.1234698795634
 20
511.94916096030857
 30
0.0
 11
372.39346987956338
 21
501.67916096030848
 31
0.0
  0
LINE
  5
95B2
  8
0
 10
364.01346987956339
 20
513.01916096030868
 30
0.0
 11
373.46346987956349
 21
503.56916096030852
 31
0.0
  0
CIRCLE
  5
95B3
  8
0
 10
373.49346987956352
 20
509.04916096030848
 30
0.0
 40
3.5
  0
CIRCLE
  5
95B4
  8
0
 10
373.49346987956352
 20
509.04916096030848
 30
0.0
 40
3.299999999999998
  0
LINE
  5
95B5
  8
0
 10
374.92346987956341
 20
509.72459996030852
 30
0.0
 11
376.50360687956339
 21
509.72459996030852
 31
0.0
  0
LINE
  5
95B6
  8
0
 10
374.92346987956341
 20
508.37372196030861
 30
0.0
 11
376.50360687956339
 21
508.37372196030861
 31
0.0
  0
LINE
  5
95B7
  8
0
 10
370.26333287956351
 20
509.50459996030861
 30
0.0
 11
370.26333287956351
 21
508.5937219603087
 31
0.0
  0
ARC
  5
95B8
  8
0
 10
370.48333287956348
 20
508.5937219603087
 30
0.0
 40
0.22
 50
180.0
 51
270.0
  0
LINE
  5
95B9
  8
0
 10
374.92346987956341
 20
508.37372196030861
 30
0.0
 11
374.26346987956339
 21
508.37372196030861
 31
0.0
  0
ARC
  5
95BA
  8
0
 10
374.92346987956341
 20
508.5937219603087
 30
0.0
 40
0.22
 50
270.0
 51
0.0
  0
LINE
  5
95BB
  8
0
 10
374.04346987956342
 20
507.61916096030848
 30
0.0
 11
374.04346987956342
 21
508.15372196030847
 31
0.0
  0
LINE
  5
95BC
  8
0
 10
372.94346987956351
 20
507.61916096030848
 30
0.0
 11
372.94346987956351
 21
508.15372196030847
 31
0.0
  0
LINE
  5
95BD
  8
0
 10
372.72346987956348
 20
508.37372196030861
 30
0.0
 11
372.06346987956351
 21
508.37372196030861
 31
0.0
  0
ARC
  5
95BE
  8
0
 10
372.06346987956351
 20
508.5937219603087
 30
0.0
 40
0.22
 50
180.0
 51
270.0
  0
ARC
  5
95BF
  8
0
 10
374.26346987956339
 20
508.15372196030847
 30
0.0
 40
0.22
 50
90.0
 51
180.0
  0
ARC
  5
95C0
  8
0
 10
372.72346987956348
 20
508.15372196030847
 30
0.0
 40
0.22
 50
0.0
 51
90.0
  0
LINE
  5
95C1
  8
0
 10
373.16346987956342
 20
507.39916096030862
 30
0.0
 11
373.8234698795635
 21
507.39916096030862
 31
0.0
  0
ARC
  5
95C2
  8
0
 10
373.16346987956342
 20
507.61916096030848
 30
0.0
 40
0.22
 50
180.0
 51
270.0
  0
ARC
  5
95C3
  8
0
 10
373.8234698795635
 20
507.61916096030848
 30
0.0
 40
0.22
 50
270.0
 51
0.0
  0
LINE
  5
95C4
  8
0
 10
372.06346987956351
 20
508.37372196030861
 30
0.0
 11
370.48333287956348
 21
508.37372196030861
 31
0.0
  0
LINE
  5
95C5
  8
0
 10
374.26346987956339
 20
509.72459996030852
 30
0.0
 11
374.92346987956341
 21
509.72459996030852
 31
0.0
  0
ARC
  5
95C6
  8
0
 10
374.92346987956341
 20
509.50459996030861
 30
0.0
 40
0.22
 50
0.0
 51
90.0
  0
ARC
  5
95C7
  8
0
 10
373.16346987956342
 20
510.47916096030877
 30
0.0
 40
0.22
 50
90.0
 51
180.0
  0
ARC
  5
95C8
  8
0
 10
373.8234698795635
 20
510.47916096030877
 30
0.0
 40
0.22
 50
0.0
 51
90.0
  0
LINE
  5
95C9
  8
0
 10
372.06346987956351
 20
509.72459996030852
 30
0.0
 11
370.48333287956348
 21
509.72459996030852
 31
0.0
  0
ARC
  5
95CA
  8
0
 10
374.26346987956339
 20
509.94459996030849
 30
0.0
 40
0.22
 50
180.0
 51
270.0
  0
ARC
  5
95CB
  8
0
 10
372.72346987956348
 20
509.94459996030849
 30
0.0
 40
0.22
 50
270.0
 51
0.0
  0
LINE
  5
95CC
  8
0
 10
372.06346987956351
 20
509.72459996030852
 30
0.0
 11
372.72346987956348
 21
509.72459996030852
 31
0.0
  0
ARC
  5
95CD
  8
0
 10
372.06346987956351
 20
509.50459996030861
 30
0.0
 40
0.22
 50
90.0
 51
180.0
  0
LINE
  5
95CE
  8
0
 10
374.04346987956342
 20
510.47916096030877
 30
0.0
 11
374.04346987956342
 21
509.94459996030849
 31
0.0
  0
LINE
  5
95CF
  8
0
 10
372.94346987956351
 20
509.94459996030849
 30
0.0
 11
372.94346987956351
 21
510.47916096030877
 31
0.0
  0
LINE
  5
95D0
  8
0
 10
373.16346987956342
 20
510.69916096030857
 30
0.0
 11
373.8234698795635
 21
510.69916096030857
 31
0.0
  0
ARC
  5
95D1
  8
0
 10
370.48333287956348
 20
509.50459996030861
 30
0.0
 40
0.22
 50
90.0
 51
180.0
  0
LINE
  5
95D2
  8
0
 10
371.84346987956349
 20
508.5937219603087
 30
0.0
 11
371.84346987956349
 21
509.50459996030861
 31
0.0
  0
LINE
  5
95D3
  8
0
 10
375.14346987956338
 20
508.5937219603087
 30
0.0
 11
375.14346987956338
 21
509.50459996030861
 31
0.0
  0
ARC
  5
95D4
  8
0
 10
361.53142487956347
 20
510.5436729603087
 30
0.0
 40
3.5055079999999998
 50
44.92420899999815
 51
89.803122999998919
  0
LINE
  5
95D5
  8
0
 10
378.99346987956352
 20
512.04916096030854
 30
0.0
 11
378.99346987956352
 21
504.54916096030848
 31
0.0
  0
ARC
  5
95D6
  8
0
 10
376.50360687956339
 20
508.5937219603087
 30
0.0
 40
0.22
 50
270.0
 51
0.0
  0
ARC
  5
95D7
  8
0
 10
376.50360687956339
 20
509.50459996030861
 30
0.0
 40
0.22
 50
0.0
 51
90.0
  0
LINE
  5
95D8
  8
0
 10
376.72360687956348
 20
508.5937219603087
 30
0.0
 11
376.72360687956348
 21
509.50459996030861
 31
0.0
  0
ARC
  5
95D9
  8
0
 10
376.99346987956352
 20
512.04916096030854
 30
0.0
 40
2.0
 50
0.0
 51
90.0
  0
LINE
  5
95DA
  8
0
 10
372.39346987956338
 20
501.67916096030848
 30
0.0
 11
372.39346987956338
 21
454.41916096030849
 31
0.0
  0
LINE
  5
95DB
  8
0
 10
374.49346987956352
 20
501.0991609603085
 30
0.0
 11
374.49346987956352
 21
454.99916096030847
 31
0.0
  0
ARC
  5
95DC
  8
0
 10
376.49346987956352
 20
500.54916096030848
 30
0.0
 40
2.0
 50
90.0
 51
180.0
  0
ARC
  5
95DD
  8
0
 10
370.98846587956359
 20
501.08731696030861
 30
0.0
 40
3.5050239999999979
 50
0.1936060000054397
 51
45.079061999995929
  0
ARC
  5
95DE
  8
0
 10
376.99346987956352
 20
504.54916096030848
 30
0.0
 40
2.0
 50
270.0
 51
0.0
  0
LINE
  5
95DF
  8
0
 10
376.99346987956352
 20
502.54916096030848
 30
0.0
 11
376.49346987956352
 21
502.54916096030848
 31
0.0
  0
ARC
  5
95E0
  8
0
 10
374.48596087956338
 20
483.04165196030851
 30
0.0
 40
0.507564
 50
0.8476510000084681
 51
89.152348999997997
  0
LINE
  5
95E1
  8
0
 10
374.99346987956352
 20
483.04916096030848
 30
0.0
 11
374.99346987956352
 21
473.04916096030848
 31
0.0
  0
ARC
  5
95E2
  8
0
 10
374.4939038795635
 20
473.04872696030827
 30
0.0
 40
0.499566
 50
269.95018499999878
 51
0.0498150000076779
  0
LINE
  5
95E3
  8
0
 10
373.46346987956349
 20
452.5191609603088
 30
0.0
 11
364.01346987956339
 21
443.06916096030852
 31
0.0
  0
LINE
  5
95E4
  8
0
 10
372.39346987956338
 20
454.41916096030849
 30
0.0
 11
362.1234698795634
 21
444.14916096030868
 31
0.0
  0
ARC
  5
95E5
  8
0
 10
376.49346987956352
 20
455.54916096030848
 30
0.0
 40
2.0
 50
180.0
 51
270.0
  0
ARC
  5
95E6
  8
0
 10
370.9902148795635
 20
455.00025096030862
 30
0.0
 40
3.5032559999999981
 50
314.90939599999928
 51
359.98217399999498
  0
LINE
  5
95E7
  8
0
 10
370.26333287956351
 20
447.50459996030861
 30
0.0
 11
370.26333287956351
 21
446.5937219603087
 31
0.0
  0
ARC
  5
95E8
  8
0
 10
373.8234698795635
 20
448.47916096030849
 30
0.0
 40
0.22
 50
0.0
 51
90.0
  0
ARC
  5
95E9
  8
0
 10
373.16346987956342
 20
448.47916096030849
 30
0.0
 40
0.22
 50
90.0
 51
180.0
  0
LINE
  5
95EA
  8
0
 10
373.16346987956342
 20
448.69916096030857
 30
0.0
 11
373.8234698795635
 21
448.69916096030857
 31
0.0
  0
LINE
  5
95EB
  8
0
 10
374.92346987956341
 20
447.72459996030852
 30
0.0
 11
376.50360687956339
 21
447.72459996030852
 31
0.0
  0
ARC
  5
95EC
  8
0
 10
370.48333287956348
 20
447.50459996030861
 30
0.0
 40
0.22
 50
90.0
 51
180.0
  0
ARC
  5
95ED
  8
0
 10
376.50360687956339
 20
447.50459996030861
 30
0.0
 40
0.22
 50
0.0
 51
90.0
  0
ARC
  5
95EE
  8
0
 10
372.72346987956348
 20
447.94459996030849
 30
0.0
 40
0.22
 50
270.0
 51
0.0
  0
ARC
  5
95EF
  8
0
 10
374.26346987956339
 20
447.94459996030849
 30
0.0
 40
0.22
 50
180.0
 51
270.0
  0
LINE
  5
95F0
  8
0
 10
374.92346987956341
 20
447.72459996030852
 30
0.0
 11
374.26346987956339
 21
447.72459996030852
 31
0.0
  0
ARC
  5
95F1
  8
0
 10
372.06346987956351
 20
447.50459996030861
 30
0.0
 40
0.22
 50
90.0
 51
180.0
  0
LINE
  5
95F2
  8
0
 10
372.06346987956351
 20
447.72459996030852
 30
0.0
 11
370.48333287956348
 21
447.72459996030852
 31
0.0
  0
LINE
  5
95F3
  8
0
 10
372.72346987956348
 20
447.72459996030852
 30
0.0
 11
372.06346987956351
 21
447.72459996030852
 31
0.0
  0
ARC
  5
95F4
  8
0
 10
374.92346987956341
 20
447.50459996030861
 30
0.0
 40
0.22
 50
0.0
 51
90.0
  0
LINE
  5
95F5
  8
0
 10
372.94346987956351
 20
448.47916096030849
 30
0.0
 11
372.94346987956351
 21
447.94459996030849
 31
0.0
  0
LINE
  5
95F6
  8
0
 10
374.04346987956342
 20
448.47916096030849
 30
0.0
 11
374.04346987956342
 21
447.94459996030849
 31
0.0
  0
LINE
  5
95F7
  8
0
 10
374.92346987956341
 20
446.37372196030861
 30
0.0
 11
376.50360687956339
 21
446.37372196030861
 31
0.0
  0
ARC
  5
95F8
  8
0
 10
370.48333287956348
 20
446.5937219603087
 30
0.0
 40
0.22
 50
180.0
 51
270.0
  0
LINE
  5
95F9
  8
0
 10
372.94346987956351
 20
446.15372196030847
 30
0.0
 11
372.94346987956351
 21
445.6191609603087
 31
0.0
  0
LINE
  5
95FA
  8
0
 10
374.04346987956342
 20
445.6191609603087
 30
0.0
 11
374.04346987956342
 21
446.15372196030847
 31
0.0
  0
ARC
  5
95FB
  8
0
 10
373.16346987956342
 20
445.6191609603087
 30
0.0
 40
0.22
 50
180.0
 51
270.0
  0
ARC
  5
95FC
  8
0
 10
373.8234698795635
 20
445.6191609603087
 30
0.0
 40
0.22
 50
270.0
 51
0.0
  0
LINE
  5
95FD
  8
0
 10
373.16346987956342
 20
445.39916096030862
 30
0.0
 11
373.8234698795635
 21
445.39916096030862
 31
0.0
  0
LINE
  5
95FE
  8
0
 10
374.26346987956339
 20
446.37372196030861
 30
0.0
 11
374.92346987956341
 21
446.37372196030861
 31
0.0
  0
ARC
  5
95FF
  8
0
 10
372.06346987956351
 20
446.5937219603087
 30
0.0
 40
0.22
 50
180.0
 51
270.0
  0
LINE
  5
9600
  8
0
 10
372.06346987956351
 20
446.37372196030861
 30
0.0
 11
370.48333287956348
 21
446.37372196030861
 31
0.0
  0
LINE
  5
9601
  8
0
 10
372.06346987956351
 20
446.37372196030861
 30
0.0
 11
372.72346987956348
 21
446.37372196030861
 31
0.0
  0
ARC
  5
9602
  8
0
 10
374.92346987956341
 20
446.5937219603087
 30
0.0
 40
0.22
 50
270.0
 51
0.0
  0
ARC
  5
9603
  8
0
 10
372.72346987956348
 20
446.15372196030847
 30
0.0
 40
0.22
 50
0.0
 51
90.0
  0
ARC
  5
9604
  8
0
 10
374.26346987956339
 20
446.15372196030847
 30
0.0
 40
0.22
 50
90.0
 51
180.0
  0
ARC
  5
9605
  8
0
 10
376.50360687956339
 20
446.5937219603087
 30
0.0
 40
0.22
 50
270.0
 51
0.0
  0
LINE
  5
9606
  8
0
 10
375.14346987956338
 20
447.50459996030861
 30
0.0
 11
375.14346987956338
 21
446.5937219603087
 31
0.0
  0
LINE
  5
9607
  8
0
 10
376.72360687956348
 20
447.50459996030861
 30
0.0
 11
376.72360687956348
 21
446.5937219603087
 31
0.0
  0
LINE
  5
9608
  8
0
 10
371.84346987956349
 20
447.50459996030861
 30
0.0
 11
371.84346987956349
 21
446.5937219603087
 31
0.0
  0
CIRCLE
  5
9609
  8
0
 10
373.49346987956352
 20
447.04916096030848
 30
0.0
 40
3.299999999999998
  0
CIRCLE
  5
960A
  8
0
 10
373.49346987956352
 20
447.04916096030848
 30
0.0
 40
3.5
  0
ARC
  5
960B
  8
0
 10
376.99346987956352
 20
451.54916096030848
 30
0.0
 40
2.0
 50
0.0
 51
90.0
  0
LINE
  5
960C
  8
0
 10
378.99346987956352
 20
444.04916096030848
 30
0.0
 11
378.99346987956352
 21
451.54916096030848
 31
0.0
  0
LINE
  5
960D
  8
0
 10
376.99346987956352
 20
453.54916096030848
 30
0.0
 11
376.49346987956352
 21
453.54916096030848
 31
0.0
  0
ARC
  5
960E
  8
0
 10
376.99346987956352
 20
444.04916096030848
 30
0.0
 40
2.0
 50
270.0
 51
0.0
  0
LINE
  5
960F
  8
0
 10
362.1234698795634
 20
444.14916096030868
 30
0.0
 11
294.41346987956342
 21
444.14916096030868
 31
0.0
  0
LINE
  5
9610
  8
0
 10
293.49346987956352
 20
442.04916096030848
 30
0.0
 11
376.99346987956352
 21
442.04916096030848
 31
0.0
  0
ARC
  5
9611
  8
0
 10
361.54552987956339
 20
445.54480896030861
 30
0.0
 40
3.495648999999998
 50
269.96623299999862
 51
314.91065800000428
  0
LINE
  5
9612
  8
0
 10
294.41346987956342
 20
444.14916096030868
 30
0.0
 11
294.41346987956342
 21
442.04916096030848
 31
0.0
  0
LINE
  5
9613
  8
0
 10
289.49346987956352
 20
460.04916096030848
 30
0.0
 11
289.49346987956352
 21
450.04916096030848
 31
0.0
  0
ARC
  5
9614
  8
0
 10
289.99401687956339
 20
460.04861396030861
 30
0.0
 40
0.5005470000000001
 50
90.0626249999995
 51
179.93737500000049
  0
ARC
  5
9615
  8
0
 10
289.9861138795635
 20
450.04180496030853
 30
0.0
 40
0.492699
 50
179.14456000001019
 51
270.85544000000289
  0
ARC
  5
9616
  8
0
 10
293.4861138795635
 20
445.54180496030853
 30
0.0
 40
3.4926519999999979
 50
179.87932800000809
 51
270.12067199999842
  0
ARC
  5
9617
  8
0
 10
289.98596187956338
 20
496.04165296030862
 30
0.0
 40
0.492549
 50
179.12656200000259
 51
270.87343799999729
  0
LINE
  5
9618
  8
0
 10
243.49346987956349
 20
516.76859596030852
 30
0.0
 11
375.99346987956352
 21
516.76859596030852
 31
0.0
  0
LINE
  5
9619
  8
0
 10
251.8634698795635
 20
515.91682296030865
 30
0.0
 11
301.49346987956352
 21
515.91682296030865
 31
0.0
  0
LINE
  5
961A
  8
0
 10
243.49346987956349
 20
516.76859596030852
 30
0.0
 11
251.8634698795635
 21
515.91682296030865
 31
0.0
  0
LINE
  5
961B
  8
0
 10
250.16857587956341
 20
439.32972596030862
 30
0.0
 11
375.99346987956352
 21
439.32972596030862
 31
0.0
  0
LINE
  5
961C
  8
0
 10
251.8634698795635
 20
440.1814989603086
 30
0.0
 11
301.49346987956352
 21
440.1814989603086
 31
0.0
  0
LINE
  5
961D
  8
0
 10
243.49346987956349
 20
443.6903719603086
 30
0.0
 11
243.49346987956349
 21
516.76859596030852
 31
0.0
  0
LINE
  5
961E
  8
0
 10
248.9566458795635
 20
439.88568596030848
 30
0.0
 11
251.8634698795635
 21
440.1814989603086
 31
0.0
  0
LINE
  5
961F
  8
0
 10
251.8634698795635
 20
440.1814989603086
 30
0.0
 11
251.8634698795635
 21
515.91682296030865
 31
0.0
  0
ARC
  5
9620
  8
0
 10
375.99346987956352
 20
513.76859596030852
 30
0.0
 40
3.0
 50
0.0
 51
90.0
  0
LINE
  5
9621
  8
0
 10
378.99346987956352
 20
513.76859596030852
 30
0.0
 11
378.99346987956352
 21
442.32972596030851
 31
0.0
  0
ARC
  5
9622
  8
0
 10
375.99346987956352
 20
442.32972596030851
 30
0.0
 40
3.0
 50
270.0
 51
0.0
  0
LINE
  5
9623
  8
0
 10
304.99346987956352
 20
515.54916096030854
 30
0.0
 11
375.99346987956352
 21
515.54916096030854
 31
0.0
  0
LINE
  5
9624
  8
0
 10
302.49346987956352
 20
514.91682296030865
 30
0.0
 11
302.49346987956352
 21
514.04916096030854
 31
0.0
  0
ARC
  5
9625
  8
0
 10
304.98819687956347
 20
513.55443396030864
 30
0.0
 40
1.994734
 50
89.848547999999084
 51
165.63982299999881
  0
ARC
  5
9626
  8
0
 10
301.49346987956352
 20
514.91682296030865
 30
0.0
 40
1.0
 50
0.0
 51
90.0
  0
ARC
  5
9627
  8
0
 10
375.99293787956339
 20
513.54862896030852
 30
0.0
 40
2.0005329999999999
 50
6.9164320000012927
 51
89.984749999998257
  0
ARC
  5
9628
  8
0
 10
301.49346987956352
 20
441.1814989603086
 30
0.0
 40
1.0
 50
270.0
 51
0.0
  0
ARC
  5
9629
  8
0
 10
304.98819687956347
 20
442.54388796030872
 30
0.0
 40
1.994734
 50
194.36017700000119
 51
270.15145200000092
  0
LINE
  5
962A
  8
0
 10
304.99346987956352
 20
440.54916096030848
 30
0.0
 11
375.99346987956352
 21
440.54916096030848
 31
0.0
  0
ARC
  5
962B
  8
0
 10
375.99293787956339
 20
442.54969296030851
 30
0.0
 40
2.0005329999999999
 50
270.01524999999521
 51
353.08356799999871
  0
LINE
  5
962C
  8
0
 10
240.99346987956349
 20
561.6694579603087
 30
0.0
 11
243.77022887956349
 21
561.6694579603087
 31
0.0
  0
LINE
  5
962D
  8
0
  6
AM_ISO08W050
 10
224.49346987956349
 20
488.74856196030862
 30
0.0
 11
224.49346987956349
 21
467.06616096030859
 31
0.0
  0
LINE
  5
962E
  8
0
 10
209.99346987956349
 20
480.54916096030848
 30
0.0
 11
240.99346987956349
 21
480.54916096030848
 31
0.0
  0
ARC
  5
962F
  8
0
 10
224.49346987956349
 20
478.04916096030848
 30
0.0
 40
9.0
 50
16.127619999994529
 51
163.87239099999621
  0
ARC
  5
9630
  8
0
 10
224.49346987956349
 20
478.04916096030848
 30
0.0
 40
5.5
 50
27.035691999997152
 51
152.9643080000028
  0
LINE
  5
9631
  8
0
 10
209.99346987956349
 20
475.54916096030848
 30
0.0
 11
240.99346987956349
 21
475.54916096030848
 31
0.0
  0
ARC
  5
9632
  8
0
 10
224.49346987956349
 20
478.04916096030848
 30
0.0
 40
9.0
 50
196.1276090000037
 51
343.87238000000548
  0
ARC
  5
9633
  8
0
 10
224.49346987956349
 20
478.04916096030848
 30
0.0
 40
5.5
 50
207.0356919999972
 51
332.96430800000292
  0
LINE
  5
9634
  8
0
 10
240.99346987956349
 20
575.04916096030854
 30
0.0
 11
240.99346987956349
 21
480.54916096030848
 31
0.0
  0
LINE
  5
9635
  8
0
 10
209.99346987956349
 20
480.54916096030848
 30
0.0
 11
209.49346987956349
 21
481.04916096030848
 31
0.0
  0
LINE
  5
9636
  8
0
 10
209.99346987956349
 20
475.54916096030848
 30
0.0
 11
209.49346987956349
 21
475.04916096030848
 31
0.0
  0
LINE
  5
9637
  8
0
 10
240.99346987956349
 20
480.54916096030848
 30
0.0
 11
241.49346987956349
 21
481.04916096030848
 31
0.0
  0
LINE
  5
9638
  8
0
 10
240.99346987956349
 20
475.54916096030848
 30
0.0
 11
241.49346987956349
 21
475.04916096030848
 31
0.0
  0
LINE
  5
9639
  8
0
 10
241.49346987956349
 20
481.04916096030848
 30
0.0
 11
243.49346987956349
 21
481.04916096030848
 31
0.0
  0
LINE
  5
963A
  8
0
 10
241.49346987956349
 20
475.04916096030848
 30
0.0
 11
243.49346987956349
 21
475.04916096030848
 31
0.0
  0
LINE
  5
963B
  8
0
 10
243.49346987956349
 20
481.04916096030848
 30
0.0
 11
243.49346987956349
 21
475.04916096030848
 31
0.0
  0
LINE
  5
963C
  8
0
 10
329.49346987956352
 20
579.04916096030854
 30
0.0
 11
351.49346987956352
 21
579.04916096030854
 31
0.0
  0
LINE
  5
963D
  8
0
 10
329.49346987956352
 20
579.04916096030854
 30
0.0
 11
329.49346987956352
 21
575.14587996030855
 31
0.0
  0
LINE
  5
963E
  8
0
 10
351.49346987956352
 20
579.04916096030854
 30
0.0
 11
351.49346987956352
 21
575.14587996030855
 31
0.0
  0
LINE
  5
963F
  8
0
 10
209.49346987956349
 20
475.04916096030848
 30
0.0
 11
141.50193787956351
 21
475.04916096030848
 31
0.0
  0
LINE
  5
9640
  8
0
 10
240.99346987956349
 20
381.0491609603086
 30
0.0
 11
137.4923408795635
 21
381.0491609603086
 31
0.0
  0
LINE
  5
9641
  8
0
 10
240.99346987956349
 20
575.04916096030854
 30
0.0
 11
137.4923408795635
 21
575.04916096030854
 31
0.0
  0
LINE
  5
9642
  8
0
 10
245.25346987956351
 20
535.74916096030881
 30
0.0
 11
440.73346987956347
 21
535.74916096030881
 31
0.0
  0
LINE
  5
9643
  8
0
 10
245.25346987956351
 20
537.34916096030872
 30
0.0
 11
440.73346987956347
 21
537.34916096030872
 31
0.0
  0
LINE
  5
9644
  8
0
 10
243.49346987956349
 20
535.20916096030851
 30
0.0
 11
442.49346987956352
 21
535.20916096030851
 31
0.0
  0
LINE
  5
9645
  8
0
 10
243.49346987956349
 20
537.90916096030855
 30
0.0
 11
442.49346987956352
 21
537.90916096030855
 31
0.0
  0
LINE
  5
9646
  8
0
 10
243.49346987956349
 20
527.23416096030849
 30
0.0
 11
442.49346987956352
 21
527.23416096030849
 31
0.0
  0
LINE
  5
9647
  8
0
 10
243.49346987956349
 20
529.8641609603086
 30
0.0
 11
442.49346987956352
 21
529.8641609603086
 31
0.0
  0
LINE
  5
9648
  8
0
 10
245.25346987956351
 20
527.72416096030872
 30
0.0
 11
440.73346987956347
 21
527.72416096030872
 31
0.0
  0
LINE
  5
9649
  8
0
 10
245.25346987956351
 20
529.32416096030863
 30
0.0
 11
440.73346987956347
 21
529.32416096030863
 31
0.0
  0
LINE
  5
964A
  8
0
 10
447.49346987956329
 20
393.04916096030848
 30
0.0
 11
444.49346987956318
 21
390.04916096030848
 31
0.0
  0
LINE
  5
964B
  8
0
 10
447.49346987956329
 20
393.04916096030848
 30
0.0
 11
447.49346987956329
 21
563.04916096030854
 31
0.0
  0
LINE
  5
964C
  8
0
 10
447.49346987956329
 20
563.04916096030854
 30
0.0
 11
444.49346987956318
 21
566.04916096030854
 31
0.0
  0
LINE
  5
A06D
  8
0
  6
CONTINUOUS
 10
447.49345987956423
 20
813.58711161738006
 30
0.0
 11
486.99346987956318
 21
813.58711161738006
 31
0.0
  0
LINE
  5
A06E
  8
0
  6
CONTINUOUS
 10
447.49345987956423
 20
803.40781961737991
 30
0.0
 11
486.99346987956318
 21
803.40781961737991
 31
0.0
  0
LINE
  5
A06F
  8
0
  6
CONTINUOUS
 10
447.49345987956423
 20
791.10018061738015
 30
0.0
 11
486.99346987956318
 21
791.10018061738015
 31
0.0
  0
LINE
  5
A070
  8
0
  6
CONTINUOUS
 10
447.49345987956423
 20
915.37577961738032
 30
0.0
 11
486.99346987956318
 21
915.37577961738032
 31
0.0
  0
LINE
  5
A071
  8
0
  6
CONTINUOUS
 10
447.49345987956423
 20
929.04946161738019
 30
0.0
 11
486.99346987956318
 21
929.04946161738019
 31
0.0
  0
LINE
  5
A072
  8
0
  6
AM_ISO08W050
 10
106.8855008586975
 20
853.30981761738008
 30
0.0
 11
712.50749987956465
 21
853.30981761738008
 31
0.0
  0
LINE
  5
A104
  8
0
 10
447.49345987956423
 20
768.30981761738008
 30
0.0
 11
447.49345987956423
 21
938.30981761738042
 31
0.0
  0
LINE
  5
A109
  8
0
  6
CONTINUOUS
 62
     0
 10
483.13300987956438
 20
768.15253761738018
 30
0.0
 11
447.49345987956389
 21
769.39705775680875
 31
0.0
  0
LINE
  5
A10A
  8
0
  6
CONTINUOUS
 62
     0
 10
483.13306987956429
 20
938.46704761737965
 30
0.0
 11
447.49345987956389
 21
937.22245235525213
 31
0.0
  0
ARC
  5
A10F
  8
0
  6
CONTINUOUS
 62
     0
 10
482.99348987956421
 20
764.15497761738015
 30
0.0
 40
4.0
 50
0.0
 51
87.999999999996248
  0
ARC
  5
A110
  8
0
  6
CONTINUOUS
 62
     0
 10
482.99348987956421
 20
942.46460761738001
 30
0.0
 40
4.0
 50
272.00000000000369
 51
0.0
  0
ARC
  5
A111
  8
0
 10
248.4370338795641
 20
770.90913761738022
 30
0.0
 40
2.0
 50
189.99999999999861
 51
270.0
  0
LINE
  5
A112
  8
0
 10
246.46741887956409
 20
770.5618416173802
 30
0.0
 11
243.49338987956409
 21
787.42839561737981
 31
0.0
  0
LINE
  5
A113
  8
0
 10
243.49338987956409
 20
787.42839561737981
 30
0.0
 11
244.55512887956411
 21
787.42839561737981
 31
0.0
  0
LINE
  5
A114
  8
0
 10
441.95753087956359
 20
939.48212461738035
 30
0.0
 11
442.49338987956412
 21
939.48212461738035
 31
0.0
  0
LINE
  5
A115
  8
0
 10
442.21792187956407
 20
941.04438161738005
 30
0.0
 11
442.49338987956412
 21
941.04438161738005
 31
0.0
  0
LINE
  5
A116
  8
0
 10
444.17158887956401
 20
765.30996861737992
 30
0.0
 11
444.49338987956412
 21
765.30996861737992
 31
0.0
  0
LINE
  5
A117
  8
0
 10
440.31399487956378
 20
770.15783161738022
 30
0.0
 11
442.49338987956412
 21
770.15783161738022
 31
0.0
  0
LINE
  5
A118
  8
0
 10
441.32007787956411
 20
782.26340161737994
 30
0.0
 11
442.49338987956412
 21
782.26340161737994
 31
0.0
  0
LINE
  5
A119
  8
0
 10
340.49338987956412
 20
745.65385261738015
 30
0.0
 11
340.49338987956412
 21
754.83556861738009
 31
0.0
  0
ARC
  5
A11A
  8
0
 10
438.73626987956408
 20
942.31806561738028
 30
0.0
 40
2.0
 50
9.9999999999986073
 51
90.0
  0
ARC
  5
A11B
  8
0
 10
438.80228687956401
 20
945.85886461738005
 30
0.0
 40
2.0
 50
9.9999999999986073
 51
90.0
  0
ARC
  5
A11C
  8
0
 10
438.88820487956423
 20
948.41060161738017
 30
0.0
 40
2.0
 50
9.9999999999986073
 51
90.0
  0
ARC
  5
A11D
  8
0
 10
438.91695387956389
 20
949.80981761738008
 30
0.0
 40
2.0
 50
9.9999999999986073
 51
90.0
  0
LINE
  5
A11E
  8
0
 10
447.49339287956423
 20
938.30981761738008
 30
0.0
 11
444.49339287956411
 21
941.30981761738019
 31
0.0
  0
LINE
  5
A11F
  8
0
 10
240.99338987956409
 20
950.30979161738026
 30
0.0
 11
240.99338987956409
 21
756.30981761737996
 31
0.0
  0
LINE
  5
A120
  8
0
 10
442.446585879564
 20
941.30981761738019
 30
0.0
 11
444.49338987956412
 21
941.30981761738019
 31
0.0
  0
LINE
  5
A121
  8
0
 10
447.49338987956412
 20
768.30981761738008
 30
0.0
 11
444.49338987956412
 21
765.30981761737985
 31
0.0
  0
LINE
  5
A122
  8
0
 10
444.49338987956412
 20
765.30981761737985
 30
0.0
 11
444.49338987956412
 21
790.93020361738024
 31
0.0
  0
LINE
  5
A123
  8
0
 10
447.49338987956412
 20
768.30981761738008
 30
0.0
 11
447.49338987956412
 21
938.30981761738008
 31
0.0
  0
CIRCLE
  5
A124
  8
0
 10
340.49338987956412
 20
853.30981761738008
 30
0.0
 40
11.0
  0
LINE
  5
A125
  8
0
 10
247.7795098795641
 20
951.80981761738019
 30
0.0
 11
299.49338987956412
 21
951.80981761738019
 31
0.0
  0
LINE
  5
A126
  8
0
 10
379.49338987956412
 20
944.3180656173804
 30
0.0
 11
379.49338987956412
 21
949.80981761738008
 31
0.0
  0
LINE
  5
A127
  8
0
 10
301.49338987956412
 20
944.3180656173804
 30
0.0
 11
301.49338987956412
 21
949.80981761738008
 31
0.0
  0
ARC
  5
A128
  8
0
 10
299.49338987956412
 20
949.80981761738008
 30
0.0
 40
2.0
 50
0.0
 51
90.0
  0
ARC
  5
A129
  8
0
 10
381.49338987956412
 20
949.80981761738008
 30
0.0
 40
2.0
 50
90.0
 51
180.0
  0
LINE
  5
A12A
  8
0
 10
381.49338987956412
 20
951.80981761738019
 30
0.0
 11
438.91695387956389
 21
951.80981761738019
 31
0.0
  0
LINE
  5
A12B
  8
0
 10
438.88820487956423
 20
950.41060161738017
 30
0.0
 11
381.49338987956412
 21
950.41060161738017
 31
0.0
  0
LINE
  5
A12C
  8
0
 10
442.49338987956412
 20
939.48212461738035
 30
0.0
 11
440.85782087956369
 21
948.75789761738019
 31
0.0
  0
LINE
  5
A12D
  8
0
 10
442.49338987956412
 20
941.04438161738005
 30
0.0
 11
440.88656887956421
 21
950.15711361738033
 31
0.0
  0
LINE
  5
A12E
  8
0
 10
243.49338987956409
 20
937.01956361738019
 30
0.0
 11
245.8098948795641
 21
950.15711361738033
 31
0.0
  0
ARC
  5
A12F
  8
0
 10
247.7795098795641
 20
949.80981761738008
 30
0.0
 40
2.0
 50
90.0
 51
170.00000000000139
  0
LINE
  5
A130
  8
0
 10
243.49338987956409
 20
935.36050261738001
 30
0.0
 11
245.8557118795641
 21
948.75789761738019
 31
0.0
  0
ARC
  5
A131
  8
0
 10
247.82532787956421
 20
948.41060161738017
 30
0.0
 40
2.0
 50
90.0
 51
170.00000000000139
  0
ARC
  5
A132
  8
0
 10
299.49338987956412
 20
948.41060161738017
 30
0.0
 40
2.0
 50
0.0
 51
90.0
  0
ARC
  5
A133
  8
0
 10
381.49338987956412
 20
948.41060161738017
 30
0.0
 40
2.0
 50
90.0
 51
180.0
  0
LINE
  5
A134
  8
0
 10
299.49338987956412
 20
950.41060161738017
 30
0.0
 11
247.82532787956421
 21
950.41060161738017
 31
0.0
  0
LINE
  5
A135
  8
0
 10
438.80228687956401
 20
947.85886461738016
 30
0.0
 11
381.49338987956412
 21
947.85886461738016
 31
0.0
  0
LINE
  5
A136
  8
0
 10
442.36460987956411
 20
937.1734666173802
 30
0.0
 11
440.77190187956421
 21
946.20616161738019
 31
0.0
  0
LINE
  5
A137
  8
0
 10
243.49338987956409
 20
932.13971161738016
 30
0.0
 11
245.97368487956419
 21
946.20616161738019
 31
0.0
  0
ARC
  5
A138
  8
0
 10
247.94329987956399
 20
945.85886461738005
 30
0.0
 40
2.0
 50
90.0
 51
170.00000000000139
  0
ARC
  5
A139
  8
0
 10
299.49338987956412
 20
945.85886461738005
 30
0.0
 40
2.0
 50
0.0
 51
90.0
  0
ARC
  5
A13A
  8
0
 10
381.49338987956412
 20
945.85886461738005
 30
0.0
 40
2.0
 50
90.0
 51
180.0
  0
LINE
  5
A13B
  8
0
 10
299.49338987956412
 20
947.85886461738016
 30
0.0
 11
247.94329987956399
 21
947.85886461738016
 31
0.0
  0
LINE
  5
A13C
  8
0
 10
438.73626987956408
 20
944.3180656173804
 30
0.0
 11
248.10480887956419
 21
944.3180656173804
 31
0.0
  0
LINE
  5
A13D
  8
0
 10
441.6742548795641
 20
937.1734666173802
 30
0.0
 11
440.70588587956422
 21
942.66536161738009
 31
0.0
  0
LINE
  5
A13E
  8
0
 10
243.49338987956409
 20
927.6829516173799
 30
0.0
 11
246.1351928795641
 21
942.66536161738009
 31
0.0
  0
ARC
  5
A13F
  8
0
 10
248.10480887956419
 20
942.31806561738028
 30
0.0
 40
2.0
 50
90.0
 51
170.00000000000139
  0
LINE
  5
A140
  8
0
 10
372.54974587956423
 20
937.71049761738016
 30
0.0
 11
248.4370338795641
 21
937.71049761738016
 31
0.0
  0
LINE
  5
A141
  8
0
 10
377.49338987956412
 20
919.19123961738012
 30
0.0
 11
374.51936087956409
 21
936.05779361738018
 31
0.0
  0
ARC
  5
A142
  8
0
 10
372.54974587956423
 20
935.71049761738004
 30
0.0
 40
2.0
 50
9.9999999999986073
 51
90.0
  0
LINE
  5
A143
  8
0
 10
243.49338987956409
 20
919.19123961738012
 30
0.0
 11
246.46741887956409
 21
936.05779361738018
 31
0.0
  0
ARC
  5
A144
  8
0
 10
248.4370338795641
 20
935.71049761738004
 30
0.0
 40
2.0
 50
90.0
 51
170.00000000000139
  0
LINE
  5
A145
  8
0
 10
372.219481879564
 20
932.30845361738011
 30
0.0
 11
248.7672978795643
 21
932.30845361738011
 31
0.0
  0
LINE
  5
A146
  8
0
 10
377.27233887956407
 20
913.1698176173802
 30
0.0
 11
374.1890978795642
 21
930.65575061738025
 31
0.0
  0
ARC
  5
A147
  8
0
 10
372.219481879564
 20
930.30845361738022
 30
0.0
 40
2.0
 50
9.9999999999986073
 51
90.0
  0
LINE
  5
A148
  8
0
 10
243.77038387956421
 20
913.4870856173801
 30
0.0
 11
246.79768187956421
 21
930.65575061738025
 31
0.0
  0
ARC
  5
A149
  8
0
 10
248.7672978795643
 20
930.30845361738022
 30
0.0
 40
2.0
 50
90.0
 51
170.00000000000139
  0
LINE
  5
A14A
  8
0
 10
442.49338987956412
 20
858.33996961738012
 30
0.0
 11
442.49338987956412
 21
861.28766161738008
 31
0.0
  0
LINE
  5
A14B
  8
0
 10
442.49338987956412
 20
868.33944561738019
 30
0.0
 11
442.49338987956412
 21
871.30092461738025
 31
0.0
  0
LINE
  5
A14C
  8
0
 10
442.49338987956412
 20
879.33162561738015
 30
0.0
 11
442.49338987956412
 21
882.32425261738001
 31
0.0
  0
LINE
  5
A14D
  8
0
 10
442.49338987956412
 20
890.31442061738016
 30
0.0
 11
442.49338987956412
 21
893.36012661738016
 31
0.0
  0
LINE
  5
A14E
  8
0
 10
442.49338987956412
 20
901.28429961738016
 30
0.0
 11
442.49338987956412
 21
904.41521261738023
 31
0.0
  0
LINE
  5
A14F
  8
0
 10
442.49338987956412
 20
910.24277561738006
 30
0.0
 11
442.49338987956412
 21
913.4870856173801
 31
0.0
  0
LINE
  5
A150
  8
0
 10
392.49338987956412
 20
927.6829516173799
 30
0.0
 11
375.99607187956423
 21
927.6829516173799
 31
0.0
  0
LINE
  5
A151
  8
0
 10
424.28016687956392
 20
932.52791961738001
 30
0.0
 11
408.49338987956401
 21
932.52791961738001
 31
0.0
  0
LINE
  5
A152
  8
0
 10
392.49338987956412
 20
927.6829516173799
 30
0.0
 11
408.49338987956401
 21
932.52791961738001
 31
0.0
  0
LINE
  5
A153
  8
0
 10
408.49338987956401
 20
932.52791961738001
 30
0.0
 11
408.49338987956401
 21
929.16260461738011
 31
0.0
  0
LINE
  5
A154
  8
0
 10
392.49338987956412
 20
927.6829516173799
 30
0.0
 11
392.49338987956412
 21
913.4870856173801
 31
0.0
  0
LINE
  5
A155
  8
0
 10
427.99338987956412
 20
916.3757796173802
 30
0.0
 11
427.99338987956412
 21
935.1734666173802
 31
0.0
  0
ARC
  5
A156
  8
0
 10
429.99338987956412
 20
935.1734666173802
 30
0.0
 40
2.0
 50
90.0
 51
180.0
  0
LINE
  5
A157
  8
0
 10
427.99338987956412
 20
920.76587761738006
 30
0.0
 11
408.49338987956401
 21
920.76587761738006
 31
0.0
  0
LINE
  5
A158
  8
0
 10
422.59339587956413
 20
929.16260461738011
 30
0.0
 11
408.49338987956401
 21
929.16260461738011
 31
0.0
  0
LINE
  5
A159
  8
0
 10
408.49338987956401
 20
920.76587761738006
 30
0.0
 11
408.49338987956401
 21
913.4870856173801
 31
0.0
  0
ARC
  5
A15A
  8
0
  6
CONTINUOUS
 10
425.1931888795641
 20
924.79308361738015
 30
0.0
 40
2.6003989999999999
 50
179.99998200000081
 51
269.99997799999522
  0
ARC
  5
A15B
  8
0
  6
CONTINUOUS
 10
425.1931888795641
 20
930.09307161738025
 30
0.0
 40
2.600403
 50
90.0
 51
179.99998200000081
  0
LINE
  5
A15C
  8
0
  6
CONTINUOUS
 10
427.99338987956412
 20
927.50910261737999
 30
0.0
 11
426.49338987956412
 21
926.64307761738019
 31
0.0
  0
LINE
  5
A15D
  8
0
  6
CONTINUOUS
 10
427.99338987956412
 20
928.50910261737999
 30
0.0
 11
426.49338987956412
 21
927.64307761738019
 31
0.0
  0
LINE
  5
A15E
  8
0
  6
CONTINUOUS
 10
427.99338987956412
 20
933.54307761738005
 30
0.0
 11
427.99338987956412
 21
921.34307761738012
 31
0.0
  0
LINE
  5
A15F
  8
0
  6
CONTINUOUS
 10
426.49338987956412
 20
933.54307761738005
 30
0.0
 11
427.99338987956412
 21
933.54307761738005
 31
0.0
  0
LINE
  5
A160
  8
0
  6
CONTINUOUS
 10
426.49338987956412
 20
921.34307761738012
 30
0.0
 11
427.99338987956412
 21
921.34307761738012
 31
0.0
  0
LINE
  5
A161
  8
0
  6
CONTINUOUS
 10
422.59339587956413
 20
930.09307161738025
 30
0.0
 11
422.59339587956413
 21
924.79308361738015
 31
0.0
  0
LINE
  5
A162
  8
0
  6
CONTINUOUS
 10
426.49338987956412
 20
933.54307761738005
 30
0.0
 11
426.49338987956412
 21
921.34307761738012
 31
0.0
  0
LINE
  5
A163
  8
0
  6
CONTINUOUS
 10
426.49338987956412
 20
922.19307761738014
 30
0.0
 11
425.1931888795641
 21
922.19307761738014
 31
0.0
  0
LINE
  5
A164
  8
0
  6
CONTINUOUS
 10
426.49338987956412
 20
932.69307761737991
 30
0.0
 11
425.1931888795641
 21
932.69307761737991
 31
0.0
  0
LINE
  5
A165
  8
0
 10
447.49338987956412
 20
937.1734666173802
 30
0.0
 11
429.99338987956412
 21
937.1734666173802
 31
0.0
  0
LINE
  5
A166
  8
0
 10
447.49338987956412
 20
915.37577961738032
 30
0.0
 11
426.99338987956412
 21
915.37577961738032
 31
0.0
  0
ARC
  5
A167
  8
0
 10
426.99338987956412
 20
916.3757796173802
 30
0.0
 40
1.0
 50
270.0
 51
0.0
  0
LINE
  5
A168
  8
0
 10
447.49338987956412
 20
929.04946161738019
 30
0.0
 11
429.99338987956412
 21
929.04946161738019
 31
0.0
  0
LINE
  5
A169
  8
0
 10
240.99338987956409
 20
937.30981761738008
 30
0.0
 11
243.49338987956409
 21
937.30981761738008
 31
0.0
  0
ARC
  5
A16A
  8
0
 10
444.17158887956401
 20
763.30981761738019
 30
0.0
 40
2.0
 50
90.0
 51
170.00000000000139
  0
ARC
  5
A16B
  8
0
 10
380.23603187956428
 20
758.31616061738021
 30
0.0
 40
1.9936590000000001
 50
90.075931000003507
 51
178.17025399999861
  0
LINE
  5
A16C
  8
0
 10
380.23338987956407
 20
760.30981761738008
 30
0.0
 11
439.93355587956421
 21
760.30981761738008
 31
0.0
  0
LINE
  5
A16D
  8
0
 10
377.99338987956412
 20
751.30981761738019
 30
0.0
 11
378.6094188795642
 21
768.90913761738022
 31
0.0
  0
LINE
  5
A16E
  8
0
 10
442.20197387956409
 20
763.65711361738011
 30
0.0
 11
441.9031708795639
 21
761.96252161737993
 31
0.0
  0
ARC
  5
A16F
  8
0
 10
439.93355587956421
 20
762.30981761738019
 30
0.0
 40
2.0
 50
270.0
 51
350.00000000000142
  0
LINE
  5
A170
  8
0
 10
244.0707398795642
 20
768.30981761738008
 30
0.0
 11
251.28761887956421
 21
755.80981761738008
 31
0.0
  0
LINE
  5
A171
  8
0
 10
253.01966887956431
 20
754.80981761738019
 30
0.0
 11
300.93836087956402
 21
754.80981761738019
 31
0.0
  0
LINE
  5
A172
  8
0
 10
302.99338987956412
 20
751.30981761738019
 30
0.0
 11
302.93707787956401
 21
752.88143261738026
 31
0.0
  0
ARC
  5
A173
  8
0
 10
242.33868887956419
 20
767.30981761738019
 30
0.0
 40
2.0
 50
30.000000000000551
 51
90.0
  0
ARC
  5
A174
  8
0
 10
253.01966887956431
 20
756.80981761737985
 30
0.0
 40
2.0
 50
210.00000000000051
 51
270.0
  0
ARC
  5
A175
  8
0
 10
300.93836087956402
 20
752.80981761737985
 30
0.0
 40
2.0
 50
2.0520649999985339
 51
90.0
  0
LINE
  5
A176
  8
0
 10
302.99338987956412
 20
751.30981761738019
 30
0.0
 11
377.99338987956412
 21
751.30981761738019
 31
0.0
  0
LINE
  5
A177
  8
0
 10
252.01966887956431
 20
755.07776661738023
 30
0.0
 11
252.01966887956431
 21
768.90913761738022
 31
0.0
  0
LINE
  5
A178
  8
0
 10
438.46047387956401
 20
768.90913761738022
 30
0.0
 11
248.4370338795641
 21
768.90913761738022
 31
0.0
  0
LINE
  5
A179
  8
0
 10
438.23968787956409
 20
774.31118161738027
 30
0.0
 11
248.54624687956419
 21
774.31118161738027
 31
0.0
  0
LINE
  5
A17A
  8
0
 10
442.49338987956412
 20
788.91758361738016
 30
0.0
 11
408.49338987956401
 21
788.91758361738016
 31
0.0
  0
LINE
  5
A17B
  8
0
 10
442.49338987956412
 20
788.91758361738016
 30
0.0
 11
440.20930287956412
 21
775.9638846173799
 31
0.0
  0
ARC
  5
A17C
  8
0
 10
438.23968787956409
 20
776.31118161737993
 30
0.0
 40
2.0
 50
270.0
 51
350.00000000000142
  0
LINE
  5
A17D
  8
0
 10
442.49338987956412
 20
782.26340161737994
 30
0.0
 11
440.43008887956421
 21
770.5618416173802
 31
0.0
  0
ARC
  5
A17E
  8
0
 10
438.46047387956401
 20
770.90913761738022
 30
0.0
 40
2.0
 50
270.0
 51
350.00000000000142
  0
LINE
  5
A17F
  8
0
 10
247.23612787956409
 20
769.30981761737985
 30
0.0
 11
240.99338987956409
 21
769.30981761737985
 31
0.0
  0
LINE
  5
A180
  8
0
 10
442.49338987956412
 20
770.15783161738022
 30
0.0
 11
441.04833587956409
 21
761.96252161737993
 31
0.0
  0
ARC
  5
A181
  8
0
 10
439.07871987956389
 20
762.30981761738019
 30
0.0
 40
2.0
 50
270.0
 51
350.00000000000142
  0
LINE
  5
A182
  8
0
 10
377.49338987956412
 20
805.14981761738011
 30
0.0
 11
377.49338987956412
 21
802.44981761738018
 31
0.0
  0
LINE
  5
A183
  8
0
 10
447.49338987956412
 20
791.10018061738015
 30
0.0
 11
429.99338987956412
 21
791.10018061738015
 31
0.0
  0
LINE
  5
A184
  8
0
 10
447.49338987956412
 20
803.40781961737991
 30
0.0
 11
429.99338987956412
 21
803.40781961737991
 31
0.0
  0
LINE
  5
A185
  8
0
 10
447.49338987956412
 20
813.58711161738006
 30
0.0
 11
442.49338987956412
 21
813.58711161738006
 31
0.0
  0
LINE
  5
A186
  8
0
 10
427.99338987956412
 20
812.58711161738006
 30
0.0
 11
427.99338987956412
 21
793.10018061738015
 31
0.0
  0
ARC
  5
A187
  8
0
 10
426.99338987956412
 20
812.58711161738006
 30
0.0
 40
1.0
 50
0.0
 51
42.252324000004279
  0
ARC
  5
A188
  8
0
 10
429.99338987956412
 20
793.10018061738015
 30
0.0
 40
2.0
 50
180.0
 51
270.0
  0
LINE
  5
A189
  8
0
 10
392.49338987956412
 20
910.24277561738006
 30
0.0
 11
392.49338987956412
 21
904.41521261738023
 31
0.0
  0
LINE
  5
A18A
  8
0
 10
408.49338987956401
 20
910.24277561738006
 30
0.0
 11
408.49338987956401
 21
904.41521261738023
 31
0.0
  0
LINE
  5
A18B
  8
0
 10
392.49338987956412
 20
901.28429961738016
 30
0.0
 11
392.49338987956412
 21
893.36012661738016
 31
0.0
  0
LINE
  5
A18C
  8
0
 10
392.49338987956412
 20
890.31442061738016
 30
0.0
 11
392.49338987956412
 21
882.32425261738001
 31
0.0
  0
LINE
  5
A18D
  8
0
 10
392.49338987956412
 20
879.33162561738015
 30
0.0
 11
392.49338987956412
 21
871.30092461738025
 31
0.0
  0
LINE
  5
A18E
  8
0
 10
392.49338987956412
 20
868.33944561738019
 30
0.0
 11
392.49338987956412
 21
861.28766161738008
 31
0.0
  0
LINE
  5
A18F
  8
0
 10
392.49338987956412
 20
858.46981761738016
 30
0.0
 11
392.49338987956412
 21
848.27966561738003
 31
0.0
  0
LINE
  5
A190
  8
0
 10
408.49338987956401
 20
858.46981761738016
 30
0.0
 11
408.49338987956401
 21
848.27966561738003
 31
0.0
  0
LINE
  5
A191
  8
0
 10
408.49338987956401
 20
868.33944561738019
 30
0.0
 11
408.49338987956401
 21
861.28766161738008
 31
0.0
  0
LINE
  5
A192
  8
0
 10
408.49338987956401
 20
879.33162561738015
 30
0.0
 11
408.49338987956401
 21
871.30092461738025
 31
0.0
  0
LINE
  5
A193
  8
0
 10
408.49338987956401
 20
890.31442061738016
 30
0.0
 11
408.49338987956401
 21
882.32425261738001
 31
0.0
  0
LINE
  5
A194
  8
0
 10
408.49338987956401
 20
901.28429961738016
 30
0.0
 11
408.49338987956401
 21
893.36012661738016
 31
0.0
  0
LINE
  5
A195
  8
0
 10
392.49338987956412
 20
845.33197361738007
 30
0.0
 11
392.49338987956412
 21
838.28018961738019
 31
0.0
  0
LINE
  5
A196
  8
0
 10
408.49338987956401
 20
845.33197361738007
 30
0.0
 11
408.49338987956401
 21
838.28018961738019
 31
0.0
  0
LINE
  5
A197
  8
0
 10
408.49338987956401
 20
835.31871061738025
 30
0.0
 11
408.49338987956401
 21
827.28800961738023
 31
0.0
  0
LINE
  5
A198
  8
0
 10
392.49338987956412
 20
835.31871061738025
 30
0.0
 11
392.49338987956412
 21
827.28800961738023
 31
0.0
  0
LINE
  5
A199
  8
0
 10
392.49338987956412
 20
824.29538261738026
 30
0.0
 11
392.49338987956412
 21
816.30521461738022
 31
0.0
  0
LINE
  5
A19A
  8
0
 10
408.49338987956401
 20
824.29538261738026
 30
0.0
 11
408.49338987956401
 21
816.30521461738022
 31
0.0
  0
LINE
  5
A19B
  8
0
 10
423.04278487956412
 20
797.28902161738017
 30
0.0
 11
408.49338887956418
 21
797.28902161738017
 31
0.0
  0
LINE
  5
A19C
  8
0
 10
427.99338987956412
 20
808.70137161738012
 30
0.0
 11
408.49338887956418
 21
808.70137161738012
 31
0.0
  0
LINE
  5
A19D
  8
0
 10
392.49338987956412
 20
813.25950861738022
 30
0.0
 11
392.49338987956412
 21
793.25950861738022
 31
0.0
  0
LINE
  5
A19E
  8
0
 10
444.49338987956412
 20
937.1734666173802
 30
0.0
 11
444.49338987956412
 21
941.30981761738019
 31
0.0
  0
LINE
  5
A19F
  8
0
 10
442.49338987956412
 20
767.10807361738023
 30
0.0
 11
441.58608987956399
 21
761.96252161737993
 31
0.0
  0
ARC
  5
A1A0
  8
0
 10
439.6164748795639
 20
762.30981761738019
 30
0.0
 40
2.0
 50
270.0
 51
350.00000000000142
  0
LINE
  5
A1A1
  8
0
 10
408.49338987956401
 20
813.25950861738022
 30
0.0
 11
408.49338987956401
 21
808.70137161738012
 31
0.0
  0
LINE
  5
A1A2
  8
0
 10
444.49338987956412
 20
813.58711161738006
 30
0.0
 11
444.49338987956412
 21
915.37577961738032
 31
0.0
  0
LINE
  5
A1A3
  8
0
 10
243.49338987956409
 20
793.44981761738018
 30
0.0
 11
246.57663187956439
 21
775.9638846173799
 31
0.0
  0
ARC
  5
A1A4
  8
0
 10
248.54624687956419
 20
776.31118161737993
 30
0.0
 40
2.0
 50
189.99999999999861
 51
270.0
  0
LINE
  5
A1A5
  8
0
 10
393.19878687956412
 20
802.0041116173802
 30
0.0
 11
408.49338987956401
 21
797.28902161738017
 31
0.0
  0
LINE
  5
A1A6
  8
0
 10
408.49338987956401
 20
808.70137161738012
 30
0.0
 11
393.45744887956403
 21
808.16062061738023
 31
0.0
  0
LINE
  5
A1A7
  8
0
 10
408.49338987956401
 20
797.28902161738017
 30
0.0
 11
408.49338987956401
 21
788.91758361738016
 31
0.0
  0
ARC
  5
A1A8
  8
0
 10
393.49338987956412
 20
807.16126661738019
 30
0.0
 40
1.0
 50
92.059691000003568
 51
180.0
  0
ARC
  5
A1A9
  8
0
 10
393.49338987956412
 20
802.95973161738016
 30
0.0
 40
1.0
 50
180.0
 51
252.8662750000021
  0
LINE
  5
A1AA
  8
0
 10
408.49338987956401
 20
929.16260461738011
 30
0.0
 11
393.19293087956407
 21
924.34273861738018
 31
0.0
  0
LINE
  5
A1AB
  8
0
 10
393.54194487956403
 20
920.03905761738019
 30
0.0
 11
408.49338987956401
 21
920.76587761738006
 31
0.0
  0
ARC
  5
A1AC
  8
0
 10
393.49338987956412
 20
923.38894361738016
 30
0.0
 40
1.0
 50
107.485179
 51
180.0
  0
ARC
  5
A1AD
  8
0
 10
393.49338987956412
 20
921.03787861738022
 30
0.0
 40
1.0
 50
180.0
 51
270.0
  0
ARC
  5
A1AE
  8
0
  6
CONTINUOUS
 10
425.1931888795641
 20
798.75115661737993
 30
0.0
 40
2.6003989999999999
 50
179.99998200000081
 51
269.99997799999522
  0
ARC
  5
A1AF
  8
0
  6
CONTINUOUS
 10
425.1931888795641
 20
804.05114461738015
 30
0.0
 40
2.600403
 50
90.0
 51
179.99998200000081
  0
LINE
  5
A1B0
  8
0
  6
CONTINUOUS
 10
427.99338987956412
 20
801.46717561738024
 30
0.0
 11
426.49338987956412
 21
800.6011506173802
 31
0.0
  0
LINE
  5
A1B1
  8
0
  6
CONTINUOUS
 10
427.99338987956412
 20
802.46717561738024
 30
0.0
 11
426.49338987956412
 21
801.6011506173802
 31
0.0
  0
LINE
  5
A1B2
  8
0
  6
CONTINUOUS
 10
427.99338987956412
 20
807.50115061738006
 30
0.0
 11
427.99338987956412
 21
795.30115061737979
 31
0.0
  0
LINE
  5
A1B3
  8
0
  6
CONTINUOUS
 10
426.49338987956412
 20
807.50115061738006
 30
0.0
 11
427.99338987956412
 21
807.50115061738006
 31
0.0
  0
LINE
  5
A1B4
  8
0
  6
CONTINUOUS
 10
426.49338987956412
 20
795.30115061737979
 30
0.0
 11
427.99338987956412
 21
795.30115061737979
 31
0.0
  0
LINE
  5
A1B5
  8
0
  6
CONTINUOUS
 10
422.59339587956413
 20
804.05114461738015
 30
0.0
 11
422.59339587956413
 21
798.75115661737993
 31
0.0
  0
LINE
  5
A1B6
  8
0
  6
CONTINUOUS
 10
426.49338987956412
 20
807.50115061738006
 30
0.0
 11
426.49338987956412
 21
795.30115061737979
 31
0.0
  0
LINE
  5
A1B7
  8
0
  6
CONTINUOUS
 10
426.49338987956412
 20
796.15115061738027
 30
0.0
 11
425.1931888795641
 21
796.15115061738027
 31
0.0
  0
LINE
  5
A1B8
  8
0
  6
CONTINUOUS
 10
426.49338987956412
 20
806.65115061738027
 30
0.0
 11
425.1931888795641
 21
806.65115061738027
 31
0.0
  0
LINE
  5
A1B9
  8
0
 10
442.49338987956412
 20
913.4870856173801
 30
0.0
 11
243.49338987956409
 21
913.4870856173801
 31
0.0
  0
LINE
  5
A1BA
  8
0
 10
442.49338987956412
 20
910.24277561738006
 30
0.0
 11
243.49338987956409
 21
910.24277561738006
 31
0.0
  0
LINE
  5
A1BB
  8
0
 10
442.49338987956412
 20
904.41521261738023
 30
0.0
 11
243.49338987956409
 21
904.41521261738023
 31
0.0
  0
LINE
  5
A1BC
  8
0
 10
442.49338987956412
 20
901.28429961738016
 30
0.0
 11
243.49338987956409
 21
901.28429961738016
 31
0.0
  0
LINE
  5
A1BD
  8
0
 10
442.49338987956412
 20
893.36012661738016
 30
0.0
 11
243.49338987956409
 21
893.36012661738016
 31
0.0
  0
LINE
  5
A1BE
  8
0
 10
442.49338987956412
 20
890.31442061738016
 30
0.0
 11
243.49338987956409
 21
890.31442061738016
 31
0.0
  0
LINE
  5
A1BF
  8
0
 10
442.49338987956412
 20
882.32425261738001
 30
0.0
 11
243.49338987956409
 21
882.32425261738001
 31
0.0
  0
LINE
  5
A1C0
  8
0
 10
442.49338987956412
 20
879.33162561738015
 30
0.0
 11
243.49338987956409
 21
879.33162561738015
 31
0.0
  0
LINE
  5
A1C1
  8
0
 10
442.49338987956412
 20
871.30092461738025
 30
0.0
 11
243.49338987956409
 21
871.30092461738025
 31
0.0
  0
LINE
  5
A1C2
  8
0
 10
442.49338987956412
 20
868.33944561738019
 30
0.0
 11
243.49338987956409
 21
868.33944561738019
 31
0.0
  0
LINE
  5
A1C3
  8
0
 10
442.49338987956412
 20
861.28766161738008
 30
0.0
 11
348.06663287956388
 21
861.28766161738008
 31
0.0
  0
LINE
  5
A1C4
  8
0
 10
442.49338987956412
 20
858.33996961738012
 30
0.0
 11
354.87903687956418
 21
858.33996961738012
 31
0.0
  0
LINE
  5
A1C5
  8
0
 10
440.4144688795638
 20
912.80981761738019
 30
0.0
 11
440.4144688795638
 21
910.80981761738019
 31
0.0
  0
LINE
  5
A1C6
  8
0
 10
245.57231087956421
 20
910.80981761738019
 30
0.0
 11
440.4144688795638
 21
910.80981761738019
 31
0.0
  0
LINE
  5
A1C7
  8
0
 10
245.57231087956421
 20
912.80981761738019
 30
0.0
 11
440.4144688795638
 21
912.80981761738019
 31
0.0
  0
LINE
  5
A1C8
  8
0
 10
245.57231087956421
 20
901.80981761738019
 30
0.0
 11
440.4144688795638
 21
901.80981761738019
 31
0.0
  0
LINE
  5
A1C9
  8
0
 10
245.57231087956421
 20
903.80981761738019
 30
0.0
 11
440.4144688795638
 21
903.80981761738019
 31
0.0
  0
LINE
  5
A1CA
  8
0
 10
245.57231087956421
 20
890.80981761738008
 30
0.0
 11
440.4144688795638
 21
890.80981761738008
 31
0.0
  0
LINE
  5
A1CB
  8
0
 10
245.57231087956421
 20
892.80981761738019
 30
0.0
 11
440.4144688795638
 21
892.80981761738019
 31
0.0
  0
LINE
  5
A1CC
  8
0
 10
245.57231087956421
 20
879.80981761738019
 30
0.0
 11
440.4144688795638
 21
879.80981761738019
 31
0.0
  0
LINE
  5
A1CD
  8
0
 10
245.57231087956421
 20
881.80981761738008
 30
0.0
 11
440.4144688795638
 21
881.80981761738008
 31
0.0
  0
LINE
  5
A1CE
  8
0
 10
245.57231087956421
 20
868.80981761738019
 30
0.0
 11
440.4144688795638
 21
868.80981761738019
 31
0.0
  0
LINE
  5
A1CF
  8
0
 10
245.57231087956421
 20
870.80981761738019
 30
0.0
 11
440.4144688795638
 21
870.80981761738019
 31
0.0
  0
LINE
  5
A1D0
  8
0
 10
354.26836687956421
 20
858.80981761738008
 30
0.0
 11
440.4144688795638
 21
858.80981761738008
 31
0.0
  0
LINE
  5
A1D1
  8
0
 10
348.54012787956412
 20
860.80981761738019
 30
0.0
 11
440.4144688795638
 21
860.80981761738019
 31
0.0
  0
LINE
  5
A1D2
  8
0
 10
440.4144688795638
 20
912.80981761738019
 30
0.0
 11
442.49338987956412
 21
913.4870856173801
 31
0.0
  0
LINE
  5
A1D3
  8
0
 10
440.4144688795638
 20
910.80981761738019
 30
0.0
 11
442.49338987956412
 21
910.24277561738006
 31
0.0
  0
LINE
  5
A1D4
  8
0
 10
440.4144688795638
 20
903.80981761738019
 30
0.0
 11
442.49338987956412
 21
904.41521261738023
 31
0.0
  0
LINE
  5
A1D5
  8
0
 10
440.4144688795638
 20
901.80981761738019
 30
0.0
 11
442.49338987956412
 21
901.28429961738016
 31
0.0
  0
LINE
  5
A1D6
  8
0
 10
440.4144688795638
 20
892.80981761738019
 30
0.0
 11
442.49338987956412
 21
893.36012661738016
 31
0.0
  0
LINE
  5
A1D7
  8
0
 10
440.4144688795638
 20
890.80981761738008
 30
0.0
 11
442.49338987956412
 21
890.31442061738016
 31
0.0
  0
LINE
  5
A1D8
  8
0
 10
440.4144688795638
 20
881.80981761738008
 30
0.0
 11
442.49338987956412
 21
882.32425261738001
 31
0.0
  0
LINE
  5
A1D9
  8
0
 10
440.4144688795638
 20
879.80981761738019
 30
0.0
 11
442.49338987956412
 21
879.33162561738015
 31
0.0
  0
LINE
  5
A1DA
  8
0
 10
440.4144688795638
 20
870.80981761738019
 30
0.0
 11
442.49338987956412
 21
871.30092461738025
 31
0.0
  0
LINE
  5
A1DB
  8
0
 10
440.4144688795638
 20
868.80981761738019
 30
0.0
 11
442.49338987956412
 21
868.33944561738019
 31
0.0
  0
LINE
  5
A1DC
  8
0
 10
440.4144688795638
 20
860.80981761738019
 30
0.0
 11
442.49338987956412
 21
861.28766161738008
 31
0.0
  0
LINE
  5
A1DD
  8
0
 10
440.4144688795638
 20
858.80981761738008
 30
0.0
 11
442.49338987956412
 21
858.33996961738012
 31
0.0
  0
LINE
  5
A1DE
  8
0
 10
440.4144688795638
 20
903.80981761738019
 30
0.0
 11
440.4144688795638
 21
901.80981761738019
 31
0.0
  0
LINE
  5
A1DF
  8
0
 10
440.4144688795638
 20
892.80981761738019
 30
0.0
 11
440.4144688795638
 21
890.80981761738008
 31
0.0
  0
LINE
  5
A1E0
  8
0
 10
440.4144688795638
 20
881.80981761738008
 30
0.0
 11
440.4144688795638
 21
879.80981761738019
 31
0.0
  0
LINE
  5
A1E1
  8
0
 10
440.4144688795638
 20
870.80981761738019
 30
0.0
 11
440.4144688795638
 21
868.80981761738019
 31
0.0
  0
LINE
  5
A1E2
  8
0
 10
440.4144688795638
 20
860.80981761738019
 30
0.0
 11
440.4144688795638
 21
858.80981761738008
 31
0.0
  0
ARC
  5
A1E3
  8
0
 10
354.26836687956421
 20
855.80981761737996
 30
0.0
 40
3.0
 50
90.0
 51
190.2865610000006
  0
ARC
  5
A1E4
  8
0
 10
354.87903687956418
 20
854.86996961738021
 30
0.0
 40
3.4700000000000002
 50
90.0
 51
186.1896490000004
  0
LINE
  5
A1E5
  8
0
 10
260.57231087956421
 20
860.80981761738019
 30
0.0
 11
260.57231087956421
 21
858.80981761738008
 31
0.0
  0
LINE
  5
A1E6
  8
0
 10
245.57231087956421
 20
870.80981761738019
 30
0.0
 11
245.57231087956421
 21
868.80981761738019
 31
0.0
  0
LINE
  5
A1E7
  8
0
 10
245.57231087956421
 20
881.80981761738008
 30
0.0
 11
245.57231087956421
 21
879.80981761738019
 31
0.0
  0
LINE
  5
A1E8
  8
0
 10
245.57231087956421
 20
892.80981761738019
 30
0.0
 11
245.57231087956421
 21
890.80981761738008
 31
0.0
  0
LINE
  5
A1E9
  8
0
 10
245.57231087956421
 20
903.80981761738019
 30
0.0
 11
245.57231087956421
 21
901.80981761738019
 31
0.0
  0
LINE
  5
A1EA
  8
0
 10
260.57231087956421
 20
858.80981761738008
 30
0.0
 11
258.49338987956412
 21
858.33996961738012
 31
0.0
  0
LINE
  5
A1EB
  8
0
 10
260.57231087956421
 20
860.80981761738019
 30
0.0
 11
258.49338987956412
 21
861.28766161738008
 31
0.0
  0
LINE
  5
A1EC
  8
0
 10
245.57231087956421
 20
868.80981761738019
 30
0.0
 11
243.49338987956409
 21
868.33944561738019
 31
0.0
  0
LINE
  5
A1ED
  8
0
 10
245.57231087956421
 20
870.80981761738019
 30
0.0
 11
243.49338987956409
 21
871.30092461738025
 31
0.0
  0
LINE
  5
A1EE
  8
0
 10
245.57231087956421
 20
879.80981761738019
 30
0.0
 11
243.49338987956409
 21
879.33162561738015
 31
0.0
  0
LINE
  5
A1EF
  8
0
 10
245.57231087956421
 20
881.80981761738008
 30
0.0
 11
243.49338987956409
 21
882.32425261738001
 31
0.0
  0
LINE
  5
A1F0
  8
0
 10
245.57231087956421
 20
890.80981761738008
 30
0.0
 11
243.49338987956409
 21
890.31442061738016
 31
0.0
  0
LINE
  5
A1F1
  8
0
 10
245.57231087956421
 20
892.80981761738019
 30
0.0
 11
243.49338987956409
 21
893.36012661738016
 31
0.0
  0
LINE
  5
A1F2
  8
0
 10
245.57231087956421
 20
901.80981761738019
 30
0.0
 11
243.49338987956409
 21
901.28429961738016
 31
0.0
  0
LINE
  5
A1F3
  8
0
 10
245.57231087956421
 20
903.80981761738019
 30
0.0
 11
243.49338987956409
 21
904.41521261738023
 31
0.0
  0
LINE
  5
A1F4
  8
0
 10
245.57231087956421
 20
910.80981761738019
 30
0.0
 11
243.49338987956409
 21
910.24277561738006
 31
0.0
  0
LINE
  5
A1F5
  8
0
 10
245.57231087956421
 20
912.80981761738019
 30
0.0
 11
243.49338987956409
 21
913.4870856173801
 31
0.0
  0
LINE
  5
A1F6
  8
0
 10
245.57231087956421
 20
912.80981761738019
 30
0.0
 11
245.57231087956421
 21
910.80981761738019
 31
0.0
  0
LINE
  5
A1F7
  8
0
 10
243.49338987956409
 20
910.24277561738006
 30
0.0
 11
243.49338987956409
 21
913.4870856173801
 31
0.0
  0
LINE
  5
A1F8
  8
0
 10
243.49338987956409
 20
901.28429961738016
 30
0.0
 11
243.49338987956409
 21
904.41521261738023
 31
0.0
  0
LINE
  5
A1F9
  8
0
 10
243.49338987956409
 20
890.31442061738016
 30
0.0
 11
243.49338987956409
 21
893.36012661738016
 31
0.0
  0
LINE
  5
A1FA
  8
0
 10
243.49338987956409
 20
879.33162561738015
 30
0.0
 11
243.49338987956409
 21
882.32425261738001
 31
0.0
  0
LINE
  5
A1FB
  8
0
 10
243.49338987956409
 20
868.33944561738019
 30
0.0
 11
243.49338987956409
 21
871.30092461738025
 31
0.0
  0
LINE
  5
A1FC
  8
0
 10
258.49338987956412
 20
858.33996961738012
 30
0.0
 11
258.49338987956412
 21
861.28766161738008
 31
0.0
  0
LINE
  5
A1FD
  8
0
 10
258.49338987956412
 20
861.28766161738008
 30
0.0
 11
332.9201468795643
 21
861.28766161738008
 31
0.0
  0
LINE
  5
A1FE
  8
0
 10
258.49338987956412
 20
858.33996961738012
 30
0.0
 11
326.107742879564
 21
858.33996961738012
 31
0.0
  0
LINE
  5
A1FF
  8
0
 10
326.7184128795642
 20
858.80981761738008
 30
0.0
 11
260.57231087956421
 21
858.80981761738008
 31
0.0
  0
LINE
  5
A200
  8
0
 10
332.44665187956412
 20
860.80981761738019
 30
0.0
 11
260.57231087956421
 21
860.80981761738019
 31
0.0
  0
ARC
  5
A201
  8
0
 10
326.7184128795642
 20
855.80981761737996
 30
0.0
 40
3.0
 50
349.71343899999943
 51
90.0
  0
ARC
  5
A202
  8
0
 10
326.107742879564
 20
854.86996961738021
 30
0.0
 40
3.4700000000000002
 50
353.81035099999951
 51
90.0
  0
LINE
  5
A203
  8
0
 10
442.49338987956412
 20
813.25950861738022
 30
0.0
 11
243.49338987956409
 21
813.25950861738022
 31
0.0
  0
LINE
  5
A204
  8
0
 10
442.49338987956412
 20
816.30521461738022
 30
0.0
 11
243.49338987956409
 21
816.30521461738022
 31
0.0
  0
LINE
  5
A205
  8
0
 10
442.49338987956412
 20
824.29538261738026
 30
0.0
 11
243.49338987956409
 21
824.29538261738026
 31
0.0
  0
LINE
  5
A206
  8
0
 10
442.49338987956412
 20
827.28800961738023
 30
0.0
 11
243.49338987956409
 21
827.28800961738023
 31
0.0
  0
LINE
  5
A207
  8
0
 10
442.49338987956412
 20
835.31871061738025
 30
0.0
 11
243.49338987956409
 21
835.31871061738025
 31
0.0
  0
LINE
  5
A208
  8
0
 10
442.49338987956412
 20
838.28018961738019
 30
0.0
 11
243.49338987956409
 21
838.28018961738019
 31
0.0
  0
LINE
  5
A209
  8
0
 10
245.57231087956421
 20
815.80981761738008
 30
0.0
 11
440.4144688795638
 21
815.80981761738008
 31
0.0
  0
LINE
  5
A20A
  8
0
 10
245.57231087956421
 20
813.80981761738019
 30
0.0
 11
440.4144688795638
 21
813.80981761738019
 31
0.0
  0
LINE
  5
A20B
  8
0
 10
245.57231087956421
 20
826.80981761738019
 30
0.0
 11
440.4144688795638
 21
826.80981761738019
 31
0.0
  0
LINE
  5
A20C
  8
0
 10
245.57231087956421
 20
824.80981761738008
 30
0.0
 11
440.4144688795638
 21
824.80981761738008
 31
0.0
  0
LINE
  5
A20D
  8
0
 10
245.57231087956421
 20
837.80981761738019
 30
0.0
 11
440.4144688795638
 21
837.80981761738019
 31
0.0
  0
LINE
  5
A20E
  8
0
 10
245.57231087956421
 20
835.80981761738019
 30
0.0
 11
440.4144688795638
 21
835.80981761738019
 31
0.0
  0
LINE
  5
A20F
  8
0
 10
258.49338987956412
 20
845.33197361738007
 30
0.0
 11
332.9201468795643
 21
845.33197361738007
 31
0.0
  0
LINE
  5
A210
  8
0
 10
258.49338987956412
 20
848.27966561738003
 30
0.0
 11
326.107742879564
 21
848.27966561738003
 31
0.0
  0
LINE
  5
A211
  8
0
 10
326.7184128795642
 20
847.80981761737996
 30
0.0
 11
260.57231087956421
 21
847.80981761737996
 31
0.0
  0
LINE
  5
A212
  8
0
 10
332.44665187956412
 20
845.80981761738019
 30
0.0
 11
260.57231087956421
 21
845.80981761738019
 31
0.0
  0
LINE
  5
A213
  8
0
 10
258.49338987956412
 20
848.27966561738003
 30
0.0
 11
258.49338987956412
 21
845.33197361738007
 31
0.0
  0
LINE
  5
A214
  8
0
 10
243.49338987956409
 20
838.28018961738019
 30
0.0
 11
243.49338987956409
 21
835.31871061738025
 31
0.0
  0
LINE
  5
A215
  8
0
 10
243.49338987956409
 20
827.28800961738023
 30
0.0
 11
243.49338987956409
 21
824.29538261738026
 31
0.0
  0
LINE
  5
A216
  8
0
 10
243.49338987956409
 20
816.30521461738022
 30
0.0
 11
243.49338987956409
 21
813.25950861738022
 31
0.0
  0
LINE
  5
A217
  8
0
 10
245.57231087956421
 20
813.80981761738019
 30
0.0
 11
243.49338987956409
 21
813.25950861738022
 31
0.0
  0
LINE
  5
A218
  8
0
 10
245.57231087956421
 20
815.80981761738008
 30
0.0
 11
243.49338987956409
 21
816.30521461738022
 31
0.0
  0
LINE
  5
A219
  8
0
 10
245.57231087956421
 20
824.80981761738008
 30
0.0
 11
243.49338987956409
 21
824.29538261738026
 31
0.0
  0
LINE
  5
A21A
  8
0
 10
245.57231087956421
 20
826.80981761738019
 30
0.0
 11
243.49338987956409
 21
827.28800961738023
 31
0.0
  0
LINE
  5
A21B
  8
0
 10
245.57231087956421
 20
835.80981761738019
 30
0.0
 11
243.49338987956409
 21
835.31871061738025
 31
0.0
  0
LINE
  5
A21C
  8
0
 10
245.57231087956421
 20
837.80981761738019
 30
0.0
 11
243.49338987956409
 21
838.28018961738019
 31
0.0
  0
LINE
  5
A21D
  8
0
 10
260.57231087956421
 20
845.80981761738019
 30
0.0
 11
258.49338987956412
 21
845.33197361738007
 31
0.0
  0
LINE
  5
A21E
  8
0
 10
260.57231087956421
 20
847.80981761737996
 30
0.0
 11
258.49338987956412
 21
848.27966561738003
 31
0.0
  0
LINE
  5
A21F
  8
0
 10
245.57231087956421
 20
813.80981761738019
 30
0.0
 11
245.57231087956421
 21
815.80981761738008
 31
0.0
  0
LINE
  5
A220
  8
0
 10
245.57231087956421
 20
824.80981761738008
 30
0.0
 11
245.57231087956421
 21
826.80981761738019
 31
0.0
  0
LINE
  5
A221
  8
0
 10
245.57231087956421
 20
835.80981761738019
 30
0.0
 11
245.57231087956421
 21
837.80981761738019
 31
0.0
  0
LINE
  5
A222
  8
0
 10
260.57231087956421
 20
845.80981761738019
 30
0.0
 11
260.57231087956421
 21
847.80981761737996
 31
0.0
  0
ARC
  5
A223
  8
0
 10
326.7184128795642
 20
850.80981761738008
 30
0.0
 40
3.0
 50
270.0
 51
10.286561000000651
  0
ARC
  5
A224
  8
0
 10
326.107742879564
 20
851.74966561738006
 30
0.0
 40
3.4700000000000002
 50
270.0
 51
6.1896490000005366
  0
LINE
  5
A225
  8
0
 10
442.49338987956412
 20
845.33197361738007
 30
0.0
 11
348.06663287956388
 21
845.33197361738007
 31
0.0
  0
LINE
  5
A226
  8
0
 10
442.49338987956412
 20
848.27966561738003
 30
0.0
 11
354.87903687956418
 21
848.27966561738003
 31
0.0
  0
LINE
  5
A227
  8
0
 10
354.26836687956421
 20
847.80981761737996
 30
0.0
 11
440.4144688795638
 21
847.80981761737996
 31
0.0
  0
LINE
  5
A228
  8
0
 10
348.54012787956412
 20
845.80981761738019
 30
0.0
 11
440.4144688795638
 21
845.80981761738019
 31
0.0
  0
ARC
  5
A229
  8
0
 10
354.26836687956421
 20
850.80981761738008
 30
0.0
 40
3.0
 50
169.71343899999931
 51
270.0
  0
ARC
  5
A22A
  8
0
 10
354.87903687956418
 20
851.74966561738006
 30
0.0
 40
3.4700000000000002
 50
173.8103509999994
 51
270.0
  0
LINE
  5
A22B
  8
0
 10
440.4144688795638
 20
845.80981761738019
 30
0.0
 11
440.4144688795638
 21
847.80981761737996
 31
0.0
  0
LINE
  5
A22C
  8
0
 10
440.4144688795638
 20
835.80981761738019
 30
0.0
 11
440.4144688795638
 21
837.80981761738019
 31
0.0
  0
LINE
  5
A22D
  8
0
 10
440.4144688795638
 20
824.80981761738008
 30
0.0
 11
440.4144688795638
 21
826.80981761738019
 31
0.0
  0
LINE
  5
A22E
  8
0
 10
440.4144688795638
 20
813.80981761738019
 30
0.0
 11
440.4144688795638
 21
815.80981761738008
 31
0.0
  0
LINE
  5
A22F
  8
0
 10
440.4144688795638
 20
847.80981761737996
 30
0.0
 11
442.49338987956412
 21
848.27966561738003
 31
0.0
  0
LINE
  5
A230
  8
0
 10
440.4144688795638
 20
845.80981761738019
 30
0.0
 11
442.49338987956412
 21
845.33197361738007
 31
0.0
  0
LINE
  5
A231
  8
0
 10
440.4144688795638
 20
837.80981761738019
 30
0.0
 11
442.49338987956412
 21
838.28018961738019
 31
0.0
  0
LINE
  5
A232
  8
0
 10
440.4144688795638
 20
835.80981761738019
 30
0.0
 11
442.49338987956412
 21
835.31871061738025
 31
0.0
  0
LINE
  5
A233
  8
0
 10
440.4144688795638
 20
826.80981761738019
 30
0.0
 11
442.49338987956412
 21
827.28800961738023
 31
0.0
  0
LINE
  5
A234
  8
0
 10
440.4144688795638
 20
824.80981761738008
 30
0.0
 11
442.49338987956412
 21
824.29538261738026
 31
0.0
  0
LINE
  5
A235
  8
0
 10
440.4144688795638
 20
815.80981761738008
 30
0.0
 11
442.49338987956412
 21
816.30521461738022
 31
0.0
  0
LINE
  5
A236
  8
0
 10
440.4144688795638
 20
813.80981761738019
 30
0.0
 11
442.49338987956412
 21
813.25950861738022
 31
0.0
  0
LINE
  5
A237
  8
0
 10
442.49338987956412
 20
816.30521461738022
 30
0.0
 11
442.49338987956412
 21
813.25950861738022
 31
0.0
  0
LINE
  5
A238
  8
0
 10
442.49338987956412
 20
827.28800961738023
 30
0.0
 11
442.49338987956412
 21
824.29538261738026
 31
0.0
  0
LINE
  5
A239
  8
0
 10
442.49338987956412
 20
838.28018961738019
 30
0.0
 11
442.49338987956412
 21
835.31871061738025
 31
0.0
  0
LINE
  5
A23A
  8
0
 10
442.49338987956412
 20
848.27966561738003
 30
0.0
 11
442.49338987956412
 21
845.33197361738007
 31
0.0
  0
LINE
  5
A23B
  8
0
 10
375.4144688795642
 20
804.80981761738019
 30
0.0
 11
377.49338987956412
 21
805.30521461738022
 31
0.0
  0
LINE
  5
A23C
  8
0
 10
377.49338987956412
 20
805.30521461738022
 30
0.0
 11
243.49338987956409
 21
805.30521461738022
 31
0.0
  0
LINE
  5
A23D
  8
0
 10
245.57231087956421
 20
804.80981761738019
 30
0.0
 11
375.4144688795642
 21
804.80981761738019
 31
0.0
  0
LINE
  5
A23E
  8
0
 10
375.4144688795642
 20
802.80981761738019
 30
0.0
 11
375.4144688795642
 21
804.80981761738019
 31
0.0
  0
LINE
  5
A23F
  8
0
 10
377.49338987956412
 20
802.25950861738033
 30
0.0
 11
243.49338987956409
 21
802.25950861738033
 31
0.0
  0
LINE
  5
A240
  8
0
 10
245.57231087956421
 20
802.80981761738019
 30
0.0
 11
375.4144688795642
 21
802.80981761738019
 31
0.0
  0
LINE
  5
A241
  8
0
 10
375.4144688795642
 20
802.80981761738019
 30
0.0
 11
377.49338987956412
 21
802.25950861738033
 31
0.0
  0
LINE
  5
A242
  8
0
 10
377.49338987956412
 20
796.30521461738022
 30
0.0
 11
243.49338987956409
 21
796.30521461738022
 31
0.0
  0
LINE
  5
A243
  8
0
 10
245.57231087956421
 20
795.80981761738019
 30
0.0
 11
375.4144688795642
 21
795.80981761738019
 31
0.0
  0
LINE
  5
A244
  8
0
 10
377.49338987956412
 20
793.25950861738022
 30
0.0
 11
243.52694687956409
 21
793.25950861738022
 31
0.0
  0
LINE
  5
A245
  8
0
 10
245.57231087956421
 20
793.80981761737996
 30
0.0
 11
375.4144688795642
 21
793.80981761737996
 31
0.0
  0
LINE
  5
A246
  8
0
 10
375.4144688795642
 20
793.80981761737996
 30
0.0
 11
377.49338987956412
 21
793.25950861738022
 31
0.0
  0
LINE
  5
A247
  8
0
 10
377.49338987956412
 20
796.30521461738022
 30
0.0
 11
377.49338987956412
 21
793.25950861738022
 31
0.0
  0
LINE
  5
A248
  8
0
 10
375.4144688795642
 20
793.80981761737996
 30
0.0
 11
375.4144688795642
 21
795.80981761738019
 31
0.0
  0
LINE
  5
A249
  8
0
 10
375.4144688795642
 20
795.80981761738019
 30
0.0
 11
377.49338987956412
 21
796.30521461738022
 31
0.0
  0
LINE
  5
A24A
  8
0
 10
377.49338987956412
 20
793.25950861738022
 30
0.0
 11
392.49338987956412
 21
793.25950861738022
 31
0.0
  0
LINE
  5
A24B
  8
0
 10
392.49338987956412
 20
793.25950861738022
 30
0.0
 11
408.49338987956401
 21
788.91758361738016
 31
0.0
  0
LINE
  5
A24C
  8
0
 10
243.49338987956409
 20
805.30521461738022
 30
0.0
 11
243.49338987956409
 21
802.25950861738033
 31
0.0
  0
LINE
  5
A24D
  8
0
 10
243.49338987956409
 20
796.30521461738022
 30
0.0
 11
243.49338987956409
 21
793.25950861738022
 31
0.0
  0
LINE
  5
A24E
  8
0
 10
245.57231087956421
 20
802.80981761738019
 30
0.0
 11
245.57231087956421
 21
804.80981761738019
 31
0.0
  0
LINE
  5
A24F
  8
0
 10
245.57231087956421
 20
804.80981761738019
 30
0.0
 11
243.49338987956409
 21
805.30521461738022
 31
0.0
  0
LINE
  5
A250
  8
0
 10
245.57231087956421
 20
802.80981761738019
 30
0.0
 11
243.49338987956409
 21
802.25950861738033
 31
0.0
  0
LINE
  5
A251
  8
0
 10
245.57231087956421
 20
795.80981761738019
 30
0.0
 11
243.49338987956409
 21
796.30521461738022
 31
0.0
  0
LINE
  5
A252
  8
0
 10
245.57231087956421
 20
793.80981761737996
 30
0.0
 11
245.57231087956421
 21
795.80981761738019
 31
0.0
  0
LINE
  5
A253
  8
0
 10
245.57231087956421
 20
793.80981761737996
 30
0.0
 11
243.49338987956409
 21
793.25950861738022
 31
0.0
  0
LINE
  5
A254
  8
0
 10
141.39341987956411
 20
953.30981761738008
 30
0.0
 11
218.99338987956409
 21
953.30981761738008
 31
0.0
  0
LINE
  5
A255
  8
0
 10
141.39341987956411
 20
959.30981761738019
 30
0.0
 11
218.99338987956409
 21
959.30981761738019
 31
0.0
  0
LINE
  5
A256
  8
0
 10
240.99338987956409
 20
950.30981761738019
 30
0.0
 11
137.49338987956409
 21
950.30981761738019
 31
0.0
  0
LINE
  5
A257
  8
0
 10
229.99338987956409
 20
953.30981761738008
 30
0.0
 11
243.49338987956409
 21
953.30981761738008
 31
0.0
  0
ARC
  5
A258
  8
0
 10
887.78036987956409
 20
853.30981761738008
 30
0.0
 40
764.28698999999995
 50
172.82194999999871
 51
187.17804000000049
  0
LINE
  5
A259
  8
0
 10
134.14341987956411
 20
759.70977761737993
 30
0.0
 11
134.14341987956411
 21
946.9997576173804
 31
0.0
  0
LINE
  5
A25A
  8
0
 10
128.49338987956409
 20
915.7497576173804
 30
0.0
 11
128.49338987956409
 21
790.16979761737991
 31
0.0
  0
LINE
  5
A25B
  8
0
 10
126.49338987956411
 20
915.7497576173804
 30
0.0
 11
126.49338987956411
 21
790.85973761738023
 31
0.0
  0
LINE
  5
A25C
  8
0
 10
240.99338987956409
 20
756.30981761737996
 30
0.0
 11
137.49338987956409
 21
756.30981761737996
 31
0.0
  0
LINE
  5
A25D
  8
0
 10
128.64335987956409
 20
787.4797976173802
 30
0.0
 11
133.55338987956401
 21
759.60979761737985
 31
0.0
  0
ARC
  5
A25E
  8
0
 10
141.39512987956411
 20
759.30785761737991
 30
0.0
 40
5.9980479999999998
 50
207.05351000000039
 51
269.98324000000241
  0
ARC
  5
A25F
  8
0
 10
141.39585987956411
 20
759.30590761737994
 30
0.0
 40
11.996128000000001
 50
187.16444000000149
 51
269.98821999999512
  0
ARC
  5
A260
  8
0
 10
127.6537898795641
 20
787.31286761738022
 30
0.0
 40
1.0035289999999999
 50
9.5734909999996063
 51
62.101815000001061
  0
ARC
  5
A261
  8
0
 10
129.49192987956411
 20
790.86779761738023
 30
0.0
 40
2.9985330000000001
 50
180.1533100000014
 51
242.84513000000379
  0
ARC
  5
A262
  8
0
 10
137.49277987956421
 20
760.31115761738022
 30
0.0
 40
4.0014059999999976
 50
190.09553000000011
 51
270.00784999999382
  0
LINE
  5
A263
  8
0
 10
128.64335987956409
 20
919.12975761738016
 30
0.0
 11
133.5533298795641
 21
946.9997576173804
 31
0.0
  0
ARC
  5
A264
  8
0
 10
137.49290987956419
 20
946.3104276173799
 30
0.0
 40
3.9993959999999982
 50
89.993274999998206
 51
170.07405999999821
  0
ARC
  5
A265
  8
0
 10
127.6540398795641
 20
919.3089576173802
 30
0.0
 40
1.005431999999995
 50
297.82706000000729
 51
349.7352699999982
  0
ARC
  5
A266
  8
0
 10
129.490589879564
 20
915.75256761738024
 30
0.0
 40
2.997211999999998
 50
117.13965999999481
 51
180.05330999999691
  0
ARC
  5
A267
  8
0
 10
141.39426987956409
 20
947.31310761737996
 30
0.0
 40
5.9966319999999991
 50
90.008472000000253
 51
152.954760000004
  0
ARC
  5
A268
  8
0
 10
141.3948798795642
 20
947.31475761738022
 30
0.0
 40
11.995034
 50
90.007167000000024
 51
172.8401600000048
  0
LINE
  5
A269
  8
0
 10
121.1033798795641
 20
848.30981761738019
 30
0.0
 11
121.1033798795641
 21
858.30981761738019
 31
0.0
  0
LINE
  5
A26A
  8
0
 10
123.51340987956409
 20
858.30981761738019
 30
0.0
 11
121.1033798795641
 21
858.30981761738019
 31
0.0
  0
LINE
  5
A26B
  8
0
 10
123.51340987956409
 20
848.30981761738019
 30
0.0
 11
121.1033798795641
 21
848.30981761738019
 31
0.0
  0
LINE
  5
A26C
  8
0
 10
372.61826387956421
 20
727.80934761738024
 30
0.0
 11
370.44395887956421
 21
727.80934761738024
 31
0.0
  0
LINE
  5
A26D
  8
0
 10
378.49338987956412
 20
731.80942761738015
 30
0.0
 11
370.11826387956421
 21
731.80942761738015
 31
0.0
  0
POLYLINE
  5
A26E
  8
0
 10
369.61826387956421
 20
714.80908761737999
 30
0.0
 66
     1
 70
     8
  0
VERTEX
  8
0
  5
AA79
 10
369.618
 20
714.809
 30
0.000000
  70
    32
  0
VERTEX
  8
0
  5
AA7A
 10
369.649
 20
714.809
 30
0.000000
  70
    32
  0
VERTEX
  8
0
  5
AA7B
 10
369.680
 20
714.810
 30
0.000000
  70
    32
  0
VERTEX
  8
0
  5
AA7C
 10
369.710
 20
714.811
 30
0.000000
  70
    32
  0
VERTEX
  8
0
  5
AA7D
 10
369.741
 20
714.812
 30
0.000000
  70
    32
  0
VERTEX
  8
0
  5
AA7E
 10
369.772
 20
714.814
 30
0.000000
  70
    32
  0
VERTEX
  8
0
  5
AA7F
 10
369.802
 20
714.816
 30
0.000000
  70
    32
  0
VERTEX
  8
0
  5
AA80
 10
369.833
 20
714.818
 30
0.000000
  70
    32
  0
VERTEX
  8
0
  5
AA81
 10
369.863
 20
714.821
 30
0.000000
  70
    32
  0
VERTEX
  8
0
  5
AA82
 10
369.894
 20
714.824
 30
0.000000
  70
    32
  0
VERTEX
  8
0
  5
AA83
 10
369.924
 20
714.828
 30
0.000000
  70
    32
  0
VERTEX
  8
0
  5
AA84
 10
369.955
 20
714.832
 30
0.000000
  70
    32
  0
VERTEX
  8
0
  5
AA85
 10
369.985
 20
714.836
 30
0.000000
  70
    32
  0
VERTEX
  8
0
  5
AA86
 10
370.015
 20
714.841
 30
0.000000
  70
    32
  0
VERTEX
  8
0
  5
AA87
 10
370.046
 20
714.846
 30
0.000000
  70
    32
  0
VERTEX
  8
0
  5
AA88
 10
370.076
 20
714.851
 30
0.000000
  70
    32
  0
VERTEX
  8
0
  5
AA89
 10
370.106
 20
714.857
 30
0.000000
  70
    32
  0
VERTEX
  8
0
  5
AA8A
 10
370.136
 20
714.863
 30
0.000000
  70
    32
  0
VERTEX
  8
0
  5
AA8B
 10
370.166
 20
714.870
 30
0.000000
  70
    32
  0
VERTEX
  8
0
  5
AA8C
 10
370.196
 20
714.877
 30
0.000000
  70
    32
  0
VERTEX
  8
0
  5
AA8D
 10
370.226
 20
714.884
 30
0.000000
  70
    32
  0
VERTEX
  8
0
  5
AA8E
 10
370.255
 20
714.892
 30
0.000000
  70
    32
  0
VERTEX
  8
0
  5
AA8F
 10
370.285
 20
714.900
 30
0.000000
  70
    32
  0
VERTEX
  8
0
  5
AA90
 10
370.315
 20
714.908
 30
0.000000
  70
    32
  0
VERTEX
  8
0
  5
AA91
 10
370.344
 20
714.917
 30
0.000000
  70
    32
  0
VERTEX
  8
0
  5
AA92
 10
370.373
 20
714.926
 30
0.000000
  70
    32
  0
VERTEX
  8
0
  5
AA93
 10
370.402
 20
714.935
 30
0.000000
  70
    32
  0
VERTEX
  8
0
  5
AA94
 10
370.432
 20
714.945
 30
0.000000
  70
    32
  0
VERTEX
  8
0
  5
AA95
 10
370.460
 20
714.955
 30
0.000000
  70
    32
  0
VERTEX
  8
0
  5
AA96
 10
370.489
 20
714.966
 30
0.000000
  70
    32
  0
VERTEX
  8
0
  5
AA97
 10
370.518
 20
714.977
 30
0.000000
  70
    32
  0
VERTEX
  8
0
  5
AA98
 10
370.547
 20
714.988
 30
0.000000
  70
    32
  0
VERTEX
  8
0
  5
AA99
 10
370.575
 20
714.999
 30
0.000000
  70
    32
  0
VERTEX
  8
0
  5
AA9A
 10
370.603
 20
715.011
 30
0.000000
  70
    32
  0
VERTEX
  8
0
  5
AA9B
 10
370.631
 20
715.024
 30
0.000000
  70
    32
  0
VERTEX
  8
0
  5
AA9C
 10
370.659
 20
715.036
 30
0.000000
  70
    32
  0
VERTEX
  8
0
  5
AA9D
 10
370.687
 20
715.049
 30
0.000000
  70
    32
  0
VERTEX
  8
0
  5
AA9E
 10
370.715
 20
715.062
 30
0.000000
  70
    32
  0
VERTEX
  8
0
  5
AA9F
 10
370.742
 20
715.076
 30
0.000000
  70
    32
  0
VERTEX
  8
0
  5
AAA0
 10
370.770
 20
715.090
 30
0.000000
  70
    32
  0
VERTEX
  8
0
  5
AAA1
 10
370.797
 20
715.104
 30
0.000000
  70
    32
  0
VERTEX
  8
0
  5
AAA2
 10
370.824
 20
715.119
 30
0.000000
  70
    32
  0
VERTEX
  8
0
  5
AAA3
 10
370.851
 20
715.134
 30
0.000000
  70
    32
  0
VERTEX
  8
0
  5
AAA4
 10
370.877
 20
715.149
 30
0.000000
  70
    32
  0
VERTEX
  8
0
  5
AAA5
 10
370.904
 20
715.165
 30
0.000000
  70
    32
  0
VERTEX
  8
0
  5
AAA6
 10
370.930
 20
715.181
 30
0.000000
  70
    32
  0
VERTEX
  8
0
  5
AAA7
 10
370.956
 20
715.197
 30
0.000000
  70
    32
  0
VERTEX
  8
0
  5
AAA8
 10
370.982
 20
715.214
 30
0.000000
  70
    32
  0
VERTEX
  8
0
  5
AAA9
 10
371.007
 20
715.230
 30
0.000000
  70
    32
  0
VERTEX
  8
0
  5
AAAA
 10
371.033
 20
715.248
 30
0.000000
  70
    32
  0
VERTEX
  8
0
  5
AAAB
 10
371.058
 20
715.265
 30
0.000000
  70
    32
  0
VERTEX
  8
0
  5
AAAC
 10
371.083
 20
715.283
 30
0.000000
  70
    32
  0
VERTEX
  8
0
  5
AAAD
 10
371.108
 20
715.301
 30
0.000000
  70
    32
  0
VERTEX
  8
0
  5
AAAE
 10
371.132
 20
715.320
 30
0.000000
  70
    32
  0
VERTEX
  8
0
  5
AAAF
 10
371.156
 20
715.338
 30
0.000000
  70
    32
  0
VERTEX
  8
0
  5
AAB0
 10
371.180
 20
715.357
 30
0.000000
  70
    32
  0
VERTEX
  8
0
  5
AAB1
 10
371.204
 20
715.377
 30
0.000000
  70
    32
  0
VERTEX
  8
0
  5
AAB2
 10
371.228
 20
715.396
 30
0.000000
  70
    32
  0
VERTEX
  8
0
  5
AAB3
 10
371.251
 20
715.416
 30
0.000000
  70
    32
  0
VERTEX
  8
0
  5
AAB4
 10
371.274
 20
715.436
 30
0.000000
  70
    32
  0
VERTEX
  8
0
  5
AAB5
 10
371.297
 20
715.457
 30
0.000000
  70
    32
  0
VERTEX
  8
0
  5
AAB6
 10
371.320
 20
715.477
 30
0.000000
  70
    32
  0
VERTEX
  8
0
  5
AAB7
 10
371.342
 20
715.498
 30
0.000000
  70
    32
  0
VERTEX
  8
0
  5
AAB8
 10
371.364
 20
715.520
 30
0.000000
  70
    32
  0
VERTEX
  8
0
  5
AAB9
 10
371.386
 20
715.541
 30
0.000000
  70
    32
  0
VERTEX
  8
0
  5
AABA
 10
371.408
 20
715.563
 30
0.000000
  70
    32
  0
VERTEX
  8
0
  5
AABB
 10
371.429
 20
715.585
 30
0.000000
  70
    32
  0
VERTEX
  8
0
  5
AABC
 10
371.450
 20
715.608
 30
0.000000
  70
    32
  0
VERTEX
  8
0
  5
AABD
 10
371.471
 20
715.630
 30
0.000000
  70
    32
  0
VERTEX
  8
0
  5
AABE
 10
371.491
 20
715.653
 30
0.000000
  70
    32
  0
VERTEX
  8
0
  5
AABF
 10
371.511
 20
715.676
 30
0.000000
  70
    32
  0
VERTEX
  8
0
  5
AAC0
 10
371.531
 20
715.700
 30
0.000000
  70
    32
  0
VERTEX
  8
0
  5
AAC1
 10
371.551
 20
715.723
 30
0.000000
  70
    32
  0
VERTEX
  8
0
  5
AAC2
 10
371.570
 20
715.747
 30
0.000000
  70
    32
  0
VERTEX
  8
0
  5
AAC3
 10
371.589
 20
715.771
 30
0.000000
  70
    32
  0
VERTEX
  8
0
  5
AAC4
 10
371.608
 20
715.795
 30
0.000000
  70
    32
  0
VERTEX
  8
0
  5
AAC5
 10
371.626
 20
715.820
 30
0.000000
  70
    32
  0
VERTEX
  8
0
  5
AAC6
 10
371.644
 20
715.845
 30
0.000000
  70
    32
  0
VERTEX
  8
0
  5
AAC7
 10
371.662
 20
715.870
 30
0.000000
  70
    32
  0
VERTEX
  8
0
  5
AAC8
 10
371.680
 20
715.895
 30
0.000000
  70
    32
  0
VERTEX
  8
0
  5
AAC9
 10
371.697
 20
715.920
 30
0.000000
  70
    32
  0
VERTEX
  8
0
  5
AACA
 10
371.714
 20
715.946
 30
0.000000
  70
    32
  0
VERTEX
  8
0
  5
AACB
 10
371.730
 20
715.972
 30
0.000000
  70
    32
  0
VERTEX
  8
0
  5
AACC
 10
371.747
 20
715.998
 30
0.000000
  70
    32
  0
VERTEX
  8
0
  5
AACD
 10
371.763
 20
716.024
 30
0.000000
  70
    32
  0
VERTEX
  8
0
  5
AACE
 10
371.778
 20
716.050
 30
0.000000
  70
    32
  0
VERTEX
  8
0
  5
AACF
 10
371.793
 20
716.077
 30
0.000000
  70
    32
  0
VERTEX
  8
0
  5
AAD0
 10
371.808
 20
716.104
 30
0.000000
  70
    32
  0
VERTEX
  8
0
  5
AAD1
 10
371.823
 20
716.131
 30
0.000000
  70
    32
  0
VERTEX
  8
0
  5
AAD2
 10
371.837
 20
716.158
 30
0.000000
  70
    32
  0
VERTEX
  8
0
  5
AAD3
 10
371.851
 20
716.185
 30
0.000000
  70
    32
  0
VERTEX
  8
0
  5
AAD4
 10
371.865
 20
716.213
 30
0.000000
  70
    32
  0
VERTEX
  8
0
  5
AAD5
 10
371.878
 20
716.240
 30
0.000000
  70
    32
  0
VERTEX
  8
0
  5
AAD6
 10
371.891
 20
716.268
 30
0.000000
  70
    32
  0
VERTEX
  8
0
  5
AAD7
 10
371.904
 20
716.296
 30
0.000000
  70
    32
  0
VERTEX
  8
0
  5
AAD8
 10
371.916
 20
716.324
 30
0.000000
  70
    32
  0
VERTEX
  8
0
  5
AAD9
 10
371.928
 20
716.352
 30
0.000000
  70
    32
  0
VERTEX
  8
0
  5
AADA
 10
371.940
 20
716.381
 30
0.000000
  70
    32
  0
VERTEX
  8
0
  5
AADB
 10
371.951
 20
716.409
 30
0.000000
  70
    32
  0
VERTEX
  8
0
  5
AADC
 10
371.962
 20
716.438
 30
0.000000
  70
    32
  0
VERTEX
  8
0
  5
AADD
 10
371.972
 20
716.467
 30
0.000000
  70
    32
  0
VERTEX
  8
0
  5
AADE
 10
371.982
 20
716.496
 30
0.000000
  70
    32
  0
VERTEX
  8
0
  5
AADF
 10
371.992
 20
716.525
 30
0.000000
  70
    32
  0
VERTEX
  8
0
  5
AAE0
 10
372.002
 20
716.554
 30
0.000000
  70
    32
  0
VERTEX
  8
0
  5
AAE1
 10
372.011
 20
716.583
 30
0.000000
  70
    32
  0
VERTEX
  8
0
  5
AAE2
 10
372.019
 20
716.613
 30
0.000000
  70
    32
  0
VERTEX
  8
0
  5
AAE3
 10
372.028
 20
716.642
 30
0.000000
  70
    32
  0
VERTEX
  8
0
  5
AAE4
 10
372.036
 20
716.672
 30
0.000000
  70
    32
  0
VERTEX
  8
0
  5
AAE5
 10
372.043
 20
716.702
 30
0.000000
  70
    32
  0
VERTEX
  8
0
  5
AAE6
 10
372.051
 20
716.731
 30
0.000000
  70
    32
  0
VERTEX
  8
0
  5
AAE7
 10
372.058
 20
716.761
 30
0.000000
  70
    32
  0
VERTEX
  8
0
  5
AAE8
 10
372.064
 20
716.791
 30
0.000000
  70
    32
  0
VERTEX
  8
0
  5
AAE9
 10
372.070
 20
716.821
 30
0.000000
  70
    32
  0
VERTEX
  8
0
  5
AAEA
 10
372.076
 20
716.852
 30
0.000000
  70
    32
  0
VERTEX
  8
0
  5
AAEB
 10
372.081
 20
716.882
 30
0.000000
  70
    32
  0
VERTEX
  8
0
  5
AAEC
 10
372.087
 20
716.912
 30
0.000000
  70
    32
  0
VERTEX
  8
0
  5
AAED
 10
372.091
 20
716.942
 30
0.000000
  70
    32
  0
VERTEX
  8
0
  5
AAEE
 10
372.096
 20
716.973
 30
0.000000
  70
    32
  0
VERTEX
  8
0
  5
AAEF
 10
372.099
 20
717.003
 30
0.000000
  70
    32
  0
VERTEX
  8
0
  5
AAF0
 10
372.103
 20
717.034
 30
0.000000
  70
    32
  0
VERTEX
  8
0
  5
AAF1
 10
372.106
 20
717.064
 30
0.000000
  70
    32
  0
VERTEX
  8
0
  5
AAF2
 10
372.109
 20
717.095
 30
0.000000
  70
    32
  0
VERTEX
  8
0
  5
AAF3
 10
372.111
 20
717.125
 30
0.000000
  70
    32
  0
VERTEX
  8
0
  5
AAF4
 10
372.114
 20
717.156
 30
0.000000
  70
    32
  0
VERTEX
  8
0
  5
AAF5
 10
372.115
 20
717.186
 30
0.000000
  70
    32
  0
VERTEX
  8
0
  5
AAF6
 10
372.117
 20
717.217
 30
0.000000
  70
    32
  0
VERTEX
  8
0
  5
AAF7
 10
372.118
 20
717.248
 30
0.000000
  70
    32
  0
VERTEX
  8
0
  5
AAF8
 10
372.118
 20
717.278
 30
0.000000
  70
    32
  0
VERTEX
  8
0
  5
AAF9
 10
372.118
 20
717.309
 30
0.000000
  70
    32
  0
SEQEND
  8
0
  5
AAFA
  0
LINE
  5
A26F
  8
0
 10
297.0182638795643
 20
748.8097676173802
 30
0.0
 11
377.49338987956412
 21
748.8097676173802
 31
0.0
  0
LINE
  5
A270
  8
0
 10
363.49338987956412
 20
731.69455161738006
 30
0.0
 11
363.49338987956412
 21
748.8097676173802
 31
0.0
  0
LINE
  5
A271
  8
0
 10
315.6182638795641
 20
748.8097676173802
 30
0.0
 11
315.6182638795641
 21
731.80942761738015
 31
0.0
  0
LINE
  5
A272
  8
0
 10
297.0182638795643
 20
748.8097676173802
 30
0.0
 11
297.0182638795643
 21
731.80942761738015
 31
0.0
  0
LINE
  5
A273
  8
0
 10
291.21826387956412
 20
747.80974761737991
 30
0.0
 11
291.21826387956412
 21
719.80918761737985
 31
0.0
  0
LINE
  5
A274
  8
0
 10
293.73683987956412
 20
719.80918761737985
 30
0.0
 11
325.71490987956417
 21
725.25772261738007
 31
0.0
  0
LINE
  5
A275
  8
0
 10
293.81826387956397
 20
718.80916761738024
 30
0.0
 11
370.11826387956421
 21
731.80942761738015
 31
0.0
  0
LINE
  5
A276
  8
0
 10
369.61826387956421
 20
714.80908761738021
 30
0.0
 11
294.14395887956402
 21
714.80908761738021
 31
0.0
  0
LINE
  5
A277
  8
0
 10
370.44395887956421
 20
727.80934761738024
 30
0.0
 11
294.14395887956402
 21
714.80908761738021
 31
0.0
  0
LINE
  5
A278
  8
0
 10
291.21826387956412
 20
723.80926761738021
 30
0.0
 11
290.0182638795643
 21
723.80926761738021
 31
0.0
  0
LINE
  5
A279
  8
0
 10
293.73683987956412
 20
719.80918761737985
 30
0.0
 11
289.71826387956412
 21
719.80918761737985
 31
0.0
  0
LINE
  5
A27A
  8
0
 10
289.71826387956412
 20
718.80916761738024
 30
0.0
 11
293.81826387956397
 21
718.80916761738024
 31
0.0
  0
POLYLINE
  5
A27B
  8
0
 10
289.71826388016399
 20
716.30911761737991
 30
0.0
 66
     1
 70
     8
  0
VERTEX
  8
0
  5
AAFB
 10
289.718
 20
716.309
 30
0.000000
  70
    32
  0
VERTEX
  8
0
  5
AAFC
 10
289.718
 20
716.291
 30
0.000000
  70
    32
  0
VERTEX
  8
0
  5
AAFD
 10
289.719
 20
716.272
 30
0.000000
  70
    32
  0
VERTEX
  8
0
  5
AAFE
 10
289.719
 20
716.254
 30
0.000000
  70
    32
  0
VERTEX
  8
0
  5
AAFF
 10
289.720
 20
716.236
 30
0.000000
  70
    32
  0
VERTEX
  8
0
  5
AB00
 10
289.721
 20
716.217
 30
0.000000
  70
    32
  0
VERTEX
  8
0
  5
AB01
 10
289.722
 20
716.199
 30
0.000000
  70
    32
  0
VERTEX
  8
0
  5
AB02
 10
289.724
 20
716.180
 30
0.000000
  70
    32
  0
VERTEX
  8
0
  5
AB03
 10
289.725
 20
716.162
 30
0.000000
  70
    32
  0
VERTEX
  8
0
  5
AB04
 10
289.727
 20
716.144
 30
0.000000
  70
    32
  0
VERTEX
  8
0
  5
AB05
 10
289.730
 20
716.125
 30
0.000000
  70
    32
  0
VERTEX
  8
0
  5
AB06
 10
289.732
 20
716.107
 30
0.000000
  70
    32
  0
VERTEX
  8
0
  5
AB07
 10
289.734
 20
716.089
 30
0.000000
  70
    32
  0
VERTEX
  8
0
  5
AB08
 10
289.737
 20
716.071
 30
0.000000
  70
    32
  0
VERTEX
  8
0
  5
AB09
 10
289.740
 20
716.053
 30
0.000000
  70
    32
  0
VERTEX
  8
0
  5
AB0A
 10
289.744
 20
716.035
 30
0.000000
  70
    32
  0
VERTEX
  8
0
  5
AB0B
 10
289.747
 20
716.016
 30
0.000000
  70
    32
  0
VERTEX
  8
0
  5
AB0C
 10
289.751
 20
715.998
 30
0.000000
  70
    32
  0
VERTEX
  8
0
  5
AB0D
 10
289.755
 20
715.980
 30
0.000000
  70
    32
  0
VERTEX
  8
0
  5
AB0E
 10
289.759
 20
715.963
 30
0.000000
  70
    32
  0
VERTEX
  8
0
  5
AB0F
 10
289.763
 20
715.945
 30
0.000000
  70
    32
  0
VERTEX
  8
0
  5
AB10
 10
289.768
 20
715.927
 30
0.000000
  70
    32
  0
VERTEX
  8
0
  5
AB11
 10
289.773
 20
715.909
 30
0.000000
  70
    32
  0
VERTEX
  8
0
  5
AB12
 10
289.778
 20
715.891
 30
0.000000
  70
    32
  0
VERTEX
  8
0
  5
AB13
 10
289.783
 20
715.874
 30
0.000000
  70
    32
  0
VERTEX
  8
0
  5
AB14
 10
289.788
 20
715.856
 30
0.000000
  70
    32
  0
VERTEX
  8
0
  5
AB15
 10
289.794
 20
715.839
 30
0.000000
  70
    32
  0
VERTEX
  8
0
  5
AB16
 10
289.800
 20
715.821
 30
0.000000
  70
    32
  0
VERTEX
  8
0
  5
AB17
 10
289.806
 20
715.804
 30
0.000000
  70
    32
  0
VERTEX
  8
0
  5
AB18
 10
289.812
 20
715.786
 30
0.000000
  70
    32
  0
VERTEX
  8
0
  5
AB19
 10
289.819
 20
715.769
 30
0.000000
  70
    32
  0
VERTEX
  8
0
  5
AB1A
 10
289.826
 20
715.752
 30
0.000000
  70
    32
  0
VERTEX
  8
0
  5
AB1B
 10
289.832
 20
715.735
 30
0.000000
  70
    32
  0
VERTEX
  8
0
  5
AB1C
 10
289.840
 20
715.718
 30
0.000000
  70
    32
  0
VERTEX
  8
0
  5
AB1D
 10
289.847
 20
715.701
 30
0.000000
  70
    32
  0
VERTEX
  8
0
  5
AB1E
 10
289.855
 20
715.684
 30
0.000000
  70
    32
  0
VERTEX
  8
0
  5
AB1F
 10
289.862
 20
715.668
 30
0.000000
  70
    32
  0
VERTEX
  8
0
  5
AB20
 10
289.870
 20
715.651
 30
0.000000
  70
    32
  0
VERTEX
  8
0
  5
AB21
 10
289.878
 20
715.635
 30
0.000000
  70
    32
  0
VERTEX
  8
0
  5
AB22
 10
289.887
 20
715.618
 30
0.000000
  70
    32
  0
VERTEX
  8
0
  5
AB23
 10
289.895
 20
715.602
 30
0.000000
  70
    32
  0
VERTEX
  8
0
  5
AB24
 10
289.904
 20
715.586
 30
0.000000
  70
    32
  0
VERTEX
  8
0
  5
AB25
 10
289.913
 20
715.570
 30
0.000000
  70
    32
  0
VERTEX
  8
0
  5
AB26
 10
289.922
 20
715.554
 30
0.000000
  70
    32
  0
VERTEX
  8
0
  5
AB27
 10
289.932
 20
715.538
 30
0.000000
  70
    32
  0
VERTEX
  8
0
  5
AB28
 10
289.941
 20
715.522
 30
0.000000
  70
    32
  0
VERTEX
  8
0
  5
AB29
 10
289.951
 20
715.507
 30
0.000000
  70
    32
  0
VERTEX
  8
0
  5
AB2A
 10
289.961
 20
715.491
 30
0.000000
  70
    32
  0
VERTEX
  8
0
  5
AB2B
 10
289.971
 20
715.476
 30
0.000000
  70
    32
  0
VERTEX
  8
0
  5
AB2C
 10
289.981
 20
715.461
 30
0.000000
  70
    32
  0
VERTEX
  8
0
  5
AB2D
 10
289.992
 20
715.445
 30
0.000000
  70
    32
  0
VERTEX
  8
0
  5
AB2E
 10
290.003
 20
715.430
 30
0.000000
  70
    32
  0
VERTEX
  8
0
  5
AB2F
 10
290.013
 20
715.416
 30
0.000000
  70
    32
  0
VERTEX
  8
0
  5
AB30
 10
290.025
 20
715.401
 30
0.000000
  70
    32
  0
VERTEX
  8
0
  5
AB31
 10
290.036
 20
715.386
 30
0.000000
  70
    32
  0
VERTEX
  8
0
  5
AB32
 10
290.047
 20
715.372
 30
0.000000
  70
    32
  0
VERTEX
  8
0
  5
AB33
 10
290.059
 20
715.358
 30
0.000000
  70
    32
  0
VERTEX
  8
0
  5
AB34
 10
290.071
 20
715.343
 30
0.000000
  70
    32
  0
VERTEX
  8
0
  5
AB35
 10
290.082
 20
715.329
 30
0.000000
  70
    32
  0
VERTEX
  8
0
  5
AB36
 10
290.095
 20
715.315
 30
0.000000
  70
    32
  0
VERTEX
  8
0
  5
AB37
 10
290.107
 20
715.302
 30
0.000000
  70
    32
  0
VERTEX
  8
0
  5
AB38
 10
290.119
 20
715.288
 30
0.000000
  70
    32
  0
VERTEX
  8
0
  5
AB39
 10
290.132
 20
715.275
 30
0.000000
  70
    32
  0
VERTEX
  8
0
  5
AB3A
 10
290.145
 20
715.262
 30
0.000000
  70
    32
  0
VERTEX
  8
0
  5
AB3B
 10
290.158
 20
715.248
 30
0.000000
  70
    32
  0
VERTEX
  8
0
  5
AB3C
 10
290.171
 20
715.235
 30
0.000000
  70
    32
  0
VERTEX
  8
0
  5
AB3D
 10
290.184
 20
715.223
 30
0.000000
  70
    32
  0
VERTEX
  8
0
  5
AB3E
 10
290.197
 20
715.210
 30
0.000000
  70
    32
  0
VERTEX
  8
0
  5
AB3F
 10
290.211
 20
715.198
 30
0.000000
  70
    32
  0
VERTEX
  8
0
  5
AB40
 10
290.225
 20
715.185
 30
0.000000
  70
    32
  0
VERTEX
  8
0
  5
AB41
 10
290.239
 20
715.173
 30
0.000000
  70
    32
  0
VERTEX
  8
0
  5
AB42
 10
290.253
 20
715.161
 30
0.000000
  70
    32
  0
VERTEX
  8
0
  5
AB43
 10
290.267
 20
715.150
 30
0.000000
  70
    32
  0
VERTEX
  8
0
  5
AB44
 10
290.281
 20
715.138
 30
0.000000
  70
    32
  0
VERTEX
  8
0
  5
AB45
 10
290.295
 20
715.127
 30
0.000000
  70
    32
  0
VERTEX
  8
0
  5
AB46
 10
290.310
 20
715.115
 30
0.000000
  70
    32
  0
VERTEX
  8
0
  5
AB47
 10
290.325
 20
715.104
 30
0.000000
  70
    32
  0
VERTEX
  8
0
  5
AB48
 10
290.340
 20
715.093
 30
0.000000
  70
    32
  0
VERTEX
  8
0
  5
AB49
 10
290.355
 20
715.083
 30
0.000000
  70
    32
  0
VERTEX
  8
0
  5
AB4A
 10
290.370
 20
715.072
 30
0.000000
  70
    32
  0
VERTEX
  8
0
  5
AB4B
 10
290.385
 20
715.062
 30
0.000000
  70
    32
  0
VERTEX
  8
0
  5
AB4C
 10
290.400
 20
715.052
 30
0.000000
  70
    32
  0
VERTEX
  8
0
  5
AB4D
 10
290.416
 20
715.042
 30
0.000000
  70
    32
  0
VERTEX
  8
0
  5
AB4E
 10
290.431
 20
715.032
 30
0.000000
  70
    32
  0
VERTEX
  8
0
  5
AB4F
 10
290.447
 20
715.022
 30
0.000000
  70
    32
  0
VERTEX
  8
0
  5
AB50
 10
290.463
 20
715.013
 30
0.000000
  70
    32
  0
VERTEX
  8
0
  5
AB51
 10
290.479
 20
715.004
 30
0.000000
  70
    32
  0
VERTEX
  8
0
  5
AB52
 10
290.495
 20
714.995
 30
0.000000
  70
    32
  0
VERTEX
  8
0
  5
AB53
 10
290.511
 20
714.986
 30
0.000000
  70
    32
  0
VERTEX
  8
0
  5
AB54
 10
290.527
 20
714.978
 30
0.000000
  70
    32
  0
VERTEX
  8
0
  5
AB55
 10
290.544
 20
714.969
 30
0.000000
  70
    32
  0
VERTEX
  8
0
  5
AB56
 10
290.560
 20
714.961
 30
0.000000
  70
    32
  0
VERTEX
  8
0
  5
AB57
 10
290.577
 20
714.953
 30
0.000000
  70
    32
  0
VERTEX
  8
0
  5
AB58
 10
290.594
 20
714.945
 30
0.000000
  70
    32
  0
VERTEX
  8
0
  5
AB59
 10
290.610
 20
714.938
 30
0.000000
  70
    32
  0
VERTEX
  8
0
  5
AB5A
 10
290.627
 20
714.930
 30
0.000000
  70
    32
  0
VERTEX
  8
0
  5
AB5B
 10
290.644
 20
714.923
 30
0.000000
  70
    32
  0
VERTEX
  8
0
  5
AB5C
 10
290.661
 20
714.916
 30
0.000000
  70
    32
  0
VERTEX
  8
0
  5
AB5D
 10
290.678
 20
714.910
 30
0.000000
  70
    32
  0
VERTEX
  8
0
  5
AB5E
 10
290.696
 20
714.903
 30
0.000000
  70
    32
  0
VERTEX
  8
0
  5
AB5F
 10
290.713
 20
714.897
 30
0.000000
  70
    32
  0
VERTEX
  8
0
  5
AB60
 10
290.730
 20
714.891
 30
0.000000
  70
    32
  0
VERTEX
  8
0
  5
AB61
 10
290.748
 20
714.885
 30
0.000000
  70
    32
  0
VERTEX
  8
0
  5
AB62
 10
290.765
 20
714.879
 30
0.000000
  70
    32
  0
VERTEX
  8
0
  5
AB63
 10
290.783
 20
714.874
 30
0.000000
  70
    32
  0
VERTEX
  8
0
  5
AB64
 10
290.800
 20
714.868
 30
0.000000
  70
    32
  0
VERTEX
  8
0
  5
AB65
 10
290.818
 20
714.863
 30
0.000000
  70
    32
  0
VERTEX
  8
0
  5
AB66
 10
290.836
 20
714.859
 30
0.000000
  70
    32
  0
VERTEX
  8
0
  5
AB67
 10
290.854
 20
714.854
 30
0.000000
  70
    32
  0
VERTEX
  8
0
  5
AB68
 10
290.872
 20
714.850
 30
0.000000
  70
    32
  0
VERTEX
  8
0
  5
AB69
 10
290.890
 20
714.846
 30
0.000000
  70
    32
  0
VERTEX
  8
0
  5
AB6A
 10
290.908
 20
714.842
 30
0.000000
  70
    32
  0
VERTEX
  8
0
  5
AB6B
 10
290.926
 20
714.838
 30
0.000000
  70
    32
  0
VERTEX
  8
0
  5
AB6C
 10
290.944
 20
714.834
 30
0.000000
  70
    32
  0
VERTEX
  8
0
  5
AB6D
 10
290.962
 20
714.831
 30
0.000000
  70
    32
  0
VERTEX
  8
0
  5
AB6E
 10
290.980
 20
714.828
 30
0.000000
  70
    32
  0
VERTEX
  8
0
  5
AB6F
 10
290.998
 20
714.825
 30
0.000000
  70
    32
  0
VERTEX
  8
0
  5
AB70
 10
291.016
 20
714.823
 30
0.000000
  70
    32
  0
VERTEX
  8
0
  5
AB71
 10
291.035
 20
714.820
 30
0.000000
  70
    32
  0
VERTEX
  8
0
  5
AB72
 10
291.053
 20
714.818
 30
0.000000
  70
    32
  0
VERTEX
  8
0
  5
AB73
 10
291.071
 20
714.816
 30
0.000000
  70
    32
  0
VERTEX
  8
0
  5
AB74
 10
291.090
 20
714.815
 30
0.000000
  70
    32
  0
VERTEX
  8
0
  5
AB75
 10
291.108
 20
714.813
 30
0.000000
  70
    32
  0
VERTEX
  8
0
  5
AB76
 10
291.126
 20
714.812
 30
0.000000
  70
    32
  0
VERTEX
  8
0
  5
AB77
 10
291.145
 20
714.811
 30
0.000000
  70
    32
  0
VERTEX
  8
0
  5
AB78
 10
291.163
 20
714.810
 30
0.000000
  70
    32
  0
VERTEX
  8
0
  5
AB79
 10
291.181
 20
714.810
 30
0.000000
  70
    32
  0
VERTEX
  8
0
  5
AB7A
 10
291.200
 20
714.809
 30
0.000000
  70
    32
  0
VERTEX
  8
0
  5
AB7B
 10
291.218
 20
714.809
 30
0.000000
  70
    32
  0
SEQEND
  8
0
  5
AB7C
  0
POLYLINE
  5
A27C
  8
0
 10
289.21826388016399
 20
716.30911761737991
 30
0.0
 66
     1
 70
     8
  0
VERTEX
  8
0
  5
AB7D
 10
289.218
 20
716.309
 30
0.000000
  70
    32
  0
VERTEX
  8
0
  5
AB7E
 10
289.218
 20
716.291
 30
0.000000
  70
    32
  0
VERTEX
  8
0
  5
AB7F
 10
289.219
 20
716.272
 30
0.000000
  70
    32
  0
VERTEX
  8
0
  5
AB80
 10
289.219
 20
716.254
 30
0.000000
  70
    32
  0
VERTEX
  8
0
  5
AB81
 10
289.220
 20
716.236
 30
0.000000
  70
    32
  0
VERTEX
  8
0
  5
AB82
 10
289.221
 20
716.217
 30
0.000000
  70
    32
  0
VERTEX
  8
0
  5
AB83
 10
289.222
 20
716.199
 30
0.000000
  70
    32
  0
VERTEX
  8
0
  5
AB84
 10
289.224
 20
716.180
 30
0.000000
  70
    32
  0
VERTEX
  8
0
  5
AB85
 10
289.225
 20
716.162
 30
0.000000
  70
    32
  0
VERTEX
  8
0
  5
AB86
 10
289.227
 20
716.144
 30
0.000000
  70
    32
  0
VERTEX
  8
0
  5
AB87
 10
289.230
 20
716.125
 30
0.000000
  70
    32
  0
VERTEX
  8
0
  5
AB88
 10
289.232
 20
716.107
 30
0.000000
  70
    32
  0
VERTEX
  8
0
  5
AB89
 10
289.234
 20
716.089
 30
0.000000
  70
    32
  0
VERTEX
  8
0
  5
AB8A
 10
289.237
 20
716.071
 30
0.000000
  70
    32
  0
VERTEX
  8
0
  5
AB8B
 10
289.240
 20
716.053
 30
0.000000
  70
    32
  0
VERTEX
  8
0
  5
AB8C
 10
289.244
 20
716.035
 30
0.000000
  70
    32
  0
VERTEX
  8
0
  5
AB8D
 10
289.247
 20
716.016
 30
0.000000
  70
    32
  0
VERTEX
  8
0
  5
AB8E
 10
289.251
 20
715.998
 30
0.000000
  70
    32
  0
VERTEX
  8
0
  5
AB8F
 10
289.255
 20
715.980
 30
0.000000
  70
    32
  0
VERTEX
  8
0
  5
AB90
 10
289.259
 20
715.963
 30
0.000000
  70
    32
  0
VERTEX
  8
0
  5
AB91
 10
289.263
 20
715.945
 30
0.000000
  70
    32
  0
VERTEX
  8
0
  5
AB92
 10
289.268
 20
715.927
 30
0.000000
  70
    32
  0
VERTEX
  8
0
  5
AB93
 10
289.273
 20
715.909
 30
0.000000
  70
    32
  0
VERTEX
  8
0
  5
AB94
 10
289.278
 20
715.891
 30
0.000000
  70
    32
  0
VERTEX
  8
0
  5
AB95
 10
289.283
 20
715.874
 30
0.000000
  70
    32
  0
VERTEX
  8
0
  5
AB96
 10
289.288
 20
715.856
 30
0.000000
  70
    32
  0
VERTEX
  8
0
  5
AB97
 10
289.294
 20
715.839
 30
0.000000
  70
    32
  0
VERTEX
  8
0
  5
AB98
 10
289.300
 20
715.821
 30
0.000000
  70
    32
  0
VERTEX
  8
0
  5
AB99
 10
289.306
 20
715.804
 30
0.000000
  70
    32
  0
VERTEX
  8
0
  5
AB9A
 10
289.312
 20
715.786
 30
0.000000
  70
    32
  0
VERTEX
  8
0
  5
AB9B
 10
289.319
 20
715.769
 30
0.000000
  70
    32
  0
VERTEX
  8
0
  5
AB9C
 10
289.326
 20
715.752
 30
0.000000
  70
    32
  0
VERTEX
  8
0
  5
AB9D
 10
289.332
 20
715.735
 30
0.000000
  70
    32
  0
VERTEX
  8
0
  5
AB9E
 10
289.340
 20
715.718
 30
0.000000
  70
    32
  0
VERTEX
  8
0
  5
AB9F
 10
289.347
 20
715.701
 30
0.000000
  70
    32
  0
VERTEX
  8
0
  5
ABA0
 10
289.355
 20
715.684
 30
0.000000
  70
    32
  0
VERTEX
  8
0
  5
ABA1
 10
289.362
 20
715.668
 30
0.000000
  70
    32
  0
VERTEX
  8
0
  5
ABA2
 10
289.370
 20
715.651
 30
0.000000
  70
    32
  0
VERTEX
  8
0
  5
ABA3
 10
289.378
 20
715.635
 30
0.000000
  70
    32
  0
VERTEX
  8
0
  5
ABA4
 10
289.387
 20
715.618
 30
0.000000
  70
    32
  0
VERTEX
  8
0
  5
ABA5
 10
289.395
 20
715.602
 30
0.000000
  70
    32
  0
VERTEX
  8
0
  5
ABA6
 10
289.404
 20
715.586
 30
0.000000
  70
    32
  0
VERTEX
  8
0
  5
ABA7
 10
289.413
 20
715.570
 30
0.000000
  70
    32
  0
VERTEX
  8
0
  5
ABA8
 10
289.422
 20
715.554
 30
0.000000
  70
    32
  0
VERTEX
  8
0
  5
ABA9
 10
289.432
 20
715.538
 30
0.000000
  70
    32
  0
VERTEX
  8
0
  5
ABAA
 10
289.441
 20
715.522
 30
0.000000
  70
    32
  0
VERTEX
  8
0
  5
ABAB
 10
289.451
 20
715.507
 30
0.000000
  70
    32
  0
VERTEX
  8
0
  5
ABAC
 10
289.461
 20
715.491
 30
0.000000
  70
    32
  0
VERTEX
  8
0
  5
ABAD
 10
289.471
 20
715.476
 30
0.000000
  70
    32
  0
VERTEX
  8
0
  5
ABAE
 10
289.481
 20
715.461
 30
0.000000
  70
    32
  0
VERTEX
  8
0
  5
ABAF
 10
289.492
 20
715.445
 30
0.000000
  70
    32
  0
VERTEX
  8
0
  5
ABB0
 10
289.503
 20
715.430
 30
0.000000
  70
    32
  0
VERTEX
  8
0
  5
ABB1
 10
289.513
 20
715.416
 30
0.000000
  70
    32
  0
VERTEX
  8
0
  5
ABB2
 10
289.525
 20
715.401
 30
0.000000
  70
    32
  0
VERTEX
  8
0
  5
ABB3
 10
289.536
 20
715.386
 30
0.000000
  70
    32
  0
VERTEX
  8
0
  5
ABB4
 10
289.547
 20
715.372
 30
0.000000
  70
    32
  0
VERTEX
  8
0
  5
ABB5
 10
289.559
 20
715.358
 30
0.000000
  70
    32
  0
VERTEX
  8
0
  5
ABB6
 10
289.571
 20
715.343
 30
0.000000
  70
    32
  0
VERTEX
  8
0
  5
ABB7
 10
289.582
 20
715.329
 30
0.000000
  70
    32
  0
VERTEX
  8
0
  5
ABB8
 10
289.595
 20
715.315
 30
0.000000
  70
    32
  0
VERTEX
  8
0
  5
ABB9
 10
289.607
 20
715.302
 30
0.000000
  70
    32
  0
VERTEX
  8
0
  5
ABBA
 10
289.619
 20
715.288
 30
0.000000
  70
    32
  0
VERTEX
  8
0
  5
ABBB
 10
289.632
 20
715.275
 30
0.000000
  70
    32
  0
VERTEX
  8
0
  5
ABBC
 10
289.645
 20
715.262
 30
0.000000
  70
    32
  0
VERTEX
  8
0
  5
ABBD
 10
289.658
 20
715.248
 30
0.000000
  70
    32
  0
VERTEX
  8
0
  5
ABBE
 10
289.671
 20
715.235
 30
0.000000
  70
    32
  0
VERTEX
  8
0
  5
ABBF
 10
289.684
 20
715.223
 30
0.000000
  70
    32
  0
VERTEX
  8
0
  5
ABC0
 10
289.697
 20
715.210
 30
0.000000
  70
    32
  0
VERTEX
  8
0
  5
ABC1
 10
289.711
 20
715.198
 30
0.000000
  70
    32
  0
VERTEX
  8
0
  5
ABC2
 10
289.725
 20
715.185
 30
0.000000
  70
    32
  0
VERTEX
  8
0
  5
ABC3
 10
289.739
 20
715.173
 30
0.000000
  70
    32
  0
VERTEX
  8
0
  5
ABC4
 10
289.753
 20
715.161
 30
0.000000
  70
    32
  0
VERTEX
  8
0
  5
ABC5
 10
289.767
 20
715.150
 30
0.000000
  70
    32
  0
VERTEX
  8
0
  5
ABC6
 10
289.781
 20
715.138
 30
0.000000
  70
    32
  0
VERTEX
  8
0
  5
ABC7
 10
289.795
 20
715.127
 30
0.000000
  70
    32
  0
VERTEX
  8
0
  5
ABC8
 10
289.810
 20
715.115
 30
0.000000
  70
    32
  0
VERTEX
  8
0
  5
ABC9
 10
289.825
 20
715.104
 30
0.000000
  70
    32
  0
VERTEX
  8
0
  5
ABCA
 10
289.840
 20
715.093
 30
0.000000
  70
    32
  0
VERTEX
  8
0
  5
ABCB
 10
289.855
 20
715.083
 30
0.000000
  70
    32
  0
VERTEX
  8
0
  5
ABCC
 10
289.870
 20
715.072
 30
0.000000
  70
    32
  0
VERTEX
  8
0
  5
ABCD
 10
289.885
 20
715.062
 30
0.000000
  70
    32
  0
VERTEX
  8
0
  5
ABCE
 10
289.900
 20
715.052
 30
0.000000
  70
    32
  0
VERTEX
  8
0
  5
ABCF
 10
289.916
 20
715.042
 30
0.000000
  70
    32
  0
VERTEX
  8
0
  5
ABD0
 10
289.931
 20
715.032
 30
0.000000
  70
    32
  0
VERTEX
  8
0
  5
ABD1
 10
289.947
 20
715.022
 30
0.000000
  70
    32
  0
VERTEX
  8
0
  5
ABD2
 10
289.963
 20
715.013
 30
0.000000
  70
    32
  0
VERTEX
  8
0
  5
ABD3
 10
289.979
 20
715.004
 30
0.000000
  70
    32
  0
VERTEX
  8
0
  5
ABD4
 10
289.995
 20
714.995
 30
0.000000
  70
    32
  0
VERTEX
  8
0
  5
ABD5
 10
290.011
 20
714.986
 30
0.000000
  70
    32
  0
VERTEX
  8
0
  5
ABD6
 10
290.027
 20
714.978
 30
0.000000
  70
    32
  0
VERTEX
  8
0
  5
ABD7
 10
290.044
 20
714.969
 30
0.000000
  70
    32
  0
VERTEX
  8
0
  5
ABD8
 10
290.060
 20
714.961
 30
0.000000
  70
    32
  0
VERTEX
  8
0
  5
ABD9
 10
290.077
 20
714.953
 30
0.000000
  70
    32
  0
VERTEX
  8
0
  5
ABDA
 10
290.094
 20
714.945
 30
0.000000
  70
    32
  0
VERTEX
  8
0
  5
ABDB
 10
290.110
 20
714.938
 30
0.000000
  70
    32
  0
VERTEX
  8
0
  5
ABDC
 10
290.127
 20
714.930
 30
0.000000
  70
    32
  0
VERTEX
  8
0
  5
ABDD
 10
290.144
 20
714.923
 30
0.000000
  70
    32
  0
VERTEX
  8
0
  5
ABDE
 10
290.161
 20
714.916
 30
0.000000
  70
    32
  0
VERTEX
  8
0
  5
ABDF
 10
290.178
 20
714.910
 30
0.000000
  70
    32
  0
VERTEX
  8
0
  5
ABE0
 10
290.196
 20
714.903
 30
0.000000
  70
    32
  0
VERTEX
  8
0
  5
ABE1
 10
290.213
 20
714.897
 30
0.000000
  70
    32
  0
VERTEX
  8
0
  5
ABE2
 10
290.230
 20
714.891
 30
0.000000
  70
    32
  0
VERTEX
  8
0
  5
ABE3
 10
290.248
 20
714.885
 30
0.000000
  70
    32
  0
VERTEX
  8
0
  5
ABE4
 10
290.265
 20
714.879
 30
0.000000
  70
    32
  0
VERTEX
  8
0
  5
ABE5
 10
290.283
 20
714.874
 30
0.000000
  70
    32
  0
VERTEX
  8
0
  5
ABE6
 10
290.300
 20
714.868
 30
0.000000
  70
    32
  0
VERTEX
  8
0
  5
ABE7
 10
290.318
 20
714.863
 30
0.000000
  70
    32
  0
VERTEX
  8
0
  5
ABE8
 10
290.336
 20
714.859
 30
0.000000
  70
    32
  0
VERTEX
  8
0
  5
ABE9
 10
290.354
 20
714.854
 30
0.000000
  70
    32
  0
VERTEX
  8
0
  5
ABEA
 10
290.372
 20
714.850
 30
0.000000
  70
    32
  0
VERTEX
  8
0
  5
ABEB
 10
290.390
 20
714.846
 30
0.000000
  70
    32
  0
VERTEX
  8
0
  5
ABEC
 10
290.408
 20
714.842
 30
0.000000
  70
    32
  0
VERTEX
  8
0
  5
ABED
 10
290.426
 20
714.838
 30
0.000000
  70
    32
  0
VERTEX
  8
0
  5
ABEE
 10
290.444
 20
714.834
 30
0.000000
  70
    32
  0
VERTEX
  8
0
  5
ABEF
 10
290.462
 20
714.831
 30
0.000000
  70
    32
  0
VERTEX
  8
0
  5
ABF0
 10
290.480
 20
714.828
 30
0.000000
  70
    32
  0
VERTEX
  8
0
  5
ABF1
 10
290.498
 20
714.825
 30
0.000000
  70
    32
  0
VERTEX
  8
0
  5
ABF2
 10
290.516
 20
714.823
 30
0.000000
  70
    32
  0
VERTEX
  8
0
  5
ABF3
 10
290.535
 20
714.820
 30
0.000000
  70
    32
  0
VERTEX
  8
0
  5
ABF4
 10
290.553
 20
714.818
 30
0.000000
  70
    32
  0
VERTEX
  8
0
  5
ABF5
 10
290.571
 20
714.816
 30
0.000000
  70
    32
  0
VERTEX
  8
0
  5
ABF6
 10
290.590
 20
714.815
 30
0.000000
  70
    32
  0
VERTEX
  8
0
  5
ABF7
 10
290.608
 20
714.813
 30
0.000000
  70
    32
  0
VERTEX
  8
0
  5
ABF8
 10
290.626
 20
714.812
 30
0.000000
  70
    32
  0
VERTEX
  8
0
  5
ABF9
 10
290.645
 20
714.811
 30
0.000000
  70
    32
  0
VERTEX
  8
0
  5
ABFA
 10
290.663
 20
714.810
 30
0.000000
  70
    32
  0
VERTEX
  8
0
  5
ABFB
 10
290.681
 20
714.810
 30
0.000000
  70
    32
  0
VERTEX
  8
0
  5
ABFC
 10
290.700
 20
714.809
 30
0.000000
  70
    32
  0
VERTEX
  8
0
  5
ABFD
 10
290.718
 20
714.809
 30
0.000000
  70
    32
  0
SEQEND
  8
0
  5
ABFE
  0
LINE
  5
A27D
  8
0
 10
290.0182638795643
 20
723.80926761738021
 30
0.0
 11
289.21826387956412
 21
723.80926761738021
 31
0.0
  0
LINE
  5
A27E
  8
0
 10
289.21826387956412
 20
723.80926761738021
 30
0.0
 11
289.21826387956412
 21
716.30911761737991
 31
0.0
  0
LINE
  5
A27F
  8
0
 10
289.71826387956412
 20
719.80918761737985
 30
0.0
 11
289.71826387956412
 21
716.30911761737991
 31
0.0
  0
POLYLINE
  5
A280
  8
0
 10
297.01826388328425
 20
731.80942761738015
 30
0.0
 66
     1
 70
     8
  0
VERTEX
  8
0
  5
ABFF
 10
297.018
 20
731.809
 30
0.000000
  70
    32
  0
VERTEX
  8
0
  5
AC00
 10
297.021
 20
731.581
 30
0.000000
  70
    32
  0
VERTEX
  8
0
  5
AC01
 10
297.029
 20
731.353
 30
0.000000
  70
    32
  0
VERTEX
  8
0
  5
AC02
 10
297.043
 20
731.125
 30
0.000000
  70
    32
  0
VERTEX
  8
0
  5
AC03
 10
297.063
 20
730.898
 30
0.000000
  70
    32
  0
VERTEX
  8
0
  5
AC04
 10
297.088
 20
730.671
 30
0.000000
  70
    32
  0
VERTEX
  8
0
  5
AC05
 10
297.119
 20
730.445
 30
0.000000
  70
    32
  0
VERTEX
  8
0
  5
AC06
 10
297.155
 20
730.219
 30
0.000000
  70
    32
  0
VERTEX
  8
0
  5
AC07
 10
297.197
 20
729.995
 30
0.000000
  70
    32
  0
VERTEX
  8
0
  5
AC08
 10
297.244
 20
729.772
 30
0.000000
  70
    32
  0
VERTEX
  8
0
  5
AC09
 10
297.297
 20
729.550
 30
0.000000
  70
    32
  0
VERTEX
  8
0
  5
AC0A
 10
297.355
 20
729.329
 30
0.000000
  70
    32
  0
VERTEX
  8
0
  5
AC0B
 10
297.419
 20
729.110
 30
0.000000
  70
    32
  0
VERTEX
  8
0
  5
AC0C
 10
297.488
 20
728.892
 30
0.000000
  70
    32
  0
VERTEX
  8
0
  5
AC0D
 10
297.562
 20
728.676
 30
0.000000
  70
    32
  0
VERTEX
  8
0
  5
AC0E
 10
297.641
 20
728.462
 30
0.000000
  70
    32
  0
VERTEX
  8
0
  5
AC0F
 10
297.726
 20
728.250
 30
0.000000
  70
    32
  0
VERTEX
  8
0
  5
AC10
 10
297.816
 20
728.041
 30
0.000000
  70
    32
  0
VERTEX
  8
0
  5
AC11
 10
297.911
 20
727.833
 30
0.000000
  70
    32
  0
VERTEX
  8
0
  5
AC12
 10
298.011
 20
727.628
 30
0.000000
  70
    32
  0
VERTEX
  8
0
  5
AC13
 10
298.116
 20
727.425
 30
0.000000
  70
    32
  0
VERTEX
  8
0
  5
AC14
 10
298.226
 20
727.225
 30
0.000000
  70
    32
  0
VERTEX
  8
0
  5
AC15
 10
298.341
 20
727.028
 30
0.000000
  70
    32
  0
VERTEX
  8
0
  5
AC16
 10
298.461
 20
726.834
 30
0.000000
  70
    32
  0
VERTEX
  8
0
  5
AC17
 10
298.586
 20
726.643
 30
0.000000
  70
    32
  0
VERTEX
  8
0
  5
AC18
 10
298.715
 20
726.454
 30
0.000000
  70
    32
  0
VERTEX
  8
0
  5
AC19
 10
298.848
 20
726.269
 30
0.000000
  70
    32
  0
VERTEX
  8
0
  5
AC1A
 10
298.987
 20
726.088
 30
0.000000
  70
    32
  0
VERTEX
  8
0
  5
AC1B
 10
299.129
 20
725.909
 30
0.000000
  70
    32
  0
VERTEX
  8
0
  5
AC1C
 10
299.276
 20
725.735
 30
0.000000
  70
    32
  0
VERTEX
  8
0
  5
AC1D
 10
299.427
 20
725.564
 30
0.000000
  70
    32
  0
VERTEX
  8
0
  5
AC1E
 10
299.583
 20
725.397
 30
0.000000
  70
    32
  0
VERTEX
  8
0
  5
AC1F
 10
299.742
 20
725.233
 30
0.000000
  70
    32
  0
VERTEX
  8
0
  5
AC20
 10
299.906
 20
725.074
 30
0.000000
  70
    32
  0
VERTEX
  8
0
  5
AC21
 10
300.073
 20
724.918
 30
0.000000
  70
    32
  0
VERTEX
  8
0
  5
AC22
 10
300.244
 20
724.767
 30
0.000000
  70
    32
  0
VERTEX
  8
0
  5
AC23
 10
300.418
 20
724.620
 30
0.000000
  70
    32
  0
VERTEX
  8
0
  5
AC24
 10
300.597
 20
724.478
 30
0.000000
  70
    32
  0
VERTEX
  8
0
  5
AC25
 10
300.778
 20
724.339
 30
0.000000
  70
    32
  0
VERTEX
  8
0
  5
AC26
 10
300.963
 20
724.206
 30
0.000000
  70
    32
  0
VERTEX
  8
0
  5
AC27
 10
301.151
 20
724.077
 30
0.000000
  70
    32
  0
VERTEX
  8
0
  5
AC28
 10
301.343
 20
723.952
 30
0.000000
  70
    32
  0
VERTEX
  8
0
  5
AC29
 10
301.537
 20
723.832
 30
0.000000
  70
    32
  0
VERTEX
  8
0
  5
AC2A
 10
301.734
 20
723.717
 30
0.000000
  70
    32
  0
VERTEX
  8
0
  5
AC2B
 10
301.934
 20
723.607
 30
0.000000
  70
    32
  0
VERTEX
  8
0
  5
AC2C
 10
302.137
 20
723.502
 30
0.000000
  70
    32
  0
VERTEX
  8
0
  5
AC2D
 10
302.342
 20
723.402
 30
0.000000
  70
    32
  0
VERTEX
  8
0
  5
AC2E
 10
302.550
 20
723.307
 30
0.000000
  70
    32
  0
VERTEX
  8
0
  5
AC2F
 10
302.759
 20
723.217
 30
0.000000
  70
    32
  0
VERTEX
  8
0
  5
AC30
 10
302.971
 20
723.132
 30
0.000000
  70
    32
  0
VERTEX
  8
0
  5
AC31
 10
303.185
 20
723.053
 30
0.000000
  70
    32
  0
VERTEX
  8
0
  5
AC32
 10
303.401
 20
722.979
 30
0.000000
  70
    32
  0
VERTEX
  8
0
  5
AC33
 10
303.619
 20
722.910
 30
0.000000
  70
    32
  0
VERTEX
  8
0
  5
AC34
 10
303.838
 20
722.846
 30
0.000000
  70
    32
  0
VERTEX
  8
0
  5
AC35
 10
304.059
 20
722.788
 30
0.000000
  70
    32
  0
VERTEX
  8
0
  5
AC36
 10
304.281
 20
722.735
 30
0.000000
  70
    32
  0
VERTEX
  8
0
  5
AC37
 10
304.504
 20
722.688
 30
0.000000
  70
    32
  0
VERTEX
  8
0
  5
AC38
 10
304.728
 20
722.646
 30
0.000000
  70
    32
  0
VERTEX
  8
0
  5
AC39
 10
304.954
 20
722.610
 30
0.000000
  70
    32
  0
VERTEX
  8
0
  5
AC3A
 10
305.180
 20
722.579
 30
0.000000
  70
    32
  0
VERTEX
  8
0
  5
AC3B
 10
305.407
 20
722.554
 30
0.000000
  70
    32
  0
VERTEX
  8
0
  5
AC3C
 10
305.634
 20
722.534
 30
0.000000
  70
    32
  0
VERTEX
  8
0
  5
AC3D
 10
305.862
 20
722.520
 30
0.000000
  70
    32
  0
VERTEX
  8
0
  5
AC3E
 10
306.090
 20
722.512
 30
0.000000
  70
    32
  0
VERTEX
  8
0
  5
AC3F
 10
306.318
 20
722.509
 30
0.000000
  70
    32
  0
VERTEX
  8
0
  5
AC40
 10
306.546
 20
722.512
 30
0.000000
  70
    32
  0
VERTEX
  8
0
  5
AC41
 10
306.775
 20
722.520
 30
0.000000
  70
    32
  0
VERTEX
  8
0
  5
AC42
 10
307.002
 20
722.534
 30
0.000000
  70
    32
  0
VERTEX
  8
0
  5
AC43
 10
307.230
 20
722.554
 30
0.000000
  70
    32
  0
VERTEX
  8
0
  5
AC44
 10
307.457
 20
722.579
 30
0.000000
  70
    32
  0
VERTEX
  8
0
  5
AC45
 10
307.683
 20
722.610
 30
0.000000
  70
    32
  0
VERTEX
  8
0
  5
AC46
 10
307.908
 20
722.646
 30
0.000000
  70
    32
  0
VERTEX
  8
0
  5
AC47
 10
308.133
 20
722.688
 30
0.000000
  70
    32
  0
VERTEX
  8
0
  5
AC48
 10
308.356
 20
722.735
 30
0.000000
  70
    32
  0
VERTEX
  8
0
  5
AC49
 10
308.578
 20
722.788
 30
0.000000
  70
    32
  0
VERTEX
  8
0
  5
AC4A
 10
308.799
 20
722.846
 30
0.000000
  70
    32
  0
VERTEX
  8
0
  5
AC4B
 10
309.018
 20
722.910
 30
0.000000
  70
    32
  0
VERTEX
  8
0
  5
AC4C
 10
309.236
 20
722.979
 30
0.000000
  70
    32
  0
VERTEX
  8
0
  5
AC4D
 10
309.451
 20
723.053
 30
0.000000
  70
    32
  0
VERTEX
  8
0
  5
AC4E
 10
309.665
 20
723.132
 30
0.000000
  70
    32
  0
VERTEX
  8
0
  5
AC4F
 10
309.877
 20
723.217
 30
0.000000
  70
    32
  0
VERTEX
  8
0
  5
AC50
 10
310.087
 20
723.307
 30
0.000000
  70
    32
  0
VERTEX
  8
0
  5
AC51
 10
310.295
 20
723.402
 30
0.000000
  70
    32
  0
VERTEX
  8
0
  5
AC52
 10
310.500
 20
723.502
 30
0.000000
  70
    32
  0
VERTEX
  8
0
  5
AC53
 10
310.702
 20
723.607
 30
0.000000
  70
    32
  0
VERTEX
  8
0
  5
AC54
 10
310.902
 20
723.717
 30
0.000000
  70
    32
  0
VERTEX
  8
0
  5
AC55
 10
311.099
 20
723.832
 30
0.000000
  70
    32
  0
VERTEX
  8
0
  5
AC56
 10
311.294
 20
723.952
 30
0.000000
  70
    32
  0
VERTEX
  8
0
  5
AC57
 10
311.485
 20
724.077
 30
0.000000
  70
    32
  0
VERTEX
  8
0
  5
AC58
 10
311.673
 20
724.206
 30
0.000000
  70
    32
  0
VERTEX
  8
0
  5
AC59
 10
311.858
 20
724.339
 30
0.000000
  70
    32
  0
VERTEX
  8
0
  5
AC5A
 10
312.040
 20
724.478
 30
0.000000
  70
    32
  0
VERTEX
  8
0
  5
AC5B
 10
312.218
 20
724.620
 30
0.000000
  70
    32
  0
VERTEX
  8
0
  5
AC5C
 10
312.393
 20
724.767
 30
0.000000
  70
    32
  0
VERTEX
  8
0
  5
AC5D
 10
312.564
 20
724.918
 30
0.000000
  70
    32
  0
VERTEX
  8
0
  5
AC5E
 10
312.731
 20
725.074
 30
0.000000
  70
    32
  0
VERTEX
  8
0
  5
AC5F
 10
312.894
 20
725.233
 30
0.000000
  70
    32
  0
VERTEX
  8
0
  5
AC60
 10
313.054
 20
725.397
 30
0.000000
  70
    32
  0
VERTEX
  8
0
  5
AC61
 10
313.209
 20
725.564
 30
0.000000
  70
    32
  0
VERTEX
  8
0
  5
AC62
 10
313.360
 20
725.735
 30
0.000000
  70
    32
  0
VERTEX
  8
0
  5
AC63
 10
313.507
 20
725.909
 30
0.000000
  70
    32
  0
VERTEX
  8
0
  5
AC64
 10
313.650
 20
726.088
 30
0.000000
  70
    32
  0
VERTEX
  8
0
  5
AC65
 10
313.788
 20
726.269
 30
0.000000
  70
    32
  0
VERTEX
  8
0
  5
AC66
 10
313.922
 20
726.454
 30
0.000000
  70
    32
  0
VERTEX
  8
0
  5
AC67
 10
314.051
 20
726.643
 30
0.000000
  70
    32
  0
VERTEX
  8
0
  5
AC68
 10
314.175
 20
726.834
 30
0.000000
  70
    32
  0
VERTEX
  8
0
  5
AC69
 10
314.295
 20
727.028
 30
0.000000
  70
    32
  0
VERTEX
  8
0
  5
AC6A
 10
314.410
 20
727.225
 30
0.000000
  70
    32
  0
VERTEX
  8
0
  5
AC6B
 10
314.520
 20
727.425
 30
0.000000
  70
    32
  0
VERTEX
  8
0
  5
AC6C
 10
314.625
 20
727.628
 30
0.000000
  70
    32
  0
VERTEX
  8
0
  5
AC6D
 10
314.725
 20
727.833
 30
0.000000
  70
    32
  0
VERTEX
  8
0
  5
AC6E
 10
314.820
 20
728.041
 30
0.000000
  70
    32
  0
VERTEX
  8
0
  5
AC6F
 10
314.910
 20
728.250
 30
0.000000
  70
    32
  0
VERTEX
  8
0
  5
AC70
 10
314.995
 20
728.462
 30
0.000000
  70
    32
  0
VERTEX
  8
0
  5
AC71
 10
315.075
 20
728.676
 30
0.000000
  70
    32
  0
VERTEX
  8
0
  5
AC72
 10
315.149
 20
728.892
 30
0.000000
  70
    32
  0
VERTEX
  8
0
  5
AC73
 10
315.218
 20
729.110
 30
0.000000
  70
    32
  0
VERTEX
  8
0
  5
AC74
 10
315.281
 20
729.329
 30
0.000000
  70
    32
  0
VERTEX
  8
0
  5
AC75
 10
315.340
 20
729.550
 30
0.000000
  70
    32
  0
VERTEX
  8
0
  5
AC76
 10
315.392
 20
729.772
 30
0.000000
  70
    32
  0
VERTEX
  8
0
  5
AC77
 10
315.440
 20
729.995
 30
0.000000
  70
    32
  0
VERTEX
  8
0
  5
AC78
 10
315.481
 20
730.219
 30
0.000000
  70
    32
  0
VERTEX
  8
0
  5
AC79
 10
315.518
 20
730.445
 30
0.000000
  70
    32
  0
VERTEX
  8
0
  5
AC7A
 10
315.548
 20
730.671
 30
0.000000
  70
    32
  0
VERTEX
  8
0
  5
AC7B
 10
315.573
 20
730.898
 30
0.000000
  70
    32
  0
VERTEX
  8
0
  5
AC7C
 10
315.593
 20
731.125
 30
0.000000
  70
    32
  0
VERTEX
  8
0
  5
AC7D
 10
315.607
 20
731.353
 30
0.000000
  70
    32
  0
VERTEX
  8
0
  5
AC7E
 10
315.615
 20
731.581
 30
0.000000
  70
    32
  0
VERTEX
  8
0
  5
AC7F
 10
315.618
 20
731.809
 30
0.000000
  70
    32
  0
SEQEND
  8
0
  5
AC80
  0
LINE
  5
A281
  8
0
 10
290.71826387956412
 20
714.80908761738021
 30
0.0
 11
291.01674987956397
 21
714.80908761738021
 31
0.0
  0
LINE
  5
A282
  8
0
 10
291.21826387956412
 20
714.80908761738021
 30
0.0
 11
294.14395887956402
 21
714.80908761738021
 31
0.0
  0
POLYLINE
  5
A283
  8
0
 10
306.31826388686829
 20
738.10955361737979
 30
0.0
 66
     1
 70
     8
  0
VERTEX
  8
0
  5
AC81
 10
306.318
 20
738.110
 30
0.000000
  70
    32
  0
VERTEX
  8
0
  5
AC82
 10
306.009
 20
738.102
 30
0.000000
  70
    32
  0
VERTEX
  8
0
  5
AC83
 10
305.701
 20
738.079
 30
0.000000
  70
    32
  0
VERTEX
  8
0
  5
AC84
 10
305.394
 20
738.041
 30
0.000000
  70
    32
  0
VERTEX
  8
0
  5
AC85
 10
305.089
 20
737.988
 30
0.000000
  70
    32
  0
VERTEX
  8
0
  5
AC86
 10
304.787
 20
737.921
 30
0.000000
  70
    32
  0
VERTEX
  8
0
  5
AC87
 10
304.489
 20
737.838
 30
0.000000
  70
    32
  0
VERTEX
  8
0
  5
AC88
 10
304.196
 20
737.741
 30
0.000000
  70
    32
  0
VERTEX
  8
0
  5
AC89
 10
303.907
 20
737.630
 30
0.000000
  70
    32
  0
VERTEX
  8
0
  5
AC8A
 10
303.625
 20
737.505
 30
0.000000
  70
    32
  0
VERTEX
  8
0
  5
AC8B
 10
303.348
 20
737.366
 30
0.000000
  70
    32
  0
VERTEX
  8
0
  5
AC8C
 10
303.079
 20
737.213
 30
0.000000
  70
    32
  0
VERTEX
  8
0
  5
AC8D
 10
302.818
 20
737.048
 30
0.000000
  70
    32
  0
VERTEX
  8
0
  5
AC8E
 10
302.565
 20
736.870
 30
0.000000
  70
    32
  0
VERTEX
  8
0
  5
AC8F
 10
302.322
 20
736.679
 30
0.000000
  70
    32
  0
VERTEX
  8
0
  5
AC90
 10
302.087
 20
736.478
 30
0.000000
  70
    32
  0
VERTEX
  8
0
  5
AC91
 10
301.863
 20
736.264
 30
0.000000
  70
    32
  0
VERTEX
  8
0
  5
AC92
 10
301.650
 20
736.040
 30
0.000000
  70
    32
  0
VERTEX
  8
0
  5
AC93
 10
301.448
 20
735.806
 30
0.000000
  70
    32
  0
VERTEX
  8
0
  5
AC94
 10
301.258
 20
735.562
 30
0.000000
  70
    32
  0
VERTEX
  8
0
  5
AC95
 10
301.080
 20
735.310
 30
0.000000
  70
    32
  0
VERTEX
  8
0
  5
AC96
 10
300.915
 20
735.048
 30
0.000000
  70
    32
  0
VERTEX
  8
0
  5
AC97
 10
300.762
 20
734.779
 30
0.000000
  70
    32
  0
VERTEX
  8
0
  5
AC98
 10
300.623
 20
734.503
 30
0.000000
  70
    32
  0
VERTEX
  8
0
  5
AC99
 10
300.498
 20
734.220
 30
0.000000
  70
    32
  0
VERTEX
  8
0
  5
AC9A
 10
300.387
 20
733.932
 30
0.000000
  70
    32
  0
VERTEX
  8
0
  5
AC9B
 10
300.290
 20
733.638
 30
0.000000
  70
    32
  0
VERTEX
  8
0
  5
AC9C
 10
300.207
 20
733.340
 30
0.000000
  70
    32
  0
VERTEX
  8
0
  5
AC9D
 10
300.139
 20
733.039
 30
0.000000
  70
    32
  0
VERTEX
  8
0
  5
AC9E
 10
300.086
 20
732.734
 30
0.000000
  70
    32
  0
VERTEX
  8
0
  5
AC9F
 10
300.049
 20
732.427
 30
0.000000
  70
    32
  0
VERTEX
  8
0
  5
ACA0
 10
300.026
 20
732.119
 30
0.000000
  70
    32
  0
VERTEX
  8
0
  5
ACA1
 10
300.018
 20
731.809
 30
0.000000
  70
    32
  0
VERTEX
  8
0
  5
ACA2
 10
300.026
 20
731.500
 30
0.000000
  70
    32
  0
VERTEX
  8
0
  5
ACA3
 10
300.049
 20
731.192
 30
0.000000
  70
    32
  0
VERTEX
  8
0
  5
ACA4
 10
300.086
 20
730.885
 30
0.000000
  70
    32
  0
VERTEX
  8
0
  5
ACA5
 10
300.139
 20
730.580
 30
0.000000
  70
    32
  0
VERTEX
  8
0
  5
ACA6
 10
300.207
 20
730.279
 30
0.000000
  70
    32
  0
VERTEX
  8
0
  5
ACA7
 10
300.290
 20
729.981
 30
0.000000
  70
    32
  0
VERTEX
  8
0
  5
ACA8
 10
300.387
 20
729.687
 30
0.000000
  70
    32
  0
VERTEX
  8
0
  5
ACA9
 10
300.498
 20
729.398
 30
0.000000
  70
    32
  0
VERTEX
  8
0
  5
ACAA
 10
300.623
 20
729.116
 30
0.000000
  70
    32
  0
VERTEX
  8
0
  5
ACAB
 10
300.762
 20
728.840
 30
0.000000
  70
    32
  0
VERTEX
  8
0
  5
ACAC
 10
300.915
 20
728.571
 30
0.000000
  70
    32
  0
VERTEX
  8
0
  5
ACAD
 10
301.080
 20
728.309
 30
0.000000
  70
    32
  0
VERTEX
  8
0
  5
ACAE
 10
301.258
 20
728.056
 30
0.000000
  70
    32
  0
VERTEX
  8
0
  5
ACAF
 10
301.448
 20
727.813
 30
0.000000
  70
    32
  0
VERTEX
  8
0
  5
ACB0
 10
301.650
 20
727.579
 30
0.000000
  70
    32
  0
VERTEX
  8
0
  5
ACB1
 10
301.863
 20
727.355
 30
0.000000
  70
    32
  0
VERTEX
  8
0
  5
ACB2
 10
302.087
 20
727.141
 30
0.000000
  70
    32
  0
VERTEX
  8
0
  5
ACB3
 10
302.322
 20
726.939
 30
0.000000
  70
    32
  0
VERTEX
  8
0
  5
ACB4
 10
302.565
 20
726.749
 30
0.000000
  70
    32
  0
VERTEX
  8
0
  5
ACB5
 10
302.818
 20
726.571
 30
0.000000
  70
    32
  0
VERTEX
  8
0
  5
ACB6
 10
303.079
 20
726.406
 30
0.000000
  70
    32
  0
VERTEX
  8
0
  5
ACB7
 10
303.348
 20
726.253
 30
0.000000
  70
    32
  0
VERTEX
  8
0
  5
ACB8
 10
303.625
 20
726.114
 30
0.000000
  70
    32
  0
VERTEX
  8
0
  5
ACB9
 10
303.907
 20
725.989
 30
0.000000
  70
    32
  0
VERTEX
  8
0
  5
ACBA
 10
304.196
 20
725.878
 30
0.000000
  70
    32
  0
VERTEX
  8
0
  5
ACBB
 10
304.489
 20
725.781
 30
0.000000
  70
    32
  0
VERTEX
  8
0
  5
ACBC
 10
304.787
 20
725.698
 30
0.000000
  70
    32
  0
VERTEX
  8
0
  5
ACBD
 10
305.089
 20
725.630
 30
0.000000
  70
    32
  0
VERTEX
  8
0
  5
ACBE
 10
305.394
 20
725.577
 30
0.000000
  70
    32
  0
VERTEX
  8
0
  5
ACBF
 10
305.701
 20
725.540
 30
0.000000
  70
    32
  0
VERTEX
  8
0
  5
ACC0
 10
306.009
 20
725.517
 30
0.000000
  70
    32
  0
VERTEX
  8
0
  5
ACC1
 10
306.318
 20
725.509
 30
0.000000
  70
    32
  0
VERTEX
  8
0
  5
ACC2
 10
306.627
 20
725.517
 30
0.000000
  70
    32
  0
VERTEX
  8
0
  5
ACC3
 10
306.936
 20
725.540
 30
0.000000
  70
    32
  0
VERTEX
  8
0
  5
ACC4
 10
307.243
 20
725.577
 30
0.000000
  70
    32
  0
VERTEX
  8
0
  5
ACC5
 10
307.547
 20
725.630
 30
0.000000
  70
    32
  0
VERTEX
  8
0
  5
ACC6
 10
307.849
 20
725.698
 30
0.000000
  70
    32
  0
VERTEX
  8
0
  5
ACC7
 10
308.147
 20
725.781
 30
0.000000
  70
    32
  0
VERTEX
  8
0
  5
ACC8
 10
308.441
 20
725.878
 30
0.000000
  70
    32
  0
VERTEX
  8
0
  5
ACC9
 10
308.729
 20
725.989
 30
0.000000
  70
    32
  0
VERTEX
  8
0
  5
ACCA
 10
309.012
 20
726.114
 30
0.000000
  70
    32
  0
VERTEX
  8
0
  5
ACCB
 10
309.288
 20
726.253
 30
0.000000
  70
    32
  0
VERTEX
  8
0
  5
ACCC
 10
309.557
 20
726.406
 30
0.000000
  70
    32
  0
VERTEX
  8
0
  5
ACCD
 10
309.818
 20
726.571
 30
0.000000
  70
    32
  0
VERTEX
  8
0
  5
ACCE
 10
310.071
 20
726.749
 30
0.000000
  70
    32
  0
VERTEX
  8
0
  5
ACCF
 10
310.315
 20
726.939
 30
0.000000
  70
    32
  0
VERTEX
  8
0
  5
ACD0
 10
310.549
 20
727.141
 30
0.000000
  70
    32
  0
VERTEX
  8
0
  5
ACD1
 10
310.773
 20
727.355
 30
0.000000
  70
    32
  0
VERTEX
  8
0
  5
ACD2
 10
310.986
 20
727.579
 30
0.000000
  70
    32
  0
VERTEX
  8
0
  5
ACD3
 10
311.188
 20
727.813
 30
0.000000
  70
    32
  0
VERTEX
  8
0
  5
ACD4
 10
311.378
 20
728.056
 30
0.000000
  70
    32
  0
VERTEX
  8
0
  5
ACD5
 10
311.557
 20
728.309
 30
0.000000
  70
    32
  0
VERTEX
  8
0
  5
ACD6
 10
311.722
 20
728.571
 30
0.000000
  70
    32
  0
VERTEX
  8
0
  5
ACD7
 10
311.874
 20
728.840
 30
0.000000
  70
    32
  0
VERTEX
  8
0
  5
ACD8
 10
312.013
 20
729.116
 30
0.000000
  70
    32
  0
VERTEX
  8
0
  5
ACD9
 10
312.139
 20
729.398
 30
0.000000
  70
    32
  0
VERTEX
  8
0
  5
ACDA
 10
312.250
 20
729.687
 30
0.000000
  70
    32
  0
VERTEX
  8
0
  5
ACDB
 10
312.347
 20
729.981
 30
0.000000
  70
    32
  0
VERTEX
  8
0
  5
ACDC
 10
312.429
 20
730.279
 30
0.000000
  70
    32
  0
VERTEX
  8
0
  5
ACDD
 10
312.497
 20
730.580
 30
0.000000
  70
    32
  0
VERTEX
  8
0
  5
ACDE
 10
312.550
 20
730.885
 30
0.000000
  70
    32
  0
VERTEX
  8
0
  5
ACDF
 10
312.588
 20
731.192
 30
0.000000
  70
    32
  0
VERTEX
  8
0
  5
ACE0
 10
312.611
 20
731.500
 30
0.000000
  70
    32
  0
VERTEX
  8
0
  5
ACE1
 10
312.618
 20
731.809
 30
0.000000
  70
    32
  0
VERTEX
  8
0
  5
ACE2
 10
312.611
 20
732.119
 30
0.000000
  70
    32
  0
VERTEX
  8
0
  5
ACE3
 10
312.588
 20
732.427
 30
0.000000
  70
    32
  0
VERTEX
  8
0
  5
ACE4
 10
312.550
 20
732.734
 30
0.000000
  70
    32
  0
VERTEX
  8
0
  5
ACE5
 10
312.497
 20
733.039
 30
0.000000
  70
    32
  0
VERTEX
  8
0
  5
ACE6
 10
312.429
 20
733.340
 30
0.000000
  70
    32
  0
VERTEX
  8
0
  5
ACE7
 10
312.347
 20
733.638
 30
0.000000
  70
    32
  0
VERTEX
  8
0
  5
ACE8
 10
312.250
 20
733.932
 30
0.000000
  70
    32
  0
VERTEX
  8
0
  5
ACE9
 10
312.139
 20
734.220
 30
0.000000
  70
    32
  0
VERTEX
  8
0
  5
ACEA
 10
312.013
 20
734.503
 30
0.000000
  70
    32
  0
VERTEX
  8
0
  5
ACEB
 10
311.874
 20
734.779
 30
0.000000
  70
    32
  0
VERTEX
  8
0
  5
ACEC
 10
311.722
 20
735.048
 30
0.000000
  70
    32
  0
VERTEX
  8
0
  5
ACED
 10
311.557
 20
735.310
 30
0.000000
  70
    32
  0
VERTEX
  8
0
  5
ACEE
 10
311.378
 20
735.562
 30
0.000000
  70
    32
  0
VERTEX
  8
0
  5
ACEF
 10
311.188
 20
735.806
 30
0.000000
  70
    32
  0
VERTEX
  8
0
  5
ACF0
 10
310.986
 20
736.040
 30
0.000000
  70
    32
  0
VERTEX
  8
0
  5
ACF1
 10
310.773
 20
736.264
 30
0.000000
  70
    32
  0
VERTEX
  8
0
  5
ACF2
 10
310.549
 20
736.478
 30
0.000000
  70
    32
  0
VERTEX
  8
0
  5
ACF3
 10
310.315
 20
736.679
 30
0.000000
  70
    32
  0
VERTEX
  8
0
  5
ACF4
 10
310.071
 20
736.870
 30
0.000000
  70
    32
  0
VERTEX
  8
0
  5
ACF5
 10
309.818
 20
737.048
 30
0.000000
  70
    32
  0
VERTEX
  8
0
  5
ACF6
 10
309.557
 20
737.213
 30
0.000000
  70
    32
  0
VERTEX
  8
0
  5
ACF7
 10
309.288
 20
737.366
 30
0.000000
  70
    32
  0
VERTEX
  8
0
  5
ACF8
 10
309.012
 20
737.505
 30
0.000000
  70
    32
  0
VERTEX
  8
0
  5
ACF9
 10
308.729
 20
737.630
 30
0.000000
  70
    32
  0
VERTEX
  8
0
  5
ACFA
 10
308.441
 20
737.741
 30
0.000000
  70
    32
  0
VERTEX
  8
0
  5
ACFB
 10
308.147
 20
737.838
 30
0.000000
  70
    32
  0
VERTEX
  8
0
  5
ACFC
 10
307.849
 20
737.921
 30
0.000000
  70
    32
  0
VERTEX
  8
0
  5
ACFD
 10
307.547
 20
737.988
 30
0.000000
  70
    32
  0
VERTEX
  8
0
  5
ACFE
 10
307.243
 20
738.041
 30
0.000000
  70
    32
  0
VERTEX
  8
0
  5
ACFF
 10
306.936
 20
738.079
 30
0.000000
  70
    32
  0
VERTEX
  8
0
  5
AD00
 10
306.627
 20
738.102
 30
0.000000
  70
    32
  0
VERTEX
  8
0
  5
AD01
 10
306.318
 20
738.110
 30
0.000000
  70
    32
  0
SEQEND
  8
0
  5
AD02
  0
LINE
  5
A284
  8
0
 10
342.52161787956419
 20
728.12130861737978
 30
0.0
 11
344.72497187956401
 21
728.49672361738021
 31
0.0
  0
LINE
  5
A285
  8
0
 10
325.71490987956417
 20
743.80966761738011
 30
0.0
 11
325.71490987956417
 21
725.25772261738007
 31
0.0
  0
LINE
  5
A286
  8
0
 10
331.41490987956399
 20
743.80966761738011
 30
0.0
 11
329.91490987956399
 21
743.80966761738011
 31
0.0
  0
LINE
  5
A287
  8
0
 10
331.41490987956399
 20
739.8095876173802
 30
0.0
 11
329.91490987956399
 21
739.8095876173802
 31
0.0
  0
LINE
  5
A288
  8
0
 10
329.91490987956399
 20
743.80966761738011
 30
0.0
 11
329.91490987956399
 21
725.97333361738015
 31
0.0
  0
LINE
  5
A289
  8
0
 10
327.71490987956417
 20
725.59848961738021
 30
0.0
 11
327.71490987956417
 21
743.80966761738011
 31
0.0
  0
LINE
  5
A28A
  8
0
 10
327.71490987956417
 20
725.59848961738021
 30
0.0
 11
329.91490987956399
 21
725.97333361738015
 31
0.0
  0
LINE
  5
A28B
  8
0
 10
327.71490987956417
 20
743.80966761738011
 30
0.0
 11
325.71490987956417
 21
743.80966761738011
 31
0.0
  0
LINE
  5
A28C
  8
0
 10
327.71490987956417
 20
739.8095876173802
 30
0.0
 11
325.71490987956417
 21
739.8095876173802
 31
0.0
  0
LINE
  5
A28D
  8
0
 10
339.31826387956397
 20
727.57550961737979
 30
0.0
 11
339.31826387956397
 21
743.80966761738011
 31
0.0
  0
LINE
  5
A28E
  8
0
 10
342.52161787956419
 20
728.12130861737978
 30
0.0
 11
342.52161787956419
 21
743.80966761738011
 31
0.0
  0
LINE
  5
A28F
  8
0
 10
341.02161787956419
 20
743.80966761738011
 30
0.0
 11
341.02161787956419
 21
727.86573261737988
 31
0.0
  0
LINE
  5
A290
  8
0
 10
337.31826387956397
 20
743.80966761738011
 30
0.0
 11
337.31826387956397
 21
727.23474261738011
 31
0.0
  0
LINE
  5
A291
  8
0
 10
331.41490987956399
 20
726.22890861737994
 30
0.0
 11
331.41490987956399
 21
743.80966761738011
 31
0.0
  0
LINE
  5
A292
  8
0
 10
333.61490987956432
 20
743.80966761738011
 30
0.0
 11
333.61490987956432
 21
726.60375261738022
 31
0.0
  0
LINE
  5
A293
  8
0
 10
335.11490987956432
 20
726.85932761738025
 30
0.0
 11
335.11490987956432
 21
743.80966761738011
 31
0.0
  0
LINE
  5
A294
  8
0
 10
331.41490987956399
 20
726.22890861737994
 30
0.0
 11
333.61490987956432
 21
726.60375261738022
 31
0.0
  0
LINE
  5
A295
  8
0
 10
335.11490987956432
 20
726.85932761738025
 30
0.0
 11
337.31826387956397
 21
727.23474261738011
 31
0.0
  0
LINE
  5
A296
  8
0
 10
339.31826387956397
 20
727.57550961737979
 30
0.0
 11
341.02161787956419
 21
727.86573261737988
 31
0.0
  0
LINE
  5
A297
  8
0
 10
339.31826387956397
 20
743.80966761738011
 30
0.0
 11
337.31826387956397
 21
743.80966761738011
 31
0.0
  0
LINE
  5
A298
  8
0
 10
339.31826387956397
 20
739.8095876173802
 30
0.0
 11
337.31826387956397
 21
739.8095876173802
 31
0.0
  0
LINE
  5
A299
  8
0
 10
335.11490987956432
 20
743.80966761738011
 30
0.0
 11
333.61490987956432
 21
743.80966761738011
 31
0.0
  0
LINE
  5
A29A
  8
0
 10
335.11490987956432
 20
739.8095876173802
 30
0.0
 11
333.61490987956432
 21
739.8095876173802
 31
0.0
  0
LINE
  5
A29B
  8
0
 10
342.52161787956419
 20
739.8095876173802
 30
0.0
 11
341.02161787956419
 21
739.8095876173802
 31
0.0
  0
LINE
  5
A29C
  8
0
 10
342.52161787956419
 20
743.80966761738011
 30
0.0
 11
341.02161787956419
 21
743.80966761738011
 31
0.0
  0
LINE
  5
A29D
  8
0
 10
361.84841487956402
 20
714.80908761738021
 30
0.0
 11
361.84841487956402
 21
726.34480861737995
 31
0.0
  0
LINE
  5
A29E
  8
0
 10
353.63167987956399
 20
730.01427961738023
 30
0.0
 11
363.49338987956412
 21
731.69455161738006
 31
0.0
  0
LINE
  5
A29F
  8
0
 10
348.42832587956423
 20
743.80966761738011
 30
0.0
 11
348.42832587956423
 21
729.12771361738021
 31
0.0
  0
LINE
  5
A2A0
  8
0
 10
349.92832587956423
 20
729.38328861738012
 30
0.0
 11
349.92832587956423
 21
743.80966761738011
 31
0.0
  0
LINE
  5
A2A1
  8
0
 10
352.13167987956399
 20
743.80966761738011
 30
0.0
 11
352.13167987956399
 21
729.75870361737987
 31
0.0
  0
LINE
  5
A2A2
  8
0
 10
344.72497187956401
 20
743.80966761738011
 30
0.0
 11
344.72497187956401
 21
728.49672361738021
 31
0.0
  0
LINE
  5
A2A3
  8
0
 10
346.22497187956401
 20
728.75229861738023
 30
0.0
 11
346.22497187956401
 21
743.80966761738011
 31
0.0
  0
LINE
  5
A2A4
  8
0
 10
353.63167987956399
 20
730.01427961738023
 30
0.0
 11
353.63167987956399
 21
743.80966761738011
 31
0.0
  0
LINE
  5
A2A5
  8
0
 10
349.92832587956423
 20
729.38328861738012
 30
0.0
 11
352.13167987956399
 21
729.75870361737987
 31
0.0
  0
LINE
  5
A2A6
  8
0
 10
346.22497187956401
 20
728.75229861738023
 30
0.0
 11
348.42832587956423
 21
729.12771361738021
 31
0.0
  0
LINE
  5
A2A7
  8
0
 10
349.92832587956423
 20
743.80966761738011
 30
0.0
 11
348.42832587956423
 21
743.80966761738011
 31
0.0
  0
LINE
  5
A2A8
  8
0
 10
349.92832587956423
 20
739.8095876173802
 30
0.0
 11
348.42832587956423
 21
739.8095876173802
 31
0.0
  0
LINE
  5
A2A9
  8
0
 10
346.22497187956401
 20
743.80966761738011
 30
0.0
 11
344.72497187956401
 21
743.80966761738011
 31
0.0
  0
LINE
  5
A2AA
  8
0
 10
346.22497187956401
 20
739.8095876173802
 30
0.0
 11
344.72497187956401
 21
739.8095876173802
 31
0.0
  0
LINE
  5
A2AB
  8
0
 10
353.63167987956399
 20
743.80966761738011
 30
0.0
 11
352.13167987956399
 21
743.80966761738011
 31
0.0
  0
LINE
  5
A2AC
  8
0
 10
353.63167987956399
 20
739.8095876173802
 30
0.0
 11
352.13167987956399
 21
739.8095876173802
 31
0.0
  0
LINE
  5
A2AD
  8
0
 10
362.71826387956412
 20
726.49511561737995
 30
0.0
 11
362.71826387956412
 21
730.54858961738023
 31
0.0
  0
LINE
  5
A2AE
  8
0
 10
292.21826387956412
 20
748.8097676173802
 30
0.0
 11
297.0182638795643
 21
748.8097676173802
 31
0.0
  0
POLYLINE
  5
A2AF
  8
0
 10
292.21826387956412
 20
748.80976761737986
 30
0.0
 66
     1
 70
     8
  0
VERTEX
  8
0
  5
AD03
 10
292.218
 20
748.810
 30
0.000000
  70
    32
  0
VERTEX
  8
0
  5
AD04
 10
292.206
 20
748.810
 30
0.000000
  70
    32
  0
VERTEX
  8
0
  5
AD05
 10
292.194
 20
748.809
 30
0.000000
  70
    32
  0
VERTEX
  8
0
  5
AD06
 10
292.181
 20
748.809
 30
0.000000
  70
    32
  0
VERTEX
  8
0
  5
AD07
 10
292.169
 20
748.809
 30
0.000000
  70
    32
  0
VERTEX
  8
0
  5
AD08
 10
292.157
 20
748.808
 30
0.000000
  70
    32
  0
VERTEX
  8
0
  5
AD09
 10
292.145
 20
748.807
 30
0.000000
  70
    32
  0
VERTEX
  8
0
  5
AD0A
 10
292.132
 20
748.806
 30
0.000000
  70
    32
  0
VERTEX
  8
0
  5
AD0B
 10
292.120
 20
748.805
 30
0.000000
  70
    32
  0
VERTEX
  8
0
  5
AD0C
 10
292.108
 20
748.804
 30
0.000000
  70
    32
  0
VERTEX
  8
0
  5
AD0D
 10
292.096
 20
748.802
 30
0.000000
  70
    32
  0
VERTEX
  8
0
  5
AD0E
 10
292.084
 20
748.801
 30
0.000000
  70
    32
  0
VERTEX
  8
0
  5
AD0F
 10
292.072
 20
748.799
 30
0.000000
  70
    32
  0
VERTEX
  8
0
  5
AD10
 10
292.059
 20
748.797
 30
0.000000
  70
    32
  0
VERTEX
  8
0
  5
AD11
 10
292.047
 20
748.795
 30
0.000000
  70
    32
  0
VERTEX
  8
0
  5
AD12
 10
292.035
 20
748.793
 30
0.000000
  70
    32
  0
VERTEX
  8
0
  5
AD13
 10
292.023
 20
748.791
 30
0.000000
  70
    32
  0
VERTEX
  8
0
  5
AD14
 10
292.011
 20
748.788
 30
0.000000
  70
    32
  0
VERTEX
  8
0
  5
AD15
 10
291.999
 20
748.785
 30
0.000000
  70
    32
  0
VERTEX
  8
0
  5
AD16
 10
291.987
 20
748.783
 30
0.000000
  70
    32
  0
VERTEX
  8
0
  5
AD17
 10
291.975
 20
748.780
 30
0.000000
  70
    32
  0
VERTEX
  8
0
  5
AD18
 10
291.963
 20
748.777
 30
0.000000
  70
    32
  0
VERTEX
  8
0
  5
AD19
 10
291.952
 20
748.774
 30
0.000000
  70
    32
  0
VERTEX
  8
0
  5
AD1A
 10
291.940
 20
748.770
 30
0.000000
  70
    32
  0
VERTEX
  8
0
  5
AD1B
 10
291.928
 20
748.767
 30
0.000000
  70
    32
  0
VERTEX
  8
0
  5
AD1C
 10
291.916
 20
748.763
 30
0.000000
  70
    32
  0
VERTEX
  8
0
  5
AD1D
 10
291.905
 20
748.759
 30
0.000000
  70
    32
  0
VERTEX
  8
0
  5
AD1E
 10
291.893
 20
748.755
 30
0.000000
  70
    32
  0
VERTEX
  8
0
  5
AD1F
 10
291.881
 20
748.751
 30
0.000000
  70
    32
  0
VERTEX
  8
0
  5
AD20
 10
291.870
 20
748.747
 30
0.000000
  70
    32
  0
VERTEX
  8
0
  5
AD21
 10
291.858
 20
748.743
 30
0.000000
  70
    32
  0
VERTEX
  8
0
  5
AD22
 10
291.847
 20
748.738
 30
0.000000
  70
    32
  0
VERTEX
  8
0
  5
AD23
 10
291.836
 20
748.734
 30
0.000000
  70
    32
  0
VERTEX
  8
0
  5
AD24
 10
291.824
 20
748.729
 30
0.000000
  70
    32
  0
VERTEX
  8
0
  5
AD25
 10
291.813
 20
748.724
 30
0.000000
  70
    32
  0
VERTEX
  8
0
  5
AD26
 10
291.802
 20
748.719
 30
0.000000
  70
    32
  0
VERTEX
  8
0
  5
AD27
 10
291.791
 20
748.714
 30
0.000000
  70
    32
  0
VERTEX
  8
0
  5
AD28
 10
291.780
 20
748.708
 30
0.000000
  70
    32
  0
VERTEX
  8
0
  5
AD29
 10
291.769
 20
748.703
 30
0.000000
  70
    32
  0
VERTEX
  8
0
  5
AD2A
 10
291.758
 20
748.697
 30
0.000000
  70
    32
  0
VERTEX
  8
0
  5
AD2B
 10
291.747
 20
748.692
 30
0.000000
  70
    32
  0
VERTEX
  8
0
  5
AD2C
 10
291.736
 20
748.686
 30
0.000000
  70
    32
  0
VERTEX
  8
0
  5
AD2D
 10
291.725
 20
748.680
 30
0.000000
  70
    32
  0
VERTEX
  8
0
  5
AD2E
 10
291.715
 20
748.674
 30
0.000000
  70
    32
  0
VERTEX
  8
0
  5
AD2F
 10
291.704
 20
748.667
 30
0.000000
  70
    32
  0
VERTEX
  8
0
  5
AD30
 10
291.694
 20
748.661
 30
0.000000
  70
    32
  0
VERTEX
  8
0
  5
AD31
 10
291.683
 20
748.655
 30
0.000000
  70
    32
  0
VERTEX
  8
0
  5
AD32
 10
291.673
 20
748.648
 30
0.000000
  70
    32
  0
VERTEX
  8
0
  5
AD33
 10
291.663
 20
748.641
 30
0.000000
  70
    32
  0
VERTEX
  8
0
  5
AD34
 10
291.653
 20
748.634
 30
0.000000
  70
    32
  0
VERTEX
  8
0
  5
AD35
 10
291.642
 20
748.627
 30
0.000000
  70
    32
  0
VERTEX
  8
0
  5
AD36
 10
291.632
 20
748.620
 30
0.000000
  70
    32
  0
VERTEX
  8
0
  5
AD37
 10
291.623
 20
748.613
 30
0.000000
  70
    32
  0
VERTEX
  8
0
  5
AD38
 10
291.613
 20
748.606
 30
0.000000
  70
    32
  0
VERTEX
  8
0
  5
AD39
 10
291.603
 20
748.598
 30
0.000000
  70
    32
  0
VERTEX
  8
0
  5
AD3A
 10
291.593
 20
748.591
 30
0.000000
  70
    32
  0
VERTEX
  8
0
  5
AD3B
 10
291.584
 20
748.583
 30
0.000000
  70
    32
  0
VERTEX
  8
0
  5
AD3C
 10
291.574
 20
748.575
 30
0.000000
  70
    32
  0
VERTEX
  8
0
  5
AD3D
 10
291.565
 20
748.567
 30
0.000000
  70
    32
  0
VERTEX
  8
0
  5
AD3E
 10
291.556
 20
748.559
 30
0.000000
  70
    32
  0
VERTEX
  8
0
  5
AD3F
 10
291.547
 20
748.551
 30
0.000000
  70
    32
  0
VERTEX
  8
0
  5
AD40
 10
291.538
 20
748.542
 30
0.000000
  70
    32
  0
VERTEX
  8
0
  5
AD41
 10
291.529
 20
748.534
 30
0.000000
  70
    32
  0
VERTEX
  8
0
  5
AD42
 10
291.520
 20
748.525
 30
0.000000
  70
    32
  0
VERTEX
  8
0
  5
AD43
 10
291.511
 20
748.517
 30
0.000000
  70
    32
  0
VERTEX
  8
0
  5
AD44
 10
291.503
 20
748.508
 30
0.000000
  70
    32
  0
VERTEX
  8
0
  5
AD45
 10
291.494
 20
748.499
 30
0.000000
  70
    32
  0
VERTEX
  8
0
  5
AD46
 10
291.486
 20
748.490
 30
0.000000
  70
    32
  0
VERTEX
  8
0
  5
AD47
 10
291.477
 20
748.481
 30
0.000000
  70
    32
  0
VERTEX
  8
0
  5
AD48
 10
291.469
 20
748.472
 30
0.000000
  70
    32
  0
VERTEX
  8
0
  5
AD49
 10
291.461
 20
748.463
 30
0.000000
  70
    32
  0
VERTEX
  8
0
  5
AD4A
 10
291.453
 20
748.454
 30
0.000000
  70
    32
  0
VERTEX
  8
0
  5
AD4B
 10
291.445
 20
748.444
 30
0.000000
  70
    32
  0
VERTEX
  8
0
  5
AD4C
 10
291.438
 20
748.435
 30
0.000000
  70
    32
  0
VERTEX
  8
0
  5
AD4D
 10
291.430
 20
748.425
 30
0.000000
  70
    32
  0
VERTEX
  8
0
  5
AD4E
 10
291.422
 20
748.415
 30
0.000000
  70
    32
  0
VERTEX
  8
0
  5
AD4F
 10
291.415
 20
748.405
 30
0.000000
  70
    32
  0
VERTEX
  8
0
  5
AD50
 10
291.408
 20
748.396
 30
0.000000
  70
    32
  0
VERTEX
  8
0
  5
AD51
 10
291.401
 20
748.386
 30
0.000000
  70
    32
  0
VERTEX
  8
0
  5
AD52
 10
291.394
 20
748.375
 30
0.000000
  70
    32
  0
VERTEX
  8
0
  5
AD53
 10
291.387
 20
748.365
 30
0.000000
  70
    32
  0
VERTEX
  8
0
  5
AD54
 10
291.380
 20
748.355
 30
0.000000
  70
    32
  0
VERTEX
  8
0
  5
AD55
 10
291.373
 20
748.345
 30
0.000000
  70
    32
  0
VERTEX
  8
0
  5
AD56
 10
291.367
 20
748.334
 30
0.000000
  70
    32
  0
VERTEX
  8
0
  5
AD57
 10
291.361
 20
748.324
 30
0.000000
  70
    32
  0
VERTEX
  8
0
  5
AD58
 10
291.354
 20
748.313
 30
0.000000
  70
    32
  0
VERTEX
  8
0
  5
AD59
 10
291.348
 20
748.303
 30
0.000000
  70
    32
  0
VERTEX
  8
0
  5
AD5A
 10
291.342
 20
748.292
 30
0.000000
  70
    32
  0
VERTEX
  8
0
  5
AD5B
 10
291.336
 20
748.281
 30
0.000000
  70
    32
  0
VERTEX
  8
0
  5
AD5C
 10
291.331
 20
748.270
 30
0.000000
  70
    32
  0
VERTEX
  8
0
  5
AD5D
 10
291.325
 20
748.259
 30
0.000000
  70
    32
  0
VERTEX
  8
0
  5
AD5E
 10
291.320
 20
748.248
 30
0.000000
  70
    32
  0
VERTEX
  8
0
  5
AD5F
 10
291.314
 20
748.237
 30
0.000000
  70
    32
  0
VERTEX
  8
0
  5
AD60
 10
291.309
 20
748.226
 30
0.000000
  70
    32
  0
VERTEX
  8
0
  5
AD61
 10
291.304
 20
748.215
 30
0.000000
  70
    32
  0
VERTEX
  8
0
  5
AD62
 10
291.299
 20
748.204
 30
0.000000
  70
    32
  0
VERTEX
  8
0
  5
AD63
 10
291.294
 20
748.192
 30
0.000000
  70
    32
  0
VERTEX
  8
0
  5
AD64
 10
291.290
 20
748.181
 30
0.000000
  70
    32
  0
VERTEX
  8
0
  5
AD65
 10
291.285
 20
748.170
 30
0.000000
  70
    32
  0
VERTEX
  8
0
  5
AD66
 10
291.281
 20
748.158
 30
0.000000
  70
    32
  0
VERTEX
  8
0
  5
AD67
 10
291.277
 20
748.147
 30
0.000000
  70
    32
  0
VERTEX
  8
0
  5
AD68
 10
291.273
 20
748.135
 30
0.000000
  70
    32
  0
VERTEX
  8
0
  5
AD69
 10
291.269
 20
748.123
 30
0.000000
  70
    32
  0
VERTEX
  8
0
  5
AD6A
 10
291.265
 20
748.112
 30
0.000000
  70
    32
  0
VERTEX
  8
0
  5
AD6B
 10
291.261
 20
748.100
 30
0.000000
  70
    32
  0
VERTEX
  8
0
  5
AD6C
 10
291.258
 20
748.088
 30
0.000000
  70
    32
  0
VERTEX
  8
0
  5
AD6D
 10
291.254
 20
748.076
 30
0.000000
  70
    32
  0
VERTEX
  8
0
  5
AD6E
 10
291.251
 20
748.065
 30
0.000000
  70
    32
  0
VERTEX
  8
0
  5
AD6F
 10
291.248
 20
748.053
 30
0.000000
  70
    32
  0
VERTEX
  8
0
  5
AD70
 10
291.245
 20
748.041
 30
0.000000
  70
    32
  0
VERTEX
  8
0
  5
AD71
 10
291.243
 20
748.029
 30
0.000000
  70
    32
  0
VERTEX
  8
0
  5
AD72
 10
291.240
 20
748.017
 30
0.000000
  70
    32
  0
VERTEX
  8
0
  5
AD73
 10
291.237
 20
748.005
 30
0.000000
  70
    32
  0
VERTEX
  8
0
  5
AD74
 10
291.235
 20
747.993
 30
0.000000
  70
    32
  0
VERTEX
  8
0
  5
AD75
 10
291.233
 20
747.981
 30
0.000000
  70
    32
  0
VERTEX
  8
0
  5
AD76
 10
291.231
 20
747.969
 30
0.000000
  70
    32
  0
VERTEX
  8
0
  5
AD77
 10
291.229
 20
747.956
 30
0.000000
  70
    32
  0
VERTEX
  8
0
  5
AD78
 10
291.227
 20
747.944
 30
0.000000
  70
    32
  0
VERTEX
  8
0
  5
AD79
 10
291.226
 20
747.932
 30
0.000000
  70
    32
  0
VERTEX
  8
0
  5
AD7A
 10
291.224
 20
747.920
 30
0.000000
  70
    32
  0
VERTEX
  8
0
  5
AD7B
 10
291.223
 20
747.908
 30
0.000000
  70
    32
  0
VERTEX
  8
0
  5
AD7C
 10
291.222
 20
747.896
 30
0.000000
  70
    32
  0
VERTEX
  8
0
  5
AD7D
 10
291.221
 20
747.883
 30
0.000000
  70
    32
  0
VERTEX
  8
0
  5
AD7E
 10
291.220
 20
747.871
 30
0.000000
  70
    32
  0
VERTEX
  8
0
  5
AD7F
 10
291.219
 20
747.859
 30
0.000000
  70
    32
  0
VERTEX
  8
0
  5
AD80
 10
291.219
 20
747.847
 30
0.000000
  70
    32
  0
VERTEX
  8
0
  5
AD81
 10
291.219
 20
747.834
 30
0.000000
  70
    32
  0
VERTEX
  8
0
  5
AD82
 10
291.218
 20
747.822
 30
0.000000
  70
    32
  0
VERTEX
  8
0
  5
AD83
 10
291.218
 20
747.810
 30
0.000000
  70
    32
  0
SEQEND
  8
0
  5
AD84
  0
LINE
  5
A2B0
  8
0
 10
378.49338987956412
 20
731.80942761738015
 30
0.0
 11
378.49338987956412
 21
747.80974761737991
 31
0.0
  0
LINE
  5
A2B1
  8
0
 10
372.11826387956421
 20
727.30933761738015
 30
0.0
 11
372.11826387956421
 21
717.30913761737986
 31
0.0
  0
POLYLINE
  5
A2B2
  8
0
 10
377.99338987956412
 20
727.80934761738024
 30
0.0
 66
     1
 70
     8
  0
VERTEX
  8
0
  5
AD85
 10
377.993
 20
727.809
 30
0.000000
  70
    32
  0
VERTEX
  8
0
  5
AD86
 10
378.000
 20
727.809
 30
0.000000
  70
    32
  0
VERTEX
  8
0
  5
AD87
 10
378.006
 20
727.809
 30
0.000000
  70
    32
  0
VERTEX
  8
0
  5
AD88
 10
378.012
 20
727.810
 30
0.000000
  70
    32
  0
VERTEX
  8
0
  5
AD89
 10
378.018
 20
727.810
 30
0.000000
  70
    32
  0
VERTEX
  8
0
  5
AD8A
 10
378.024
 20
727.810
 30
0.000000
  70
    32
  0
VERTEX
  8
0
  5
AD8B
 10
378.030
 20
727.811
 30
0.000000
  70
    32
  0
VERTEX
  8
0
  5
AD8C
 10
378.036
 20
727.811
 30
0.000000
  70
    32
  0
VERTEX
  8
0
  5
AD8D
 10
378.042
 20
727.812
 30
0.000000
  70
    32
  0
VERTEX
  8
0
  5
AD8E
 10
378.049
 20
727.812
 30
0.000000
  70
    32
  0
VERTEX
  8
0
  5
AD8F
 10
378.055
 20
727.813
 30
0.000000
  70
    32
  0
VERTEX
  8
0
  5
AD90
 10
378.061
 20
727.814
 30
0.000000
  70
    32
  0
VERTEX
  8
0
  5
AD91
 10
378.067
 20
727.815
 30
0.000000
  70
    32
  0
VERTEX
  8
0
  5
AD92
 10
378.073
 20
727.816
 30
0.000000
  70
    32
  0
VERTEX
  8
0
  5
AD93
 10
378.079
 20
727.817
 30
0.000000
  70
    32
  0
VERTEX
  8
0
  5
AD94
 10
378.085
 20
727.818
 30
0.000000
  70
    32
  0
VERTEX
  8
0
  5
AD95
 10
378.091
 20
727.819
 30
0.000000
  70
    32
  0
VERTEX
  8
0
  5
AD96
 10
378.097
 20
727.820
 30
0.000000
  70
    32
  0
VERTEX
  8
0
  5
AD97
 10
378.103
 20
727.821
 30
0.000000
  70
    32
  0
VERTEX
  8
0
  5
AD98
 10
378.109
 20
727.823
 30
0.000000
  70
    32
  0
VERTEX
  8
0
  5
AD99
 10
378.115
 20
727.824
 30
0.000000
  70
    32
  0
VERTEX
  8
0
  5
AD9A
 10
378.121
 20
727.826
 30
0.000000
  70
    32
  0
VERTEX
  8
0
  5
AD9B
 10
378.127
 20
727.827
 30
0.000000
  70
    32
  0
VERTEX
  8
0
  5
AD9C
 10
378.133
 20
727.829
 30
0.000000
  70
    32
  0
VERTEX
  8
0
  5
AD9D
 10
378.139
 20
727.831
 30
0.000000
  70
    32
  0
VERTEX
  8
0
  5
AD9E
 10
378.144
 20
727.833
 30
0.000000
  70
    32
  0
VERTEX
  8
0
  5
AD9F
 10
378.150
 20
727.835
 30
0.000000
  70
    32
  0
VERTEX
  8
0
  5
ADA0
 10
378.156
 20
727.837
 30
0.000000
  70
    32
  0
VERTEX
  8
0
  5
ADA1
 10
378.162
 20
727.839
 30
0.000000
  70
    32
  0
VERTEX
  8
0
  5
ADA2
 10
378.168
 20
727.841
 30
0.000000
  70
    32
  0
VERTEX
  8
0
  5
ADA3
 10
378.173
 20
727.843
 30
0.000000
  70
    32
  0
VERTEX
  8
0
  5
ADA4
 10
378.179
 20
727.845
 30
0.000000
  70
    32
  0
VERTEX
  8
0
  5
ADA5
 10
378.185
 20
727.847
 30
0.000000
  70
    32
  0
VERTEX
  8
0
  5
ADA6
 10
378.190
 20
727.850
 30
0.000000
  70
    32
  0
VERTEX
  8
0
  5
ADA7
 10
378.196
 20
727.852
 30
0.000000
  70
    32
  0
VERTEX
  8
0
  5
ADA8
 10
378.202
 20
727.855
 30
0.000000
  70
    32
  0
VERTEX
  8
0
  5
ADA9
 10
378.207
 20
727.857
 30
0.000000
  70
    32
  0
VERTEX
  8
0
  5
ADAA
 10
378.213
 20
727.860
 30
0.000000
  70
    32
  0
VERTEX
  8
0
  5
ADAB
 10
378.218
 20
727.863
 30
0.000000
  70
    32
  0
VERTEX
  8
0
  5
ADAC
 10
378.224
 20
727.866
 30
0.000000
  70
    32
  0
VERTEX
  8
0
  5
ADAD
 10
378.229
 20
727.868
 30
0.000000
  70
    32
  0
VERTEX
  8
0
  5
ADAE
 10
378.234
 20
727.871
 30
0.000000
  70
    32
  0
VERTEX
  8
0
  5
ADAF
 10
378.240
 20
727.874
 30
0.000000
  70
    32
  0
VERTEX
  8
0
  5
ADB0
 10
378.245
 20
727.877
 30
0.000000
  70
    32
  0
VERTEX
  8
0
  5
ADB1
 10
378.250
 20
727.880
 30
0.000000
  70
    32
  0
VERTEX
  8
0
  5
ADB2
 10
378.256
 20
727.884
 30
0.000000
  70
    32
  0
VERTEX
  8
0
  5
ADB3
 10
378.261
 20
727.887
 30
0.000000
  70
    32
  0
VERTEX
  8
0
  5
ADB4
 10
378.266
 20
727.890
 30
0.000000
  70
    32
  0
VERTEX
  8
0
  5
ADB5
 10
378.271
 20
727.894
 30
0.000000
  70
    32
  0
VERTEX
  8
0
  5
ADB6
 10
378.276
 20
727.897
 30
0.000000
  70
    32
  0
VERTEX
  8
0
  5
ADB7
 10
378.281
 20
727.901
 30
0.000000
  70
    32
  0
VERTEX
  8
0
  5
ADB8
 10
378.286
 20
727.904
 30
0.000000
  70
    32
  0
VERTEX
  8
0
  5
ADB9
 10
378.291
 20
727.908
 30
0.000000
  70
    32
  0
VERTEX
  8
0
  5
ADBA
 10
378.296
 20
727.911
 30
0.000000
  70
    32
  0
VERTEX
  8
0
  5
ADBB
 10
378.301
 20
727.915
 30
0.000000
  70
    32
  0
VERTEX
  8
0
  5
ADBC
 10
378.306
 20
727.919
 30
0.000000
  70
    32
  0
VERTEX
  8
0
  5
ADBD
 10
378.311
 20
727.923
 30
0.000000
  70
    32
  0
VERTEX
  8
0
  5
ADBE
 10
378.315
 20
727.927
 30
0.000000
  70
    32
  0
VERTEX
  8
0
  5
ADBF
 10
378.320
 20
727.931
 30
0.000000
  70
    32
  0
VERTEX
  8
0
  5
ADC0
 10
378.325
 20
727.935
 30
0.000000
  70
    32
  0
VERTEX
  8
0
  5
ADC1
 10
378.329
 20
727.939
 30
0.000000
  70
    32
  0
VERTEX
  8
0
  5
ADC2
 10
378.334
 20
727.943
 30
0.000000
  70
    32
  0
VERTEX
  8
0
  5
ADC3
 10
378.338
 20
727.947
 30
0.000000
  70
    32
  0
VERTEX
  8
0
  5
ADC4
 10
378.343
 20
727.951
 30
0.000000
  70
    32
  0
VERTEX
  8
0
  5
ADC5
 10
378.347
 20
727.956
 30
0.000000
  70
    32
  0
VERTEX
  8
0
  5
ADC6
 10
378.351
 20
727.960
 30
0.000000
  70
    32
  0
VERTEX
  8
0
  5
ADC7
 10
378.356
 20
727.965
 30
0.000000
  70
    32
  0
VERTEX
  8
0
  5
ADC8
 10
378.360
 20
727.969
 30
0.000000
  70
    32
  0
VERTEX
  8
0
  5
ADC9
 10
378.364
 20
727.974
 30
0.000000
  70
    32
  0
VERTEX
  8
0
  5
ADCA
 10
378.368
 20
727.978
 30
0.000000
  70
    32
  0
VERTEX
  8
0
  5
ADCB
 10
378.372
 20
727.983
 30
0.000000
  70
    32
  0
VERTEX
  8
0
  5
ADCC
 10
378.376
 20
727.987
 30
0.000000
  70
    32
  0
VERTEX
  8
0
  5
ADCD
 10
378.380
 20
727.992
 30
0.000000
  70
    32
  0
VERTEX
  8
0
  5
ADCE
 10
378.384
 20
727.997
 30
0.000000
  70
    32
  0
VERTEX
  8
0
  5
ADCF
 10
378.388
 20
728.002
 30
0.000000
  70
    32
  0
VERTEX
  8
0
  5
ADD0
 10
378.391
 20
728.007
 30
0.000000
  70
    32
  0
VERTEX
  8
0
  5
ADD1
 10
378.395
 20
728.012
 30
0.000000
  70
    32
  0
VERTEX
  8
0
  5
ADD2
 10
378.399
 20
728.016
 30
0.000000
  70
    32
  0
VERTEX
  8
0
  5
ADD3
 10
378.402
 20
728.021
 30
0.000000
  70
    32
  0
VERTEX
  8
0
  5
ADD4
 10
378.406
 20
728.026
 30
0.000000
  70
    32
  0
VERTEX
  8
0
  5
ADD5
 10
378.409
 20
728.032
 30
0.000000
  70
    32
  0
VERTEX
  8
0
  5
ADD6
 10
378.413
 20
728.037
 30
0.000000
  70
    32
  0
VERTEX
  8
0
  5
ADD7
 10
378.416
 20
728.042
 30
0.000000
  70
    32
  0
VERTEX
  8
0
  5
ADD8
 10
378.419
 20
728.047
 30
0.000000
  70
    32
  0
VERTEX
  8
0
  5
ADD9
 10
378.422
 20
728.052
 30
0.000000
  70
    32
  0
VERTEX
  8
0
  5
ADDA
 10
378.425
 20
728.058
 30
0.000000
  70
    32
  0
VERTEX
  8
0
  5
ADDB
 10
378.428
 20
728.063
 30
0.000000
  70
    32
  0
VERTEX
  8
0
  5
ADDC
 10
378.431
 20
728.068
 30
0.000000
  70
    32
  0
VERTEX
  8
0
  5
ADDD
 10
378.434
 20
728.074
 30
0.000000
  70
    32
  0
VERTEX
  8
0
  5
ADDE
 10
378.437
 20
728.079
 30
0.000000
  70
    32
  0
VERTEX
  8
0
  5
ADDF
 10
378.440
 20
728.085
 30
0.000000
  70
    32
  0
VERTEX
  8
0
  5
ADE0
 10
378.443
 20
728.090
 30
0.000000
  70
    32
  0
VERTEX
  8
0
  5
ADE1
 10
378.445
 20
728.096
 30
0.000000
  70
    32
  0
VERTEX
  8
0
  5
ADE2
 10
378.448
 20
728.101
 30
0.000000
  70
    32
  0
VERTEX
  8
0
  5
ADE3
 10
378.450
 20
728.107
 30
0.000000
  70
    32
  0
VERTEX
  8
0
  5
ADE4
 10
378.453
 20
728.112
 30
0.000000
  70
    32
  0
VERTEX
  8
0
  5
ADE5
 10
378.455
 20
728.118
 30
0.000000
  70
    32
  0
VERTEX
  8
0
  5
ADE6
 10
378.458
 20
728.124
 30
0.000000
  70
    32
  0
VERTEX
  8
0
  5
ADE7
 10
378.460
 20
728.129
 30
0.000000
  70
    32
  0
VERTEX
  8
0
  5
ADE8
 10
378.462
 20
728.135
 30
0.000000
  70
    32
  0
VERTEX
  8
0
  5
ADE9
 10
378.464
 20
728.141
 30
0.000000
  70
    32
  0
VERTEX
  8
0
  5
ADEA
 10
378.466
 20
728.147
 30
0.000000
  70
    32
  0
VERTEX
  8
0
  5
ADEB
 10
378.468
 20
728.153
 30
0.000000
  70
    32
  0
VERTEX
  8
0
  5
ADEC
 10
378.470
 20
728.158
 30
0.000000
  70
    32
  0
VERTEX
  8
0
  5
ADED
 10
378.472
 20
728.164
 30
0.000000
  70
    32
  0
VERTEX
  8
0
  5
ADEE
 10
378.474
 20
728.170
 30
0.000000
  70
    32
  0
VERTEX
  8
0
  5
ADEF
 10
378.475
 20
728.176
 30
0.000000
  70
    32
  0
VERTEX
  8
0
  5
ADF0
 10
378.477
 20
728.182
 30
0.000000
  70
    32
  0
VERTEX
  8
0
  5
ADF1
 10
378.478
 20
728.188
 30
0.000000
  70
    32
  0
VERTEX
  8
0
  5
ADF2
 10
378.480
 20
728.194
 30
0.000000
  70
    32
  0
VERTEX
  8
0
  5
ADF3
 10
378.481
 20
728.200
 30
0.000000
  70
    32
  0
VERTEX
  8
0
  5
ADF4
 10
378.483
 20
728.206
 30
0.000000
  70
    32
  0
VERTEX
  8
0
  5
ADF5
 10
378.484
 20
728.212
 30
0.000000
  70
    32
  0
VERTEX
  8
0
  5
ADF6
 10
378.485
 20
728.218
 30
0.000000
  70
    32
  0
VERTEX
  8
0
  5
ADF7
 10
378.486
 20
728.224
 30
0.000000
  70
    32
  0
VERTEX
  8
0
  5
ADF8
 10
378.487
 20
728.230
 30
0.000000
  70
    32
  0
VERTEX
  8
0
  5
ADF9
 10
378.488
 20
728.236
 30
0.000000
  70
    32
  0
VERTEX
  8
0
  5
ADFA
 10
378.489
 20
728.242
 30
0.000000
  70
    32
  0
VERTEX
  8
0
  5
ADFB
 10
378.490
 20
728.248
 30
0.000000
  70
    32
  0
VERTEX
  8
0
  5
ADFC
 10
378.490
 20
728.254
 30
0.000000
  70
    32
  0
VERTEX
  8
0
  5
ADFD
 10
378.491
 20
728.260
 30
0.000000
  70
    32
  0
VERTEX
  8
0
  5
ADFE
 10
378.492
 20
728.266
 30
0.000000
  70
    32
  0
VERTEX
  8
0
  5
ADFF
 10
378.492
 20
728.273
 30
0.000000
  70
    32
  0
VERTEX
  8
0
  5
AE00
 10
378.492
 20
728.279
 30
0.000000
  70
    32
  0
VERTEX
  8
0
  5
AE01
 10
378.493
 20
728.285
 30
0.000000
  70
    32
  0
VERTEX
  8
0
  5
AE02
 10
378.493
 20
728.291
 30
0.000000
  70
    32
  0
VERTEX
  8
0
  5
AE03
 10
378.493
 20
728.297
 30
0.000000
  70
    32
  0
VERTEX
  8
0
  5
AE04
 10
378.493
 20
728.303
 30
0.000000
  70
    32
  0
VERTEX
  8
0
  5
AE05
 10
378.493
 20
728.309
 30
0.000000
  70
    32
  0
SEQEND
  8
0
  5
AE06
  0
POLYLINE
  5
A2B3
  8
0
 10
372.61826387956421
 20
727.80934761738035
 30
0.0
 66
     1
 70
     8
  0
VERTEX
  8
0
  5
AE07
 10
372.618
 20
727.809
 30
0.000000
  70
    32
  0
VERTEX
  8
0
  5
AE08
 10
372.612
 20
727.809
 30
0.000000
  70
    32
  0
VERTEX
  8
0
  5
AE09
 10
372.606
 20
727.809
 30
0.000000
  70
    32
  0
VERTEX
  8
0
  5
AE0A
 10
372.600
 20
727.809
 30
0.000000
  70
    32
  0
VERTEX
  8
0
  5
AE0B
 10
372.594
 20
727.809
 30
0.000000
  70
    32
  0
VERTEX
  8
0
  5
AE0C
 10
372.588
 20
727.808
 30
0.000000
  70
    32
  0
VERTEX
  8
0
  5
AE0D
 10
372.581
 20
727.808
 30
0.000000
  70
    32
  0
VERTEX
  8
0
  5
AE0E
 10
372.575
 20
727.808
 30
0.000000
  70
    32
  0
VERTEX
  8
0
  5
AE0F
 10
372.569
 20
727.807
 30
0.000000
  70
    32
  0
VERTEX
  8
0
  5
AE10
 10
372.563
 20
727.806
 30
0.000000
  70
    32
  0
VERTEX
  8
0
  5
AE11
 10
372.557
 20
727.806
 30
0.000000
  70
    32
  0
VERTEX
  8
0
  5
AE12
 10
372.551
 20
727.805
 30
0.000000
  70
    32
  0
VERTEX
  8
0
  5
AE13
 10
372.545
 20
727.804
 30
0.000000
  70
    32
  0
VERTEX
  8
0
  5
AE14
 10
372.539
 20
727.803
 30
0.000000
  70
    32
  0
VERTEX
  8
0
  5
AE15
 10
372.533
 20
727.802
 30
0.000000
  70
    32
  0
VERTEX
  8
0
  5
AE16
 10
372.527
 20
727.801
 30
0.000000
  70
    32
  0
VERTEX
  8
0
  5
AE17
 10
372.521
 20
727.800
 30
0.000000
  70
    32
  0
VERTEX
  8
0
  5
AE18
 10
372.515
 20
727.799
 30
0.000000
  70
    32
  0
VERTEX
  8
0
  5
AE19
 10
372.509
 20
727.797
 30
0.000000
  70
    32
  0
VERTEX
  8
0
  5
AE1A
 10
372.503
 20
727.796
 30
0.000000
  70
    32
  0
VERTEX
  8
0
  5
AE1B
 10
372.497
 20
727.794
 30
0.000000
  70
    32
  0
VERTEX
  8
0
  5
AE1C
 10
372.491
 20
727.793
 30
0.000000
  70
    32
  0
VERTEX
  8
0
  5
AE1D
 10
372.485
 20
727.791
 30
0.000000
  70
    32
  0
VERTEX
  8
0
  5
AE1E
 10
372.479
 20
727.790
 30
0.000000
  70
    32
  0
VERTEX
  8
0
  5
AE1F
 10
372.473
 20
727.788
 30
0.000000
  70
    32
  0
VERTEX
  8
0
  5
AE20
 10
372.467
 20
727.786
 30
0.000000
  70
    32
  0
VERTEX
  8
0
  5
AE21
 10
372.461
 20
727.784
 30
0.000000
  70
    32
  0
VERTEX
  8
0
  5
AE22
 10
372.456
 20
727.782
 30
0.000000
  70
    32
  0
VERTEX
  8
0
  5
AE23
 10
372.450
 20
727.780
 30
0.000000
  70
    32
  0
VERTEX
  8
0
  5
AE24
 10
372.444
 20
727.778
 30
0.000000
  70
    32
  0
VERTEX
  8
0
  5
AE25
 10
372.438
 20
727.776
 30
0.000000
  70
    32
  0
VERTEX
  8
0
  5
AE26
 10
372.433
 20
727.774
 30
0.000000
  70
    32
  0
VERTEX
  8
0
  5
AE27
 10
372.427
 20
727.771
 30
0.000000
  70
    32
  0
VERTEX
  8
0
  5
AE28
 10
372.421
 20
727.769
 30
0.000000
  70
    32
  0
VERTEX
  8
0
  5
AE29
 10
372.416
 20
727.766
 30
0.000000
  70
    32
  0
VERTEX
  8
0
  5
AE2A
 10
372.410
 20
727.764
 30
0.000000
  70
    32
  0
VERTEX
  8
0
  5
AE2B
 10
372.404
 20
727.761
 30
0.000000
  70
    32
  0
VERTEX
  8
0
  5
AE2C
 10
372.399
 20
727.759
 30
0.000000
  70
    32
  0
VERTEX
  8
0
  5
AE2D
 10
372.393
 20
727.756
 30
0.000000
  70
    32
  0
VERTEX
  8
0
  5
AE2E
 10
372.388
 20
727.753
 30
0.000000
  70
    32
  0
VERTEX
  8
0
  5
AE2F
 10
372.383
 20
727.750
 30
0.000000
  70
    32
  0
VERTEX
  8
0
  5
AE30
 10
372.377
 20
727.747
 30
0.000000
  70
    32
  0
VERTEX
  8
0
  5
AE31
 10
372.372
 20
727.744
 30
0.000000
  70
    32
  0
VERTEX
  8
0
  5
AE32
 10
372.366
 20
727.741
 30
0.000000
  70
    32
  0
VERTEX
  8
0
  5
AE33
 10
372.361
 20
727.738
 30
0.000000
  70
    32
  0
VERTEX
  8
0
  5
AE34
 10
372.356
 20
727.735
 30
0.000000
  70
    32
  0
VERTEX
  8
0
  5
AE35
 10
372.351
 20
727.732
 30
0.000000
  70
    32
  0
VERTEX
  8
0
  5
AE36
 10
372.346
 20
727.728
 30
0.000000
  70
    32
  0
VERTEX
  8
0
  5
AE37
 10
372.340
 20
727.725
 30
0.000000
  70
    32
  0
VERTEX
  8
0
  5
AE38
 10
372.335
 20
727.722
 30
0.000000
  70
    32
  0
VERTEX
  8
0
  5
AE39
 10
372.330
 20
727.718
 30
0.000000
  70
    32
  0
VERTEX
  8
0
  5
AE3A
 10
372.325
 20
727.715
 30
0.000000
  70
    32
  0
VERTEX
  8
0
  5
AE3B
 10
372.320
 20
727.711
 30
0.000000
  70
    32
  0
VERTEX
  8
0
  5
AE3C
 10
372.316
 20
727.707
 30
0.000000
  70
    32
  0
VERTEX
  8
0
  5
AE3D
 10
372.311
 20
727.704
 30
0.000000
  70
    32
  0
VERTEX
  8
0
  5
AE3E
 10
372.306
 20
727.700
 30
0.000000
  70
    32
  0
VERTEX
  8
0
  5
AE3F
 10
372.301
 20
727.696
 30
0.000000
  70
    32
  0
VERTEX
  8
0
  5
AE40
 10
372.296
 20
727.692
 30
0.000000
  70
    32
  0
VERTEX
  8
0
  5
AE41
 10
372.292
 20
727.688
 30
0.000000
  70
    32
  0
VERTEX
  8
0
  5
AE42
 10
372.287
 20
727.684
 30
0.000000
  70
    32
  0
VERTEX
  8
0
  5
AE43
 10
372.282
 20
727.680
 30
0.000000
  70
    32
  0
VERTEX
  8
0
  5
AE44
 10
372.278
 20
727.676
 30
0.000000
  70
    32
  0
VERTEX
  8
0
  5
AE45
 10
372.273
 20
727.671
 30
0.000000
  70
    32
  0
VERTEX
  8
0
  5
AE46
 10
372.269
 20
727.667
 30
0.000000
  70
    32
  0
VERTEX
  8
0
  5
AE47
 10
372.265
 20
727.663
 30
0.000000
  70
    32
  0
VERTEX
  8
0
  5
AE48
 10
372.260
 20
727.659
 30
0.000000
  70
    32
  0
VERTEX
  8
0
  5
AE49
 10
372.256
 20
727.654
 30
0.000000
  70
    32
  0
VERTEX
  8
0
  5
AE4A
 10
372.252
 20
727.650
 30
0.000000
  70
    32
  0
VERTEX
  8
0
  5
AE4B
 10
372.248
 20
727.645
 30
0.000000
  70
    32
  0
VERTEX
  8
0
  5
AE4C
 10
372.244
 20
727.641
 30
0.000000
  70
    32
  0
VERTEX
  8
0
  5
AE4D
 10
372.240
 20
727.636
 30
0.000000
  70
    32
  0
VERTEX
  8
0
  5
AE4E
 10
372.236
 20
727.631
 30
0.000000
  70
    32
  0
VERTEX
  8
0
  5
AE4F
 10
372.232
 20
727.627
 30
0.000000
  70
    32
  0
VERTEX
  8
0
  5
AE50
 10
372.228
 20
727.622
 30
0.000000
  70
    32
  0
VERTEX
  8
0
  5
AE51
 10
372.224
 20
727.617
 30
0.000000
  70
    32
  0
VERTEX
  8
0
  5
AE52
 10
372.220
 20
727.612
 30
0.000000
  70
    32
  0
VERTEX
  8
0
  5
AE53
 10
372.217
 20
727.607
 30
0.000000
  70
    32
  0
VERTEX
  8
0
  5
AE54
 10
372.213
 20
727.602
 30
0.000000
  70
    32
  0
VERTEX
  8
0
  5
AE55
 10
372.209
 20
727.597
 30
0.000000
  70
    32
  0
VERTEX
  8
0
  5
AE56
 10
372.206
 20
727.592
 30
0.000000
  70
    32
  0
VERTEX
  8
0
  5
AE57
 10
372.203
 20
727.587
 30
0.000000
  70
    32
  0
VERTEX
  8
0
  5
AE58
 10
372.199
 20
727.582
 30
0.000000
  70
    32
  0
VERTEX
  8
0
  5
AE59
 10
372.196
 20
727.577
 30
0.000000
  70
    32
  0
VERTEX
  8
0
  5
AE5A
 10
372.193
 20
727.572
 30
0.000000
  70
    32
  0
VERTEX
  8
0
  5
AE5B
 10
372.189
 20
727.566
 30
0.000000
  70
    32
  0
VERTEX
  8
0
  5
AE5C
 10
372.186
 20
727.561
 30
0.000000
  70
    32
  0
VERTEX
  8
0
  5
AE5D
 10
372.183
 20
727.556
 30
0.000000
  70
    32
  0
VERTEX
  8
0
  5
AE5E
 10
372.180
 20
727.550
 30
0.000000
  70
    32
  0
VERTEX
  8
0
  5
AE5F
 10
372.177
 20
727.545
 30
0.000000
  70
    32
  0
VERTEX
  8
0
  5
AE60
 10
372.174
 20
727.540
 30
0.000000
  70
    32
  0
VERTEX
  8
0
  5
AE61
 10
372.172
 20
727.534
 30
0.000000
  70
    32
  0
VERTEX
  8
0
  5
AE62
 10
372.169
 20
727.529
 30
0.000000
  70
    32
  0
VERTEX
  8
0
  5
AE63
 10
372.166
 20
727.523
 30
0.000000
  70
    32
  0
VERTEX
  8
0
  5
AE64
 10
372.164
 20
727.518
 30
0.000000
  70
    32
  0
VERTEX
  8
0
  5
AE65
 10
372.161
 20
727.512
 30
0.000000
  70
    32
  0
VERTEX
  8
0
  5
AE66
 10
372.159
 20
727.506
 30
0.000000
  70
    32
  0
VERTEX
  8
0
  5
AE67
 10
372.156
 20
727.501
 30
0.000000
  70
    32
  0
VERTEX
  8
0
  5
AE68
 10
372.154
 20
727.495
 30
0.000000
  70
    32
  0
VERTEX
  8
0
  5
AE69
 10
372.152
 20
727.489
 30
0.000000
  70
    32
  0
VERTEX
  8
0
  5
AE6A
 10
372.150
 20
727.484
 30
0.000000
  70
    32
  0
VERTEX
  8
0
  5
AE6B
 10
372.147
 20
727.478
 30
0.000000
  70
    32
  0
VERTEX
  8
0
  5
AE6C
 10
372.145
 20
727.472
 30
0.000000
  70
    32
  0
VERTEX
  8
0
  5
AE6D
 10
372.143
 20
727.466
 30
0.000000
  70
    32
  0
VERTEX
  8
0
  5
AE6E
 10
372.142
 20
727.460
 30
0.000000
  70
    32
  0
VERTEX
  8
0
  5
AE6F
 10
372.140
 20
727.454
 30
0.000000
  70
    32
  0
VERTEX
  8
0
  5
AE70
 10
372.138
 20
727.449
 30
0.000000
  70
    32
  0
VERTEX
  8
0
  5
AE71
 10
372.136
 20
727.443
 30
0.000000
  70
    32
  0
VERTEX
  8
0
  5
AE72
 10
372.135
 20
727.437
 30
0.000000
  70
    32
  0
VERTEX
  8
0
  5
AE73
 10
372.133
 20
727.431
 30
0.000000
  70
    32
  0
VERTEX
  8
0
  5
AE74
 10
372.132
 20
727.425
 30
0.000000
  70
    32
  0
VERTEX
  8
0
  5
AE75
 10
372.130
 20
727.419
 30
0.000000
  70
    32
  0
VERTEX
  8
0
  5
AE76
 10
372.129
 20
727.413
 30
0.000000
  70
    32
  0
VERTEX
  8
0
  5
AE77
 10
372.128
 20
727.407
 30
0.000000
  70
    32
  0
VERTEX
  8
0
  5
AE78
 10
372.127
 20
727.401
 30
0.000000
  70
    32
  0
VERTEX
  8
0
  5
AE79
 10
372.126
 20
727.395
 30
0.000000
  70
    32
  0
VERTEX
  8
0
  5
AE7A
 10
372.125
 20
727.389
 30
0.000000
  70
    32
  0
VERTEX
  8
0
  5
AE7B
 10
372.124
 20
727.383
 30
0.000000
  70
    32
  0
VERTEX
  8
0
  5
AE7C
 10
372.123
 20
727.377
 30
0.000000
  70
    32
  0
VERTEX
  8
0
  5
AE7D
 10
372.122
 20
727.371
 30
0.000000
  70
    32
  0
VERTEX
  8
0
  5
AE7E
 10
372.121
 20
727.364
 30
0.000000
  70
    32
  0
VERTEX
  8
0
  5
AE7F
 10
372.121
 20
727.358
 30
0.000000
  70
    32
  0
VERTEX
  8
0
  5
AE80
 10
372.120
 20
727.352
 30
0.000000
  70
    32
  0
VERTEX
  8
0
  5
AE81
 10
372.120
 20
727.346
 30
0.000000
  70
    32
  0
VERTEX
  8
0
  5
AE82
 10
372.119
 20
727.340
 30
0.000000
  70
    32
  0
VERTEX
  8
0
  5
AE83
 10
372.119
 20
727.334
 30
0.000000
  70
    32
  0
VERTEX
  8
0
  5
AE84
 10
372.119
 20
727.328
 30
0.000000
  70
    32
  0
VERTEX
  8
0
  5
AE85
 10
372.118
 20
727.322
 30
0.000000
  70
    32
  0
VERTEX
  8
0
  5
AE86
 10
372.118
 20
727.315
 30
0.000000
  70
    32
  0
VERTEX
  8
0
  5
AE87
 10
372.118
 20
727.309
 30
0.000000
  70
    32
  0
SEQEND
  8
0
  5
AE88
  0
LINE
  5
A2B4
  8
0
 10
372.61826387956421
 20
727.80934761738024
 30
0.0
 11
377.99338987956412
 21
727.80934761738024
 31
0.0
  0
LINE
  5
A2B5
  8
0
 10
378.49338987956412
 20
731.80942761738015
 30
0.0
 11
378.49338987956412
 21
728.30935761738021
 31
0.0
  0
POLYLINE
  5
A2B6
  8
0
 10
378.49338987916406
 20
747.80974761737991
 30
0.0
 66
     1
 70
     8
  0
VERTEX
  8
0
  5
AE89
 10
378.493
 20
747.810
 30
0.000000
  70
    32
  0
VERTEX
  8
0
  5
AE8A
 10
378.493
 20
747.822
 30
0.000000
  70
    32
  0
VERTEX
  8
0
  5
AE8B
 10
378.493
 20
747.834
 30
0.000000
  70
    32
  0
VERTEX
  8
0
  5
AE8C
 10
378.493
 20
747.847
 30
0.000000
  70
    32
  0
VERTEX
  8
0
  5
AE8D
 10
378.492
 20
747.859
 30
0.000000
  70
    32
  0
VERTEX
  8
0
  5
AE8E
 10
378.492
 20
747.871
 30
0.000000
  70
    32
  0
VERTEX
  8
0
  5
AE8F
 10
378.491
 20
747.883
 30
0.000000
  70
    32
  0
VERTEX
  8
0
  5
AE90
 10
378.490
 20
747.896
 30
0.000000
  70
    32
  0
VERTEX
  8
0
  5
AE91
 10
378.489
 20
747.908
 30
0.000000
  70
    32
  0
VERTEX
  8
0
  5
AE92
 10
378.487
 20
747.920
 30
0.000000
  70
    32
  0
VERTEX
  8
0
  5
AE93
 10
378.486
 20
747.932
 30
0.000000
  70
    32
  0
VERTEX
  8
0
  5
AE94
 10
378.484
 20
747.944
 30
0.000000
  70
    32
  0
VERTEX
  8
0
  5
AE95
 10
378.483
 20
747.956
 30
0.000000
  70
    32
  0
VERTEX
  8
0
  5
AE96
 10
378.481
 20
747.969
 30
0.000000
  70
    32
  0
VERTEX
  8
0
  5
AE97
 10
378.479
 20
747.981
 30
0.000000
  70
    32
  0
VERTEX
  8
0
  5
AE98
 10
378.476
 20
747.993
 30
0.000000
  70
    32
  0
VERTEX
  8
0
  5
AE99
 10
378.474
 20
748.005
 30
0.000000
  70
    32
  0
VERTEX
  8
0
  5
AE9A
 10
378.472
 20
748.017
 30
0.000000
  70
    32
  0
VERTEX
  8
0
  5
AE9B
 10
378.469
 20
748.029
 30
0.000000
  70
    32
  0
VERTEX
  8
0
  5
AE9C
 10
378.466
 20
748.041
 30
0.000000
  70
    32
  0
VERTEX
  8
0
  5
AE9D
 10
378.463
 20
748.053
 30
0.000000
  70
    32
  0
VERTEX
  8
0
  5
AE9E
 10
378.460
 20
748.065
 30
0.000000
  70
    32
  0
VERTEX
  8
0
  5
AE9F
 10
378.457
 20
748.076
 30
0.000000
  70
    32
  0
VERTEX
  8
0
  5
AEA0
 10
378.454
 20
748.088
 30
0.000000
  70
    32
  0
VERTEX
  8
0
  5
AEA1
 10
378.450
 20
748.100
 30
0.000000
  70
    32
  0
VERTEX
  8
0
  5
AEA2
 10
378.447
 20
748.112
 30
0.000000
  70
    32
  0
VERTEX
  8
0
  5
AEA3
 10
378.443
 20
748.123
 30
0.000000
  70
    32
  0
VERTEX
  8
0
  5
AEA4
 10
378.439
 20
748.135
 30
0.000000
  70
    32
  0
VERTEX
  8
0
  5
AEA5
 10
378.435
 20
748.147
 30
0.000000
  70
    32
  0
VERTEX
  8
0
  5
AEA6
 10
378.431
 20
748.158
 30
0.000000
  70
    32
  0
VERTEX
  8
0
  5
AEA7
 10
378.426
 20
748.170
 30
0.000000
  70
    32
  0
VERTEX
  8
0
  5
AEA8
 10
378.422
 20
748.181
 30
0.000000
  70
    32
  0
VERTEX
  8
0
  5
AEA9
 10
378.417
 20
748.192
 30
0.000000
  70
    32
  0
VERTEX
  8
0
  5
AEAA
 10
378.413
 20
748.204
 30
0.000000
  70
    32
  0
VERTEX
  8
0
  5
AEAB
 10
378.408
 20
748.215
 30
0.000000
  70
    32
  0
VERTEX
  8
0
  5
AEAC
 10
378.403
 20
748.226
 30
0.000000
  70
    32
  0
VERTEX
  8
0
  5
AEAD
 10
378.397
 20
748.237
 30
0.000000
  70
    32
  0
VERTEX
  8
0
  5
AEAE
 10
378.392
 20
748.248
 30
0.000000
  70
    32
  0
VERTEX
  8
0
  5
AEAF
 10
378.387
 20
748.259
 30
0.000000
  70
    32
  0
VERTEX
  8
0
  5
AEB0
 10
378.381
 20
748.270
 30
0.000000
  70
    32
  0
VERTEX
  8
0
  5
AEB1
 10
378.375
 20
748.281
 30
0.000000
  70
    32
  0
VERTEX
  8
0
  5
AEB2
 10
378.369
 20
748.292
 30
0.000000
  70
    32
  0
VERTEX
  8
0
  5
AEB3
 10
378.363
 20
748.303
 30
0.000000
  70
    32
  0
VERTEX
  8
0
  5
AEB4
 10
378.357
 20
748.313
 30
0.000000
  70
    32
  0
VERTEX
  8
0
  5
AEB5
 10
378.351
 20
748.324
 30
0.000000
  70
    32
  0
VERTEX
  8
0
  5
AEB6
 10
378.345
 20
748.334
 30
0.000000
  70
    32
  0
VERTEX
  8
0
  5
AEB7
 10
378.338
 20
748.345
 30
0.000000
  70
    32
  0
VERTEX
  8
0
  5
AEB8
 10
378.332
 20
748.355
 30
0.000000
  70
    32
  0
VERTEX
  8
0
  5
AEB9
 10
378.325
 20
748.365
 30
0.000000
  70
    32
  0
VERTEX
  8
0
  5
AEBA
 10
378.318
 20
748.375
 30
0.000000
  70
    32
  0
VERTEX
  8
0
  5
AEBB
 10
378.311
 20
748.386
 30
0.000000
  70
    32
  0
VERTEX
  8
0
  5
AEBC
 10
378.304
 20
748.396
 30
0.000000
  70
    32
  0
VERTEX
  8
0
  5
AEBD
 10
378.297
 20
748.405
 30
0.000000
  70
    32
  0
VERTEX
  8
0
  5
AEBE
 10
378.289
 20
748.415
 30
0.000000
  70
    32
  0
VERTEX
  8
0
  5
AEBF
 10
378.282
 20
748.425
 30
0.000000
  70
    32
  0
VERTEX
  8
0
  5
AEC0
 10
378.274
 20
748.435
 30
0.000000
  70
    32
  0
VERTEX
  8
0
  5
AEC1
 10
378.266
 20
748.444
 30
0.000000
  70
    32
  0
VERTEX
  8
0
  5
AEC2
 10
378.259
 20
748.454
 30
0.000000
  70
    32
  0
VERTEX
  8
0
  5
AEC3
 10
378.251
 20
748.463
 30
0.000000
  70
    32
  0
VERTEX
  8
0
  5
AEC4
 10
378.243
 20
748.472
 30
0.000000
  70
    32
  0
VERTEX
  8
0
  5
AEC5
 10
378.234
 20
748.481
 30
0.000000
  70
    32
  0
VERTEX
  8
0
  5
AEC6
 10
378.226
 20
748.490
 30
0.000000
  70
    32
  0
VERTEX
  8
0
  5
AEC7
 10
378.218
 20
748.499
 30
0.000000
  70
    32
  0
VERTEX
  8
0
  5
AEC8
 10
378.209
 20
748.508
 30
0.000000
  70
    32
  0
VERTEX
  8
0
  5
AEC9
 10
378.200
 20
748.517
 30
0.000000
  70
    32
  0
VERTEX
  8
0
  5
AECA
 10
378.192
 20
748.525
 30
0.000000
  70
    32
  0
VERTEX
  8
0
  5
AECB
 10
378.183
 20
748.534
 30
0.000000
  70
    32
  0
VERTEX
  8
0
  5
AECC
 10
378.174
 20
748.542
 30
0.000000
  70
    32
  0
VERTEX
  8
0
  5
AECD
 10
378.165
 20
748.551
 30
0.000000
  70
    32
  0
VERTEX
  8
0
  5
AECE
 10
378.156
 20
748.559
 30
0.000000
  70
    32
  0
VERTEX
  8
0
  5
AECF
 10
378.147
 20
748.567
 30
0.000000
  70
    32
  0
VERTEX
  8
0
  5
AED0
 10
378.137
 20
748.575
 30
0.000000
  70
    32
  0
VERTEX
  8
0
  5
AED1
 10
378.128
 20
748.583
 30
0.000000
  70
    32
  0
VERTEX
  8
0
  5
AED2
 10
378.118
 20
748.591
 30
0.000000
  70
    32
  0
VERTEX
  8
0
  5
AED3
 10
378.109
 20
748.598
 30
0.000000
  70
    32
  0
VERTEX
  8
0
  5
AED4
 10
378.099
 20
748.606
 30
0.000000
  70
    32
  0
VERTEX
  8
0
  5
AED5
 10
378.089
 20
748.613
 30
0.000000
  70
    32
  0
VERTEX
  8
0
  5
AED6
 10
378.079
 20
748.620
 30
0.000000
  70
    32
  0
VERTEX
  8
0
  5
AED7
 10
378.069
 20
748.627
 30
0.000000
  70
    32
  0
VERTEX
  8
0
  5
AED8
 10
378.059
 20
748.634
 30
0.000000
  70
    32
  0
VERTEX
  8
0
  5
AED9
 10
378.049
 20
748.641
 30
0.000000
  70
    32
  0
VERTEX
  8
0
  5
AEDA
 10
378.039
 20
748.648
 30
0.000000
  70
    32
  0
VERTEX
  8
0
  5
AEDB
 10
378.028
 20
748.655
 30
0.000000
  70
    32
  0
VERTEX
  8
0
  5
AEDC
 10
378.018
 20
748.661
 30
0.000000
  70
    32
  0
VERTEX
  8
0
  5
AEDD
 10
378.007
 20
748.667
 30
0.000000
  70
    32
  0
VERTEX
  8
0
  5
AEDE
 10
377.997
 20
748.674
 30
0.000000
  70
    32
  0
VERTEX
  8
0
  5
AEDF
 10
377.986
 20
748.680
 30
0.000000
  70
    32
  0
VERTEX
  8
0
  5
AEE0
 10
377.976
 20
748.686
 30
0.000000
  70
    32
  0
VERTEX
  8
0
  5
AEE1
 10
377.965
 20
748.692
 30
0.000000
  70
    32
  0
VERTEX
  8
0
  5
AEE2
 10
377.954
 20
748.697
 30
0.000000
  70
    32
  0
VERTEX
  8
0
  5
AEE3
 10
377.943
 20
748.703
 30
0.000000
  70
    32
  0
VERTEX
  8
0
  5
AEE4
 10
377.932
 20
748.708
 30
0.000000
  70
    32
  0
VERTEX
  8
0
  5
AEE5
 10
377.921
 20
748.714
 30
0.000000
  70
    32
  0
VERTEX
  8
0
  5
AEE6
 10
377.910
 20
748.719
 30
0.000000
  70
    32
  0
VERTEX
  8
0
  5
AEE7
 10
377.899
 20
748.724
 30
0.000000
  70
    32
  0
VERTEX
  8
0
  5
AEE8
 10
377.887
 20
748.729
 30
0.000000
  70
    32
  0
VERTEX
  8
0
  5
AEE9
 10
377.876
 20
748.734
 30
0.000000
  70
    32
  0
VERTEX
  8
0
  5
AEEA
 10
377.865
 20
748.738
 30
0.000000
  70
    32
  0
VERTEX
  8
0
  5
AEEB
 10
377.853
 20
748.743
 30
0.000000
  70
    32
  0
VERTEX
  8
0
  5
AEEC
 10
377.842
 20
748.747
 30
0.000000
  70
    32
  0
VERTEX
  8
0
  5
AEED
 10
377.830
 20
748.751
 30
0.000000
  70
    32
  0
VERTEX
  8
0
  5
AEEE
 10
377.819
 20
748.755
 30
0.000000
  70
    32
  0
VERTEX
  8
0
  5
AEEF
 10
377.807
 20
748.759
 30
0.000000
  70
    32
  0
VERTEX
  8
0
  5
AEF0
 10
377.795
 20
748.763
 30
0.000000
  70
    32
  0
VERTEX
  8
0
  5
AEF1
 10
377.784
 20
748.767
 30
0.000000
  70
    32
  0
VERTEX
  8
0
  5
AEF2
 10
377.772
 20
748.770
 30
0.000000
  70
    32
  0
VERTEX
  8
0
  5
AEF3
 10
377.760
 20
748.774
 30
0.000000
  70
    32
  0
VERTEX
  8
0
  5
AEF4
 10
377.748
 20
748.777
 30
0.000000
  70
    32
  0
VERTEX
  8
0
  5
AEF5
 10
377.736
 20
748.780
 30
0.000000
  70
    32
  0
VERTEX
  8
0
  5
AEF6
 10
377.724
 20
748.783
 30
0.000000
  70
    32
  0
VERTEX
  8
0
  5
AEF7
 10
377.712
 20
748.785
 30
0.000000
  70
    32
  0
VERTEX
  8
0
  5
AEF8
 10
377.701
 20
748.788
 30
0.000000
  70
    32
  0
VERTEX
  8
0
  5
AEF9
 10
377.688
 20
748.791
 30
0.000000
  70
    32
  0
VERTEX
  8
0
  5
AEFA
 10
377.676
 20
748.793
 30
0.000000
  70
    32
  0
VERTEX
  8
0
  5
AEFB
 10
377.664
 20
748.795
 30
0.000000
  70
    32
  0
VERTEX
  8
0
  5
AEFC
 10
377.652
 20
748.797
 30
0.000000
  70
    32
  0
VERTEX
  8
0
  5
AEFD
 10
377.640
 20
748.799
 30
0.000000
  70
    32
  0
VERTEX
  8
0
  5
AEFE
 10
377.628
 20
748.801
 30
0.000000
  70
    32
  0
VERTEX
  8
0
  5
AEFF
 10
377.616
 20
748.802
 30
0.000000
  70
    32
  0
VERTEX
  8
0
  5
AF00
 10
377.604
 20
748.804
 30
0.000000
  70
    32
  0
VERTEX
  8
0
  5
AF01
 10
377.591
 20
748.805
 30
0.000000
  70
    32
  0
VERTEX
  8
0
  5
AF02
 10
377.579
 20
748.806
 30
0.000000
  70
    32
  0
VERTEX
  8
0
  5
AF03
 10
377.567
 20
748.807
 30
0.000000
  70
    32
  0
VERTEX
  8
0
  5
AF04
 10
377.555
 20
748.808
 30
0.000000
  70
    32
  0
VERTEX
  8
0
  5
AF05
 10
377.542
 20
748.809
 30
0.000000
  70
    32
  0
VERTEX
  8
0
  5
AF06
 10
377.530
 20
748.809
 30
0.000000
  70
    32
  0
VERTEX
  8
0
  5
AF07
 10
377.518
 20
748.809
 30
0.000000
  70
    32
  0
VERTEX
  8
0
  5
AF08
 10
377.506
 20
748.810
 30
0.000000
  70
    32
  0
VERTEX
  8
0
  5
AF09
 10
377.493
 20
748.810
 30
0.000000
  70
    32
  0
SEQEND
  8
0
  5
AF0A
  0
LINE
  5
A2B7
  8
0
 10
296.21826387956412
 20
736.30951761738027
 30
0.0
 11
286.21826387956412
 21
736.30951761738027
 31
0.0
  0
LINE
  5
A2B8
  8
0
 10
373.99338987956412
 20
748.8097676173802
 30
0.0
 11
373.99338987956412
 21
751.30981761738019
 31
0.0
  0
LINE
  5
A2B9
  8
0
 10
306.99338987956412
 20
748.8097676173802
 30
0.0
 11
306.99338987956412
 21
751.30981761738019
 31
0.0
  0
LINE
  5
A2BA
  8
0
 10
243.49338987956409
 20
959.30981761738019
 30
0.0
 11
243.49338987956409
 21
953.30981761738008
 31
0.0
  0
LINE
  5
A2BB
  8
0
 10
218.99338987956409
 20
960.30981761737996
 30
0.0
 11
218.99338987956409
 21
950.30981761738019
 31
0.0
  0
LINE
  5
A2BC
  8
0
 10
229.99338987956409
 20
960.30981761737996
 30
0.0
 11
229.99338987956409
 21
950.30981761738019
 31
0.0
  0
LINE
  5
A2BD
  8
0
 10
229.99338987956409
 20
959.30981761738019
 30
0.0
 11
243.49338987956409
 21
959.30981761738019
 31
0.0
  0
LINE
  5
A2BE
  8
0
 10
218.99338987956409
 20
960.30981761737996
 30
0.0
 11
229.99338987956409
 21
960.30981761737996
 31
0.0
  0
LINE
  5
A2BF
  8
0
 10
141.39341587956409
 20
753.30977661738018
 30
0.0
 11
218.9933858795641
 21
753.30977361737985
 31
0.0
  0
LINE
  5
A2C0
  8
0
 10
141.39341587956409
 20
747.30977661737995
 30
0.0
 11
218.9933858795641
 21
747.30977361738019
 31
0.0
  0
LINE
  5
A2C1
  8
0
 10
218.9933858795641
 20
746.30977361738019
 30
0.0
 11
218.9933858795641
 21
756.30977361737996
 31
0.0
  0
LINE
  5
A2C2
  8
0
 10
218.9933858795641
 20
746.30977361738019
 30
0.0
 11
229.9933858795641
 21
746.30977361738019
 31
0.0
  0
LINE
  5
A2C3
  8
0
 10
229.9933858795641
 20
746.30977361738019
 30
0.0
 11
229.9933858795641
 21
756.30977361737996
 31
0.0
  0
LINE
  5
A2C4
  8
0
 10
229.9933858795641
 20
747.30977361738019
 30
0.0
 11
243.4933858795641
 21
747.30977361738019
 31
0.0
  0
LINE
  5
A2C5
  8
0
 10
243.4933858795641
 20
747.30977361738019
 30
0.0
 11
243.4933858795641
 21
753.30977361737985
 31
0.0
  0
LINE
  5
A2C6
  8
0
 10
229.9933858795641
 20
753.30977361737985
 30
0.0
 11
243.4933858795641
 21
753.30977361737985
 31
0.0
  0
LINE
  5
A2C7
  8
0
 10
240.99338987956409
 20
860.95358861738021
 30
0.0
 11
246.49338987956409
 21
860.95358861738021
 31
0.0
  0
LINE
  5
A2C8
  8
0
 10
240.99338987956409
 20
861.28766661738018
 30
0.0
 11
247.17338987956401
 21
861.28766661738018
 31
0.0
  0
LINE
  5
A2C9
  8
0
 10
248.49338987956409
 20
858.95358861738021
 30
0.0
 11
248.49338987956409
 21
853.30982161738007
 31
0.0
  0
LINE
  5
A2CA
  8
0
 10
250.1733898795639
 20
864.28766661738007
 30
0.0
 11
250.1733898795639
 21
853.30982161738007
 31
0.0
  0
ARC
  5
A2CB
  8
0
 10
247.17338987956401
 20
864.28766661738007
 30
0.0
 40
3.0
 50
270.0
 51
0.0
  0
LINE
  5
A2CC
  8
0
 10
240.99338987956409
 20
845.66605361738027
 30
0.0
 11
246.49338987956409
 21
845.66605361738027
 31
0.0
  0
LINE
  5
A2CD
  8
0
 10
240.99338987956409
 20
845.33197606913461
 30
0.0
 11
247.17338987956401
 21
845.33197561738007
 31
0.0
  0
LINE
  5
A2CE
  8
0
 10
248.49338987956409
 20
847.66605361738016
 30
0.0
 11
248.49338987956409
 21
853.30982161738007
 31
0.0
  0
LINE
  5
A2CF
  8
0
 10
250.1733898795639
 20
842.33197561738018
 30
0.0
 11
250.1733898795639
 21
853.30982161738007
 31
0.0
  0
ARC
  5
A2D0
  8
0
 10
247.17338987956401
 20
842.33197561738018
 30
0.0
 40
3.0
 50
359.99999799999722
 51
89.999997999997177
  0
LINE
  5
A563
  8
0
  6
CONTINUOUS
 62
     7
 10
502.92369987956317
 20
982.05359761738021
 30
0.0
 11
513.99346987956335
 21
982.44018761738005
 31
0.0
  0
LINE
  5
A564
  8
0
  6
CONTINUOUS
 62
     7
 10
486.99346987956318
 20
739.20184761738005
 30
0.0
 11
486.99346987956318
 21
849.30981761737974
 31
0.0
  0
LINE
  5
A565
  8
0
  6
CONTINUOUS
 62
     7
 10
500.99339987956353
 20
717.10003761738005
 30
0.0
 11
500.99339987956353
 21
843.77038761738015
 31
0.0
  0
LINE
  5
A566
  8
0
  6
CONTINUOUS
 62
     7
 10
489.47252987956352
 20
970.38879761738008
 30
0.0
 11
498.51439987956331
 21
971.98315761738013
 31
0.0
  0
LINE
  5
A567
  8
0
  6
CONTINUOUS
 62
     7
 10
503.8363598795633
 20
992.51544761738012
 30
0.0
 11
513.99346987956335
 21
993.04773761738022
 31
0.0
  0
LINE
  5
A568
  8
0
  6
CONTINUOUS
 62
     7
 10
503.82347987956348
 20
714.10486761738025
 30
0.0
 11
513.99346987956335
 21
713.57190761738025
 31
0.0
  0
LINE
  5
A569
  8
0
  6
CONTINUOUS
 62
     7
 10
513.99346987956335
 20
713.57184761737994
 30
0.0
 11
513.99346987956335
 21
849.30981761737974
 31
0.0
  0
LINE
  5
A56A
  8
0
  6
CONTINUOUS
 62
     7
 10
500.99339987956353
 20
775.74402761738008
 30
0.0
 11
513.99346987956335
 21
775.74402761738008
 31
0.0
  0
LINE
  5
A56B
  8
0
  6
CONTINUOUS
 62
     7
 10
500.99339987956353
 20
801.74530761738015
 30
0.0
 11
513.99346987956335
 21
801.74530761738015
 31
0.0
  0
LINE
  5
A56C
  8
0
  6
CONTINUOUS
 62
     7
 10
500.99339987956353
 20
904.87433761738032
 30
0.0
 11
513.99346987956335
 21
904.87433761738032
 31
0.0
  0
LINE
  5
A56D
  8
0
  6
CONTINUOUS
 62
     7
 10
500.99339987956353
 20
930.87561761737993
 30
0.0
 11
513.99346987956335
 21
930.87561761737993
 31
0.0
  0
LINE
  5
A56E
  8
0
  6
CONTINUOUS
 62
     7
 10
502.92369987956317
 20
724.56604761738015
 30
0.0
 11
513.99352987956354
 21
724.17944761738022
 31
0.0
  0
LINE
  5
A56F
  8
0
  6
CONTINUOUS
 62
     7
 10
489.47246987956322
 20
736.23083761738008
 30
0.0
 11
498.51439987956331
 21
734.63647761737991
 31
0.0
  0
LINE
  5
A570
  8
0
  6
CENTER
 62
     7
 10
497.9935298795632
 20
836.60144761738036
 30
0.0
 11
497.9935298795632
 21
867.91473761737996
 31
0.0
  0
LINE
  5
A571
  8
0
  6
CONTINUOUS
 62
     7
 10
481.49352987956348
 20
849.30981761737974
 30
0.0
 11
514.49352987956343
 21
849.30981761737974
 31
0.0
  0
LINE
  5
A572
  8
0
  6
CONTINUOUS
 62
     7
 10
481.49352987956348
 20
857.30975761737989
 30
0.0
 11
514.49352987956343
 21
857.30975761737989
 31
0.0
  0
LINE
  5
A573
  8
0
  6
CONTINUOUS
 62
     7
 10
513.99346987956335
 20
857.30975761737989
 30
0.0
 11
513.99346987956335
 21
993.04779761738018
 31
0.0
  0
LINE
  5
A574
  8
0
  6
CONTINUOUS
 62
     7
 10
500.99339987956353
 20
862.84924761738023
 30
0.0
 11
500.99339987956353
 21
989.51959761738044
 31
0.0
  0
LINE
  5
A575
  8
0
  6
CONTINUOUS
 62
     7
 10
486.99346987956318
 20
857.30975761737989
 30
0.0
 11
486.99346987956318
 21
967.45099761738004
 31
0.0
  0
LINE
  5
A576
  8
0
  6
CONTINUOUS
 62
     7
 10
569.68096987956324
 20
926.21191761738021
 30
0.0
 11
611.99346987956324
 21
926.21191761738021
 31
0.0
  0
LINE
  5
A577
  8
0
  6
CONTINUOUS
 62
     7
 10
513.99346987956335
 20
930.87561761737993
 30
0.0
 11
565.78923987956364
 21
930.87561761737993
 31
0.0
  0
LINE
  5
A578
  8
0
  6
CONTINUOUS
 62
     7
 10
513.99346987956335
 20
993.04779761738018
 30
0.0
 11
614.92699987956337
 21
995.2835176173802
 31
0.0
  0
LINE
  5
A579
  8
0
  6
CONTINUOUS
 62
     7
 10
513.99346987956335
 20
982.44018761738005
 30
0.0
 11
611.99352987956354
 21
985.86236761738019
 31
0.0
  0
LINE
  5
A57A
  8
0
  6
CONTINUOUS
 62
     7
 10
513.99346987956335
 20
904.87433761738032
 30
0.0
 11
611.99346987956324
 21
904.87433761738032
 31
0.0
  0
LINE
  5
A57B
  8
0
  6
CONTINUOUS
 62
     7
 10
569.68096987956324
 20
780.40771761738017
 30
0.0
 11
611.99346987956324
 21
780.40771761738017
 31
0.0
  0
LINE
  5
A57C
  8
0
  6
CONTINUOUS
 62
     7
 10
635.99346987956324
 20
874.30981761737996
 30
0.0
 11
705.99346987956335
 21
874.30981761737996
 31
0.0
  0
LINE
  5
A57D
  8
0
  6
CONTINUOUS
 62
     7
 10
635.99346987956324
 20
832.30981761737974
 30
0.0
 11
705.99346987956335
 21
832.30981761737974
 31
0.0
  0
LINE
  5
A57E
  8
0
  6
CONTINUOUS
 62
     7
 10
633.99346987956324
 20
875.80981761738008
 30
0.0
 11
635.99346987956324
 21
875.80981761738008
 31
0.0
  0
LINE
  5
A57F
  8
0
  6
CONTINUOUS
 62
     7
 10
633.99346987956324
 20
830.80981761737996
 30
0.0
 11
635.99346987956324
 21
830.80981761737996
 31
0.0
  0
LINE
  5
A580
  8
0
  6
CONTINUOUS
 62
     7
 10
635.99346987956324
 20
830.80981761737996
 30
0.0
 11
635.99346987956324
 21
875.80981761738008
 31
0.0
  0
LINE
  5
A581
  8
0
  6
CONTINUOUS
 62
     7
 10
705.99346987956335
 20
832.30981761737974
 30
0.0
 11
705.99346987956335
 21
874.30981761737996
 31
0.0
  0
LINE
  5
A582
  8
0
  6
CONTINUOUS
 62
     7
 10
649.99346987956324
 20
859.30981761738019
 30
0.0
 11
649.99346987956324
 21
847.30981761738019
 31
0.0
  0
LINE
  5
A583
  8
0
  6
CONTINUOUS
 62
     7
 10
649.99346987956324
 20
859.30981761738019
 30
0.0
 11
705.99346987956335
 21
859.30981761738019
 31
0.0
  0
LINE
  5
A584
  8
0
  6
CONTINUOUS
 62
     7
 10
513.99346987956335
 20
724.17944761738022
 30
0.0
 11
611.99346987956324
 21
720.75720761738023
 31
0.0
  0
LINE
  5
A585
  8
0
  6
CONTINUOUS
 62
     7
 10
513.99346987956335
 20
713.57184761737994
 30
0.0
 11
614.92705987956322
 21
711.33618761738023
 31
0.0
  0
LINE
  5
A586
  8
0
  6
CONTINUOUS
 62
     7
 10
513.99346987956335
 20
775.74402761738008
 30
0.0
 11
565.78923987956364
 21
775.74402761738008
 31
0.0
  0
LINE
  5
A587
  8
0
  6
CONTINUOUS
 62
     7
 10
649.99346987956324
 20
847.30981761738019
 30
0.0
 11
705.99346987956335
 21
847.30981761738019
 31
0.0
  0
LINE
  5
A588
  8
0
  6
CONTINUOUS
 62
     7
 10
601.86205987956316
 20
780.40771761738017
 30
0.0
 11
611.99339987956307
 21
772.84967761737994
 31
0.0
  0
LINE
  5
A589
  8
0
  6
CONTINUOUS
 62
     7
 10
609.84612987956325
 20
756.30615761738022
 30
0.0
 11
577.34331987956364
 21
775.74402761738008
 31
0.0
  0
LINE
  5
A58A
  8
0
  6
CONTINUOUS
 62
     7
 10
609.55968987956317
 20
750.06323761737997
 30
0.0
 11
568.14122987956364
 21
774.83301761738005
 31
0.0
  0
LINE
  5
A58B
  8
0
  6
CONTINUOUS
 62
     7
 10
614.88872987956324
 20
711.33728761738041
 30
0.0
 11
629.99346987956324
 21
710.80981761737996
 31
0.0
  0
LINE
  5
A58C
  8
0
  6
CONTINUOUS
 62
     7
 10
611.99346987956324
 20
714.31885761738022
 30
0.0
 11
611.99346987956324
 21
992.28418761738033
 31
0.0
  0
LINE
  5
A58D
  8
0
  6
CONTINUOUS
 62
     7
 10
629.99346987956324
 20
710.80981761737996
 30
0.0
 11
629.99346987956324
 21
995.80981761738042
 31
0.0
  0
LINE
  5
A58E
  8
0
  6
CONTINUOUS
 62
     7
 10
614.88866987956351
 20
995.28241761738036
 30
0.0
 11
629.99346987956324
 21
995.80987761738015
 31
0.0
  0
LINE
  5
A58F
  8
0
  6
CONTINUOUS
 62
     7
 10
619.99346987956324
 20
742.35254761737986
 30
0.0
 11
619.99346987956324
 21
964.26709761738016
 31
0.0
  0
LINE
  5
A590
  8
0
  6
CONTINUOUS
 62
     7
 10
633.99346987956324
 20
733.30981761737985
 30
0.0
 11
633.99346987956324
 21
973.30981761738019
 31
0.0
  0
LINE
  5
A591
  8
0
  6
CONTINUOUS
 62
     7
 10
629.99346987956324
 20
973.30981761738019
 30
0.0
 11
633.99346987956324
 21
973.30981761738019
 31
0.0
  0
LINE
  5
A592
  8
0
  6
CONTINUOUS
 62
     7
 10
629.99346987956324
 20
733.30981761737985
 30
0.0
 11
633.99346987956324
 21
733.30981761737985
 31
0.0
  0
LINE
  5
A593
  8
0
  6
CONTINUOUS
 62
     7
 10
609.55974987956324
 20
956.55639761737996
 30
0.0
 11
568.14122987956364
 21
931.78662761737996
 31
0.0
  0
LINE
  5
A594
  8
0
  6
CONTINUOUS
 62
     7
 10
609.84606987956363
 20
950.31347761738004
 30
0.0
 11
577.34331987956364
 21
930.87561761737993
 31
0.0
  0
LINE
  5
A595
  8
0
  6
CONTINUOUS
 62
     7
 10
601.86205987956316
 20
926.21191761738021
 30
0.0
 11
611.99346987956324
 21
933.77002761738004
 31
0.0
  0
LINE
  5
A596
  8
0
  6
CONTINUOUS
 62
     7
 10
513.99346987956335
 20
801.74530761738015
 30
0.0
 11
611.99346987956324
 21
801.74530761738015
 31
0.0
  0
ARC
  5
A597
  8
0
  6
CONTINUOUS
 62
     7
 10
502.99346987956318
 20
980.05481761738031
 30
0.0
 40
2.0
 50
91.999998000000545
 51
180.000010000001
  0
ARC
  5
A598
  8
0
  6
CONTINUOUS
 62
     7
 10
489.99346987956318
 20
967.43438761738037
 30
0.0
 40
3.0
 50
99.999999999998593
 51
180.000010000001
  0
ARC
  5
A599
  8
0
  6
CONTINUOUS
 62
     7
 10
497.99346987956318
 20
974.9375676173803
 30
0.0
 40
3.0
 50
280.00001000000123
 51
0.0
  0
ARC
  5
A59B
  8
0
  6
CONTINUOUS
 62
     7
 10
503.99339987956301
 20
989.51959761738044
 30
0.0
 40
3.0
 50
92.999999000001679
 51
180.000010000001
  0
ARC
  5
A59C
  8
0
  6
CONTINUOUS
 62
     7
 10
502.99346987956318
 20
726.56488761738024
 30
0.0
 40
2.0
 50
179.999989999999
 51
268.00000999999861
  0
ARC
  5
A59D
  8
0
  6
CONTINUOUS
 62
     7
 10
489.99346987956318
 20
739.18524761738024
 30
0.0
 40
3.0
 50
179.999989999999
 51
260.00000000000142
  0
ARC
  5
A59E
  8
0
  6
CONTINUOUS
 62
     7
 10
497.99346987956318
 20
731.68207761737995
 30
0.0
 40
3.0
 50
0.0
 51
79.999998000001099
  0
ARC
  5
A5A0
  8
0
  6
CONTINUOUS
 62
     7
 10
503.99339987956301
 20
717.10003761738005
 30
0.0
 40
3.0
 50
180.000010000001
 51
266.99999000000031
  0
ARC
  5
A5A1
  8
0
  6
CONTINUOUS
 62
     7
 10
497.9935298795632
 20
853.30981761738008
 30
0.0
 40
10.0
 50
23.57803699999776
 51
156.42196000000089
  0
ARC
  5
A5A2
  8
0
  6
CONTINUOUS
 62
     7
 10
481.49352987956348
 20
853.30981761738008
 30
0.0
 40
3.9999962
 50
90.00000299999769
 51
270.0
  0
ARC
  5
A5A3
  8
0
  6
CONTINUOUS
 62
     7
 10
514.49352987956343
 20
853.30981761738008
 30
0.0
 40
3.9999962
 50
270.0
 51
90.00000299999769
  0
ARC
  5
A5A4
  8
0
  6
CONTINUOUS
 62
     7
 10
497.9935298795632
 20
853.30981761738008
 30
0.0
 40
10.0
 50
203.57826999999861
 51
336.4217200000013
  0
ARC
  5
A5A5
  8
0
  6
CONTINUOUS
 62
     7
 10
649.99346987956324
 20
853.30981761738008
 30
0.0
 40
6.0000037999999991
 50
90.00000299999769
 51
270.0
  0
ARC
  5
A5A6
  8
0
  6
CONTINUOUS
 62
     7
 10
569.68096987956324
 20
929.21191761738044
 30
0.0
 40
3.0
 50
120.8809700000043
 51
270.0
  0
ARC
  5
A5A7
  8
0
  6
CONTINUOUS
 62
     7
 10
565.78923987956364
 20
933.87561761738004
 30
0.0
 40
3.0
 50
270.0
 51
300.88098000000019
  0
ARC
  5
A5A8
  8
0
  6
CONTINUOUS
 62
     7
 10
569.68096987956324
 20
777.40771761738006
 30
0.0
 40
3.0
 50
90.00000299999769
 51
239.11901999999989
  0
ARC
  5
A5A9
  8
0
  6
CONTINUOUS
 62
     7
 10
565.78923987956364
 20
772.74402761737986
 30
0.0
 40
3.0
 50
59.11902300000196
 51
90.00000299999769
  0
ARC
  5
A5AA
  8
0
  6
CONTINUOUS
 62
     7
 10
614.99346987956324
 20
714.33545761738037
 30
0.0
 40
3.0
 50
179.999989999999
 51
268.00000999999861
  0
ARC
  5
A5AB
  8
0
  6
CONTINUOUS
 62
     7
 10
616.99346987956324
 20
787.17541761738005
 30
0.0
 40
5.0
 50
90.00000299999769
 51
180.000010000001
  0
ARC
  5
A5AC
  8
0
  6
CONTINUOUS
 62
     7
 10
606.99346987956324
 20
745.77203761737985
 30
0.0
 40
5.0
 50
0.0
 51
59.11901699999779
  0
ARC
  5
A5AD
  8
0
  6
CONTINUOUS
 62
     7
 10
614.99346987956324
 20
992.28418761738033
 30
0.0
 40
3.0
 50
91.999998000000545
 51
180.000010000001
  0
ARC
  5
A5AE
  8
0
  6
CONTINUOUS
 62
     7
 10
616.99346987956324
 20
919.44421761738033
 30
0.0
 40
5.0
 50
179.999989999999
 51
270.0
  0
ARC
  5
A5AF
  8
0
  6
CONTINUOUS
 62
     7
 10
614.99346987956324
 20
964.26709761738016
 30
0.0
 40
5.0
 50
0.0
 51
91.999998000000545
  0
ARC
  5
A5B0
  8
0
  6
CONTINUOUS
 62
     7
 10
606.99346987956324
 20
960.84759761738007
 30
0.0
 40
5.0
 50
300.88098000000019
 51
0.0
  0
ARC
  5
A5B1
  8
0
  6
CONTINUOUS
 62
     7
 10
614.99346987956324
 20
742.35254761737986
 30
0.0
 40
5.0
 50
267.99999999999619
 51
0.0
  0
POLYLINE
  5
A5B2
  8
0
  6
CONTINUOUS
 62
     7
 66
     1
 10
0.0
 20
0.0
 30
0.0
  0
VERTEX
  5
A5B3
  8
0
  6
CONTINUOUS
 62
     7
 10
590.85770987956346
 20
904.87433761738032
 30
0.0
 42
0.030646372
  0
VERTEX
  5
A5B4
  8
0
  6
CONTINUOUS
 62
     7
 10
586.4481798795631
 20
870.5909276173802
 30
0.0
 42
0.064801293
  0
VERTEX
  5
A5B5
  8
0
  6
CONTINUOUS
 62
     7
 10
590.85770987956346
 20
801.74527761738034
 30
0.0
  0
SEQEND
  5
A5B6
  8
0
 62
     7
  0
POLYLINE
  5
A5B7
  8
0
  6
CONTINUOUS
 62
     7
 66
     1
 10
0.0
 20
0.0
 30
0.0
  0
VERTEX
  5
A5B8
  8
0
  6
CONTINUOUS
 62
     7
 10
604.33456987956322
 20
753.18783761738052
 30
0.0
 42
0.0052467582
  0
VERTEX
  5
A5B9
  8
0
  6
CONTINUOUS
 62
     7
 10
606.75478987956342
 20
746.7780076173799
 30
0.0
 42
0.0052066449
  0
VERTEX
  5
A5BA
  8
0
  6
CONTINUOUS
 62
     7
 10
609.30846987956352
 20
740.4201776173802
 30
0.0
 42
0.0051740769
  0
VERTEX
  5
A5BB
  8
0
  6
CONTINUOUS
 62
     7
 10
611.99346987956324
 20
734.11694761738022
 30
0.0
  0
SEQEND
  5
A5BC
  8
0
 62
     7
  0
POLYLINE
  5
A5BD
  8
0
  6
CONTINUOUS
 62
     7
 66
     1
 10
0.0
 20
0.0
 30
0.0
  0
VERTEX
  5
A5BE
  8
0
  6
CONTINUOUS
 62
     7
 10
611.99346987956324
 20
972.50268761737993
 30
0.0
  0
VERTEX
  5
A5BF
  8
0
  6
CONTINUOUS
 62
     7
 10
604.33463987956338
 20
953.43199761738015
 30
0.0
 42
-1.0
  0
SEQEND
  5
A5C0
  8
0
 62
     7
  0
LINE
  5
A665
  8
AM_0
 10
513.99351987956334
 20
348.04916246790827
 30
0.0
 11
513.99351987956334
 21
608.04915596030855
 31
0.0
  0
LINE
  5
A666
  8
AM_0
 10
502.92366987956319
 20
607.66255596030874
 30
0.0
 11
513.99341987956313
 21
608.04915596030855
 31
0.0
  0
LINE
  5
A667
  8
AM_0
 10
486.99356987956298
 20
363.94189505428079
 30
0.0
 11
486.99356987956298
 21
576.66850596030838
 31
0.0
  0
ARC
  5
A668
  8
AM_0
 10
482.99356987956298
 20
387.80703757730709
 30
0.0
 40
4.0
 50
0.0
 51
88.000006193419608
1001
GENIUS_GENODEF_13
1002
{
1000
HIER
1070
     0
1002
}
1002
{
1000
MANEDIT
1070
     0
1002
}
1002
{
1000
NOSEL
1070
     0
1002
}
1002
{
1000
BEHIND
1070
     0
1002
}
1002
{
1000
OTHER
1070
     0
1002
}
1002
{
1000
REACTOR
1002
}
1001
GENIUS_GENOBJ-N-FIL_13
1002
{
1000
OWNER
1000
GEN
1002
}
  0
LINE
  5
A669
  8
AM_0
 10
489.4725698795632
 20
595.12820596030917
 30
0.0
 11
498.51441987956349
 21
596.72255596030845
 31
0.0
  0
LINE
  5
A66A
  8
AM_0
 10
486.99356987956298
 20
576.66850596030838
 30
0.0
 11
486.99356987956298
 21
606.04915596030855
 31
0.0
  0
ARC
  5
A66B
  8
AM_0
 10
482.99356987956298
 20
568.29126469259961
 30
0.0
 40
4.0
 50
271.99996225375321
 51
0.0
1001
GENIUS_GENOBJ-N-FIL_13
1002
{
1000
OWNER
1000
GEN
1002
}
1001
GENIUS_GENODEF_13
1002
{
1000
HIER
1070
     0
1002
}
1002
{
1000
MANEDIT
1070
     0
1002
}
1002
{
1000
NOSEL
1070
     0
1002
}
1002
{
1000
BEHIND
1070
     0
1002
}
1002
{
1000
OTHER
1070
     0
1002
}
1002
{
1000
REACTOR
1002
}
  0
LINE
  5
A66C
  8
AM_0
 10
487.67061987956311
 20
607.54915596030855
 30
0.0
 11
502.32606987956427
 21
607.54915596030855
 31
0.0
  0
LINE
  5
A66D
  8
AM_0
 10
490.1763698795632
 20
614.54915596030878
 30
0.0
 11
505.81056987956288
 21
614.54915596030878
 31
0.0
  0
LINE
  5
A66E
  8
AM_0
 10
507.91636987956321
 20
607.83685596030898
 30
0.0
 11
506.2812198795649
 21
613.93925596030874
 31
0.0
  0
LINE
  5
A66F
  8
AM_0
 10
487.99351987956322
 20
607.54910596030879
 30
0.0
 11
489.70571987956322
 21
613.93925596030874
 31
0.0
  0
LINE
  5
A670
  8
AM_0
 10
490.49011987956362
 20
614.66380596030876
 30
0.0
 11
497.99356987956293
 21
616.04910596030879
 31
0.0
  0
LINE
  5
A671
  8
AM_0
 10
497.99351987956322
 20
616.04915596030855
 30
0.0
 11
505.49691987956379
 21
614.66380596030876
 31
0.0
  0
LINE
  5
A672
  8
AM_0
 10
500.99351987956311
 20
463.03738096030861
 30
0.0
 11
513.99351987956334
 21
463.03738096030861
 31
0.0
  0
LINE
  5
A673
  8
AM_0
 10
500.99351987956311
 20
493.06094096030859
 30
0.0
 11
513.99351987956334
 21
493.06094096030859
 31
0.0
  0
LINE
  5
A674
  8
AM_0
 10
500.99351987956311
 20
582.37345596030889
 30
0.0
 11
513.99351987956334
 21
582.37345596030889
 31
0.0
  0
LINE
  5
A675
  8
AM_0
 10
500.99351987956311
 20
600.63245596030868
 30
0.0
 11
513.99351987956334
 21
600.63245596030868
 31
0.0
  0
ARC
  5
A676
  8
AM_0
 10
502.99351987956328
 20
605.66385596030875
 30
0.0
 40
2.0000000500000001
 50
91.999997999994051
 51
180.0
  0
ARC
  5
A677
  8
AM_0
 10
489.99351987956322
 20
592.17375596030854
 30
0.0
 40
3.0000000500000001
 50
100.000000000005
 51
180.000010000001
  0
ARC
  5
A678
  8
AM_0
 10
497.99351987956322
 20
599.67690596030855
 30
0.0
 40
3.0000000500000001
 50
280.000000000005
 51
0.0
  0
ARC
  5
A679
  8
AM_0
 10
488.99351987956322
 20
606.04915596030855
 30
0.0
 40
2.0000000500000001
 50
131.4096200000055
 51
180.000010000001
  0
CIRCLE
  5
A67A
  8
AM_0
 10
497.99351987956322
 20
628.54915596030855
 30
0.0
 40
12.5
  0
ARC
  5
A67B
  8
AM_0
 10
497.99351987956322
 20
628.54915596030855
 30
0.0
 40
20.500000500000009
 50
304.61363999998792
 51
235.3863500000021
  0
ARC
  5
A67C
  8
AM_0
 10
511.91041987956351
 20
608.38565596030878
 30
0.0
 40
4.000000049999997
 50
124.6136499999979
 51
187.86822000001541
  0
ARC
  5
A67D
  8
AM_0
 10
484.07651987956291
 20
608.38565596030878
 30
0.0
 40
4.000000049999997
 50
347.9293300000017
 51
55.386359000034062
  0
ARC
  5
A67E
  8
AM_0
 10
490.67166987956301
 20
613.6804059603088
 30
0.0
 40
1.0
 50
100.4607199999833
 51
164.99998999998439
  0
ARC
  5
A67F
  8
AM_0
 10
505.31541987956308
 20
613.6804059603088
 30
0.0
 40
1.0
 50
14.999999999994451
 51
79.539281000009595
  0
LINE
  5
A680
  8
AM_0
 10
502.92366987956319
 20
348.43576596030869
 30
0.0
 11
513.99351987956334
 21
348.04916246790827
 31
0.0
  0
LINE
  5
A681
  8
AM_0
 10
500.99351982956318
 20
605.66385596030875
 30
0.0
 11
500.99351987956311
 21
350.43446596030878
 31
0.0
  0
LINE
  5
A682
  8
AM_0
 10
489.4725698795632
 20
360.97011596030842
 30
0.0
 11
498.51441987956349
 21
359.37576596030902
 31
0.0
  0
LINE
  5
A683
  8
AM_0
 10
500.99351987956311
 20
355.46586596030858
 30
0.0
 11
513.99351987956334
 21
355.46586596030858
 31
0.0
  0
ARC
  5
A684
  8
AM_0
 10
502.99351987956328
 20
350.43446596030878
 30
0.0
 40
2.0000000500000001
 50
179.999989999999
 51
268.00000200000591
  0
ARC
  5
A685
  8
AM_0
 10
489.99351987956322
 20
363.924565960309
 30
0.0
 40
3.0000000500000001
 50
179.6690368492057
 51
259.999999999995
  0
ARC
  5
A686
  8
AM_0
 10
497.99351987956322
 20
356.42141596030899
 30
0.0
 40
3.0000000500000001
 50
0.0
 51
79.999999999994984
  0
LINE
  5
A687
  8
AM_0
 10
649.99346987956324
 20
540.04916096030854
 30
0.0
 11
705.99346987956335
 21
540.04916096030854
 31
0.0
  0
LINE
  5
A688
  8
AM_0
 10
649.99346987956324
 20
540.04916096030854
 30
0.0
 11
649.99346987956324
 21
537.04916096030854
 31
0.0
  0
LINE
  5
A689
  8
AM_0
 10
705.99346987956335
 20
495.04916096030848
 30
0.0
 11
705.99346987956335
 21
540.04916096030854
 31
0.0
  0
LINE
  5
A68A
  8
AM_0
 10
635.99346987956324
 20
493.54916096030848
 30
0.0
 11
635.99346987956324
 21
538.54916096030854
 31
0.0
  0
LINE
  5
A68B
  8
AM_0
 10
635.99346987956324
 20
495.04916096030848
 30
0.0
 11
705.99346987956335
 21
495.04916096030848
 31
0.0
  0
LINE
  5
A68C
  8
AM_0
 10
635.99346987956324
 20
537.04916096030854
 30
0.0
 11
705.99346987956335
 21
537.04916096030854
 31
0.0
  0
LINE
  5
A68D
  8
AM_0
 10
573.72211987956325
 20
346.48510096030861
 30
0.0
 11
619.99351987956345
 21
373.19994596030881
 31
0.0
  0
LINE
  5
A68E
  8
AM_0
 10
513.99351987956334
 20
608.04918596030848
 30
0.0
 11
583.88176987956354
 21
609.87923596030873
 31
0.0
  0
LINE
  5
A68F
  8
AM_0
 10
611.99351987956322
 20
376.02718596030837
 30
0.0
 11
611.99351987956322
 21
424.54229096030849
 31
0.0
  0
LINE
  5
A690
  8
AM_0
 10
513.99351987956322
 20
356.33187096030849
 30
0.0
 11
590.77716987956342
 21
356.33187096030849
 31
0.0
  0
LINE
  5
A691
  8
AM_0
 10
513.99351987956322
 20
370.7886909603086
 30
0.0
 11
615.81701987956308
 21
370.7886909603086
 31
0.0
  0
LINE
  5
A692
  8
AM_0
 10
615.0982198795632
 20
373.02898596030838
 30
0.0
 11
629.99351987956345
 21
373.54915596030872
 31
0.0
  0
LINE
  5
A693
  8
AM_0
 10
633.99351987956322
 20
516.04916096030854
 30
0.0
 11
633.99351987956322
 21
396.04915596030872
 31
0.0
  0
LINE
  5
A694
  8
AM_0
 10
513.99351987956334
 20
468.0681409603086
 30
0.0
 11
619.99346987956324
 21
468.0681409603086
 31
0.0
  0
LINE
  5
A695
  8
AM_0
 10
611.99351987956322
 20
537.53600596030844
 30
0.0
 11
611.99351987956322
 21
655.02348596030868
 31
0.0
  0
LINE
  5
A696
  8
AM_0
 10
629.99346987956324
 20
373.54915596030872
 30
0.0
 11
629.99346987956324
 21
658.54913596030872
 31
0.0
  0
LINE
  5
A697
  8
AM_0
 10
614.88881987956324
 20
658.02173596030866
 30
0.0
 11
629.99351987956345
 21
658.54918596030871
 31
0.0
  0
LINE
  5
A698
  8
AM_0
 10
587.20121987956327
 20
605.92453596030862
 30
0.0
 11
585.87581987956321
 21
609.93153596030845
 31
0.0
  0
LINE
  5
A699
  8
AM_0
 10
610.85901987956311
 20
534.40212596030858
 30
0.0
 11
594.60606987956317
 21
583.5381459603085
 31
0.0
  0
LINE
  5
A69A
  8
AM_0
 10
513.99351987956334
 20
585.30966096030841
 30
0.0
 11
563.05501987956325
 21
585.30966096030841
 31
0.0
  0
LINE
  5
A69B
  8
AM_0
 10
513.99351987956322
 20
599.76644596030872
 30
0.0
 11
576.90406987956339
 21
599.76644596030872
 31
0.0
  0
LINE
  5
A69C
  8
AM_0
 10
619.99346987956324
 20
516.04916096030854
 30
0.0
 11
619.99346987956324
 21
627.00648596030874
 31
0.0
  0
LINE
  5
A69D
  8
AM_0
 10
633.99351987956322
 20
516.04916096030854
 30
0.0
 11
633.99351987956322
 21
636.04913596030872
 31
0.0
  0
LINE
  5
A69E
  8
AM_0
 10
513.99346987956335
 20
348.0491709603088
 30
0.0
 11
573.72206987956315
 21
346.48513096030848
 31
0.0
  0
LINE
  5
A69F
  8
AM_0
 10
629.99346987956324
 20
396.04915596030872
 30
0.0
 11
633.99351987956322
 21
396.04915596030872
 31
0.0
  0
LINE
  5
A6A0
  8
AM_0
 10
619.99346987956324
 20
516.04916096030854
 30
0.0
 11
619.99346987956324
 21
405.0918509603087
 31
0.0
  0
LINE
  5
A6A1
  8
AM_0
 10
513.99351987956334
 20
488.03014596030869
 30
0.0
 11
619.99346987956324
 21
488.03014596030869
 31
0.0
  0
LINE
  5
A6A2
  8
AM_0
 10
615.60606987956317
 20
530.97231596030849
 30
0.0
 11
619.99346987956324
 21
530.97231596030849
 31
0.0
  0
LINE
  5
A6A3
  8
AM_0
 10
629.99346987956324
 20
636.04913596030872
 30
0.0
 11
633.99351987956322
 21
636.04913596030872
 31
0.0
  0
LINE
  5
A6A4
  8
AM_0
 10
587.28636987956315
 20
611.34198596030853
 30
0.0
 11
610.5291198795635
 21
634.58463596030845
 31
0.0
  0
LINE
  5
A6A5
  8
AM_0
 10
541.99351987956334
 20
414.68719096030861
 30
0.0
 11
611.99351987956322
 21
414.68719096030861
 31
0.0
  0
LINE
  5
A6A6
  8
AM_0
 10
541.99351987956334
 20
395.24489596030878
 30
0.0
 11
611.99351987956322
 21
395.24489596030878
 31
0.0
  0
LINE
  5
A6A7
  8
AM_0
 10
541.99351987956334
 20
397.09154596030868
 30
0.0
 11
541.99351987956334
 21
413.19155096030852
 31
0.0
  0
LINE
  5
A6A8
  8
AM_0
 10
565.49351987956322
 20
583.53808096030866
 30
0.0
 11
592.94656987956341
 21
583.53808096030866
 31
0.0
  0
LINE
  5
A6A9
  8
AM_0
 10
595.9362698795635
 20
584.53045096030871
 30
0.0
 11
611.99351987956322
 21
596.50927596030863
 31
0.0
  0
LINE
  5
A6AA
  8
AM_0
 10
609.55981987956318
 20
619.29578596030876
 30
0.0
 11
572.50091987956307
 21
597.13317596030811
 31
0.0
  0
LINE
  5
A6AB
  8
AM_0
 10
609.84621987956325
 20
613.05278596030871
 30
0.0
 11
568.08816987956345
 21
588.07995096030879
 31
0.0
  0
LINE
  5
A6AC
  8
AM_0
 10
633.99351987956322
 20
493.54916096030848
 30
0.0
 11
635.99346987956324
 21
493.54916096030848
 31
0.0
  0
LINE
  5
A6AD
  8
AM_0
 10
633.99351987956322
 20
538.54916096030854
 30
0.0
 11
635.99346987956324
 21
538.54916096030854
 31
0.0
  0
ARC
  5
A6AE
  8
AM_0
 10
583.75081987956355
 20
614.87753596030825
 30
0.0
 40
5.0
 50
271.50000000000267
 51
315.00000000000921
  0
ARC
  5
A6AF
  8
AM_0
 10
615.60606987956317
 20
535.97231596030849
 30
0.0
 40
5.0
 50
198.30292000000651
 51
270.0
  0
ARC
  5
A6B0
  8
AM_0
 10
614.99346987956324
 20
655.02348596030868
 30
0.0
 40
3.0000000500000001
 50
91.999997999994051
 51
180.000010000001
  0
ARC
  5
A6B1
  8
AM_0
 10
614.99346987956324
 20
376.02718596030837
 30
0.0
 40
3.0000000500000001
 50
179.999989999999
 51
271.9999899999948
  0
ARC
  5
A6B2
  8
AM_0
 10
606.99351987956322
 20
638.12023596030861
 30
0.0
 40
5.0
 50
315.00000000000921
 51
0.0
  0
ARC
  5
A6B3
  8
AM_0
 10
614.99346987956324
 20
627.00648596030874
 30
0.0
 40
5.0
 50
0.0
 51
91.999997999994051
  0
ARC
  5
A6B4
  8
AM_0
 10
616.99351987956322
 20
424.54229096030849
 30
0.0
 40
5.0
 50
90.00000299999769
 51
180.000010000001
  0
ARC
  5
A6B5
  8
AM_0
 10
614.99346987956324
 20
405.0918509603087
 30
0.0
 40
5.0
 50
267.99999999999619
 51
0.0
  0
ARC
  5
A6B6
  8
AM_0
 10
541.99351987956334
 20
404.96602596030851
 30
0.0
 40
9.7211409999999994
 50
90.00000299999769
 51
270.0
  0
ARC
  5
A6B7
  8
AM_0
 10
592.94656987956341
 20
588.53808096030878
 30
0.0
 40
5.0
 50
270.0
 51
306.72320999998919
  0
ARC
  5
A6B8
  8
AM_0
 10
565.49351987956322
 20
588.53808096030878
 30
0.0
 40
5.0
 50
229.7633299999992
 51
270.0
  0
ARC
  5
A6B9
  8
AM_0
 10
544.19331987956321
 20
609.84428596030864
 30
0.0
 40
30.946884499999999
 50
307.5523099999902
 51
335.59613000000491
  0
ARC
  5
A6BA
  8
AM_0
 10
606.99351987956322
 20
623.58698596030888
 30
0.0
 40
5.0
 50
300.8809799999911
 51
0.0
  0
LINE
  5
A751
  8
AM_0
 10
961.66404816887257
 20
532.04916096030854
 30
0.0
 11
973.66404816887234
 21
532.04916096030854
 31
0.0
  0
LINE
  5
A752
  8
AM_0
 10
973.66404816887234
 20
540.04916096030854
 30
0.0
 11
973.66404816887234
 21
532.04916096030854
 31
0.0
  0
LINE
  5
A753
  8
AM_0
 10
961.66404816887257
 20
540.04916096030854
 30
0.0
 11
961.66404816887257
 21
532.04916096030854
 31
0.0
  0
LINE
  5
A754
  8
AM_0
 10
961.66404816887257
 20
540.04916096030854
 30
0.0
 11
973.66404816887234
 21
540.04916096030854
 31
0.0
  0
LINE
  5
A755
  8
AM_0
 10
893.00477316887248
 20
362.8776509603083
 30
0.0
 11
889.88544816887236
 21
374.51919096030849
 31
0.0
  0
LINE
  5
A756
  8
AM_0
 10
1030.0758231688719
 20
355.80660596030867
 30
0.0
 11
1019.228593168872
 21
358.7131109603086
 31
0.0
  0
LINE
  5
A757
  8
AM_0
 10
905.25224316887272
 20
355.80658596030878
 30
0.0
 11
916.09943816887233
 21
358.71309596030858
 31
0.0
  0
LINE
  5
A758
  8
AM_0
 10
1042.3232881688721
 20
362.8776509603083
 30
0.0
 11
1045.442613168872
 21
374.51919096030849
 31
0.0
  0
LINE
  5
A759
  8
AM_0
 10
1073.1865381688719
 20
488.04916096030848
 30
0.0
 11
1037.664078168872
 21
488.04916096030848
 31
0.0
  0
LINE
  5
A75A
  8
0
  6
AM_ISO08W050
 10
1099.135993423298
 20
647.52111658803722
 30
0.0
 11
1075.8307299755959
 21
624.21583108482423
 31
0.0
  0
LINE
  5
A75B
  8
AM_0
 10
1107.6611931688719
 20
637.72108596030864
 30
0.0
 11
1110.164033168872
 21
566.04919096030881
 31
0.0
  0
LINE
  5
A75C
  8
AM_0
 10
1089.3358781688719
 20
656.04633596030851
 30
0.0
 11
1017.664078168872
 21
658.54918596030871
 31
0.0
  0
LINE
  5
A75D
  8
AM_0
 10
1017.664078168872
 20
658.54913596030872
 30
0.0
 11
967.66407816887227
 21
658.54913596030872
 31
0.0
  0
LINE
  5
A75E
  8
AM_0
 10
1110.1640481688719
 20
566.04916096030854
 30
0.0
 11
1110.1640481688719
 21
516.04916096030854
 31
0.0
  0
LINE
  5
A75F
  8
AM_0
 10
917.66407816887227
 20
658.54913596030872
 30
0.0
 11
967.66407816887227
 21
658.54913596030872
 31
0.0
  0
LINE
  5
A760
  8
AM_0
 10
862.14155316887252
 20
488.04916096030848
 30
0.0
 11
897.66407816887249
 21
488.04916096030848
 31
0.0
  0
LINE
  5
A761
  8
AM_0
 10
964.16404816887234
 20
623.71408596030847
 30
0.0
 11
964.16404816887234
 21
604.76438596030823
 31
0.0
  0
LINE
  5
A762
  8
AM_0
 10
971.16404816887234
 20
623.71408596030847
 30
0.0
 11
971.16404816887234
 21
604.76438596030823
 31
0.0
  0
LINE
  5
A763
  8
AM_0
 10
1040.1679831688721
 20
595.62414096030864
 30
0.0
 11
1010.974013168872
 21
566.4301709603086
 31
0.0
  0
LINE
  5
A764
  8
AM_0
 10
905.66404316887235
 20
516.04916096030854
 30
0.0
 11
905.66404316887235
 21
496.04916096030848
 31
0.0
  0
LINE
  5
A765
  8
AM_0
 10
1017.664078168872
 20
373.54915596030872
 30
0.0
 11
967.66407816887227
 21
373.54915596030872
 31
0.0
  0
LINE
  5
A766
  8
AM_0
 10
845.99222816887254
 20
656.0463859603085
 30
0.0
 11
917.66407816887227
 21
658.54918596030871
 31
0.0
  0
LINE
  5
A767
  8
AM_0
 10
827.66688816887222
 20
637.72098596030867
 30
0.0
 11
825.16403816887259
 21
566.04913096030862
 31
0.0
  0
LINE
  5
A768
  8
0
  6
AM_ISO08W050
 10
1099.414886586708
 20
384.29831848336028
 30
0.0
 11
1074.9639373644179
 21
408.74927108671432
 31
0.0
  0
LINE
  5
A769
  8
AM_0
 10
1110.1640481688719
 20
466.04916096030848
 30
0.0
 11
1110.1640481688719
 21
516.04916096030854
 31
0.0
  0
LINE
  5
A76A
  8
AM_0
 10
1107.6612081688729
 20
394.37734596030839
 30
0.0
 11
1110.1640481688719
 21
466.04916096030848
 31
0.0
  0
LINE
  5
A76B
  8
AM_0
 10
1089.335863168872
 20
376.05199596030877
 30
0.0
 11
1017.664048168872
 21
373.54915596030872
 31
0.0
  0
LINE
  5
A76C
  8
AM_0
 10
827.66688816887222
 20
394.37734596030839
 30
0.0
 11
825.16403816887259
 21
466.04919096030869
 31
0.0
  0
LINE
  5
A76D
  8
AM_0
 10
845.99222816887254
 20
376.05199596030877
 30
0.0
 11
917.66407816887227
 21
373.54918596030859
 31
0.0
  0
LINE
  5
A76E
  8
AM_0
 10
917.66407816887227
 20
373.54915596030872
 30
0.0
 11
967.66407816887227
 21
373.54915596030872
 31
0.0
  0
LINE
  5
A76F
  8
AM_0
 10
825.16403816887259
 20
566.04916096030854
 30
0.0
 11
825.16403816887259
 21
466.04916096030848
 31
0.0
  0
LINE
  5
A770
  8
0
  6
AM_ISO08W050
 10
836.93504256148515
 20
385.32012919250872
 30
0.0
 11
859.12322986374727
 21
407.50831328005899
 31
0.0
  0
LINE
  5
A771
  8
0
  6
AM_ISO08W050
 10
836.36583093531817
 20
647.34739409276904
 30
0.0
 11
860.12807107609785
 21
623.58515738442475
 31
0.0
  0
LINE
  5
A772
  8
AM_0
 10
888.08906316887271
 20
588.55309596030861
 30
0.0
 11
917.28303316887229
 21
559.35912596030835
 31
0.0
  0
LINE
  5
A773
  8
0
  6
AM_ISO08W050
 10
819.47303852203595
 20
516.04916096030854
 30
0.0
 11
1115.5787505230669
 21
516.04916096030854
 31
0.0
  0
LINE
  5
A774
  8
AM_0
 10
1047.2390581688719
 20
588.55306596030857
 30
0.0
 11
1018.045088168872
 21
559.35909596030865
 31
0.0
  0
LINE
  5
A775
  8
AM_0
 10
895.16013816887255
 20
595.62414096030864
 30
0.0
 11
924.35410816887224
 21
566.4301709603086
 31
0.0
  0
LINE
  5
A776
  8
AM_0
 10
1029.6640481688719
 20
516.04916096030854
 30
0.0
 11
1029.6640481688719
 21
496.04916096030848
 31
0.0
  0
LINE
  5
A777
  8
0
  6
AM_ISO08W050
 10
967.66407816887227
 20
663.70192697617267
 30
0.0
 11
967.66407816887227
 21
340.07956596030851
 31
0.0
  0
ARC
  5
A778
  8
AM_0
 10
967.66407816887227
 20
516.04916096030854
 30
0.0
 40
20.9999985
 50
106.6015499999925
 51
73.398451999991579
  0
CIRCLE
  5
A779
  8
0
  6
AM_ISO08W050
 10
967.66407816887227
 20
516.04916096030854
 30
0.0
 40
5.0
  0
ARC
  5
A77A
  8
AM_0
 10
1032.664078168872
 20
365.46584596030868
 30
0.0
 40
10.0
 50
255.0000000000056
 51
345.00000000000563
  0
ARC
  5
A77B
  8
AM_0
 10
967.66407816887227
 20
478.04916096030848
 30
0.0
 40
130.0
 50
246.63104000000291
 51
293.368959999997
  0
ARC
  5
A77C
  8
AM_0
 10
976.16404816887268
 20
604.76438596030823
 30
0.0
 40
5.0
 50
179.999989999999
 51
266.16235999999441
  0
ARC
  5
A77D
  8
AM_0
 10
902.66407816887238
 20
365.46584596030868
 30
0.0
 40
10.0
 50
195.0000100000029
 51
284.99999999999437
  0
ARC
  5
A77E
  8
AM_0
 10
1073.1865381688719
 20
493.04916096030848
 30
0.0
 40
5.0
 50
270.0
 51
347.70394999999132
  0
ARC
  5
A77F
  8
AM_0
 10
862.14155316887252
 20
493.04916096030848
 30
0.0
 40
5.0
 50
192.2960399999989
 51
270.0
  0
ARC
  5
A780
  8
0
  6
AM_ISO08W050
 10
967.66407816886272
 20
516.04916096029797
 30
0.0
 40
170.0000050000142
 50
38.991545983649083
 51
51.014604000000709
  0
ARC
  5
A781
  8
AM_0
 10
1088.672793168872
 20
637.05793596030867
 30
0.0
 40
19.000000499999999
 50
2.000000000003725
 51
88.000000000009294
  0
CIRCLE
  5
A782
  8
AM_0
 10
1087.8721931688719
 20
636.25733596030875
 30
0.0
 40
9.5
  0
ARC
  5
A783
  8
0
  6
AM_ISO08W050
 10
967.66407816886931
 20
516.04916096030581
 30
0.0
 40
170.00000499999581
 50
218.54277431075971
 51
231.01461
  0
ARC
  5
A784
  8
AM_0
 10
967.66407816887227
 20
478.04916096030848
 30
0.0
 40
122.0
 50
60.143059999996296
 51
86.162372000003458
  0
ARC
  5
A785
  8
AM_0
 10
967.66407816887227
 20
478.04916096030848
 30
0.0
 40
122.0
 50
124.67318000000169
 51
157.42801999999091
  0
ARC
  5
A786
  8
AM_0
 10
1036.6324631688731
 20
599.1596959603088
 30
0.0
 40
5.0
 50
314.99999999999079
 51
50.312775000004699
  0
ARC
  5
A787
  8
AM_0
 10
959.16404816887257
 20
604.76438596030823
 30
0.0
 40
5.0
 50
273.83763000000238
 51
0.0
  0
ARC
  5
A788
  8
AM_0
 10
959.16404816887257
 20
623.71408596030847
 30
0.0
 40
5.0
 50
0.0
 51
94.514060999993376
  0
ARC
  5
A789
  8
AM_0
 10
976.16404816887268
 20
623.71408596030847
 30
0.0
 40
5.0
 50
85.485944000000956
 51
180.000010000001
  0
ARC
  5
A78A
  8
AM_0
 10
967.66407816887227
 20
478.04916096030848
 30
0.0
 40
122.0
 50
22.571981999999579
 51
55.326819999998243
  0
ARC
  5
A78B
  8
AM_0
 10
1007.438463168872
 20
569.96572596030853
 30
0.0
 40
5.0
 50
233.58368000000169
 51
314.99999999999079
  0
ARC
  5
A78C
  8
AM_0
 10
1050.7745831688719
 20
585.01754596030855
 30
0.0
 40
5.0
 50
39.687224000006218
 51
134.99999999999079
  0
ARC
  5
A78D
  8
AM_0
 10
967.66407816887227
 20
516.04916096030854
 30
0.0
 40
61.999994999999998
 50
142.1149900000031
 51
180.000010000001
  0
ARC
  5
A78E
  8
AM_0
 10
967.66407816887227
 20
516.04916096030854
 30
0.0
 40
61.999994999999998
 50
53.583681000004447
 51
126.41631999999829
  0
CIRCLE
  5
A78F
  8
AM_0
 10
1087.8721931688719
 20
395.84102596030868
 30
0.0
 40
9.5
  0
ARC
  5
A790
  8
AM_0
 10
1088.672793168872
 20
395.04043096030853
 30
0.0
 40
19.000000499999999
 50
271.99999999999068
 51
357.99999999999642
  0
ARC
  5
A791
  8
AM_0
 10
846.65531816887255
 20
395.04043096030853
 30
0.0
 40
19.000000499999999
 50
182.00000000000369
 51
267.99999999999619
  0
ARC
  5
A792
  8
AM_0
 10
1037.664078168872
 20
496.04916096030848
 30
0.0
 40
8.0
 50
179.999989999999
 51
270.0
  0
CIRCLE
  5
A793
  8
0
  6
AM_ISO08W050
 10
847.45588316887245
 20
395.84102596030868
 30
0.0
 40
9.5
  0
CIRCLE
  5
A794
  8
AM_0
 10
847.45588316887245
 20
636.25733596030875
 30
0.0
 40
9.5
  0
ARC
  5
A795
  8
AM_0
 10
846.65531816887255
 20
637.05793596030867
 30
0.0
 40
19.000000499999999
 50
91.999997999994051
 51
177.99999999999619
  0
ARC
  5
A796
  8
0
  6
AM_ISO08W050
 10
967.66407816886931
 20
516.04916096031218
 30
0.0
 40
170.00000499999501
 50
125.6391299063132
 51
141.01461
  0
ARC
  5
A797
  8
AM_0
 10
967.66407816887227
 20
516.04916096030854
 30
0.0
 40
61.999994999999998
 50
0.0
 51
36.416318000000537
  0
ARC
  5
A798
  8
AM_0
 10
927.88963316887236
 20
569.96572596030853
 30
0.0
 40
5.0
 50
225.00000000000921
 51
306.41631999999828
  0
ARC
  5
A799
  8
AM_0
 10
913.74751316887239
 20
555.82357596030863
 30
0.0
 40
5.0
 50
323.58368000000172
 51
45.000001000013
  0
ARC
  5
A79A
  8
AM_0
 10
884.55350816887255
 20
585.01754596030855
 30
0.0
 40
5.0
 50
45.000001000013
 51
140.31278000000339
  0
ARC
  5
A79B
  8
AM_0
 10
898.69566316887267
 20
599.1596959603088
 30
0.0
 40
5.0
 50
129.6872199999965
 51
225.00000000000921
  0
CIRCLE
  5
A79C
  8
AM_0
 10
967.66407816887227
 20
516.04916096030854
 30
0.0
 40
46.999997
  0
ARC
  5
A79D
  8
AM_0
 10
1021.580613168872
 20
555.82357596030863
 30
0.0
 40
5.0
 50
134.99999999999079
 51
216.41631999999831
  0
ARC
  5
A79E
  8
0
  6
AM_ISO08W050
 10
967.66407816887136
 20
516.04916096031025
 30
0.0
 40
170.0000050000024
 50
306.28545220167109
 51
321.01461
  0
ARC
  5
A79F
  8
AM_0
 10
897.66407816887249
 20
496.04916096030848
 30
0.0
 40
8.0
 50
270.0
 51
0.0
  0
ARC
  5
A7A0
  8
AM_0
 10
967.66407816887227
 20
478.04916096030922
 30
0.0
 40
122.0
 50
93.837626000003709
 51
119.8569400000037
  0
CIRCLE
  5
A7A4
  8
AM_0
 10
967.66407816887227
 20
516.04916096030854
 30
0.0
 40
2.75000007
  0
CIRCLE
  5
A7A5
  8
0
 10
967.66407816887227
 20
515.87160452657633
 30
0.0
 40
112.91154437468219
  0
CIRCLE
  5
A7A6
  8
0
 10
967.66407816887227
 20
515.87160452657633
 30
0.0
 40
119.90988445334681
  0
TEXT
  5
AA15
  8
0
  6
CONTINUOUS
 62
     0
 10
822.77406008209346
 20
840.1176989859232
 30
0.0
 40
15.0
  1
VX15-060EBF~VX15-100EBF
  0
ENDSEC
  0
EOF
