  0
SECTION
  2
HEADER
  9
$ACADVER
  1
AC1009
  9
$INSBASE
 10
0.0
 20
0.0
 30
0.0
  9
$EXTMIN
 10
130.40741373179341
 20
363.59727580260142
 30
-0.0000000000112498
  9
$EXTMAX
 10
1151.1145436961731
 20
1026.6985596127461
 30
0.0000000000002956
  9
$LIMMIN
 10
0.0000005999945643
 20
-0.0000005963913736
  9
$LIMMAX
 10
1422.5000005999941
 20
924.99999940360874
  9
$ORTHOMODE
 70
     0
  9
$REGENMODE
 70
     1
  9
$FILLMODE
 70
     1
  9
$QTEXTMODE
 70
     0
  9
$MIRRTEXT
 70
     0
  9
$DRAGMODE
 70
     2
  9
$LTSCALE
 40
1.0
  9
$OSMODE
 70
   551
  9
$ATTMODE
 70
     1
  9
$TEXTSIZE
 40
2.5
  9
$TRACEWID
 40
1.0
  9
$TEXTSTYLE
  7
STANDARD
  9
$CLAYER
  8
0
  9
$CELTYPE
  6
BYLAYER
  9
$CECOLOR
 62
   256
  9
$DIMSCALE
 40
1.0
  9
$DIMASZ
 40
2.0
  9
$DIMEXO
 40
1.0
  9
$DIMDLI
 40
8.0
  9
$DIMRND
 40
0.0
  9
$DIMDLE
 40
0.0
  9
$DIMEXE
 40
1.0
  9
$DIMTP
 40
-0.025
  9
$DIMTM
 40
0.043
  9
$DIMTXT
 40
2.5
  9
$DIMCEN
 40
0.0
  9
$DIMTSZ
 40
0.0
  9
$DIMTOL
 70
     0
  9
$DIMLIM
 70
     0
  9
$DIMTIH
 70
     0
  9
$DIMTOH
 70
     0
  9
$DIMSE1
 70
     0
  9
$DIMSE2
 70
     0
  9
$DIMTAD
 70
     3
  9
$DIMZIN
 70
     8
  9
$DIMBLK
  1

  9
$DIMASO
 70
     1
  9
$DIMSHO
 70
     1
  9
$DIMPOST
  1

  9
$DIMAPOST
  1
"
  9
$DIMALT
 70
     0
  9
$DIMALTD
 70
     2
  9
$DIMALTF
 40
0.0393701
  9
$DIMLFAC
 40
1.0
  9
$DIMTOFL
 70
     1
  9
$DIMTVP
 40
0.0
  9
$DIMTIX
 70
     0
  9
$DIMSOXD
 70
     0
  9
$DIMSAH
 70
     0
  9
$DIMBLK1
  1

  9
$DIMBLK2
  1

  9
$DIMSTYLE
  2
AM_JIS
  9
$DIMCLRD
 70
     2
  9
$DIMCLRE
 70
     2
  9
$DIMCLRT
 70
     4
  9
$DIMTFAC
 40
0.71
  9
$DIMGAP
 40
1.5
  9
$LUNITS
 70
     2
  9
$LUPREC
 70
     2
  9
$SKETCHINC
 40
1.0
  9
$FILLETRAD
 40
0.0
  9
$AUNITS
 70
     0
  9
$AUPREC
 70
     0
  9
$MENU
  1
.
  9
$ELEVATION
 40
0.0
  9
$PELEVATION
 40
0.0
  9
$THICKNESS
 40
0.0
  9
$LIMCHECK
 70
     0
  9
$BLIPMODE
 70
     0
  9
$CHAMFERA
 40
2.5
  9
$CHAMFERB
 40
2.5
  9
$SKPOLY
 70
     0
  9
$TDCREATE
 40
2456829.3841110538
  9
$TDUPDATE
 40
2458541.3898537038
  9
$TDINDWG
 40
0.6283271991
  9
$TDUSRTIMER
 40
0.6283266204
  9
$USRTIMER
 70
     1
  9
$ANGBASE
 50
0.0
  9
$ANGDIR
 70
     0
  9
$PDMODE
 70
     0
  9
$PDSIZE
 40
0.0
  9
$PLINEWID
 40
0.0
  9
$COORDS
 70
     1
  9
$SPLFRAME
 70
     0
  9
$SPLINETYPE
 70
     6
  9
$SPLINESEGS
 70
     8
  9
$ATTDIA
 70
     1
  9
$ATTREQ
 70
     1
  9
$HANDLING
 70
     1
  9
$HANDSEED
  5
D01B
  9
$SURFTAB1
 70
     6
  9
$SURFTAB2
 70
     6
  9
$SURFTYPE
 70
     6
  9
$SURFU
 70
     6
  9
$SURFV
 70
     6
  9
$UCSNAME
  2

  9
$UCSORG
 10
0.0
 20
0.0
 30
0.0
  9
$UCSXDIR
 10
1.0
 20
0.0
 30
0.0
  9
$UCSYDIR
 10
0.0
 20
1.0
 30
0.0
  9
$PUCSNAME
  2

  9
$PUCSORG
 10
0.0
 20
0.0
 30
0.0
  9
$PUCSXDIR
 10
1.0
 20
0.0
 30
0.0
  9
$PUCSYDIR
 10
0.0
 20
1.0
 30
0.0
  9
$USERI1
 70
     0
  9
$USERI2
 70
     0
  9
$USERI3
 70
     0
  9
$USERI4
 70
     0
  9
$USERI5
 70
     0
  9
$USERR1
 40
0.0
  9
$USERR2
 40
0.0
  9
$USERR3
 40
0.0
  9
$USERR4
 40
0.0
  9
$USERR5
 40
0.0
  9
$WORLDVIEW
 70
     1
  9
$SHADEDGE
 70
     3
  9
$SHADEDIF
 70
    70
  9
$TILEMODE
 70
     1
  9
$MAXACTVP
 70
    64
  9
$PLIMCHECK
 70
     0
  9
$PEXTMIN
 10
1.0000000000000000E+020
 20
1.0000000000000000E+020
 30
1.0000000000000000E+020
  9
$PEXTMAX
 10
-1.0000000000000000E+020
 20
-1.0000000000000000E+020
 30
-1.0000000000000000E+020
  9
$PLIMMIN
 10
0.0
 20
0.0
  9
$PLIMMAX
 10
420.0
 20
297.0
  9
$UNITMODE
 70
     0
  9
$VISRETAIN
 70
     1
  9
$PLINEGEN
 70
     0
  9
$PSLTSCALE
 70
     1
  0
ENDSEC
  0
SECTION
  2
TABLES
  0
TABLE
  2
VPORT
 70
     1
  0
VPORT
  2
*ACTIVE
 70
     0
 10
0.0
 20
0.0
 11
1.0
 21
1.0
 12
640.76097871398338
 22
695.14791770767386
 13
0.0
 23
0.0
 14
12.5
 24
12.5
 15
50.0
 25
50.0
 16
0.0
 26
0.0
 36
1.0
 17
0.0
 27
0.0
 37
0.0
 40
667.65346653653069
 41
1.757159221076747
 42
50.0
 43
0.0
 44
0.0
 50
0.0
 51
0.0
 71
     0
 72
  1000
 73
     1
 74
     3
 75
     0
 76
     0
 77
     0
 78
     0
  0
ENDTAB
  0
TABLE
  2
LTYPE
 70
    25
  0
LTYPE
  2
CONTINUOUS
 70
     0
  3
Solid line
 72
    65
 73
     0
 40
0.0
  0
LTYPE
  2
CENTER
 70
     0
  3
Center ____ _ ____ _ ____ _ ____ _ ____ _ ____
 72
    65
 73
     4
 40
50.799999999999997
 49
31.75
 49
-6.3499999999999979
 49
6.3499999999999979
 49
-6.3499999999999979
  0
LTYPE
  2
AM_ISO02W050
 70
     0
  3
__ __ __ __ __ __ __ __ __ __ __ __ __ __ __
 72
    65
 73
     2
 40
7.5
 49
6.0
 49
-1.5
  0
LTYPE
  2
AM_ISO08W050
 70
     0
  3
____ . ____ . ____ . ____ . ____ . ____ . ____
 72
    65
 73
     4
 40
18.0
 49
12.0
 49
-1.5
 49
3.0
 49
-1.5
  0
LTYPE
  2
AM_ISO09W050
 70
     0
  3
_____ . . _____ . . _____ . . ____ .. ____
 72
    65
 73
     6
 40
22.5
 49
12.0
 49
-1.5
 49
3.0
 49
-1.5
 49
3.0
 49
-1.5
  0
LTYPE
  2
AMCONSTR
 70
     0
  3
_______________________
 72
    65
 73
     2
 40
9999.0
 49
9999.0
 49
0.0
  0
LTYPE
  2
AM_ISO08W050X2
 70
     0
  3
__ . __ . __ . __ . __ . __
 72
    65
 73
     4
 40
9.0
 49
6.0
 49
-0.75
 49
1.5
 49
-0.75
  0
LTYPE
  2
AM_ISO02W050X2
 70
     0
  3
 _ _ _ _ _ _ _ _ _ _ _ _
 72
    65
 73
     2
 40
3.75
 49
3.0
 49
-0.75
  0
LTYPE
  2
AMZIGZAG
 70
     0
  3
/\/-/\/-/\/-/\/-/\/-/\/
 72
    65
 73
     2
 40
11.0001
 49
0.0001
 49
-11.0
  0
LTYPE
  2
ACANSTGBM
 70
     0
  3
__ . . __ . .
 72
    65
 73
     6
 40
9.0
 49
4.0
 49
-1.0
 49
1.0
 49
-1.0
 49
1.0
 49
-1.0
  0
LTYPE
  2
ACANSTGLM
 70
     0
  3
_ _ _ _ _
 72
    65
 73
     2
 40
3.0
 49
2.0
 49
-1.0
  0
LTYPE
  2
ACISOWELD
 70
     0
  3
_ _ _ _ _
 72
    65
 73
     2
 40
2.0
 49
2.0
 49
-1.0
  0
LTYPE
  2
ACISOTGB
 70
     0
  3
__ . . __ . .
 72
    65
 73
     6
 40
9.0
 49
4.0
 49
-1.0
 49
1.0
 49
-1.0
 49
1.0
 49
-1.0
  0
LTYPE
  2
ACISOTGL
 70
     0
  3
_ _ _ _ _
 72
    65
 73
     2
 40
3.0
 49
2.0
 49
-1.0
  0
LTYPE
  2
ACJISTGB
 70
     0
  3
__ . . __ . .
 72
    65
 73
     6
 40
9.0
 49
4.0
 49
-1.0
 49
1.0
 49
-1.0
 49
1.0
 49
-1.0
  0
LTYPE
  2
ACJISTGL
 70
     0
  3
_ _ _ _ _
 72
    65
 73
     2
 40
3.0
 49
2.0
 49
-1.0
  0
LTYPE
  2
HIDDEN
 70
     0
  3
Hidden __ __ __ __ __ __ __ __ __ __ __ __ __ _
 72
    65
 73
     2
 40
9.5249999999999968
 49
6.349999999999997
 49
-3.174999999999998
  0
LTYPE
  2
PHANTOM2
 70
     0
  3
Phantom (.5x) ___ _ _ ___ _ _ ___ _ _ ___ _ _
 72
    65
 73
     6
 40
31.75
 49
15.875
 49
-3.174999999999998
 49
3.174999999999998
 49
-3.174999999999998
 49
3.174999999999998
 49
-3.174999999999998
  0
LTYPE
  2
ACJISWELD
 70
     0
  3
_ _ _ _ _
 72
    65
 73
     2
 40
2.0
 49
2.0
 49
-1.0
  0
LTYPE
  2
CENTER2
 70
     0
  3
Center (.5x) ___ _ ___ _ ___ _ ___ _ ___ _ ___
 72
    65
 73
     4
 40
1.125
 49
0.75
 49
-0.125
 49
0.125
 49
-0.125
  0
LTYPE
  2
HIDDEN2
 70
     0
  3
Hidden (.5x) _ _ _ _ _ _ _ _ _ _ _ _ _ _ _ _ _
 72
    65
 73
     2
 40
0.1875
 49
0.125
 49
-0.0625
  0
LTYPE
  2
AMZIGZAG2
 70
     0
  3
/\/-/\/-/\/-/\/-/\/-/\/
 72
    65
 73
     2
 40
0.4401
 49
0.0001
 49
-0.4400000000000002
  0
LTYPE
  2
ACANSTGB
 70
     0
  3
__ . . __ . .
 72
    65
 73
     6
 40
0.35433070866
 49
0.15748031496
 49
-0.03937007874
 49
0.03937007874
 49
-0.03937007874
 49
0.03937007874
 49
-0.03937007874
  0
LTYPE
  2
ACANSTGL
 70
     0
  3
_ _ _ _ _
 72
    65
 73
     2
 40
0.11811023622
 49
0.07874015748
 49
-0.03937007874
  0
ENDTAB
  0
TABLE
  2
LAYER
 70
     6
  0
LAYER
  2
0
 70
     0
 62
     7
  6
CONTINUOUS
  0
LAYER
  2
DEFPOINTS
 70
     0
 62
     7
  6
CONTINUOUS
  0
LAYER
  2
AM_0
 70
     0
 62
     7
  6
CONTINUOUS
  0
LAYER
  2
AM_CL
 70
     0
 62
     1
  6
AMCONSTR
  0
LAYER
  2
AM_7
 70
     0
 62
     1
  6
AM_ISO08W050
  0
LAYER
  2
AM_5
 70
     0
 62
     2
  6
CONTINUOUS
  0
ENDTAB
  0
TABLE
  2
STYLE
 70
     8
  0
STYLE
  2
STANDARD
 70
     0
 40
0.0
 41
0.7400000000000003
 50
0.0
 71
     0
 42
2.5
  3
txt.shx
  4
bigfont.shx
  0
STYLE
  2

 70
     1
 40
0.0
 41
1.0
 50
0.0
 71
     0
 42
2.5
  3
ltypeshp.shx
  4

  0
STYLE
  2
ACANSTS
 70
     0
 40
1.0
 41
1.0
 50
0.0
 71
     0
 42
2.5
  3
romans.shx
  4
bigfont.shx
  0
STYLE
  2
ACANSGDT
 70
     0
 40
0.0
 41
1.0
 50
0.0
 71
     0
 42
2.5
  3
amgdtans.shx
  4

  0
STYLE
  2
ACISOTS
 70
     0
 40
1.0
 41
1.0
 50
0.0
 71
     0
 42
2.5
  3
isocp.shx
  4
extfont.shx
  0
STYLE
  2
ACISOGDT
 70
     0
 40
0.0
 41
1.0
 50
0.0
 71
     0
 42
2.5
  3
amgdt.shx
  4

  0
STYLE
  2
ACJISGDT
 70
     0
 40
0.0
 41
1.0
 50
0.0
 71
     0
 42
2.5
  3
amgdt.shx
  4

  0
STYLE
  2
ACJISTS
 70
     0
 40
1.0
 41
1.0
 50
0.0
 71
     0
 42
2.5
  3
isocp.shx
  4
extfont.shx
  0
ENDTAB
  0
TABLE
  2
VIEW
 70
     6
  0
VIEW
  2
AM_VIEW1
 70
     0
 40
462.5
 10
488.83452017294832
 20
693.74999940360874
 41
977.66903914590773
 11
0.0
 21
0.0
 31
1.0
 12
0.0
 22
0.0
 32
0.0
 42
50.0
 43
0.0
 44
0.0
 50
0.0
 71
     0
  0
VIEW
  2
AM_VIEW2
 70
     0
 40
462.5
 10
933.66548102704076
 20
693.74999940360874
 41
977.66903914590773
 11
0.0
 21
0.0
 31
1.0
 12
0.0
 22
0.0
 32
0.0
 42
50.0
 43
0.0
 44
0.0
 50
0.0
 71
     0
  0
VIEW
  2
AM_VIEW3
 70
     0
 40
462.5
 10
488.83452017294832
 20
231.24999940360871
 41
977.66903914590773
 11
0.0
 21
0.0
 31
1.0
 12
0.0
 22
0.0
 32
0.0
 42
50.0
 43
0.0
 44
0.0
 50
0.0
 71
     0
  0
VIEW
  2
AM_VIEW4
 70
     0
 40
462.5
 10
933.66548102704076
 20
231.24999940360871
 41
977.66903914590773
 11
0.0
 21
0.0
 31
1.0
 12
0.0
 22
0.0
 32
0.0
 42
50.0
 43
0.0
 44
0.0
 50
0.0
 71
     0
  0
VIEW
  2
AM_VIEW5
 70
     0
 40
462.5
 10
711.25000059999468
 20
462.49999940360868
 41
977.66903914590773
 11
0.0
 21
0.0
 31
1.0
 12
0.0
 22
0.0
 32
0.0
 42
50.0
 43
0.0
 44
0.0
 50
0.0
 71
     0
  0
VIEW
  2
AM_VIEW6
 70
     0
 40
924.99075000000016
 10
711.25000059999468
 20
462.49999940360868
 41
1955.318524911032
 11
0.0
 21
0.0
 31
1.0
 12
0.0
 22
0.0
 32
0.0
 42
50.0
 43
0.0
 44
0.0
 50
0.0
 71
     0
  0
ENDTAB
  0
TABLE
  2
UCS
 70
     0
  0
ENDTAB
  0
TABLE
  2
APPID
 70
   158
  0
APPID
  2
ACAD
 70
     0
  0
APPID
  2
ACADANNOTATIVE
 70
     0
  0
APPID
  2
ACAD_MLEADERVER
 70
     0
  0
APPID
  2
MCAD_NO_VIS
 70
     0
  0
APPID
  2
ACAD_TEMP_GRAPHIC
 70
     0
  0
APPID
  2
AD_DRAW
 70
     0
  0
APPID
  2
ACATTRIBSERVICES
 70
     0
  0
APPID
  2
DESIGNERASSEMBLIES
 70
     0
  0
APPID
  2
ACADM_DIM_EDIT
 70
     0
  0
APPID
  2
AMDT_DM_ADJ
 70
     0
  0
APPID
  2
GENIUS_GENDIMSH_14
 70
     0
  0
APPID
  2
GEVID1057795304
 70
     0
  0
APPID
  2
GEVDC
 70
     0
  0
APPID
  2
GEVCON
 70
     0
  0
APPID
  2
GENIUS_GENBH_13
 70
     0
  0
APPID
  2
GENIUS_GENOENT_13
 70
     0
  0
APPID
  2
GENIUS_GENOBJ-NBEHI-BHF_13
 70
     0
  0
APPID
  2
GENIUS_GENOLIS_13
 70
     0
  0
APPID
  2
GENIUS_GENODEF_13
 70
     0
  0
APPID
  2
GENIUS_GENOREF_13
 70
     0
  0
APPID
  2
GENIUS_GENOBJ-NBEHI-BHB_13
 70
     0
  0
APPID
  2
GENIUS_GENOBJ-F-SCPASSM_13
 70
     0
  0
APPID
  2
GENIUS_GENDTOL_13
 70
     0
  0
APPID
  2
GENIUS_GENTRA_14
 70
     0
  0
APPID
  2
ASURF_PCURVE_APPNAME
 70
     0
  0
APPID
  2
GENIUS_GENCFG_13
 70
     0
  0
APPID
  2
GENIUS_GE3CFG0_13
 70
     0
  0
APPID
  2
GENIUS_GENCFG0_13
 70
     0
  0
APPID
  2
GENIUS_GENCFG1_13
 70
     0
  0
APPID
  2
GENIUS_GENCFG2_13
 70
     0
  0
APPID
  2
GENIUS_GENCFG3_13
 70
     0
  0
APPID
  2
GENIUS_GENCFG4_13
 70
     0
  0
APPID
  2
GENIUS_GEVCFG0_13
 70
     0
  0
APPID
  2
GENIUS_GENOBJ-N-TIT_13
 70
     0
  0
APPID
  2
GENIUS_GENTITLE_13
 70
     0
  0
APPID
  2
GENIUS_GENSCREG_15
 70
     0
  0
APPID
  2
GENIUS_GENOBJ-N-SDF_13
 70
     0
  0
APPID
  2
GENIUS_GENFIL_13
 70
     0
  0
APPID
  2
GENIUS_GENOBJ-N-CHA_13
 70
     0
  0
APPID
  2
GENIUS_GEFSH_13
 70
     0
  0
APPID
  2
GENIUS_GENOBJ-F-SHS_13
 70
     0
  0
APPID
  2
GENIUS_GENOBJ-N-CEN_13
 70
     0
  0
APPID
  2
GENIUS_GENREC_14
 70
     0
  0
APPID
  2
GENIUS_GENOBJ-N-REC_13
 70
     0
  0
APPID
  2
GENIUS_GENOBJ-N-HTC_13
 70
     0
  0
APPID
  2
GENIUS_GENHATCH_13
 70
     0
  0
APPID
  2
ACAD_PSEXT
 70
     0
  0
APPID
  2
ACAD_EXEMPT_FROM_CAD_STANDARDS
 70
     0
  0
APPID
  2
ACAECLAYERSTANDARD
 70
     0
  0
APPID
  2
GENIUS_GENCEN_19
 70
     0
  0
APPID
  2
ACAD_DSTYLE_DIMINSPECT
 70
     0
  0
APPID
  2
ACAD_DSTYLE_DIMANGULAR_EXT
 70
     0
  0
APPID
  2
ACADANNOPO
 70
     0
  0
APPID
  2
ACAD_NAV_VCDISPLAY
 70
     0
  0
APPID
  2
GENIUS_GENOBJ-N-FIL_13
 70
     0
  0
APPID
  2
ACAD_DSTYLE_DIMBREAK
 70
     0
  0
APPID
  2
ACAD_DSTYLE_DIMJAG
 70
     0
  0
APPID
  2
ACAD_DSTYLE_DIMRADIAL_EXTENSION
 70
     0
  0
APPID
  2
GENIUS_GENHINW_13
 70
     0
  0
APPID
  2
GENIUS_FIRSTVISTXT_14
 70
     0
  0
APPID
  2
GENIUS_GENOBJ-N-LEADER_13
 70
     0
  0
APPID
  2
DCO15
 70
     0
  0
APPID
  2
GENIUS_DUMCFG0_13
 70
     0
  0
APPID
  2
ACAD_DSTYLE_DIMTEXT_FILL
 70
     0
  0
APPID
  2
AMG_2DHIDE
 70
     0
  0
APPID
  2
GENIUS_GEFSHEP_13
 70
     0
  0
APPID
  2
GENIUS_GENOBJ-F-SHE_13
 70
     0
  0
APPID
  2
GENIUS_GEFSHE_13
 70
     0
  0
APPID
  2
ACAD_DIMASSOC_DIMLFAC
 70
     0
  0
APPID
  2
ACAD_DIMASSOC_CALC_DIMLFAC
 70
     0
  0
APPID
  2
ACAD_DIMASSOC_OVERRIDDEN_D
 70
     0
  0
APPID
  2
GENIUS_GENOBJ-F-SHSV_13
 70
     0
  0
APPID
  2
GENIUS_GEFWELD_13
 70
     0
  0
APPID
  2
GENIUS_GENOBJ-N-CRS_13
 70
     0
  0
APPID
  2
GENIUS_GENOBJ-N-RSBK_13
 70
     0
  0
APPID
  2
GENIUS_GENOBJ-N-LIB_13
 70
     0
  0
APPID
  2
GENIUS_GENSCALE_13
 70
     0
  0
APPID
  2
GENIUS_GENDREL_13
 70
     0
  0
APPID
  2
GEVPT
 70
     0
  0
APPID
  2
GEVIT
 70
     0
  0
APPID
  2
VCC
 70
     0
  0
APPID
  2
GENBH
 70
     0
  0
APPID
  2
GEVMK
 70
     0
  0
APPID
  2
GENIUS_GENOBJ-F-DESC_13
 70
     0
  0
APPID
  2
GENIUS_GEFDESC_14
 70
     0
  0
APPID
  2
GENIUS_GENOBJ-F-FEAT_13
 70
     0
  0
APPID
  2
GENIUS_GEFFEAT_14
 70
     0
  0
APPID
  2
GENIUS_GEFPARTINS_13
 70
     0
  0
APPID
  2
GENIUS_GENSCREG_13
 70
     0
  0
APPID
  2
GENIUS_GEFSHP_13
 70
     0
  0
APPID
  2
GEVID1025574798
 70
     0
  0
APPID
  2
GEVID1025574769
 70
     0
  0
APPID
  2
GEVID1025757451
 70
     0
  0
APPID
  2
GEVID1240528327
 70
     0
  0
APPID
  2
AMG_2DSTRUCT_BTR
 70
     0
  0
APPID
  2
ACADM_2DVIEW_IGN_NOTIFY
 70
     0
  0
APPID
  2
GEVID1240528328
 70
     0
  0
APPID
  2
GEVID1240528329
 70
     0
  0
APPID
  2
GEVRADREF
 70
     0
  0
APPID
  2
GEVID1240528330
 70
     0
  0
APPID
  2
GEVID1240528331
 70
     0
  0
APPID
  2
GEVID1240528332
 70
     0
  0
APPID
  2
GEVID1240791080
 70
     0
  0
APPID
  2
GEVID1240791081
 70
     0
  0
APPID
  2
GEVID1240791082
 70
     0
  0
APPID
  2
GEVID1240791083
 70
     0
  0
APPID
  2
GEVID1240791084
 70
     0
  0
APPID
  2
GEVID1240791085
 70
     0
  0
APPID
  2
GEVID1240791086
 70
     0
  0
APPID
  2
GEVID1240791087
 70
     0
  0
APPID
  2
GEVID1240791088
 70
     0
  0
APPID
  2
GEVID1240791089
 70
     0
  0
APPID
  2
GEVID1240791090
 70
     0
  0
APPID
  2
GEVID1240791091
 70
     0
  0
APPID
  2
GEVID1240791092
 70
     0
  0
APPID
  2
GEVID1240791093
 70
     0
  0
APPID
  2
GEVID1240791094
 70
     0
  0
APPID
  2
GEVID1240791095
 70
     0
  0
APPID
  2
GEVID1240791096
 70
     0
  0
APPID
  2
GEVID1240791097
 70
     0
  0
APPID
  2
GEVID1240791098
 70
     0
  0
APPID
  2
GEVID1240791099
 70
     0
  0
APPID
  2
GEVID1240791100
 70
     0
  0
APPID
  2
GEVID1240791101
 70
     0
  0
APPID
  2
GEVID1240791102
 70
     0
  0
APPID
  2
GEVID1240791103
 70
     0
  0
APPID
  2
GEVID1240791104
 70
     0
  0
APPID
  2
GEVID1240791105
 70
     0
  0
APPID
  2
GEVID1240875381
 70
     0
  0
APPID
  2
GEVID1240875382
 70
     0
  0
APPID
  2
GEVID1240875383
 70
     0
  0
APPID
  2
GEVID1240875384
 70
     0
  0
APPID
  2
GEVID1240875385
 70
     0
  0
APPID
  2
GEVID1240875386
 70
     0
  0
APPID
  2
GEVID1240875387
 70
     0
  0
APPID
  2
GEVID1240875388
 70
     0
  0
APPID
  2
GEVID1240875389
 70
     0
  0
APPID
  2
GEVID1240875390
 70
     0
  0
APPID
  2
GEVID1240875391
 70
     0
  0
APPID
  2
GEVID1240875392
 70
     0
  0
APPID
  2
GEVID1240875393
 70
     0
  0
APPID
  2
GEVID1240875394
 70
     0
  0
APPID
  2
GEVID1240875395
 70
     0
  0
APPID
  2
GEVID1240875396
 70
     0
  0
APPID
  2
GEVID1240875397
 70
     0
  0
APPID
  2
GEVID1240875398
 70
     0
  0
APPID
  2
GEVID1240875399
 70
     0
  0
APPID
  2
GEVID1240908996
 70
     0
  0
APPID
  2
GEVID1240908997
 70
     0
  0
APPID
  2
GEVID1240908998
 70
     0
  0
APPID
  2
GEVID1240908999
 70
     0
  0
APPID
  2
GEVID1240909000
 70
     0
  0
APPID
  2
GENIUS_GENOBJ-N-ZOO_13
 70
     0
  0
APPID
  2
GENIUS_GENZOO_17
 70
     0
  0
APPID
  2
GENIUS_GE3SECT_13
 70
     0
  0
APPID
  2
GEV_VCCNULL_SWITCH_OFF
 70
     0
  0
APPID
  2
ACAD_DSTYLE_DIMTALN
 70
     0
  0
APPID
  2
CONTENTBLOCKDESCRIPTION
 70
     0
  0
ENDTAB
  0
TABLE
  2
DIMSTYLE
 70
    23
  0
DIMSTYLE
  2
AM_ANSI
 70
     0
  3

  4
"
  5

  6

  7

 40
1.0
 41
2.5
 42
1.0
 43
10.0
 44
1.0
 45
0.0
 46
0.0
 47
0.1
 48
0.1
140
3.5
141
0.0
142
0.0
143
0.0393701
144
1.0
145
0.0
146
0.71
147
1.5
 71
     0
 72
     0
 73
     1
 74
     1
 75
     0
 76
     0
 77
     0
 78
     8
170
     0
171
     2
172
     0
173
     0
174
     0
175
     0
176
     2
177
     2
178
     4
  0
DIMSTYLE
  2
AM_ANSI$3
 70
     0
  3

  4
"
  5

  6

  7

 40
1.0
 41
2.5
 42
1.0
 43
10.0
 44
1.0
 45
0.0
 46
0.0
 47
0.1
 48
0.1
140
3.5
141
0.0
142
0.0
143
0.0393701
144
1.0
145
0.0
146
0.71
147
1.5
 71
     0
 72
     0
 73
     1
 74
     1
 75
     0
 76
     0
 77
     0
 78
     8
170
     0
171
     2
172
     0
173
     0
174
     0
175
     0
176
     2
177
     2
178
     4
  0
DIMSTYLE
  2
AM_ANSI$4
 70
     0
  3

  4
"
  5

  6

  7

 40
1.0
 41
2.5
 42
1.0
 43
10.0
 44
1.0
 45
0.0
 46
0.0
 47
0.1
 48
0.1
140
3.5
141
0.0
142
0.0
143
0.0393701
144
1.0
145
0.0
146
0.71
147
1.5
 71
     0
 72
     0
 73
     1
 74
     1
 75
     0
 76
     0
 77
     0
 78
     8
170
     0
171
     2
172
     0
173
     0
174
     0
175
     0
176
     2
177
     2
178
     4
  0
DIMSTYLE
  2
AM_ANSI$7
 70
     0
  3

  4
"
  5

  6

  7

 40
1.0
 41
2.5
 42
1.0
 43
10.0
 44
1.0
 45
0.0
 46
0.0
 47
0.1
 48
0.1
140
5.0
141
0.0
142
0.0
143
0.0393701
144
1.0
145
0.0
146
0.71
147
1.5
 71
     0
 72
     0
 73
     1
 74
     1
 75
     0
 76
     0
 77
     0
 78
     8
170
     0
171
     2
172
     0
173
     0
174
     0
175
     0
176
     2
177
     2
178
     4
  0
DIMSTYLE
  2
AM_ANSI$SF
 70
     0
  3

  4
"
  5

  6

  7

 40
1.0
 41
2.5
 42
1.0
 43
10.0
 44
1.0
 45
0.0
 46
0.0
 47
0.1
 48
0.1
140
3.5
141
0.0
142
0.0
143
0.0393701
144
1.0
145
0.0
146
0.71
147
1.5
 71
     0
 72
     0
 73
     1
 74
     1
 75
     1
 76
     1
 77
     0
 78
     8
170
     0
171
     2
172
     0
173
     0
174
     0
175
     0
176
     2
177
     2
178
     4
  0
DIMSTYLE
  2
AM_ANSI$SH
 70
     0
  3

  4
"
  5

  6
GENAXEH
  7

 40
1.0
 41
2.5
 42
1.0
 43
10.0
 44
1.0
 45
0.0
 46
0.0
 47
0.1
 48
0.1
140
3.5
141
0.0
142
0.0
143
0.0393701
144
1.0
145
0.0
146
0.71
147
1.5
 71
     0
 72
     0
 73
     1
 74
     1
 75
     1
 76
     1
 77
     0
 78
     8
170
     0
171
     2
172
     0
173
     1
174
     0
175
     0
176
     2
177
     2
178
     4
  0
DIMSTYLE
  2
AM_ISO
 70
     0
  3

  4
"
  5

  6

  7

 40
1.0
 41
2.5
 42
1.0
 43
10.0
 44
1.0
 45
0.0
 46
0.0
 47
0.1
 48
0.1
140
3.5
141
0.0
142
0.0
143
0.0393701
144
1.0
145
0.0
146
0.71
147
1.5
 71
     0
 72
     0
 73
     0
 74
     0
 75
     0
 76
     0
 77
     1
 78
     8
170
     0
171
     2
172
     1
173
     0
174
     0
175
     0
176
   256
177
   256
178
     2
  0
DIMSTYLE
  2
AM_ISO$3
 70
     0
  3

  4
"
  5

  6

  7

 40
1.0
 41
2.5
 42
1.0
 43
10.0
 44
1.0
 45
0.0
 46
0.0
 47
0.1
 48
0.1
140
3.5
141
0.0
142
0.0
143
0.0393701
144
1.0
145
0.0
146
0.71
147
1.5
 71
     0
 72
     0
 73
     0
 74
     1
 75
     0
 76
     0
 77
     1
 78
     8
170
     0
171
     2
172
     0
173
     0
174
     0
175
     0
176
   256
177
   256
178
     2
  0
DIMSTYLE
  2
AM_ISO$4
 70
     0
  3

  4
"
  5

  6

  7

 40
1.0
 41
2.5
 42
1.0
 43
10.0
 44
1.0
 45
0.0
 46
0.0
 47
0.1
 48
0.1
140
3.5
141
0.0
142
0.0
143
0.0393701
144
1.0
145
0.0
146
0.71
147
1.5
 71
     0
 72
     0
 73
     0
 74
     1
 75
     0
 76
     0
 77
     1
 78
     8
170
     0
171
     2
172
     0
173
     0
174
     0
175
     0
176
   256
177
   256
178
     2
  0
DIMSTYLE
  2
AM_ISO$6
 70
     0
  3

  4
"
  5

  6

  7

 40
1.0
 41
2.5
 42
1.0
 43
10.0
 44
1.0
 45
0.0
 46
0.0
 47
0.1
 48
0.1
140
3.5
141
0.0
142
0.0
143
0.0393701
144
1.0
145
0.0
146
0.71
147
1.5
 71
     0
 72
     0
 73
     0
 74
     0
 75
     0
 76
     0
 77
     0
 78
     8
170
     0
171
     2
172
     1
173
     0
174
     0
175
     0
176
   256
177
   256
178
     2
  0
DIMSTYLE
  2
AM_ISO$7
 70
     0
  3

  4
"
  5

  6

  7

 40
1.0
 41
2.5
 42
1.0
 43
10.0
 44
1.0
 45
0.0
 46
0.0
 47
0.1
 48
0.1
140
5.0
141
0.0
142
0.0
143
0.0393701
144
1.0
145
0.0
146
0.71
147
1.5
 71
     0
 72
     0
 73
     0
 74
     0
 75
     0
 76
     0
 77
     1
 78
     8
170
     0
171
     2
172
     1
173
     0
174
     0
175
     0
176
   256
177
   256
178
     2
  0
DIMSTYLE
  2
AM_ISO$SF
 70
     0
  3

  4
"
  5

  6

  7

 40
1.0
 41
2.5
 42
1.0
 43
10.0
 44
1.0
 45
0.0
 46
0.0
 47
0.1
 48
0.1
140
3.5
141
0.0
142
0.0
143
0.0393701
144
1.0
145
0.0
146
0.71
147
1.5
 71
     0
 72
     0
 73
     0
 74
     0
 75
     1
 76
     1
 77
     1
 78
     8
170
     0
171
     2
172
     1
173
     0
174
     0
175
     0
176
   256
177
   256
178
     2
  0
DIMSTYLE
  2
AM_ISO$SH
 70
     0
  3

  4
"
  5

  6
GENAXEH
  7

 40
1.0
 41
2.5
 42
1.0
 43
10.0
 44
1.0
 45
0.0
 46
0.0
 47
0.1
 48
0.1
140
3.5
141
0.0
142
0.0
143
0.0393701
144
2.0
145
0.0
146
0.71
147
1.5
 71
     0
 72
     0
 73
     0
 74
     0
 75
     1
 76
     1
 77
     1
 78
     8
170
     0
171
     2
172
     1
173
     1
174
     0
175
     0
176
   256
177
   256
178
     2
  0
DIMSTYLE
  2
AM_JIS
 70
     0
  3

  4
"
  5

  6

  7

 40
1.0
 41
2.0
 42
1.0
 43
8.0
 44
1.0
 45
0.0
 46
0.0
 47
0.1
 48
0.1
140
2.5
141
0.0
142
0.0
143
0.0393701
144
1.0
145
0.0
146
0.71
147
1.5
 71
     0
 72
     0
 73
     0
 74
     0
 75
     0
 76
     0
 77
     3
 78
     8
170
     0
171
     2
172
     1
173
     0
174
     0
175
     0
176
     2
177
     2
178
     4
  0
DIMSTYLE
  2
AM_JIS$3
 70
     0
  3

  4
"
  5

  6

  7

 40
1.0
 41
2.0
 42
1.0
 43
10.0
 44
1.0
 45
0.0
 46
0.0
 47
0.1
 48
0.1
140
2.5
141
0.0
142
0.0
143
0.0393701
144
1.0
145
0.0
146
0.71
147
1.5
 71
     0
 72
     0
 73
     0
 74
     1
 75
     0
 76
     0
 77
     3
 78
     8
170
     0
171
     2
172
     0
173
     0
174
     0
175
     0
176
     2
177
     2
178
     4
  0
DIMSTYLE
  2
AM_JIS$4
 70
     0
  3

  4
"
  5

  6

  7

 40
1.0
 41
2.0
 42
1.0
 43
10.0
 44
1.0
 45
0.0
 46
0.0
 47
0.1
 48
0.1
140
2.5
141
0.0
142
0.0
143
0.0393701
144
1.0
145
0.0
146
0.71
147
1.5
 71
     0
 72
     0
 73
     0
 74
     0
 75
     0
 76
     0
 77
     3
 78
     8
170
     0
171
     2
172
     0
173
     0
174
     0
175
     0
176
     2
177
     2
178
     4
  0
DIMSTYLE
  2
AM_JIS$6
 70
     0
  3

  4
"
  5

  6

  7

 40
1.0
 41
2.0
 42
1.0
 43
10.0
 44
1.0
 45
0.0
 46
0.0
 47
0.1
 48
0.1
140
2.5
141
0.0
142
0.0
143
0.0393701
144
1.0
145
0.0
146
0.71
147
1.5
 71
     0
 72
     0
 73
     0
 74
     0
 75
     0
 76
     0
 77
     0
 78
     8
170
     0
171
     2
172
     1
173
     0
174
     0
175
     0
176
     2
177
     2
178
     4
  0
DIMSTYLE
  2
AM_JIS$7
 70
     0
  3

  4
"
  5

  6
OPEN30
  7
OPEN30
 40
1.0
 41
2.0
 42
1.0
 43
10.0
 44
1.0
 45
0.0
 46
0.0
 47
0.1
 48
0.1
140
2.5
141
0.0
142
0.0
143
0.0393701
144
1.0
145
0.0
146
0.71
147
1.5
 71
     0
 72
     0
 73
     0
 74
     0
 75
     0
 76
     0
 77
     3
 78
     8
170
     0
171
     2
172
     1
173
     0
174
     0
175
     0
176
     2
177
     2
178
     4
  0
DIMSTYLE
  2
AM_JIS$SF
 70
     0
  3

  4
"
  5

  6

  7

 40
1.0
 41
2.0
 42
1.0
 43
10.0
 44
1.0
 45
0.0
 46
0.0
 47
0.1
 48
0.1
140
2.5
141
0.0
142
0.0
143
0.0393701
144
1.0
145
0.0
146
0.71
147
1.5
 71
     0
 72
     0
 73
     0
 74
     0
 75
     1
 76
     1
 77
     3
 78
     8
170
     0
171
     2
172
     1
173
     0
174
     0
175
     0
176
     2
177
     2
178
     4
  0
DIMSTYLE
  2
AM_JIS$SH
 70
     0
  3

  4
"
  5

  6
GENAXEH
  7

 40
1.0
 41
2.0
 42
1.0
 43
10.0
 44
1.0
 45
0.0
 46
0.0
 47
0.1
 48
0.1
140
2.5
141
0.0
142
0.0
143
0.0393701
144
2.0
145
0.0
146
0.71
147
1.5
 71
     0
 72
     0
 73
     0
 74
     0
 75
     1
 76
     1
 77
     3
 78
     8
170
     0
171
     2
172
     1
173
     1
174
     0
175
     0
176
     2
177
     2
178
     4
  0
DIMSTYLE
  2
AM_JIS$0
 70
     0
  3

  4
"
  5

  6

  7

 40
1.0
 41
2.0
 42
1.0
 43
8.0
 44
1.0
 45
0.0
 46
0.0
 47
0.1
 48
0.1
140
2.5
141
0.0
142
0.0
143
0.0393701
144
1.0
145
0.0
146
0.71
147
1.5
 71
     0
 72
     0
 73
     0
 74
     0
 75
     0
 76
     0
 77
     3
 78
     8
170
     0
171
     2
172
     1
173
     0
174
     0
175
     0
176
     2
177
     2
178
     4
  0
DIMSTYLE
  2
STANDARD
 70
     0
  3

  4

  5

  6

  7

 40
1.0
 41
0.18
 42
0.0625
 43
0.38
 44
0.18
 45
0.0
 46
0.0
 47
0.0
 48
0.0
140
0.18
141
0.09
142
0.0
143
25.399999999999999
144
1.0
145
0.0
146
1.0
147
0.09
 71
     0
 72
     0
 73
     1
 74
     1
 75
     0
 76
     0
 77
     0
 78
     0
170
     0
171
     2
172
     0
173
     0
174
     0
175
     0
176
     0
177
     0
178
     0
  0
DIMSTYLE
  2
AM_JIS$2
 70
     0
  3

  4
"
  5

  6

  7

 40
1.0
 41
2.0
 42
1.0
 43
8.0
 44
1.0
 45
0.0
 46
0.0
 47
0.1
 48
0.1
140
2.5
141
0.0
142
0.0
143
0.0393701
144
1.0
145
0.0
146
0.71
147
1.5
 71
     0
 72
     0
 73
     0
 74
     0
 75
     0
 76
     0
 77
     3
 78
     8
170
     0
171
     2
172
     1
173
     0
174
     0
175
     0
176
     2
177
     2
178
     4
  0
ENDTAB
  0
ENDSEC
  0
SECTION
  2
BLOCKS
  0
BLOCK
  8
0
  2
$MODEL_SPACE
 70
     0
 10
0.0
 20
0.0
 30
0.0
  3
$MODEL_SPACE
  1

  0
ENDBLK
  5
77
  8
0
  0
BLOCK
 67
     1
  8
0
  2
$PAPER_SPACE
 70
     0
 10
0.0
 20
0.0
 30
0.0
  3
$PAPER_SPACE
  1

  0
ENDBLK
  5
73
 67
     1
  8
0
  0
BLOCK
  8
0
  2
GENAXEH
 70
     0
 10
0.0
 20
0.0
 30
0.0
  3
GENAXEH
  1

  0
LINE
  5
CE61
  8
0
 10
-1.0
 20
0.0
 30
0.0
 11
1.0
 21
0.0
 31
0.0
  0
ENDBLK
  5
CE62
  8
0
  0
BLOCK
  8
0
  6
BYBLOCK
 62
     0
  2
$6-45
 70
     0
 10
0.0
 20
0.0
 30
0.0
  3
$6-45
  1

  0
ARC
  5
9424
  8
0
  6
CONTINUOUS
 62
     0
 10
-2.6499939999999902
 20
2.800201000000015
 30
0.0
 40
2.6003989999999999
 50
89.999982000000799
 51
179.99997799999841
  0
ARC
  5
9425
  8
0
  6
CONTINUOUS
 62
     0
 10
2.6499939999999902
 20
2.800201000000015
 30
0.0
 40
2.600403
 50
0.0
 51
89.999982000000799
  0
LINE
  5
9426
  8
0
  6
CONTINUOUS
 62
     0
 10
0.0660249999999678
 20
0.0
 30
0.0
 11
-0.7999999999999548
 21
1.5
 31
0.0
  0
LINE
  5
9427
  8
0
  6
CONTINUOUS
 62
     0
 10
1.0660249999999669
 20
0.0
 30
0.0
 11
0.2000000000000455
 21
1.5
 31
0.0
  0
LINE
  5
9428
  8
0
  6
CONTINUOUS
 62
     0
 10
6.1000000000000218
 20
0.0
 30
0.0
 11
-6.1000000000000218
 21
0.0
 31
0.0
  0
LINE
  5
9429
  8
0
  6
CONTINUOUS
 62
     0
 10
6.1000000000000218
 20
1.5
 30
0.0
 11
6.1000000000000218
 21
0.0
 31
0.0
  0
LINE
  5
942A
  8
0
  6
CONTINUOUS
 62
     0
 10
-6.1000000000000218
 20
1.5
 30
0.0
 11
-6.1000000000000218
 21
0.0
 31
0.0
  0
LINE
  5
942B
  8
0
  6
CONTINUOUS
 62
     0
 10
2.6499939999999902
 20
5.3999939999999906
 30
0.0
 11
-2.6499939999999902
 21
5.3999939999999906
 31
0.0
  0
LINE
  5
942C
  8
0
  6
CONTINUOUS
 62
     0
 10
6.1000000000000218
 20
1.5
 30
0.0
 11
-6.1000000000000218
 21
1.5
 31
0.0
  0
LINE
  5
942D
  8
0
  6
CONTINUOUS
 62
     0
 10
-5.25
 20
1.5
 30
0.0
 11
-5.25
 21
2.800201000000015
 31
0.0
  0
LINE
  5
942E
  8
0
  6
CONTINUOUS
 62
     0
 10
5.25
 20
1.5
 30
0.0
 11
5.25
 21
2.800201000000015
 31
0.0
  0
ENDBLK
  5
942F
  8
0
  6
BYBLOCK
 62
     0
  0
BLOCK
  8
0
  2
_ACMFILLED
 70
     0
 10
0.0
 20
0.0
 30
0.0
  3
_ACMFILLED
  1

  0
TRACE
  5
CB1E
  8
0
 62
     0
 10
-1.0
 20
-0.166666666
 30
0.0
 11
-1.0
 21
0.166666666
 31
0.0
 12
0.0
 22
0.0
 32
0.0
 13
0.0
 23
0.0
 33
0.0
  0
ENDBLK
  5
CB1D
  8
0
  0
BLOCK
  8
0
  2
_ACMFILLEDHALF
 70
     0
 10
0.0
 20
0.0
 30
0.0
  3
_ACMFILLEDHALF
  1

  0
TRACE
  5
CB22
  8
0
 62
     0
 10
-0.8
 20
0.0
 30
0.0
 11
-1.0
 21
0.166666666
 31
0.0
 12
0.0
 22
0.0
 32
0.0
 13
0.0
 23
0.0
 33
0.0
  0
LINE
  5
CB23
  8
0
 62
     0
 10
-1.0
 20
0.0
 30
0.0
 11
-0.8
 21
0.0
 31
0.0
  0
ENDBLK
  5
CB21
  8
0
  0
BLOCK
  8
0
  2
_ACMFILLED15
 70
     0
 10
0.0
 20
0.0
 30
0.0
  3
_ACMFILLED15
  1

  0
TRACE
  5
CB3B
  8
0
 62
     0
 10
-1.0
 20
-0.131652497
 30
0.0
 11
-1.0
 21
0.131652497
 31
0.0
 12
0.0
 22
0.0
 32
0.0
 13
0.0
 23
0.0
 33
0.0
  0
ENDBLK
  5
CB3A
  8
0
  0
BLOCK
  8
0
  2
_OPEN30
 70
     0
 10
0.0
 20
0.0
 30
0.0
  3
_OPEN30
  1

  0
LINE
  5
CEA8
  8
0
  6
BYBLOCK
 62
     0
 10
-1.0
 20
0.26794919
 30
0.0
 11
0.0
 21
0.0
 31
0.0
  0
LINE
  5
CEA9
  8
0
  6
BYBLOCK
 62
     0
 10
0.0
 20
0.0
 30
0.0
 11
-1.0
 21
-0.26794919
 31
0.0
  0
LINE
  5
CEAA
  8
0
  6
BYBLOCK
 62
     0
 10
0.0
 20
0.0
 30
0.0
 11
-1.0
 21
0.0
 31
0.0
  0
ENDBLK
  5
CEAB
  8
0
  0
BLOCK
  8
0
  2
_ACMOPEN15
 70
     0
 10
0.0
 20
0.0
 30
0.0
  3
_ACMOPEN15
  1

  0
LINE
  5
CB64
  8
0
 62
     0
 10
-1.0
 20
0.0
 30
0.0
 11
0.0
 21
0.0
 31
0.0
  0
LINE
  5
CB65
  8
0
 62
     0
 10
-1.0
 20
-0.131652497
 30
0.0
 11
0.0
 21
0.0
 31
0.0
  0
LINE
  5
CB66
  8
0
 62
     0
 10
0.0
 20
0.0
 30
0.0
 11
-1.0
 21
0.131652497
 31
0.0
  0
ENDBLK
  5
CB67
  8
0
  0
ENDSEC
  0
SECTION
  2
ENTITIES
  0
LINE
  5
BA2F
  8
0
  6
CONTINUOUS
 62
     0
 10
474.86901153174449
 20
821.98023755354598
 30
0.0
 11
490.86894153174438
 21
821.98023755354598
 31
0.0
  0
LINE
  5
BA30
  8
0
  6
CONTINUOUS
 62
     0
 10
474.86901153174449
 20
844.46716855354589
 30
0.0
 11
490.86894153174438
 21
844.46716855354589
 31
0.0
  0
LINE
  5
BA31
  8
0
  6
CONTINUOUS
 62
     0
 10
474.86901153174449
 20
834.28787655354563
 30
0.0
 11
490.86894153174438
 21
834.28787655354563
 31
0.0
  0
LINE
  5
BA32
  8
0
  6
CONTINUOUS
 62
     0
 10
474.86901153174449
 20
946.25583655354615
 30
0.0
 11
490.86894153174438
 21
946.25583655354615
 31
0.0
  0
LINE
  5
BA33
  8
0
  6
CONTINUOUS
 62
     0
 10
474.86901153174449
 20
959.92951855354602
 30
0.0
 11
490.86894153174438
 21
959.92951855354602
 31
0.0
  0
LINE
  5
BA34
  8
0
  6
AM_ISO08W050
 10
130.4762006633091
 20
883.83983455354587
 30
0.0
 11
707.38298153174424
 21
884.18987455354568
 31
0.0
  0
LINE
  5
BA36
  8
0
  6
CONTINUOUS
 62
     0
 10
490.86894153174438
 20
747.98009455354565
 30
0.0
 11
490.86894153174438
 21
874.65044455354621
 31
0.0
  0
LINE
  5
BA76
  8
0
  6
CENTER
 62
     0
 10
487.86907153174451
 20
867.48150455354642
 30
0.0
 11
487.86907153174451
 21
898.79479455354556
 31
0.0
  0
LINE
  5
BA77
  8
0
  6
CONTINUOUS
 62
     0
 10
471.36907153174462
 20
880.18987455354602
 30
0.0
 11
504.36907153174451
 21
880.18987455354602
 31
0.0
  0
LINE
  5
BA78
  8
0
  6
CONTINUOUS
 62
     0
 10
471.36907153174462
 20
888.18981455354572
 30
0.0
 11
504.36907153174451
 21
888.18981455354572
 31
0.0
  0
LINE
  5
BA7A
  8
0
  6
CONTINUOUS
 62
     0
 10
490.86894153174438
 20
893.72930455354606
 30
0.0
 11
490.86894153174438
 21
1020.399654553546
 31
0.0
  0
LINE
  5
BA7D
  8
0
  6
CONTINUOUS
 62
     0
 10
474.86901153174449
 20
800.18987455354556
 30
0.0
 11
474.86901153174449
 21
880.18987455354602
 31
0.0
  0
LINE
  5
BA7E
  8
0
  6
CONTINUOUS
 62
     0
 10
487.00853153174512
 20
799.76598455354588
 30
0.0
 11
474.86907153174462
 21
800.18993455354587
 31
0.0
  0
LINE
  5
BA7F
  8
0
  6
CONTINUOUS
 62
     0
 10
487.00853153174512
 20
968.61382455354601
 30
0.0
 11
474.86901153174449
 21
968.18987455354568
 31
0.0
  0
LINE
  5
BA84
  8
0
  6
CONTINUOUS
 62
     0
 10
474.86901153174449
 20
888.18981455354572
 30
0.0
 11
474.86901153174449
 21
968.18987455354568
 31
0.0
  0
ARC
  5
BAB8
  8
0
  6
CONTINUOUS
 62
     0
 10
493.86894153174433
 20
1020.399654553546
 30
0.0
 40
3.0
 50
92.999998999995213
 51
180.000010000001
  0
ARC
  5
BABA
  8
0
  6
CONTINUOUS
 62
     0
 10
493.86894153174433
 20
747.98009455354565
 30
0.0
 40
3.0
 50
180.000010000001
 51
266.99998999999372
  0
ARC
  5
BABC
  8
0
  6
CONTINUOUS
 62
     0
 10
487.86907153174451
 20
884.18987455354568
 30
0.0
 40
10.0
 50
23.578037000012301
 51
156.4219599999864
  0
ARC
  5
BABD
  8
0
  6
CONTINUOUS
 62
     0
 10
471.36907153174462
 20
884.18987455354568
 30
0.0
 40
3.9999962
 50
90.000002999984659
 51
270.0
  0
ARC
  5
BABE
  8
0
  6
CONTINUOUS
 62
     0
 10
504.36907153174451
 20
884.18987455354568
 30
0.0
 40
3.9999962
 50
270.0
 51
90.000002999984659
  0
ARC
  5
BABF
  8
0
  6
CONTINUOUS
 62
     0
 10
487.86907153174451
 20
884.18987455354568
 30
0.0
 40
10.0
 50
203.57826999998659
 51
336.42171999998681
  0
ARC
  5
BAC0
  8
0
  6
CONTINUOUS
 62
     0
 10
487.86907153174451
 20
884.18987455354568
 30
0.0
 40
11.0
 50
97.181195000010575
 51
158.67647999999841
  0
ARC
  5
BAC1
  8
0
  6
CONTINUOUS
 62
     0
 10
485.86894153174433
 20
868.31536455354558
 30
0.0
 40
5.0
 50
0.0
 51
82.818802999995938
  0
ARC
  5
BAC2
  8
0
  6
CONTINUOUS
 62
     0
 10
485.86894153174433
 20
900.06438455354555
 30
0.0
 40
5.0
 50
277.181199999993
 51
0.0
  0
ARC
  5
BAC3
  8
0
  6
CONTINUOUS
 62
     0
 10
487.86907153174451
 20
884.18987455354568
 30
0.0
 40
11.0
 50
201.3237799999894
 51
262.81880000000689
  0
ARC
  5
BAC5
  8
0
  6
CONTINUOUS
 62
     0
 10
486.86894153174438
 20
795.76842455354642
 30
0.0
 40
4.0
 50
0.0
 51
87.999999999996248
  0
ARC
  5
BAC7
  8
0
  6
CONTINUOUS
 62
     0
 10
486.86894153174438
 20
972.61138455354603
 30
0.0
 40
4.0
 50
272.00000000000369
 51
0.0
  0
LINE
  5
BAD4
  8
0
 62
     0
 10
474.86901153174449
 20
799.18987455354568
 30
0.0
 11
474.86901153174449
 21
880.18987455354556
 31
0.0
  0
LINE
  5
BAD5
  8
0
 62
     0
 10
474.86901153174449
 20
888.18981455354572
 30
0.0
 11
474.86901153174449
 21
969.18987455354613
 31
0.0
  0
ARC
  5
BAD6
  8
0
 10
255.7020115317446
 20
757.01385455354557
 30
0.0
 40
7.3402899999999969
 50
116.67697999999911
 51
177.347979999996
  0
ARC
  5
BAD7
  8
0
 10
245.57604153174449
 20
776.27386455354565
 30
0.0
 40
15.0
 50
316.51494999999102
 51
336.8849500000079
  0
ARC
  5
BAD8
  8
0
 10
255.7020115317446
 20
750.36590455354565
 30
0.0
 40
7.3402899999999969
 50
182.65198000000061
 51
265.23795999998953
  0
ARC
  5
BAD9
  8
0
 10
255.7020115317446
 20
749.68682455354565
 30
0.0
 40
7.3402899999999969
 50
94.761785000011997
 51
177.347979999996
  0
ARC
  5
BADA
  8
0
 10
245.57604153174449
 20
768.94683455354573
 30
0.0
 40
15.0
 50
316.51494999999102
 51
336.8849500000079
  0
ARC
  5
BADB
  8
0
 10
259.2750115317445
 20
762.65386455354565
 30
0.0
 40
5.8039399999999972
 50
283.12597000000932
 51
344.53995000000418
  0
ARC
  5
BADC
  8
0
 10
270.86901153174449
 20
760.47979455354573
 30
0.0
 40
6.0
 50
89.999989000004106
 51
179.99997999999789
  0
ARC
  5
BADD
  8
0
 10
270.86901153174449
 20
758.15081455354573
 30
0.0
 40
12.5
 50
89.999989000004106
 51
156.88498000000729
  0
ARC
  5
BADE
  8
0
 10
418.03502153174441
 20
757.01385455354557
 30
0.0
 40
7.3402899999999969
 50
2.6518660000028751
 51
63.32309399999528
  0
ARC
  5
BADF
  8
0
 10
428.1610015317446
 20
776.27386455354565
 30
0.0
 40
15.0
 50
203.1149699999892
 51
223.48497000000719
  0
ARC
  5
BAE0
  8
0
 10
418.03502153174441
 20
750.36590455354565
 30
0.0
 40
7.3402899999999969
 50
274.76196000001192
 51
357.34795000000082
  0
ARC
  5
BAE1
  8
0
 10
418.03502153174441
 20
749.68682455354565
 30
0.0
 40
7.3402899999999969
 50
2.6518660000028751
 51
85.238185999988175
  0
ARC
  5
BAE2
  8
0
 10
428.1610015317446
 20
768.94683455354573
 30
0.0
 40
15.0
 50
203.1149699999892
 51
223.48497000000719
  0
ARC
  5
BAE3
  8
0
 10
414.46300153174479
 20
737.39886455354565
 30
0.0
 40
5.8039399999999972
 50
103.12598999998779
 51
164.53998000000831
  0
ARC
  5
BAE4
  8
0
 10
414.46300153174479
 20
762.65386455354565
 30
0.0
 40
5.8039399999999972
 50
195.4599800000006
 51
256.87396999999709
  0
ARC
  5
BAE5
  8
0
 10
259.2750115317445
 20
737.39886455354565
 30
0.0
 40
5.8039399999999972
 50
15.459701000003831
 51
76.873785999998731
  0
ARC
  5
BAE6
  8
0
 10
270.86901153174449
 20
731.18987455354556
 30
0.0
 40
6.0
 50
179.99997999999789
 51
269.9999499999949
  0
ARC
  5
BAE7
  8
0
 10
270.86901153174449
 20
735.7484485535457
 30
0.0
 40
12.5
 50
179.99997999999789
 51
269.9999499999949
  0
ARC
  5
BAE8
  8
0
 10
402.86901153174432
 20
731.18987455354556
 30
0.0
 40
6.0
 50
269.99995999999589
 51
359.9999500000016
  0
ARC
  5
BAE9
  8
0
 10
402.86901153174432
 20
735.7484485535457
 30
0.0
 40
12.5
 50
269.99995999999589
 51
359.9999500000016
  0
ARC
  5
BAEA
  8
0
 10
402.86901153174432
 20
760.47979455354573
 30
0.0
 40
6.0
 50
0.0
 51
89.999989000004106
  0
ARC
  5
BAEB
  8
0
 10
402.86901153174432
 20
758.15081455354573
 30
0.0
 40
12.5
 50
23.114594999997099
 51
89.999989000004106
  0
ARC
  5
BAEC
  8
0
 10
269.86901153174449
 20
773.18987455354556
 30
0.0
 40
6.0
 50
89.999989000004106
 51
147.54197999998669
  0
ARC
  5
BAED
  8
0
 10
270.86901153174449
 20
765.47784455354599
 30
0.0
 40
12.5
 50
89.999989000004106
 51
156.9299800000079
  0
ARC
  5
BAEE
  8
0
 10
403.86901153174449
 20
773.18987455354556
 30
0.0
 40
6.0
 50
32.458496999997593
 51
89.999989000004106
  0
ARC
  5
BAEF
  8
0
 10
402.86901153174432
 20
765.47784455354599
 30
0.0
 40
12.5
 50
23.114594999997099
 51
89.999989000004106
  0
LINE
  5
BAF0
  8
0
 10
405.36901153174438
 20
778.99883455354586
 30
0.0
 11
405.36901153174438
 21
782.18987455354568
 31
0.0
  0
LINE
  5
BAF1
  8
0
 10
330.36901153174449
 20
779.18987455354568
 30
0.0
 11
330.36901153174449
 21
782.18987455354568
 31
0.0
  0
LINE
  5
BAF2
  8
0
 10
256.45995153174448
 20
765.95184455354558
 30
0.0
 11
252.4069715317446
 21
763.57281455354564
 31
0.0
  0
LINE
  5
BAF3
  8
0
 10
255.09300153174439
 20
743.05083455354566
 30
0.0
 11
260.59300153174439
 21
743.05083455354566
 31
0.0
  0
LINE
  5
BAF4
  8
0
 10
256.45995153174448
 20
758.62487455354574
 30
0.0
 11
252.40703153174451
 21
756.24487455354563
 31
0.0
  0
LINE
  5
BAF5
  8
0
 10
255.0589515317447
 20
756.99889455354571
 30
0.0
 11
260.5929415317446
 21
757.00195455354572
 31
0.0
  0
LINE
  5
BAF6
  8
0
 10
248.36901153174449
 20
750.04888455354569
 30
0.0
 11
248.36901153174449
 21
757.33086455354567
 31
0.0
  0
LINE
  5
BAF7
  8
0
 10
258.36901153174449
 20
746.87688455354589
 30
0.0
 11
258.36901153174449
 21
753.73980455354558
 31
0.0
  0
LINE
  5
BAF8
  8
0
 10
261.86705153174438
 20
750.02581455354573
 30
0.0
 11
255.6090015317445
 21
750.02581455354573
 31
0.0
  0
LINE
  5
BAF9
  8
0
 10
417.27794153174449
 20
765.95190455354589
 30
0.0
 11
421.33098153174473
 21
763.57287455354572
 31
0.0
  0
LINE
  5
BAFA
  8
0
 10
418.64501153174427
 20
743.05083455354566
 30
0.0
 11
413.14501153174427
 21
743.05083455354566
 31
0.0
  0
LINE
  5
BAFB
  8
0
 10
417.27800153174411
 20
758.62481455354555
 30
0.0
 11
421.33098153174473
 21
756.24480455354569
 31
0.0
  0
LINE
  5
BAFC
  8
0
 10
418.67790153174462
 20
756.99883455354598
 30
0.0
 11
413.14495153174408
 21
757.00188455354555
 31
0.0
  0
LINE
  5
BAFD
  8
0
 10
425.36901153174449
 20
750.04888455354569
 30
0.0
 11
425.36901153174449
 21
757.33086455354567
 31
0.0
  0
LINE
  5
BAFE
  8
0
 10
415.36901153174432
 20
746.87688455354589
 30
0.0
 11
415.36901153174432
 21
753.73980455354558
 31
0.0
  0
LINE
  5
BAFF
  8
0
 10
411.86998153174449
 20
750.02581455354573
 30
0.0
 11
418.1280415317446
 21
750.02581455354573
 31
0.0
  0
LINE
  5
BB00
  8
0
 10
264.86901153174449
 20
731.18987655354556
 30
0.0
 11
264.86901153174449
 21
760.47979455354573
 31
0.0
  0
LINE
  5
BB01
  8
0
 10
258.36901153174449
 20
735.7484485535457
 30
0.0
 11
258.36901153174449
 21
743.05083455354566
 31
0.0
  0
LINE
  5
BB02
  8
0
 10
408.86901153174449
 20
731.18986955354569
 30
0.0
 11
408.86901153174449
 21
760.47979455354573
 31
0.0
  0
LINE
  5
BB03
  8
0
 10
270.86901153174449
 20
770.65081455354573
 30
0.0
 11
402.86901153174432
 21
770.65081455354573
 31
0.0
  0
LINE
  5
BB04
  8
0
 10
415.36901153174432
 20
735.7484485535457
 30
0.0
 11
415.36901153174432
 21
743.05083455354566
 31
0.0
  0
LINE
  5
BB05
  8
0
 10
270.86901153174449
 20
723.2484485535457
 30
0.0
 11
402.86901153174432
 21
723.2484485535457
 31
0.0
  0
LINE
  5
BB06
  8
0
 10
270.86901153174449
 20
725.18987455354568
 30
0.0
 11
402.86901153174432
 21
725.18987455354568
 31
0.0
  0
LINE
  5
BB07
  8
0
 10
270.86901153174449
 20
766.47979455354573
 30
0.0
 11
402.86901153174432
 21
766.47979455354573
 31
0.0
  0
LINE
  5
BB08
  8
0
 10
269.86901153174449
 20
779.18987455354568
 30
0.0
 11
403.86901153174449
 21
779.18987455354568
 31
0.0
  0
LINE
  5
BB09
  8
0
 10
270.86901153174449
 20
777.97784455354599
 30
0.0
 11
402.86901153174432
 21
777.97784455354599
 31
0.0
  0
LINE
  5
BB0A
  8
0
 10
269.86901153174449
 20
776.18987455354556
 30
0.0
 11
403.86901153174449
 21
776.18987455354556
 31
0.0
  0
ARC
  5
BB0B
  8
0
 10
275.81265553174438
 20
801.78919455354605
 30
0.0
 40
2.0
 50
189.99999999999861
 51
270.0
  0
LINE
  5
BB0C
  8
0
 10
273.84304053174452
 20
801.44189855354557
 30
0.0
 11
270.86901153174449
 21
818.30845255354586
 31
0.0
  0
LINE
  5
BB0D
  8
0
 10
270.86901153174449
 20
818.30845255354586
 30
0.0
 11
271.93075053174431
 21
818.30845255354586
 31
0.0
  0
LINE
  5
BB0E
  8
0
 10
469.3331525317443
 20
970.36218155354595
 30
0.0
 11
469.86901153174449
 21
970.36218155354595
 31
0.0
  0
LINE
  5
BB0F
  8
0
 10
469.59354353174461
 20
971.92443855354588
 30
0.0
 11
469.86901153174449
 21
971.92443855354588
 31
0.0
  0
LINE
  5
BB10
  8
0
 10
471.54721053174433
 20
796.19002555354564
 30
0.0
 11
471.86901153174438
 21
796.19002555354564
 31
0.0
  0
LINE
  5
BB11
  8
0
 10
467.68961653174432
 20
801.03788855354571
 30
0.0
 11
469.86901153174449
 21
801.03788855354571
 31
0.0
  0
LINE
  5
BB12
  8
0
 10
468.69569953174448
 20
813.14345855354566
 30
0.0
 11
469.86901153174449
 21
813.14345855354566
 31
0.0
  0
LINE
  5
BB13
  8
0
 10
367.86901153174449
 20
776.53390955354598
 30
0.0
 11
367.86901153174449
 21
785.71562555354569
 31
0.0
  0
ARC
  5
BB14
  8
0
 10
466.11189153174428
 20
973.19812255354589
 30
0.0
 40
2.0
 50
9.9999999999986073
 51
90.0
  0
ARC
  5
BB15
  8
0
 10
466.17790853174432
 20
976.73892155354588
 30
0.0
 40
2.0
 50
9.9999999999986073
 51
90.0
  0
ARC
  5
BB16
  8
0
 10
466.2638265317446
 20
979.29065855354565
 30
0.0
 40
2.0
 50
9.9999999999986073
 51
90.0
  0
ARC
  5
BB17
  8
0
 10
466.29257553174409
 20
980.68987455354613
 30
0.0
 40
2.0
 50
9.9999999999986073
 51
90.0
  0
LINE
  5
BB18
  8
0
 10
474.86901453174448
 20
969.18987455354613
 30
0.0
 11
471.86901453174448
 21
972.18987455354556
 31
0.0
  0
LINE
  5
BB19
  8
0
 10
262.36901153174449
 20
981.18984855354597
 30
0.0
 11
262.36901153174449
 21
787.18987455354568
 31
0.0
  0
LINE
  5
BB1A
  8
0
 10
469.82220753174443
 20
972.18987455354556
 30
0.0
 11
471.86901153174438
 21
972.18987455354556
 31
0.0
  0
LINE
  5
BB1B
  8
0
 10
474.86901153174449
 20
799.18987455354568
 30
0.0
 11
471.86901153174438
 21
796.18987455354568
 31
0.0
  0
LINE
  5
BB1C
  8
0
 10
471.86901153174438
 20
796.18987455354568
 30
0.0
 11
471.86901153174438
 21
821.81026055354596
 31
0.0
  0
LINE
  5
BB1D
  8
0
 10
474.86901153174449
 20
799.18987455354568
 30
0.0
 11
474.86901153174449
 21
880.18987455354625
 31
0.0
  0
CIRCLE
  5
BB1E
  8
0
 10
367.86901153174449
 20
884.18987455354568
 30
0.0
 40
11.0
  0
LINE
  5
BB1F
  8
0
 10
275.15513153174419
 20
982.68987455354602
 30
0.0
 11
326.86901153174449
 21
982.68987455354602
 31
0.0
  0
LINE
  5
BB20
  8
0
 10
406.86901153174409
 20
975.19812255354589
 30
0.0
 11
406.86901153174409
 21
980.68987455354613
 31
0.0
  0
LINE
  5
BB21
  8
0
 10
328.86901153174449
 20
975.19812255354589
 30
0.0
 11
328.86901153174449
 21
980.68987455354613
 31
0.0
  0
ARC
  5
BB22
  8
0
 10
326.86901153174449
 20
980.68987455354613
 30
0.0
 40
2.0
 50
0.0
 51
90.0
  0
ARC
  5
BB23
  8
0
 10
408.86901153174449
 20
980.68987455354613
 30
0.0
 40
2.0
 50
90.0
 51
180.0
  0
LINE
  5
BB24
  8
0
 10
408.86901153174449
 20
982.68987455354602
 30
0.0
 11
466.29257553174409
 21
982.68987455354602
 31
0.0
  0
LINE
  5
BB25
  8
0
 10
466.2638265317446
 20
981.29065855354565
 30
0.0
 11
408.86901153174449
 21
981.29065855354565
 31
0.0
  0
LINE
  5
BB26
  8
0
 10
469.86901153174449
 20
970.36218155354595
 30
0.0
 11
468.2334425317444
 21
979.63795455354557
 31
0.0
  0
LINE
  5
BB27
  8
0
 10
469.86901153174449
 20
971.92443855354588
 30
0.0
 11
468.26219053174458
 21
981.03717055354593
 31
0.0
  0
LINE
  5
BB28
  8
0
 10
270.86901153174449
 20
967.89962055354556
 30
0.0
 11
273.18551653174433
 21
981.03717055354593
 31
0.0
  0
ARC
  5
BB29
  8
0
 10
275.15513153174419
 20
980.68987455354613
 30
0.0
 40
2.0
 50
90.0
 51
170.00000000000139
  0
LINE
  5
BB2A
  8
0
 10
270.86901153174449
 20
966.24055955354572
 30
0.0
 11
273.23133353174438
 21
979.63795455354557
 31
0.0
  0
ARC
  5
BB2B
  8
0
 10
275.20094953174481
 20
979.29065855354565
 30
0.0
 40
2.0
 50
90.0
 51
170.00000000000139
  0
ARC
  5
BB2C
  8
0
 10
326.86901153174449
 20
979.29065855354565
 30
0.0
 40
2.0
 50
0.0
 51
90.0
  0
ARC
  5
BB2D
  8
0
 10
408.86901153174449
 20
979.29065855354565
 30
0.0
 40
2.0
 50
90.0
 51
180.0
  0
LINE
  5
BB2E
  8
0
 10
326.86901153174449
 20
981.29065855354565
 30
0.0
 11
275.20094953174481
 21
981.29065855354565
 31
0.0
  0
LINE
  5
BB2F
  8
0
 10
466.17790853174432
 20
978.73892155354565
 30
0.0
 11
408.86901153174449
 21
978.73892155354565
 31
0.0
  0
LINE
  5
BB30
  8
0
 10
469.74023153174448
 20
968.05352355354557
 30
0.0
 11
468.14752353174413
 21
977.08621855354602
 31
0.0
  0
LINE
  5
BB31
  8
0
 10
270.86901153174449
 20
963.01976855354599
 30
0.0
 11
273.34930653174479
 21
977.08621855354602
 31
0.0
  0
ARC
  5
BB32
  8
0
 10
275.31892153174431
 20
976.73892155354588
 30
0.0
 40
2.0
 50
90.0
 51
170.00000000000139
  0
ARC
  5
BB33
  8
0
 10
326.86901153174449
 20
976.73892155354588
 30
0.0
 40
2.0
 50
0.0
 51
90.0
  0
ARC
  5
BB34
  8
0
 10
408.86901153174449
 20
976.73892155354588
 30
0.0
 40
2.0
 50
90.0
 51
180.0
  0
LINE
  5
BB35
  8
0
 10
326.86901153174449
 20
978.73892155354565
 30
0.0
 11
275.31892153174431
 21
978.73892155354565
 31
0.0
  0
LINE
  5
BB36
  8
0
 10
466.11189153174428
 20
975.19812255354589
 30
0.0
 11
275.48043053174428
 21
975.19812255354589
 31
0.0
  0
LINE
  5
BB37
  8
0
 10
469.0498765317447
 20
968.05352355354557
 30
0.0
 11
468.08150753174459
 21
973.54541855354591
 31
0.0
  0
LINE
  5
BB38
  8
0
 10
270.86901153174449
 20
958.56300855354573
 30
0.0
 11
273.51081453174447
 21
973.54541855354591
 31
0.0
  0
ARC
  5
BB39
  8
0
 10
275.48043053174428
 20
973.19812255354589
 30
0.0
 40
2.0
 50
90.0
 51
170.00000000000139
  0
LINE
  5
BB3A
  8
0
 10
399.92536753174448
 20
968.59055455354564
 30
0.0
 11
275.81265553174438
 21
968.59055455354564
 31
0.0
  0
LINE
  5
BB3B
  8
0
 10
404.86901153174449
 20
950.07129655354572
 30
0.0
 11
401.89498253174452
 21
966.93785055354567
 31
0.0
  0
ARC
  5
BB3C
  8
0
 10
399.92536753174448
 20
966.59055455354564
 30
0.0
 40
2.0
 50
9.9999999999986073
 51
90.0
  0
LINE
  5
BB3D
  8
0
 10
270.86901153174449
 20
950.07129655354572
 30
0.0
 11
273.84304053174452
 21
966.93785055354567
 31
0.0
  0
ARC
  5
BB3E
  8
0
 10
275.81265553174438
 20
966.59055455354564
 30
0.0
 40
2.0
 50
90.0
 51
170.00000000000139
  0
LINE
  5
BB3F
  8
0
 10
399.59510353174443
 20
963.18851055354594
 30
0.0
 11
276.1429195317445
 21
963.18851055354594
 31
0.0
  0
LINE
  5
BB40
  8
0
 10
404.64796053174422
 20
944.04987455354569
 30
0.0
 11
401.56471953174469
 21
961.53580755354585
 31
0.0
  0
ARC
  5
BB41
  8
0
 10
399.59510353174443
 20
961.18851055354605
 30
0.0
 40
2.0
 50
9.9999999999986073
 51
90.0
  0
LINE
  5
BB42
  8
0
 10
271.14600553174432
 20
944.36714255354605
 30
0.0
 11
274.1733035317443
 21
961.53580755354585
 31
0.0
  0
ARC
  5
BB43
  8
0
 10
276.1429195317445
 20
961.18851055354605
 30
0.0
 40
2.0
 50
90.0
 51
170.00000000000139
  0
LINE
  5
BB44
  8
0
 10
469.86901153174449
 20
889.22002655354595
 30
0.0
 11
469.86901153174449
 21
892.16771855354557
 31
0.0
  0
LINE
  5
BB45
  8
0
 10
469.86901153174449
 20
899.21950255354568
 30
0.0
 11
469.86901153174449
 21
902.18098155354596
 31
0.0
  0
LINE
  5
BB46
  8
0
 10
469.86901153174449
 20
910.21168255354587
 30
0.0
 11
469.86901153174449
 21
913.20430955354584
 31
0.0
  0
LINE
  5
BB47
  8
0
 10
469.86901153174449
 20
921.19447755354599
 30
0.0
 11
469.86901153174449
 21
924.24018355354565
 31
0.0
  0
LINE
  5
BB48
  8
0
 10
469.86901153174449
 20
932.16435655354564
 30
0.0
 11
469.86901153174449
 21
935.29526955354595
 31
0.0
  0
LINE
  5
BB49
  8
0
 10
469.86901153174449
 20
941.12283255354589
 30
0.0
 11
469.86901153174449
 21
944.36714255354605
 31
0.0
  0
LINE
  5
BB4A
  8
0
 10
419.86901153174449
 20
958.56300855354573
 30
0.0
 11
403.37169353174471
 21
958.56300855354573
 31
0.0
  0
LINE
  5
BB4B
  8
0
 10
451.65578853174429
 20
963.40797655354572
 30
0.0
 11
435.86901153174409
 21
963.40797655354572
 31
0.0
  0
LINE
  5
BB4C
  8
0
 10
419.86901153174449
 20
958.56300855354573
 30
0.0
 11
435.86901153174409
 21
963.40797655354572
 31
0.0
  0
LINE
  5
BB4D
  8
0
 10
435.86901153174409
 20
963.40797655354572
 30
0.0
 11
435.86901153174409
 21
960.04266155354594
 31
0.0
  0
LINE
  5
BB4E
  8
0
 10
419.86901153174449
 20
958.56300855354573
 30
0.0
 11
419.86901153174449
 21
944.36714255354605
 31
0.0
  0
LINE
  5
BB4F
  8
0
 10
455.36901153174438
 20
947.25583655354603
 30
0.0
 11
455.36901153174438
 21
966.05352355354603
 31
0.0
  0
ARC
  5
BB50
  8
0
 10
457.36901153174449
 20
966.05352355354603
 30
0.0
 40
2.0
 50
90.0
 51
180.0
  0
LINE
  5
BB51
  8
0
 10
455.36901153174438
 20
951.645934553546
 30
0.0
 11
435.86901153174409
 21
951.645934553546
 31
0.0
  0
LINE
  5
BB52
  8
0
 10
449.96901753174461
 20
960.04266155354594
 30
0.0
 11
435.86901153174409
 21
960.04266155354594
 31
0.0
  0
LINE
  5
BB53
  8
0
 10
435.86901153174409
 20
951.645934553546
 30
0.0
 11
435.86901153174409
 21
944.36714255354605
 31
0.0
  0
ARC
  5
BB54
  8
0
  6
CONTINUOUS
 10
452.56881053174448
 20
955.67314055354564
 30
0.0
 40
2.6003989999999999
 50
179.99998200000081
 51
269.99997800000818
  0
ARC
  5
BB55
  8
0
  6
CONTINUOUS
 10
452.56881053174448
 20
960.97312855354585
 30
0.0
 40
2.600403
 50
90.0
 51
179.99998200000081
  0
LINE
  5
BB56
  8
0
  6
CONTINUOUS
 10
455.36901153174438
 20
958.3891595535456
 30
0.0
 11
453.86901153174449
 21
957.52313455354556
 31
0.0
  0
LINE
  5
BB57
  8
0
  6
CONTINUOUS
 10
455.36901153174438
 20
959.3891595535456
 30
0.0
 11
453.86901153174449
 21
958.52313455354602
 31
0.0
  0
LINE
  5
BB58
  8
0
  6
CONTINUOUS
 10
455.36901153174438
 20
964.42313455354588
 30
0.0
 11
455.36901153174438
 21
952.22313455354572
 31
0.0
  0
LINE
  5
BB59
  8
0
  6
CONTINUOUS
 10
453.86901153174449
 20
964.42313455354588
 30
0.0
 11
455.36901153174438
 21
964.42313455354588
 31
0.0
  0
LINE
  5
BB5A
  8
0
  6
CONTINUOUS
 10
453.86901153174449
 20
952.22313455354572
 30
0.0
 11
455.36901153174438
 21
952.22313455354572
 31
0.0
  0
LINE
  5
BB5B
  8
0
  6
CONTINUOUS
 10
449.96901753174461
 20
960.97312855354585
 30
0.0
 11
449.96901753174461
 21
955.67314055354564
 31
0.0
  0
LINE
  5
BB5C
  8
0
  6
CONTINUOUS
 10
453.86901153174449
 20
964.42313455354588
 30
0.0
 11
453.86901153174449
 21
952.22313455354572
 31
0.0
  0
LINE
  5
BB5D
  8
0
  6
CONTINUOUS
 10
453.86901153174449
 20
953.07313455354586
 30
0.0
 11
452.56881053174448
 21
953.07313455354586
 31
0.0
  0
LINE
  5
BB5E
  8
0
  6
CONTINUOUS
 10
453.86901153174449
 20
963.57313455354586
 30
0.0
 11
452.56881053174448
 21
963.57313455354586
 31
0.0
  0
LINE
  5
BB5F
  8
0
 10
474.86901153174449
 20
968.05352355354557
 30
0.0
 11
457.36901153174449
 21
968.05352355354557
 31
0.0
  0
LINE
  5
BB60
  8
0
 10
474.86901153174449
 20
946.25583655354615
 30
0.0
 11
454.36901153174449
 21
946.25583655354615
 31
0.0
  0
ARC
  5
BB61
  8
0
 10
454.36901153174449
 20
947.25583655354603
 30
0.0
 40
1.0
 50
270.0
 51
0.0
  0
LINE
  5
BB62
  8
0
 10
474.86901153174449
 20
959.92951855354556
 30
0.0
 11
457.36901153174449
 21
959.92951855354556
 31
0.0
  0
LINE
  5
BB63
  8
0
 10
262.36901153174449
 20
968.18987455354613
 30
0.0
 11
270.86901153174449
 21
968.18987455354613
 31
0.0
  0
ARC
  5
BB64
  8
0
 10
471.54721053174433
 20
794.18987455354556
 30
0.0
 40
2.0
 50
90.0
 51
170.00000000000139
  0
ARC
  5
BB65
  8
0
 10
407.61165353174459
 20
789.19621755354558
 30
0.0
 40
1.9936590000000001
 50
90.075931000003507
 51
178.17025399999861
  0
LINE
  5
BB66
  8
0
 10
407.6090115317441
 20
791.18987455354568
 30
0.0
 11
467.3091775317443
 21
791.18987455354568
 31
0.0
  0
LINE
  5
BB67
  8
0
 10
405.36901153174438
 20
782.18987455354568
 30
0.0
 11
405.98504053174412
 21
799.78919455354571
 31
0.0
  0
LINE
  5
BB68
  8
0
 10
469.57759553174441
 20
794.53717055354571
 30
0.0
 11
469.27879253174427
 21
792.84257855354599
 31
0.0
  0
ARC
  5
BB69
  8
0
 10
467.3091775317443
 20
793.18987455354556
 30
0.0
 40
2.0
 50
270.0
 51
350.00000000000142
  0
LINE
  5
BB6A
  8
0
 10
271.44636153174451
 20
799.18987455354568
 30
0.0
 11
278.66324053174458
 21
786.68987455354568
 31
0.0
  0
LINE
  5
BB6B
  8
0
 10
280.39529053174459
 20
785.68987455354556
 30
0.0
 11
328.31398253174439
 21
785.68987455354556
 31
0.0
  0
LINE
  5
BB6C
  8
0
 10
330.36901153174449
 20
782.18987455354568
 30
0.0
 11
330.31269953174427
 21
783.76148955354597
 31
0.0
  0
ARC
  5
BB6D
  8
0
 10
269.7143105317445
 20
798.18987455354556
 30
0.0
 40
2.0
 50
29.999999999991651
 51
90.0
  0
ARC
  5
BB6E
  8
0
 10
280.39529053174459
 20
787.68987455354568
 30
0.0
 40
2.0
 50
209.9999999999917
 51
270.0
  0
ARC
  5
BB6F
  8
0
 10
328.31398253174439
 20
783.68987455354568
 30
0.0
 40
2.0
 50
2.0520649999985339
 51
90.0
  0
LINE
  5
BB70
  8
0
 10
330.36901153174449
 20
782.18987455354568
 30
0.0
 11
405.36901153174438
 21
782.18987455354568
 31
0.0
  0
LINE
  5
BB71
  8
0
 10
279.39529053174459
 20
785.95782355354572
 30
0.0
 11
279.39529053174459
 21
799.78919455354571
 31
0.0
  0
LINE
  5
BB72
  8
0
 10
465.83609553174409
 20
799.78919455354571
 30
0.0
 11
275.81265553174438
 21
799.78919455354571
 31
0.0
  0
LINE
  5
BB73
  8
0
 10
465.61530953174451
 20
805.19123855354587
 30
0.0
 11
275.92186853174462
 21
805.19123855354587
 31
0.0
  0
LINE
  5
BB74
  8
0
 10
469.86901153174449
 20
819.79764055354599
 30
0.0
 11
435.86901153174409
 21
819.79764055354599
 31
0.0
  0
LINE
  5
BB75
  8
0
 10
469.86901153174449
 20
819.79764055354599
 30
0.0
 11
467.58492453174438
 21
806.84394155354585
 31
0.0
  0
ARC
  5
BB76
  8
0
 10
465.61530953174451
 20
807.19123855354565
 30
0.0
 40
2.0
 50
270.0
 51
350.00000000000142
  0
LINE
  5
BB77
  8
0
 10
469.86901153174449
 20
813.14345855354566
 30
0.0
 11
467.80571053174413
 21
801.44189855354557
 31
0.0
  0
ARC
  5
BB78
  8
0
 10
465.83609553174409
 20
801.78919455354605
 30
0.0
 40
2.0
 50
270.0
 51
350.00000000000142
  0
LINE
  5
BB79
  8
0
 10
274.61174953174441
 20
800.18987455354556
 30
0.0
 11
262.36901153174449
 21
800.18987455354556
 31
0.0
  0
LINE
  5
BB7A
  8
0
 10
469.86901153174449
 20
801.03788855354571
 30
0.0
 11
468.42395753174458
 21
792.84257855354599
 31
0.0
  0
ARC
  5
BB7B
  8
0
 10
466.45434153174432
 20
793.18987455354556
 30
0.0
 40
2.0
 50
270.0
 51
350.00000000000142
  0
LINE
  5
BB7C
  8
0
 10
404.86901153174449
 20
836.02987455354571
 30
0.0
 11
404.86901153174449
 21
833.32987455354555
 31
0.0
  0
LINE
  5
BB7D
  8
0
 10
474.86901153174449
 20
821.98023755354598
 30
0.0
 11
457.36901153174449
 21
821.98023755354598
 31
0.0
  0
LINE
  5
BB7E
  8
0
 10
474.86901153174449
 20
834.28787655354563
 30
0.0
 11
457.36901153174449
 21
834.28787655354563
 31
0.0
  0
LINE
  5
BB7F
  8
0
 10
474.86901153174449
 20
844.46716855354589
 30
0.0
 11
469.86901153174449
 21
844.46716855354589
 31
0.0
  0
LINE
  5
BB80
  8
0
 10
455.36901153174438
 20
843.46716855354589
 30
0.0
 11
455.36901153174438
 21
823.98023755354563
 31
0.0
  0
ARC
  5
BB81
  8
0
 10
454.36901153174449
 20
843.46716855354589
 30
0.0
 40
1.0
 50
0.0
 51
42.252324000004279
  0
ARC
  5
BB82
  8
0
 10
457.36901153174449
 20
823.98023755354563
 30
0.0
 40
2.0
 50
180.0
 51
270.0
  0
LINE
  5
BB83
  8
0
 10
419.86901153174449
 20
941.12283255354589
 30
0.0
 11
419.86901153174449
 21
935.29526955354595
 31
0.0
  0
LINE
  5
BB84
  8
0
 10
435.86901153174409
 20
941.12283255354589
 30
0.0
 11
435.86901153174409
 21
935.29526955354595
 31
0.0
  0
LINE
  5
BB85
  8
0
 10
419.86901153174449
 20
932.16435655354564
 30
0.0
 11
419.86901153174449
 21
924.24018355354565
 31
0.0
  0
LINE
  5
BB86
  8
0
 10
419.86901153174449
 20
921.19447755354599
 30
0.0
 11
419.86901153174449
 21
913.20430955354584
 31
0.0
  0
LINE
  5
BB87
  8
0
 10
419.86901153174449
 20
910.21168255354587
 30
0.0
 11
419.86901153174449
 21
902.18098155354596
 31
0.0
  0
LINE
  5
BB88
  8
0
 10
419.86901153174449
 20
899.21950255354568
 30
0.0
 11
419.86901153174449
 21
892.16771855354557
 31
0.0
  0
LINE
  5
BB89
  8
0
 10
419.86901153174449
 20
889.34987455354599
 30
0.0
 11
419.86901153174449
 21
879.15972255354563
 31
0.0
  0
LINE
  5
BB8A
  8
0
 10
435.86901153174409
 20
889.34987455354599
 30
0.0
 11
435.86901153174409
 21
879.15972255354563
 31
0.0
  0
LINE
  5
BB8B
  8
0
 10
435.86901153174409
 20
899.21950255354568
 30
0.0
 11
435.86901153174409
 21
892.16771855354557
 31
0.0
  0
LINE
  5
BB8C
  8
0
 10
435.86901153174409
 20
910.21168255354587
 30
0.0
 11
435.86901153174409
 21
902.18098155354596
 31
0.0
  0
LINE
  5
BB8D
  8
0
 10
435.86901153174409
 20
921.19447755354599
 30
0.0
 11
435.86901153174409
 21
913.20430955354584
 31
0.0
  0
LINE
  5
BB8E
  8
0
 10
435.86901153174409
 20
932.16435655354564
 30
0.0
 11
435.86901153174409
 21
924.24018355354565
 31
0.0
  0
LINE
  5
BB8F
  8
0
 10
419.86901153174449
 20
876.21203055354567
 30
0.0
 11
419.86901153174449
 21
869.16024655354556
 31
0.0
  0
LINE
  5
BB90
  8
0
 10
435.86901153174409
 20
876.21203055354567
 30
0.0
 11
435.86901153174409
 21
869.16024655354556
 31
0.0
  0
LINE
  5
BB91
  8
0
 10
435.86901153174409
 20
866.19876755354562
 30
0.0
 11
435.86901153174409
 21
858.16806655354605
 31
0.0
  0
LINE
  5
BB92
  8
0
 10
419.86901153174449
 20
866.19876755354562
 30
0.0
 11
419.86901153174449
 21
858.16806655354605
 31
0.0
  0
LINE
  5
BB93
  8
0
 10
419.86901153174449
 20
855.17543955354586
 30
0.0
 11
419.86901153174449
 21
847.18527155354559
 31
0.0
  0
LINE
  5
BB94
  8
0
 10
435.86901153174409
 20
855.17543955354586
 30
0.0
 11
435.86901153174409
 21
847.18527155354559
 31
0.0
  0
LINE
  5
BB95
  8
0
 10
450.41840653174449
 20
828.16907855354555
 30
0.0
 11
435.86901053174461
 21
828.16907855354555
 31
0.0
  0
LINE
  5
BB96
  8
0
 10
455.36901153174438
 20
839.58142855354583
 30
0.0
 11
435.86901053174461
 21
839.58142855354583
 31
0.0
  0
LINE
  5
BB97
  8
0
 10
419.86901153174449
 20
844.13956555354571
 30
0.0
 11
419.86901153174449
 21
824.13956555354571
 31
0.0
  0
LINE
  5
BB98
  8
0
 10
471.86901153174438
 20
968.05352355354557
 30
0.0
 11
471.86901153174438
 21
972.18987455354556
 31
0.0
  0
LINE
  5
BB99
  8
0
 10
469.86901153174449
 20
797.98813055354572
 30
0.0
 11
468.96171153174458
 21
792.84257855354599
 31
0.0
  0
ARC
  5
BB9A
  8
0
 10
466.99209653174449
 20
793.18987455354556
 30
0.0
 40
2.0
 50
270.0
 51
350.00000000000142
  0
LINE
  5
BB9B
  8
0
 10
435.86901153174409
 20
844.13956555354571
 30
0.0
 11
435.86901153174409
 21
839.58142855354583
 31
0.0
  0
LINE
  5
BB9C
  8
0
 10
471.86901153174438
 20
844.46716855354589
 30
0.0
 11
471.86901153174438
 21
880.18987455354625
 31
0.0
  0
LINE
  5
BB9D
  8
0
 10
270.86901153174449
 20
824.32987455354555
 30
0.0
 11
273.95225353174459
 21
806.84394155354585
 31
0.0
  0
ARC
  5
BB9E
  8
0
 10
275.92186853174462
 20
807.19123855354565
 30
0.0
 40
2.0
 50
189.99999999999861
 51
270.0
  0
LINE
  5
BB9F
  8
0
 10
420.5744085317441
 20
832.88416855354603
 30
0.0
 11
435.86901153174409
 21
828.16907855354555
 31
0.0
  0
LINE
  5
BBA0
  8
0
 10
435.86901153174409
 20
839.58142855354583
 30
0.0
 11
420.83307053174411
 21
839.04067755354595
 31
0.0
  0
LINE
  5
BBA1
  8
0
 10
435.86901153174409
 20
828.16907855354555
 30
0.0
 11
435.86901153174409
 21
819.79764055354599
 31
0.0
  0
ARC
  5
BBA2
  8
0
 10
420.86901153174449
 20
838.04132355354557
 30
0.0
 40
1.0
 50
92.059690999990565
 51
180.0
  0
ARC
  5
BBA3
  8
0
 10
420.86901153174449
 20
833.83978855354599
 30
0.0
 40
1.0
 50
180.0
 51
252.8662750000021
  0
LINE
  5
BBA4
  8
0
 10
435.86901153174409
 20
960.04266155354594
 30
0.0
 11
420.56855253174427
 21
955.22279555354601
 31
0.0
  0
LINE
  5
BBA5
  8
0
 10
420.91756653174428
 20
950.91911455354557
 30
0.0
 11
435.86901153174409
 21
951.645934553546
 31
0.0
  0
ARC
  5
BBA6
  8
0
 10
420.86901153174449
 20
954.26900055354565
 30
0.0
 40
1.0
 50
107.4851790000144
 51
180.0
  0
ARC
  5
BBA7
  8
0
 10
420.86901153174449
 20
951.91793555354604
 30
0.0
 40
1.0
 50
180.0
 51
270.0
  0
ARC
  5
BBA8
  8
0
  6
CONTINUOUS
 10
452.56881053174448
 20
829.63121355354565
 30
0.0
 40
2.6003989999999999
 50
179.99998200000081
 51
269.99997800000818
  0
ARC
  5
BBA9
  8
0
  6
CONTINUOUS
 10
452.56881053174448
 20
834.93120155354563
 30
0.0
 40
2.600403
 50
90.0
 51
179.99998200000081
  0
LINE
  5
BBAA
  8
0
  6
CONTINUOUS
 10
455.36901153174438
 20
832.34723255354572
 30
0.0
 11
453.86901153174449
 21
831.48120755354557
 31
0.0
  0
LINE
  5
BBAB
  8
0
  6
CONTINUOUS
 10
455.36901153174438
 20
833.34723255354595
 30
0.0
 11
453.86901153174449
 21
832.48120755354557
 31
0.0
  0
LINE
  5
BBAC
  8
0
  6
CONTINUOUS
 10
455.36901153174438
 20
838.38120755354589
 30
0.0
 11
455.36901153174438
 21
826.18120755354573
 31
0.0
  0
LINE
  5
BBAD
  8
0
  6
CONTINUOUS
 10
453.86901153174449
 20
838.38120755354589
 30
0.0
 11
455.36901153174438
 21
838.38120755354589
 31
0.0
  0
LINE
  5
BBAE
  8
0
  6
CONTINUOUS
 10
453.86901153174449
 20
826.18120755354573
 30
0.0
 11
455.36901153174438
 21
826.18120755354573
 31
0.0
  0
LINE
  5
BBAF
  8
0
  6
CONTINUOUS
 10
449.96901753174461
 20
834.93120155354563
 30
0.0
 11
449.96901753174461
 21
829.63121355354565
 31
0.0
  0
LINE
  5
BBB0
  8
0
  6
CONTINUOUS
 10
453.86901153174449
 20
838.38120755354589
 30
0.0
 11
453.86901153174449
 21
826.18120755354573
 31
0.0
  0
LINE
  5
BBB1
  8
0
  6
CONTINUOUS
 10
453.86901153174449
 20
827.03120755354587
 30
0.0
 11
452.56881053174448
 21
827.03120755354587
 31
0.0
  0
LINE
  5
BBB2
  8
0
  6
CONTINUOUS
 10
453.86901153174449
 20
837.53120755354564
 30
0.0
 11
452.56881053174448
 21
837.53120755354564
 31
0.0
  0
LINE
  5
BBB3
  8
0
 10
469.86901153174449
 20
944.36714255354605
 30
0.0
 11
270.86901153174449
 21
944.36714255354605
 31
0.0
  0
LINE
  5
BBB4
  8
0
 10
469.86901153174449
 20
941.12283255354589
 30
0.0
 11
270.86901153174449
 21
941.12283255354589
 31
0.0
  0
LINE
  5
BBB5
  8
0
 10
469.86901153174449
 20
935.29526955354595
 30
0.0
 11
270.86901153174449
 21
935.29526955354595
 31
0.0
  0
LINE
  5
BBB6
  8
0
 10
469.86901153174449
 20
932.16435655354564
 30
0.0
 11
270.86901153174449
 21
932.16435655354564
 31
0.0
  0
LINE
  5
BBB7
  8
0
 10
469.86901153174449
 20
924.24018355354565
 30
0.0
 11
270.86901153174449
 21
924.24018355354565
 31
0.0
  0
LINE
  5
BBB8
  8
0
 10
469.86901153174449
 20
921.19447755354599
 30
0.0
 11
270.86901153174449
 21
921.19447755354599
 31
0.0
  0
LINE
  5
BBB9
  8
0
 10
469.86901153174449
 20
913.20430955354584
 30
0.0
 11
270.86901153174449
 21
913.20430955354584
 31
0.0
  0
LINE
  5
BBBA
  8
0
 10
469.86901153174449
 20
910.21168255354587
 30
0.0
 11
270.86901153174449
 21
910.21168255354587
 31
0.0
  0
LINE
  5
BBBB
  8
0
 10
469.86901153174449
 20
902.18098155354596
 30
0.0
 11
270.86901153174449
 21
902.18098155354596
 31
0.0
  0
LINE
  5
BBBC
  8
0
 10
469.86901153174449
 20
899.21950255354568
 30
0.0
 11
270.86901153174449
 21
899.21950255354568
 31
0.0
  0
LINE
  5
BBBD
  8
0
 10
469.86901153174449
 20
892.16771855354557
 30
0.0
 11
375.44225453174431
 21
892.16771855354557
 31
0.0
  0
LINE
  5
BBBE
  8
0
 10
469.86901153174449
 20
889.22002655354595
 30
0.0
 11
382.25465853174461
 21
889.22002655354595
 31
0.0
  0
LINE
  5
BBBF
  8
0
 10
467.79009053174462
 20
943.68987455354556
 30
0.0
 11
467.79009053174462
 21
941.68987455354568
 31
0.0
  0
LINE
  5
BBC0
  8
0
 10
272.94793253174481
 20
941.68987455354568
 30
0.0
 11
467.79009053174462
 21
941.68987455354568
 31
0.0
  0
LINE
  5
BBC1
  8
0
 10
272.94793253174481
 20
943.68987455354556
 30
0.0
 11
467.79009053174462
 21
943.68987455354556
 31
0.0
  0
LINE
  5
BBC2
  8
0
 10
272.94793253174481
 20
932.68987455354602
 30
0.0
 11
467.79009053174462
 21
932.68987455354602
 31
0.0
  0
LINE
  5
BBC3
  8
0
 10
272.94793253174481
 20
934.68987455354556
 30
0.0
 11
467.79009053174462
 21
934.68987455354556
 31
0.0
  0
LINE
  5
BBC4
  8
0
 10
272.94793253174481
 20
921.68987455354591
 30
0.0
 11
467.79009053174462
 21
921.68987455354591
 31
0.0
  0
LINE
  5
BBC5
  8
0
 10
272.94793253174481
 20
923.68987455354602
 30
0.0
 11
467.79009053174462
 21
923.68987455354602
 31
0.0
  0
LINE
  5
BBC6
  8
0
 10
272.94793253174481
 20
910.68987455354556
 30
0.0
 11
467.79009053174462
 21
910.68987455354556
 31
0.0
  0
LINE
  5
BBC7
  8
0
 10
272.94793253174481
 20
912.68987455354591
 30
0.0
 11
467.79009053174462
 21
912.68987455354591
 31
0.0
  0
LINE
  5
BBC8
  8
0
 10
272.94793253174481
 20
899.68987455354568
 30
0.0
 11
467.79009053174462
 21
899.68987455354568
 31
0.0
  0
LINE
  5
BBC9
  8
0
 10
272.94793253174481
 20
901.68987455354556
 30
0.0
 11
467.79009053174462
 21
901.68987455354556
 31
0.0
  0
LINE
  5
BBCA
  8
0
 10
381.64398853174453
 20
889.68987455354568
 30
0.0
 11
467.79009053174462
 21
889.68987455354568
 31
0.0
  0
LINE
  5
BBCB
  8
0
 10
375.91574953174461
 20
891.68987455354568
 30
0.0
 11
467.79009053174462
 21
891.68987455354568
 31
0.0
  0
LINE
  5
BBCC
  8
0
 10
467.79009053174462
 20
943.68987455354556
 30
0.0
 11
469.86901153174449
 21
944.36714255354605
 31
0.0
  0
LINE
  5
BBCD
  8
0
 10
467.79009053174462
 20
941.68987455354568
 30
0.0
 11
469.86901153174449
 21
941.12283255354589
 31
0.0
  0
LINE
  5
BBCE
  8
0
 10
467.79009053174462
 20
934.68987455354556
 30
0.0
 11
469.86901153174449
 21
935.29526955354595
 31
0.0
  0
LINE
  5
BBCF
  8
0
 10
467.79009053174462
 20
932.68987455354602
 30
0.0
 11
469.86901153174449
 21
932.16435655354564
 31
0.0
  0
LINE
  5
BBD0
  8
0
 10
467.79009053174462
 20
923.68987455354602
 30
0.0
 11
469.86901153174449
 21
924.24018355354565
 31
0.0
  0
LINE
  5
BBD1
  8
0
 10
467.79009053174462
 20
921.68987455354591
 30
0.0
 11
469.86901153174449
 21
921.19447755354599
 31
0.0
  0
LINE
  5
BBD2
  8
0
 10
467.79009053174462
 20
912.68987455354591
 30
0.0
 11
469.86901153174449
 21
913.20430955354584
 31
0.0
  0
LINE
  5
BBD3
  8
0
 10
467.79009053174462
 20
910.68987455354556
 30
0.0
 11
469.86901153174449
 21
910.21168255354587
 31
0.0
  0
LINE
  5
BBD4
  8
0
 10
467.79009053174462
 20
901.68987455354556
 30
0.0
 11
469.86901153174449
 21
902.18098155354596
 31
0.0
  0
LINE
  5
BBD5
  8
0
 10
467.79009053174462
 20
899.68987455354568
 30
0.0
 11
469.86901153174449
 21
899.21950255354568
 31
0.0
  0
LINE
  5
BBD6
  8
0
 10
467.79009053174462
 20
891.68987455354568
 30
0.0
 11
469.86901153174449
 21
892.16771855354557
 31
0.0
  0
LINE
  5
BBD7
  8
0
 10
467.79009053174462
 20
889.68987455354568
 30
0.0
 11
469.86901153174449
 21
889.22002655354595
 31
0.0
  0
LINE
  5
BBD8
  8
0
 10
467.79009053174462
 20
934.68987455354556
 30
0.0
 11
467.79009053174462
 21
932.68987455354602
 31
0.0
  0
LINE
  5
BBD9
  8
0
 10
467.79009053174462
 20
923.68987455354602
 30
0.0
 11
467.79009053174462
 21
921.68987455354591
 31
0.0
  0
LINE
  5
BBDA
  8
0
 10
467.79009053174462
 20
912.68987455354591
 30
0.0
 11
467.79009053174462
 21
910.68987455354556
 31
0.0
  0
LINE
  5
BBDB
  8
0
 10
467.79009053174462
 20
901.68987455354556
 30
0.0
 11
467.79009053174462
 21
899.68987455354568
 31
0.0
  0
LINE
  5
BBDC
  8
0
 10
467.79009053174462
 20
891.68987455354568
 30
0.0
 11
467.79009053174462
 21
889.68987455354568
 31
0.0
  0
ARC
  5
BBDD
  8
0
 10
381.64398853174453
 20
886.68987455354556
 30
0.0
 40
3.0
 50
90.0
 51
190.28656099999421
  0
ARC
  5
BBDE
  8
0
 10
382.25465853174461
 20
885.75002655354604
 30
0.0
 40
3.4700000000000002
 50
90.0
 51
186.1896490000004
  0
LINE
  5
BBDF
  8
0
 10
287.9479325317447
 20
891.68987455354568
 30
0.0
 11
287.9479325317447
 21
889.68987455354568
 31
0.0
  0
LINE
  5
BBE0
  8
0
 10
272.94793253174481
 20
901.68987455354556
 30
0.0
 11
272.94793253174481
 21
899.68987455354568
 31
0.0
  0
LINE
  5
BBE1
  8
0
 10
272.94793253174481
 20
912.68987455354591
 30
0.0
 11
272.94793253174481
 21
910.68987455354556
 31
0.0
  0
LINE
  5
BBE2
  8
0
 10
272.94793253174481
 20
923.68987455354602
 30
0.0
 11
272.94793253174481
 21
921.68987455354591
 31
0.0
  0
LINE
  5
BBE3
  8
0
 10
272.94793253174481
 20
934.68987455354556
 30
0.0
 11
272.94793253174481
 21
932.68987455354602
 31
0.0
  0
LINE
  5
BBE4
  8
0
 10
287.9479325317447
 20
889.68987455354568
 30
0.0
 11
285.86901153174449
 21
889.22002655354595
 31
0.0
  0
LINE
  5
BBE5
  8
0
 10
287.9479325317447
 20
891.68987455354568
 30
0.0
 11
285.86901153174449
 21
892.16771855354557
 31
0.0
  0
LINE
  5
BBE6
  8
0
 10
272.94793253174481
 20
899.68987455354568
 30
0.0
 11
270.86901153174449
 21
899.21950255354568
 31
0.0
  0
LINE
  5
BBE7
  8
0
 10
272.94793253174481
 20
901.68987455354556
 30
0.0
 11
270.86901153174449
 21
902.18098155354596
 31
0.0
  0
LINE
  5
BBE8
  8
0
 10
272.94793253174481
 20
910.68987455354556
 30
0.0
 11
270.86901153174449
 21
910.21168255354587
 31
0.0
  0
LINE
  5
BBE9
  8
0
 10
272.94793253174481
 20
912.68987455354591
 30
0.0
 11
270.86901153174449
 21
913.20430955354584
 31
0.0
  0
LINE
  5
BBEA
  8
0
 10
272.94793253174481
 20
921.68987455354591
 30
0.0
 11
270.86901153174449
 21
921.19447755354599
 31
0.0
  0
LINE
  5
BBEB
  8
0
 10
272.94793253174481
 20
923.68987455354602
 30
0.0
 11
270.86901153174449
 21
924.24018355354565
 31
0.0
  0
LINE
  5
BBEC
  8
0
 10
272.94793253174481
 20
932.68987455354602
 30
0.0
 11
270.86901153174449
 21
932.16435655354564
 31
0.0
  0
LINE
  5
BBED
  8
0
 10
272.94793253174481
 20
934.68987455354556
 30
0.0
 11
270.86901153174449
 21
935.29526955354595
 31
0.0
  0
LINE
  5
BBEE
  8
0
 10
272.94793253174481
 20
941.68987455354568
 30
0.0
 11
270.86901153174449
 21
941.12283255354589
 31
0.0
  0
LINE
  5
BBEF
  8
0
 10
272.94793253174481
 20
943.68987455354556
 30
0.0
 11
270.86901153174449
 21
944.36714255354605
 31
0.0
  0
LINE
  5
BBF0
  8
0
 10
272.94793253174481
 20
943.68987455354556
 30
0.0
 11
272.94793253174481
 21
941.68987455354568
 31
0.0
  0
LINE
  5
BBF1
  8
0
 10
270.86901153174449
 20
941.12283255354589
 30
0.0
 11
270.86901153174449
 21
944.36714255354605
 31
0.0
  0
LINE
  5
BBF2
  8
0
 10
270.86901153174449
 20
932.16435655354564
 30
0.0
 11
270.86901153174449
 21
935.29526955354595
 31
0.0
  0
LINE
  5
BBF3
  8
0
 10
270.86901153174449
 20
921.19447755354599
 30
0.0
 11
270.86901153174449
 21
924.24018355354565
 31
0.0
  0
LINE
  5
BBF4
  8
0
 10
270.86901153174449
 20
910.21168255354587
 30
0.0
 11
270.86901153174449
 21
913.20430955354584
 31
0.0
  0
LINE
  5
BBF5
  8
0
 10
270.86901153174449
 20
899.21950255354568
 30
0.0
 11
270.86901153174449
 21
902.18098155354596
 31
0.0
  0
LINE
  5
BBF6
  8
0
 10
285.86901153174449
 20
889.22002655354595
 30
0.0
 11
285.86901153174449
 21
892.16771855354557
 31
0.0
  0
LINE
  5
BBF7
  8
0
 10
285.86901153174449
 20
892.16771855354557
 30
0.0
 11
360.29576853174473
 21
892.16771855354557
 31
0.0
  0
LINE
  5
BBF8
  8
0
 10
285.86901153174449
 20
889.22002655354595
 30
0.0
 11
353.48336453174443
 21
889.22002655354595
 31
0.0
  0
LINE
  5
BBF9
  8
0
 10
354.09403453174451
 20
889.68987455354568
 30
0.0
 11
287.9479325317447
 21
889.68987455354568
 31
0.0
  0
LINE
  5
BBFA
  8
0
 10
359.82227353174449
 20
891.68987455354568
 30
0.0
 11
287.9479325317447
 21
891.68987455354568
 31
0.0
  0
ARC
  5
BBFB
  8
0
 10
354.09403453174451
 20
886.68987455354556
 30
0.0
 40
3.0
 50
349.71343900000568
 51
90.0
  0
ARC
  5
BBFC
  8
0
 10
353.48336453174443
 20
885.75002655354604
 30
0.0
 40
3.4700000000000002
 50
353.81035099999951
 51
90.0
  0
LINE
  5
BBFD
  8
0
 10
469.86901153174449
 20
844.13956555354571
 30
0.0
 11
270.86901153174449
 21
844.13956555354571
 31
0.0
  0
LINE
  5
BBFE
  8
0
 10
469.86901153174449
 20
847.18527155354559
 30
0.0
 11
270.86901153174449
 21
847.18527155354559
 31
0.0
  0
LINE
  5
BBFF
  8
0
 10
469.86901153174449
 20
855.17543955354586
 30
0.0
 11
270.86901153174449
 21
855.17543955354586
 31
0.0
  0
LINE
  5
BC00
  8
0
 10
469.86901153174449
 20
858.16806655354605
 30
0.0
 11
270.86901153174449
 21
858.16806655354605
 31
0.0
  0
LINE
  5
BC01
  8
0
 10
469.86901153174449
 20
866.19876755354562
 30
0.0
 11
270.86901153174449
 21
866.19876755354562
 31
0.0
  0
LINE
  5
BC02
  8
0
 10
469.86901153174449
 20
869.16024655354556
 30
0.0
 11
270.86901153174449
 21
869.16024655354556
 31
0.0
  0
LINE
  5
BC03
  8
0
 10
272.94793253174481
 20
846.68987455354556
 30
0.0
 11
467.79009053174462
 21
846.68987455354556
 31
0.0
  0
LINE
  5
BC04
  8
0
 10
272.94793253174481
 20
844.68987455354602
 30
0.0
 11
467.79009053174462
 21
844.68987455354602
 31
0.0
  0
LINE
  5
BC05
  8
0
 10
272.94793253174481
 20
857.68987455354568
 30
0.0
 11
467.79009053174462
 21
857.68987455354568
 31
0.0
  0
LINE
  5
BC06
  8
0
 10
272.94793253174481
 20
855.68987455354568
 30
0.0
 11
467.79009053174462
 21
855.68987455354568
 31
0.0
  0
LINE
  5
BC07
  8
0
 10
272.94793253174481
 20
868.68987455354556
 30
0.0
 11
467.79009053174462
 21
868.68987455354556
 31
0.0
  0
LINE
  5
BC08
  8
0
 10
272.94793253174481
 20
866.68987455354568
 30
0.0
 11
467.79009053174462
 21
866.68987455354568
 31
0.0
  0
LINE
  5
BC09
  8
0
 10
285.86901153174449
 20
876.21203055354567
 30
0.0
 11
360.29576853174473
 21
876.21203055354567
 31
0.0
  0
LINE
  5
BC0A
  8
0
 10
285.86901153174449
 20
879.15972255354563
 30
0.0
 11
353.48336453174443
 21
879.15972255354563
 31
0.0
  0
LINE
  5
BC0B
  8
0
 10
354.09403453174451
 20
878.68987455354556
 30
0.0
 11
287.9479325317447
 21
878.68987455354556
 31
0.0
  0
LINE
  5
BC0C
  8
0
 10
359.82227353174449
 20
876.68987455354556
 30
0.0
 11
287.9479325317447
 21
876.68987455354556
 31
0.0
  0
LINE
  5
BC0D
  8
0
 10
285.86901153174449
 20
879.15972255354563
 30
0.0
 11
285.86901153174449
 21
876.21203055354567
 31
0.0
  0
LINE
  5
BC0E
  8
0
 10
270.86901153174449
 20
869.16024655354556
 30
0.0
 11
270.86901153174449
 21
866.19876755354562
 31
0.0
  0
LINE
  5
BC0F
  8
0
 10
270.86901153174449
 20
858.16806655354605
 30
0.0
 11
270.86901153174449
 21
855.17543955354586
 31
0.0
  0
LINE
  5
BC10
  8
0
 10
270.86901153174449
 20
847.18527155354559
 30
0.0
 11
270.86901153174449
 21
844.13956555354571
 31
0.0
  0
LINE
  5
BC11
  8
0
 10
272.94793253174481
 20
844.68987455354602
 30
0.0
 11
270.86901153174449
 21
844.13956555354571
 31
0.0
  0
LINE
  5
BC12
  8
0
 10
272.94793253174481
 20
846.68987455354556
 30
0.0
 11
270.86901153174449
 21
847.18527155354559
 31
0.0
  0
LINE
  5
BC13
  8
0
 10
272.94793253174481
 20
855.68987455354568
 30
0.0
 11
270.86901153174449
 21
855.17543955354586
 31
0.0
  0
LINE
  5
BC14
  8
0
 10
272.94793253174481
 20
857.68987455354568
 30
0.0
 11
270.86901153174449
 21
858.16806655354605
 31
0.0
  0
LINE
  5
BC15
  8
0
 10
272.94793253174481
 20
866.68987455354568
 30
0.0
 11
270.86901153174449
 21
866.19876755354562
 31
0.0
  0
LINE
  5
BC16
  8
0
 10
272.94793253174481
 20
868.68987455354556
 30
0.0
 11
270.86901153174449
 21
869.16024655354556
 31
0.0
  0
LINE
  5
BC17
  8
0
 10
287.9479325317447
 20
876.68987455354556
 30
0.0
 11
285.86901153174449
 21
876.21203055354567
 31
0.0
  0
LINE
  5
BC18
  8
0
 10
287.9479325317447
 20
878.68987455354556
 30
0.0
 11
285.86901153174449
 21
879.15972255354563
 31
0.0
  0
LINE
  5
BC19
  8
0
 10
272.94793253174481
 20
844.68987455354602
 30
0.0
 11
272.94793253174481
 21
846.68987455354556
 31
0.0
  0
LINE
  5
BC1A
  8
0
 10
272.94793253174481
 20
855.68987455354568
 30
0.0
 11
272.94793253174481
 21
857.68987455354568
 31
0.0
  0
LINE
  5
BC1B
  8
0
 10
272.94793253174481
 20
866.68987455354568
 30
0.0
 11
272.94793253174481
 21
868.68987455354556
 31
0.0
  0
LINE
  5
BC1C
  8
0
 10
287.9479325317447
 20
876.68987455354556
 30
0.0
 11
287.9479325317447
 21
878.68987455354556
 31
0.0
  0
ARC
  5
BC1D
  8
0
 10
354.09403453174451
 20
881.68987455354568
 30
0.0
 40
3.0
 50
270.0
 51
10.28656099999424
  0
ARC
  5
BC1E
  8
0
 10
353.48336453174443
 20
882.62972255354589
 30
0.0
 40
3.4700000000000002
 50
270.0
 51
6.1896490000005366
  0
LINE
  5
BC1F
  8
0
 10
469.86901153174449
 20
876.21203055354567
 30
0.0
 11
375.44225453174431
 21
876.21203055354567
 31
0.0
  0
LINE
  5
BC20
  8
0
 10
469.86901153174449
 20
879.15972255354563
 30
0.0
 11
382.25465853174461
 21
879.15972255354563
 31
0.0
  0
LINE
  5
BC21
  8
0
 10
381.64398853174453
 20
878.68987455354556
 30
0.0
 11
467.79009053174462
 21
878.68987455354556
 31
0.0
  0
LINE
  5
BC22
  8
0
 10
375.91574953174461
 20
876.68987455354556
 30
0.0
 11
467.79009053174462
 21
876.68987455354556
 31
0.0
  0
ARC
  5
BC23
  8
0
 10
381.64398853174453
 20
881.68987455354568
 30
0.0
 40
3.0
 50
169.71343900000571
 51
270.0
  0
ARC
  5
BC24
  8
0
 10
382.25465853174461
 20
882.62972255354589
 30
0.0
 40
3.4700000000000002
 50
173.8103509999994
 51
270.0
  0
LINE
  5
BC25
  8
0
 10
467.79009053174462
 20
876.68987455354556
 30
0.0
 11
467.79009053174462
 21
878.68987455354556
 31
0.0
  0
LINE
  5
BC26
  8
0
 10
467.79009053174462
 20
866.68987455354568
 30
0.0
 11
467.79009053174462
 21
868.68987455354556
 31
0.0
  0
LINE
  5
BC27
  8
0
 10
467.79009053174462
 20
855.68987455354568
 30
0.0
 11
467.79009053174462
 21
857.68987455354568
 31
0.0
  0
LINE
  5
BC28
  8
0
 10
467.79009053174462
 20
844.68987455354602
 30
0.0
 11
467.79009053174462
 21
846.68987455354556
 31
0.0
  0
LINE
  5
BC29
  8
0
 10
467.79009053174462
 20
878.68987455354556
 30
0.0
 11
469.86901153174449
 21
879.15972255354563
 31
0.0
  0
LINE
  5
BC2A
  8
0
 10
467.79009053174462
 20
876.68987455354556
 30
0.0
 11
469.86901153174449
 21
876.21203055354567
 31
0.0
  0
LINE
  5
BC2B
  8
0
 10
467.79009053174462
 20
868.68987455354556
 30
0.0
 11
469.86901153174449
 21
869.16024655354556
 31
0.0
  0
LINE
  5
BC2C
  8
0
 10
467.79009053174462
 20
866.68987455354568
 30
0.0
 11
469.86901153174449
 21
866.19876755354562
 31
0.0
  0
LINE
  5
BC2D
  8
0
 10
467.79009053174462
 20
857.68987455354568
 30
0.0
 11
469.86901153174449
 21
858.16806655354605
 31
0.0
  0
LINE
  5
BC2E
  8
0
 10
467.79009053174462
 20
855.68987455354568
 30
0.0
 11
469.86901153174449
 21
855.17543955354586
 31
0.0
  0
LINE
  5
BC2F
  8
0
 10
467.79009053174462
 20
846.68987455354556
 30
0.0
 11
469.86901153174449
 21
847.18527155354559
 31
0.0
  0
LINE
  5
BC30
  8
0
 10
467.79009053174462
 20
844.68987455354602
 30
0.0
 11
469.86901153174449
 21
844.13956555354571
 31
0.0
  0
LINE
  5
BC31
  8
0
 10
469.86901153174449
 20
847.18527155354559
 30
0.0
 11
469.86901153174449
 21
844.13956555354571
 31
0.0
  0
LINE
  5
BC32
  8
0
 10
469.86901153174449
 20
858.16806655354605
 30
0.0
 11
469.86901153174449
 21
855.17543955354586
 31
0.0
  0
LINE
  5
BC33
  8
0
 10
469.86901153174449
 20
869.16024655354556
 30
0.0
 11
469.86901153174449
 21
866.19876755354562
 31
0.0
  0
LINE
  5
BC34
  8
0
 10
469.86901153174449
 20
879.15972255354563
 30
0.0
 11
469.86901153174449
 21
876.21203055354567
 31
0.0
  0
LINE
  5
BC35
  8
0
 10
402.79009053174423
 20
835.68987455354556
 30
0.0
 11
404.86901153174449
 21
836.18527155354593
 31
0.0
  0
LINE
  5
BC36
  8
0
 10
404.86901153174449
 20
836.18527155354593
 30
0.0
 11
270.86901153174449
 21
836.18527155354593
 31
0.0
  0
LINE
  5
BC37
  8
0
 10
272.94793253174481
 20
835.68987455354556
 30
0.0
 11
402.79009053174423
 21
835.68987455354556
 31
0.0
  0
LINE
  5
BC38
  8
0
 10
402.79009053174423
 20
833.68987455354568
 30
0.0
 11
402.79009053174423
 21
835.68987455354556
 31
0.0
  0
LINE
  5
BC39
  8
0
 10
404.86901153174449
 20
833.13956555354571
 30
0.0
 11
270.86901153174449
 21
833.13956555354571
 31
0.0
  0
LINE
  5
BC3A
  8
0
 10
272.94793253174481
 20
833.68987455354568
 30
0.0
 11
402.79009053174423
 21
833.68987455354568
 31
0.0
  0
LINE
  5
BC3B
  8
0
 10
402.79009053174423
 20
833.68987455354568
 30
0.0
 11
404.86901153174449
 21
833.13956555354571
 31
0.0
  0
LINE
  5
BC3C
  8
0
 10
404.86901153174449
 20
827.1852715535457
 30
0.0
 11
270.86901153174449
 21
827.1852715535457
 31
0.0
  0
LINE
  5
BC3D
  8
0
 10
272.94793253174481
 20
826.68987455354556
 30
0.0
 11
402.79009053174423
 21
826.68987455354556
 31
0.0
  0
LINE
  5
BC3E
  8
0
 10
404.86901153174449
 20
824.13956555354571
 30
0.0
 11
270.90256853174418
 21
824.13956555354571
 31
0.0
  0
LINE
  5
BC3F
  8
0
 10
272.94793253174481
 20
824.68987455354568
 30
0.0
 11
402.79009053174423
 21
824.68987455354568
 31
0.0
  0
LINE
  5
BC40
  8
0
 10
402.79009053174423
 20
824.68987455354568
 30
0.0
 11
404.86901153174449
 21
824.13956555354571
 31
0.0
  0
LINE
  5
BC41
  8
0
 10
404.86901153174449
 20
827.1852715535457
 30
0.0
 11
404.86901153174449
 21
824.13956555354571
 31
0.0
  0
LINE
  5
BC42
  8
0
 10
402.79009053174423
 20
824.68987455354568
 30
0.0
 11
402.79009053174423
 21
826.68987455354556
 31
0.0
  0
LINE
  5
BC43
  8
0
 10
402.79009053174423
 20
826.68987455354556
 30
0.0
 11
404.86901153174449
 21
827.1852715535457
 31
0.0
  0
LINE
  5
BC44
  8
0
 10
404.86901153174449
 20
824.13956555354571
 30
0.0
 11
419.86901153174449
 21
824.13956555354571
 31
0.0
  0
LINE
  5
BC45
  8
0
 10
419.86901153174449
 20
824.13956555354571
 30
0.0
 11
435.86901153174409
 21
819.79764055354599
 31
0.0
  0
LINE
  5
BC46
  8
0
 10
270.86901153174449
 20
836.18527155354593
 30
0.0
 11
270.86901153174449
 21
833.13956555354571
 31
0.0
  0
LINE
  5
BC47
  8
0
 10
270.86901153174449
 20
827.1852715535457
 30
0.0
 11
270.86901153174449
 21
824.13956555354571
 31
0.0
  0
LINE
  5
BC48
  8
0
 10
272.94793253174481
 20
833.68987455354568
 30
0.0
 11
272.94793253174481
 21
835.68987455354556
 31
0.0
  0
LINE
  5
BC49
  8
0
 10
272.94793253174481
 20
835.68987455354556
 30
0.0
 11
270.86901153174449
 21
836.18527155354593
 31
0.0
  0
LINE
  5
BC4A
  8
0
 10
272.94793253174481
 20
833.68987455354568
 30
0.0
 11
270.86901153174449
 21
833.13956555354571
 31
0.0
  0
LINE
  5
BC4B
  8
0
 10
272.94793253174481
 20
826.68987455354556
 30
0.0
 11
270.86901153174449
 21
827.1852715535457
 31
0.0
  0
LINE
  5
BC4C
  8
0
 10
272.94793253174481
 20
824.68987455354568
 30
0.0
 11
272.94793253174481
 21
826.68987455354556
 31
0.0
  0
LINE
  5
BC4D
  8
0
 10
272.94793253174481
 20
824.68987455354568
 30
0.0
 11
270.86901153174449
 21
824.13956555354571
 31
0.0
  0
LINE
  5
BC4E
  8
0
 10
162.76904153174419
 20
984.18987455354591
 30
0.0
 11
240.36901153174449
 21
984.18987455354591
 31
0.0
  0
LINE
  5
BC4F
  8
0
 10
162.76904153174419
 20
990.18987455354602
 30
0.0
 11
240.36901153174449
 21
990.18987455354602
 31
0.0
  0
LINE
  5
BC50
  8
0
 10
262.36901153174449
 20
981.18987455354556
 30
0.0
 11
158.86901153174449
 21
981.18987455354556
 31
0.0
  0
LINE
  5
BC51
  8
0
 10
251.36901153174449
 20
984.18987455354591
 30
0.0
 11
264.86901153174449
 21
984.18987455354591
 31
0.0
  0
ARC
  5
BC52
  8
0
 10
909.15599153174435
 20
884.18987455354568
 30
0.0
 40
764.28698999999995
 50
172.82194999999871
 51
187.17804000000049
  0
LINE
  5
BC53
  8
0
 10
155.51904153174419
 20
790.58983455354564
 30
0.0
 11
155.51904153174419
 21
977.87981455354588
 31
0.0
  0
LINE
  5
BC54
  8
0
 10
149.86901153174449
 20
946.62981455354588
 30
0.0
 11
149.86901153174449
 21
821.04985455354563
 31
0.0
  0
LINE
  5
BC55
  8
0
 10
147.86901153174449
 20
946.62981455354588
 30
0.0
 11
147.86901153174449
 21
821.73979455354572
 31
0.0
  0
LINE
  5
BC56
  8
0
 10
262.36901153174449
 20
787.18987455354568
 30
0.0
 11
158.86901153174449
 21
787.18987455354568
 31
0.0
  0
LINE
  5
BC57
  8
0
 10
150.0189815317444
 20
818.35985455354557
 30
0.0
 11
154.92901153174441
 21
790.48985455354568
 31
0.0
  0
ARC
  5
BC58
  8
0
 10
162.77075153174459
 20
790.18791455354574
 30
0.0
 40
5.9980479999999998
 50
207.0535100000092
 51
269.98324000000241
  0
ARC
  5
BC59
  8
0
 10
162.7714815317444
 20
790.18596455354566
 30
0.0
 40
11.996128000000001
 50
187.16444000000149
 51
269.98822000000808
  0
ARC
  5
BC5A
  8
0
 10
149.02941153174419
 20
818.19292455354571
 30
0.0
 40
1.0035289999999999
 50
9.5734909999996063
 51
62.101814999986487
  0
ARC
  5
BC5B
  8
0
 10
150.86755153174451
 20
821.74785455354595
 30
0.0
 40
2.9985330000000001
 50
180.1533100000014
 51
242.84512999998921
  0
ARC
  5
BC5C
  8
0
 10
158.86840153174441
 20
791.19121455354571
 30
0.0
 40
4.0014059999999976
 50
190.09553000000011
 51
270.00785000000678
  0
LINE
  5
BC5D
  8
0
 10
150.0189815317444
 20
950.00981455354599
 30
0.0
 11
154.92895153174459
 21
977.87981455354588
 31
0.0
  0
ARC
  5
BC5E
  8
0
 10
158.86853153174479
 20
977.19048455354573
 30
0.0
 40
3.9993959999999982
 50
89.993275000011238
 51
170.07405999999821
  0
ARC
  5
BC5F
  8
0
 10
149.0296615317443
 20
950.18901455354558
 30
0.0
 40
1.0054319999999941
 50
297.82706000000729
 51
349.7352699999982
  0
ARC
  5
BC60
  8
0
 10
150.86621153174431
 20
946.63262455354595
 30
0.0
 40
2.997211999999998
 50
117.13965999999481
 51
180.05330999999691
  0
ARC
  5
BC61
  8
0
 10
162.76989153174461
 20
978.1931645535459
 30
0.0
 40
5.9966319999999991
 50
90.008472000013285
 51
152.954760000004
  0
ARC
  5
BC62
  8
0
 10
162.77050153174471
 20
978.19481455354594
 30
0.0
 40
11.995034
 50
90.007167000000024
 51
172.8401600000048
  0
LINE
  5
BC63
  8
0
 10
142.47900153174439
 20
879.18987455354568
 30
0.0
 11
142.47900153174439
 21
889.18987455354556
 31
0.0
  0
LINE
  5
BC64
  8
0
 10
144.88903153174439
 20
889.18987455354556
 30
0.0
 11
142.47900153174439
 21
889.18987455354556
 31
0.0
  0
LINE
  5
BC65
  8
0
 10
144.88903153174439
 20
879.18987455354568
 30
0.0
 11
142.47900153174439
 21
879.18987455354568
 31
0.0
  0
LINE
  5
BC66
  8
0
 10
264.86901153174449
 20
990.18987455354602
 30
0.0
 11
264.86901153174449
 21
984.18987455354591
 31
0.0
  0
LINE
  5
BC67
  8
0
 10
240.36901153174449
 20
991.18987455354591
 30
0.0
 11
240.36901153174449
 21
981.18987455354556
 31
0.0
  0
LINE
  5
BC68
  8
0
 10
251.36901153174449
 20
991.18987455354591
 30
0.0
 11
251.36901153174449
 21
981.18987455354556
 31
0.0
  0
LINE
  5
BC69
  8
0
 10
251.36901153174449
 20
990.18987455354602
 30
0.0
 11
264.86901153174449
 21
990.18987455354602
 31
0.0
  0
LINE
  5
BC6A
  8
0
 10
240.36901153174449
 20
991.18987455354591
 30
0.0
 11
251.36901153174449
 21
991.18987455354591
 31
0.0
  0
LINE
  5
BC6B
  8
0
 10
162.76903753174469
 20
784.18983355354555
 30
0.0
 11
240.3690075317445
 21
784.18983055354556
 31
0.0
  0
LINE
  5
BC6C
  8
0
 10
162.76903753174469
 20
778.18983355354567
 30
0.0
 11
240.3690075317445
 21
778.18983055354568
 31
0.0
  0
LINE
  5
BC6D
  8
0
 10
240.3690075317445
 20
777.18983055354556
 30
0.0
 11
240.3690075317445
 21
787.18983055354568
 31
0.0
  0
LINE
  5
BC6E
  8
0
 10
240.3690075317445
 20
777.18983055354556
 30
0.0
 11
251.3690075317445
 21
777.18983055354556
 31
0.0
  0
LINE
  5
BC6F
  8
0
 10
251.3690075317445
 20
777.18983055354556
 30
0.0
 11
251.3690075317445
 21
787.18983055354568
 31
0.0
  0
LINE
  5
BC70
  8
0
 10
251.3690075317445
 20
778.18983055354568
 30
0.0
 11
264.8690075317445
 21
778.18983055354568
 31
0.0
  0
LINE
  5
BC71
  8
0
 10
264.8690075317445
 20
778.18983055354568
 30
0.0
 11
264.8690075317445
 21
784.18983055354556
 31
0.0
  0
LINE
  5
BC72
  8
0
 10
251.3690075317445
 20
784.18983055354556
 30
0.0
 11
264.8690075317445
 21
784.18983055354556
 31
0.0
  0
LINE
  5
BC73
  8
0
 10
262.36901153174449
 20
891.83364555354603
 30
0.0
 11
273.86901153174449
 21
891.83364555354603
 31
0.0
  0
LINE
  5
BC74
  8
0
 10
262.36901153174449
 20
892.16772355354601
 30
0.0
 11
274.54901153174433
 21
892.16772355354601
 31
0.0
  0
LINE
  5
BC75
  8
0
 10
275.86901153174449
 20
889.83364555354558
 30
0.0
 11
275.86901153174449
 21
884.18987855354567
 31
0.0
  0
LINE
  5
BC76
  8
0
 10
277.54901153174433
 20
895.16772355354556
 30
0.0
 11
277.54901153174433
 21
884.18987855354567
 31
0.0
  0
ARC
  5
BC77
  8
0
 10
274.54901153174433
 20
895.16772355354556
 30
0.0
 40
3.0
 50
270.0
 51
0.0
  0
LINE
  5
BC78
  8
0
 10
262.36901153174449
 20
876.54611055354587
 30
0.0
 11
273.86901153174449
 21
876.54611055354587
 31
0.0
  0
LINE
  5
BC79
  8
0
 10
262.36901153174449
 20
876.21203344389664
 30
0.0
 11
274.54901153174433
 21
876.21203255354567
 31
0.0
  0
LINE
  5
BC7A
  8
0
 10
275.86901153174449
 20
878.54611055354587
 30
0.0
 11
275.86901153174449
 21
884.18987855354567
 31
0.0
  0
LINE
  5
BC7B
  8
0
 10
277.54901153174433
 20
873.21203255354601
 30
0.0
 11
277.54901153174433
 21
884.18987855354567
 31
0.0
  0
ARC
  5
BC7C
  8
0
 10
274.54901153174433
 20
873.21203255354601
 30
0.0
 40
3.0
 50
359.99999799999722
 51
89.999998000010223
  0
LINE
  5
BDAA
  8
0
 10
471.86901153174438
 20
888.18981455354572
 30
0.0
 11
471.86901153174438
 21
946.25583655354615
 31
0.0
  0
LINE
  5
BDAD
  8
0
 10
474.86901153174449
 20
888.18981455354572
 30
0.0
 11
474.86901153174449
 21
969.18987455354613
 31
0.0
  0
LINE
  5
C7C7
  8
0
  6
AM_ISO08W050
 10
144.18673269908319
 20
501.64064114289658
 30
0.0
 11
539.88598331790683
 21
501.64064114289658
 31
0.0
  0
LINE
  5
C7C8
  8
0
  6
AM_ISO08W050
 10
511.94129900296781
 20
539.6406411428967
 30
0.0
 11
703.81341153174469
 21
539.6406411428967
 31
0.0
  0
LINE
  5
C7C9
  8
AM_0
 10
492.79921153174428
 20
631.25405614289718
 30
0.0
 11
503.86901153174449
 21
631.64060614289724
 31
0.0
  0
LINE
  5
C7CA
  8
AM_0
 10
476.86906153174471
 20
585.2104661428973
 30
0.0
 11
476.86906153174471
 21
629.64060614289724
 31
0.0
  0
LINE
  5
C7CB
  8
AM_0
 10
474.86901153174449
 20
418.14061114289728
 30
0.0
 11
487.97371153174441
 21
417.68300114289718
 31
0.0
  0
LINE
  5
C7CC
  8
AM_0
 10
490.86901153174449
 20
374.02598614289718
 30
0.0
 11
490.86901153174449
 21
629.2553061428971
 31
0.0
  0
LINE
  5
C7CD
  8
AM_0
 10
474.86901153174449
 20
585.14061114289723
 30
0.0
 11
476.86906153174471
 21
585.2104661428973
 31
0.0
  0
LINE
  5
C7CE
  8
AM_0
 10
476.86906153174471
 20
585.2104661428973
 30
0.0
 11
487.97371153174441
 21
585.59825614289718
 31
0.0
  0
LINE
  5
C7CF
  8
AM_0
 10
477.54616153174481
 20
631.14065614289723
 30
0.0
 11
492.20161153174411
 21
631.14065614289723
 31
0.0
  0
LINE
  5
C7D0
  8
AM_0
 10
480.05191153174428
 20
638.14060614289724
 30
0.0
 11
495.6861115317447
 21
638.14060614289724
 31
0.0
  0
LINE
  5
C7D1
  8
AM_0
 10
497.79191153174401
 20
631.42840614289719
 30
0.0
 11
496.15676153174479
 21
637.53070614289732
 31
0.0
  0
LINE
  5
C7D2
  8
AM_0
 10
477.86906153174499
 20
631.14060614289724
 30
0.0
 11
479.58126153174499
 21
637.53075614289719
 31
0.0
  0
LINE
  5
C7D3
  8
AM_0
 10
480.36551153174469
 20
638.25530614289698
 30
0.0
 11
487.86891153174429
 21
639.64065614289723
 31
0.0
  0
LINE
  5
C7D4
  8
AM_0
 10
487.8690115317446
 20
639.64060614289724
 30
0.0
 11
495.37241153174409
 21
638.25525614289722
 31
0.0
  0
LINE
  5
C7D5
  8
AM_0
 10
476.86906153174471
 20
470.53019614289713
 30
0.0
 11
476.86906153174471
 21
445.78770614289709
 31
0.0
  0
LINE
  5
C7D6
  8
AM_0
 10
476.86906153174471
 20
470.53019614289713
 30
0.0
 11
490.86901153174449
 21
470.53019614289713
 31
0.0
  0
LINE
  5
C7D7
  8
AM_0
 10
476.86906153174471
 20
458.77809114289698
 30
0.0
 11
490.86901153174449
 21
458.77809114289698
 31
0.0
  0
LINE
  5
C7D8
  8
AM_0
 10
476.86906153174471
 20
445.78770614289709
 30
0.0
 11
490.86901153174449
 21
445.78770614289709
 31
0.0
  0
LINE
  5
C7D9
  8
AM_0
 10
639.86901153174415
 20
563.64064114289715
 30
0.0
 11
695.86901153174449
 21
563.64064114289715
 31
0.0
  0
LINE
  5
C7DA
  8
AM_0
 10
639.86901153174415
 20
563.64064114289715
 30
0.0
 11
639.86901153174415
 21
560.64064114289715
 31
0.0
  0
LINE
  5
C7DB
  8
AM_0
 10
695.86901153174449
 20
518.64064114289715
 30
0.0
 11
695.86901153174449
 21
563.64064114289715
 31
0.0
  0
LINE
  5
C7DC
  8
AM_0
 10
625.86901153174449
 20
517.14061114289734
 30
0.0
 11
625.86901153174449
 21
562.14061114289734
 31
0.0
  0
LINE
  5
C7DD
  8
AM_0
 10
625.86901153174449
 20
518.64064114289715
 30
0.0
 11
695.86901153174449
 21
518.64064114289715
 31
0.0
  0
LINE
  5
C7DE
  8
AM_0
 10
625.86901153174449
 20
560.64064114289715
 30
0.0
 11
695.86901153174449
 21
560.64064114289715
 31
0.0
  0
LINE
  5
C7DF
  8
AM_0
 10
563.59756153174408
 20
370.14064114289658
 30
0.0
 11
609.86906153174505
 21
396.79139614289738
 31
0.0
  0
LINE
  5
C7E0
  8
AM_0
 10
503.86906153174499
 20
631.64065614289723
 30
0.0
 11
573.75721153174482
 21
633.47075614289724
 31
0.0
  0
LINE
  5
C7E1
  8
AM_0
 10
503.86906153174499
 20
371.64062614289719
 30
0.0
 11
503.86906153174499
 21
631.64065614289723
 31
0.0
  0
LINE
  5
C7E2
  8
AM_0
 10
601.86906153174505
 20
399.61863614289717
 30
0.0
 11
601.86906153174505
 21
448.13377614289732
 31
0.0
  0
LINE
  5
C7E3
  8
AM_0
 10
604.97371153174424
 20
396.62046614289721
 30
0.0
 11
619.86906153174505
 21
397.1406111428974
 31
0.0
  0
LINE
  5
C7E4
  8
AM_0
 10
623.86906153174505
 20
539.64061114289734
 30
0.0
 11
623.86906153174505
 21
419.64061114289728
 31
0.0
  0
LINE
  5
C7E5
  8
AM_0
 10
490.86901153174449
 20
491.65962614289708
 30
0.0
 11
609.86901153174426
 21
491.65962614289708
 31
0.0
  0
LINE
  5
C7E6
  8
AM_0
 10
601.86906153174505
 20
561.12749114289727
 30
0.0
 11
601.86906153174505
 21
678.61495614289697
 31
0.0
  0
LINE
  5
C7E7
  8
AM_0
 10
619.86901153174449
 20
397.1406111428974
 30
0.0
 11
619.86901153174449
 21
682.14060614289724
 31
0.0
  0
LINE
  5
C7E8
  8
AM_0
 10
604.76431153174462
 20
681.61315614289731
 30
0.0
 11
619.86906153174505
 21
682.14060614289724
 31
0.0
  0
LINE
  5
C7E9
  8
AM_0
 10
577.07671153174442
 20
629.51595614289715
 30
0.0
 11
575.75131153174482
 21
633.52295614289687
 31
0.0
  0
LINE
  5
C7EA
  8
AM_0
 10
600.73451153174415
 20
557.99357614289715
 30
0.0
 11
584.48156153174409
 21
607.12959614289719
 31
0.0
  0
LINE
  5
C7EB
  8
AM_0
 10
490.86901153174449
 20
608.90114114289713
 30
0.0
 11
552.93051153174406
 21
608.90114114289713
 31
0.0
  0
LINE
  5
C7EC
  8
AM_0
 10
490.86901153174449
 20
623.35793114289731
 30
0.0
 11
566.779561531745
 21
623.35793114289731
 31
0.0
  0
LINE
  5
C7ED
  8
AM_0
 10
609.86901153174426
 20
539.64061114289734
 30
0.0
 11
609.86901153174426
 21
650.59790614289716
 31
0.0
  0
LINE
  5
C7EE
  8
AM_0
 10
623.86906153174505
 20
539.64061114289734
 30
0.0
 11
623.86906153174505
 21
659.64060614289724
 31
0.0
  0
LINE
  5
C7EF
  8
AM_0
 10
503.86901153174449
 20
371.64064114289732
 30
0.0
 11
563.59756153174408
 21
370.14064114289658
 31
0.0
  0
LINE
  5
C7F0
  8
AM_0
 10
619.86901153174449
 20
419.64061114289728
 30
0.0
 11
623.86906153174505
 21
419.64061114289728
 31
0.0
  0
LINE
  5
C7F1
  8
AM_0
 10
609.86901153174426
 20
539.64061114289734
 30
0.0
 11
609.86901153174426
 21
428.6833361428973
 31
0.0
  0
LINE
  5
C7F2
  8
AM_0
 10
490.86901153174449
 20
511.62163114289717
 30
0.0
 11
609.86901153174426
 21
511.62163114289717
 31
0.0
  0
LINE
  5
C7F3
  8
AM_0
 10
605.48161153174465
 20
554.56380114289732
 30
0.0
 11
609.86901153174426
 21
554.56380114289732
 31
0.0
  0
LINE
  5
C7F4
  8
AM_0
 10
619.86901153174449
 20
659.64060614289724
 30
0.0
 11
623.86906153174505
 21
659.64060614289724
 31
0.0
  0
LINE
  5
C7F5
  8
AM_0
 10
577.16191153174475
 20
634.93340614289718
 30
0.0
 11
600.40456153174489
 21
658.17615614289718
 31
0.0
  0
LINE
  5
C7F6
  8
AM_0
 10
531.86906153174505
 20
438.27867114289728
 30
0.0
 11
601.86906153174505
 21
438.27867114289728
 31
0.0
  0
LINE
  5
C7F7
  8
AM_0
 10
531.86906153174505
 20
418.83638114289732
 30
0.0
 11
601.86906153174505
 21
418.83638114289732
 31
0.0
  0
LINE
  5
C7F8
  8
AM_0
 10
531.86906153174505
 20
420.68303114289728
 30
0.0
 11
531.86906153174505
 21
436.78303614289729
 31
0.0
  0
LINE
  5
C7F9
  8
AM_0
 10
555.36906153174505
 20
607.12956614289726
 30
0.0
 11
582.82206153174445
 21
607.12956614289726
 31
0.0
  0
LINE
  5
C7FA
  8
AM_0
 10
585.81181153174407
 20
608.12187614289724
 30
0.0
 11
601.86906153174505
 21
620.10069614289728
 31
0.0
  0
LINE
  5
C7FB
  8
AM_0
 10
599.43526153174423
 20
642.88725614289717
 30
0.0
 11
562.37636153174435
 21
620.72466114289716
 31
0.0
  0
LINE
  5
C7FC
  8
AM_0
 10
599.72166153174419
 20
636.64425614289723
 30
0.0
 11
557.96361153174485
 21
611.67143614289716
 31
0.0
  0
LINE
  5
C7FD
  8
AM_0
 10
623.86906153174505
 20
517.14061114289734
 30
0.0
 11
625.86901153174449
 21
517.14061114289734
 31
0.0
  0
LINE
  5
C7FE
  8
AM_0
 10
623.86906153174505
 20
562.14061114289734
 30
0.0
 11
625.86901153174449
 21
562.14061114289734
 31
0.0
  0
ARC
  5
C7FF
  8
AM_0
 10
478.86906153174499
 20
629.64060614289724
 30
0.0
 40
2.0000000500000001
 50
131.40962000000789
 51
180.00001000000091
  0
ARC
  5
C800
  8
AM_0
 10
487.86906153174499
 20
414.68483114289728
 30
0.0
 40
3.0000000500000001
 50
0.0
 51
87.999999999996405
  0
ARC
  5
C801
  8
AM_0
 10
487.86906153174499
 20
588.59642114289716
 30
0.0
 40
3.0000000500000001
 50
272.00000000000352
 51
0.0
  0
ARC
  5
C802
  8
AM_0
 10
492.86906153174482
 20
629.2553061428971
 30
0.0
 40
2.0000000500000001
 50
91.999997999994051
 51
180.00001000000091
  0
CIRCLE
  5
C803
  8
AM_0
 10
487.86906153174499
 20
652.14060614289724
 30
0.0
 40
12.5
  0
ARC
  5
C804
  8
AM_0
 10
487.86906153174499
 20
652.14060614289724
 30
0.0
 40
20.500000500000009
 50
304.61364000000412
 51
235.38634999999309
  0
ARC
  5
C805
  8
AM_0
 10
501.78596153174408
 20
631.97710614289713
 30
0.0
 40
4.000000049999997
 50
124.6136500000069
 51
187.868220000002
  0
ARC
  5
C806
  8
AM_0
 10
473.95206153174462
 20
631.97710614289713
 30
0.0
 40
4.000000049999997
 50
347.92933000000107
 51
55.386358999966298
  0
ARC
  5
C807
  8
AM_0
 10
480.54721153174478
 20
637.27190614289725
 30
0.0
 40
1.0
 50
100.4607199999827
 51
164.99998999999789
  0
ARC
  5
C808
  8
AM_0
 10
495.1909115317444
 20
637.27190614289725
 30
0.0
 40
1.0
 50
14.999999999994451
 51
79.539281000012195
  0
ARC
  5
C809
  8
AM_0
 10
573.62631153174482
 20
638.46900614289711
 30
0.0
 40
5.0
 50
271.49999999998971
 51
315.00000000000921
  0
ARC
  5
C80A
  8
AM_0
 10
605.48161153174465
 20
559.56380114289732
 30
0.0
 40
5.0
 50
198.30292000000651
 51
270.0
  0
ARC
  5
C80B
  8
AM_0
 10
604.86901153174449
 20
678.61495614289697
 30
0.0
 40
3.0000000500000001
 50
91.999997999994051
 51
180.00001000000091
  0
ARC
  5
C80C
  8
AM_0
 10
604.86901153174449
 20
399.61863614289717
 30
0.0
 40
3.0000000500000001
 50
179.999989999999
 51
271.99999000000793
  0
ARC
  5
C80D
  8
AM_0
 10
596.86906153174505
 20
661.71170614289724
 30
0.0
 40
5.0
 50
315.00000000000921
 51
0.0
  0
ARC
  5
C80E
  8
AM_0
 10
604.86901153174449
 20
650.59790614289716
 30
0.0
 40
5.0
 50
0.0
 51
91.999997999994051
  0
ARC
  5
C80F
  8
AM_0
 10
606.86906153174505
 20
448.13377614289732
 30
0.0
 40
5.0
 50
90.000002999984659
 51
180.00001000000091
  0
ARC
  5
C810
  8
AM_0
 10
604.86901153174449
 20
428.6833361428973
 30
0.0
 40
5.0
 50
267.99999999999642
 51
0.0
  0
ARC
  5
C811
  8
AM_0
 10
531.86906153174505
 20
428.55751114289728
 30
0.0
 40
9.7211409999999994
 50
90.000002999984659
 51
270.0
  0
ARC
  5
C812
  8
AM_0
 10
582.82206153174445
 20
612.12956614289715
 30
0.0
 40
5.0
 50
270.0
 51
306.7232100000146
  0
ARC
  5
C813
  8
AM_0
 10
555.36906153174505
 20
612.12956614289715
 30
0.0
 40
5.0
 50
229.76333000002251
 51
270.0
  0
ARC
  5
C814
  8
AM_0
 10
534.06881153174481
 20
633.43575614289705
 30
0.0
 40
30.946884499999999
 50
307.55230999998821
 51
335.5961300000061
  0
ARC
  5
C815
  8
AM_0
 10
596.86906153174505
 20
647.1784061428973
 30
0.0
 40
5.0
 50
300.88098000001457
 51
0.0
  0
LINE
  5
C816
  8
AM_0
 10
492.7991615817441
 20
372.02717579383119
 30
0.0
 11
503.86896158174432
 21
371.64061079383117
 31
0.0
  0
ARC
  5
C817
  8
AM_0
 10
492.86901158174481
 20
374.02598579383141
 30
0.0
 40
2.0000000500000001
 50
179.999989999999
 51
268.00000999999207
  0
LINE
  5
C818
  8
AM_0
  6
CONTINUOUS
 10
474.86901153174449
 20
418.14061114289728
 30
0.0
 11
474.86901153174449
 21
585.14061114289723
 31
0.0
  0
LINE
  5
C81C
  8
0
 10
262.3690115317446
 20
435.89605630692182
 30
0.0
 11
262.36901153174449
 21
414.64055014289733
 31
0.0
  0
LINE
  5
C81D
  8
0
  6
AM_ISO08W050
 10
367.86901153174449
 20
447.22978314289719
 30
0.0
 11
367.86901153174449
 21
427.24483314289728
 31
0.0
  0
LINE
  5
C81E
  8
0
  6
AM_ISO08W050
 10
415.36901153174432
 20
490.84374714289731
 30
0.0
 11
415.36901153174432
 21
503.96374714289732
 31
0.0
  0
LINE
  5
C81F
  8
0
  6
AM_ISO08W050
 10
408.86901153174449
 20
497.70374714289733
 30
0.0
 11
422.39901153174452
 21
497.70374714289733
 31
0.0
  0
LINE
  5
C820
  8
0
  6
AM_ISO08W050
 10
251.93901153174451
 20
497.70374714289733
 30
0.0
 11
264.86901153174449
 21
497.70374714289733
 31
0.0
  0
LINE
  5
C821
  8
0
  6
AM_ISO08W050
 10
258.36901153174449
 20
491.14374714289733
 30
0.0
 11
258.36901153174449
 21
504.41374714289742
 31
0.0
  0
LINE
  5
C822
  8
0
 10
402.86901153174432
 20
554.58374714289732
 30
0.0
 11
270.86901153174449
 21
554.58374714289732
 31
0.0
  0
LINE
  5
C823
  8
0
 10
264.86901153174449
 20
548.58374714289732
 30
0.0
 11
264.86901153174449
 21
447.50374714289728
 31
0.0
  0
LINE
  5
C824
  8
0
 10
408.86901153174449
 20
548.58374714289732
 30
0.0
 11
408.86901153174449
 21
447.50374714289728
 31
0.0
  0
LINE
  5
C825
  8
0
 10
270.86901153174449
 20
441.50374714289728
 30
0.0
 11
402.86901153174432
 21
441.50374714289728
 31
0.0
  0
LINE
  5
C826
  8
0
 10
415.38849553174452
 20
520.03066014289732
 30
0.0
 11
415.36901153174432
 21
548.60374714289708
 31
0.0
  0
LINE
  5
C827
  8
0
 10
402.86901153174432
 20
561.08374714289732
 30
0.0
 11
270.86901153174449
 21
561.08374714289732
 31
0.0
  0
LINE
  5
C828
  8
0
 10
258.36901153174449
 20
520.06374714289734
 30
0.0
 11
258.36901153174449
 21
548.58374714289732
 31
0.0
  0
LINE
  5
C829
  8
0
 10
258.36901153174449
 20
475.33374714289732
 30
0.0
 11
258.36901153174449
 21
445.06374714289728
 31
0.0
  0
LINE
  5
C82A
  8
0
 10
415.36901153174432
 20
475.33374714289732
 30
0.0
 11
415.36901153174432
 21
445.06374714289728
 31
0.0
  0
LINE
  5
C82B
  8
0
 10
270.86901153174449
 20
432.56374714289728
 30
0.0
 11
402.86901153174432
 21
432.56374714289728
 31
0.0
  0
ARC
  5
C82C
  8
0
 10
430.37057353174453
 20
475.34270514289727
 30
0.0
 40
15.001564999999999
 50
131.81297400000199
 51
180.034212999999
  0
ARC
  5
C82D
  8
0
 10
402.86849953174448
 20
548.58323514289737
 30
0.0
 40
6.0005119999999996
 50
0.0048860000006618
 51
89.995114000002559
  0
ARC
  5
C82E
  8
0
 10
270.86751853174451
 20
548.58524014289731
 30
0.0
 40
5.998507
 50
89.985740000000476
 51
180.0142599999995
  0
ARC
  5
C82F
  8
0
 10
270.8665075317445
 20
447.50124314289729
 30
0.0
 40
5.9974970000000001
 50
179.9760820000013
 51
270.02391799999867
  0
ARC
  5
C830
  8
0
 10
402.86951053174431
 20
447.50324814289729
 30
0.0
 40
5.9995010000000004
 50
269.99523699999969
 51
0.0047630000002228
  0
ARC
  5
C831
  8
0
 10
243.3700765317445
 20
520.06361114289734
 30
0.0
 40
14.998934999999999
 50
311.80849600000039
 51
0.0005210000016347
  0
ARC
  5
C832
  8
0
 10
243.36689953174451
 20
475.33500314289728
 30
0.0
 40
15.007673
 50
358.4401929999994
 51
48.205063999999972
  0
ARC
  5
C833
  8
0
 10
249.8659585317445
 20
470.90643814289729
 30
0.0
 40
15.003053
 50
359.98972200000082
 51
63.249136000002181
  0
ARC
  5
C834
  8
0
 10
249.8686465317445
 20
524.48940114289735
 30
0.0
 40
15.000365
 50
296.74454000000122
 51
0.0166020000005176
  0
ARC
  5
C835
  8
0
 10
263.36700753174438
 20
497.69874714289728
 30
0.0
 40
14.998716
 50
116.73758300000161
 51
243.26241699999841
  0
ARC
  5
C836
  8
0
 10
423.86915753174441
 20
470.90822814289731
 30
0.0
 40
15.000147
 50
116.74402700000201
 51
180.01711599999811
  0
ARC
  5
C837
  8
0
 10
423.86646853174449
 20
524.48761114289732
 30
0.0
 40
14.997458999999999
 50
179.97655699999851
 51
243.26230100000251
  0
ARC
  5
C838
  8
0
 10
410.36700653174449
 20
497.69874714289728
 30
0.0
 40
15.00052
 50
296.75125799999682
 51
63.248742000003247
  0
ARC
  5
C839
  8
0
 10
402.86601053174451
 20
548.58072514289734
 30
0.0
 40
12.503022
 50
0.1054989999989079
 51
89.986247999999051
  0
ARC
  5
C83A
  8
0
 10
270.86751853174451
 20
548.58524014289731
 30
0.0
 40
12.498507
 50
89.993155999999715
 51
180.0068440000002
  0
ARC
  5
C83B
  8
0
 10
270.86450753174449
 20
445.05924314289729
 30
0.0
 40
12.495497
 50
179.9793499999987
 51
270.020649999998
  0
ARC
  5
C83C
  8
0
 10
402.87151053174449
 20
445.06124814289728
 30
0.0
 40
12.497502000000001
 50
269.98854500000192
 51
0.0114550000013288
  0
ARC
  5
C83D
  8
0
 10
430.38849153174442
 20
520.04088914289707
 30
0.0
 40
15.0
 50
180.0390699999999
 51
228.13549799999899
  0
LINE
  5
C83E
  8
0
 10
419.8258875317444
 20
550.82561114289717
 30
0.0
 11
419.8258875317444
 21
530.46061114289739
 31
0.0
  0
LINE
  5
C83F
  8
0
 10
435.86901053174421
 20
550.82561114289717
 30
0.0
 11
435.86901053174421
 21
530.46061114289739
 31
0.0
  0
LINE
  5
C840
  8
0
 10
450.41840653174449
 20
445.61981514289732
 30
0.0
 11
435.86901053174421
 21
445.61981514289732
 31
0.0
  0
LINE
  5
C841
  8
0
 10
455.36901153174438
 20
457.03216514289733
 30
0.0
 11
435.86901053174421
 21
457.03216514289733
 31
0.0
  0
LINE
  5
C842
  8
0
 10
420.57440853174433
 20
450.33490514289741
 30
0.0
 11
435.86901153174409
 21
445.61981514289732
 31
0.0
  0
LINE
  5
C843
  8
0
 10
435.86901153174409
 20
457.03216514289733
 30
0.0
 11
420.83307053174451
 21
456.49141414289733
 31
0.0
  0
ARC
  5
C844
  8
0
 10
420.86901153174449
 20
455.49206014289729
 30
0.0
 40
1.0
 50
92.059690999997201
 51
180.0
  0
ARC
  5
C845
  8
0
 10
420.86901153174449
 20
451.29052514289731
 30
0.0
 40
1.0
 50
180.0
 51
252.8662750000021
  0
LINE
  5
C846
  8
0
 10
435.86901153174409
 20
577.49339814289715
 30
0.0
 11
420.5685525317445
 21
572.67353214289722
 31
0.0
  0
ARC
  5
C847
  8
0
 10
420.86901153174449
 20
571.71973714289732
 30
0.0
 40
1.0
 50
107.485179
 51
180.0
  0
ARC
  5
C848
  8
0
 10
420.86901153174449
 20
569.36867214289725
 30
0.0
 40
1.0
 50
180.0
 51
270.0
  0
LINE
  5
C849
  8
0
 10
420.91756653174428
 20
568.36985114289723
 30
0.0
 11
435.86901153174409
 21
569.09667114289721
 31
0.0
  0
LINE
  5
C84A
  8
0
 10
455.36901153174438
 20
569.09667114289721
 30
0.0
 11
435.86901153174409
 21
569.09667114289721
 31
0.0
  0
LINE
  5
C84B
  8
0
 10
378.8690115317446
 20
599.92710414289729
 30
0.0
 11
466.31619653174448
 21
599.92710414289729
 31
0.0
  0
ARC
  5
C84C
  8
0
 10
290.13325653174462
 20
597.92710414289718
 30
0.0
 40
2.0
 50
90.0
 51
156.10180000000051
  0
ARC
  5
C84D
  8
0
 10
466.31619653174448
 20
597.92710414289718
 30
0.0
 40
2.0
 50
10.000001999998901
 51
90.0
  0
LINE
  5
C84E
  8
0
 10
469.86901153174449
 20
589.29562814289739
 30
0.0
 11
468.2858115317444
 21
598.27440114289732
 31
0.0
  0
LINE
  5
C84F
  8
0
 10
469.60820353174432
 20
589.29562814289739
 30
0.0
 11
469.86901153174449
 21
589.29562814289739
 31
0.0
  0
ARC
  5
C850
  8
0
 10
275.20022653174448
 20
596.73733014289724
 30
0.0
 40
2.0
 50
90.0
 51
169.99999800000111
  0
LINE
  5
C851
  8
0
 10
270.86901153174449
 20
583.69132714289731
 30
0.0
 11
273.23061153174439
 21
597.08462714289738
 31
0.0
  0
ARC
  5
C852
  8
0
 10
466.26517753174448
 20
596.73733014289724
 30
0.0
 40
2.0
 50
10.000001999998901
 51
90.0
  0
LINE
  5
C853
  8
0
 10
469.86901153174449
 20
587.81651014289719
 30
0.0
 11
468.2347925317444
 21
597.08462714289738
 31
0.0
  0
LINE
  5
C854
  8
0
 10
270.86901153174449
 20
583.69132714289731
 30
0.0
 11
271.43691753174448
 21
583.69132714289731
 31
0.0
  0
LINE
  5
C855
  8
0
 10
469.33304053174442
 20
587.81651014289719
 30
0.0
 11
469.86901153174449
 21
587.81651014289719
 31
0.0
  0
ARC
  5
C856
  8
0
 10
466.17932253174439
 20
594.18459614289725
 30
0.0
 40
2.0
 50
10.00000100000196
 51
90.0
  0
ARC
  5
C857
  8
0
 10
275.31801753174437
 20
594.18459614289725
 30
0.0
 40
2.0
 50
90.0
 51
169.9999989999979
  0
LINE
  5
C858
  8
0
 10
270.86901153174449
 20
580.47057114289726
 30
0.0
 11
273.34840153174463
 21
594.53189214289716
 31
0.0
  0
ARC
  5
C859
  8
0
 10
275.49915853174451
 20
590.21941114289723
 30
0.0
 40
2.0
 50
90.0
 51
169.9999999999981
  0
LINE
  5
C85A
  8
0
 10
270.86901153174449
 20
575.47808614289715
 30
0.0
 11
273.52954253174448
 21
590.56670714289737
 31
0.0
  0
ARC
  5
C85B
  8
0
 10
275.78038653174451
 20
584.64198314289717
 30
0.0
 40
2.0
 50
90.0
 51
169.9999999999981
  0
LINE
  5
C85C
  8
0
 10
270.86901153174449
 20
568.30573414289722
 30
0.0
 11
273.81077053174442
 21
584.98928014289731
 31
0.0
  0
ARC
  5
C85D
  8
0
 10
275.87565053174438
 20
578.64131614289715
 30
0.0
 40
2.0
 50
90.0
 51
169.9999989999979
  0
LINE
  5
C85E
  8
0
 10
270.86901153174449
 20
561.76479814289735
 30
0.0
 11
273.90603453174458
 21
578.98861214289718
 31
0.0
  0
LINE
  5
C85F
  8
0
 10
469.74075253174448
 20
585.50426014289724
 30
0.0
 11
468.14893753174408
 21
594.53189214289716
 31
0.0
  0
LINE
  5
C860
  8
0
 10
270.86901153174449
 20
580.47057114289726
 30
0.0
 11
271.7493215317445
 21
580.47057114289726
 31
0.0
  0
ARC
  5
C861
  8
0
 10
466.0499445317443
 20
590.21941114289723
 30
0.0
 40
2.0
 50
10.00000000000181
 51
90.0
  0
LINE
  5
C862
  8
0
 10
468.91220653174452
 20
585.50426014289724
 30
0.0
 11
468.01956053174428
 21
590.56670714289737
 31
0.0
  0
ARC
  5
C863
  8
0
 10
401.2580295317444
 20
584.64198314289717
 30
0.0
 40
2.0
 50
5.5986529999989596
 51
90.0
  0
ARC
  5
C864
  8
0
 10
401.25607453174428
 20
578.64131614289715
 30
0.0
 40
2.0
 50
5.4290189999985046
 51
90.0
  0
LINE
  5
C865
  8
0
 10
471.86901153174438
 20
461.91790514289733
 30
0.0
 11
471.86901153174438
 21
563.70654414289731
 31
0.0
  0
LINE
  5
C866
  8
0
 10
471.86901153174438
 20
585.50426014289724
 30
0.0
 11
471.86901153174438
 21
589.64061114289723
 31
0.0
  0
LINE
  5
C867
  8
0
 10
419.8258875317444
 20
575.47808614289715
 30
0.0
 11
435.86901053174421
 21
580.0779481428973
 31
0.0
  0
LINE
  5
C868
  8
0
 10
404.1659265317445
 20
575.47808614289715
 30
0.0
 11
419.8258875317444
 21
575.47808614289715
 31
0.0
  0
LINE
  5
C869
  8
0
 10
435.86901053174421
 20
580.0779481428973
 30
0.0
 11
450.56229453174433
 21
580.0779481428973
 31
0.0
  0
INSERT
  5
C86A
  8
0
  2
$6-45
 10
455.36901153174438
 20
575.77387114289729
 30
0.0
 50
90.0
  0
INSERT
  5
C86B
  8
0
  2
$6-45
 10
455.36901153174438
 20
449.73194414289731
 30
0.0
 50
90.0
  0
LINE
  5
C86C
  8
0
 10
230.86901153174449
 20
504.64061114289728
 30
0.0
 11
162.87747953174451
 21
504.64061114289728
 31
0.0
  0
LINE
  5
C86D
  8
0
 10
469.80818153174448
 20
589.64061114289723
 30
0.0
 11
471.86901153174438
 21
589.64061114289723
 31
0.0
  0
LINE
  5
C86E
  8
0
 10
275.49915853174451
 20
592.21941114289723
 30
0.0
 11
466.0499445317443
 21
592.21941114289723
 31
0.0
  0
LINE
  5
C86F
  8
0
 10
275.31801753174437
 20
596.18459614289736
 30
0.0
 11
466.17932253174439
 21
596.18459614289736
 31
0.0
  0
LINE
  5
C870
  8
0
 10
275.20022653174448
 20
598.73733014289735
 30
0.0
 11
466.26517753174448
 21
598.73733014289735
 31
0.0
  0
LINE
  5
C871
  8
0
 10
262.36901153174449
 20
595.14061114289723
 30
0.0
 11
272.8878295317445
 21
595.14061114289723
 31
0.0
  0
LINE
  5
C872
  8
0
 10
290.13325653174462
 20
599.92710414289729
 30
0.0
 11
356.86901153174449
 21
599.92710414289729
 31
0.0
  0
LINE
  5
C873
  8
0
 10
435.86901053174421
 20
558.80061114289731
 30
0.0
 11
435.86901053174421
 21
553.45561114289717
 31
0.0
  0
LINE
  5
C874
  8
0
 10
419.8258875317444
 20
558.80061114289731
 30
0.0
 11
419.8258875317444
 21
553.45561114289717
 31
0.0
  0
LINE
  5
C875
  8
0
 10
435.86901053174421
 20
569.09667114289721
 30
0.0
 11
435.86901053174421
 21
561.50061114289736
 31
0.0
  0
LINE
  5
C876
  8
0
 10
435.86901053174421
 20
577.49339814289715
 30
0.0
 11
449.96901753174461
 21
577.49339814289715
 31
0.0
  0
LINE
  5
C877
  8
0
 10
270.86901153174449
 20
561.76479814289735
 30
0.0
 11
404.86901153174449
 21
561.76479814289735
 31
0.0
  0
LINE
  5
C878
  8
0
 10
404.19138453174452
 20
568.30573414289722
 30
0.0
 11
404.86901153174449
 21
568.30573414289722
 31
0.0
  0
LINE
  5
C879
  8
0
 10
275.87565053174438
 20
580.64131614289715
 30
0.0
 11
401.25607453174428
 21
580.64131614289715
 31
0.0
  0
LINE
  5
C87A
  8
0
 10
270.86901153174449
 20
568.30573414289722
 30
0.0
 11
272.02235453174438
 21
568.30573414289722
 31
0.0
  0
LINE
  5
C87B
  8
0
 10
275.78038653174451
 20
586.64198314289729
 30
0.0
 11
401.2580295317444
 21
586.64198314289729
 31
0.0
  0
LINE
  5
C87C
  8
0
 10
471.86901153174438
 20
563.70654414289731
 30
0.0
 11
474.86901153174449
 21
561.97449314289724
 31
0.0
  0
ARC
  5
C87D
  8
0
 10
454.36901153174449
 20
564.7065441428972
 30
0.0
 40
1.0
 50
270.0
 51
0.0
  0
ARC
  5
C87E
  8
0
 10
457.36901153174449
 20
583.50426014289724
 30
0.0
 40
2.0
 50
90.0
 51
180.0
  0
ARC
  5
C87F
  8
0
 10
457.36901153174449
 20
579.38025514289723
 30
0.0
 40
2.0
 50
180.0
 51
270.0
  0
ARC
  5
C880
  8
0
 10
457.36901153174449
 20
575.38025514289723
 30
0.0
 40
2.0
 50
90.0
 51
180.0
  0
LINE
  5
C881
  8
0
 10
457.36901153174449
 20
585.50426014289724
 30
0.0
 11
474.86901153174449
 21
585.50426014289724
 31
0.0
  0
LINE
  5
C882
  8
0
 10
455.36901153174438
 20
563.70654414289731
 30
0.0
 11
471.86901153174438
 21
563.70654414289731
 31
0.0
  0
LINE
  5
C883
  8
0
 10
457.36901153174449
 20
577.38025514289723
 30
0.0
 11
474.86901153174449
 21
577.38025514289723
 31
0.0
  0
LINE
  5
C884
  8
0
 10
455.36901153174438
 20
564.7065441428972
 30
0.0
 11
455.36901153174438
 21
583.50426014289724
 31
0.0
  0
LINE
  5
C885
  8
0
 10
270.86901153174449
 20
417.64061114289728
 30
0.0
 11
262.3690115317446
 21
417.64061114289728
 31
0.0
  0
LINE
  5
C886
  8
0
 10
271.69320653174452
 20
432.56374714289728
 30
0.0
 11
272.46175353174448
 21
424.21635514289733
 31
0.0
  0
LINE
  5
C887
  8
0
 10
270.86901153174449
 20
427.8031361428973
 30
0.0
 11
271.55178853174448
 21
427.8031361428973
 31
0.0
  0
LINE
  5
C888
  8
0
 10
270.86901153174449
 20
422.81065114289731
 30
0.0
 11
271.39352453174439
 21
422.81065114289731
 31
0.0
  0
LINE
  5
C889
  8
0
 10
270.86901153174449
 20
419.58989514289732
 30
0.0
 11
271.22895353174448
 21
419.58989514289732
 31
0.0
  0
LINE
  5
C88A
  8
0
 10
270.82223453174458
 20
418.02031414289729
 30
0.0
 11
271.05262553174441
 21
418.02031414289729
 31
0.0
  0
LINE
  5
C88B
  8
0
 10
271.09859853174453
 20
432.56374714289728
 30
0.0
 11
272.45666353174443
 21
418.29771414289729
 31
0.0
  0
LINE
  5
C88C
  8
0
 10
270.86901153174449
 20
427.8031361428973
 30
0.0
 11
272.44084453174452
 21
412.84192514289731
 31
0.0
  0
LINE
  5
C88D
  8
0
 10
270.86901153174449
 20
422.81065114289731
 30
0.0
 11
272.43032253174448
 21
408.8400601428973
 31
0.0
  0
LINE
  5
C88E
  8
0
 10
270.86901153174449
 20
419.58989514289732
 30
0.0
 11
272.4222305317445
 21
406.31256714289742
 31
0.0
  0
LINE
  5
C88F
  8
0
 10
270.82223453174458
 20
418.02031414289729
 30
0.0
 11
272.41275053174439
 21
405.1095801428973
 31
0.0
  0
ARC
  5
C890
  8
0
 10
274.45332953174437
 20
424.39972014289731
 30
0.0
 40
2.0
 50
185.2604110000014
 51
270.0
  0
ARC
  5
C891
  8
0
 10
274.44766153174447
 20
418.48724914289733
 30
0.0
 40
2.0
 50
185.4379219999999
 51
270.0
  0
ARC
  5
C892
  8
0
 10
274.42989753174447
 20
413.05089614289727
 30
0.0
 40
2.0
 50
185.99752599999999
 51
270.0
  0
ARC
  5
C893
  8
0
 10
274.41794853174451
 20
409.06219114289729
 30
0.0
 40
2.0
 50
186.376742000001
 51
270.0
  0
ARC
  5
C894
  8
0
 10
274.40868453174448
 20
406.54494814289728
 30
0.0
 40
2.0
 50
186.6722939999982
 51
270.0
  0
ARC
  5
C895
  8
0
 10
274.39774453174448
 20
405.35411814289728
 30
0.0
 40
2.0
 50
187.02306899999991
 51
270.0
  0
LINE
  5
C896
  8
0
 10
469.86901153174449
 20
516.82061114289729
 30
0.0
 11
468.10901153174427
 21
517.37061114289725
 31
0.0
  0
LINE
  5
C897
  8
0
 10
469.86901153174449
 20
519.46061114289716
 30
0.0
 11
469.86901153174449
 21
516.82061114289729
 31
0.0
  0
LINE
  5
C898
  8
0
 10
468.10901153174427
 20
518.97061114289727
 30
0.0
 11
469.86901153174449
 21
519.46061114289716
 31
0.0
  0
LINE
  5
C899
  8
0
 10
468.10901153174427
 20
518.97061114289727
 30
0.0
 11
468.10901153174427
 21
517.37061114289725
 31
0.0
  0
LINE
  5
C89A
  8
0
 10
469.86901153174449
 20
505.82061114289729
 30
0.0
 11
468.10901153174427
 21
506.3706111428973
 31
0.0
  0
LINE
  5
C89B
  8
0
 10
469.86901153174449
 20
508.46061114289728
 30
0.0
 11
469.86901153174449
 21
505.82061114289729
 31
0.0
  0
LINE
  5
C89C
  8
0
 10
468.10901153174427
 20
507.97061114289733
 30
0.0
 11
469.86901153174449
 21
508.46061114289728
 31
0.0
  0
LINE
  5
C89D
  8
0
 10
468.10901153174427
 20
507.97061114289733
 30
0.0
 11
468.10901153174427
 21
506.3706111428973
 31
0.0
  0
LINE
  5
C89E
  8
0
 10
469.86901153174449
 20
494.82061114289729
 30
0.0
 11
468.10901153174427
 21
495.3706111428973
 31
0.0
  0
LINE
  5
C89F
  8
0
 10
469.86901153174449
 20
497.46061114289728
 30
0.0
 11
469.86901153174449
 21
494.82061114289729
 31
0.0
  0
LINE
  5
C8A0
  8
0
 10
468.10901153174427
 20
496.97061114289733
 30
0.0
 11
469.86901153174449
 21
497.46061114289728
 31
0.0
  0
LINE
  5
C8A1
  8
0
 10
468.10901153174427
 20
496.97061114289733
 30
0.0
 11
468.10901153174427
 21
495.3706111428973
 31
0.0
  0
LINE
  5
C8A2
  8
0
 10
469.86901153174449
 20
483.82061114289729
 30
0.0
 11
468.10901153174427
 21
484.3706111428973
 31
0.0
  0
LINE
  5
C8A3
  8
0
 10
469.86901153174449
 20
486.46061114289728
 30
0.0
 11
469.86901153174449
 21
483.82061114289729
 31
0.0
  0
LINE
  5
C8A4
  8
0
 10
468.10901153174427
 20
485.97061114289733
 30
0.0
 11
469.86901153174449
 21
486.46061114289728
 31
0.0
  0
LINE
  5
C8A5
  8
0
 10
468.10901153174427
 20
485.97061114289733
 30
0.0
 11
468.10901153174427
 21
484.3706111428973
 31
0.0
  0
LINE
  5
C8A6
  8
0
 10
469.28068053174451
 20
415.1313311428973
 30
0.0
 11
468.24905153174461
 21
406.3125701428973
 31
0.0
  0
LINE
  5
C8A7
  8
0
 10
468.21379453174421
 20
408.83976414289731
 30
0.0
 11
469.2687515317445
 21
418.26675114289731
 31
0.0
  0
LINE
  5
C8A8
  8
0
 10
468.24086453174459
 20
412.84062014289731
 30
0.0
 11
469.33977653174452
 21
423.23479414289727
 31
0.0
  0
LINE
  5
C8A9
  8
0
 10
469.39071753174449
 20
429.7714141428973
 30
0.0
 11
468.26543653174451
 21
418.29213014289729
 31
0.0
  0
LINE
  5
C8AA
  8
0
 10
469.43188453174457
 20
437.18115614289729
 30
0.0
 11
468.19916753174408
 21
424.21049514289729
 31
0.0
  0
LINE
  5
C8AB
  8
0
 10
469.34080353174448
 20
413.9950031428973
 30
0.0
 11
468.26877053174439
 21
405.11442514289729
 31
0.0
  0
LINE
  5
C8AC
  8
0
 10
468.10901153174427
 20
474.97061114289733
 30
0.0
 11
468.10901153174427
 21
473.3706111428973
 31
0.0
  0
LINE
  5
C8AD
  8
0
 10
468.10901153174427
 20
474.97061114289733
 30
0.0
 11
469.86901153174449
 21
475.46061114289728
 31
0.0
  0
LINE
  5
C8AE
  8
0
 10
469.86901153174449
 20
475.46061114289728
 30
0.0
 11
469.86901153174449
 21
472.82061114289729
 31
0.0
  0
LINE
  5
C8AF
  8
0
 10
469.86901153174449
 20
472.82061114289729
 30
0.0
 11
468.10901153174427
 21
473.3706111428973
 31
0.0
  0
LINE
  5
C8B0
  8
0
 10
468.10901153174427
 20
529.97061114289738
 30
0.0
 11
468.10901153174427
 21
528.37061114289736
 31
0.0
  0
LINE
  5
C8B1
  8
0
 10
468.10901153174427
 20
529.97061114289738
 30
0.0
 11
469.86901153174449
 21
530.46061114289739
 31
0.0
  0
LINE
  5
C8B2
  8
0
 10
469.86901153174449
 20
530.46061114289739
 30
0.0
 11
469.86901153174449
 21
527.82061114289695
 31
0.0
  0
LINE
  5
C8B3
  8
0
 10
469.86901153174449
 20
527.82061114289695
 30
0.0
 11
468.10901153174427
 21
528.37061114289736
 31
0.0
  0
LINE
  5
C8B4
  8
0
 10
419.8258875317444
 20
527.82061114289695
 30
0.0
 11
419.8258875317444
 21
519.46061114289716
 31
0.0
  0
LINE
  5
C8B5
  8
0
 10
435.86901053174421
 20
527.82061114289695
 30
0.0
 11
435.86901053174421
 21
519.46061114289716
 31
0.0
  0
LINE
  5
C8B6
  8
0
 10
435.86901053174421
 20
516.82061114289729
 30
0.0
 11
435.86901053174421
 21
508.46061114289728
 31
0.0
  0
LINE
  5
C8B7
  8
0
 10
419.8258875317444
 20
516.82061114289729
 30
0.0
 11
419.8258875317444
 21
509.34113414289732
 31
0.0
  0
LINE
  5
C8B8
  8
0
 10
435.86901053174421
 20
505.82061114289729
 30
0.0
 11
435.86901053174421
 21
497.46061114289728
 31
0.0
  0
LINE
  5
C8B9
  8
0
 10
435.86901053174421
 20
494.82061114289729
 30
0.0
 11
435.86901053174421
 21
486.46061114289728
 31
0.0
  0
LINE
  5
C8BA
  8
0
 10
419.8258875317444
 20
483.82061114289729
 30
0.0
 11
419.8258875317444
 21
475.46061114289728
 31
0.0
  0
LINE
  5
C8BB
  8
0
 10
435.86901053174421
 20
483.82061114289729
 30
0.0
 11
435.86901053174421
 21
475.46061114289728
 31
0.0
  0
LINE
  5
C8BC
  8
0
 10
435.86901053174421
 20
472.82061114289729
 30
0.0
 11
435.86901053174421
 21
457.03216514289733
 31
0.0
  0
LINE
  5
C8BD
  8
0
 10
419.8258875317444
 20
472.82061114289729
 30
0.0
 11
419.8258875317444
 21
441.51554214289729
 31
0.0
  0
LINE
  5
C8BE
  8
0
 10
469.43188453174457
 20
437.18115614289729
 30
0.0
 11
435.86901053174421
 21
437.18115614289729
 31
0.0
  0
LINE
  5
C8BF
  8
0
 10
469.39071753174449
 20
429.7714141428973
 30
0.0
 11
468.72767153174448
 21
429.7714141428973
 31
0.0
  0
ARC
  5
C8C0
  8
0
 10
466.20813953174462
 20
424.39972014289731
 30
0.0
 40
2.0
 50
270.0
 51
354.5709810000015
  0
ARC
  5
C8C1
  8
0
 10
466.27497753174453
 20
418.48724914289733
 30
0.0
 40
2.0
 50
270.0
 51
354.40134700000101
  0
ARC
  5
C8C2
  8
0
 10
466.2519495317444
 20
413.05089614289727
 30
0.0
 40
2.0
 50
270.0
 51
353.96488600000038
  0
ARC
  5
C8C3
  8
0
 10
466.22620153174449
 20
409.06219114289729
 30
0.0
 40
2.0
 50
270.0
 51
353.61470099999991
  0
ARC
  5
C8C4
  8
0
 10
466.26259753174452
 20
406.54494814289728
 30
0.0
 40
2.0
 50
270.0
 51
353.32780000000128
  0
ARC
  5
C8C5
  8
0
 10
466.28318653174438
 20
405.35411814289728
 30
0.0
 40
2.0
 50
270.0
 51
353.11676000000142
  0
LINE
  5
C8C6
  8
0
 10
469.33977653174452
 20
423.23479414289727
 30
0.0
 11
468.7499515317445
 21
423.23479414289727
 31
0.0
  0
LINE
  5
C8C7
  8
0
 10
469.2687515317445
 20
418.26675114289731
 30
0.0
 11
468.81453653174452
 21
418.26675114289731
 31
0.0
  0
LINE
  5
C8C8
  8
0
 10
469.28068053174451
 20
415.1313311428973
 30
0.0
 11
468.91787253174448
 21
415.1313311428973
 31
0.0
  0
LINE
  5
C8C9
  8
0
 10
469.34080353174448
 20
413.9950031428973
 30
0.0
 11
469.14775153174412
 21
413.9950031428973
 31
0.0
  0
LINE
  5
C8CA
  8
0
 10
471.86901153174438
 20
461.91790514289733
 30
0.0
 11
455.36901153174438
 21
461.91790514289733
 31
0.0
  0
LINE
  5
C8CB
  8
0
 10
474.86901153174449
 20
451.73861314289729
 30
0.0
 11
457.36901153174449
 21
451.73861314289729
 31
0.0
  0
LINE
  5
C8CC
  8
0
 10
474.86901153174449
 20
439.45133214289729
 30
0.0
 11
457.36901153174449
 21
439.45133214289729
 31
0.0
  0
LINE
  5
C8CD
  8
0
 10
455.36901153174438
 20
460.91790514289733
 30
0.0
 11
455.36901153174438
 21
441.45133214289729
 31
0.0
  0
LINE
  5
C8CE
  8
0
 10
471.86901153174438
 20
461.91790514289733
 30
0.0
 11
474.86901153174449
 21
463.64995614289728
 31
0.0
  0
ARC
  5
C8CF
  8
0
 10
457.36901153174449
 20
453.73861314289729
 30
0.0
 40
2.0
 50
180.0
 51
270.0
  0
ARC
  5
C8D0
  8
0
 10
457.36901153174449
 20
441.45133214289729
 30
0.0
 40
2.0
 50
180.0
 51
270.0
  0
ARC
  5
C8D1
  8
0
 10
457.36901153174449
 20
449.73861314289741
 30
0.0
 40
2.0
 50
90.0
 51
180.0
  0
LINE
  5
C8D2
  8
0
 10
435.86901053174421
 20
445.61981514289732
 30
0.0
 11
435.86901053174421
 21
437.18115614289729
 31
0.0
  0
LINE
  5
C8D3
  8
0
 10
419.8258875317444
 20
441.51554214289729
 30
0.0
 11
435.86901053174421
 21
437.18115614289729
 31
0.0
  0
ARC
  5
C8D4
  8
0
 10
454.36901153174449
 20
460.91790514289733
 30
0.0
 40
1.0
 50
0.0
 51
90.0
  0
LINE
  5
C8D5
  8
0
 10
419.8258875317444
 20
441.51554214289729
 30
0.0
 11
414.85548053174449
 21
441.51554214289729
 31
0.0
  0
LINE
  5
C8D6
  8
0
 10
466.28318653174438
 20
403.35411814289728
 30
0.0
 11
274.39774453174448
 21
403.35411814289728
 31
0.0
  0
LINE
  5
C8D7
  8
0
 10
466.26259753174452
 20
404.54494814289728
 30
0.0
 11
274.40868453174448
 21
404.54494814289728
 31
0.0
  0
LINE
  5
C8D8
  8
0
 10
466.22620153174449
 20
407.06219114289729
 30
0.0
 11
274.41794853174451
 21
407.06219114289729
 31
0.0
  0
LINE
  5
C8D9
  8
0
 10
466.2519495317444
 20
411.05089614289727
 30
0.0
 11
274.42989753174447
 21
411.05089614289727
 31
0.0
  0
LINE
  5
C8DA
  8
0
 10
466.27497753174453
 20
416.48724914289721
 30
0.0
 11
274.44766153174447
 21
416.48724914289721
 31
0.0
  0
LINE
  5
C8DB
  8
0
 10
466.20813953174462
 20
422.39972014289708
 30
0.0
 11
274.45332953174437
 21
422.39972014289708
 31
0.0
  0
LINE
  5
C8DC
  8
0
 10
419.8258875317444
 20
575.47808614289715
 30
0.0
 11
419.8258875317444
 21
561.50061114289736
 31
0.0
  0
LINE
  5
C8DD
  8
0
 10
435.86901053174421
 20
580.0779481428973
 30
0.0
 11
435.86901053174421
 21
577.49339814289715
 31
0.0
  0
LINE
  5
C8DE
  8
0
 10
415.3813835317444
 20
530.46061114289739
 30
0.0
 11
469.86901153174449
 21
530.46061114289739
 31
0.0
  0
LINE
  5
C8DF
  8
0
 10
415.38171753174453
 20
529.97061114289738
 30
0.0
 11
468.10901153174427
 21
529.97061114289738
 31
0.0
  0
LINE
  5
C8E0
  8
0
 10
415.38280853174427
 20
528.37061114289736
 30
0.0
 11
468.10901153174427
 21
528.37061114289736
 31
0.0
  0
LINE
  5
C8E1
  8
0
 10
415.38318353174452
 20
527.82061114289695
 30
0.0
 11
469.86901153174449
 21
527.82061114289695
 31
0.0
  0
LINE
  5
C8E2
  8
0
 10
415.36947153174452
 20
475.46061114289728
 30
0.0
 11
469.86901153174449
 21
475.46061114289728
 31
0.0
  0
LINE
  5
C8E3
  8
0
 10
415.36901153174432
 20
474.97061114289733
 30
0.0
 11
468.10901153174427
 21
474.97061114289733
 31
0.0
  0
LINE
  5
C8E4
  8
0
 10
415.36901153174432
 20
473.3706111428973
 30
0.0
 11
468.10901153174427
 21
473.3706111428973
 31
0.0
  0
LINE
  5
C8E5
  8
0
 10
415.36901153174432
 20
472.82061114289729
 30
0.0
 11
469.86901153174449
 21
472.82061114289729
 31
0.0
  0
LINE
  5
C8E6
  8
0
 10
422.97854553174409
 20
505.82061114289729
 30
0.0
 11
469.86901153174449
 21
505.82061114289729
 31
0.0
  0
LINE
  5
C8E7
  8
0
 10
422.60687453174432
 20
506.3706111428973
 30
0.0
 11
468.10901153174427
 21
506.3706111428973
 31
0.0
  0
LINE
  5
C8E8
  8
0
 10
420.30279553174432
 20
486.46061114289728
 30
0.0
 11
469.86901153174449
 21
486.46061114289728
 31
0.0
  0
LINE
  5
C8E9
  8
0
 10
419.78310153174442
 20
485.97061114289733
 30
0.0
 11
468.10901153174427
 21
485.97061114289733
 31
0.0
  0
LINE
  5
C8EA
  8
0
 10
418.38959453174431
 20
484.3706111428973
 30
0.0
 11
468.10901153174427
 21
484.3706111428973
 31
0.0
  0
LINE
  5
C8EB
  8
0
 10
417.99430353174409
 20
483.82061114289729
 30
0.0
 11
469.86901153174449
 21
483.82061114289729
 31
0.0
  0
LINE
  5
C8EC
  8
0
 10
425.36563653174449
 20
497.46061114289728
 30
0.0
 11
469.86901153174449
 21
497.46061114289728
 31
0.0
  0
LINE
  5
C8ED
  8
0
 10
425.34984353174423
 20
496.97061114289733
 30
0.0
 11
468.10901153174427
 21
496.97061114289733
 31
0.0
  0
LINE
  5
C8EE
  8
0
 10
425.18575753174412
 20
495.3706111428973
 30
0.0
 11
468.10901153174427
 21
495.3706111428973
 31
0.0
  0
LINE
  5
C8EF
  8
0
 10
425.08882453174448
 20
494.82061114289729
 30
0.0
 11
469.86901153174449
 21
494.82061114289729
 31
0.0
  0
LINE
  5
C8F0
  8
0
 10
415.39972053174449
 20
519.46061114289716
 30
0.0
 11
469.86901153174449
 21
519.46061114289716
 31
0.0
  0
LINE
  5
C8F1
  8
0
 10
415.42672353174453
 20
518.97061114289727
 30
0.0
 11
468.10901153174427
 21
518.97061114289727
 31
0.0
  0
LINE
  5
C8F2
  8
0
 10
415.62808453174449
 20
517.37061114289725
 30
0.0
 11
468.10901153174427
 21
517.37061114289725
 31
0.0
  0
LINE
  5
C8F3
  8
0
 10
415.7382425317445
 20
516.82061114289729
 30
0.0
 11
469.86901153174449
 21
516.82061114289729
 31
0.0
  0
LINE
  5
C8F4
  8
0
 10
420.8167855317443
 20
508.46061114289728
 30
0.0
 11
469.86901153174449
 21
508.46061114289728
 31
0.0
  0
LINE
  5
C8F5
  8
0
 10
421.29881353174432
 20
507.97061114289733
 30
0.0
 11
468.10901153174427
 21
507.97061114289733
 31
0.0
  0
LINE
  5
C8F6
  8
0
 10
471.86901153174438
 20
413.64061114289728
 30
0.0
 11
471.86901153174438
 21
439.45133214289729
 31
0.0
  0
LINE
  5
C8F7
  8
0
 10
469.29802253174449
 20
413.64061114289728
 30
0.0
 11
471.86901153174438
 21
413.64061114289728
 31
0.0
  0
LINE
  5
C8F8
  8
0
 10
469.86901153174449
 20
561.50061114289736
 30
0.0
 11
468.10901153174427
 21
560.9406111428973
 31
0.0
  0
LINE
  5
C8F9
  8
0
 10
468.10901153174427
 20
559.34061114289739
 30
0.0
 11
469.86901153174449
 21
558.80061114289731
 31
0.0
  0
LINE
  5
C8FA
  8
0
 10
469.86901153174449
 20
558.80061114289731
 30
0.0
 11
469.86901153174449
 21
561.50061114289736
 31
0.0
  0
LINE
  5
C8FB
  8
0
 10
468.10901153174427
 20
559.34061114289739
 30
0.0
 11
468.10901153174427
 21
560.9406111428973
 31
0.0
  0
LINE
  5
C8FC
  8
0
 10
469.86901153174449
 20
553.45561114289717
 30
0.0
 11
468.10901153174427
 21
552.91561114289732
 31
0.0
  0
LINE
  5
C8FD
  8
0
 10
468.10901153174427
 20
551.3156111428973
 30
0.0
 11
469.86901153174449
 21
550.82561114289717
 31
0.0
  0
LINE
  5
C8FE
  8
0
 10
468.10901153174427
 20
551.3156111428973
 30
0.0
 11
468.10901153174427
 21
552.91561114289732
 31
0.0
  0
LINE
  5
C8FF
  8
0
 10
469.86901153174449
 20
550.82561114289717
 30
0.0
 11
469.86901153174449
 21
553.45561114289717
 31
0.0
  0
LINE
  5
C900
  8
0
 10
404.86901153174449
 20
561.76479814289735
 30
0.0
 11
403.24710253174447
 21
578.83054114289723
 31
0.0
  0
LINE
  5
C901
  8
0
 10
404.86901153174449
 20
568.30573414289722
 30
0.0
 11
403.24848853174427
 21
584.83710214289715
 31
0.0
  0
LINE
  5
C902
  8
0
 10
149.9275445317445
 20
566.9725811428973
 30
0.0
 11
154.9286425317444
 21
595.33519114289732
 31
0.0
  0
LINE
  5
C903
  8
0
 10
157.64885753174451
 20
592.20634614289725
 30
0.0
 11
157.64885753174451
 21
503.31849914289728
 31
0.0
  0
ARC
  5
C904
  8
0
 10
158.8678825317445
 20
594.64061114289723
 30
0.0
 40
4.0
 50
90.0
 51
170.00018299999971
  0
LINE
  5
C905
  8
0
 10
149.86901153174449
 20
559.24058714289708
 30
0.0
 11
149.86901153174449
 21
472.92958314289729
 31
0.0
  0
ARC
  5
C906
  8
0
 10
150.86901153174449
 20
563.64061114289723
 30
0.0
 40
3.0
 50
118.7876890000003
 51
180.0
  0
LINE
  5
C907
  8
0
 10
147.86901153174449
 20
563.64061114289723
 30
0.0
 11
147.86901153174449
 21
451.78889714289721
 31
0.0
  0
LINE
  5
C908
  8
0
 10
157.64885753174451
 20
491.45998614289732
 30
0.0
 11
157.64885753174451
 21
420.6286481428973
 31
0.0
  0
LINE
  5
C909
  8
0
 10
151.55703053174449
 20
427.06728914289732
 30
0.0
 11
153.16536753174441
 21
417.94603114289731
 31
0.0
  0
ARC
  5
C90A
  8
0
 10
157.10460753174451
 20
418.64061114289728
 30
0.0
 40
4.0
 50
189.9998319999994
 51
270.0
  0
ARC
  5
C90B
  8
0
 10
148.94274153174439
 20
567.14628714289722
 30
0.0
 40
1.0
 50
298.7879640000001
 51
350.00021399999918
  0
LINE
  5
C90C
  8
0
 10
151.92637653174449
 20
494.67663314289729
 30
0.0
 11
144.88234753174439
 21
420.21883014289727
 31
0.0
  0
LINE
  5
C90D
  8
0
 10
157.8997055317445
 20
494.11153014289732
 30
0.0
 11
150.85567553174451
 21
419.65372714289708
 31
0.0
  0
ARC
  5
C90E
  8
0
 10
162.87747953174451
 20
493.64061114289728
 30
0.0
 40
5.0
 50
90.0
 51
174.59565700000141
  0
ARC
  5
C90F
  8
0
 10
162.87747953174451
 20
493.64061114289728
 30
0.0
 40
11.0
 50
90.0
 51
174.59565700000141
  0
ARC
  5
C910
  8
0
 10
147.86901153174449
 20
419.93627814289721
 30
0.0
 40
3.0
 50
174.59565700000141
 51
354.59565700000138
  0
ARC
  5
C911
  8
0
 10
147.86901153174449
 20
419.93627814289721
 30
0.0
 40
3.799999999999998
 50
220.00000000000011
 51
32.140571999997661
  0
LINE
  5
C912
  8
0
 10
142.48525853174439
 20
421.29310614289727
 30
0.0
 11
144.89980153174449
 21
417.57242014289727
 31
0.0
  0
LINE
  5
C913
  8
0
 10
143.10272153174441
 20
421.8112191428973
 30
0.0
 11
145.57087853174451
 21
418.00791514289728
 31
0.0
  0
LINE
  5
C914
  8
0
 10
143.10272153174441
 20
421.8112191428973
 30
0.0
 11
142.48525853174439
 21
421.29310614289727
 31
0.0
  0
LINE
  5
C915
  8
0
 10
272.13369053174449
 20
575.47808614289715
 30
0.0
 11
270.86901153174449
 21
575.47808614289715
 31
0.0
  0
LINE
  5
C916
  8
0
 10
270.86901153174449
 20
561.50061114289736
 30
0.0
 11
272.17915753174452
 21
561.08374714289732
 31
0.0
  0
LINE
  5
C917
  8
0
 10
270.86901153174449
 20
561.08374714289732
 30
0.0
 11
270.86901153174449
 21
561.50061114289736
 31
0.0
  0
LINE
  5
C918
  8
0
 10
262.36901153174438
 20
585.26090814289728
 30
0.0
 11
271.14577053174452
 21
585.26090814289728
 31
0.0
  0
LINE
  5
C919
  8
0
  6
AM_ISO08W050
 10
245.86901153174449
 20
515.04364014289695
 30
0.0
 11
245.86901153174449
 21
490.65761114289728
 31
0.0
  0
LINE
  5
C91A
  8
0
 10
231.36901153174449
 20
504.14061114289728
 30
0.0
 11
249.82212400126841
 21
504.14061114289728
 31
0.0
  0
ARC
  5
C91B
  8
0
 10
245.86901153174449
 20
501.64061114289728
 30
0.0
 40
9.0
 50
43.898216756325418
 51
163.8723909999996
  0
ARC
  5
C91C
  8
0
 10
245.86901153174449
 20
501.64061114289728
 30
0.0
 40
5.5
 50
37.234941055981601
 51
152.9643079999984
  0
LINE
  5
C91D
  8
0
 10
231.36901153174449
 20
499.14061114289728
 30
0.0
 11
248.43775738801119
 21
499.14061114289728
 31
0.0
  0
ARC
  5
C91E
  8
0
 10
245.86901153174449
 20
501.64061114289728
 30
0.0
 40
9.0
 50
196.1276090000004
 51
290.71100541294157
  0
ARC
  5
C91F
  8
0
 10
245.86901153174449
 20
501.64061114289728
 30
0.0
 40
5.5
 50
207.0356920000016
 51
297.3742811132829
  0
LINE
  5
C920
  8
0
 10
262.36901153174449
 20
598.64061114289723
 30
0.0
 11
262.36901153174449
 21
557.74973991102434
 31
0.0
  0
LINE
  5
C921
  8
0
 10
231.36901153174449
 20
504.14061114289728
 30
0.0
 11
230.86901153174449
 21
504.64061114289728
 31
0.0
  0
LINE
  5
C922
  8
0
 10
231.36901153174449
 20
499.14061114289728
 30
0.0
 11
230.86901153174449
 21
498.64061114289728
 31
0.0
  0
LINE
  5
C923
  8
0
 10
356.86901153174449
 20
602.64061114289723
 30
0.0
 11
378.8690115317446
 21
602.64061114289723
 31
0.0
  0
LINE
  5
C924
  8
0
 10
356.86901153174449
 20
602.64061114289723
 30
0.0
 11
356.86901153174449
 21
598.73733014289735
 31
0.0
  0
LINE
  5
C925
  8
0
 10
378.8690115317446
 20
602.64061114289723
 30
0.0
 11
378.8690115317446
 21
598.73733014289735
 31
0.0
  0
LINE
  5
C926
  8
0
 10
230.86901153174449
 20
498.64061114289728
 30
0.0
 11
162.87747953174451
 21
498.64061114289728
 31
0.0
  0
LINE
  5
C927
  8
0
 10
262.36901153174449
 20
414.64061114289728
 30
0.0
 11
157.10460753174451
 21
414.64061114289728
 31
0.0
  0
LINE
  5
C928
  8
0
 10
262.36901153174449
 20
598.64061114289723
 30
0.0
 11
158.8678825317445
 21
598.64061114289723
 31
0.0
  0
LINE
  5
C929
  8
0
 10
409.23393053174448
 20
559.34061114289739
 30
0.0
 11
468.10901153174427
 21
559.34061114289739
 31
0.0
  0
LINE
  5
C92A
  8
0
 10
404.75247953174443
 20
560.9406111428973
 30
0.0
 11
468.10901153174427
 21
560.9406111428973
 31
0.0
  0
LINE
  5
C92B
  8
0
 10
410.06875153174451
 20
558.80061114289731
 30
0.0
 11
469.86901153174449
 21
558.80061114289731
 31
0.0
  0
LINE
  5
C92C
  8
0
 10
270.86901153174449
 20
561.50061114289736
 30
0.0
 11
469.86901153174449
 21
561.50061114289736
 31
0.0
  0
LINE
  5
C92D
  8
0
 10
415.16584953174453
 20
550.82561114289717
 30
0.0
 11
469.86901153174449
 21
550.82561114289717
 31
0.0
  0
LINE
  5
C92E
  8
0
 10
414.37952653174449
 20
553.45561114289717
 30
0.0
 11
469.86901153174449
 21
553.45561114289717
 31
0.0
  0
LINE
  5
C92F
  8
0
 10
415.06625453174439
 20
551.3156111428973
 30
0.0
 11
468.10901153174427
 21
551.3156111428973
 31
0.0
  0
LINE
  5
C930
  8
0
 10
414.59351353174441
 20
552.91561114289732
 30
0.0
 11
468.10901153174427
 21
552.91561114289732
 31
0.0
  0
LINE
  5
C931
  8
0
 10
474.86901153174449
 20
416.64061114289728
 30
0.0
 11
471.86901153174438
 21
413.64061114289728
 31
0.0
  0
LINE
  5
C932
  8
0
 10
474.86901153174449
 20
416.64061114289728
 30
0.0
 11
474.86901153174449
 21
586.64061114289723
 31
0.0
  0
LINE
  5
C933
  8
0
 10
474.86901153174449
 20
586.64061114289723
 30
0.0
 11
471.86901153174438
 21
589.64061114289723
 31
0.0
  0
LINE
  5
C998
  8
0
  6
CONTINUOUS
 62
     7
 10
503.86904153174447
 20
744.44491841611011
 30
0.0
 11
503.86904153174447
 21
880.18288841610979
 31
0.0
  0
LINE
  5
C999
  8
0
  6
CONTINUOUS
 62
     7
 10
503.86904153174447
 20
888.18282841610983
 30
0.0
 11
503.86904153174447
 21
1023.92086841611
 31
0.0
  0
LINE
  5
C99A
  8
0
  6
CONTINUOUS
 62
     7
 10
559.55654153174441
 20
957.08492841610985
 30
0.0
 11
601.86904153174419
 21
957.08492841610985
 31
0.0
  0
LINE
  5
C99B
  8
0
  6
CONTINUOUS
 62
     7
 10
503.86904153174447
 20
961.74862841610991
 30
0.0
 11
555.66475153174406
 21
961.74862841610991
 31
0.0
  0
LINE
  5
C99C
  8
0
  6
CONTINUOUS
 62
     7
 10
503.86897153174448
 20
1023.92080841611
 30
0.0
 11
604.80257153174443
 21
1026.15651841611
 31
0.0
  0
LINE
  5
C99D
  8
0
  6
CONTINUOUS
 62
     7
 10
503.86904153174447
 20
1013.31325841611
 30
0.0
 11
601.86904153174419
 21
1016.73543841611
 31
0.0
  0
LINE
  5
C99E
  8
0
  6
CONTINUOUS
 62
     7
 10
503.86904153174447
 20
935.74740841610992
 30
0.0
 11
601.86904153174419
 21
935.74740841610992
 31
0.0
  0
LINE
  5
C99F
  8
0
  6
CONTINUOUS
 62
     7
 10
559.55654153174441
 20
811.28078841610977
 30
0.0
 11
601.86904153174419
 21
811.28078841610977
 31
0.0
  0
LINE
  5
C9A0
  8
0
  6
CONTINUOUS
 62
     7
 10
625.86904153174441
 20
905.18288841610979
 30
0.0
 11
695.86901153174449
 21
905.18288841610979
 31
0.0
  0
LINE
  5
C9A1
  8
0
  6
CONTINUOUS
 62
     7
 10
625.86904153174441
 20
863.18288841610979
 30
0.0
 11
695.86901153174449
 21
863.18288841610979
 31
0.0
  0
LINE
  5
C9A2
  8
0
  6
CONTINUOUS
 62
     7
 10
623.86897153174459
 20
906.6828884161099
 30
0.0
 11
625.86904153174441
 21
906.6828884161099
 31
0.0
  0
LINE
  5
C9A3
  8
0
  6
CONTINUOUS
 62
     7
 10
623.86897153174459
 20
861.68288841611013
 30
0.0
 11
625.86904153174441
 21
861.68288841611013
 31
0.0
  0
LINE
  5
C9A4
  8
0
  6
CONTINUOUS
 62
     7
 10
625.86904153174441
 20
861.68288841611013
 30
0.0
 11
625.86904153174441
 21
906.6828884161099
 31
0.0
  0
LINE
  5
C9A5
  8
0
  6
CONTINUOUS
 62
     7
 10
695.86901153174449
 20
863.18288841610979
 30
0.0
 11
695.86901153174449
 21
905.18288841610979
 31
0.0
  0
LINE
  5
C9A6
  8
0
  6
CONTINUOUS
 62
     7
 10
639.86904153174441
 20
890.18282841610983
 30
0.0
 11
639.86904153174441
 21
878.18282841610994
 31
0.0
  0
LINE
  5
C9A7
  8
0
  6
CONTINUOUS
 62
     7
 10
639.86904153174441
 20
890.18282841610983
 30
0.0
 11
695.86901153174449
 21
890.18282841610983
 31
0.0
  0
LINE
  5
C9A8
  8
0
  6
CONTINUOUS
 62
     7
 10
503.86904153174447
 20
755.05251841610993
 30
0.0
 11
601.86904153174419
 21
751.63027841610995
 31
0.0
  0
LINE
  5
C9A9
  8
0
  6
CONTINUOUS
 62
     7
 10
503.86897153174448
 20
744.44491841611011
 30
0.0
 11
604.80257153174443
 21
742.20925841610995
 31
0.0
  0
LINE
  5
C9AA
  8
0
  6
CONTINUOUS
 62
     7
 10
503.86904153174447
 20
806.6170984161098
 30
0.0
 11
555.66475153174406
 21
806.6170984161098
 31
0.0
  0
LINE
  5
C9AB
  8
0
  6
CONTINUOUS
 62
     7
 10
639.86904153174441
 20
878.18282841610994
 30
0.0
 11
695.86901153174449
 21
878.18282841610994
 31
0.0
  0
LINE
  5
C9AC
  8
0
  6
CONTINUOUS
 62
     7
 10
591.73763153174446
 20
811.28078841610977
 30
0.0
 11
601.86904153174419
 21
803.7226884161098
 31
0.0
  0
LINE
  5
C9AD
  8
0
  6
CONTINUOUS
 62
     7
 10
599.72164153174469
 20
787.17922841610994
 30
0.0
 11
567.21889153174459
 21
806.6170984161098
 31
0.0
  0
LINE
  5
C9AE
  8
0
  6
CONTINUOUS
 62
     7
 10
599.43532153174442
 20
780.93624841610995
 30
0.0
 11
558.01674153174417
 21
805.70601841611017
 31
0.0
  0
LINE
  5
C9AF
  8
0
  6
CONTINUOUS
 62
     7
 10
604.76430153174465
 20
742.21029841610994
 30
0.0
 11
619.86897153174459
 21
741.68282841610994
 31
0.0
  0
LINE
  5
C9B0
  8
0
  6
CONTINUOUS
 62
     7
 10
601.86904153174419
 20
745.19185841611022
 30
0.0
 11
601.86904153174419
 21
1023.15725841611
 31
0.0
  0
LINE
  5
C9B1
  8
0
  6
CONTINUOUS
 62
     7
 10
619.86897153174459
 20
741.68288841610968
 30
0.0
 11
619.86897153174459
 21
1026.6828284161099
 31
0.0
  0
LINE
  5
C9B2
  8
0
  6
CONTINUOUS
 62
     7
 10
604.76430153174465
 20
1026.15542841611
 30
0.0
 11
619.86897153174459
 21
1026.68288841611
 31
0.0
  0
LINE
  5
C9B3
  8
0
  6
CONTINUOUS
 62
     7
 10
609.86897153174425
 20
773.22555841611018
 30
0.0
 11
609.86897153174425
 21
995.14016841610976
 31
0.0
  0
LINE
  5
C9B4
  8
0
  6
CONTINUOUS
 62
     7
 10
623.86897153174459
 20
764.1828884161099
 30
0.0
 11
623.86897153174459
 21
1004.1828284161101
 31
0.0
  0
LINE
  5
C9B5
  8
0
  6
CONTINUOUS
 62
     7
 10
619.86897153174459
 20
1004.1828284161101
 30
0.0
 11
623.86897153174459
 21
1004.1828284161101
 31
0.0
  0
LINE
  5
C9B6
  8
0
  6
CONTINUOUS
 62
     7
 10
619.86897153174459
 20
764.1828884161099
 30
0.0
 11
623.86897153174459
 21
764.1828884161099
 31
0.0
  0
LINE
  5
C9B7
  8
0
  6
CONTINUOUS
 62
     7
 10
599.43526153174457
 20
987.42946841610978
 30
0.0
 11
558.01674153174417
 21
962.65963841611017
 31
0.0
  0
LINE
  5
C9B8
  8
0
  6
CONTINUOUS
 62
     7
 10
599.72164153174469
 20
981.18648841610991
 30
0.0
 11
567.2188315317444
 21
961.74868841610987
 31
0.0
  0
LINE
  5
C9B9
  8
0
  6
CONTINUOUS
 62
     7
 10
591.73763153174446
 20
957.08498841611015
 30
0.0
 11
601.86897153174425
 21
964.6430384161099
 31
0.0
  0
LINE
  5
C9BA
  8
0
  6
CONTINUOUS
 62
     7
 10
503.86904153174447
 20
832.6183184161099
 30
0.0
 11
601.86904153174419
 21
832.6183184161099
 31
0.0
  0
ARC
  5
C9BB
  8
0
  6
CONTINUOUS
 62
     7
 10
504.36910153174449
 20
884.1828884161099
 30
0.0
 40
3.9999962
 50
270.0
 51
90.00000299999769
  0
ARC
  5
C9BC
  8
0
  6
CONTINUOUS
 62
     7
 10
639.86904153174441
 20
884.18282841610994
 30
0.0
 40
6.0000037999999991
 50
90.00000299999769
 51
270.0
  0
ARC
  5
C9BD
  8
0
  6
CONTINUOUS
 62
     7
 10
559.55654153174441
 20
960.08492841610996
 30
0.0
 40
3.0
 50
120.8809700000043
 51
270.0
  0
ARC
  5
C9BE
  8
0
  6
CONTINUOUS
 62
     7
 10
555.66475153174406
 20
964.74862841611025
 30
0.0
 40
3.0
 50
270.0
 51
300.88098000000019
  0
ARC
  5
C9BF
  8
0
  6
CONTINUOUS
 62
     7
 10
559.55654153174441
 20
808.28078841610966
 30
0.0
 40
3.0
 50
90.00000299999769
 51
239.11901999999989
  0
ARC
  5
C9C0
  8
0
  6
CONTINUOUS
 62
     7
 10
555.66475153174406
 20
803.61709841610991
 30
0.0
 40
3.0
 50
59.11902300000196
 51
90.00000299999769
  0
ARC
  5
C9C1
  8
0
  6
CONTINUOUS
 62
     7
 10
604.86897153174425
 20
745.20846841611012
 30
0.0
 40
3.0
 50
179.999989999999
 51
268.00000999999861
  0
ARC
  5
C9C2
  8
0
  6
CONTINUOUS
 62
     7
 10
606.86904153174441
 20
818.04842841610991
 30
0.0
 40
5.0
 50
90.00000299999769
 51
180.000010000001
  0
ARC
  5
C9C3
  8
0
  6
CONTINUOUS
 62
     7
 10
596.86904153174441
 20
776.64504841611028
 30
0.0
 40
5.0
 50
0.0
 51
59.11901699999779
  0
ARC
  5
C9C4
  8
0
  6
CONTINUOUS
 62
     7
 10
604.86897153174425
 20
1023.15725841611
 30
0.0
 40
3.0
 50
91.999998000000545
 51
180.000010000001
  0
ARC
  5
C9C5
  8
0
  6
CONTINUOUS
 62
     7
 10
606.86904153174441
 20
950.31728841610993
 30
0.0
 40
5.0
 50
179.999989999999
 51
270.0
  0
ARC
  5
C9C6
  8
0
  6
CONTINUOUS
 62
     7
 10
604.86897153174425
 20
995.14016841610976
 30
0.0
 40
5.0
 50
0.0
 51
91.999998000000545
  0
ARC
  5
C9C7
  8
0
  6
CONTINUOUS
 62
     7
 10
596.86904153174441
 20
991.72066841610967
 30
0.0
 40
5.0
 50
300.88098000000019
 51
0.0
  0
ARC
  5
C9C8
  8
0
  6
CONTINUOUS
 62
     7
 10
604.86897153174425
 20
773.22555841611018
 30
0.0
 40
5.0
 50
267.99999999999619
 51
0.0
  0
POLYLINE
  5
C9C9
  8
0
  6
CONTINUOUS
 62
     7
 66
     1
 10
0.0
 20
0.0
 30
0.0
  0
VERTEX
  5
C9CA
  8
0
  6
CONTINUOUS
 62
     7
 10
580.73324153174451
 20
935.74737841610988
 30
0.0
 42
0.030646501
  0
VERTEX
  5
C9CB
  8
0
  6
CONTINUOUS
 62
     7
 10
576.32369153174454
 20
901.46397841611042
 30
0.0
 42
0.064801596
  0
VERTEX
  5
C9CC
  8
0
  6
CONTINUOUS
 62
     7
 10
580.73324153174451
 20
832.6183584161098
 30
0.0
  0
SEQEND
  5
C9CD
  8
0
 62
     7
  0
POLYLINE
  5
C9CE
  8
0
  6
CONTINUOUS
 62
     7
 66
     1
 10
0.0
 20
0.0
 30
0.0
  0
VERTEX
  5
C9CF
  8
0
  6
CONTINUOUS
 62
     7
 10
594.21014153174451
 20
784.06090841611024
 30
0.0
 42
0.0052467293
  0
VERTEX
  5
C9D0
  8
0
  6
CONTINUOUS
 62
     7
 10
596.63036153174437
 20
777.65107841610995
 30
0.0
 42
0.0052066122
  0
VERTEX
  5
C9D1
  8
0
  6
CONTINUOUS
 62
     7
 10
599.18403153174427
 20
771.29324841610992
 30
0.0
 42
0.0051740405
  0
VERTEX
  5
C9D2
  8
0
  6
CONTINUOUS
 62
     7
 10
601.86904153174419
 20
764.99001841611016
 30
0.0
  0
SEQEND
  5
C9D3
  8
0
 62
     7
  0
POLYLINE
  5
C9D4
  8
0
  6
CONTINUOUS
 62
     7
 66
     1
 10
0.0
 20
0.0
 30
0.0
  0
VERTEX
  5
C9D5
  8
0
  6
CONTINUOUS
 62
     7
 10
601.86904153174419
 20
1003.37569841611
 30
0.0
  0
VERTEX
  5
C9D6
  8
0
  6
CONTINUOUS
 62
     7
 10
594.21021153174445
 20
984.30500841610967
 30
0.0
 42
-1.0
  0
SEQEND
  5
C9D7
  8
0
 62
     7
  0
LINE
  5
C9E7
  8
0
  6
CONTINUOUS
 62
     7
 10
492.79927153174441
 20
1012.92666841611
 30
0.0
 11
503.86904153174447
 21
1013.31325841611
 31
0.0
  0
LINE
  5
C9E8
  8
0
  6
CONTINUOUS
 62
     7
 10
490.86897153174459
 20
747.97310841610965
 30
0.0
 11
490.86897153174459
 21
874.64345841610998
 31
0.0
  0
LINE
  5
C9E9
  8
0
  6
CONTINUOUS
 62
     7
 10
492.79927153174441
 20
755.43911841610986
 30
0.0
 11
503.8691015317446
 21
755.05251841610993
 31
0.0
  0
LINE
  5
C9EA
  8
0
  6
CONTINUOUS
 62
     7
 10
490.86897153174459
 20
893.72231841611006
 30
0.0
 11
490.86897153174459
 21
1020.39266841611
 31
0.0
  0
LINE
  5
C9EB
  8
0
  6
CONTINUOUS
 62
     7
 10
503.86904153174447
 20
744.44491841610989
 30
0.0
 11
493.7119915317445
 21
744.97719841610967
 31
0.0
  0
LINE
  5
C9EC
  8
0
  6
CONTINUOUS
 62
     7
 10
503.86904153174447
 20
1023.92086841611
 30
0.0
 11
493.7119915317445
 21
1023.38857841611
 31
0.0
  0
ARC
  5
C9ED
  8
0
  6
CONTINUOUS
 62
     7
 10
492.86904153174441
 20
1010.92788841611
 30
0.0
 40
2.0
 50
91.999998000000545
 51
180.000010000001
  0
ARC
  5
C9EE
  8
0
  6
CONTINUOUS
 62
     7
 10
493.86897153174408
 20
1020.39266841611
 30
0.0
 40
3.0
 50
92.999999000001679
 51
180.000010000001
  0
ARC
  5
C9EF
  8
0
  6
CONTINUOUS
 62
     7
 10
492.86904153174441
 20
757.43795841610995
 30
0.0
 40
2.0
 50
179.999989999999
 51
268.00000999999861
  0
ARC
  5
C9F0
  8
0
  6
CONTINUOUS
 62
     7
 10
493.86897153174408
 20
747.97310841610965
 30
0.0
 40
3.0
 50
180.000010000001
 51
266.99999000000031
  0
LINE
  5
CC06
  8
AM_0
 10
864.26083486188907
 20
539.6406411428967
 30
0.0
 11
864.26083486188907
 21
519.64064114289658
 31
0.0
  0
LINE
  5
CC07
  8
AM_0
 10
786.26368986188925
 20
417.9688261428966
 30
0.0
 11
783.76083986188917
 21
489.64070114289672
 31
0.0
  0
LINE
  5
CC08
  8
AM_0
 10
920.26083486188907
 20
555.64067114289651
 30
0.0
 11
932.26083486188918
 21
555.64067114289651
 31
0.0
  0
LINE
  5
CC09
  8
AM_0
 10
932.26083486188918
 20
563.64067114289651
 30
0.0
 11
932.26083486188918
 21
555.64067114289651
 31
0.0
  0
LINE
  5
CC0A
  8
AM_0
 10
920.26083486188907
 20
563.64067114289651
 30
0.0
 11
920.26083486188907
 21
555.64067114289651
 31
0.0
  0
LINE
  5
CC0B
  8
AM_0
 10
920.26083486188907
 20
563.64067114289651
 30
0.0
 11
932.26083486188918
 21
563.64067114289651
 31
0.0
  0
LINE
  5
CC0C
  8
AM_0
 10
851.60156486188907
 20
386.46916114289672
 30
0.0
 11
849.31492331804873
 21
395.00304600549907
 31
0.0
  0
LINE
  5
CC0D
  8
AM_0
 10
988.67260986188899
 20
379.39808614289649
 30
0.0
 11
980.13876401469838
 21
381.68473778585098
 31
0.0
  0
LINE
  5
CC0E
  8
AM_0
 10
863.84902986188968
 20
379.39808614289649
 30
0.0
 11
872.38291859345441
 21
381.6847319988637
 31
0.0
  0
LINE
  5
CC0F
  8
AM_0
 10
1000.920074861889
 20
386.46916114289672
 30
0.0
 11
1003.206701910286
 21
395.00301389917757
 31
0.0
  0
LINE
  5
CC10
  8
AM_0
 10
1031.7833298618889
 20
511.64067114289651
 30
0.0
 11
996.26083486188907
 21
511.64067114289651
 31
0.0
  0
LINE
  5
CC11
  8
AM_0
 10
1058.310716873026
 20
671.69051087386947
 30
0.0
 11
1034.1313529889901
 21
647.51116224499037
 31
0.0
  0
LINE
  5
CC12
  8
AM_0
 10
1066.2579848618891
 20
661.31253614289653
 30
0.0
 11
1068.76081986189
 21
589.64067114289651
 31
0.0
  0
LINE
  5
CC13
  8
AM_0
 10
1047.9326498618891
 20
679.63783614289673
 30
0.0
 11
976.26086486188967
 21
682.14063614289626
 31
0.0
  0
LINE
  5
CC14
  8
AM_0
 10
976.26083486188918
 20
682.14063614289626
 30
0.0
 11
926.26083486188918
 21
682.14063614289626
 31
0.0
  0
LINE
  5
CC15
  8
AM_0
 10
1068.76081986189
 20
589.6406411428967
 30
0.0
 11
1068.76081986189
 21
539.6406411428967
 31
0.0
  0
LINE
  5
CC16
  8
AM_0
 10
876.26083486188918
 20
682.14063614289626
 30
0.0
 11
926.26083486188918
 21
682.14063614289626
 31
0.0
  0
LINE
  5
CC17
  8
AM_0
 10
820.73833986188924
 20
511.64067114289651
 30
0.0
 11
856.26083486188918
 21
511.64067114289651
 31
0.0
  0
LINE
  5
CC18
  8
AM_0
 10
922.76083486188918
 20
647.30563614289656
 30
0.0
 11
922.76083486188918
 21
628.35593614289655
 31
0.0
  0
LINE
  5
CC19
  8
AM_0
 10
929.76083486188918
 20
647.30563614289656
 30
0.0
 11
929.76083486188918
 21
628.35593614289655
 31
0.0
  0
LINE
  5
CC1A
  8
AM_0
 10
998.76477486188901
 20
619.21562614289655
 30
0.0
 11
969.57080486188966
 21
590.02165614289652
 31
0.0
  0
LINE
  5
CC1B
  8
AM_0
 10
786.26368986188925
 20
661.31253614289653
 30
0.0
 11
783.76083986188917
 21
589.6406411428967
 31
0.0
  0
LINE
  5
CC1C
  8
AM_0
 10
976.26083486188918
 20
397.14064114289658
 30
0.0
 11
926.26083486188918
 21
397.14064114289658
 31
0.0
  0
LINE
  5
CC1D
  8
AM_0
 10
804.58901986188994
 20
679.6378861428966
 30
0.0
 11
876.26086486188922
 21
682.14068614289658
 31
0.0
  0
LINE
  5
CC1E
  8
AM_0
 10
1066.2579998618889
 20
417.96885614289658
 30
0.0
 11
1068.76081986189
 21
489.64064114289658
 31
0.0
  0
LINE
  5
CC1F
  8
AM_0
 10
1058.396449274672
 20
407.50503205620322
 30
0.0
 11
1031.8973154097521
 21
434.00418790685762
 31
0.0
  0
LINE
  5
CC20
  8
AM_0
 10
1068.76081986189
 20
489.64064114289658
 30
0.0
 11
1068.76081986189
 21
539.6406411428967
 31
0.0
  0
LINE
  5
CC21
  8
AM_0
 10
794.08683950703175
 20
407.46661173909371
 30
0.0
 11
818.69634156701204
 21
432.07611736459671
 31
0.0
  0
ARC
  5
CC22
  8
AM_0
 10
805.25207486188867
 20
660.64943614289655
 30
0.0
 40
19.000000499999999
 50
91.999997999994051
 51
177.99999999999619
  0
LINE
  5
CC23
  8
AM_0
 10
1047.9326498618891
 20
399.64347614289659
 30
0.0
 11
976.26083486188918
 21
397.14067114289651
 31
0.0
  0
LINE
  5
CC24
  8
AM_0
 10
804.58901986188994
 20
399.64350614289651
 30
0.0
 11
876.26086486188922
 21
397.14067114289651
 31
0.0
  0
LINE
  5
CC25
  8
AM_0
 10
876.26083486188918
 20
397.14064114289658
 30
0.0
 11
926.26083486188918
 21
397.14064114289658
 31
0.0
  0
ARC
  5
CC26
  8
AM_0
 10
926.26083486188918
 20
539.6406411428967
 30
0.0
 40
61.999994999999998
 50
53.583680999986242
 51
126.41631999996569
  0
LINE
  5
CC27
  8
AM_0
 10
846.68584986188921
 20
612.14458114289664
 30
0.0
 11
875.87981986188936
 21
582.95061114289649
 31
0.0
  0
LINE
  5
CC28
  8
AM_0
 10
794.12113986661416
 20
671.78038458346464
 30
0.0
 11
818.46881067253321
 21
647.4327067435413
 31
0.0
  0
LINE
  5
CC29
  8
AM_0
 10
1005.83584986189
 20
612.14458114289664
 30
0.0
 11
976.64187986188972
 21
582.95058114289657
 31
0.0
  0
LINE
  5
CC2A
  8
0
  6
AM_ISO08W050
 10
775.07836603997907
 20
539.6406411428967
 30
0.0
 11
1074.1180276944569
 21
539.6406411428967
 31
0.0
  0
LINE
  5
CC2B
  8
AM_0
 10
853.75692986188892
 20
619.21565614289671
 30
0.0
 11
882.95089986188907
 21
590.02168614289656
 31
0.0
  0
LINE
  5
CC2C
  8
0
  6
AM_ISO08W050
 10
926.26083486188918
 20
689.73310063225631
 30
0.0
 11
926.26083486188918
 21
363.67106614289651
 31
0.0
  0
LINE
  5
CC2D
  8
AM_0
 10
988.26080486188914
 20
539.6406411428967
 30
0.0
 11
988.26080486188914
 21
519.64064114289658
 31
0.0
  0
CIRCLE
  5
CC2E
  8
AM_0
 10
926.26083486188918
 20
539.6406411428967
 30
0.0
 40
5.0
  0
ARC
  5
CC2F
  8
AM_0
 10
926.26083486188918
 20
539.6406411428967
 30
0.0
 40
20.9999985
 50
106.6015500000194
 51
73.398452000018409
  0
CIRCLE
  5
CC30
  8
AM_0
 10
926.26083486188918
 20
539.6406411428967
 30
0.0
 40
3.5000000500000001
  0
CIRCLE
  5
CC31
  8
AM_0
 10
926.26083486188918
 20
539.6406411428967
 30
0.0
 40
41.000000499999992
  0
ARC
  5
CC32
  8
AM_0
 10
991.26083486188918
 20
389.05735614289671
 30
0.0
 40
10.0
 50
255.0000000000056
 51
345.00000000000563
  0
ARC
  5
CC33
  8
AM_0
 10
934.76083486188907
 20
628.35593614289655
 30
0.0
 40
5.0
 50
179.999989999999
 51
266.16236000000742
  0
ARC
  5
CC34
  8
AM_0
 10
861.26083486188907
 20
389.05735614289671
 30
0.0
 40
10.0
 50
195.0000100000029
 51
284.99999999999437
  0
ARC
  5
CC35
  8
AM_0
 10
1031.7833298618889
 20
516.64067114289639
 30
0.0
 40
5.0
 50
270.0
 51
347.70395000000542
  0
ARC
  5
CC36
  8
AM_0
 10
820.73833986188924
 20
516.64067114289639
 30
0.0
 40
5.0
 50
192.2960399999989
 51
270.0
  0
ARC
  5
CC37
  8
AM_0
 10
1047.269564861889
 20
660.64943614289655
 30
0.0
 40
19.000000499999999
 50
2.000000000003725
 51
87.999999999996248
  0
ARC
  5
CC38
  8
AM_0
 10
926.26083486188031
 20
539.64064114288806
 30
0.0
 40
170.00000500001201
 50
38.62024717871936
 51
51.014603999982398
  0
ARC
  5
CC39
  8
AM_0
 10
926.26083486188918
 20
501.64067114289651
 30
0.0
 40
122.0
 50
60.143060000010841
 51
86.162372000016873
  0
CIRCLE
  5
CC3A
  8
AM_0
 10
1046.468979861889
 20
659.84883614289652
 30
0.0
 40
9.5
  0
ARC
  5
CC3B
  8
AM_0
 10
926.26083486188566
 20
539.64064114289386
 30
0.0
 40
170.00000499999561
 50
218.8586532438587
 51
231.01461000001419
  0
ARC
  5
CC3C
  8
AM_0
 10
926.26083486188918
 20
501.64067114289651
 30
0.0
 40
122.0
 50
124.6731800000199
 51
157.42801999999091
  0
ARC
  5
CC3D
  8
AM_0
 10
995.22924986188877
 20
622.75120614289654
 30
0.0
 40
5.0
 50
315.00000000000921
 51
50.312775000018888
  0
ARC
  5
CC3E
  8
AM_0
 10
917.76083486188907
 20
647.30563614289656
 30
0.0
 40
5.0
 50
0.0
 51
94.514060999993376
  0
ARC
  5
CC3F
  8
AM_0
 10
917.76083486188907
 20
628.35593614289655
 30
0.0
 40
5.0
 50
273.837629999976
 51
0.0
  0
ARC
  5
CC40
  8
AM_0
 10
934.76083486188907
 20
647.30563614289656
 30
0.0
 40
5.0
 50
85.485944000013959
 51
180.000010000001
  0
ARC
  5
CC41
  8
AM_0
 10
926.26083486188918
 20
501.64067114289651
 30
0.0
 40
122.0
 50
22.571982000014099
 51
55.32681999998011
  0
ARC
  5
CC42
  8
AM_0
 10
966.03524986188916
 20
593.5572361428965
 30
0.0
 40
5.0
 50
233.58368000003429
 51
315.00000000000921
  0
ARC
  5
CC43
  8
AM_0
 10
1009.3713398618891
 20
608.60905614289663
 30
0.0
 40
5.0
 50
39.687224000006218
 51
135.00000000000921
  0
ARC
  5
CC44
  8
AM_0
 10
926.26083486188918
 20
539.6406411428967
 30
0.0
 40
61.999994999999998
 50
143.5811245176946
 51
180.000010000001
  0
CIRCLE
  5
CC45
  8
AM_0
 10
1046.468979861889
 20
419.43251114289632
 30
0.0
 40
9.5
  0
ARC
  5
CC46
  8
AM_0
 10
1047.269564861889
 20
418.63194114289632
 30
0.0
 40
19.000000499999999
 50
272.00000000000369
 51
357.99999999999642
  0
ARC
  5
CC47
  8
AM_0
 10
805.25207486188867
 20
418.63194114289632
 30
0.0
 40
19.000000499999999
 50
182.00000000000369
 51
267.99999999999619
  0
ARC
  5
CC48
  8
AM_0
 10
996.26083486188907
 20
519.64064114289658
 30
0.0
 40
8.0
 50
179.999989999999
 51
270.0
  0
CIRCLE
  5
CC49
  8
AM_0
 10
806.05267486188916
 20
419.43251114289632
 30
0.0
 40
9.5
  0
CIRCLE
  5
CC4A
  8
AM_0
 10
806.05267486188916
 20
659.84883614289652
 30
0.0
 40
9.5
  0
ARC
  5
CC4B
  8
AM_0
 10
926.26083486188918
 20
539.6406411428967
 30
0.0
 40
170.00000499999999
 50
124.0063599999894
 51
141.01461
  0
ARC
  5
CC4C
  8
AM_0
 10
926.26083486188918
 20
539.6406411428967
 30
0.0
 40
61.999994999999998
 50
0.0
 51
36.416318000014883
  0
ARC
  5
CC4D
  8
AM_0
 10
886.48641986188954
 20
593.5572361428965
 30
0.0
 40
5.0
 50
224.99999999999079
 51
306.41631999996571
  0
ARC
  5
CC4E
  8
AM_0
 10
872.34429986188923
 20
579.4150861428966
 30
0.0
 40
5.0
 50
323.58368000000172
 51
45.000001000013
  0
ARC
  5
CC4F
  8
AM_0
 10
843.15029986188961
 20
608.60905614289663
 30
0.0
 40
5.0
 50
45.000001000013
 51
140.31278000000339
  0
ARC
  5
CC50
  8
AM_0
 10
857.29244986188917
 20
622.75120614289654
 30
0.0
 40
5.0
 50
129.6872199999782
 51
224.99999999999079
  0
ARC
  5
CC51
  8
AM_0
 10
980.17739986188872
 20
579.4150861428966
 30
0.0
 40
5.0
 50
135.00000000000921
 51
216.41631999999831
  0
ARC
  5
CC52
  8
AM_0
 10
926.26083486188918
 20
539.6406411428967
 30
0.0
 40
170.00000499999999
 50
304.00636999997812
 51
321.01461
  0
ARC
  5
CC53
  8
AM_0
 10
856.26083486188918
 20
519.64064114289658
 30
0.0
 40
8.0
 50
270.0
 51
0.0
  0
CIRCLE
  5
CC54
  8
AM_0
 10
926.26083486188918
 20
539.6406411428967
 30
0.0
 40
113.0
  0
CIRCLE
  5
CC55
  8
AM_0
 10
926.26083486188918
 20
539.6406411428967
 30
0.0
 40
120.0
  0
ARC
  5
CC56
  8
AM_0
 10
926.26083486188918
 20
501.64064114289749
 30
0.0
 40
122.0
 50
93.837625999990266
 51
119.85693999998909
  0
LINE
  5
CC57
  8
AM_0
 10
783.76083986188917
 20
589.6406411428967
 30
0.0
 11
783.76083986188917
 21
489.64070114289672
 31
0.0
  0
ARC
  5
CC58
  8
AM_0
 10
926.26083486188918
 20
501.6406411428963
 30
0.0
 40
131.49999999999969
 50
231.84872209509291
 51
234.1871181856402
  0
ARC
  5
CC59
  8
AM_0
 10
926.26083486188918
 20
501.6406411428963
 30
0.0
 40
131.49999999999969
 50
245.81287911435271
 51
294.187127039735
  0
ARC
  5
CC5A
  8
AM_0
 10
926.26083486188918
 20
501.6406411428963
 30
0.0
 40
131.49999999999969
 50
305.81285790721148
 51
308.1512678186844
  0
LINE
  5
CC5B
  8
AM_0
 10
777.83419386188916
 20
473.89603214289627
 30
0.0
 11
775.95480786188921
 21
474.58007314289659
 31
0.0
  0
ARC
  5
CC5C
  8
AM_0
 10
765.26083486188907
 20
445.19863314289643
 30
0.0
 40
2.0
 50
339.99999899999892
 51
0.0
  0
ARC
  5
CC5D
  8
AM_0
 10
776.26083486188918
 20
546.26561314289654
 30
0.0
 40
9.0
 50
90.0
 51
180.0
  0
LINE
  5
CC5E
  8
AM_0
 10
767.26083486188918
 20
546.26561314289654
 30
0.0
 11
767.26083486188918
 21
445.19863314289643
 31
0.0
  0
ARC
  5
CC5F
  8
AM_0
 10
770.3194088618892
 20
438.63032714289659
 30
0.0
 40
5.0
 50
159.99999500000081
 51
250.0000049999978
  0
ARC
  5
CC60
  8
AM_0
 10
775.07828886188918
 20
437.14064314289641
 30
0.0
 40
2.0
 50
90.00000299999769
 51
99.385984999989944
  0
LINE
  5
CC61
  8
AM_0
 10
772.3680838618892
 20
432.56378214289663
 30
0.0
 11
768.60930786188919
 21
433.93186414289659
 31
0.0
  0
LINE
  5
CC62
  8
AM_0
 10
775.07828886188918
 20
439.1406401428963
 30
0.0
 11
785.52434999293905
 21
439.1406401428963
 31
0.0
  0
LINE
  5
CC63
  8
AM_0
 10
783.76083986188917
 20
555.26561314289654
 30
0.0
 11
776.26083486188918
 21
555.26561314289654
 31
0.0
  0
LINE
  5
CC64
  8
AM_0
 10
783.76083986188917
 20
496.02696911126827
 30
0.0
 11
775.95480786188921
 21
474.58007314289659
 31
0.0
  0
LINE
  5
CC65
  8
AM_0
 10
782.16030986188935
 20
485.78194914289662
 30
0.0
 11
783.91793084613187
 21
485.14222724863481
 31
0.0
  0
LINE
  5
CC66
  8
AM_0
 10
772.3680838618892
 20
432.56378214289663
 30
0.0
 11
784.58214762776356
 21
466.12164585301241
 31
0.0
  0
LINE
  5
CC67
  8
AM_0
 10
782.16030986188935
 20
485.78194914289662
 30
0.0
 11
765.62094786188914
 21
440.3404261428966
 31
0.0
  0
TEXT
  5
CFA7
  8
0
  6
CONTINUOUS
 62
     0
 10
808.59503052241087
 20
879.59876522370678
 30
0.0
 40
15.0
  1
VX22-025EBF~VX22-030EBF
  0
ENDSEC
  0
EOF
