  0
SECTION
  2
HEADER
  9
$ACADVER
  1
AC1009
  9
$INSBASE
 10
0.0
 20
0.0
 30
0.0
  9
$EXTMIN
 10
110.546764599786
 20
364.70711592828872
 30
-0.000000000000013
  9
$EXTMAX
 10
1150.029262322839
 20
1021.547775912011
 30
0.0000000000000023
  9
$LIMMIN
 10
0.0000005999945643
 20
-0.0000005963913736
  9
$LIMMAX
 10
1422.5000005999941
 20
924.99999940360874
  9
$ORTHOMODE
 70
     1
  9
$REGENMODE
 70
     1
  9
$FILLMODE
 70
     1
  9
$QTEXTMODE
 70
     0
  9
$MIRRTEXT
 70
     0
  9
$DRAGMODE
 70
     2
  9
$LTSCALE
 40
1.0
  9
$OSMODE
 70
   551
  9
$ATTMODE
 70
     1
  9
$TEXTSIZE
 40
2.5
  9
$TRACEWID
 40
1.0
  9
$TEXTSTYLE
  7
STANDARD
  9
$CLAYER
  8
0
  9
$CELTYPE
  6
BYLAYER
  9
$CECOLOR
 62
   256
  9
$DIMSCALE
 40
1.0
  9
$DIMASZ
 40
2.0
  9
$DIMEXO
 40
1.0
  9
$DIMDLI
 40
8.0
  9
$DIMRND
 40
0.0
  9
$DIMDLE
 40
0.0
  9
$DIMEXE
 40
1.0
  9
$DIMTP
 40
-0.025
  9
$DIMTM
 40
0.043
  9
$DIMTXT
 40
2.5
  9
$DIMCEN
 40
0.0
  9
$DIMTSZ
 40
0.0
  9
$DIMTOL
 70
     0
  9
$DIMLIM
 70
     0
  9
$DIMTIH
 70
     0
  9
$DIMTOH
 70
     0
  9
$DIMSE1
 70
     0
  9
$DIMSE2
 70
     0
  9
$DIMTAD
 70
     3
  9
$DIMZIN
 70
     8
  9
$DIMBLK
  1

  9
$DIMASO
 70
     1
  9
$DIMSHO
 70
     1
  9
$DIMPOST
  1

  9
$DIMAPOST
  1
"
  9
$DIMALT
 70
     0
  9
$DIMALTD
 70
     2
  9
$DIMALTF
 40
0.0393701
  9
$DIMLFAC
 40
1.0
  9
$DIMTOFL
 70
     1
  9
$DIMTVP
 40
0.0
  9
$DIMTIX
 70
     0
  9
$DIMSOXD
 70
     0
  9
$DIMSAH
 70
     0
  9
$DIMBLK1
  1

  9
$DIMBLK2
  1

  9
$DIMSTYLE
  2
AM_JIS
  9
$DIMCLRD
 70
     2
  9
$DIMCLRE
 70
     2
  9
$DIMCLRT
 70
     4
  9
$DIMTFAC
 40
0.71
  9
$DIMGAP
 40
1.5
  9
$LUNITS
 70
     2
  9
$LUPREC
 70
     2
  9
$SKETCHINC
 40
1.0
  9
$FILLETRAD
 40
0.0
  9
$AUNITS
 70
     0
  9
$AUPREC
 70
     0
  9
$MENU
  1
.
  9
$ELEVATION
 40
0.0
  9
$PELEVATION
 40
0.0
  9
$THICKNESS
 40
0.0
  9
$LIMCHECK
 70
     0
  9
$BLIPMODE
 70
     0
  9
$CHAMFERA
 40
2.5
  9
$CHAMFERB
 40
2.5
  9
$SKPOLY
 70
     0
  9
$TDCREATE
 40
2456829.3841110538
  9
$TDUPDATE
 40
2458541.3903371422
  9
$TDINDWG
 40
0.728776956
  9
$TDUSRTIMER
 40
0.7287761921
  9
$USRTIMER
 70
     1
  9
$ANGBASE
 50
0.0
  9
$ANGDIR
 70
     0
  9
$PDMODE
 70
     0
  9
$PDSIZE
 40
0.0
  9
$PLINEWID
 40
0.0
  9
$COORDS
 70
     1
  9
$SPLFRAME
 70
     0
  9
$SPLINETYPE
 70
     6
  9
$SPLINESEGS
 70
     8
  9
$ATTDIA
 70
     1
  9
$ATTREQ
 70
     1
  9
$HANDLING
 70
     1
  9
$HANDSEED
  5
E5B6
  9
$SURFTAB1
 70
     6
  9
$SURFTAB2
 70
     6
  9
$SURFTYPE
 70
     6
  9
$SURFU
 70
     6
  9
$SURFV
 70
     6
  9
$UCSNAME
  2

  9
$UCSORG
 10
0.0
 20
0.0
 30
0.0
  9
$UCSXDIR
 10
1.0
 20
0.0
 30
0.0
  9
$UCSYDIR
 10
0.0
 20
1.0
 30
0.0
  9
$PUCSNAME
  2

  9
$PUCSORG
 10
0.0
 20
0.0
 30
0.0
  9
$PUCSXDIR
 10
1.0
 20
0.0
 30
0.0
  9
$PUCSYDIR
 10
0.0
 20
1.0
 30
0.0
  9
$USERI1
 70
     0
  9
$USERI2
 70
     0
  9
$USERI3
 70
     0
  9
$USERI4
 70
     0
  9
$USERI5
 70
     0
  9
$USERR1
 40
0.0
  9
$USERR2
 40
0.0
  9
$USERR3
 40
0.0
  9
$USERR4
 40
0.0
  9
$USERR5
 40
0.0
  9
$WORLDVIEW
 70
     1
  9
$SHADEDGE
 70
     3
  9
$SHADEDIF
 70
    70
  9
$TILEMODE
 70
     1
  9
$MAXACTVP
 70
    64
  9
$PLIMCHECK
 70
     0
  9
$PEXTMIN
 10
1.0000000000000000E+020
 20
1.0000000000000000E+020
 30
1.0000000000000000E+020
  9
$PEXTMAX
 10
-1.0000000000000000E+020
 20
-1.0000000000000000E+020
 30
-1.0000000000000000E+020
  9
$PLIMMIN
 10
0.0
 20
0.0
  9
$PLIMMAX
 10
420.0
 20
297.0
  9
$UNITMODE
 70
     0
  9
$VISRETAIN
 70
     1
  9
$PLINEGEN
 70
     0
  9
$PSLTSCALE
 70
     1
  0
ENDSEC
  0
SECTION
  2
TABLES
  0
TABLE
  2
VPORT
 70
     1
  0
VPORT
  2
*ACTIVE
 70
     0
 10
0.0
 20
0.0
 11
1.0
 21
1.0
 12
630.28801346131263
 22
693.12744592015008
 13
0.0
 23
0.0
 14
12.5
 24
12.5
 15
50.0
 25
50.0
 16
0.0
 26
0.0
 36
1.0
 17
0.0
 27
0.0
 37
0.0
 40
661.34986359917195
 41
1.7571592210767459
 42
50.0
 43
0.0
 44
0.0
 50
0.0
 51
0.0
 71
     0
 72
  1000
 73
     1
 74
     3
 75
     0
 76
     0
 77
     0
 78
     0
  0
ENDTAB
  0
TABLE
  2
LTYPE
 70
    24
  0
LTYPE
  2
CONTINUOUS
 70
     0
  3
Solid line
 72
    65
 73
     0
 40
0.0
  0
LTYPE
  2
CENTER
 70
     0
  3
Center ____ _ ____ _ ____ _ ____ _ ____ _ ____
 72
    65
 73
     4
 40
50.799999999999997
 49
31.75
 49
-6.3499999999999979
 49
6.3499999999999979
 49
-6.3499999999999979
  0
LTYPE
  2
AM_ISO02W050
 70
     0
  3
__ __ __ __ __ __ __ __ __ __ __ __ __ __ __
 72
    65
 73
     2
 40
7.5
 49
6.0
 49
-1.5
  0
LTYPE
  2
AM_ISO08W050
 70
     0
  3
____ . ____ . ____ . ____ . ____ . ____ . ____
 72
    65
 73
     4
 40
18.0
 49
12.0
 49
-1.5
 49
3.0
 49
-1.5
  0
LTYPE
  2
AM_ISO09W050
 70
     0
  3
_____ . . _____ . . _____ . . ____ .. ____
 72
    65
 73
     6
 40
22.5
 49
12.0
 49
-1.5
 49
3.0
 49
-1.5
 49
3.0
 49
-1.5
  0
LTYPE
  2
AMCONSTR
 70
     0
  3
_______________________
 72
    65
 73
     2
 40
9999.0
 49
9999.0
 49
0.0
  0
LTYPE
  2
AM_ISO08W050X2
 70
     0
  3
__ . __ . __ . __ . __ . __
 72
    65
 73
     4
 40
9.0
 49
6.0
 49
-0.75
 49
1.5
 49
-0.75
  0
LTYPE
  2
AM_ISO02W050X2
 70
     0
  3
 _ _ _ _ _ _ _ _ _ _ _ _
 72
    65
 73
     2
 40
3.75
 49
3.0
 49
-0.75
  0
LTYPE
  2
AMZIGZAG
 70
     0
  3
/\/-/\/-/\/-/\/-/\/-/\/
 72
    65
 73
     2
 40
11.0001
 49
0.0001
 49
-11.0
  0
LTYPE
  2
ACANSTGBM
 70
     0
  3
__ . . __ . .
 72
    65
 73
     6
 40
9.0
 49
4.0
 49
-1.0
 49
1.0
 49
-1.0
 49
1.0
 49
-1.0
  0
LTYPE
  2
ACANSTGLM
 70
     0
  3
_ _ _ _ _
 72
    65
 73
     2
 40
3.0
 49
2.0
 49
-1.0
  0
LTYPE
  2
ACISOWELD
 70
     0
  3
_ _ _ _ _
 72
    65
 73
     2
 40
2.0
 49
2.0
 49
-1.0
  0
LTYPE
  2
ACISOTGB
 70
     0
  3
__ . . __ . .
 72
    65
 73
     6
 40
9.0
 49
4.0
 49
-1.0
 49
1.0
 49
-1.0
 49
1.0
 49
-1.0
  0
LTYPE
  2
ACISOTGL
 70
     0
  3
_ _ _ _ _
 72
    65
 73
     2
 40
3.0
 49
2.0
 49
-1.0
  0
LTYPE
  2
ACJISTGB
 70
     0
  3
__ . . __ . .
 72
    65
 73
     6
 40
9.0
 49
4.0
 49
-1.0
 49
1.0
 49
-1.0
 49
1.0
 49
-1.0
  0
LTYPE
  2
ACJISTGL
 70
     0
  3
_ _ _ _ _
 72
    65
 73
     2
 40
3.0
 49
2.0
 49
-1.0
  0
LTYPE
  2
HIDDEN
 70
     0
  3
Hidden __ __ __ __ __ __ __ __ __ __ __ __ __ _
 72
    65
 73
     2
 40
9.5249999999999968
 49
6.349999999999997
 49
-3.174999999999998
  0
LTYPE
  2
PHANTOM2
 70
     0
  3
Phantom (.5x) ___ _ _ ___ _ _ ___ _ _ ___ _ _
 72
    65
 73
     6
 40
31.75
 49
15.875
 49
-3.174999999999998
 49
3.174999999999998
 49
-3.174999999999998
 49
3.174999999999998
 49
-3.174999999999998
  0
LTYPE
  2
CENTER2
 70
     0
  3
Center (.5x) ___ _ ___ _ ___ _ ___ _ ___ _ ___
 72
    65
 73
     4
 40
1.125
 49
0.75
 49
-0.125
 49
0.125
 49
-0.125
  0
LTYPE
  2
HIDDEN2
 70
     0
  3
Hidden (.5x) _ _ _ _ _ _ _ _ _ _ _ _ _ _ _ _ _
 72
    65
 73
     2
 40
0.1875
 49
0.125
 49
-0.0625
  0
LTYPE
  2
AMZIGZAG2
 70
     0
  3
/\/-/\/-/\/-/\/-/\/-/\/
 72
    65
 73
     2
 40
0.4401
 49
0.0001
 49
-0.4400000000000002
  0
LTYPE
  2
ACANSTGB
 70
     0
  3
__ . . __ . .
 72
    65
 73
     6
 40
0.35433070866
 49
0.15748031496
 49
-0.03937007874
 49
0.03937007874
 49
-0.03937007874
 49
0.03937007874
 49
-0.03937007874
  0
LTYPE
  2
ACANSTGL
 70
     0
  3
_ _ _ _ _
 72
    65
 73
     2
 40
0.11811023622
 49
0.07874015748
 49
-0.03937007874
  0
ENDTAB
  0
TABLE
  2
LAYER
 70
     5
  0
LAYER
  2
0
 70
     0
 62
     7
  6
CONTINUOUS
  0
LAYER
  2
DEFPOINTS
 70
     0
 62
     7
  6
CONTINUOUS
  0
LAYER
  2
AM_0
 70
     0
 62
     7
  6
CONTINUOUS
  0
LAYER
  2
AM_5
 70
     0
 62
     2
  6
CONTINUOUS
  0
LAYER
  2
AM_CL
 70
     0
 62
     1
  6
AMCONSTR
  0
ENDTAB
  0
TABLE
  2
STYLE
 70
     8
  0
STYLE
  2
STANDARD
 70
     0
 40
0.0
 41
0.7400000000000003
 50
0.0
 71
     0
 42
2.5
  3
txt.shx
  4
bigfont.shx
  0
STYLE
  2

 70
     1
 40
0.0
 41
1.0
 50
0.0
 71
     0
 42
2.5
  3
ltypeshp.shx
  4

  0
STYLE
  2
ACANSTS
 70
     0
 40
1.0
 41
1.0
 50
0.0
 71
     0
 42
2.5
  3
romans.shx
  4
bigfont.shx
  0
STYLE
  2
ACANSGDT
 70
     0
 40
0.0
 41
1.0
 50
0.0
 71
     0
 42
2.5
  3
amgdtans.shx
  4

  0
STYLE
  2
ACISOTS
 70
     0
 40
1.0
 41
1.0
 50
0.0
 71
     0
 42
2.5
  3
isocp.shx
  4
extfont.shx
  0
STYLE
  2
ACISOGDT
 70
     0
 40
0.0
 41
1.0
 50
0.0
 71
     0
 42
2.5
  3
amgdt.shx
  4

  0
STYLE
  2
ACJISGDT
 70
     0
 40
0.0
 41
1.0
 50
0.0
 71
     0
 42
2.5
  3
amgdt.shx
  4

  0
STYLE
  2
ACJISTS
 70
     0
 40
1.0
 41
1.0
 50
0.0
 71
     0
 42
2.5
  3
isocp.shx
  4
extfont.shx
  0
ENDTAB
  0
TABLE
  2
VIEW
 70
     6
  0
VIEW
  2
AM_VIEW1
 70
     0
 40
462.5
 10
488.83452017294832
 20
693.74999940360874
 41
977.66903914590773
 11
0.0
 21
0.0
 31
1.0
 12
0.0
 22
0.0
 32
0.0
 42
50.0
 43
0.0
 44
0.0
 50
0.0
 71
     0
  0
VIEW
  2
AM_VIEW2
 70
     0
 40
462.5
 10
933.66548102704076
 20
693.74999940360874
 41
977.66903914590773
 11
0.0
 21
0.0
 31
1.0
 12
0.0
 22
0.0
 32
0.0
 42
50.0
 43
0.0
 44
0.0
 50
0.0
 71
     0
  0
VIEW
  2
AM_VIEW3
 70
     0
 40
462.5
 10
488.83452017294832
 20
231.24999940360871
 41
977.66903914590773
 11
0.0
 21
0.0
 31
1.0
 12
0.0
 22
0.0
 32
0.0
 42
50.0
 43
0.0
 44
0.0
 50
0.0
 71
     0
  0
VIEW
  2
AM_VIEW4
 70
     0
 40
462.5
 10
933.66548102704076
 20
231.24999940360871
 41
977.66903914590773
 11
0.0
 21
0.0
 31
1.0
 12
0.0
 22
0.0
 32
0.0
 42
50.0
 43
0.0
 44
0.0
 50
0.0
 71
     0
  0
VIEW
  2
AM_VIEW5
 70
     0
 40
462.5
 10
711.25000059999468
 20
462.49999940360868
 41
977.66903914590773
 11
0.0
 21
0.0
 31
1.0
 12
0.0
 22
0.0
 32
0.0
 42
50.0
 43
0.0
 44
0.0
 50
0.0
 71
     0
  0
VIEW
  2
AM_VIEW6
 70
     0
 40
924.99075000000016
 10
711.25000059999468
 20
462.49999940360868
 41
1955.318524911032
 11
0.0
 21
0.0
 31
1.0
 12
0.0
 22
0.0
 32
0.0
 42
50.0
 43
0.0
 44
0.0
 50
0.0
 71
     0
  0
ENDTAB
  0
TABLE
  2
UCS
 70
     0
  0
ENDTAB
  0
TABLE
  2
APPID
 70
   158
  0
APPID
  2
ACAD
 70
     0
  0
APPID
  2
ACADANNOTATIVE
 70
     0
  0
APPID
  2
ACAD_MLEADERVER
 70
     0
  0
APPID
  2
MCAD_NO_VIS
 70
     0
  0
APPID
  2
ACAD_TEMP_GRAPHIC
 70
     0
  0
APPID
  2
AD_DRAW
 70
     0
  0
APPID
  2
ACATTRIBSERVICES
 70
     0
  0
APPID
  2
DESIGNERASSEMBLIES
 70
     0
  0
APPID
  2
ACADM_DIM_EDIT
 70
     0
  0
APPID
  2
AMDT_DM_ADJ
 70
     0
  0
APPID
  2
GENIUS_GENDIMSH_14
 70
     0
  0
APPID
  2
GEVID1057795304
 70
     0
  0
APPID
  2
GEVDC
 70
     0
  0
APPID
  2
GEVCON
 70
     0
  0
APPID
  2
GENIUS_GENBH_13
 70
     0
  0
APPID
  2
GENIUS_GENOENT_13
 70
     0
  0
APPID
  2
GENIUS_GENOBJ-NBEHI-BHF_13
 70
     0
  0
APPID
  2
GENIUS_GENOLIS_13
 70
     0
  0
APPID
  2
GENIUS_GENODEF_13
 70
     0
  0
APPID
  2
GENIUS_GENOREF_13
 70
     0
  0
APPID
  2
GENIUS_GENOBJ-NBEHI-BHB_13
 70
     0
  0
APPID
  2
GENIUS_GENOBJ-F-SCPASSM_13
 70
     0
  0
APPID
  2
GENIUS_GENDTOL_13
 70
     0
  0
APPID
  2
GENIUS_GENTRA_14
 70
     0
  0
APPID
  2
ASURF_PCURVE_APPNAME
 70
     0
  0
APPID
  2
GENIUS_GENCFG_13
 70
     0
  0
APPID
  2
GENIUS_GE3CFG0_13
 70
     0
  0
APPID
  2
GENIUS_GENCFG0_13
 70
     0
  0
APPID
  2
GENIUS_GENCFG1_13
 70
     0
  0
APPID
  2
GENIUS_GENCFG2_13
 70
     0
  0
APPID
  2
GENIUS_GENCFG3_13
 70
     0
  0
APPID
  2
GENIUS_GENCFG4_13
 70
     0
  0
APPID
  2
GENIUS_GEVCFG0_13
 70
     0
  0
APPID
  2
GENIUS_GENOBJ-N-TIT_13
 70
     0
  0
APPID
  2
GENIUS_GENTITLE_13
 70
     0
  0
APPID
  2
GENIUS_GENSCREG_15
 70
     0
  0
APPID
  2
GENIUS_GENOBJ-N-SDF_13
 70
     0
  0
APPID
  2
GENIUS_GENFIL_13
 70
     0
  0
APPID
  2
GENIUS_GENOBJ-N-CHA_13
 70
     0
  0
APPID
  2
GENIUS_GEFSH_13
 70
     0
  0
APPID
  2
GENIUS_GENOBJ-F-SHS_13
 70
     0
  0
APPID
  2
GENIUS_GENOBJ-N-CEN_13
 70
     0
  0
APPID
  2
GENIUS_GENREC_14
 70
     0
  0
APPID
  2
GENIUS_GENOBJ-N-REC_13
 70
     0
  0
APPID
  2
GENIUS_GENOBJ-N-HTC_13
 70
     0
  0
APPID
  2
GENIUS_GENHATCH_13
 70
     0
  0
APPID
  2
ACAD_PSEXT
 70
     0
  0
APPID
  2
ACAD_EXEMPT_FROM_CAD_STANDARDS
 70
     0
  0
APPID
  2
ACAECLAYERSTANDARD
 70
     0
  0
APPID
  2
GENIUS_GENCEN_19
 70
     0
  0
APPID
  2
ACAD_DSTYLE_DIMINSPECT
 70
     0
  0
APPID
  2
ACAD_DSTYLE_DIMANGULAR_EXT
 70
     0
  0
APPID
  2
ACADANNOPO
 70
     0
  0
APPID
  2
ACAD_NAV_VCDISPLAY
 70
     0
  0
APPID
  2
GENIUS_GENOBJ-N-FIL_13
 70
     0
  0
APPID
  2
ACAD_DSTYLE_DIMBREAK
 70
     0
  0
APPID
  2
ACAD_DSTYLE_DIMJAG
 70
     0
  0
APPID
  2
ACAD_DSTYLE_DIMRADIAL_EXTENSION
 70
     0
  0
APPID
  2
GENIUS_GENHINW_13
 70
     0
  0
APPID
  2
GENIUS_FIRSTVISTXT_14
 70
     0
  0
APPID
  2
GENIUS_GENOBJ-N-LEADER_13
 70
     0
  0
APPID
  2
DCO15
 70
     0
  0
APPID
  2
GENIUS_DUMCFG0_13
 70
     0
  0
APPID
  2
ACAD_DSTYLE_DIMTEXT_FILL
 70
     0
  0
APPID
  2
AMG_2DHIDE
 70
     0
  0
APPID
  2
GENIUS_GEFSHEP_13
 70
     0
  0
APPID
  2
GENIUS_GENOBJ-F-SHE_13
 70
     0
  0
APPID
  2
GENIUS_GEFSHE_13
 70
     0
  0
APPID
  2
ACAD_DIMASSOC_DIMLFAC
 70
     0
  0
APPID
  2
ACAD_DIMASSOC_CALC_DIMLFAC
 70
     0
  0
APPID
  2
ACAD_DIMASSOC_OVERRIDDEN_D
 70
     0
  0
APPID
  2
GENIUS_GENOBJ-F-SHSV_13
 70
     0
  0
APPID
  2
GENIUS_GEFWELD_13
 70
     0
  0
APPID
  2
GENIUS_GENOBJ-N-CRS_13
 70
     0
  0
APPID
  2
GENIUS_GENOBJ-N-RSBK_13
 70
     0
  0
APPID
  2
GENIUS_GENOBJ-N-LIB_13
 70
     0
  0
APPID
  2
GENIUS_GENSCALE_13
 70
     0
  0
APPID
  2
GENIUS_GENDREL_13
 70
     0
  0
APPID
  2
GEVPT
 70
     0
  0
APPID
  2
GEVIT
 70
     0
  0
APPID
  2
VCC
 70
     0
  0
APPID
  2
GENBH
 70
     0
  0
APPID
  2
GEVMK
 70
     0
  0
APPID
  2
GENIUS_GENOBJ-F-DESC_13
 70
     0
  0
APPID
  2
GENIUS_GEFDESC_14
 70
     0
  0
APPID
  2
GENIUS_GENOBJ-F-FEAT_13
 70
     0
  0
APPID
  2
GENIUS_GEFFEAT_14
 70
     0
  0
APPID
  2
GENIUS_GEFPARTINS_13
 70
     0
  0
APPID
  2
GENIUS_GENSCREG_13
 70
     0
  0
APPID
  2
GENIUS_GEFSHP_13
 70
     0
  0
APPID
  2
GEVID1025574798
 70
     0
  0
APPID
  2
GEVID1025574769
 70
     0
  0
APPID
  2
GEVID1025757451
 70
     0
  0
APPID
  2
GEVID1240528327
 70
     0
  0
APPID
  2
AMG_2DSTRUCT_BTR
 70
     0
  0
APPID
  2
ACADM_2DVIEW_IGN_NOTIFY
 70
     0
  0
APPID
  2
GEVID1240528328
 70
     0
  0
APPID
  2
GEVID1240528329
 70
     0
  0
APPID
  2
GEVRADREF
 70
     0
  0
APPID
  2
GEVID1240528330
 70
     0
  0
APPID
  2
GEVID1240528331
 70
     0
  0
APPID
  2
GEVID1240528332
 70
     0
  0
APPID
  2
GEVID1240791080
 70
     0
  0
APPID
  2
GEVID1240791081
 70
     0
  0
APPID
  2
GEVID1240791082
 70
     0
  0
APPID
  2
GEVID1240791083
 70
     0
  0
APPID
  2
GEVID1240791084
 70
     0
  0
APPID
  2
GEVID1240791085
 70
     0
  0
APPID
  2
GEVID1240791086
 70
     0
  0
APPID
  2
GEVID1240791087
 70
     0
  0
APPID
  2
GEVID1240791088
 70
     0
  0
APPID
  2
GEVID1240791089
 70
     0
  0
APPID
  2
GEVID1240791090
 70
     0
  0
APPID
  2
GEVID1240791091
 70
     0
  0
APPID
  2
GEVID1240791092
 70
     0
  0
APPID
  2
GEVID1240791093
 70
     0
  0
APPID
  2
GEVID1240791094
 70
     0
  0
APPID
  2
GEVID1240791095
 70
     0
  0
APPID
  2
GEVID1240791096
 70
     0
  0
APPID
  2
GEVID1240791097
 70
     0
  0
APPID
  2
GEVID1240791098
 70
     0
  0
APPID
  2
GEVID1240791099
 70
     0
  0
APPID
  2
GEVID1240791100
 70
     0
  0
APPID
  2
GEVID1240791101
 70
     0
  0
APPID
  2
GEVID1240791102
 70
     0
  0
APPID
  2
GEVID1240791103
 70
     0
  0
APPID
  2
GEVID1240791104
 70
     0
  0
APPID
  2
GEVID1240791105
 70
     0
  0
APPID
  2
GEVID1240875381
 70
     0
  0
APPID
  2
GEVID1240875382
 70
     0
  0
APPID
  2
GEVID1240875383
 70
     0
  0
APPID
  2
GEVID1240875384
 70
     0
  0
APPID
  2
GEVID1240875385
 70
     0
  0
APPID
  2
GEVID1240875386
 70
     0
  0
APPID
  2
GEVID1240875387
 70
     0
  0
APPID
  2
GEVID1240875388
 70
     0
  0
APPID
  2
GEVID1240875389
 70
     0
  0
APPID
  2
GEVID1240875390
 70
     0
  0
APPID
  2
GEVID1240875391
 70
     0
  0
APPID
  2
GEVID1240875392
 70
     0
  0
APPID
  2
GEVID1240875393
 70
     0
  0
APPID
  2
GEVID1240875394
 70
     0
  0
APPID
  2
GEVID1240875395
 70
     0
  0
APPID
  2
GEVID1240875396
 70
     0
  0
APPID
  2
GEVID1240875397
 70
     0
  0
APPID
  2
GEVID1240875398
 70
     0
  0
APPID
  2
GEVID1240875399
 70
     0
  0
APPID
  2
GEVID1240908996
 70
     0
  0
APPID
  2
GEVID1240908997
 70
     0
  0
APPID
  2
GEVID1240908998
 70
     0
  0
APPID
  2
GEVID1240908999
 70
     0
  0
APPID
  2
GEVID1240909000
 70
     0
  0
APPID
  2
GENIUS_GENOBJ-N-ZOO_13
 70
     0
  0
APPID
  2
GENIUS_GENZOO_17
 70
     0
  0
APPID
  2
GENIUS_GE3SECT_13
 70
     0
  0
APPID
  2
GEV_VCCNULL_SWITCH_OFF
 70
     0
  0
APPID
  2
ACAD_DSTYLE_DIMTALN
 70
     0
  0
APPID
  2
CONTENTBLOCKDESCRIPTION
 70
     0
  0
ENDTAB
  0
TABLE
  2
DIMSTYLE
 70
    22
  0
DIMSTYLE
  2
AM_ANSI
 70
     0
  3

  4
"
  5

  6

  7

 40
1.0
 41
2.5
 42
1.0
 43
10.0
 44
1.0
 45
0.0
 46
0.0
 47
0.1
 48
0.1
140
3.5
141
0.0
142
0.0
143
0.0393701
144
1.0
145
0.0
146
0.71
147
1.5
 71
     0
 72
     0
 73
     1
 74
     1
 75
     0
 76
     0
 77
     0
 78
     8
170
     0
171
     2
172
     0
173
     0
174
     0
175
     0
176
     2
177
     2
178
     4
  0
DIMSTYLE
  2
AM_ANSI$3
 70
     0
  3

  4
"
  5

  6

  7

 40
1.0
 41
2.5
 42
1.0
 43
10.0
 44
1.0
 45
0.0
 46
0.0
 47
0.1
 48
0.1
140
3.5
141
0.0
142
0.0
143
0.0393701
144
1.0
145
0.0
146
0.71
147
1.5
 71
     0
 72
     0
 73
     1
 74
     1
 75
     0
 76
     0
 77
     0
 78
     8
170
     0
171
     2
172
     0
173
     0
174
     0
175
     0
176
     2
177
     2
178
     4
  0
DIMSTYLE
  2
AM_ANSI$4
 70
     0
  3

  4
"
  5

  6

  7

 40
1.0
 41
2.5
 42
1.0
 43
10.0
 44
1.0
 45
0.0
 46
0.0
 47
0.1
 48
0.1
140
3.5
141
0.0
142
0.0
143
0.0393701
144
1.0
145
0.0
146
0.71
147
1.5
 71
     0
 72
     0
 73
     1
 74
     1
 75
     0
 76
     0
 77
     0
 78
     8
170
     0
171
     2
172
     0
173
     0
174
     0
175
     0
176
     2
177
     2
178
     4
  0
DIMSTYLE
  2
AM_ANSI$7
 70
     0
  3

  4
"
  5

  6

  7

 40
1.0
 41
2.5
 42
1.0
 43
10.0
 44
1.0
 45
0.0
 46
0.0
 47
0.1
 48
0.1
140
5.0
141
0.0
142
0.0
143
0.0393701
144
1.0
145
0.0
146
0.71
147
1.5
 71
     0
 72
     0
 73
     1
 74
     1
 75
     0
 76
     0
 77
     0
 78
     8
170
     0
171
     2
172
     0
173
     0
174
     0
175
     0
176
     2
177
     2
178
     4
  0
DIMSTYLE
  2
AM_ANSI$SF
 70
     0
  3

  4
"
  5

  6

  7

 40
1.0
 41
2.5
 42
1.0
 43
10.0
 44
1.0
 45
0.0
 46
0.0
 47
0.1
 48
0.1
140
3.5
141
0.0
142
0.0
143
0.0393701
144
1.0
145
0.0
146
0.71
147
1.5
 71
     0
 72
     0
 73
     1
 74
     1
 75
     1
 76
     1
 77
     0
 78
     8
170
     0
171
     2
172
     0
173
     0
174
     0
175
     0
176
     2
177
     2
178
     4
  0
DIMSTYLE
  2
AM_ANSI$SH
 70
     0
  3

  4
"
  5

  6
GENAXEH
  7

 40
1.0
 41
2.5
 42
1.0
 43
10.0
 44
1.0
 45
0.0
 46
0.0
 47
0.1
 48
0.1
140
3.5
141
0.0
142
0.0
143
0.0393701
144
1.0
145
0.0
146
0.71
147
1.5
 71
     0
 72
     0
 73
     1
 74
     1
 75
     1
 76
     1
 77
     0
 78
     8
170
     0
171
     2
172
     0
173
     1
174
     0
175
     0
176
     2
177
     2
178
     4
  0
DIMSTYLE
  2
AM_ISO
 70
     0
  3

  4
"
  5

  6

  7

 40
1.0
 41
2.5
 42
1.0
 43
10.0
 44
1.0
 45
0.0
 46
0.0
 47
0.1
 48
0.1
140
3.5
141
0.0
142
0.0
143
0.0393701
144
1.0
145
0.0
146
0.71
147
1.5
 71
     0
 72
     0
 73
     0
 74
     0
 75
     0
 76
     0
 77
     1
 78
     8
170
     0
171
     2
172
     1
173
     0
174
     0
175
     0
176
   256
177
   256
178
     2
  0
DIMSTYLE
  2
AM_ISO$3
 70
     0
  3

  4
"
  5

  6

  7

 40
1.0
 41
2.5
 42
1.0
 43
10.0
 44
1.0
 45
0.0
 46
0.0
 47
0.1
 48
0.1
140
3.5
141
0.0
142
0.0
143
0.0393701
144
1.0
145
0.0
146
0.71
147
1.5
 71
     0
 72
     0
 73
     0
 74
     1
 75
     0
 76
     0
 77
     1
 78
     8
170
     0
171
     2
172
     0
173
     0
174
     0
175
     0
176
   256
177
   256
178
     2
  0
DIMSTYLE
  2
AM_ISO$4
 70
     0
  3

  4
"
  5

  6

  7

 40
1.0
 41
2.5
 42
1.0
 43
10.0
 44
1.0
 45
0.0
 46
0.0
 47
0.1
 48
0.1
140
3.5
141
0.0
142
0.0
143
0.0393701
144
1.0
145
0.0
146
0.71
147
1.5
 71
     0
 72
     0
 73
     0
 74
     1
 75
     0
 76
     0
 77
     1
 78
     8
170
     0
171
     2
172
     0
173
     0
174
     0
175
     0
176
   256
177
   256
178
     2
  0
DIMSTYLE
  2
AM_ISO$6
 70
     0
  3

  4
"
  5

  6

  7

 40
1.0
 41
2.5
 42
1.0
 43
10.0
 44
1.0
 45
0.0
 46
0.0
 47
0.1
 48
0.1
140
3.5
141
0.0
142
0.0
143
0.0393701
144
1.0
145
0.0
146
0.71
147
1.5
 71
     0
 72
     0
 73
     0
 74
     0
 75
     0
 76
     0
 77
     0
 78
     8
170
     0
171
     2
172
     1
173
     0
174
     0
175
     0
176
   256
177
   256
178
     2
  0
DIMSTYLE
  2
AM_ISO$7
 70
     0
  3

  4
"
  5

  6

  7

 40
1.0
 41
2.5
 42
1.0
 43
10.0
 44
1.0
 45
0.0
 46
0.0
 47
0.1
 48
0.1
140
5.0
141
0.0
142
0.0
143
0.0393701
144
1.0
145
0.0
146
0.71
147
1.5
 71
     0
 72
     0
 73
     0
 74
     0
 75
     0
 76
     0
 77
     1
 78
     8
170
     0
171
     2
172
     1
173
     0
174
     0
175
     0
176
   256
177
   256
178
     2
  0
DIMSTYLE
  2
AM_ISO$SF
 70
     0
  3

  4
"
  5

  6

  7

 40
1.0
 41
2.5
 42
1.0
 43
10.0
 44
1.0
 45
0.0
 46
0.0
 47
0.1
 48
0.1
140
3.5
141
0.0
142
0.0
143
0.0393701
144
1.0
145
0.0
146
0.71
147
1.5
 71
     0
 72
     0
 73
     0
 74
     0
 75
     1
 76
     1
 77
     1
 78
     8
170
     0
171
     2
172
     1
173
     0
174
     0
175
     0
176
   256
177
   256
178
     2
  0
DIMSTYLE
  2
AM_ISO$SH
 70
     0
  3

  4
"
  5

  6
GENAXEH
  7

 40
1.0
 41
2.5
 42
1.0
 43
10.0
 44
1.0
 45
0.0
 46
0.0
 47
0.1
 48
0.1
140
3.5
141
0.0
142
0.0
143
0.0393701
144
2.0
145
0.0
146
0.71
147
1.5
 71
     0
 72
     0
 73
     0
 74
     0
 75
     1
 76
     1
 77
     1
 78
     8
170
     0
171
     2
172
     1
173
     1
174
     0
175
     0
176
   256
177
   256
178
     2
  0
DIMSTYLE
  2
AM_JIS
 70
     0
  3

  4
"
  5

  6

  7

 40
1.0
 41
2.0
 42
1.0
 43
8.0
 44
1.0
 45
0.0
 46
0.0
 47
0.1
 48
0.1
140
2.5
141
0.0
142
0.0
143
0.0393701
144
1.0
145
0.0
146
0.71
147
1.5
 71
     0
 72
     0
 73
     0
 74
     0
 75
     0
 76
     0
 77
     3
 78
     8
170
     0
171
     2
172
     1
173
     0
174
     0
175
     0
176
     2
177
     2
178
     4
  0
DIMSTYLE
  2
AM_JIS$3
 70
     0
  3

  4
"
  5

  6

  7

 40
1.0
 41
2.0
 42
1.0
 43
10.0
 44
1.0
 45
0.0
 46
0.0
 47
0.1
 48
0.1
140
2.5
141
0.0
142
0.0
143
0.0393701
144
1.0
145
0.0
146
0.71
147
1.5
 71
     0
 72
     0
 73
     0
 74
     1
 75
     0
 76
     0
 77
     3
 78
     8
170
     0
171
     2
172
     0
173
     0
174
     0
175
     0
176
     2
177
     2
178
     4
  0
DIMSTYLE
  2
AM_JIS$4
 70
     0
  3

  4
"
  5

  6

  7

 40
1.0
 41
2.0
 42
1.0
 43
10.0
 44
1.0
 45
0.0
 46
0.0
 47
0.1
 48
0.1
140
2.5
141
0.0
142
0.0
143
0.0393701
144
1.0
145
0.0
146
0.71
147
1.5
 71
     0
 72
     0
 73
     0
 74
     0
 75
     0
 76
     0
 77
     3
 78
     8
170
     0
171
     2
172
     0
173
     0
174
     0
175
     0
176
     2
177
     2
178
     4
  0
DIMSTYLE
  2
AM_JIS$6
 70
     0
  3

  4
"
  5

  6

  7

 40
1.0
 41
2.0
 42
1.0
 43
10.0
 44
1.0
 45
0.0
 46
0.0
 47
0.1
 48
0.1
140
2.5
141
0.0
142
0.0
143
0.0393701
144
1.0
145
0.0
146
0.71
147
1.5
 71
     0
 72
     0
 73
     0
 74
     0
 75
     0
 76
     0
 77
     0
 78
     8
170
     0
171
     2
172
     1
173
     0
174
     0
175
     0
176
     2
177
     2
178
     4
  0
DIMSTYLE
  2
AM_JIS$7
 70
     0
  3

  4
"
  5

  6
OPEN30
  7
OPEN30
 40
1.0
 41
2.0
 42
1.0
 43
10.0
 44
1.0
 45
0.0
 46
0.0
 47
0.1
 48
0.1
140
2.5
141
0.0
142
0.0
143
0.0393701
144
1.0
145
0.0
146
0.71
147
1.5
 71
     0
 72
     0
 73
     0
 74
     0
 75
     0
 76
     0
 77
     3
 78
     8
170
     0
171
     2
172
     1
173
     0
174
     0
175
     0
176
     2
177
     2
178
     4
  0
DIMSTYLE
  2
AM_JIS$SF
 70
     0
  3

  4
"
  5

  6

  7

 40
1.0
 41
2.0
 42
1.0
 43
10.0
 44
1.0
 45
0.0
 46
0.0
 47
0.1
 48
0.1
140
2.5
141
0.0
142
0.0
143
0.0393701
144
1.0
145
0.0
146
0.71
147
1.5
 71
     0
 72
     0
 73
     0
 74
     0
 75
     1
 76
     1
 77
     3
 78
     8
170
     0
171
     2
172
     1
173
     0
174
     0
175
     0
176
     2
177
     2
178
     4
  0
DIMSTYLE
  2
AM_JIS$SH
 70
     0
  3

  4
"
  5

  6
GENAXEH
  7

 40
1.0
 41
2.0
 42
1.0
 43
10.0
 44
1.0
 45
0.0
 46
0.0
 47
0.1
 48
0.1
140
2.5
141
0.0
142
0.0
143
0.0393701
144
2.0
145
0.0
146
0.71
147
1.5
 71
     0
 72
     0
 73
     0
 74
     0
 75
     1
 76
     1
 77
     3
 78
     8
170
     0
171
     2
172
     1
173
     1
174
     0
175
     0
176
     2
177
     2
178
     4
  0
DIMSTYLE
  2
AM_JIS$0
 70
     0
  3

  4
"
  5

  6

  7

 40
1.0
 41
2.0
 42
1.0
 43
8.0
 44
1.0
 45
0.0
 46
0.0
 47
0.1
 48
0.1
140
2.5
141
0.0
142
0.0
143
0.0393701
144
1.0
145
0.0
146
0.71
147
1.5
 71
     0
 72
     0
 73
     0
 74
     0
 75
     0
 76
     0
 77
     3
 78
     8
170
     0
171
     2
172
     1
173
     0
174
     0
175
     0
176
     2
177
     2
178
     4
  0
DIMSTYLE
  2
STANDARD
 70
     0
  3

  4

  5

  6

  7

 40
1.0
 41
0.18
 42
0.0625
 43
0.38
 44
0.18
 45
0.0
 46
0.0
 47
0.0
 48
0.0
140
0.18
141
0.09
142
0.0
143
25.399999999999999
144
1.0
145
0.0
146
1.0
147
0.09
 71
     0
 72
     0
 73
     1
 74
     1
 75
     0
 76
     0
 77
     0
 78
     0
170
     0
171
     2
172
     0
173
     0
174
     0
175
     0
176
     0
177
     0
178
     0
  0
ENDTAB
  0
ENDSEC
  0
SECTION
  2
BLOCKS
  0
BLOCK
  8
0
  2
$MODEL_SPACE
 70
     0
 10
0.0
 20
0.0
 30
0.0
  3
$MODEL_SPACE
  1

  0
ENDBLK
  5
77
  8
0
  0
BLOCK
 67
     1
  8
0
  2
$PAPER_SPACE
 70
     0
 10
0.0
 20
0.0
 30
0.0
  3
$PAPER_SPACE
  1

  0
ENDBLK
  5
73
 67
     1
  8
0
  0
BLOCK
  8
0
  2
GENAXEH
 70
     0
 10
0.0
 20
0.0
 30
0.0
  3
GENAXEH
  1

  0
LINE
  5
E40D
  8
0
 10
-1.0
 20
0.0
 30
0.0
 11
1.0
 21
0.0
 31
0.0
  0
ENDBLK
  5
E40E
  8
0
  0
BLOCK
  8
0
  6
BYBLOCK
 62
     0
  2
$6-45
 70
     0
 10
0.0
 20
0.0
 30
0.0
  3
$6-45
  1

  0
ARC
  5
9EAB
  8
0
  6
CONTINUOUS
 62
     0
 10
-2.6499939999999902
 20
2.800201000000015
 30
0.0
 40
2.6003989999999999
 50
89.999982000000799
 51
179.99997799999841
  0
ARC
  5
9EAC
  8
0
  6
CONTINUOUS
 62
     0
 10
2.6499939999999902
 20
2.800201000000015
 30
0.0
 40
2.600403
 50
0.0
 51
89.999982000000799
  0
LINE
  5
9EAD
  8
0
  6
CONTINUOUS
 62
     0
 10
0.0660249999999678
 20
0.0
 30
0.0
 11
-0.7999999999999548
 21
1.5
 31
0.0
  0
LINE
  5
9EAE
  8
0
  6
CONTINUOUS
 62
     0
 10
1.0660249999999669
 20
0.0
 30
0.0
 11
0.2000000000000455
 21
1.5
 31
0.0
  0
LINE
  5
9EAF
  8
0
  6
CONTINUOUS
 62
     0
 10
6.1000000000000218
 20
0.0
 30
0.0
 11
-6.1000000000000218
 21
0.0
 31
0.0
  0
LINE
  5
9EB0
  8
0
  6
CONTINUOUS
 62
     0
 10
6.1000000000000218
 20
1.5
 30
0.0
 11
6.1000000000000218
 21
0.0
 31
0.0
  0
LINE
  5
9EB1
  8
0
  6
CONTINUOUS
 62
     0
 10
-6.1000000000000218
 20
1.5
 30
0.0
 11
-6.1000000000000218
 21
0.0
 31
0.0
  0
LINE
  5
9EB2
  8
0
  6
CONTINUOUS
 62
     0
 10
2.6499939999999902
 20
5.3999939999999906
 30
0.0
 11
-2.6499939999999902
 21
5.3999939999999906
 31
0.0
  0
LINE
  5
9EB3
  8
0
  6
CONTINUOUS
 62
     0
 10
6.1000000000000218
 20
1.5
 30
0.0
 11
-6.1000000000000218
 21
1.5
 31
0.0
  0
LINE
  5
9EB4
  8
0
  6
CONTINUOUS
 62
     0
 10
-5.25
 20
1.5
 30
0.0
 11
-5.25
 21
2.800201000000015
 31
0.0
  0
LINE
  5
9EB5
  8
0
  6
CONTINUOUS
 62
     0
 10
5.25
 20
1.5
 30
0.0
 11
5.25
 21
2.800201000000015
 31
0.0
  0
ENDBLK
  5
9EB6
  8
0
  6
BYBLOCK
 62
     0
  0
BLOCK
  8
0
  2
_OPEN30
 70
     0
 10
0.0
 20
0.0
 30
0.0
  3
_OPEN30
  1

  0
LINE
  5
E454
  8
0
  6
BYBLOCK
 62
     0
 10
-1.0
 20
0.26794919
 30
0.0
 11
0.0
 21
0.0
 31
0.0
  0
LINE
  5
E455
  8
0
  6
BYBLOCK
 62
     0
 10
0.0
 20
0.0
 30
0.0
 11
-1.0
 21
-0.26794919
 31
0.0
  0
LINE
  5
E456
  8
0
  6
BYBLOCK
 62
     0
 10
0.0
 20
0.0
 30
0.0
 11
-1.0
 21
0.0
 31
0.0
  0
ENDBLK
  5
E457
  8
0
  0
BLOCK
  8
0
  2
*D4
 70
     1
 10
0.0
 20
0.0
 30
0.0
  3
*D4
  1

  0
LINE
  5
E49D
  8
AM_5
 62
     2
 10
713.19777829717805
 20
557.52862036236502
 30
0.0
 11
713.19777829717805
 21
658.63945162425296
 31
0.0
  0
LINE
  5
E49E
  8
AM_5
 62
     2
 10
127.697778297178
 20
561.39235848049725
 30
0.0
 11
127.697778297178
 21
658.63945162425296
 31
0.0
  0
LINE
  5
E49F
  8
AM_5
 62
     2
 10
711.19777829717805
 20
657.63945162425307
 30
0.0
 11
129.69777829717799
 21
657.63945162425307
 31
0.0
  0
SOLID
  5
E4A0
  8
AM_5
 62
     2
 10
711.19777829717805
 20
657.97278495758633
 30
0.0
 11
711.19777829717805
 21
657.3061182909197
 31
0.0
 12
713.19777829717805
 22
657.63945162425307
 32
0.0
 13
713.19777829717805
 23
657.63945162425307
 33
0.0
  0
SOLID
  5
E4A1
  8
AM_5
 62
     2
 10
129.69777829717799
 20
657.97278495758633
 30
0.0
 11
129.69777829717799
 21
657.3061182909197
 31
0.0
 12
127.697778297178
 22
657.63945162425307
 32
0.0
 13
127.697778297178
 23
657.63945162425307
 33
0.0
  0
INSERT
  5
E4A2
  8
0
  2
*U8
 10
0.0
 20
0.0
 30
0.0
  0
POINT
  5
E4A3
  8
DEFPOINTS
 62
     0
 10
713.19777829717805
 20
556.5286203623649
 30
0.0
  0
POINT
  5
E4A4
  8
DEFPOINTS
 62
     0
 10
127.697778297178
 20
560.39235848049748
 30
0.0
  0
POINT
  5
E4A5
  8
DEFPOINTS
 62
     0
 10
127.697778297178
 20
657.63945162425307
 30
0.0
  0
ENDBLK
  5
E47F
  8
0
  0
BLOCK
  8
0
  2
_ACMFILLEDHALF
 70
     0
 10
0.0
 20
0.0
 30
0.0
  3
_ACMFILLEDHALF
  1

  0
TRACE
  5
E516
  8
AM_0
 62
     0
 10
-0.8
 20
0.0
 30
0.0
 11
-1.0
 21
0.166666666
 31
0.0
 12
0.0
 22
0.0
 32
0.0
 13
0.0
 23
0.0
 33
0.0
  0
LINE
  5
E517
  8
AM_0
 62
     0
 10
-1.0
 20
0.0
 30
0.0
 11
-0.8
 21
0.0
 31
0.0
  0
ENDBLK
  5
E518
  8
0
  0
BLOCK
  8
0
  2
*U8
 70
     1
 10
0.0
 20
0.0
 30
0.0
  3
*U8
  1

  0
TEXT
  5
E5B3
  8
AM_5
 62
     4
 10
417.98111163051129
 20
659.13945162425296
 30
0.0
 40
2.5
  1
586
 41
0.7400000000000003
  0
ENDBLK
  5
E5B5
  8
0
  0
ENDSEC
  0
SECTION
  2
ENTITIES
  0
LINE
  5
8A76
  8
0
  6
AM_ISO08W050
 10
467.26273200871492
 20
543.91108597825132
 30
0.0
 11
721.14217829718007
 21
543.91108597825132
 31
0.0
  0
LINE
  5
B261
  8
0
  6
AM_ISO08W050
 10
114.97721577741891
 20
505.91108597825132
 30
0.0
 11
490.37772580557061
 21
505.91108597825132
 31
0.0
  0
LINE
  5
B728
  8
0
 10
454.69777829717788
 20
420.91108597825132
 30
0.0
 11
454.69777829717788
 21
590.91108597825132
 31
0.0
  0
LINE
  5
CC9E
  8
0
 10
242.19777829717819
 20
440.16653114227591
 30
0.0
 11
242.19777829717799
 21
418.91102497825142
 31
0.0
  0
LINE
  5
CC9F
  8
0
 10
347.69777829717799
 20
451.500257978251
 30
0.0
 11
347.69777829717799
 21
431.51530797825131
 31
0.0
  0
LINE
  5
CCA0
  8
0
 10
388.6977782971781
 20
501.97422197825131
 30
0.0
 11
402.22777829717768
 21
501.97422197825131
 31
0.0
  0
LINE
  5
CCA1
  8
0
 10
231.7677782971781
 20
501.97422197825131
 30
0.0
 11
244.6977782971781
 21
501.97422197825131
 31
0.0
  0
LINE
  5
CCA2
  8
0
 10
238.19777829717799
 20
495.41422197825142
 30
0.0
 11
238.19777829717799
 21
508.68422197825129
 31
0.0
  0
LINE
  5
CCA3
  8
0
 10
382.6977782971781
 20
558.8542219782513
 30
0.0
 11
250.69777829717799
 21
558.8542219782513
 31
0.0
  0
LINE
  5
CCA4
  8
0
 10
244.6977782971781
 20
552.85422197825119
 30
0.0
 11
244.6977782971781
 21
451.77422197825132
 31
0.0
  0
LINE
  5
CCA5
  8
0
 10
388.6977782971781
 20
552.85422197825119
 30
0.0
 11
388.6977782971781
 21
451.77422197825132
 31
0.0
  0
LINE
  5
CCA6
  8
0
 10
250.69777829717799
 20
445.77422197825132
 30
0.0
 11
382.6977782971781
 21
445.77422197825132
 31
0.0
  0
LINE
  5
CCA7
  8
0
 10
395.21726229717808
 20
524.3011349782513
 30
0.0
 11
395.1977782971781
 21
552.8742219782514
 31
0.0
  0
LINE
  5
CCA8
  8
0
 10
382.6977782971781
 20
565.35422197825119
 30
0.0
 11
250.69777829717799
 21
565.35422197825119
 31
0.0
  0
LINE
  5
CCA9
  8
0
 10
238.19777829717799
 20
524.33422197825132
 30
0.0
 11
238.19777829717799
 21
552.85422197825119
 31
0.0
  0
LINE
  5
CCAA
  8
0
 10
238.19777829717799
 20
479.60422197825119
 30
0.0
 11
238.19777829717799
 21
449.33422197825132
 31
0.0
  0
LINE
  5
CCAB
  8
0
 10
395.1977782971781
 20
479.60422197825119
 30
0.0
 11
395.1977782971781
 21
449.33422197825132
 31
0.0
  0
LINE
  5
CCAC
  8
0
 10
250.69777829717799
 20
436.83422197825132
 30
0.0
 11
382.6977782971781
 21
436.83422197825132
 31
0.0
  0
ARC
  5
CCAD
  8
0
 10
410.19934029717768
 20
479.61317997825131
 30
0.0
 40
15.001564999999999
 50
131.81297400000199
 51
180.034212999999
  0
ARC
  5
CCAE
  8
0
 10
382.69726629717809
 20
552.85370997825135
 30
0.0
 40
6.0005119999999996
 50
0.0048860000006618
 51
89.995114000002559
  0
ARC
  5
CCAF
  8
0
 10
250.69628529717809
 20
552.85571497825106
 30
0.0
 40
5.998507
 50
89.985740000000476
 51
180.0142599999995
  0
ARC
  5
CCB0
  8
0
 10
250.695274297178
 20
451.77171797825127
 30
0.0
 40
5.9974970000000001
 50
179.9760820000013
 51
270.02391799999867
  0
ARC
  5
CCB1
  8
0
 10
382.69827729717798
 20
451.77372297825133
 30
0.0
 40
5.9995010000000004
 50
269.99523699999969
 51
0.0047630000002228
  0
ARC
  5
CCB2
  8
0
 10
223.19884329717809
 20
524.33408597825132
 30
0.0
 40
14.998934999999999
 50
311.8084959999992
 51
0.0005210000016347
  0
ARC
  5
CCB3
  8
0
 10
223.19566629717801
 20
479.60547797825132
 30
0.0
 40
15.007673
 50
358.4401929999994
 51
48.205064000001038
  0
ARC
  5
CCB4
  8
0
 10
229.694725297178
 20
475.17691297825132
 30
0.0
 40
15.003053
 50
359.98972200000082
 51
63.249136000002181
  0
ARC
  5
CCB5
  8
0
 10
229.69741329717809
 20
528.75987597825133
 30
0.0
 40
15.000365
 50
296.74454000000122
 51
0.0166020000005186
  0
ARC
  5
CCB6
  8
0
 10
243.19577429717799
 20
501.96922197825143
 30
0.0
 40
14.998716
 50
116.7375830000023
 51
243.2624169999977
  0
ARC
  5
CCB7
  8
0
 10
403.69792429717802
 20
475.17870297825112
 30
0.0
 40
15.000147
 50
116.74402700000201
 51
180.01711599999811
  0
ARC
  5
CCB8
  8
0
 10
403.6952352971781
 20
528.75808597825119
 30
0.0
 40
14.997458999999999
 50
179.97655699999851
 51
243.26230100000251
  0
ARC
  5
CCB9
  8
0
 10
390.19577329717811
 20
501.96922197825143
 30
0.0
 40
15.00052
 50
296.75125799999751
 51
63.248742000002501
  0
ARC
  5
CCBA
  8
0
 10
382.69477729717812
 20
552.85119997825132
 30
0.0
 40
12.503022
 50
0.1054989999989078
 51
89.986247999999051
  0
ARC
  5
CCBB
  8
0
 10
250.69628529717809
 20
552.85571497825106
 30
0.0
 40
12.498507
 50
89.993155999999715
 51
180.0068440000002
  0
ARC
  5
CCBC
  8
0
 10
250.69327429717799
 20
449.32971797825132
 30
0.0
 40
12.495497
 50
179.9793499999987
 51
270.020649999998
  0
ARC
  5
CCBD
  8
0
 10
382.7002772971781
 20
449.33172297825132
 30
0.0
 40
12.497502000000001
 50
269.98854500000192
 51
0.0114550000013282
  0
ARC
  5
CCBE
  8
0
 10
410.21725829717758
 20
524.31136397825139
 30
0.0
 40
15.0
 50
180.03907000000001
 51
228.13549799999899
  0
LINE
  5
CCBF
  8
0
 10
399.6546542971779
 20
555.09608597825115
 30
0.0
 11
399.6546542971779
 21
534.73108597825114
 31
0.0
  0
LINE
  5
CCC0
  8
0
 10
415.69777729717782
 20
555.09608597825115
 30
0.0
 11
415.69777729717782
 21
534.73108597825114
 31
0.0
  0
LINE
  5
CCC1
  8
0
 10
430.24717329717782
 20
449.8902899782513
 30
0.0
 11
415.69777729717782
 21
449.8902899782513
 31
0.0
  0
LINE
  5
CCC2
  8
0
 10
435.19777829717782
 20
461.30263997825131
 30
0.0
 11
415.69777729717782
 21
461.30263997825131
 31
0.0
  0
LINE
  5
CCC3
  8
0
 10
400.40317529717782
 20
454.60537997825128
 30
0.0
 11
415.69777829717799
 21
449.8902899782513
 31
0.0
  0
LINE
  5
CCC4
  8
0
 10
415.69777829717799
 20
461.30263997825131
 30
0.0
 11
400.66183729717812
 21
460.76188897825119
 31
0.0
  0
ARC
  5
CCC5
  8
0
 10
400.69777829717782
 20
459.76253497825132
 30
0.0
 40
1.0
 50
92.059690999997201
 51
180.0
  0
ARC
  5
CCC6
  8
0
 10
400.69777829717782
 20
455.56099997825129
 30
0.0
 40
1.0
 50
180.0
 51
252.8662750000021
  0
LINE
  5
CCC7
  8
0
 10
415.69777829717799
 20
581.76387297825136
 30
0.0
 11
400.39731929717811
 21
576.94400697825131
 31
0.0
  0
ARC
  5
CCC8
  8
0
 10
400.69777829717782
 20
575.9902119782513
 30
0.0
 40
1.0
 50
107.485179
 51
180.0
  0
ARC
  5
CCC9
  8
0
 10
400.69777829717782
 20
573.63914697825123
 30
0.0
 40
1.0
 50
180.0
 51
270.0
  0
LINE
  5
CCCA
  8
0
 10
400.7463332971779
 20
572.64032597825121
 30
0.0
 11
415.69777829717799
 21
573.36714597825119
 31
0.0
  0
LINE
  5
CCCB
  8
0
 10
435.19777829717782
 20
573.36714597825119
 30
0.0
 11
415.69777829717799
 21
573.36714597825119
 31
0.0
  0
LINE
  5
CCCC
  8
0
 10
358.69777829717799
 20
604.19757897825127
 30
0.0
 11
446.14496329717781
 21
604.19757897825127
 31
0.0
  0
ARC
  5
CCCD
  8
0
 10
269.96202329717812
 20
602.19757897825139
 30
0.0
 40
2.0
 50
90.0
 51
156.10179999999909
  0
ARC
  5
CCCE
  8
0
 10
446.14496329717781
 20
602.19757897825139
 30
0.0
 40
2.0
 50
10.000001999998901
 51
90.0
  0
LINE
  5
CCCF
  8
0
 10
449.69777829717799
 20
593.56610297825125
 30
0.0
 11
448.11457829717762
 21
602.5448759782513
 31
0.0
  0
LINE
  5
CCD0
  8
0
 10
449.43697029717788
 20
593.56610297825125
 30
0.0
 11
449.69777829717799
 21
593.56610297825125
 31
0.0
  0
ARC
  5
CCD1
  8
0
 10
255.02899329717809
 20
601.00780497825122
 30
0.0
 40
2.0
 50
90.0
 51
169.99999800000111
  0
LINE
  5
CCD2
  8
0
 10
250.69777829717799
 20
587.96180197825129
 30
0.0
 11
253.059378297178
 21
601.35510197825124
 31
0.0
  0
ARC
  5
CCD3
  8
0
 10
446.09394429717793
 20
601.00780497825122
 30
0.0
 40
2.0
 50
10.000001999998901
 51
90.0
  0
LINE
  5
CCD4
  8
0
 10
449.69777829717799
 20
592.08698497825139
 30
0.0
 11
448.06355929717762
 21
601.35510197825124
 31
0.0
  0
LINE
  5
CCD5
  8
0
 10
250.69777829717799
 20
587.96180197825129
 30
0.0
 11
251.2656842971781
 21
587.96180197825129
 31
0.0
  0
LINE
  5
CCD6
  8
0
 10
449.16180729717757
 20
592.08698497825139
 30
0.0
 11
449.69777829717799
 21
592.08698497825139
 31
0.0
  0
ARC
  5
CCD7
  8
0
 10
446.00808929717778
 20
598.45507097825123
 30
0.0
 40
2.0
 50
10.00000100000252
 51
90.0
  0
ARC
  5
CCD8
  8
0
 10
255.14678429717799
 20
598.45507097825123
 30
0.0
 40
2.0
 50
90.0
 51
169.9999989999975
  0
LINE
  5
CCD9
  8
0
 10
250.69777829717799
 20
584.74104597825124
 30
0.0
 11
253.1771682971781
 21
598.80236697825126
 31
0.0
  0
ARC
  5
CCDA
  8
0
 10
255.32792529717801
 20
594.48988597825121
 30
0.0
 40
2.0
 50
90.0
 51
169.9999999999981
  0
LINE
  5
CCDB
  8
0
 10
250.69777829717799
 20
579.74856097825125
 30
0.0
 11
253.3583092971781
 21
594.83718197825124
 31
0.0
  0
ARC
  5
CCDC
  8
0
 10
255.6091532971781
 20
588.91245797825138
 30
0.0
 40
2.0
 50
90.0
 51
169.9999999999981
  0
LINE
  5
CCDD
  8
0
 10
250.69777829717799
 20
572.57620897825132
 30
0.0
 11
253.63953729717801
 21
589.25975497825129
 31
0.0
  0
ARC
  5
CCDE
  8
0
 10
255.704417297178
 20
582.91179097825125
 30
0.0
 40
2.0
 50
90.0
 51
169.9999989999975
  0
LINE
  5
CCDF
  8
0
 10
250.69777829717799
 20
566.03527297825121
 30
0.0
 11
253.73480129717819
 21
583.25908697825128
 31
0.0
  0
LINE
  5
CCE0
  8
0
 10
449.56951929717809
 20
589.77473497825122
 30
0.0
 11
447.97770429717798
 21
598.80236697825126
 31
0.0
  0
LINE
  5
CCE1
  8
0
 10
250.69777829717799
 20
584.74104597825124
 30
0.0
 11
251.578088297178
 21
584.74104597825124
 31
0.0
  0
ARC
  5
CCE2
  8
0
 10
445.87871129717792
 20
594.48988597825121
 30
0.0
 40
2.0
 50
10.00000000000181
 51
90.0
  0
LINE
  5
CCE3
  8
0
 10
448.74097329717767
 20
589.77473497825122
 30
0.0
 11
447.84832729717789
 21
594.83718197825124
 31
0.0
  0
ARC
  5
CCE4
  8
0
 10
381.08679629717801
 20
588.91245797825138
 30
0.0
 40
2.0
 50
5.5986529999986434
 51
90.0
  0
ARC
  5
CCE5
  8
0
 10
381.08484129717812
 20
582.91179097825125
 30
0.0
 40
2.0
 50
5.429018999998811
 51
90.0
  0
LINE
  5
CCE6
  8
0
 10
451.69777829717759
 20
466.18837997825131
 30
0.0
 11
451.69777829717759
 21
567.97701897825118
 31
0.0
  0
LINE
  5
CCE7
  8
0
 10
451.69777829717759
 20
589.77473497825122
 30
0.0
 11
451.69777829717759
 21
593.91108597825132
 31
0.0
  0
LINE
  5
CCE8
  8
0
 10
399.6546542971779
 20
579.74856097825125
 30
0.0
 11
415.69777729717782
 21
584.34842297825139
 31
0.0
  0
LINE
  5
CCE9
  8
0
 10
383.99469329717812
 20
579.74856097825125
 30
0.0
 11
399.6546542971779
 21
579.74856097825125
 31
0.0
  0
LINE
  5
CCEA
  8
0
 10
415.69777729717782
 20
584.34842297825139
 30
0.0
 11
430.39106129717788
 21
584.34842297825139
 31
0.0
  0
INSERT
  5
CCEB
  8
0
  2
$6-45
 10
435.19777829717782
 20
580.04434597825116
 30
0.0
 50
90.0
  0
INSERT
  5
CCEC
  8
0
  2
$6-45
 10
435.19777829717782
 20
454.00241897825128
 30
0.0
 50
90.0
  0
LINE
  5
CCED
  8
0
 10
210.69777829717799
 20
508.91108597825132
 30
0.0
 11
142.70624629717801
 21
508.91108597825132
 31
0.0
  0
LINE
  5
CCEE
  8
0
 10
449.63694829717809
 20
593.91108597825132
 30
0.0
 11
451.69777829717759
 21
593.91108597825132
 31
0.0
  0
LINE
  5
CCEF
  8
0
 10
255.32792529717801
 20
596.48988597825132
 30
0.0
 11
445.87871129717792
 21
596.48988597825132
 31
0.0
  0
LINE
  5
CCF0
  8
0
 10
255.14678429717799
 20
600.45507097825123
 30
0.0
 11
446.00808929717778
 21
600.45507097825123
 31
0.0
  0
LINE
  5
CCF1
  8
0
 10
255.02899329717809
 20
603.0078049782511
 30
0.0
 11
446.09394429717793
 21
603.0078049782511
 31
0.0
  0
LINE
  5
CCF2
  8
0
 10
242.19777829717799
 20
599.41108597825132
 30
0.0
 11
252.71659629717811
 21
599.41108597825132
 31
0.0
  0
LINE
  5
CCF3
  8
0
 10
269.96202329717812
 20
604.19757897825127
 30
0.0
 11
336.6977782971781
 21
604.19757897825127
 31
0.0
  0
LINE
  5
CCF4
  8
0
 10
415.69777729717782
 20
563.07108597825129
 30
0.0
 11
415.69777729717782
 21
557.72608597825126
 31
0.0
  0
LINE
  5
CCF5
  8
0
 10
399.6546542971779
 20
563.07108597825129
 30
0.0
 11
399.6546542971779
 21
557.72608597825126
 31
0.0
  0
LINE
  5
CCF6
  8
0
 10
415.69777729717782
 20
573.36714597825119
 30
0.0
 11
415.69777729717782
 21
565.77108597825122
 31
0.0
  0
LINE
  5
CCF7
  8
0
 10
415.69777729717782
 20
581.76387297825136
 30
0.0
 11
429.79778429717783
 21
581.76387297825136
 31
0.0
  0
LINE
  5
CCF8
  8
0
 10
250.69777829717799
 20
566.03527297825121
 30
0.0
 11
384.69777829717799
 21
566.03527297825121
 31
0.0
  0
LINE
  5
CCF9
  8
0
 10
384.02015129717807
 20
572.57620897825132
 30
0.0
 11
384.69777829717799
 21
572.57620897825132
 31
0.0
  0
LINE
  5
CCFA
  8
0
 10
255.704417297178
 20
584.91179097825125
 30
0.0
 11
381.08484129717812
 21
584.91179097825125
 31
0.0
  0
LINE
  5
CCFB
  8
0
 10
250.69777829717799
 20
572.57620897825132
 30
0.0
 11
251.851121297178
 21
572.57620897825132
 31
0.0
  0
LINE
  5
CCFC
  8
0
 10
255.6091532971781
 20
590.91245797825115
 30
0.0
 11
381.08679629717801
 21
590.91245797825115
 31
0.0
  0
LINE
  5
CCFD
  8
0
 10
451.69777829717759
 20
567.97701897825118
 30
0.0
 11
454.69777829717788
 21
566.24496797825122
 31
0.0
  0
ARC
  5
CCFE
  8
0
 10
434.19777829717782
 20
568.97701897825129
 30
0.0
 40
1.0
 50
270.0
 51
0.0
  0
ARC
  5
CCFF
  8
0
 10
437.19777829717799
 20
587.77473497825122
 30
0.0
 40
2.0
 50
90.0
 51
180.0
  0
ARC
  5
CD00
  8
0
 10
437.19777829717799
 20
583.65072997825132
 30
0.0
 40
2.0
 50
180.0
 51
270.0
  0
ARC
  5
CD01
  8
0
 10
437.19777829717799
 20
579.65072997825132
 30
0.0
 40
2.0
 50
90.0
 51
180.0
  0
LINE
  5
CD02
  8
0
 10
437.19777829717799
 20
589.77473497825122
 30
0.0
 11
454.69777829717788
 21
589.77473497825122
 31
0.0
  0
LINE
  5
CD03
  8
0
 10
435.19777829717782
 20
567.97701897825118
 30
0.0
 11
451.69777829717759
 21
567.97701897825118
 31
0.0
  0
LINE
  5
CD04
  8
0
 10
437.19777829717799
 20
581.65072997825132
 30
0.0
 11
454.69777829717788
 21
581.65072997825132
 31
0.0
  0
LINE
  5
CD05
  8
0
 10
435.19777829717782
 20
568.97701897825129
 30
0.0
 11
435.19777829717782
 21
587.77473497825122
 31
0.0
  0
LINE
  5
CD06
  8
0
 10
250.69777829717799
 20
421.91108597825132
 30
0.0
 11
242.19777829717819
 21
421.91108597825132
 31
0.0
  0
LINE
  5
CD07
  8
0
 10
251.52197329717811
 20
436.83422197825132
 30
0.0
 11
252.29052029717809
 21
428.48682997825119
 31
0.0
  0
LINE
  5
CD08
  8
0
 10
250.69777829717799
 20
432.07361097825128
 30
0.0
 11
251.38055529717801
 21
432.07361097825128
 31
0.0
  0
LINE
  5
CD09
  8
0
 10
250.69777829717799
 20
427.08112597825118
 30
0.0
 11
251.222291297178
 21
427.08112597825118
 31
0.0
  0
LINE
  5
CD0A
  8
0
 10
250.69777829717799
 20
423.86036997825141
 30
0.0
 11
251.05772029717809
 21
423.86036997825141
 31
0.0
  0
LINE
  5
CD0B
  8
0
 10
250.65100129717811
 20
422.29078897825133
 30
0.0
 11
250.881392297178
 21
422.29078897825133
 31
0.0
  0
LINE
  5
CD0C
  8
0
 10
250.92736529717811
 20
436.83422197825132
 30
0.0
 11
252.28543029717801
 21
422.56818897825133
 31
0.0
  0
LINE
  5
CD0D
  8
0
 10
250.69777829717799
 20
432.07361097825128
 30
0.0
 11
252.26961129717799
 21
417.11239997825129
 31
0.0
  0
LINE
  5
CD0E
  8
0
 10
250.69777829717799
 20
427.08112597825118
 30
0.0
 11
252.25908929717809
 21
413.11053497825128
 31
0.0
  0
LINE
  5
CD0F
  8
0
 10
250.69777829717799
 20
423.86036997825141
 30
0.0
 11
252.25099729717809
 21
410.58304197825129
 31
0.0
  0
LINE
  5
CD10
  8
0
 10
250.65100129717811
 20
422.29078897825133
 30
0.0
 11
252.24151729717801
 21
409.38005497825128
 31
0.0
  0
ARC
  5
CD11
  8
0
 10
254.28209629717799
 20
428.67019497825117
 30
0.0
 40
2.0
 50
185.26041100000171
 51
270.0
  0
ARC
  5
CD12
  8
0
 10
254.27642829717809
 20
422.75772397825131
 30
0.0
 40
2.0
 50
185.4379219999999
 51
270.0
  0
ARC
  5
CD13
  8
0
 10
254.258664297178
 20
417.32137097825142
 30
0.0
 40
2.0
 50
185.99752600000051
 51
270.0
  0
ARC
  5
CD14
  8
0
 10
254.2467152971781
 20
413.33266597825133
 30
0.0
 40
2.0
 50
186.37674200000069
 51
270.0
  0
ARC
  5
CD15
  8
0
 10
254.23745129717801
 20
410.81542297825109
 30
0.0
 40
2.0
 50
186.67229399999829
 51
270.0
  0
ARC
  5
CD16
  8
0
 10
254.22651129717801
 20
409.6245929782512
 30
0.0
 40
2.0
 50
187.02306899999959
 51
270.0
  0
LINE
  5
CD17
  8
0
 10
449.69777829717799
 20
521.09108597825127
 30
0.0
 11
447.93777829717789
 21
521.64108597825134
 31
0.0
  0
LINE
  5
CD18
  8
0
 10
449.69777829717799
 20
523.73108597825114
 30
0.0
 11
449.69777829717799
 21
521.09108597825127
 31
0.0
  0
LINE
  5
CD19
  8
0
 10
447.93777829717789
 20
523.24108597825125
 30
0.0
 11
449.69777829717799
 21
523.73108597825114
 31
0.0
  0
LINE
  5
CD1A
  8
0
 10
447.93777829717789
 20
523.24108597825125
 30
0.0
 11
447.93777829717789
 21
521.64108597825134
 31
0.0
  0
LINE
  5
CD1B
  8
0
 10
449.69777829717799
 20
510.09108597825127
 30
0.0
 11
447.93777829717789
 21
510.64108597825128
 31
0.0
  0
LINE
  5
CD1C
  8
0
 10
449.69777829717799
 20
512.73108597825114
 30
0.0
 11
449.69777829717799
 21
510.09108597825127
 31
0.0
  0
LINE
  5
CD1D
  8
0
 10
447.93777829717789
 20
512.24108597825125
 30
0.0
 11
449.69777829717799
 21
512.73108597825114
 31
0.0
  0
LINE
  5
CD1E
  8
0
 10
447.93777829717789
 20
512.24108597825125
 30
0.0
 11
447.93777829717789
 21
510.64108597825128
 31
0.0
  0
LINE
  5
CD1F
  8
0
 10
449.69777829717799
 20
499.09108597825127
 30
0.0
 11
447.93777829717789
 21
499.64108597825128
 31
0.0
  0
LINE
  5
CD20
  8
0
 10
449.69777829717799
 20
501.7310859782512
 30
0.0
 11
449.69777829717799
 21
499.09108597825127
 31
0.0
  0
LINE
  5
CD21
  8
0
 10
447.93777829717789
 20
501.24108597825131
 30
0.0
 11
449.69777829717799
 21
501.7310859782512
 31
0.0
  0
LINE
  5
CD22
  8
0
 10
447.93777829717789
 20
501.24108597825131
 30
0.0
 11
447.93777829717789
 21
499.64108597825128
 31
0.0
  0
LINE
  5
CD23
  8
0
 10
449.69777829717799
 20
488.09108597825127
 30
0.0
 11
447.93777829717789
 21
488.64108597825128
 31
0.0
  0
LINE
  5
CD24
  8
0
 10
449.69777829717799
 20
490.73108597825131
 30
0.0
 11
449.69777829717799
 21
488.09108597825127
 31
0.0
  0
LINE
  5
CD25
  8
0
 10
447.93777829717789
 20
490.24108597825131
 30
0.0
 11
449.69777829717799
 21
490.73108597825131
 31
0.0
  0
LINE
  5
CD26
  8
0
 10
447.93777829717789
 20
490.24108597825131
 30
0.0
 11
447.93777829717789
 21
488.64108597825128
 31
0.0
  0
LINE
  5
CD27
  8
0
 10
449.10944729717789
 20
419.40180597825122
 30
0.0
 11
448.07781829717811
 21
410.58304497825128
 31
0.0
  0
LINE
  5
CD28
  8
0
 10
448.04256129717783
 20
413.11023897825129
 30
0.0
 11
449.09751829717811
 21
422.53722597825129
 31
0.0
  0
LINE
  5
CD29
  8
0
 10
448.06963129717798
 20
417.11109497825129
 30
0.0
 11
449.16854329717768
 21
427.50526897825131
 31
0.0
  0
LINE
  5
CD2A
  8
0
 10
449.21948429717793
 20
434.04188897825128
 30
0.0
 11
448.09420329717773
 21
422.56260497825127
 31
0.0
  0
LINE
  5
CD2B
  8
0
 10
449.26065129717801
 20
441.45163097825127
 30
0.0
 11
448.02793429717798
 21
428.48096997825121
 31
0.0
  0
LINE
  5
CD2C
  8
0
 10
449.16957029717798
 20
418.26547797825128
 30
0.0
 11
448.09753729717778
 21
409.38489997825133
 31
0.0
  0
LINE
  5
CD2D
  8
0
 10
447.93777829717789
 20
479.24108597825131
 30
0.0
 11
447.93777829717789
 21
477.64108597825128
 31
0.0
  0
LINE
  5
CD2E
  8
0
 10
447.93777829717789
 20
479.24108597825131
 30
0.0
 11
449.69777829717799
 21
479.73108597825131
 31
0.0
  0
LINE
  5
CD2F
  8
0
 10
449.69777829717799
 20
479.73108597825131
 30
0.0
 11
449.69777829717799
 21
477.09108597825127
 31
0.0
  0
LINE
  5
CD30
  8
0
 10
449.69777829717799
 20
477.09108597825127
 30
0.0
 11
447.93777829717789
 21
477.64108597825128
 31
0.0
  0
LINE
  5
CD31
  8
0
 10
447.93777829717789
 20
534.24108597825125
 30
0.0
 11
447.93777829717789
 21
532.64108597825134
 31
0.0
  0
LINE
  5
CD32
  8
0
 10
447.93777829717789
 20
534.24108597825125
 30
0.0
 11
449.69777829717799
 21
534.73108597825114
 31
0.0
  0
LINE
  5
CD33
  8
0
 10
449.69777829717799
 20
534.73108597825114
 30
0.0
 11
449.69777829717799
 21
532.09108597825139
 31
0.0
  0
LINE
  5
CD34
  8
0
 10
449.69777829717799
 20
532.09108597825139
 30
0.0
 11
447.93777829717789
 21
532.64108597825134
 31
0.0
  0
LINE
  5
CD35
  8
0
 10
399.6546542971779
 20
532.09108597825139
 30
0.0
 11
399.6546542971779
 21
523.73108597825114
 31
0.0
  0
LINE
  5
CD36
  8
0
 10
415.69777729717782
 20
532.09108597825139
 30
0.0
 11
415.69777729717782
 21
523.73108597825114
 31
0.0
  0
LINE
  5
CD37
  8
0
 10
415.69777729717782
 20
521.09108597825127
 30
0.0
 11
415.69777729717782
 21
512.73108597825114
 31
0.0
  0
LINE
  5
CD38
  8
0
 10
399.6546542971779
 20
521.09108597825127
 30
0.0
 11
399.6546542971779
 21
513.6116089782513
 31
0.0
  0
LINE
  5
CD39
  8
0
 10
415.69777729717782
 20
510.09108597825127
 30
0.0
 11
415.69777729717782
 21
501.7310859782512
 31
0.0
  0
LINE
  5
CD3A
  8
0
 10
415.69777729717782
 20
499.09108597825127
 30
0.0
 11
415.69777729717782
 21
490.73108597825131
 31
0.0
  0
LINE
  5
CD3B
  8
0
 10
399.6546542971779
 20
488.09108597825127
 30
0.0
 11
399.6546542971779
 21
479.73108597825131
 31
0.0
  0
LINE
  5
CD3C
  8
0
 10
415.69777729717782
 20
488.09108597825127
 30
0.0
 11
415.69777729717782
 21
479.73108597825131
 31
0.0
  0
LINE
  5
CD3D
  8
0
 10
415.69777729717782
 20
477.09108597825127
 30
0.0
 11
415.69777729717782
 21
461.30263997825131
 31
0.0
  0
LINE
  5
CD3E
  8
0
 10
399.6546542971779
 20
477.09108597825127
 30
0.0
 11
399.6546542971779
 21
445.78601697825133
 31
0.0
  0
LINE
  5
CD3F
  8
0
 10
449.26065129717801
 20
441.45163097825127
 30
0.0
 11
415.69777729717782
 21
441.45163097825127
 31
0.0
  0
LINE
  5
CD40
  8
0
 10
449.21948429717793
 20
434.04188897825128
 30
0.0
 11
448.55643829717758
 21
434.04188897825128
 31
0.0
  0
ARC
  5
CD41
  8
0
 10
446.03690629717778
 20
428.67019497825117
 30
0.0
 40
2.0
 50
270.0
 51
354.57098100000121
  0
ARC
  5
CD42
  8
0
 10
446.10374429717808
 20
422.75772397825131
 30
0.0
 40
2.0
 50
270.0
 51
354.40134700000141
  0
ARC
  5
CD43
  8
0
 10
446.08071629717801
 20
417.32137097825142
 30
0.0
 40
2.0
 50
270.0
 51
353.96488600000072
  0
ARC
  5
CD44
  8
0
 10
446.05496829717788
 20
413.33266597825133
 30
0.0
 40
2.0
 50
270.0
 51
353.61470099999991
  0
ARC
  5
CD45
  8
0
 10
446.09136429717807
 20
410.81542297825109
 30
0.0
 40
2.0
 50
270.0
 51
353.32780000000082
  0
ARC
  5
CD46
  8
0
 10
446.11195329717759
 20
409.6245929782512
 30
0.0
 40
2.0
 50
270.0
 51
353.11676000000102
  0
LINE
  5
CD47
  8
0
 10
449.16854329717768
 20
427.50526897825131
 30
0.0
 11
448.57871829717811
 21
427.50526897825131
 31
0.0
  0
LINE
  5
CD48
  8
0
 10
449.09751829717811
 20
422.53722597825129
 30
0.0
 11
448.64330329717779
 21
422.53722597825129
 31
0.0
  0
LINE
  5
CD49
  8
0
 10
449.10944729717789
 20
419.40180597825122
 30
0.0
 11
448.74663929717792
 21
419.40180597825122
 31
0.0
  0
LINE
  5
CD4A
  8
0
 10
449.16957029717798
 20
418.26547797825128
 30
0.0
 11
448.97651829717807
 21
418.26547797825128
 31
0.0
  0
LINE
  5
CD4B
  8
0
 10
451.69777829717759
 20
466.18837997825131
 30
0.0
 11
435.19777829717782
 21
466.18837997825131
 31
0.0
  0
LINE
  5
CD4C
  8
0
 10
454.69777829717788
 20
456.00908797825127
 30
0.0
 11
437.19777829717799
 21
456.00908797825127
 31
0.0
  0
LINE
  5
CD4D
  8
0
 10
454.69777829717788
 20
443.72180697825132
 30
0.0
 11
437.19777829717799
 21
443.72180697825132
 31
0.0
  0
LINE
  5
CD4E
  8
0
 10
435.19777829717782
 20
465.18837997825108
 30
0.0
 11
435.19777829717782
 21
445.72180697825132
 31
0.0
  0
LINE
  5
CD4F
  8
0
 10
451.69777829717759
 20
466.18837997825131
 30
0.0
 11
454.69777829717788
 21
467.9204309782512
 31
0.0
  0
ARC
  5
CD50
  8
0
 10
437.19777829717799
 20
458.00908797825127
 30
0.0
 40
2.0
 50
180.0
 51
270.0
  0
ARC
  5
CD51
  8
0
 10
437.19777829717799
 20
445.72180697825132
 30
0.0
 40
2.0
 50
180.0
 51
270.0
  0
ARC
  5
CD52
  8
0
 10
437.19777829717799
 20
454.00908797825127
 30
0.0
 40
2.0
 50
90.0
 51
180.0
  0
LINE
  5
CD53
  8
0
 10
415.69777729717782
 20
449.8902899782513
 30
0.0
 11
415.69777729717782
 21
441.45163097825127
 31
0.0
  0
LINE
  5
CD54
  8
0
 10
399.6546542971779
 20
445.78601697825133
 30
0.0
 11
415.69777729717782
 21
441.45163097825127
 31
0.0
  0
ARC
  5
CD55
  8
0
 10
434.19777829717782
 20
465.18837997825108
 30
0.0
 40
1.0
 50
0.0
 51
90.0
  0
LINE
  5
CD56
  8
0
 10
399.6546542971779
 20
445.78601697825133
 30
0.0
 11
394.6842472971781
 21
445.78601697825133
 31
0.0
  0
LINE
  5
CD57
  8
0
 10
446.11195329717759
 20
407.62459297825131
 30
0.0
 11
254.22651129717801
 21
407.62459297825131
 31
0.0
  0
LINE
  5
CD58
  8
0
 10
446.09136429717807
 20
408.81542297825132
 30
0.0
 11
254.23745129717801
 21
408.81542297825132
 31
0.0
  0
LINE
  5
CD59
  8
0
 10
446.05496829717788
 20
411.33266597825133
 30
0.0
 11
254.2467152971781
 21
411.33266597825133
 31
0.0
  0
LINE
  5
CD5A
  8
0
 10
446.08071629717801
 20
415.32137097825108
 30
0.0
 11
254.258664297178
 21
415.32137097825108
 31
0.0
  0
LINE
  5
CD5B
  8
0
 10
446.10374429717808
 20
420.75772397825131
 30
0.0
 11
254.27642829717809
 21
420.75772397825131
 31
0.0
  0
LINE
  5
CD5C
  8
0
 10
446.03690629717778
 20
426.67019497825129
 30
0.0
 11
254.28209629717799
 21
426.67019497825129
 31
0.0
  0
LINE
  5
CD5D
  8
0
 10
399.6546542971779
 20
579.74856097825125
 30
0.0
 11
399.6546542971779
 21
565.77108597825122
 31
0.0
  0
LINE
  5
CD5E
  8
0
 10
415.69777729717782
 20
584.34842297825139
 30
0.0
 11
415.69777729717782
 21
581.76387297825136
 31
0.0
  0
LINE
  5
CD5F
  8
0
 10
395.21015029717807
 20
534.73108597825114
 30
0.0
 11
449.69777829717799
 21
534.73108597825114
 31
0.0
  0
LINE
  5
CD60
  8
0
 10
395.21048429717803
 20
534.24108597825125
 30
0.0
 11
447.93777829717789
 21
534.24108597825125
 31
0.0
  0
LINE
  5
CD61
  8
0
 10
395.211575297178
 20
532.64108597825134
 30
0.0
 11
447.93777829717789
 21
532.64108597825134
 31
0.0
  0
LINE
  5
CD62
  8
0
 10
395.21195029717808
 20
532.09108597825139
 30
0.0
 11
449.69777829717799
 21
532.09108597825139
 31
0.0
  0
LINE
  5
CD63
  8
0
 10
395.19823829717802
 20
479.73108597825131
 30
0.0
 11
449.69777829717799
 21
479.73108597825131
 31
0.0
  0
LINE
  5
CD64
  8
0
 10
395.1977782971781
 20
479.24108597825131
 30
0.0
 11
447.93777829717789
 21
479.24108597825131
 31
0.0
  0
LINE
  5
CD65
  8
0
 10
395.1977782971781
 20
477.64108597825128
 30
0.0
 11
447.93777829717789
 21
477.64108597825128
 31
0.0
  0
LINE
  5
CD66
  8
0
 10
395.1977782971781
 20
477.09108597825127
 30
0.0
 11
449.69777829717799
 21
477.09108597825127
 31
0.0
  0
LINE
  5
CD67
  8
0
 10
402.80731229717799
 20
510.09108597825127
 30
0.0
 11
449.69777829717799
 21
510.09108597825127
 31
0.0
  0
LINE
  5
CD68
  8
0
 10
402.43564129717782
 20
510.64108597825128
 30
0.0
 11
447.93777829717789
 21
510.64108597825128
 31
0.0
  0
LINE
  5
CD69
  8
0
 10
400.13156229717788
 20
490.73108597825131
 30
0.0
 11
449.69777829717799
 21
490.73108597825131
 31
0.0
  0
LINE
  5
CD6A
  8
0
 10
399.61186829717809
 20
490.24108597825131
 30
0.0
 11
447.93777829717789
 21
490.24108597825131
 31
0.0
  0
LINE
  5
CD6B
  8
0
 10
398.21836129717798
 20
488.64108597825128
 30
0.0
 11
447.93777829717789
 21
488.64108597825128
 31
0.0
  0
LINE
  5
CD6C
  8
0
 10
397.82307029717788
 20
488.09108597825127
 30
0.0
 11
449.69777829717799
 21
488.09108597825127
 31
0.0
  0
LINE
  5
CD6D
  8
0
 10
405.19440329717759
 20
501.7310859782512
 30
0.0
 11
449.69777829717799
 21
501.7310859782512
 31
0.0
  0
LINE
  5
CD6E
  8
0
 10
405.17861029717812
 20
501.24108597825131
 30
0.0
 11
447.93777829717789
 21
501.24108597825131
 31
0.0
  0
LINE
  5
CD6F
  8
0
 10
405.0145242971779
 20
499.64108597825128
 30
0.0
 11
447.93777829717789
 21
499.64108597825128
 31
0.0
  0
LINE
  5
CD70
  8
0
 10
404.91759129717792
 20
499.09108597825127
 30
0.0
 11
449.69777829717799
 21
499.09108597825127
 31
0.0
  0
LINE
  5
CD71
  8
0
 10
395.22848729717811
 20
523.73108597825114
 30
0.0
 11
449.69777829717799
 21
523.73108597825114
 31
0.0
  0
LINE
  5
CD72
  8
0
 10
395.25549029717808
 20
523.24108597825125
 30
0.0
 11
447.93777829717789
 21
523.24108597825125
 31
0.0
  0
LINE
  5
CD73
  8
0
 10
395.4568512971781
 20
521.64108597825134
 30
0.0
 11
447.93777829717789
 21
521.64108597825134
 31
0.0
  0
LINE
  5
CD74
  8
0
 10
395.567009297178
 20
521.09108597825127
 30
0.0
 11
449.69777829717799
 21
521.09108597825127
 31
0.0
  0
LINE
  5
CD75
  8
0
 10
400.64555229717791
 20
512.73108597825114
 30
0.0
 11
449.69777829717799
 21
512.73108597825114
 31
0.0
  0
LINE
  5
CD76
  8
0
 10
401.12758029717799
 20
512.24108597825125
 30
0.0
 11
447.93777829717789
 21
512.24108597825125
 31
0.0
  0
LINE
  5
CD78
  8
0
 10
451.69777829717759
 20
417.91108597825132
 30
0.0
 11
451.69777829717759
 21
443.72180697825132
 31
0.0
  0
LINE
  5
CD79
  8
0
 10
449.12678929717811
 20
417.91108597825132
 30
0.0
 11
451.69777829717759
 21
417.91108597825132
 31
0.0
  0
LINE
  5
CD7A
  8
0
 10
449.69777829717799
 20
565.77108597825122
 30
0.0
 11
447.93777829717789
 21
565.21108597825128
 31
0.0
  0
LINE
  5
CD7B
  8
0
 10
447.93777829717789
 20
563.61108597825137
 30
0.0
 11
449.69777829717799
 21
563.07108597825129
 31
0.0
  0
LINE
  5
CD7C
  8
0
 10
449.69777829717799
 20
563.07108597825129
 30
0.0
 11
449.69777829717799
 21
565.77108597825122
 31
0.0
  0
LINE
  5
CD7D
  8
0
 10
447.93777829717789
 20
563.61108597825137
 30
0.0
 11
447.93777829717789
 21
565.21108597825128
 31
0.0
  0
LINE
  5
CD7E
  8
0
 10
449.69777829717799
 20
557.72608597825126
 30
0.0
 11
447.93777829717789
 21
557.18608597825096
 31
0.0
  0
LINE
  5
CD7F
  8
0
 10
447.93777829717789
 20
555.58608597825105
 30
0.0
 11
449.69777829717799
 21
555.09608597825115
 31
0.0
  0
LINE
  5
CD80
  8
0
 10
447.93777829717789
 20
555.58608597825105
 30
0.0
 11
447.93777829717789
 21
557.18608597825096
 31
0.0
  0
LINE
  5
CD81
  8
0
 10
449.69777829717799
 20
555.09608597825115
 30
0.0
 11
449.69777829717799
 21
557.72608597825126
 31
0.0
  0
LINE
  5
CD82
  8
0
 10
384.69777829717799
 20
566.03527297825121
 30
0.0
 11
383.07586929717809
 21
583.10101597825121
 31
0.0
  0
LINE
  5
CD83
  8
0
 10
384.69777829717799
 20
572.57620897825132
 30
0.0
 11
383.07725529717789
 21
589.10757697825136
 31
0.0
  0
LINE
  5
CD84
  8
0
 10
129.756311297178
 20
571.24305597825128
 30
0.0
 11
134.75740929717799
 21
599.6056659782513
 31
0.0
  0
LINE
  5
CD85
  8
0
 10
137.47762429717801
 20
596.47682097825123
 30
0.0
 11
137.47762429717801
 21
507.58897397825132
 31
0.0
  0
ARC
  5
CD86
  8
0
 10
138.696649297178
 20
598.91108597825132
 30
0.0
 40
4.0
 50
90.0
 51
170.00018299999911
  0
LINE
  5
CD87
  8
0
 10
129.69777829717799
 20
563.51106197825129
 30
0.0
 11
129.69777829717799
 21
477.20005797825121
 31
0.0
  0
ARC
  5
CD88
  8
0
 10
130.69777829717799
 20
567.91108597825132
 30
0.0
 40
3.0
 50
118.7876889999995
 51
180.0
  0
LINE
  5
CD89
  8
0
 10
127.697778297178
 20
567.91108597825132
 30
0.0
 11
127.697778297178
 21
456.05937197825131
 31
0.0
  0
LINE
  5
CD8A
  8
0
 10
137.47762429717801
 20
495.7304609782513
 30
0.0
 11
137.47762429717801
 21
424.89912297825128
 31
0.0
  0
LINE
  5
CD8B
  8
0
 10
131.3857972971781
 20
431.33776397825142
 30
0.0
 11
132.99413429717799
 21
422.21650597825129
 31
0.0
  0
ARC
  5
CD8C
  8
0
 10
136.93337429717801
 20
422.91108597825132
 30
0.0
 40
4.0
 50
189.99983199999991
 51
270.0
  0
ARC
  5
CD8D
  8
0
 10
128.771508297178
 20
571.41676197825132
 30
0.0
 40
1.0
 50
298.7879640000001
 51
350.00021399999918
  0
LINE
  5
CD8E
  8
0
 10
131.75514329717799
 20
498.94710797825132
 30
0.0
 11
124.711114297178
 21
424.48930497825131
 31
0.0
  0
LINE
  5
CD8F
  8
0
 10
137.72847229717809
 20
498.38200497825119
 30
0.0
 11
130.68444229717801
 21
423.92420197825129
 31
0.0
  0
ARC
  5
CD90
  8
0
 10
142.70624629717801
 20
497.91108597825132
 30
0.0
 40
5.0
 50
90.0
 51
174.59565700000161
  0
ARC
  5
CD91
  8
0
 10
142.70624629717801
 20
497.91108597825132
 30
0.0
 40
11.0
 50
90.0
 51
174.59565700000161
  0
ARC
  5
CD92
  8
0
 10
127.697778297178
 20
424.2067529782513
 30
0.0
 40
3.0
 50
174.59565700000161
 51
354.59565700000172
  0
ARC
  5
CD93
  8
0
 10
127.697778297178
 20
424.2067529782513
 30
0.0
 40
3.799999999999998
 50
220.00000000000011
 51
32.140571999997661
  0
LINE
  5
CD94
  8
0
 10
122.31402529717801
 20
425.56358097825108
 30
0.0
 11
124.728568297178
 21
421.84289497825131
 31
0.0
  0
LINE
  5
CD95
  8
0
 10
122.93148829717801
 20
426.08169397825128
 30
0.0
 11
125.399645297178
 21
422.27838997825143
 31
0.0
  0
LINE
  5
CD96
  8
0
 10
122.93148829717801
 20
426.08169397825128
 30
0.0
 11
122.31402529717801
 21
425.56358097825108
 31
0.0
  0
LINE
  5
CD97
  8
0
 10
251.96245729717799
 20
579.74856097825125
 30
0.0
 11
250.69777829717799
 21
579.74856097825125
 31
0.0
  0
LINE
  5
CD98
  8
0
 10
250.69777829717799
 20
565.77108597825122
 30
0.0
 11
252.00792429717811
 21
565.35422197825119
 31
0.0
  0
LINE
  5
CD99
  8
0
 10
250.69777829717799
 20
565.35422197825119
 30
0.0
 11
250.69777829717799
 21
565.77108597825122
 31
0.0
  0
LINE
  5
CD9A
  8
0
 10
242.1977782971779
 20
589.53138297825114
 30
0.0
 11
250.97453729717799
 21
589.53138297825114
 31
0.0
  0
LINE
  5
CD9B
  8
0
 10
225.69777829717799
 20
519.31411497825138
 30
0.0
 11
225.69777829717799
 21
494.92808597825132
 31
0.0
  0
LINE
  5
CD9C
  8
0
 10
211.19777829717799
 20
508.41108597825132
 30
0.0
 11
229.65089076670199
 21
508.41108597825132
 31
0.0
  0
ARC
  5
CD9D
  8
0
 10
225.69777829717799
 20
505.91108597825132
 30
0.0
 40
9.0
 50
43.898216756325418
 51
163.8723909999996
  0
ARC
  5
CD9E
  8
0
 10
225.69777829717799
 20
505.91108597825132
 30
0.0
 40
5.5
 50
37.234941055981601
 51
152.9643079999984
  0
LINE
  5
CD9F
  8
0
 10
211.19777829717799
 20
503.41108597825132
 30
0.0
 11
228.26652415344469
 21
503.41108597825132
 31
0.0
  0
ARC
  5
CDA0
  8
0
 10
225.69777829717799
 20
505.91108597825132
 30
0.0
 40
9.0
 50
196.1276090000004
 51
290.7110054129422
  0
ARC
  5
CDA1
  8
0
 10
225.69777829717799
 20
505.91108597825132
 30
0.0
 40
5.5
 50
207.0356920000016
 51
297.3742811132829
  0
LINE
  5
CDA2
  8
0
 10
242.19777829717799
 20
602.91108597825121
 30
0.0
 11
242.19777829717799
 21
562.02021474637831
 31
0.0
  0
LINE
  5
CDA3
  8
0
 10
211.19777829717799
 20
508.41108597825132
 30
0.0
 11
210.69777829717799
 21
508.91108597825132
 31
0.0
  0
LINE
  5
CDA4
  8
0
 10
211.19777829717799
 20
503.41108597825132
 30
0.0
 11
210.69777829717799
 21
502.91108597825121
 31
0.0
  0
LINE
  5
CDA5
  8
0
 10
336.6977782971781
 20
606.91108597825121
 30
0.0
 11
358.69777829717799
 21
606.91108597825121
 31
0.0
  0
LINE
  5
CDA6
  8
0
 10
336.6977782971781
 20
606.91108597825121
 30
0.0
 11
336.6977782971781
 21
603.0078049782511
 31
0.0
  0
LINE
  5
CDA7
  8
0
 10
358.69777829717799
 20
606.91108597825121
 30
0.0
 11
358.69777829717799
 21
603.0078049782511
 31
0.0
  0
LINE
  5
CDA8
  8
0
 10
210.69777829717799
 20
502.91108597825121
 30
0.0
 11
142.70624629717801
 21
502.91108597825121
 31
0.0
  0
LINE
  5
CDA9
  8
0
 10
242.19777829717799
 20
418.91108597825132
 30
0.0
 11
136.93337429717801
 21
418.91108597825132
 31
0.0
  0
LINE
  5
CDAA
  8
0
 10
242.19777829717799
 20
602.91108597825121
 30
0.0
 11
138.696649297178
 21
602.91108597825121
 31
0.0
  0
LINE
  5
CDAB
  8
0
 10
389.06269729717798
 20
563.61108597825137
 30
0.0
 11
447.93777829717789
 21
563.61108597825137
 31
0.0
  0
LINE
  5
CDAC
  8
0
 10
384.58124629717798
 20
565.21108597825128
 30
0.0
 11
447.93777829717789
 21
565.21108597825128
 31
0.0
  0
LINE
  5
CDAD
  8
0
 10
389.89751829717812
 20
563.07108597825129
 30
0.0
 11
449.69777829717799
 21
563.07108597825129
 31
0.0
  0
LINE
  5
CDAE
  8
0
 10
250.69777829717799
 20
565.77108597825122
 30
0.0
 11
449.69777829717799
 21
565.77108597825122
 31
0.0
  0
LINE
  5
CDAF
  8
0
 10
394.99461629717803
 20
555.09608597825115
 30
0.0
 11
449.69777829717799
 21
555.09608597825115
 31
0.0
  0
LINE
  5
CDB0
  8
0
 10
394.2082932971781
 20
557.72608597825126
 30
0.0
 11
449.69777829717799
 21
557.72608597825126
 31
0.0
  0
LINE
  5
CDB1
  8
0
 10
394.895021297178
 20
555.58608597825105
 30
0.0
 11
447.93777829717789
 21
555.58608597825105
 31
0.0
  0
LINE
  5
CDB2
  8
0
 10
394.42228029717791
 20
557.18608597825096
 30
0.0
 11
447.93777829717789
 21
557.18608597825096
 31
0.0
  0
LINE
  5
CDB3
  8
0
 10
454.69777829717788
 20
420.91108597825132
 30
0.0
 11
451.69777829717759
 21
417.91108597825132
 31
0.0
  0
LINE
  5
CDB4
  8
0
 10
454.69777829717788
 20
420.91108597825132
 30
0.0
 11
454.69777829717788
 21
590.91108597825132
 31
0.0
  0
LINE
  5
CDB5
  8
0
 10
454.69777829717788
 20
590.91108597825132
 30
0.0
 11
451.69777829717759
 21
593.91108597825132
 31
0.0
  0
LINE
  5
CEA0
  8
0
 10
395.46277829717809
 20
495.41422197825142
 30
0.0
 11
395.46277829717809
 21
508.68422197825129
 31
0.0
  0
LINE
  5
D9DC
  8
0
  6
CONTINUOUS
 62
     0
 10
454.69777829717788
 20
839.25831453028502
 30
0.0
 11
494.19780829717757
 21
839.25831453028502
 31
0.0
  0
LINE
  5
D9DD
  8
0
  6
CONTINUOUS
 62
     0
 10
454.69777829717788
 20
829.07902253028533
 30
0.0
 11
494.19780829717757
 21
829.07902253028533
 31
0.0
  0
LINE
  5
D9DE
  8
0
  6
CONTINUOUS
 62
     0
 10
454.69777829717788
 20
816.77138353028477
 30
0.0
 11
494.19780829717757
 21
816.77138353028477
 31
0.0
  0
LINE
  5
D9DF
  8
0
  6
CONTINUOUS
 62
     0
 10
454.69777829717788
 20
941.04698253028516
 30
0.0
 11
494.19780829717757
 21
941.04698253028516
 31
0.0
  0
LINE
  5
D9E0
  8
0
  6
CONTINUOUS
 62
     0
 10
454.69777829717788
 20
954.72066453028515
 30
0.0
 11
494.19780829717757
 21
954.72066453028515
 31
0.0
  0
LINE
  5
D9E1
  8
0
  6
AM_ISO08W050
 10
110.59942344081939
 20
878.98102053028538
 30
0.0
 11
722.21171829717775
 21
878.98102053028538
 31
0.0
  0
LINE
  5
D9E2
  8
0
  6
CONTINUOUS
 62
     0
 10
510.12803829717762
 20
1007.7248005302851
 30
0.0
 11
521.19780829717763
 21
1008.111390530285
 31
0.0
  0
LINE
  5
D9E3
  8
0
  6
CONTINUOUS
 62
     0
 10
494.19780829717757
 20
764.87299053028539
 30
0.0
 11
494.19780829717757
 21
874.98096053028462
 31
0.0
  0
LINE
  5
D9E4
  8
0
  6
CONTINUOUS
 62
     0
 10
508.19767829717779
 20
742.77118053028539
 30
0.0
 11
508.19767829717779
 21
869.44159053028523
 31
0.0
  0
LINE
  5
D9E5
  8
0
  6
CONTINUOUS
 62
     0
 10
496.67686829717758
 20
996.06000053028504
 30
0.0
 11
505.71873829717828
 21
997.6543605302852
 31
0.0
  0
LINE
  5
D9F9
  8
0
  6
CONTINUOUS
 62
     0
 10
511.06139251051172
 20
739.77427776503691
 30
0.0
 11
521.19797735755139
 21
739.24304523514343
 31
0.0
  0
LINE
  5
D9FD
  8
0
  6
CONTINUOUS
 62
     0
 10
521.19780829717763
 20
739.24299053028517
 30
0.0
 11
521.19780829717763
 21
874.98096053028462
 31
0.0
  0
LINE
  5
DA21
  8
0
  6
CONTINUOUS
 62
     0
 10
510.12797829717778
 20
750.23725053028465
 30
0.0
 11
521.19780829717763
 21
749.85065053028507
 31
0.0
  0
LINE
  5
DA22
  8
0
  6
CONTINUOUS
 62
     0
 10
496.67680829717852
 20
761.90198053028507
 30
0.0
 11
505.71873829717828
 21
760.30762053028491
 31
0.0
  0
LINE
  5
DA24
  8
0
  6
CENTER
 62
     0
 10
505.19780829717757
 20
862.2726505302852
 30
0.0
 11
505.19780829717757
 21
893.58588053028484
 31
0.0
  0
LINE
  5
DA25
  8
0
  6
CONTINUOUS
 62
     0
 10
488.69780829717757
 20
874.98096053028462
 30
0.0
 11
521.69780829717763
 21
874.98096053028462
 31
0.0
  0
LINE
  5
DA26
  8
0
  6
CONTINUOUS
 62
     0
 10
488.69780829717757
 20
882.98096053028462
 30
0.0
 11
521.69780829717763
 21
882.98096053028462
 31
0.0
  0
LINE
  5
DA27
  8
0
  6
CONTINUOUS
 62
     0
 10
521.19780829717763
 20
882.98096053028462
 30
0.0
 11
521.19780829717763
 21
1018.718940530285
 31
0.0
  0
LINE
  5
DA28
  8
0
  6
CONTINUOUS
 62
     0
 10
508.19767829717779
 20
888.52039053028511
 30
0.0
 11
508.19767829717779
 21
1015.190740530285
 31
0.0
  0
LINE
  5
DA29
  8
0
  6
CONTINUOUS
 62
     0
 10
494.19780829717757
 20
882.98096053028462
 30
0.0
 11
494.19780829717757
 21
993.12214053028515
 31
0.0
  0
LINE
  5
DA2C
  8
0
  6
CONTINUOUS
 62
     0
 10
454.69777829717788
 20
794.98102053028538
 30
0.0
 11
454.69777829717788
 21
962.9810205302847
 31
0.0
  0
LINE
  5
DA2D
  8
0
  6
CONTINUOUS
 62
     0
 10
490.33732829717758
 20
793.82374053028514
 30
0.0
 11
454.69777829717788
 21
795.06826066971394
 31
0.0
  0
LINE
  5
DA2E
  8
0
  6
CONTINUOUS
 62
     0
 10
490.3373882971776
 20
964.13825053028461
 30
0.0
 11
454.69777829717788
 21
962.8936552681572
 31
0.0
  0
ARC
  5
DA33
  8
0
  6
CONTINUOUS
 62
     0
 10
510.19780829717757
 20
1005.725960530285
 30
0.0
 40
2.0
 50
91.999997999994051
 51
180.000010000001
  0
ARC
  5
DA34
  8
0
  6
CONTINUOUS
 62
     0
 10
497.19780829717757
 20
993.10553053028525
 30
0.0
 40
3.0
 50
100.000000000005
 51
180.000010000001
  0
ARC
  5
DA35
  8
0
  6
CONTINUOUS
 62
     0
 10
505.19780829717757
 20
1000.608710530285
 30
0.0
 40
3.0
 50
280.00001000000123
 51
0.0
  0
ARC
  5
DA69
  8
0
  6
CONTINUOUS
 62
     0
 10
511.19767829717728
 20
1015.190740530285
 30
0.0
 40
3.0
 50
92.999998999995213
 51
180.000010000001
  0
ARC
  5
DA6A
  8
0
  6
CONTINUOUS
 62
     0
 10
510.19780829717757
 20
752.23603053028535
 30
0.0
 40
2.0
 50
179.999989999999
 51
268.00000999999207
  0
ARC
  5
DA6B
  8
0
  6
CONTINUOUS
 62
     0
 10
497.19780829717757
 20
764.85639053028524
 30
0.0
 40
3.0
 50
179.999989999999
 51
259.999999999995
  0
ARC
  5
DA6C
  8
0
  6
CONTINUOUS
 62
     0
 10
505.19780829717757
 20
757.35328053028513
 30
0.0
 40
3.0
 50
0.0
 51
79.999998000001099
  0
ARC
  5
DA6D
  8
0
  6
CONTINUOUS
 62
     0
 10
511.19767829717728
 20
742.77118053028539
 30
0.0
 40
3.0
 50
180.00001000000091
 51
267.39623709213379
  0
ARC
  5
DA6F
  8
0
  6
CONTINUOUS
 62
     0
 10
505.19780829717757
 20
878.98102053028538
 30
0.0
 40
10.0
 50
23.578037000006329
 51
156.42195999999231
  0
ARC
  5
DA70
  8
0
  6
CONTINUOUS
 62
     0
 10
488.69780829717757
 20
878.98096053028473
 30
0.0
 40
3.9999962
 50
90.000002999984659
 51
270.0
  0
ARC
  5
DA71
  8
0
  6
CONTINUOUS
 62
     0
 10
521.69780829717763
 20
878.98096053028473
 30
0.0
 40
3.9999962
 50
270.0
 51
90.000002999984659
  0
ARC
  5
DA72
  8
0
  6
CONTINUOUS
 62
     0
 10
505.19780829717757
 20
878.98102053028538
 30
0.0
 40
10.0
 50
203.57826999999861
 51
336.4217200000013
  0
ARC
  5
DA73
  8
0
  6
CONTINUOUS
 62
     0
 10
490.19780829717757
 20
789.82618053028523
 30
0.0
 40
4.0
 50
0.0
 51
87.999999999996248
  0
ARC
  5
DA74
  8
0
  6
CONTINUOUS
 62
     0
 10
490.19780829717757
 20
968.1358105302852
 30
0.0
 40
4.0
 50
272.00000000000369
 51
0.0
  0
LINE
  5
DA83
  8
0
 62
     0
 10
454.69777829717788
 20
793.98102053028538
 30
0.0
 11
454.69777829717788
 21
963.98102053028504
 31
0.0
  0
ARC
  5
DA84
  8
0
 10
235.5307782971781
 20
751.80500053028516
 30
0.0
 40
7.3402899999999969
 50
116.67697999999911
 51
177.34798000000251
  0
ARC
  5
DA85
  8
0
 10
225.40480829717811
 20
771.06501053028524
 30
0.0
 40
15.0
 50
316.51494999999102
 51
336.88495000000182
  0
ARC
  5
DA86
  8
0
 10
235.5307782971781
 20
745.15705053028535
 30
0.0
 40
7.3402899999999969
 50
182.65198000000061
 51
265.23795999998953
  0
ARC
  5
DA87
  8
0
 10
235.5307782971781
 20
744.47797053028523
 30
0.0
 40
7.3402899999999969
 50
94.761785000011997
 51
177.34798000000251
  0
ARC
  5
DA88
  8
0
 10
225.40480829717811
 20
763.7379805302852
 30
0.0
 40
15.0
 50
316.51494999999102
 51
336.88495000000182
  0
ARC
  5
DA89
  8
0
 10
239.103778297178
 20
757.44501053028523
 30
0.0
 40
5.8039399999999972
 50
283.12597000000932
 51
344.53994999999787
  0
ARC
  5
DA8A
  8
0
 10
250.69777829717799
 20
755.27094053028509
 30
0.0
 40
6.0
 50
89.999989000004106
 51
179.99997999999789
  0
ARC
  5
DA8B
  8
0
 10
250.69777829717799
 20
752.9419605302852
 30
0.0
 40
12.5
 50
89.999989000004106
 51
156.88497999999879
  0
ARC
  5
DA8C
  8
0
 10
397.86378829717802
 20
751.80500053028516
 30
0.0
 40
7.3402899999999969
 50
2.6518660000028751
 51
63.32309399999528
  0
ARC
  5
DA8D
  8
0
 10
407.98976829717822
 20
771.06501053028524
 30
0.0
 40
15.0
 50
203.1149699999892
 51
223.48497000000251
  0
ARC
  5
DA8E
  8
0
 10
397.86378829717802
 20
745.15705053028535
 30
0.0
 40
7.3402899999999969
 50
274.76196000001192
 51
357.34795000000082
  0
ARC
  5
DA8F
  8
0
 10
397.86378829717802
 20
744.47797053028523
 30
0.0
 40
7.3402899999999969
 50
2.6518660000028751
 51
85.238185999988175
  0
ARC
  5
DA90
  8
0
 10
407.98976829717822
 20
763.7379805302852
 30
0.0
 40
15.0
 50
203.1149699999892
 51
223.48497000000251
  0
ARC
  5
DA91
  8
0
 10
394.29176829717829
 20
732.19001053028524
 30
0.0
 40
5.8039399999999972
 50
103.12598999998779
 51
164.539980000002
  0
ARC
  5
DA92
  8
0
 10
394.29176829717829
 20
757.44501053028523
 30
0.0
 40
5.8039399999999972
 50
195.4599800000006
 51
256.87396999999709
  0
ARC
  5
DA93
  8
0
 10
239.103778297178
 20
732.19001053028524
 30
0.0
 40
5.8039399999999972
 50
15.459701000003831
 51
76.873785999998731
  0
ARC
  5
DA94
  8
0
 10
250.69777829717799
 20
725.98102053028515
 30
0.0
 40
6.0
 50
179.99997999999789
 51
269.9999499999949
  0
ARC
  5
DA95
  8
0
 10
250.69777829717799
 20
730.53959453028506
 30
0.0
 40
12.5
 50
179.99997999999789
 51
269.9999499999949
  0
ARC
  5
DA96
  8
0
 10
382.6977782971781
 20
725.98102053028515
 30
0.0
 40
6.0
 50
269.99995999999589
 51
359.9999500000016
  0
ARC
  5
DA97
  8
0
 10
382.6977782971781
 20
730.53959453028506
 30
0.0
 40
12.5
 50
269.99995999999589
 51
359.9999500000016
  0
ARC
  5
DA98
  8
0
 10
382.6977782971781
 20
755.27094053028509
 30
0.0
 40
6.0
 50
0.0
 51
89.999989000004106
  0
ARC
  5
DA99
  8
0
 10
382.6977782971781
 20
752.9419605302852
 30
0.0
 40
12.5
 50
23.114595000003099
 51
89.999989000004106
  0
ARC
  5
DA9A
  8
0
 10
249.69777829717799
 20
767.98102053028515
 30
0.0
 40
6.0
 50
89.999989000004106
 51
147.54197999998669
  0
ARC
  5
DA9B
  8
0
 10
250.69777829717799
 20
760.26899053028524
 30
0.0
 40
12.5
 50
89.999989000004106
 51
156.9299800000019
  0
ARC
  5
DA9C
  8
0
 10
383.69777829717799
 20
767.98102053028515
 30
0.0
 40
6.0
 50
32.458496999997593
 51
89.999989000004106
  0
ARC
  5
DA9D
  8
0
 10
382.6977782971781
 20
760.26899053028524
 30
0.0
 40
12.5
 50
23.114595000003099
 51
89.999989000004106
  0
LINE
  5
DA9E
  8
0
 10
385.1977782971781
 20
773.78998053028522
 30
0.0
 11
385.1977782971781
 21
776.98102053028538
 31
0.0
  0
LINE
  5
DA9F
  8
0
 10
310.19777829717799
 20
773.98102053028538
 30
0.0
 11
310.19777829717799
 21
776.98102053028538
 31
0.0
  0
LINE
  5
DAA0
  8
0
 10
236.28871829717809
 20
760.74299053028517
 30
0.0
 11
232.23573829717819
 21
758.36396053028523
 31
0.0
  0
LINE
  5
DAA1
  8
0
 10
234.92176829717801
 20
737.84198053028524
 30
0.0
 11
240.42176829717801
 21
737.84198053028524
 31
0.0
  0
LINE
  5
DAA2
  8
0
 10
236.28871829717809
 20
753.41602053028521
 30
0.0
 11
232.23579829717801
 21
751.03602053028521
 31
0.0
  0
LINE
  5
DAA3
  8
0
 10
234.8877182971782
 20
751.79004053028507
 30
0.0
 11
240.4217082971781
 21
751.79310053028519
 31
0.0
  0
LINE
  5
DAA4
  8
0
 10
228.1977782971781
 20
744.84003053028539
 30
0.0
 11
228.1977782971781
 21
752.12201053028537
 31
0.0
  0
LINE
  5
DAA5
  8
0
 10
238.19777829717799
 20
741.66803053028514
 30
0.0
 11
238.19777829717799
 21
748.53095053028505
 31
0.0
  0
LINE
  5
DAA6
  8
0
 10
241.69581829717799
 20
744.8169605302852
 30
0.0
 11
235.43776829717811
 21
744.8169605302852
 31
0.0
  0
LINE
  5
DAA7
  8
0
 10
397.1067082971781
 20
760.74305053028513
 30
0.0
 11
401.15974829717828
 21
758.36402053028507
 31
0.0
  0
LINE
  5
DAA8
  8
0
 10
398.47377829717789
 20
737.84198053028524
 30
0.0
 11
392.97377829717789
 21
737.84198053028524
 31
0.0
  0
LINE
  5
DAA9
  8
0
 10
397.10676829717801
 20
753.41596053028513
 30
0.0
 11
401.15974829717828
 21
751.03595053028539
 31
0.0
  0
LINE
  5
DAAA
  8
0
 10
398.50666829717841
 20
751.78998053028522
 30
0.0
 11
392.9737182971781
 21
751.79303053028514
 31
0.0
  0
LINE
  5
DAAB
  8
0
 10
405.19777829717782
 20
744.84003053028539
 30
0.0
 11
405.19777829717782
 21
752.12201053028537
 31
0.0
  0
LINE
  5
DAAC
  8
0
 10
395.1977782971781
 20
741.66803053028514
 30
0.0
 11
395.1977782971781
 21
748.53095053028505
 31
0.0
  0
LINE
  5
DAAD
  8
0
 10
391.6987482971781
 20
744.8169605302852
 30
0.0
 11
397.95680829717821
 21
744.8169605302852
 31
0.0
  0
LINE
  5
DAAE
  8
0
 10
244.6977782971781
 20
725.98102253028514
 30
0.0
 11
244.6977782971781
 21
755.27094053028509
 31
0.0
  0
LINE
  5
DAAF
  8
0
 10
238.19777829717799
 20
730.53959453028506
 30
0.0
 11
238.19777829717799
 21
737.84198053028524
 31
0.0
  0
LINE
  5
DAB0
  8
0
 10
388.6977782971781
 20
725.98101553028539
 30
0.0
 11
388.6977782971781
 21
755.27094053028509
 31
0.0
  0
LINE
  5
DAB1
  8
0
 10
250.69777829717799
 20
765.4419605302852
 30
0.0
 11
382.6977782971781
 21
765.4419605302852
 31
0.0
  0
LINE
  5
DAB2
  8
0
 10
395.1977782971781
 20
730.53959453028506
 30
0.0
 11
395.1977782971781
 21
737.84198053028524
 31
0.0
  0
LINE
  5
DAB3
  8
0
 10
250.69777829717799
 20
718.03959453028506
 30
0.0
 11
382.6977782971781
 21
718.03959453028506
 31
0.0
  0
LINE
  5
DAB4
  8
0
 10
250.69777829717799
 20
719.98102053028538
 30
0.0
 11
382.6977782971781
 21
719.98102053028538
 31
0.0
  0
LINE
  5
DAB5
  8
0
 10
250.69777829717799
 20
761.2709405302852
 30
0.0
 11
382.6977782971781
 21
761.2709405302852
 31
0.0
  0
LINE
  5
DAB6
  8
0
 10
249.69777829717799
 20
773.98102053028538
 30
0.0
 11
383.69777829717799
 21
773.98102053028538
 31
0.0
  0
LINE
  5
DAB7
  8
0
 10
250.69777829717799
 20
772.76899053028524
 30
0.0
 11
382.6977782971781
 21
772.76899053028524
 31
0.0
  0
LINE
  5
DAB8
  8
0
 10
249.69777829717799
 20
770.98102053028515
 30
0.0
 11
383.69777829717799
 21
770.98102053028515
 31
0.0
  0
ARC
  5
DAB9
  8
0
 10
255.641422297178
 20
796.58034053028507
 30
0.0
 40
2.0
 50
189.99999999999861
 51
270.0
  0
LINE
  5
DABA
  8
0
 10
253.67180729717799
 20
796.23304453028516
 30
0.0
 11
250.69777829717799
 21
813.09959853028533
 31
0.0
  0
LINE
  5
DABB
  8
0
 10
250.69777829717799
 20
813.09959853028533
 30
0.0
 11
251.75951729717781
 21
813.09959853028533
 31
0.0
  0
LINE
  5
DABC
  8
0
 10
449.16191929717792
 20
965.15332753028508
 30
0.0
 11
449.69777829717799
 21
965.15332753028508
 31
0.0
  0
LINE
  5
DABD
  8
0
 10
449.42231029717823
 20
966.71558453028535
 30
0.0
 11
449.69777829717799
 21
966.71558453028535
 31
0.0
  0
LINE
  5
DABE
  8
0
 10
451.37597729717788
 20
790.98117153028511
 30
0.0
 11
451.69777829717759
 21
790.98117153028511
 31
0.0
  0
LINE
  5
DABF
  8
0
 10
447.51838329717788
 20
795.82903453028507
 30
0.0
 11
449.69777829717799
 21
795.82903453028507
 31
0.0
  0
LINE
  5
DAC0
  8
0
 10
448.52446629717809
 20
807.93460453028536
 30
0.0
 11
449.69777829717799
 21
807.93460453028536
 31
0.0
  0
LINE
  5
DAC1
  8
0
 10
347.69777829717799
 20
771.32505553028523
 30
0.0
 11
347.69777829717799
 21
780.50677153028505
 31
0.0
  0
ARC
  5
DAC2
  8
0
 10
445.94065829717778
 20
967.98926853028559
 30
0.0
 40
2.0
 50
9.9999999999986073
 51
90.0
  0
ARC
  5
DAC3
  8
0
 10
446.00667529717782
 20
971.53006753028535
 30
0.0
 40
2.0
 50
9.9999999999986073
 51
90.0
  0
ARC
  5
DAC4
  8
0
 10
446.09259329717821
 20
974.08180453028524
 30
0.0
 40
2.0
 50
9.9999999999986073
 51
90.0
  0
ARC
  5
DAC5
  8
0
 10
446.12134229717759
 20
975.48102053028538
 30
0.0
 40
2.0
 50
9.9999999999986073
 51
90.0
  0
LINE
  5
DAC6
  8
0
 10
454.6977812971781
 20
963.98102053028538
 30
0.0
 11
451.6977812971781
 21
966.98102053028515
 31
0.0
  0
LINE
  5
DAC7
  8
0
 10
242.19777829717799
 20
975.98099453028567
 30
0.0
 11
242.19777829717799
 21
781.98102053028538
 31
0.0
  0
LINE
  5
DAC8
  8
0
 10
449.65097429717758
 20
966.98102053028515
 30
0.0
 11
451.69777829717759
 21
966.98102053028515
 31
0.0
  0
LINE
  5
DAC9
  8
0
 10
454.69777829717788
 20
793.98102053028538
 30
0.0
 11
451.69777829717759
 21
790.98102053028538
 31
0.0
  0
LINE
  5
DACA
  8
0
 10
451.69777829717759
 20
790.98102053028538
 30
0.0
 11
451.69777829717759
 21
816.60140653028554
 31
0.0
  0
LINE
  5
DACB
  8
0
 10
454.69777829717788
 20
793.98102053028538
 30
0.0
 11
454.69777829717788
 21
963.98102053028538
 31
0.0
  0
CIRCLE
  5
DACC
  8
0
 10
347.69777829717799
 20
878.98102053028538
 30
0.0
 40
11.0
  0
LINE
  5
DACD
  8
0
 10
254.9838982971778
 20
977.48102053028538
 30
0.0
 11
306.69777829717799
 21
977.48102053028538
 31
0.0
  0
LINE
  5
DACE
  8
0
 10
386.6977782971781
 20
969.98926853028536
 30
0.0
 11
386.6977782971781
 21
975.48102053028538
 31
0.0
  0
LINE
  5
DACF
  8
0
 10
308.69777829717799
 20
969.98926853028536
 30
0.0
 11
308.69777829717799
 21
975.48102053028538
 31
0.0
  0
ARC
  5
DAD0
  8
0
 10
306.69777829717799
 20
975.48102053028538
 30
0.0
 40
2.0
 50
0.0
 51
90.0
  0
ARC
  5
DAD1
  8
0
 10
388.6977782971781
 20
975.48102053028538
 30
0.0
 40
2.0
 50
90.0
 51
180.0
  0
LINE
  5
DAD2
  8
0
 10
388.6977782971781
 20
977.48102053028538
 30
0.0
 11
446.12134229717759
 21
977.48102053028538
 31
0.0
  0
LINE
  5
DAD3
  8
0
 10
446.09259329717821
 20
976.08180453028535
 30
0.0
 11
388.6977782971781
 21
976.08180453028535
 31
0.0
  0
LINE
  5
DAD4
  8
0
 10
449.69777829717799
 20
965.15332753028508
 30
0.0
 11
448.0622092971779
 21
974.42910053028515
 31
0.0
  0
LINE
  5
DAD5
  8
0
 10
449.69777829717799
 20
966.71558453028535
 30
0.0
 11
448.09095729717808
 21
975.82831653028518
 31
0.0
  0
LINE
  5
DAD6
  8
0
 10
250.69777829717799
 20
962.69076653028515
 30
0.0
 11
253.0142832971778
 21
975.82831653028518
 31
0.0
  0
ARC
  5
DAD7
  8
0
 10
254.9838982971778
 20
975.48102053028538
 30
0.0
 40
2.0
 50
90.0
 51
170.00000000000139
  0
LINE
  5
DAD8
  8
0
 10
250.69777829717799
 20
961.03170553028542
 30
0.0
 11
253.060100297178
 21
974.42910053028515
 31
0.0
  0
ARC
  5
DAD9
  8
0
 10
255.02971629717831
 20
974.08180453028524
 30
0.0
 40
2.0
 50
90.0
 51
170.00000000000139
  0
ARC
  5
DADA
  8
0
 10
306.69777829717799
 20
974.08180453028524
 30
0.0
 40
2.0
 50
0.0
 51
90.0
  0
ARC
  5
DADB
  8
0
 10
388.6977782971781
 20
974.08180453028524
 30
0.0
 40
2.0
 50
90.0
 51
180.0
  0
LINE
  5
DADC
  8
0
 10
306.69777829717799
 20
976.08180453028535
 30
0.0
 11
255.02971629717831
 21
976.08180453028535
 31
0.0
  0
LINE
  5
DADD
  8
0
 10
446.00667529717782
 20
973.53006753028535
 30
0.0
 11
388.6977782971781
 21
973.53006753028535
 31
0.0
  0
LINE
  5
DADE
  8
0
 10
449.56899829717798
 20
962.84466953028516
 30
0.0
 11
447.97629029717791
 21
971.87736453028515
 31
0.0
  0
LINE
  5
DADF
  8
0
 10
250.69777829717799
 20
957.81091453028569
 30
0.0
 11
253.1780732971784
 21
971.87736453028515
 31
0.0
  0
ARC
  5
DAE0
  8
0
 10
255.14768829717789
 20
971.53006753028535
 30
0.0
 40
2.0
 50
90.0
 51
170.00000000000139
  0
ARC
  5
DAE1
  8
0
 10
306.69777829717799
 20
971.53006753028535
 30
0.0
 40
2.0
 50
0.0
 51
90.0
  0
ARC
  5
DAE2
  8
0
 10
388.6977782971781
 20
971.53006753028535
 30
0.0
 40
2.0
 50
90.0
 51
180.0
  0
LINE
  5
DAE3
  8
0
 10
306.69777829717799
 20
973.53006753028535
 30
0.0
 11
255.14768829717789
 21
973.53006753028535
 31
0.0
  0
LINE
  5
DAE4
  8
0
 10
445.94065829717778
 20
969.98926853028536
 30
0.0
 11
255.30919729717789
 21
969.98926853028536
 31
0.0
  0
LINE
  5
DAE5
  8
0
 10
448.87864329717831
 20
962.84466953028516
 30
0.0
 11
447.9102742971782
 21
968.33656453028539
 31
0.0
  0
LINE
  5
DAE6
  8
0
 10
250.69777829717799
 20
953.35415453028509
 30
0.0
 11
253.339581297178
 21
968.33656453028539
 31
0.0
  0
ARC
  5
DAE7
  8
0
 10
255.30919729717789
 20
967.98926853028559
 30
0.0
 40
2.0
 50
90.0
 51
170.00000000000139
  0
LINE
  5
DAE8
  8
0
 10
379.7541342971781
 20
963.38170053028523
 30
0.0
 11
255.641422297178
 21
963.38170053028523
 31
0.0
  0
LINE
  5
DAE9
  8
0
 10
384.69777829717799
 20
944.86244253028508
 30
0.0
 11
381.72374929717807
 21
961.72899653028537
 31
0.0
  0
ARC
  5
DAEA
  8
0
 10
379.7541342971781
 20
961.38170053028546
 30
0.0
 40
2.0
 50
9.9999999999986073
 51
90.0
  0
LINE
  5
DAEB
  8
0
 10
250.69777829717799
 20
944.86244253028508
 30
0.0
 11
253.67180729717799
 21
961.72899653028537
 31
0.0
  0
ARC
  5
DAEC
  8
0
 10
255.641422297178
 20
961.38170053028546
 30
0.0
 40
2.0
 50
90.0
 51
170.00000000000139
  0
LINE
  5
DAED
  8
0
 10
379.42387029717793
 20
957.97965653028564
 30
0.0
 11
255.97168629717819
 21
957.97965653028564
 31
0.0
  0
LINE
  5
DAEE
  8
0
 10
384.47672729717812
 20
938.84102053028539
 30
0.0
 11
381.39348629717819
 21
956.32695353028521
 31
0.0
  0
ARC
  5
DAEF
  8
0
 10
379.42387029717793
 20
955.97965653028518
 30
0.0
 40
2.0
 50
9.9999999999986073
 51
90.0
  0
LINE
  5
DAF0
  8
0
 10
250.97477229717791
 20
939.15828853028506
 30
0.0
 11
254.00207029717799
 21
956.32695353028521
 31
0.0
  0
ARC
  5
DAF1
  8
0
 10
255.97168629717819
 20
955.97965653028518
 30
0.0
 40
2.0
 50
90.0
 51
170.00000000000139
  0
LINE
  5
DAF2
  8
0
 10
449.69777829717799
 20
884.01117253028519
 30
0.0
 11
449.69777829717799
 21
886.95886453028515
 31
0.0
  0
LINE
  5
DAF3
  8
0
 10
449.69777829717799
 20
894.01064853028538
 30
0.0
 11
449.69777829717799
 21
896.97212753028543
 31
0.0
  0
LINE
  5
DAF4
  8
0
 10
449.69777829717799
 20
905.00282853028546
 30
0.0
 11
449.69777829717799
 21
907.99545553028508
 31
0.0
  0
LINE
  5
DAF5
  8
0
 10
449.69777829717799
 20
915.98562353028535
 30
0.0
 11
449.69777829717799
 21
919.03132953028523
 31
0.0
  0
LINE
  5
DAF6
  8
0
 10
449.69777829717799
 20
926.95550253028568
 30
0.0
 11
449.69777829717799
 21
930.08641553028519
 31
0.0
  0
LINE
  5
DAF7
  8
0
 10
449.69777829717799
 20
935.91397853028536
 30
0.0
 11
449.69777829717799
 21
939.15828853028506
 31
0.0
  0
LINE
  5
DAF8
  8
0
 10
399.69777829717799
 20
953.35415453028509
 30
0.0
 11
383.20046029717832
 21
953.35415453028509
 31
0.0
  0
LINE
  5
DAF9
  8
0
 10
431.48455529717762
 20
958.19912253028542
 30
0.0
 11
415.69777829717799
 21
958.19912253028542
 31
0.0
  0
LINE
  5
DAFA
  8
0
 10
399.69777829717799
 20
953.35415453028509
 30
0.0
 11
415.69777829717799
 21
958.19912253028542
 31
0.0
  0
LINE
  5
DAFB
  8
0
 10
415.69777829717799
 20
958.19912253028542
 30
0.0
 11
415.69777829717799
 21
954.83380753028507
 31
0.0
  0
LINE
  5
DAFC
  8
0
 10
399.69777829717799
 20
953.35415453028509
 30
0.0
 11
399.69777829717799
 21
939.15828853028506
 31
0.0
  0
LINE
  5
DAFD
  8
0
 10
435.19777829717782
 20
942.04698253028539
 30
0.0
 11
435.19777829717782
 21
960.84466953028539
 31
0.0
  0
ARC
  5
DAFE
  8
0
 10
437.19777829717799
 20
960.84466953028539
 30
0.0
 40
2.0
 50
90.0
 51
180.0
  0
LINE
  5
DAFF
  8
0
 10
435.19777829717782
 20
946.43708053028536
 30
0.0
 11
415.69777829717799
 21
946.43708053028536
 31
0.0
  0
LINE
  5
DB00
  8
0
 10
429.79778429717811
 20
954.83380753028507
 30
0.0
 11
415.69777829717799
 21
954.83380753028507
 31
0.0
  0
LINE
  5
DB01
  8
0
 10
415.69777829717799
 20
946.43708053028536
 30
0.0
 11
415.69777829717799
 21
939.15828853028506
 31
0.0
  0
ARC
  5
DB02
  8
0
  6
CONTINUOUS
 10
432.3975772971778
 20
950.46428653028522
 30
0.0
 40
2.6003989999999999
 50
179.99998200000081
 51
269.99997800000818
  0
ARC
  5
DB03
  8
0
  6
CONTINUOUS
 10
432.3975772971778
 20
955.76427453028509
 30
0.0
 40
2.600403
 50
90.0
 51
179.99998200000081
  0
LINE
  5
DB04
  8
0
  6
CONTINUOUS
 10
435.19777829717782
 20
953.18030553028518
 30
0.0
 11
433.69777829717788
 21
952.31428053028515
 31
0.0
  0
LINE
  5
DB05
  8
0
  6
CONTINUOUS
 10
435.19777829717782
 20
954.18030553028507
 30
0.0
 11
433.69777829717788
 21
953.31428053028515
 31
0.0
  0
LINE
  5
DB06
  8
0
  6
CONTINUOUS
 10
435.19777829717782
 20
959.21428053028535
 30
0.0
 11
435.19777829717782
 21
947.01428053028519
 31
0.0
  0
LINE
  5
DB07
  8
0
  6
CONTINUOUS
 10
433.69777829717788
 20
959.21428053028535
 30
0.0
 11
435.19777829717782
 21
959.21428053028535
 31
0.0
  0
LINE
  5
DB08
  8
0
  6
CONTINUOUS
 10
433.69777829717788
 20
947.01428053028519
 30
0.0
 11
435.19777829717782
 21
947.01428053028519
 31
0.0
  0
LINE
  5
DB09
  8
0
  6
CONTINUOUS
 10
429.79778429717811
 20
955.76427453028509
 30
0.0
 11
429.79778429717811
 21
950.46428653028522
 31
0.0
  0
LINE
  5
DB0A
  8
0
  6
CONTINUOUS
 10
433.69777829717788
 20
959.21428053028535
 30
0.0
 11
433.69777829717788
 21
947.01428053028519
 31
0.0
  0
LINE
  5
DB0B
  8
0
  6
CONTINUOUS
 10
433.69777829717788
 20
947.86428053028521
 30
0.0
 11
432.3975772971778
 21
947.86428053028521
 31
0.0
  0
LINE
  5
DB0C
  8
0
  6
CONTINUOUS
 10
433.69777829717788
 20
958.36428053028533
 30
0.0
 11
432.3975772971778
 21
958.36428053028533
 31
0.0
  0
LINE
  5
DB0D
  8
0
 10
454.69777829717788
 20
962.84466953028516
 30
0.0
 11
437.19777829717799
 21
962.84466953028516
 31
0.0
  0
LINE
  5
DB0E
  8
0
 10
454.69777829717788
 20
941.04698253028539
 30
0.0
 11
434.19777829717782
 21
941.04698253028539
 31
0.0
  0
ARC
  5
DB0F
  8
0
 10
434.19777829717782
 20
942.04698253028539
 30
0.0
 40
1.0
 50
270.0
 51
0.0
  0
LINE
  5
DB10
  8
0
 10
454.69777829717788
 20
954.72066453028515
 30
0.0
 11
437.19777829717799
 21
954.72066453028515
 31
0.0
  0
LINE
  5
DB11
  8
0
 10
242.19777829717799
 20
962.98102053028538
 30
0.0
 11
250.69777829717799
 21
962.98102053028538
 31
0.0
  0
ARC
  5
DB12
  8
0
 10
451.37597729717788
 20
788.98102053028515
 30
0.0
 40
2.0
 50
90.0
 51
170.00000000000139
  0
ARC
  5
DB13
  8
0
 10
387.44042029717821
 20
783.98736353028505
 30
0.0
 40
1.9936590000000001
 50
90.075931000003507
 51
178.17025399999861
  0
LINE
  5
DB14
  8
0
 10
387.43777829717777
 20
785.98102053028538
 30
0.0
 11
447.13794429717791
 21
785.98102053028538
 31
0.0
  0
LINE
  5
DB15
  8
0
 10
385.1977782971781
 20
776.98102053028538
 30
0.0
 11
385.8138072971779
 21
794.58034053028518
 31
0.0
  0
LINE
  5
DB16
  8
0
 10
449.40636229717762
 20
789.32831653028506
 30
0.0
 11
449.10755929717777
 21
787.63372453028524
 31
0.0
  0
ARC
  5
DB17
  8
0
 10
447.13794429717791
 20
787.98102053028515
 30
0.0
 40
2.0
 50
270.0
 51
350.00000000000142
  0
LINE
  5
DB18
  8
0
 10
251.2751282971781
 20
793.98102053028538
 30
0.0
 11
258.49200729717808
 21
781.48102053028538
 31
0.0
  0
LINE
  5
DB19
  8
0
 10
260.22405729717821
 20
780.48102053028515
 30
0.0
 11
308.14274929717789
 21
780.48102053028515
 31
0.0
  0
LINE
  5
DB1A
  8
0
 10
310.19777829717799
 20
776.98102053028538
 30
0.0
 11
310.14146629717789
 21
778.5526355302851
 31
0.0
  0
ARC
  5
DB1B
  8
0
 10
249.54307729717809
 20
792.98102053028515
 30
0.0
 40
2.0
 50
30.000000000000551
 51
90.0
  0
ARC
  5
DB1C
  8
0
 10
260.22405729717821
 20
782.48102053028538
 30
0.0
 40
2.0
 50
210.00000000000051
 51
270.0
  0
ARC
  5
DB1D
  8
0
 10
308.14274929717789
 20
778.48102053028538
 30
0.0
 40
2.0
 50
2.0520649999985339
 51
90.0
  0
LINE
  5
DB1E
  8
0
 10
310.19777829717799
 20
776.98102053028538
 30
0.0
 11
385.1977782971781
 21
776.98102053028538
 31
0.0
  0
LINE
  5
DB1F
  8
0
 10
259.22405729717821
 20
780.74896953028519
 30
0.0
 11
259.22405729717821
 21
794.58034053028518
 31
0.0
  0
LINE
  5
DB20
  8
0
 10
445.66486229717782
 20
794.58034053028518
 30
0.0
 11
255.641422297178
 21
794.58034053028518
 31
0.0
  0
LINE
  5
DB21
  8
0
 10
445.4440762971779
 20
799.98238453028523
 30
0.0
 11
255.75063529717821
 21
799.98238453028523
 31
0.0
  0
LINE
  5
DB22
  8
0
 10
449.69777829717799
 20
814.58878653028546
 30
0.0
 11
415.69777829717799
 21
814.58878653028546
 31
0.0
  0
LINE
  5
DB23
  8
0
 10
449.69777829717799
 20
814.58878653028546
 30
0.0
 11
447.41369129717782
 21
801.63508753028509
 31
0.0
  0
ARC
  5
DB24
  8
0
 10
445.4440762971779
 20
801.98238453028534
 30
0.0
 40
2.0
 50
270.0
 51
350.00000000000142
  0
LINE
  5
DB25
  8
0
 10
449.69777829717799
 20
807.93460453028536
 30
0.0
 11
447.63447729717791
 21
796.23304453028516
 31
0.0
  0
ARC
  5
DB26
  8
0
 10
445.66486229717782
 20
796.58034053028507
 30
0.0
 40
2.0
 50
270.0
 51
350.00000000000142
  0
LINE
  5
DB27
  8
0
 10
254.44051629717799
 20
794.98102053028538
 30
0.0
 11
242.19777829717799
 21
794.98102053028538
 31
0.0
  0
LINE
  5
DB28
  8
0
 10
449.69777829717799
 20
795.82903453028507
 30
0.0
 11
448.25272429717819
 21
787.63372453028524
 31
0.0
  0
ARC
  5
DB29
  8
0
 10
446.28310829717788
 20
787.98102053028515
 30
0.0
 40
2.0
 50
270.0
 51
350.00000000000142
  0
LINE
  5
DB2A
  8
0
 10
384.69777829717799
 20
830.82102053028518
 30
0.0
 11
384.69777829717799
 21
828.12102053028514
 31
0.0
  0
LINE
  5
DB2B
  8
0
 10
454.69777829717788
 20
816.77138353028545
 30
0.0
 11
437.19777829717799
 21
816.77138353028545
 31
0.0
  0
LINE
  5
DB2C
  8
0
 10
454.69777829717788
 20
829.07902253028533
 30
0.0
 11
437.19777829717799
 21
829.07902253028533
 31
0.0
  0
LINE
  5
DB2D
  8
0
 10
454.69777829717788
 20
839.25831453028536
 30
0.0
 11
449.69777829717799
 21
839.25831453028536
 31
0.0
  0
LINE
  5
DB2E
  8
0
 10
435.19777829717782
 20
838.25831453028536
 30
0.0
 11
435.19777829717782
 21
818.77138353028533
 31
0.0
  0
ARC
  5
DB2F
  8
0
 10
434.19777829717782
 20
838.25831453028536
 30
0.0
 40
1.0
 50
0.0
 51
42.252324000004279
  0
ARC
  5
DB30
  8
0
 10
437.19777829717799
 20
818.77138353028533
 30
0.0
 40
2.0
 50
180.0
 51
270.0
  0
LINE
  5
DB31
  8
0
 10
399.69777829717799
 20
935.91397853028536
 30
0.0
 11
399.69777829717799
 21
930.08641553028519
 31
0.0
  0
LINE
  5
DB32
  8
0
 10
415.69777829717799
 20
935.91397853028536
 30
0.0
 11
415.69777829717799
 21
930.08641553028519
 31
0.0
  0
LINE
  5
DB33
  8
0
 10
399.69777829717799
 20
926.95550253028568
 30
0.0
 11
399.69777829717799
 21
919.03132953028523
 31
0.0
  0
LINE
  5
DB34
  8
0
 10
399.69777829717799
 20
915.98562353028535
 30
0.0
 11
399.69777829717799
 21
907.99545553028508
 31
0.0
  0
LINE
  5
DB35
  8
0
 10
399.69777829717799
 20
905.00282853028546
 30
0.0
 11
399.69777829717799
 21
896.97212753028543
 31
0.0
  0
LINE
  5
DB36
  8
0
 10
399.69777829717799
 20
894.01064853028538
 30
0.0
 11
399.69777829717799
 21
886.95886453028515
 31
0.0
  0
LINE
  5
DB37
  8
0
 10
399.69777829717799
 20
884.14102053028546
 30
0.0
 11
399.69777829717799
 21
873.95086853028545
 31
0.0
  0
LINE
  5
DB38
  8
0
 10
415.69777829717799
 20
884.14102053028546
 30
0.0
 11
415.69777829717799
 21
873.95086853028545
 31
0.0
  0
LINE
  5
DB39
  8
0
 10
415.69777829717799
 20
894.01064853028538
 30
0.0
 11
415.69777829717799
 21
886.95886453028515
 31
0.0
  0
LINE
  5
DB3A
  8
0
 10
415.69777829717799
 20
905.00282853028546
 30
0.0
 11
415.69777829717799
 21
896.97212753028543
 31
0.0
  0
LINE
  5
DB3B
  8
0
 10
415.69777829717799
 20
915.98562353028535
 30
0.0
 11
415.69777829717799
 21
907.99545553028508
 31
0.0
  0
LINE
  5
DB3C
  8
0
 10
415.69777829717799
 20
926.95550253028568
 30
0.0
 11
415.69777829717799
 21
919.03132953028523
 31
0.0
  0
LINE
  5
DB3D
  8
0
 10
399.69777829717799
 20
871.00317653028537
 30
0.0
 11
399.69777829717799
 21
863.95139253028515
 31
0.0
  0
LINE
  5
DB3E
  8
0
 10
415.69777829717799
 20
871.00317653028537
 30
0.0
 11
415.69777829717799
 21
863.95139253028515
 31
0.0
  0
LINE
  5
DB3F
  8
0
 10
415.69777829717799
 20
860.98991353028521
 30
0.0
 11
415.69777829717799
 21
852.95921253028507
 31
0.0
  0
LINE
  5
DB40
  8
0
 10
399.69777829717799
 20
860.98991353028521
 30
0.0
 11
399.69777829717799
 21
852.95921253028507
 31
0.0
  0
LINE
  5
DB41
  8
0
 10
399.69777829717799
 20
849.96658553028522
 30
0.0
 11
399.69777829717799
 21
841.97641753028518
 31
0.0
  0
LINE
  5
DB42
  8
0
 10
415.69777829717799
 20
849.96658553028522
 30
0.0
 11
415.69777829717799
 21
841.97641753028518
 31
0.0
  0
LINE
  5
DB43
  8
0
 10
430.24717329717782
 20
822.96022453028513
 30
0.0
 11
415.69777729717822
 21
822.96022453028513
 31
0.0
  0
LINE
  5
DB44
  8
0
 10
435.19777829717782
 20
834.37257453028553
 30
0.0
 11
415.69777729717822
 21
834.37257453028553
 31
0.0
  0
LINE
  5
DB45
  8
0
 10
399.69777829717799
 20
838.93071153028518
 30
0.0
 11
399.69777829717799
 21
818.93071153028507
 31
0.0
  0
LINE
  5
DB46
  8
0
 10
451.69777829717759
 20
962.84466953028516
 30
0.0
 11
451.69777829717759
 21
966.98102053028515
 31
0.0
  0
LINE
  5
DB47
  8
0
 10
449.69777829717799
 20
792.77927653028519
 30
0.0
 11
448.79047829717808
 21
787.63372453028524
 31
0.0
  0
ARC
  5
DB48
  8
0
 10
446.82086329717811
 20
787.98102053028515
 30
0.0
 40
2.0
 50
270.0
 51
350.00000000000142
  0
LINE
  5
DB49
  8
0
 10
415.69777829717799
 20
838.93071153028518
 30
0.0
 11
415.69777829717799
 21
834.37257453028553
 31
0.0
  0
LINE
  5
DB4A
  8
0
 10
451.69777829717759
 20
839.25831453028536
 30
0.0
 11
451.69777829717759
 21
941.04698253028539
 31
0.0
  0
LINE
  5
DB4B
  8
0
 10
250.69777829717799
 20
819.12102053028514
 30
0.0
 11
253.7810202971782
 21
801.63508753028509
 31
0.0
  0
ARC
  5
DB4C
  8
0
 10
255.75063529717821
 20
801.98238453028534
 30
0.0
 40
2.0
 50
189.99999999999861
 51
270.0
  0
LINE
  5
DB4D
  8
0
 10
400.4031752971776
 20
827.67531453028505
 30
0.0
 11
415.69777829717799
 21
822.96022453028513
 31
0.0
  0
LINE
  5
DB4E
  8
0
 10
415.69777829717799
 20
834.37257453028553
 30
0.0
 11
400.6618372971779
 21
833.83182353028508
 31
0.0
  0
LINE
  5
DB4F
  8
0
 10
415.69777829717799
 20
822.96022453028513
 30
0.0
 11
415.69777829717799
 21
814.58878653028546
 31
0.0
  0
ARC
  5
DB50
  8
0
 10
400.69777829717782
 20
832.83246953028515
 30
0.0
 40
1.0
 50
92.059690999990565
 51
180.0
  0
ARC
  5
DB51
  8
0
 10
400.69777829717782
 20
828.63093453028534
 30
0.0
 40
1.0
 50
180.0
 51
252.8662750000021
  0
LINE
  5
DB52
  8
0
 10
415.69777829717799
 20
954.83380753028507
 30
0.0
 11
400.39731929717789
 21
950.01394153028536
 31
0.0
  0
LINE
  5
DB53
  8
0
 10
400.7463332971779
 20
945.71026053028515
 30
0.0
 11
415.69777829717799
 21
946.43708053028536
 31
0.0
  0
ARC
  5
DB54
  8
0
 10
400.69777829717782
 20
949.06014653028524
 30
0.0
 40
1.0
 50
107.4851790000144
 51
180.0
  0
ARC
  5
DB55
  8
0
 10
400.69777829717782
 20
946.70908153028506
 30
0.0
 40
1.0
 50
180.0
 51
270.0
  0
ARC
  5
DB56
  8
0
  6
CONTINUOUS
 10
432.3975772971778
 20
824.42235953028523
 30
0.0
 40
2.6003989999999999
 50
179.99998200000081
 51
269.99997800000818
  0
ARC
  5
DB57
  8
0
  6
CONTINUOUS
 10
432.3975772971778
 20
829.72234753028511
 30
0.0
 40
2.600403
 50
90.0
 51
179.99998200000081
  0
LINE
  5
DB58
  8
0
  6
CONTINUOUS
 10
435.19777829717782
 20
827.13837853028542
 30
0.0
 11
433.69777829717788
 21
826.27235353028516
 31
0.0
  0
LINE
  5
DB59
  8
0
  6
CONTINUOUS
 10
435.19777829717782
 20
828.13837853028519
 30
0.0
 11
433.69777829717788
 21
827.27235353028505
 31
0.0
  0
LINE
  5
DB5A
  8
0
  6
CONTINUOUS
 10
435.19777829717782
 20
833.17235353028514
 30
0.0
 11
435.19777829717782
 21
820.97235353028532
 31
0.0
  0
LINE
  5
DB5B
  8
0
  6
CONTINUOUS
 10
433.69777829717788
 20
833.17235353028514
 30
0.0
 11
435.19777829717782
 21
833.17235353028514
 31
0.0
  0
LINE
  5
DB5C
  8
0
  6
CONTINUOUS
 10
433.69777829717788
 20
820.97235353028532
 30
0.0
 11
435.19777829717782
 21
820.97235353028532
 31
0.0
  0
LINE
  5
DB5D
  8
0
  6
CONTINUOUS
 10
429.79778429717811
 20
829.72234753028511
 30
0.0
 11
429.79778429717811
 21
824.42235953028523
 31
0.0
  0
LINE
  5
DB5E
  8
0
  6
CONTINUOUS
 10
433.69777829717788
 20
833.17235353028514
 30
0.0
 11
433.69777829717788
 21
820.97235353028532
 31
0.0
  0
LINE
  5
DB5F
  8
0
  6
CONTINUOUS
 10
433.69777829717788
 20
821.82235353028523
 30
0.0
 11
432.3975772971778
 21
821.82235353028523
 31
0.0
  0
LINE
  5
DB60
  8
0
  6
CONTINUOUS
 10
433.69777829717788
 20
832.32235353028534
 30
0.0
 11
432.3975772971778
 21
832.32235353028534
 31
0.0
  0
LINE
  5
DB61
  8
0
 10
449.69777829717799
 20
939.15828853028506
 30
0.0
 11
250.69777829717799
 21
939.15828853028506
 31
0.0
  0
LINE
  5
DB62
  8
0
 10
449.69777829717799
 20
935.91397853028536
 30
0.0
 11
250.69777829717799
 21
935.91397853028536
 31
0.0
  0
LINE
  5
DB63
  8
0
 10
449.69777829717799
 20
930.08641553028519
 30
0.0
 11
250.69777829717799
 21
930.08641553028519
 31
0.0
  0
LINE
  5
DB64
  8
0
 10
449.69777829717799
 20
926.95550253028568
 30
0.0
 11
250.69777829717799
 21
926.95550253028568
 31
0.0
  0
LINE
  5
DB65
  8
0
 10
449.69777829717799
 20
919.03132953028523
 30
0.0
 11
250.69777829717799
 21
919.03132953028523
 31
0.0
  0
LINE
  5
DB66
  8
0
 10
449.69777829717799
 20
915.98562353028535
 30
0.0
 11
250.69777829717799
 21
915.98562353028535
 31
0.0
  0
LINE
  5
DB67
  8
0
 10
449.69777829717799
 20
907.99545553028508
 30
0.0
 11
250.69777829717799
 21
907.99545553028508
 31
0.0
  0
LINE
  5
DB68
  8
0
 10
449.69777829717799
 20
905.00282853028546
 30
0.0
 11
250.69777829717799
 21
905.00282853028546
 31
0.0
  0
LINE
  5
DB69
  8
0
 10
449.69777829717799
 20
896.97212753028543
 30
0.0
 11
250.69777829717799
 21
896.97212753028543
 31
0.0
  0
LINE
  5
DB6A
  8
0
 10
449.69777829717799
 20
894.01064853028538
 30
0.0
 11
250.69777829717799
 21
894.01064853028538
 31
0.0
  0
LINE
  5
DB6B
  8
0
 10
449.69777829717799
 20
886.95886453028515
 30
0.0
 11
355.27102129717792
 21
886.95886453028515
 31
0.0
  0
LINE
  5
DB6C
  8
0
 10
449.69777829717799
 20
884.01117253028519
 30
0.0
 11
362.08342529717811
 21
884.01117253028519
 31
0.0
  0
LINE
  5
DB6D
  8
0
 10
447.61885729717812
 20
938.48102053028515
 30
0.0
 11
447.61885729717812
 21
936.48102053028538
 31
0.0
  0
LINE
  5
DB6E
  8
0
 10
252.77669929717831
 20
936.48102053028538
 30
0.0
 11
447.61885729717812
 21
936.48102053028538
 31
0.0
  0
LINE
  5
DB6F
  8
0
 10
252.77669929717831
 20
938.48102053028515
 30
0.0
 11
447.61885729717812
 21
938.48102053028515
 31
0.0
  0
LINE
  5
DB70
  8
0
 10
252.77669929717831
 20
927.48102053028538
 30
0.0
 11
447.61885729717812
 21
927.48102053028538
 31
0.0
  0
LINE
  5
DB71
  8
0
 10
252.77669929717831
 20
929.48102053028515
 30
0.0
 11
447.61885729717812
 21
929.48102053028515
 31
0.0
  0
LINE
  5
DB72
  8
0
 10
252.77669929717831
 20
916.48102053028538
 30
0.0
 11
447.61885729717812
 21
916.48102053028538
 31
0.0
  0
LINE
  5
DB73
  8
0
 10
252.77669929717831
 20
918.48102053028538
 30
0.0
 11
447.61885729717812
 21
918.48102053028538
 31
0.0
  0
LINE
  5
DB74
  8
0
 10
252.77669929717831
 20
905.48102053028515
 30
0.0
 11
447.61885729717812
 21
905.48102053028515
 31
0.0
  0
LINE
  5
DB75
  8
0
 10
252.77669929717831
 20
907.48102053028515
 30
0.0
 11
447.61885729717812
 21
907.48102053028515
 31
0.0
  0
LINE
  5
DB76
  8
0
 10
252.77669929717831
 20
894.48102053028538
 30
0.0
 11
447.61885729717812
 21
894.48102053028538
 31
0.0
  0
LINE
  5
DB77
  8
0
 10
252.77669929717831
 20
896.48102053028515
 30
0.0
 11
447.61885729717812
 21
896.48102053028515
 31
0.0
  0
LINE
  5
DB78
  8
0
 10
361.47275529717808
 20
884.48102053028538
 30
0.0
 11
447.61885729717812
 21
884.48102053028538
 31
0.0
  0
LINE
  5
DB79
  8
0
 10
355.744516297178
 20
886.48102053028538
 30
0.0
 11
447.61885729717812
 21
886.48102053028538
 31
0.0
  0
LINE
  5
DB7A
  8
0
 10
447.61885729717812
 20
938.48102053028515
 30
0.0
 11
449.69777829717799
 21
939.15828853028506
 31
0.0
  0
LINE
  5
DB7B
  8
0
 10
447.61885729717812
 20
936.48102053028538
 30
0.0
 11
449.69777829717799
 21
935.91397853028536
 31
0.0
  0
LINE
  5
DB7C
  8
0
 10
447.61885729717812
 20
929.48102053028515
 30
0.0
 11
449.69777829717799
 21
930.08641553028519
 31
0.0
  0
LINE
  5
DB7D
  8
0
 10
447.61885729717812
 20
927.48102053028538
 30
0.0
 11
449.69777829717799
 21
926.95550253028568
 31
0.0
  0
LINE
  5
DB7E
  8
0
 10
447.61885729717812
 20
918.48102053028538
 30
0.0
 11
449.69777829717799
 21
919.03132953028523
 31
0.0
  0
LINE
  5
DB7F
  8
0
 10
447.61885729717812
 20
916.48102053028538
 30
0.0
 11
449.69777829717799
 21
915.98562353028535
 31
0.0
  0
LINE
  5
DB80
  8
0
 10
447.61885729717812
 20
907.48102053028515
 30
0.0
 11
449.69777829717799
 21
907.99545553028508
 31
0.0
  0
LINE
  5
DB81
  8
0
 10
447.61885729717812
 20
905.48102053028515
 30
0.0
 11
449.69777829717799
 21
905.00282853028546
 31
0.0
  0
LINE
  5
DB82
  8
0
 10
447.61885729717812
 20
896.48102053028515
 30
0.0
 11
449.69777829717799
 21
896.97212753028543
 31
0.0
  0
LINE
  5
DB83
  8
0
 10
447.61885729717812
 20
894.48102053028538
 30
0.0
 11
449.69777829717799
 21
894.01064853028538
 31
0.0
  0
LINE
  5
DB84
  8
0
 10
447.61885729717812
 20
886.48102053028538
 30
0.0
 11
449.69777829717799
 21
886.95886453028515
 31
0.0
  0
LINE
  5
DB85
  8
0
 10
447.61885729717812
 20
884.48102053028538
 30
0.0
 11
449.69777829717799
 21
884.01117253028519
 31
0.0
  0
LINE
  5
DB86
  8
0
 10
447.61885729717812
 20
929.48102053028515
 30
0.0
 11
447.61885729717812
 21
927.48102053028538
 31
0.0
  0
LINE
  5
DB87
  8
0
 10
447.61885729717812
 20
918.48102053028538
 30
0.0
 11
447.61885729717812
 21
916.48102053028538
 31
0.0
  0
LINE
  5
DB88
  8
0
 10
447.61885729717812
 20
907.48102053028515
 30
0.0
 11
447.61885729717812
 21
905.48102053028515
 31
0.0
  0
LINE
  5
DB89
  8
0
 10
447.61885729717812
 20
896.48102053028515
 30
0.0
 11
447.61885729717812
 21
894.48102053028538
 31
0.0
  0
LINE
  5
DB8A
  8
0
 10
447.61885729717812
 20
886.48102053028538
 30
0.0
 11
447.61885729717812
 21
884.48102053028538
 31
0.0
  0
ARC
  5
DB8B
  8
0
 10
361.47275529717808
 20
881.48102053028515
 30
0.0
 40
3.0
 50
90.0
 51
190.2865610000006
  0
ARC
  5
DB8C
  8
0
 10
362.08342529717811
 20
880.54117253028505
 30
0.0
 40
3.4700000000000002
 50
90.0
 51
186.1896490000004
  0
LINE
  5
DB8D
  8
0
 10
267.77669929717831
 20
886.48102053028538
 30
0.0
 11
267.77669929717831
 21
884.48102053028538
 31
0.0
  0
LINE
  5
DB8E
  8
0
 10
252.77669929717831
 20
896.48102053028515
 30
0.0
 11
252.77669929717831
 21
894.48102053028538
 31
0.0
  0
LINE
  5
DB8F
  8
0
 10
252.77669929717831
 20
907.48102053028515
 30
0.0
 11
252.77669929717831
 21
905.48102053028515
 31
0.0
  0
LINE
  5
DB90
  8
0
 10
252.77669929717831
 20
918.48102053028538
 30
0.0
 11
252.77669929717831
 21
916.48102053028538
 31
0.0
  0
LINE
  5
DB91
  8
0
 10
252.77669929717831
 20
929.48102053028515
 30
0.0
 11
252.77669929717831
 21
927.48102053028538
 31
0.0
  0
LINE
  5
DB92
  8
0
 10
267.77669929717831
 20
884.48102053028538
 30
0.0
 11
265.6977782971781
 21
884.01117253028519
 31
0.0
  0
LINE
  5
DB93
  8
0
 10
267.77669929717831
 20
886.48102053028538
 30
0.0
 11
265.6977782971781
 21
886.95886453028515
 31
0.0
  0
LINE
  5
DB94
  8
0
 10
252.77669929717831
 20
894.48102053028538
 30
0.0
 11
250.69777829717799
 21
894.01064853028538
 31
0.0
  0
LINE
  5
DB95
  8
0
 10
252.77669929717831
 20
896.48102053028515
 30
0.0
 11
250.69777829717799
 21
896.97212753028543
 31
0.0
  0
LINE
  5
DB96
  8
0
 10
252.77669929717831
 20
905.48102053028515
 30
0.0
 11
250.69777829717799
 21
905.00282853028546
 31
0.0
  0
LINE
  5
DB97
  8
0
 10
252.77669929717831
 20
907.48102053028515
 30
0.0
 11
250.69777829717799
 21
907.99545553028508
 31
0.0
  0
LINE
  5
DB98
  8
0
 10
252.77669929717831
 20
916.48102053028538
 30
0.0
 11
250.69777829717799
 21
915.98562353028535
 31
0.0
  0
LINE
  5
DB99
  8
0
 10
252.77669929717831
 20
918.48102053028538
 30
0.0
 11
250.69777829717799
 21
919.03132953028523
 31
0.0
  0
LINE
  5
DB9A
  8
0
 10
252.77669929717831
 20
927.48102053028538
 30
0.0
 11
250.69777829717799
 21
926.95550253028568
 31
0.0
  0
LINE
  5
DB9B
  8
0
 10
252.77669929717831
 20
929.48102053028515
 30
0.0
 11
250.69777829717799
 21
930.08641553028519
 31
0.0
  0
LINE
  5
DB9C
  8
0
 10
252.77669929717831
 20
936.48102053028538
 30
0.0
 11
250.69777829717799
 21
935.91397853028536
 31
0.0
  0
LINE
  5
DB9D
  8
0
 10
252.77669929717831
 20
938.48102053028515
 30
0.0
 11
250.69777829717799
 21
939.15828853028506
 31
0.0
  0
LINE
  5
DB9E
  8
0
 10
252.77669929717831
 20
938.48102053028515
 30
0.0
 11
252.77669929717831
 21
936.48102053028538
 31
0.0
  0
LINE
  5
DB9F
  8
0
 10
250.69777829717799
 20
935.91397853028536
 30
0.0
 11
250.69777829717799
 21
939.15828853028506
 31
0.0
  0
LINE
  5
DBA0
  8
0
 10
250.69777829717799
 20
926.95550253028568
 30
0.0
 11
250.69777829717799
 21
930.08641553028519
 31
0.0
  0
LINE
  5
DBA1
  8
0
 10
250.69777829717799
 20
915.98562353028535
 30
0.0
 11
250.69777829717799
 21
919.03132953028523
 31
0.0
  0
LINE
  5
DBA2
  8
0
 10
250.69777829717799
 20
905.00282853028546
 30
0.0
 11
250.69777829717799
 21
907.99545553028508
 31
0.0
  0
LINE
  5
DBA3
  8
0
 10
250.69777829717799
 20
894.01064853028538
 30
0.0
 11
250.69777829717799
 21
896.97212753028543
 31
0.0
  0
LINE
  5
DBA4
  8
0
 10
265.6977782971781
 20
884.01117253028519
 30
0.0
 11
265.6977782971781
 21
886.95886453028515
 31
0.0
  0
LINE
  5
DBA5
  8
0
 10
265.6977782971781
 20
886.95886453028515
 30
0.0
 11
340.12453529717823
 21
886.95886453028515
 31
0.0
  0
LINE
  5
DBA6
  8
0
 10
265.6977782971781
 20
884.01117253028519
 30
0.0
 11
333.31213129717798
 21
884.01117253028519
 31
0.0
  0
LINE
  5
DBA7
  8
0
 10
333.92280129717801
 20
884.48102053028538
 30
0.0
 11
267.77669929717831
 21
884.48102053028538
 31
0.0
  0
LINE
  5
DBA8
  8
0
 10
339.65104029717799
 20
886.48102053028538
 30
0.0
 11
267.77669929717831
 21
886.48102053028538
 31
0.0
  0
ARC
  5
DBA9
  8
0
 10
333.92280129717801
 20
881.48102053028515
 30
0.0
 40
3.0
 50
349.71343899999943
 51
90.0
  0
ARC
  5
DBAA
  8
0
 10
333.31213129717798
 20
880.54117253028505
 30
0.0
 40
3.4700000000000002
 50
353.81035099999951
 51
90.0
  0
LINE
  5
DBAB
  8
0
 10
449.69777829717799
 20
838.93071153028518
 30
0.0
 11
250.69777829717799
 21
838.93071153028518
 31
0.0
  0
LINE
  5
DBAC
  8
0
 10
449.69777829717799
 20
841.97641753028518
 30
0.0
 11
250.69777829717799
 21
841.97641753028518
 31
0.0
  0
LINE
  5
DBAD
  8
0
 10
449.69777829717799
 20
849.96658553028522
 30
0.0
 11
250.69777829717799
 21
849.96658553028522
 31
0.0
  0
LINE
  5
DBAE
  8
0
 10
449.69777829717799
 20
852.95921253028507
 30
0.0
 11
250.69777829717799
 21
852.95921253028507
 31
0.0
  0
LINE
  5
DBAF
  8
0
 10
449.69777829717799
 20
860.98991353028521
 30
0.0
 11
250.69777829717799
 21
860.98991353028521
 31
0.0
  0
LINE
  5
DBB0
  8
0
 10
449.69777829717799
 20
863.95139253028515
 30
0.0
 11
250.69777829717799
 21
863.95139253028515
 31
0.0
  0
LINE
  5
DBB1
  8
0
 10
252.77669929717831
 20
841.48102053028515
 30
0.0
 11
447.61885729717812
 21
841.48102053028515
 31
0.0
  0
LINE
  5
DBB2
  8
0
 10
252.77669929717831
 20
839.48102053028515
 30
0.0
 11
447.61885729717812
 21
839.48102053028515
 31
0.0
  0
LINE
  5
DBB3
  8
0
 10
252.77669929717831
 20
852.48102053028538
 30
0.0
 11
447.61885729717812
 21
852.48102053028538
 31
0.0
  0
LINE
  5
DBB4
  8
0
 10
252.77669929717831
 20
850.48102053028538
 30
0.0
 11
447.61885729717812
 21
850.48102053028538
 31
0.0
  0
LINE
  5
DBB5
  8
0
 10
252.77669929717831
 20
863.48102053028515
 30
0.0
 11
447.61885729717812
 21
863.48102053028515
 31
0.0
  0
LINE
  5
DBB6
  8
0
 10
252.77669929717831
 20
861.48102053028538
 30
0.0
 11
447.61885729717812
 21
861.48102053028538
 31
0.0
  0
LINE
  5
DBB7
  8
0
 10
265.6977782971781
 20
871.00317653028537
 30
0.0
 11
340.12453529717823
 21
871.00317653028537
 31
0.0
  0
LINE
  5
DBB8
  8
0
 10
265.6977782971781
 20
873.95086853028545
 30
0.0
 11
333.31213129717798
 21
873.95086853028545
 31
0.0
  0
LINE
  5
DBB9
  8
0
 10
333.92280129717801
 20
873.48102053028515
 30
0.0
 11
267.77669929717831
 21
873.48102053028515
 31
0.0
  0
LINE
  5
DBBA
  8
0
 10
339.65104029717799
 20
871.48102053028515
 30
0.0
 11
267.77669929717831
 21
871.48102053028515
 31
0.0
  0
LINE
  5
DBBB
  8
0
 10
265.6977782971781
 20
873.95086853028545
 30
0.0
 11
265.6977782971781
 21
871.00317653028537
 31
0.0
  0
LINE
  5
DBBC
  8
0
 10
250.69777829717799
 20
863.95139253028515
 30
0.0
 11
250.69777829717799
 21
860.98991353028521
 31
0.0
  0
LINE
  5
DBBD
  8
0
 10
250.69777829717799
 20
852.95921253028507
 30
0.0
 11
250.69777829717799
 21
849.96658553028522
 31
0.0
  0
LINE
  5
DBBE
  8
0
 10
250.69777829717799
 20
841.97641753028518
 30
0.0
 11
250.69777829717799
 21
838.93071153028518
 31
0.0
  0
LINE
  5
DBBF
  8
0
 10
252.77669929717831
 20
839.48102053028515
 30
0.0
 11
250.69777829717799
 21
838.93071153028518
 31
0.0
  0
LINE
  5
DBC0
  8
0
 10
252.77669929717831
 20
841.48102053028515
 30
0.0
 11
250.69777829717799
 21
841.97641753028518
 31
0.0
  0
LINE
  5
DBC1
  8
0
 10
252.77669929717831
 20
850.48102053028538
 30
0.0
 11
250.69777829717799
 21
849.96658553028522
 31
0.0
  0
LINE
  5
DBC2
  8
0
 10
252.77669929717831
 20
852.48102053028538
 30
0.0
 11
250.69777829717799
 21
852.95921253028507
 31
0.0
  0
LINE
  5
DBC3
  8
0
 10
252.77669929717831
 20
861.48102053028538
 30
0.0
 11
250.69777829717799
 21
860.98991353028521
 31
0.0
  0
LINE
  5
DBC4
  8
0
 10
252.77669929717831
 20
863.48102053028515
 30
0.0
 11
250.69777829717799
 21
863.95139253028515
 31
0.0
  0
LINE
  5
DBC5
  8
0
 10
267.77669929717831
 20
871.48102053028515
 30
0.0
 11
265.6977782971781
 21
871.00317653028537
 31
0.0
  0
LINE
  5
DBC6
  8
0
 10
267.77669929717831
 20
873.48102053028515
 30
0.0
 11
265.6977782971781
 21
873.95086853028545
 31
0.0
  0
LINE
  5
DBC7
  8
0
 10
252.77669929717831
 20
839.48102053028515
 30
0.0
 11
252.77669929717831
 21
841.48102053028515
 31
0.0
  0
LINE
  5
DBC8
  8
0
 10
252.77669929717831
 20
850.48102053028538
 30
0.0
 11
252.77669929717831
 21
852.48102053028538
 31
0.0
  0
LINE
  5
DBC9
  8
0
 10
252.77669929717831
 20
861.48102053028538
 30
0.0
 11
252.77669929717831
 21
863.48102053028515
 31
0.0
  0
LINE
  5
DBCA
  8
0
 10
267.77669929717831
 20
871.48102053028515
 30
0.0
 11
267.77669929717831
 21
873.48102053028515
 31
0.0
  0
ARC
  5
DBCB
  8
0
 10
333.92280129717801
 20
876.48102053028538
 30
0.0
 40
3.0
 50
270.0
 51
10.286561000000651
  0
ARC
  5
DBCC
  8
0
 10
333.31213129717798
 20
877.42086853028536
 30
0.0
 40
3.4700000000000002
 50
270.0
 51
6.1896490000005366
  0
LINE
  5
DBCD
  8
0
 10
449.69777829717799
 20
871.00317653028537
 30
0.0
 11
355.27102129717792
 21
871.00317653028537
 31
0.0
  0
LINE
  5
DBCE
  8
0
 10
449.69777829717799
 20
873.95086853028545
 30
0.0
 11
362.08342529717811
 21
873.95086853028545
 31
0.0
  0
LINE
  5
DBCF
  8
0
 10
361.47275529717808
 20
873.48102053028515
 30
0.0
 11
447.61885729717812
 21
873.48102053028515
 31
0.0
  0
LINE
  5
DBD0
  8
0
 10
355.744516297178
 20
871.48102053028515
 30
0.0
 11
447.61885729717812
 21
871.48102053028515
 31
0.0
  0
ARC
  5
DBD1
  8
0
 10
361.47275529717808
 20
876.48102053028538
 30
0.0
 40
3.0
 50
169.71343899999931
 51
270.0
  0
ARC
  5
DBD2
  8
0
 10
362.08342529717811
 20
877.42086853028536
 30
0.0
 40
3.4700000000000002
 50
173.8103509999994
 51
270.0
  0
LINE
  5
DBD3
  8
0
 10
447.61885729717812
 20
871.48102053028515
 30
0.0
 11
447.61885729717812
 21
873.48102053028515
 31
0.0
  0
LINE
  5
DBD4
  8
0
 10
447.61885729717812
 20
861.48102053028538
 30
0.0
 11
447.61885729717812
 21
863.48102053028515
 31
0.0
  0
LINE
  5
DBD5
  8
0
 10
447.61885729717812
 20
850.48102053028538
 30
0.0
 11
447.61885729717812
 21
852.48102053028538
 31
0.0
  0
LINE
  5
DBD6
  8
0
 10
447.61885729717812
 20
839.48102053028515
 30
0.0
 11
447.61885729717812
 21
841.48102053028515
 31
0.0
  0
LINE
  5
DBD7
  8
0
 10
447.61885729717812
 20
873.48102053028515
 30
0.0
 11
449.69777829717799
 21
873.95086853028545
 31
0.0
  0
LINE
  5
DBD8
  8
0
 10
447.61885729717812
 20
871.48102053028515
 30
0.0
 11
449.69777829717799
 21
871.00317653028537
 31
0.0
  0
LINE
  5
DBD9
  8
0
 10
447.61885729717812
 20
863.48102053028515
 30
0.0
 11
449.69777829717799
 21
863.95139253028515
 31
0.0
  0
LINE
  5
DBDA
  8
0
 10
447.61885729717812
 20
861.48102053028538
 30
0.0
 11
449.69777829717799
 21
860.98991353028521
 31
0.0
  0
LINE
  5
DBDB
  8
0
 10
447.61885729717812
 20
852.48102053028538
 30
0.0
 11
449.69777829717799
 21
852.95921253028507
 31
0.0
  0
LINE
  5
DBDC
  8
0
 10
447.61885729717812
 20
850.48102053028538
 30
0.0
 11
449.69777829717799
 21
849.96658553028522
 31
0.0
  0
LINE
  5
DBDD
  8
0
 10
447.61885729717812
 20
841.48102053028515
 30
0.0
 11
449.69777829717799
 21
841.97641753028518
 31
0.0
  0
LINE
  5
DBDE
  8
0
 10
447.61885729717812
 20
839.48102053028515
 30
0.0
 11
449.69777829717799
 21
838.93071153028518
 31
0.0
  0
LINE
  5
DBDF
  8
0
 10
449.69777829717799
 20
841.97641753028518
 30
0.0
 11
449.69777829717799
 21
838.93071153028518
 31
0.0
  0
LINE
  5
DBE0
  8
0
 10
449.69777829717799
 20
852.95921253028507
 30
0.0
 11
449.69777829717799
 21
849.96658553028522
 31
0.0
  0
LINE
  5
DBE1
  8
0
 10
449.69777829717799
 20
863.95139253028515
 30
0.0
 11
449.69777829717799
 21
860.98991353028521
 31
0.0
  0
LINE
  5
DBE2
  8
0
 10
449.69777829717799
 20
873.95086853028545
 30
0.0
 11
449.69777829717799
 21
871.00317653028537
 31
0.0
  0
LINE
  5
DBE3
  8
0
 10
382.61885729717778
 20
830.48102053028515
 30
0.0
 11
384.69777829717799
 21
830.97641753028518
 31
0.0
  0
LINE
  5
DBE4
  8
0
 10
384.69777829717799
 20
830.97641753028518
 30
0.0
 11
250.69777829717799
 21
830.97641753028518
 31
0.0
  0
LINE
  5
DBE5
  8
0
 10
252.77669929717831
 20
830.48102053028515
 30
0.0
 11
382.61885729717778
 21
830.48102053028515
 31
0.0
  0
LINE
  5
DBE6
  8
0
 10
382.61885729717778
 20
828.48102053028538
 30
0.0
 11
382.61885729717778
 21
830.48102053028515
 31
0.0
  0
LINE
  5
DBE7
  8
0
 10
384.69777829717799
 20
827.93071153028518
 30
0.0
 11
250.69777829717799
 21
827.93071153028518
 31
0.0
  0
LINE
  5
DBE8
  8
0
 10
252.77669929717831
 20
828.48102053028538
 30
0.0
 11
382.61885729717778
 21
828.48102053028538
 31
0.0
  0
LINE
  5
DBE9
  8
0
 10
382.61885729717778
 20
828.48102053028538
 30
0.0
 11
384.69777829717799
 21
827.93071153028518
 31
0.0
  0
LINE
  5
DBEA
  8
0
 10
384.69777829717799
 20
821.97641753028518
 30
0.0
 11
250.69777829717799
 21
821.97641753028518
 31
0.0
  0
LINE
  5
DBEB
  8
0
 10
252.77669929717831
 20
821.48102053028515
 30
0.0
 11
382.61885729717778
 21
821.48102053028515
 31
0.0
  0
LINE
  5
DBEC
  8
0
 10
384.69777829717799
 20
818.93071153028507
 30
0.0
 11
250.73133529717779
 21
818.93071153028507
 31
0.0
  0
LINE
  5
DBED
  8
0
 10
252.77669929717831
 20
819.48102053028538
 30
0.0
 11
382.61885729717778
 21
819.48102053028538
 31
0.0
  0
LINE
  5
DBEE
  8
0
 10
382.61885729717778
 20
819.48102053028538
 30
0.0
 11
384.69777829717799
 21
818.93071153028507
 31
0.0
  0
LINE
  5
DBEF
  8
0
 10
384.69777829717799
 20
821.97641753028518
 30
0.0
 11
384.69777829717799
 21
818.93071153028507
 31
0.0
  0
LINE
  5
DBF0
  8
0
 10
382.61885729717778
 20
819.48102053028538
 30
0.0
 11
382.61885729717778
 21
821.48102053028515
 31
0.0
  0
LINE
  5
DBF1
  8
0
 10
382.61885729717778
 20
821.48102053028515
 30
0.0
 11
384.69777829717799
 21
821.97641753028518
 31
0.0
  0
LINE
  5
DBF2
  8
0
 10
384.69777829717799
 20
818.93071153028507
 30
0.0
 11
399.69777829717799
 21
818.93071153028507
 31
0.0
  0
LINE
  5
DBF3
  8
0
 10
399.69777829717799
 20
818.93071153028507
 30
0.0
 11
415.69777829717799
 21
814.58878653028546
 31
0.0
  0
LINE
  5
DBF4
  8
0
 10
250.69777829717799
 20
830.97641753028518
 30
0.0
 11
250.69777829717799
 21
827.93071153028518
 31
0.0
  0
LINE
  5
DBF5
  8
0
 10
250.69777829717799
 20
821.97641753028518
 30
0.0
 11
250.69777829717799
 21
818.93071153028507
 31
0.0
  0
LINE
  5
DBF6
  8
0
 10
252.77669929717831
 20
828.48102053028538
 30
0.0
 11
252.77669929717831
 21
830.48102053028515
 31
0.0
  0
LINE
  5
DBF7
  8
0
 10
252.77669929717831
 20
830.48102053028515
 30
0.0
 11
250.69777829717799
 21
830.97641753028518
 31
0.0
  0
LINE
  5
DBF8
  8
0
 10
252.77669929717831
 20
828.48102053028538
 30
0.0
 11
250.69777829717799
 21
827.93071153028518
 31
0.0
  0
LINE
  5
DBF9
  8
0
 10
252.77669929717831
 20
821.48102053028515
 30
0.0
 11
250.69777829717799
 21
821.97641753028518
 31
0.0
  0
LINE
  5
DBFA
  8
0
 10
252.77669929717831
 20
819.48102053028538
 30
0.0
 11
252.77669929717831
 21
821.48102053028515
 31
0.0
  0
LINE
  5
DBFB
  8
0
 10
252.77669929717831
 20
819.48102053028538
 30
0.0
 11
250.69777829717799
 21
818.93071153028507
 31
0.0
  0
LINE
  5
DBFC
  8
0
 10
142.59780829717781
 20
978.98102053028538
 30
0.0
 11
220.1977782971781
 21
978.98102053028538
 31
0.0
  0
LINE
  5
DBFD
  8
0
 10
142.59780829717781
 20
984.98102053028515
 30
0.0
 11
220.1977782971781
 21
984.98102053028515
 31
0.0
  0
LINE
  5
DBFE
  8
0
 10
242.19777829717799
 20
975.98102053028515
 30
0.0
 11
138.69777829717799
 21
975.98102053028515
 31
0.0
  0
LINE
  5
DBFF
  8
0
 10
231.19777829717799
 20
978.98102053028538
 30
0.0
 11
244.6977782971781
 21
978.98102053028538
 31
0.0
  0
ARC
  5
DC00
  8
0
 10
888.98475829717779
 20
878.98102053028538
 30
0.0
 40
764.28698999999995
 50
172.82194999999871
 51
187.17804000000049
  0
LINE
  5
DC01
  8
0
 10
135.34780829717781
 20
785.38098053028523
 30
0.0
 11
135.34780829717781
 21
972.67096053028536
 31
0.0
  0
LINE
  5
DC02
  8
0
 10
129.69777829717799
 20
941.42096053028536
 30
0.0
 11
129.69777829717799
 21
815.8410005302851
 31
0.0
  0
LINE
  5
DC03
  8
0
 10
127.697778297178
 20
941.42096053028536
 30
0.0
 11
127.697778297178
 21
816.53094053028508
 31
0.0
  0
LINE
  5
DC04
  8
0
 10
242.19777829717799
 20
781.98102053028538
 30
0.0
 11
138.69777829717799
 21
781.98102053028538
 31
0.0
  0
LINE
  5
DC05
  8
0
 10
129.84774829717799
 20
813.15100053028505
 30
0.0
 11
134.75777829717799
 21
785.28100053028538
 31
0.0
  0
ARC
  5
DC06
  8
0
 10
142.59951829717829
 20
784.9790605302851
 30
0.0
 40
5.9980479999999998
 50
207.0535100000092
 51
269.98324000000241
  0
ARC
  5
DC07
  8
0
 10
142.60024829717801
 20
784.97711053028536
 30
0.0
 40
11.996128000000001
 50
187.16444000000149
 51
269.98822000000808
  0
ARC
  5
DC08
  8
0
 10
128.8581782971778
 20
812.98407053028518
 30
0.0
 40
1.0035289999999999
 50
9.5734909999996063
 51
62.10181499998955
  0
ARC
  5
DC09
  8
0
 10
130.6963182971781
 20
816.53900053028508
 30
0.0
 40
2.9985330000000001
 50
180.1533100000014
 51
242.84512999998921
  0
ARC
  5
DC0A
  8
0
 10
138.697168297178
 20
785.98236053028506
 30
0.0
 40
4.0014059999999976
 50
190.09553000000011
 51
270.00785000000678
  0
LINE
  5
DC0B
  8
0
 10
129.84774829717799
 20
944.80096053028569
 30
0.0
 11
134.75771829717809
 21
972.67096053028536
 31
0.0
  0
ARC
  5
DC0C
  8
0
 10
138.69729829717829
 20
971.98163053028532
 30
0.0
 40
3.9993959999999982
 50
89.993275000011238
 51
170.07405999999821
  0
ARC
  5
DC0D
  8
0
 10
128.8584282971778
 20
944.98016053028516
 30
0.0
 40
1.0054319999999941
 50
297.82706000000729
 51
349.7352699999982
  0
ARC
  5
DC0E
  8
0
 10
130.6949782971777
 20
941.4237705302852
 30
0.0
 40
2.997211999999998
 50
117.13965999999481
 51
180.05330999999691
  0
ARC
  5
DC0F
  8
0
 10
142.59865829717819
 20
972.98431053028514
 30
0.0
 40
5.9966319999999991
 50
90.008472000013285
 51
152.954760000004
  0
ARC
  5
DC10
  8
0
 10
142.59926829717821
 20
972.98596053028518
 30
0.0
 40
11.995034
 50
90.007167000000024
 51
172.8401600000048
  0
LINE
  5
DC11
  8
0
 10
122.3077682971779
 20
873.98102053028538
 30
0.0
 11
122.3077682971779
 21
883.98102053028515
 31
0.0
  0
LINE
  5
DC12
  8
0
 10
124.71779829717789
 20
883.98102053028515
 30
0.0
 11
122.3077682971779
 21
883.98102053028515
 31
0.0
  0
LINE
  5
DC13
  8
0
 10
124.71779829717789
 20
873.98102053028538
 30
0.0
 11
122.3077682971779
 21
873.98102053028538
 31
0.0
  0
LINE
  5
DC14
  8
0
 10
244.6977782971781
 20
984.98102053028515
 30
0.0
 11
244.6977782971781
 21
978.98102053028538
 31
0.0
  0
LINE
  5
DC15
  8
0
 10
220.1977782971781
 20
985.98102053028515
 30
0.0
 11
220.1977782971781
 21
975.98102053028515
 31
0.0
  0
LINE
  5
DC16
  8
0
 10
231.19777829717799
 20
985.98102053028515
 30
0.0
 11
231.19777829717799
 21
975.98102053028515
 31
0.0
  0
LINE
  5
DC17
  8
0
 10
231.19777829717799
 20
984.98102053028515
 30
0.0
 11
244.6977782971781
 21
984.98102053028515
 31
0.0
  0
LINE
  5
DC18
  8
0
 10
220.1977782971781
 20
985.98102053028515
 30
0.0
 11
231.19777829717799
 21
985.98102053028515
 31
0.0
  0
LINE
  5
DC19
  8
0
 10
142.5978042971783
 20
778.98097953028525
 30
0.0
 11
220.19777429717811
 21
778.98097653028515
 31
0.0
  0
LINE
  5
DC1A
  8
0
 10
142.5978042971783
 20
772.98097953028537
 30
0.0
 11
220.19777429717811
 21
772.98097653028537
 31
0.0
  0
LINE
  5
DC1B
  8
0
 10
220.19777429717811
 20
771.98097653028515
 30
0.0
 11
220.19777429717811
 21
781.98097653028537
 31
0.0
  0
LINE
  5
DC1C
  8
0
 10
220.19777429717811
 20
771.98097653028515
 30
0.0
 11
231.19777429717811
 21
771.98097653028515
 31
0.0
  0
LINE
  5
DC1D
  8
0
 10
231.19777429717811
 20
771.98097653028515
 30
0.0
 11
231.19777429717811
 21
781.98097653028537
 31
0.0
  0
LINE
  5
DC1E
  8
0
 10
231.19777429717811
 20
772.98097653028537
 30
0.0
 11
244.697774297178
 21
772.98097653028537
 31
0.0
  0
LINE
  5
DC1F
  8
0
 10
244.697774297178
 20
772.98097653028537
 30
0.0
 11
244.697774297178
 21
778.98097653028515
 31
0.0
  0
LINE
  5
DC20
  8
0
 10
231.19777429717811
 20
778.98097653028515
 30
0.0
 11
244.697774297178
 21
778.98097653028515
 31
0.0
  0
LINE
  5
DC21
  8
0
 10
242.19777829717799
 20
886.62479153028505
 30
0.0
 11
253.6977782971781
 21
886.62479153028505
 31
0.0
  0
LINE
  5
DC22
  8
0
 10
242.19777829717799
 20
886.95886953028548
 30
0.0
 11
254.37777829717791
 21
886.95886953028548
 31
0.0
  0
LINE
  5
DC23
  8
0
 10
255.6977782971781
 20
884.62479153028517
 30
0.0
 11
255.6977782971781
 21
878.98102453028537
 31
0.0
  0
LINE
  5
DC24
  8
0
 10
257.377778297178
 20
889.95886953028514
 30
0.0
 11
257.377778297178
 21
878.98102453028537
 31
0.0
  0
ARC
  5
DC25
  8
0
 10
254.37777829717791
 20
889.95886953028514
 30
0.0
 40
3.0
 50
270.0
 51
0.0
  0
LINE
  5
DC26
  8
0
 10
242.19777829717799
 20
871.33725653028534
 30
0.0
 11
253.6977782971781
 21
871.33725653028534
 31
0.0
  0
LINE
  5
DC27
  8
0
 10
242.19777829717799
 20
871.00317942063612
 30
0.0
 11
254.37777829717791
 21
871.00317853028537
 31
0.0
  0
LINE
  5
DC28
  8
0
 10
255.6977782971781
 20
873.33725653028534
 30
0.0
 11
255.6977782971781
 21
878.98102453028537
 31
0.0
  0
LINE
  5
DC29
  8
0
 10
257.377778297178
 20
868.00317853028514
 30
0.0
 11
257.377778297178
 21
878.98102453028537
 31
0.0
  0
ARC
  5
DC2A
  8
0
 10
254.37777829717791
 20
868.00317853028514
 30
0.0
 40
3.0
 50
359.99999799999722
 51
89.999998000010223
  0
LINE
  5
DC2B
  8
0
 10
494.19782829717758
 20
589.77473497825122
 30
0.0
 11
454.69777829717788
 21
589.77473497825122
 31
0.0
  0
LINE
  5
DC2C
  8
0
 10
494.19782829717758
 20
581.65072997825132
 30
0.0
 11
454.69777829717788
 21
581.65072997825132
 31
0.0
  0
LINE
  5
DC2D
  8
0
 10
494.19782829717758
 20
567.97701897825118
 30
0.0
 11
454.69777829717788
 21
567.97701897825118
 31
0.0
  0
LINE
  5
DC2E
  8
0
 10
494.19782829717758
 20
443.72180697825132
 30
0.0
 11
454.69777829717788
 21
443.72180697825132
 31
0.0
  0
LINE
  5
DC2F
  8
0
 10
494.19782829717758
 20
456.00908797825127
 30
0.0
 11
454.69777829717788
 21
456.00908797825127
 31
0.0
  0
LINE
  5
DC30
  8
0
 10
494.19782829717758
 20
466.18837997825131
 30
0.0
 11
454.69777829717788
 21
466.18837997825131
 31
0.0
  0
LINE
  5
DF65
  8
AM_0
 10
657.19782829717769
 20
567.91111597825125
 30
0.0
 11
713.19777829717805
 21
567.91111597825125
 31
0.0
  0
LINE
  5
DF66
  8
AM_0
 10
657.19782829717769
 20
567.91111597825125
 30
0.0
 11
657.19782829717769
 21
564.91111597825125
 31
0.0
  0
LINE
  5
DF67
  8
AM_0
 10
713.19777829717805
 20
522.91111597825125
 30
0.0
 11
713.19777829717805
 21
567.91111597825125
 31
0.0
  0
LINE
  5
DF68
  8
AM_0
 10
643.19777829717793
 20
521.41108597825132
 30
0.0
 11
643.19777829717793
 21
566.41108597825132
 31
0.0
  0
LINE
  5
DF69
  8
AM_0
 10
643.19777829717793
 20
522.91111597825125
 30
0.0
 11
713.19777829717805
 21
522.91111597825125
 31
0.0
  0
LINE
  5
DF6A
  8
AM_0
 10
643.19777829717793
 20
564.91111597825125
 30
0.0
 11
713.19777829717805
 21
564.91111597825125
 31
0.0
  0
LINE
  5
DF6B
  8
AM_0
 10
580.9262782971773
 20
374.41108597825132
 30
0.0
 11
627.19777829717793
 21
401.061900978251
 31
0.0
  0
LINE
  5
DF6C
  8
AM_0
 10
521.19772829717738
 20
635.91110597825116
 30
0.0
 11
591.08597829717723
 21
637.74120597825106
 31
0.0
  0
LINE
  5
DF6D
  8
AM_0
 10
521.19782829717758
 20
375.91110097825123
 30
0.0
 11
521.19782829717758
 21
635.91110597825116
 31
0.0
  0
LINE
  5
DF6E
  8
AM_0
 10
619.19782829717769
 20
403.88911097825132
 30
0.0
 11
619.19782829717769
 21
452.4042509782513
 31
0.0
  0
LINE
  5
DF6F
  8
AM_0
 10
521.19782829717758
 20
384.19381597825122
 30
0.0
 11
597.98152829717765
 21
384.19381597825122
 31
0.0
  0
LINE
  5
DF70
  8
AM_0
 10
521.19782829717758
 20
398.65061597825132
 30
0.0
 11
623.02132829717812
 21
398.65061597825132
 31
0.0
  0
LINE
  5
DF71
  8
AM_0
 10
622.30252829717745
 20
400.89097097825112
 30
0.0
 11
637.19782829717769
 21
401.41111597825119
 31
0.0
  0
LINE
  5
DF72
  8
AM_0
 10
641.19782829717769
 20
543.91108597825132
 30
0.0
 11
641.19782829717769
 21
423.91108597825121
 31
0.0
  0
LINE
  5
DF73
  8
AM_0
 10
521.19782829717758
 20
495.93009597825107
 30
0.0
 11
627.19782829717769
 21
495.93009597825107
 31
0.0
  0
LINE
  5
DF74
  8
AM_0
 10
619.19782829717769
 20
565.39793097825122
 30
0.0
 11
619.19782829717769
 21
682.88545597825123
 31
0.0
  0
LINE
  5
DF75
  8
AM_0
 10
637.19782829717769
 20
401.41108597825132
 30
0.0
 11
637.19782829717769
 21
686.41110597825116
 31
0.0
  0
LINE
  5
DF76
  8
AM_0
 10
622.09317829717725
 20
685.88360597825124
 30
0.0
 11
637.19782829717769
 21
686.41110597825116
 31
0.0
  0
LINE
  5
DF77
  8
AM_0
 10
594.40547829717798
 20
633.78640597825108
 30
0.0
 11
593.08007829717724
 21
637.79340597825114
 31
0.0
  0
LINE
  5
DF78
  8
AM_0
 10
618.06332829717758
 20
562.2640209782511
 30
0.0
 11
601.81032829717788
 21
611.40004097825124
 31
0.0
  0
LINE
  5
DF79
  8
AM_0
 10
521.19782829717758
 20
613.17161597825111
 30
0.0
 11
570.25937829717793
 21
613.17161597825111
 31
0.0
  0
LINE
  5
DF7A
  8
AM_0
 10
521.19782829717758
 20
627.62840097825119
 30
0.0
 11
584.10837829717718
 21
627.62840097825119
 31
0.0
  0
LINE
  5
DF7B
  8
AM_0
 10
627.19782829717769
 20
543.91108597825132
 30
0.0
 11
627.19782829717769
 21
654.86835597825132
 31
0.0
  0
LINE
  5
DF7C
  8
AM_0
 10
641.19782829717769
 20
543.91108597825132
 30
0.0
 11
641.19782829717769
 21
663.91110597825116
 31
0.0
  0
LINE
  5
DF7D
  8
AM_0
 10
521.19777829717793
 20
375.91108597825132
 30
0.0
 11
580.92632829717775
 21
374.41108597825132
 31
0.0
  0
LINE
  5
DF7E
  8
AM_0
 10
637.19782829717769
 20
423.91108597825121
 30
0.0
 11
641.19782829717769
 21
423.91108597825121
 31
0.0
  0
LINE
  5
DF7F
  8
AM_0
 10
627.19782829717769
 20
543.91108597825132
 30
0.0
 11
627.19782829717769
 21
432.95378097825119
 31
0.0
  0
LINE
  5
DF80
  8
AM_0
 10
521.19782829717758
 20
515.89210597825115
 30
0.0
 11
627.19782829717769
 21
515.89210597825115
 31
0.0
  0
LINE
  5
DF81
  8
AM_0
 10
622.81037829717752
 20
558.8342759782513
 30
0.0
 11
627.19782829717769
 21
558.8342759782513
 31
0.0
  0
LINE
  5
DF82
  8
AM_0
 10
637.19782829717769
 20
663.91110597825116
 30
0.0
 11
641.19782829717769
 21
663.91110597825116
 31
0.0
  0
LINE
  5
DF83
  8
AM_0
 10
594.4906782971774
 20
639.20390597825099
 30
0.0
 11
617.73337829717718
 21
662.44660597825123
 31
0.0
  0
LINE
  5
DF84
  8
AM_0
 10
549.19782829717769
 20
442.549115978251
 30
0.0
 11
619.19782829717769
 21
442.549115978251
 31
0.0
  0
LINE
  5
DF85
  8
AM_0
 10
549.19782829717769
 20
423.10682597825121
 30
0.0
 11
619.19782829717769
 21
423.10682597825121
 31
0.0
  0
LINE
  5
DF86
  8
AM_0
 10
549.19782829717769
 20
424.95350597825131
 30
0.0
 11
549.19782829717769
 21
441.05351097825132
 31
0.0
  0
LINE
  5
DF87
  8
AM_0
 10
572.69782829717769
 20
611.40004097825124
 30
0.0
 11
600.15082829717812
 21
611.40004097825124
 31
0.0
  0
LINE
  5
DF88
  8
AM_0
 10
603.14052829717832
 20
612.39244097825122
 30
0.0
 11
619.19772829717749
 21
624.37126097825114
 31
0.0
  0
LINE
  5
DF89
  8
AM_0
 10
616.76407829717755
 20
647.15765597825123
 30
0.0
 11
579.70517829717755
 21
624.99507097825119
 31
0.0
  0
LINE
  5
DF8A
  8
AM_0
 10
617.05042829717775
 20
640.91470597825128
 30
0.0
 11
575.29237829717749
 21
615.94181597825127
 31
0.0
  0
LINE
  5
DF8B
  8
AM_0
 10
641.19782829717769
 20
521.41108597825132
 30
0.0
 11
643.19777829717793
 21
521.41108597825132
 31
0.0
  0
LINE
  5
DF8C
  8
AM_0
 10
641.19782829717769
 20
566.41108597825132
 30
0.0
 11
643.19777829717793
 21
566.41108597825132
 31
0.0
  0
ARC
  5
DF8D
  8
AM_0
 10
590.95517829717755
 20
642.73945597825127
 30
0.0
 40
5.0
 50
271.4999999999896
 51
315.00000000000921
  0
ARC
  5
DF8E
  8
AM_0
 10
622.81037829717752
 20
563.8342759782513
 30
0.0
 40
5.0
 50
198.30292000000651
 51
270.0
  0
ARC
  5
DF8F
  8
AM_0
 10
622.19782829717758
 20
682.88545597825123
 30
0.0
 40
3.0000000500000001
 50
91.999997999994051
 51
180.000010000001
  0
ARC
  5
DF90
  8
AM_0
 10
622.19782829717758
 20
403.88911097825132
 30
0.0
 40
3.0000000500000001
 50
179.999989999999
 51
271.99999000000793
  0
ARC
  5
DF91
  8
AM_0
 10
614.19782829717769
 20
665.98215597825106
 30
0.0
 40
5.0
 50
315.00000000000921
 51
0.0
  0
ARC
  5
DF92
  8
AM_0
 10
622.19782829717758
 20
654.86835597825132
 30
0.0
 40
5.0
 50
0.0
 51
91.999997999994051
  0
ARC
  5
DF93
  8
AM_0
 10
624.19782829717769
 20
452.4042509782513
 30
0.0
 40
5.0
 50
90.000002999984659
 51
180.000010000001
  0
ARC
  5
DF94
  8
AM_0
 10
622.19782829717758
 20
432.95378097825119
 30
0.0
 40
5.0
 50
267.99999999999619
 51
0.0
  0
ARC
  5
DF95
  8
AM_0
 10
549.19782829717769
 20
432.82798597825121
 30
0.0
 40
9.7211409999999994
 50
90.000002999984659
 51
270.0
  0
ARC
  5
DF96
  8
AM_0
 10
600.15082829717812
 20
616.40004097825124
 30
0.0
 40
5.0
 50
270.0
 51
306.72321000002182
  0
ARC
  5
DF97
  8
AM_0
 10
572.69782829717769
 20
616.40004097825124
 30
0.0
 40
5.0
 50
229.76333000002259
 51
270.0
  0
ARC
  5
DF98
  8
AM_0
 10
551.39767829717755
 20
637.70620597825132
 30
0.0
 40
30.946884499999999
 50
307.55230999998099
 51
335.59613000000491
  0
ARC
  5
DF99
  8
AM_0
 10
614.19782829717769
 20
651.44885597825123
 30
0.0
 40
5.0
 50
300.88098000001457
 51
0.0
  0
LINE
  5
DF9A
  8
AM_0
 10
521.19782829717758
 20
427.45948597825162
 30
0.0
 11
521.19782829717758
 21
635.91108097825156
 31
0.0
  0
LINE
  5
DF9B
  8
AM_0
 10
510.12797829717778
 20
635.52448097825186
 30
0.0
 11
521.19772829717738
 21
635.91108097825156
 31
0.0
  0
LINE
  5
DF9C
  8
AM_0
 10
454.69782829717758
 20
420.91108597825132
 30
0.0
 11
490.33747585186808
 21
419.6665259184162
 31
0.0
  0
LINE
  5
DF9D
  8
AM_0
 10
494.19787829717723
 20
391.80382007222278
 30
0.0
 11
494.19787829717723
 21
604.53043097825139
 31
0.0
  0
ARC
  5
DF9E
  8
AM_0
 10
490.19787829717728
 20
415.66896259524998
 30
0.0
 40
4.0
 50
0.0
 51
88.000006193419608
1001
GENIUS_GENODEF_13
1002
{
1000
HIER
1070
     0
1002
}
1002
{
1000
MANEDIT
1070
     0
1002
}
1002
{
1000
NOSEL
1070
     0
1002
}
1002
{
1000
BEHIND
1070
     0
1002
}
1002
{
1000
OTHER
1070
     0
1002
}
1002
{
1000
REACTOR
1002
}
1001
GENIUS_GENOBJ-N-FIL_13
1002
{
1000
OWNER
1000
GEN
1002
}
  0
LINE
  5
DF9F
  8
AM_0
 10
508.1978282471772
 20
378.29639097825088
 30
0.0
 11
508.19782829717758
 21
633.52578097825165
 31
0.0
  0
LINE
  5
DFA0
  8
AM_0
 10
454.69782829717758
 20
590.91108597825155
 30
0.0
 11
490.33747365040739
 21
592.15562631050022
 31
0.0
  0
LINE
  5
DFA1
  8
AM_0
 10
496.67687829717761
 20
622.99013097825173
 30
0.0
 11
505.71872829717802
 21
624.58448097825124
 31
0.0
  0
LINE
  5
DFA2
  8
AM_0
 10
494.19787829717723
 20
604.53043097825139
 30
0.0
 11
494.19787829717723
 21
633.91108097825168
 31
0.0
  0
ARC
  5
DFA3
  8
AM_0
 10
490.19787829717728
 20
596.15318971054262
 30
0.0
 40
4.0
 50
271.99996225375321
 51
0.0
1001
GENIUS_GENOBJ-N-FIL_13
1002
{
1000
OWNER
1000
GEN
1002
}
1001
GENIUS_GENODEF_13
1002
{
1000
HIER
1070
     0
1002
}
1002
{
1000
MANEDIT
1070
     0
1002
}
1002
{
1000
NOSEL
1070
     0
1002
}
1002
{
1000
BEHIND
1070
     0
1002
}
1002
{
1000
OTHER
1070
     0
1002
}
1002
{
1000
REACTOR
1002
}
  0
LINE
  5
DFA4
  8
AM_0
 10
494.87492829717758
 20
635.41108097825156
 30
0.0
 11
509.53037829717857
 21
635.41108097825156
 31
0.0
  0
LINE
  5
DFA5
  8
AM_0
 10
497.38067829717778
 20
642.41108097825168
 30
0.0
 11
513.01487829717723
 21
642.41108097825168
 31
0.0
  0
LINE
  5
DFA6
  8
AM_0
 10
515.12067829717762
 20
635.69878097825199
 30
0.0
 11
513.48552829717926
 21
641.80118097825175
 31
0.0
  0
LINE
  5
DFA7
  8
AM_0
 10
495.19782829717758
 20
635.41103097825123
 30
0.0
 11
496.91002829717758
 21
641.80118097825175
 31
0.0
  0
LINE
  5
DFA8
  8
AM_0
 10
497.69442829717781
 20
642.52573097825154
 30
0.0
 11
505.19787829717711
 21
643.91103097825123
 31
0.0
  0
LINE
  5
DFA9
  8
AM_0
 10
505.19782829717758
 20
643.91108097825156
 30
0.0
 11
512.7012282971782
 21
642.52573097825154
 31
0.0
  0
LINE
  5
DFAA
  8
AM_0
 10
508.19782829717758
 20
490.89930597825168
 30
0.0
 11
521.19782829717758
 21
490.89930597825168
 31
0.0
  0
LINE
  5
DFAB
  8
AM_0
 10
508.19782829717758
 20
520.92286597825159
 30
0.0
 11
521.19782829717758
 21
520.92286597825159
 31
0.0
  0
LINE
  5
DFAC
  8
AM_0
 10
508.19782829717758
 20
610.2353809782519
 30
0.0
 11
521.19782829717758
 21
610.2353809782519
 31
0.0
  0
LINE
  5
DFAD
  8
AM_0
 10
508.19782829717758
 20
628.49438097825191
 30
0.0
 11
521.19782829717758
 21
628.49438097825191
 31
0.0
  0
ARC
  5
DFAE
  8
AM_0
 10
510.19782829717758
 20
633.52578097825165
 30
0.0
 40
2.0000000500000001
 50
91.999997999994051
 51
180.000010000001
  0
ARC
  5
DFAF
  8
AM_0
 10
497.19782829717758
 20
620.03568097825132
 30
0.0
 40
3.0000000500000001
 50
100.000000000005
 51
180.000010000001
  0
ARC
  5
DFB0
  8
AM_0
 10
505.19782829717758
 20
627.53883097825121
 30
0.0
 40
3.0000000500000001
 50
280.000000000005
 51
0.0
  0
ARC
  5
DFB1
  8
AM_0
 10
496.19782829717758
 20
633.91108097825168
 30
0.0
 40
2.0000000500000001
 50
131.4096200000055
 51
180.000010000001
  0
CIRCLE
  5
DFB2
  8
AM_0
 10
505.19782829717758
 20
656.41108097825156
 30
0.0
 40
12.5
  0
ARC
  5
DFB3
  8
AM_0
 10
505.19782829717758
 20
656.41108097825156
 30
0.0
 40
20.500000500000009
 50
304.61363999999702
 51
235.38634999998769
  0
ARC
  5
DFB4
  8
AM_0
 10
519.11472829717775
 20
636.24758097825122
 30
0.0
 40
4.000000049999997
 50
124.6136500000122
 51
187.86822000001541
  0
ARC
  5
DFB5
  8
AM_0
 10
491.28082829717732
 20
636.24758097825122
 30
0.0
 40
4.000000049999997
 50
347.9293300000017
 51
55.386359000034062
  0
ARC
  5
DFB6
  8
AM_0
 10
497.8759782971772
 20
641.54233097825124
 30
0.0
 40
1.0
 50
100.4607199999833
 51
164.99998999997021
  0
ARC
  5
DFB7
  8
AM_0
 10
512.51972829717738
 20
641.54233097825124
 30
0.0
 40
1.0
 50
14.999999999994451
 51
79.539281000009595
  0
LINE
  5
DFB9
  8
AM_0
 10
510.12797829717778
 20
376.29769097825078
 30
0.0
 11
521.19772829717738
 21
375.91109097825102
 31
0.0
  0
LINE
  5
DFBA
  8
AM_0
 10
496.67687829717761
 20
388.83204097825057
 30
0.0
 11
505.71872829717802
 21
387.23769097825112
 31
0.0
  0
ARC
  5
DFBB
  8
AM_0
 10
510.19782829717758
 20
378.29639097825088
 30
0.0
 40
2.0000000500000001
 50
180.0
 51
268.00000200000591
  0
ARC
  5
DFBC
  8
AM_0
 10
497.19782829717758
 20
391.78649097825132
 30
0.0
 40
3.0000000500000001
 50
179.6690368492057
 51
259.999999999995
  0
ARC
  5
DFBD
  8
AM_0
 10
505.19782829717758
 20
384.28334097825109
 30
0.0
 40
3.0000000500000001
 50
0.0
 51
79.999999999994984
  0
LINE
  5
E01D
  8
0
  6
CONTINUOUS
 62
     7
 10
521.19780829717786
 20
739.24299053028517
 30
0.0
 11
521.19780829717786
 21
874.98096053028519
 31
0.0
  0
LINE
  5
E01E
  8
0
  6
CONTINUOUS
 62
     7
 10
521.19780829717786
 20
882.98096053028496
 30
0.0
 11
521.19780829717786
 21
1018.718940530285
 31
0.0
  0
LINE
  5
E01F
  8
0
  6
CONTINUOUS
 62
     7
 10
521.19780829717786
 20
827.41645053028537
 30
0.0
 11
619.19780829717774
 21
827.41645053028537
 31
0.0
  0
LINE
  5
E020
  8
0
  6
CONTINUOUS
 62
     7
 10
609.06639829717801
 20
951.88312053028517
 30
0.0
 11
619.19773829717792
 21
959.44117053028515
 31
0.0
  0
LINE
  5
E021
  8
0
  6
CONTINUOUS
 62
     7
 10
617.05040829717825
 20
975.98462053028516
 30
0.0
 11
584.54759829717773
 21
956.54682053028534
 31
0.0
  0
LINE
  5
E022
  8
0
  6
CONTINUOUS
 62
     7
 10
616.76402829717813
 20
982.22761053028535
 30
0.0
 11
575.34550829717773
 21
957.45777053028496
 31
0.0
  0
LINE
  5
E023
  8
0
  6
CONTINUOUS
 62
     7
 10
637.19773829717815
 20
758.98102053028515
 30
0.0
 11
641.19773829717815
 21
758.98102053028515
 31
0.0
  0
LINE
  5
E024
  8
0
  6
CONTINUOUS
 62
     7
 10
637.19773829717815
 20
998.98096053028519
 30
0.0
 11
641.19773829717815
 21
998.98096053028519
 31
0.0
  0
LINE
  5
E025
  8
0
  6
CONTINUOUS
 62
     7
 10
641.19773829717815
 20
758.98102053028515
 30
0.0
 11
641.19773829717815
 21
998.98096053028519
 31
0.0
  0
LINE
  5
E026
  8
0
  6
CONTINUOUS
 62
     7
 10
627.19773829717792
 20
768.02369053028519
 30
0.0
 11
627.19773829717792
 21
989.93830053028512
 31
0.0
  0
LINE
  5
E027
  8
0
  6
CONTINUOUS
 62
     7
 10
622.09300829717813
 20
1020.953560530285
 30
0.0
 11
637.19773829717815
 21
1021.481020530285
 31
0.0
  0
LINE
  5
E028
  8
0
  6
CONTINUOUS
 62
     7
 10
637.19773829717815
 20
736.48102053028538
 30
0.0
 11
637.19773829717815
 21
1021.480960530285
 31
0.0
  0
LINE
  5
E029
  8
0
  6
CONTINUOUS
 62
     7
 10
619.19780829717774
 20
739.99000053028522
 30
0.0
 11
619.19780829717774
 21
1017.9553905302849
 31
0.0
  0
LINE
  5
E02A
  8
0
  6
CONTINUOUS
 62
     7
 10
622.09306829717832
 20
737.00843053028552
 30
0.0
 11
637.19773829717815
 21
736.48096053028519
 31
0.0
  0
LINE
  5
E02B
  8
0
  6
CONTINUOUS
 62
     7
 10
616.76402829717813
 20
775.73438053028519
 30
0.0
 11
575.34550829717773
 21
800.50422053028547
 31
0.0
  0
LINE
  5
E02C
  8
0
  6
CONTINUOUS
 62
     7
 10
617.05040829717825
 20
781.97736053028507
 30
0.0
 11
584.54759829717773
 21
801.41523053028538
 31
0.0
  0
LINE
  5
E02D
  8
0
  6
CONTINUOUS
 62
     7
 10
609.06639829717801
 20
806.07892053028513
 30
0.0
 11
619.19780829717774
 21
798.52082053028516
 31
0.0
  0
LINE
  5
E02E
  8
0
  6
CONTINUOUS
 62
     7
 10
657.19780829717797
 20
872.98096053028519
 30
0.0
 11
713.19777829717805
 21
872.98096053028519
 31
0.0
  0
LINE
  5
E02F
  8
0
  6
CONTINUOUS
 62
     7
 10
521.19780829717786
 20
801.41523053028538
 30
0.0
 11
572.99351829717773
 21
801.41523053028538
 31
0.0
  0
LINE
  5
E030
  8
0
  6
CONTINUOUS
 62
     7
 10
521.19773829717815
 20
739.24305053028513
 30
0.0
 11
622.13133829717788
 21
737.00739053028508
 31
0.0
  0
LINE
  5
E031
  8
0
  6
CONTINUOUS
 62
     7
 10
521.19780829717786
 20
749.85065053028507
 30
0.0
 11
619.19780829717774
 21
746.42841053028508
 31
0.0
  0
LINE
  5
E032
  8
0
  6
CONTINUOUS
 62
     7
 10
657.19780829717797
 20
884.98096053028507
 30
0.0
 11
713.19777829717805
 21
884.98096053028507
 31
0.0
  0
LINE
  5
E033
  8
0
  6
CONTINUOUS
 62
     7
 10
657.19780829717797
 20
884.98096053028507
 30
0.0
 11
657.19780829717797
 21
872.98096053028519
 31
0.0
  0
LINE
  5
E034
  8
0
  6
CONTINUOUS
 62
     7
 10
713.19777829717805
 20
857.98102053028515
 30
0.0
 11
713.19777829717805
 21
899.98102053028515
 31
0.0
  0
LINE
  5
E035
  8
0
  6
CONTINUOUS
 62
     7
 10
643.19780829717774
 20
856.48102053028515
 30
0.0
 11
643.19780829717774
 21
901.48102053028538
 31
0.0
  0
LINE
  5
E036
  8
0
  6
CONTINUOUS
 62
     7
 10
641.19773829717815
 20
856.48102053028515
 30
0.0
 11
643.19780829717774
 21
856.48102053028515
 31
0.0
  0
LINE
  5
E037
  8
0
  6
CONTINUOUS
 62
     7
 10
641.19773829717815
 20
901.48102053028538
 30
0.0
 11
643.19780829717774
 21
901.48102053028538
 31
0.0
  0
LINE
  5
E038
  8
0
  6
CONTINUOUS
 62
     7
 10
643.19780829717774
 20
857.98102053028515
 30
0.0
 11
713.19777829717805
 21
857.98102053028515
 31
0.0
  0
LINE
  5
E039
  8
0
  6
CONTINUOUS
 62
     7
 10
643.19780829717774
 20
899.98102053028515
 30
0.0
 11
713.19777829717805
 21
899.98102053028515
 31
0.0
  0
LINE
  5
E03A
  8
0
  6
CONTINUOUS
 62
     7
 10
576.88530829717774
 20
806.07892053028513
 30
0.0
 11
619.19780829717774
 21
806.07892053028513
 31
0.0
  0
LINE
  5
E03B
  8
0
  6
CONTINUOUS
 62
     7
 10
521.19780829717786
 20
930.54554053028505
 30
0.0
 11
619.19780829717774
 21
930.54554053028505
 31
0.0
  0
LINE
  5
E03C
  8
0
  6
CONTINUOUS
 62
     7
 10
521.19780829717786
 20
1008.111390530285
 30
0.0
 11
619.19780829717774
 21
1011.533570530285
 31
0.0
  0
LINE
  5
E03D
  8
0
  6
CONTINUOUS
 62
     7
 10
521.19773829717815
 20
1018.718940530285
 30
0.0
 11
622.13133829717788
 21
1020.954660530285
 31
0.0
  0
LINE
  5
E03E
  8
0
  6
CONTINUOUS
 62
     7
 10
521.19780829717786
 20
956.54676053028516
 30
0.0
 11
572.99351829717773
 21
956.54676053028516
 31
0.0
  0
LINE
  5
E03F
  8
0
  6
CONTINUOUS
 62
     7
 10
576.88530829717774
 20
951.88306053028521
 30
0.0
 11
619.19780829717774
 21
951.88306053028521
 31
0.0
  0
ARC
  5
E040
  8
0
  6
CONTINUOUS
 62
     7
 10
622.19773829717792
 20
768.02369053028519
 30
0.0
 40
5.0
 50
267.99999999999619
 51
0.0
  0
ARC
  5
E041
  8
0
  6
CONTINUOUS
 62
     7
 10
614.19780829717774
 20
986.51880053028515
 30
0.0
 40
5.0
 50
300.88098000000019
 51
0.0
  0
ARC
  5
E042
  8
0
  6
CONTINUOUS
 62
     7
 10
622.19773829717792
 20
989.93830053028512
 30
0.0
 40
5.0
 50
0.0
 51
91.999998000000545
  0
ARC
  5
E043
  8
0
  6
CONTINUOUS
 62
     7
 10
624.19780829717797
 20
945.11542053028518
 30
0.0
 40
5.0
 50
179.999989999999
 51
270.0
  0
ARC
  5
E044
  8
0
  6
CONTINUOUS
 62
     7
 10
622.19773829717792
 20
1017.9553905302849
 30
0.0
 40
3.0
 50
91.999998000000545
 51
180.000010000001
  0
ARC
  5
E045
  8
0
  6
CONTINUOUS
 62
     7
 10
614.19780829717774
 20
771.44318053028519
 30
0.0
 40
5.0
 50
0.0
 51
59.11901699999779
  0
ARC
  5
E046
  8
0
  6
CONTINUOUS
 62
     7
 10
624.19780829717797
 20
812.84656053028505
 30
0.0
 40
5.0
 50
90.00000299999769
 51
180.000010000001
  0
ARC
  5
E047
  8
0
  6
CONTINUOUS
 62
     7
 10
622.19773829717792
 20
740.00660053028514
 30
0.0
 40
3.0
 50
179.999989999999
 51
268.00000999999861
  0
ARC
  5
E048
  8
0
  6
CONTINUOUS
 62
     7
 10
572.99351829717773
 20
798.41523053028538
 30
0.0
 40
3.0
 50
59.11902300000196
 51
90.00000299999769
  0
ARC
  5
E049
  8
0
  6
CONTINUOUS
 62
     7
 10
576.88530829717774
 20
803.07892053028502
 30
0.0
 40
3.0
 50
90.00000299999769
 51
239.11901999999989
  0
ARC
  5
E04A
  8
0
  6
CONTINUOUS
 62
     7
 10
572.99351829717773
 20
959.54676053028516
 30
0.0
 40
3.0
 50
270.0
 51
300.88098000000019
  0
ARC
  5
E04B
  8
0
  6
CONTINUOUS
 62
     7
 10
576.88530829717774
 20
954.88306053028509
 30
0.0
 40
3.0
 50
120.8809700000043
 51
270.0
  0
ARC
  5
E04C
  8
0
  6
CONTINUOUS
 62
     7
 10
657.19780829717797
 20
878.98096053028507
 30
0.0
 40
6.0000037999999991
 50
90.00000299999769
 51
270.0
  0
POLYLINE
  5
E04D
  8
0
  6
CONTINUOUS
 62
     7
 66
     1
 10
0.0
 20
0.0
 30
0.0
  0
VERTEX
  5
E04E
  8
0
  6
CONTINUOUS
 62
     7
 10
619.19780829717774
 20
998.17383053028504
 30
0.0
  0
VERTEX
  5
E04F
  8
0
  6
CONTINUOUS
 62
     7
 10
611.53897829717812
 20
979.10314053028515
 30
0.0
 42
-1.0
  0
SEQEND
  5
E050
  8
0
 62
     7
  0
POLYLINE
  5
E051
  8
0
  6
CONTINUOUS
 62
     7
 66
     1
 10
0.0
 20
0.0
 30
0.0
  0
VERTEX
  5
E052
  8
0
  6
CONTINUOUS
 62
     7
 10
611.53890829717795
 20
778.8590405302856
 30
0.0
 42
0.0052467293
  0
VERTEX
  5
E053
  8
0
  6
CONTINUOUS
 62
     7
 10
613.95912829717793
 20
772.4492105302852
 30
0.0
 42
0.0052066122
  0
VERTEX
  5
E054
  8
0
  6
CONTINUOUS
 62
     7
 10
616.51279829717794
 20
766.09138053028562
 30
0.0
 42
0.0051740405
  0
VERTEX
  5
E055
  8
0
  6
CONTINUOUS
 62
     7
 10
619.19780829717774
 20
759.78815053028518
 30
0.0
  0
SEQEND
  5
E056
  8
0
 62
     7
  0
POLYLINE
  5
E057
  8
0
  6
CONTINUOUS
 62
     7
 66
     1
 10
0.0
 20
0.0
 30
0.0
  0
VERTEX
  5
E058
  8
0
  6
CONTINUOUS
 62
     7
 10
598.06200829717829
 20
930.54551053028524
 30
0.0
 42
0.030646501
  0
VERTEX
  5
E059
  8
0
  6
CONTINUOUS
 62
     7
 10
593.6524582971781
 20
896.26211053028533
 30
0.0
 42
0.064801596
  0
VERTEX
  5
E05A
  8
0
  6
CONTINUOUS
 62
     7
 10
598.06200829717829
 20
827.41650053028513
 30
0.0
  0
SEQEND
  5
E05B
  8
0
 62
     7
  0
LINE
  5
E0C9
  8
AM_0
 10
964.63023863449359
 20
559.91111597825125
 30
0.0
 11
976.63023863449359
 21
559.91111597825125
 31
0.0
  0
LINE
  5
E0CA
  8
AM_0
 10
976.63023863449359
 20
567.91111597825125
 30
0.0
 11
976.63023863449359
 21
559.91111597825125
 31
0.0
  0
LINE
  5
E0CB
  8
AM_0
 10
964.63023863449359
 20
567.91111597825125
 30
0.0
 11
964.63023863449359
 21
559.91111597825125
 31
0.0
  0
LINE
  5
E0CC
  8
AM_0
 10
964.63023863449359
 20
567.91111597825125
 30
0.0
 11
976.63023863449359
 21
567.91111597825125
 31
0.0
  0
LINE
  5
E0CD
  8
AM_0
 10
1076.152763634494
 20
515.91108597825132
 30
0.0
 11
1040.6302686344941
 21
515.91108597825132
 31
0.0
  0
LINE
  5
E0CE
  8
0
  6
AM_ISO08W050
 10
1102.8844762079721
 20
676.16532966537375
 30
0.0
 11
1078.449902441557
 21
651.73073277469723
 31
0.0
  0
LINE
  5
E0CF
  8
AM_0
 10
1110.6274336344929
 20
665.58290597825112
 30
0.0
 11
1113.1302686344941
 21
593.91108597825132
 31
0.0
  0
LINE
  5
E0D0
  8
AM_0
 10
1092.3020986344941
 20
683.9082559782513
 30
0.0
 11
1020.630268634494
 21
686.41110597825116
 31
0.0
  0
LINE
  5
E0D1
  8
AM_0
 10
1020.630268634494
 20
686.41110597825116
 30
0.0
 11
970.63026863449386
 21
686.41110597825116
 31
0.0
  0
LINE
  5
E0D2
  8
AM_0
 10
1113.130253634494
 20
593.91108597825132
 30
0.0
 11
1113.130253634494
 21
543.91108597825132
 31
0.0
  0
LINE
  5
E0D3
  8
AM_0
 10
920.63026863449386
 20
686.41110597825116
 30
0.0
 11
970.63026863449386
 21
686.41110597825116
 31
0.0
  0
LINE
  5
E0D4
  8
AM_0
 10
865.10774363449354
 20
515.91108597825132
 30
0.0
 11
900.63026863449375
 21
515.91108597825132
 31
0.0
  0
LINE
  5
E0D5
  8
AM_0
 10
967.13023863449348
 20
651.57605597825125
 30
0.0
 11
967.13023863449348
 21
632.62630597825114
 31
0.0
  0
LINE
  5
E0D6
  8
AM_0
 10
974.13023863449348
 20
651.57605597825125
 30
0.0
 11
974.13023863449348
 21
632.62630597825114
 31
0.0
  0
LINE
  5
E0D7
  8
AM_0
 10
1043.134173634493
 20
623.48610097825122
 30
0.0
 11
1013.940203634494
 21
594.29213097825095
 31
0.0
  0
LINE
  5
E0D8
  8
AM_0
 10
908.63023863449382
 20
543.91108597825132
 30
0.0
 11
908.63023863449382
 21
523.91108597825121
 31
0.0
  0
LINE
  5
E0D9
  8
AM_0
 10
1020.630268634494
 20
401.41108597825132
 30
0.0
 11
970.63026863449386
 21
401.41108597825132
 31
0.0
  0
LINE
  5
E0DA
  8
AM_0
 10
848.95842363449401
 20
683.90820597825132
 30
0.0
 11
920.63026863449386
 21
686.41110597825116
 31
0.0
  0
LINE
  5
E0DB
  8
AM_0
 10
830.63305363449354
 20
665.58295597825122
 30
0.0
 11
828.13025363449412
 21
593.91111597825125
 31
0.0
  0
LINE
  5
E0DC
  8
0
  6
AM_ISO08W050
 10
1102.868789960896
 20
411.67255227219408
 30
0.0
 11
1077.945439866568
 21
436.59591270568058
 31
0.0
  0
LINE
  5
E0DD
  8
AM_0
 10
1113.130253634494
 20
493.91108597825132
 30
0.0
 11
1113.130253634494
 21
543.91108597825132
 31
0.0
  0
LINE
  5
E0DE
  8
AM_0
 10
1110.6274336344929
 20
422.23927097825128
 30
0.0
 11
1113.1302686344941
 21
493.91111597825119
 31
0.0
  0
LINE
  5
E0DF
  8
AM_0
 10
1092.3020986344941
 20
403.91395097825108
 30
0.0
 11
1020.630268634494
 21
401.41111597825119
 31
0.0
  0
LINE
  5
E0E0
  8
AM_0
 10
830.63310363449409
 20
422.23930097825109
 30
0.0
 11
828.13025363449412
 21
493.91108597825132
 31
0.0
  0
LINE
  5
E0E1
  8
AM_0
 10
848.95842363449401
 20
403.91392097825133
 30
0.0
 11
920.63023863449348
 21
401.41108597825132
 31
0.0
  0
LINE
  5
E0E2
  8
AM_0
 10
920.63026863449386
 20
401.41108597825132
 30
0.0
 11
970.63026863449386
 21
401.41108597825132
 31
0.0
  0
LINE
  5
E0E3
  8
AM_0
 10
828.13025363449412
 20
593.91108597825132
 30
0.0
 11
828.13025363449412
 21
493.91108597825132
 31
0.0
  0
LINE
  5
E0E4
  8
0
  6
AM_ISO08W050
 10
838.79817535564905
 20
412.07903469762408
 30
0.0
 11
863.66921044113064
 21
436.95005897285807
 31
0.0
  0
LINE
  5
E0E5
  8
0
  6
AM_ISO08W050
 10
839.21965164021231
 20
675.32166326859692
 30
0.0
 11
864.26515404645795
 21
650.27618256914604
 31
0.0
  0
LINE
  5
E0E6
  8
AM_0
 10
891.05522363449415
 20
616.4150559782513
 30
0.0
 11
920.24922363449355
 21
587.22105597825123
 31
0.0
  0
LINE
  5
E0E7
  8
0
  6
AM_ISO08W050
 10
818.94554898468641
 20
543.91108597825132
 30
0.0
 11
1120.4677633250139
 21
543.91108597825132
 31
0.0
  0
LINE
  5
E0E8
  8
AM_0
 10
1050.205218634494
 20
616.41502597825115
 30
0.0
 11
1021.011248634493
 21
587.22105597825123
 31
0.0
  0
LINE
  5
E0E9
  8
AM_0
 10
898.12629863449399
 20
623.48610097825122
 30
0.0
 11
927.3202986344935
 21
594.29213097825095
 31
0.0
  0
LINE
  5
E0EA
  8
AM_0
 10
1032.630238634493
 20
543.91108597825132
 30
0.0
 11
1032.630238634493
 21
523.91108597825121
 31
0.0
  0
LINE
  5
E0EB
  8
0
  6
AM_ISO08W050
 10
970.63026863449386
 20
693.9943890236641
 30
0.0
 11
970.63026863449386
 21
364.71825597825108
 31
0.0
  0
ARC
  5
E0EC
  8
AM_0
 10
970.63026863449386
 20
543.91108597825132
 30
0.0
 40
20.9999985
 50
106.6015500000194
 51
73.398452000018409
  0
CIRCLE
  5
E0ED
  8
0
  6
AM_ISO08W050
 10
970.63026863449386
 20
543.91108597825132
 30
0.0
 40
3.5000000500000001
  0
CIRCLE
  5
E0EE
  8
0
  6
AM_ISO08W050
 10
970.63026863449386
 20
543.91108597825132
 30
0.0
 40
5.0
  0
CIRCLE
  5
E0EF
  8
AM_0
 10
970.63026863449386
 20
543.91108597825132
 30
0.0
 40
41.000000499999992
  0
ARC
  5
E0F0
  8
AM_0
 10
979.13023863449359
 20
632.62630597825114
 30
0.0
 40
5.0
 50
179.999989999999
 51
266.16236000000742
  0
ARC
  5
E0F1
  8
AM_0
 10
1076.152763634494
 20
520.91108597825132
 30
0.0
 40
5.0
 50
270.0
 51
347.70394999999132
  0
ARC
  5
E0F2
  8
AM_0
 10
865.10774363449354
 20
520.91108597825132
 30
0.0
 40
5.0
 50
192.2960399999989
 51
270.0
  0
ARC
  5
E0F3
  8
0
  6
AM_ISO08W050
 10
970.63026863449386
 20
543.91108597825155
 30
0.0
 40
170.00000499999999
 50
38.591519728731512
 51
51.014603999982398
  0
ARC
  5
E0F4
  8
AM_0
 10
1091.638998634493
 20
664.91980597825125
 30
0.0
 40
19.000000499999999
 50
2.000000000003725
 51
87.999999999996248
  0
CIRCLE
  5
E0F5
  8
0
  6
AM_ISO08W050
 10
1090.8383986344941
 20
664.1192559782512
 30
0.0
 40
9.5
  0
ARC
  5
E0F6
  8
0
  6
AM_ISO08W050
 10
970.63026863449386
 20
543.91108597825132
 30
0.0
 40
170.00000499999999
 50
217.84322999998889
 51
231.01461000001419
  0
ARC
  5
E0F7
  8
AM_0
 10
970.63026863449386
 20
505.91108597825132
 30
0.0
 40
122.0
 50
60.143060000010841
 51
86.162372000016873
  0
ARC
  5
E0F8
  8
AM_0
 10
970.63026863449386
 20
505.91108597825132
 30
0.0
 40
122.0
 50
124.6731800000161
 51
157.42801999999091
  0
ARC
  5
E0F9
  8
AM_0
 10
1039.598653634494
 20
627.02162097825124
 30
0.0
 40
5.0
 50
315.00000000000921
 51
50.312775000018888
  0
ARC
  5
E0FA
  8
AM_0
 10
962.13023863449359
 20
632.62630597825114
 30
0.0
 40
5.0
 50
273.837629999976
 51
0.0
  0
ARC
  5
E0FB
  8
AM_0
 10
962.13023863449359
 20
651.57605597825125
 30
0.0
 40
5.0
 50
0.0
 51
94.514060999993376
  0
ARC
  5
E0FC
  8
AM_0
 10
979.13023863449359
 20
651.57605597825125
 30
0.0
 40
5.0
 50
85.485944000013959
 51
180.000010000001
  0
ARC
  5
E0FD
  8
AM_0
 10
970.63026863449386
 20
505.91108597825132
 30
0.0
 40
122.0
 50
22.571982000014099
 51
55.326819999983819
  0
ARC
  5
E0FE
  8
AM_0
 10
1010.404653634494
 20
597.82768097825124
 30
0.0
 40
5.0
 50
233.58368000003429
 51
315.00000000000921
  0
ARC
  5
E0FF
  8
AM_0
 10
1053.740773634494
 20
612.87947097825111
 30
0.0
 40
5.0
 50
39.687224000006218
 51
135.00000000000921
  0
ARC
  5
E100
  8
AM_0
 10
970.63026863449386
 20
543.91108597825132
 30
0.0
 40
61.999994999999998
 50
142.11498999997059
 51
180.000010000001
  0
ARC
  5
E101
  8
AM_0
 10
970.63026863449386
 20
543.91108597825132
 30
0.0
 40
61.999994999999998
 50
53.583680999986242
 51
126.41631999996569
  0
CIRCLE
  5
E102
  8
0
  6
AM_ISO08W050
 10
1090.8383986344941
 20
423.70295597825128
 30
0.0
 40
9.5
  0
ARC
  5
E103
  8
AM_0
 10
1091.638998634493
 20
422.90235597825131
 30
0.0
 40
19.000000499999999
 50
272.00000000000369
 51
357.99999999999642
  0
ARC
  5
E104
  8
AM_0
 10
849.62150863449415
 20
422.90235597825131
 30
0.0
 40
19.000000499999999
 50
182.00000000000369
 51
267.99999999999619
  0
ARC
  5
E105
  8
AM_0
 10
1040.6302686344941
 20
523.91108597825121
 30
0.0
 40
8.0
 50
179.999989999999
 51
270.0
  0
CIRCLE
  5
E106
  8
0
  6
AM_ISO08W050
 10
850.4220736344937
 20
423.70295597825128
 30
0.0
 40
9.5
  0
CIRCLE
  5
E107
  8
0
  6
AM_ISO08W050
 10
850.4220736344937
 20
664.1192559782512
 30
0.0
 40
9.5
  0
ARC
  5
E108
  8
AM_0
 10
849.62150863449415
 20
664.91980597825125
 30
0.0
 40
19.000000499999999
 50
91.999997999994051
 51
177.99999999999619
  0
ARC
  5
E109
  8
0
  6
AM_ISO08W050
 10
970.63026863449215
 20
543.9110859782536
 30
0.0
 40
170.0000049999968
 50
125.72675619267019
 51
141.01461
  0
ARC
  5
E10A
  8
AM_0
 10
970.63026863449386
 20
543.91108597825132
 30
0.0
 40
61.999994999999998
 50
0.0
 51
36.416318000014883
  0
ARC
  5
E10B
  8
AM_0
 10
930.85582363449339
 20
597.82768097825124
 30
0.0
 40
5.0
 50
224.99999999999079
 51
306.41631999996571
  0
ARC
  5
E10C
  8
AM_0
 10
916.71370363449432
 20
583.68553097825122
 30
0.0
 40
5.0
 50
323.58368000000172
 51
45.000001000013
  0
ARC
  5
E10D
  8
AM_0
 10
887.51970363449391
 20
612.87947097825111
 30
0.0
 40
5.0
 50
45.000001000013
 51
140.31278000000339
  0
ARC
  5
E10E
  8
AM_0
 10
901.66185363449347
 20
627.02162097825124
 30
0.0
 40
5.0
 50
129.6872199999782
 51
224.99999999999079
  0
ARC
  5
E10F
  8
AM_0
 10
1024.5468036344939
 20
583.68553097825122
 30
0.0
 40
5.0
 50
135.00000000000921
 51
216.41631999999831
  0
ARC
  5
E110
  8
0
  6
AM_ISO08W050
 10
970.63026863449102
 20
543.91108597825314
 30
0.0
 40
170.000005000003
 50
305.67011938689501
 51
321.01461
  0
ARC
  5
E111
  8
AM_0
 10
900.63026863449375
 20
523.91108597825121
 30
0.0
 40
8.0
 50
270.0
 51
0.0
  0
CIRCLE
  5
E112
  8
AM_0
 10
970.63026863449386
 20
543.91108597825132
 30
0.0
 40
113.0
  0
CIRCLE
  5
E113
  8
AM_0
 10
970.63026863449386
 20
543.91108597825132
 30
0.0
 40
120.0
  0
ARC
  5
E114
  8
AM_0
 10
970.63026863449386
 20
505.911085978252
 30
0.0
 40
122.0
 50
93.837625999990266
 51
119.85693999998909
  0
LINE
  5
E115
  8
AM_0
 10
895.97099863449466
 20
390.73960597825129
 30
0.0
 11
893.68435709065443
 21
399.27349084085381
 31
0.0
  0
LINE
  5
E116
  8
AM_0
 10
1033.0420436344939
 20
383.66853097825128
 30
0.0
 11
1024.508197787304
 21
385.95518262120572
 31
0.0
  0
LINE
  5
E117
  8
AM_0
 10
908.21846363449481
 20
383.66853097825128
 30
0.0
 11
916.75235236605977
 21
385.95517683421861
 31
0.0
  0
LINE
  5
E118
  8
AM_0
 10
1045.289508634494
 20
390.73960597825129
 30
0.0
 11
1047.5761356828921
 21
399.27345873453243
 31
0.0
  0
ARC
  5
E119
  8
AM_0
 10
1035.630268634495
 20
393.32780097825128
 30
0.0
 40
10.0
 50
255.0000000000056
 51
345.00000000000563
  0
ARC
  5
E11A
  8
AM_0
 10
905.63026863449466
 20
393.32780097825128
 30
0.0
 40
10.0
 50
195.00001000001549
 51
284.99999999999437
  0
ARC
  5
E11B
  8
0
 10
970.63026863449466
 20
505.91108597825109
 30
0.0
 40
131.49999999999969
 50
231.84872209507861
 51
234.1871181856402
  0
ARC
  5
E11C
  8
0
 10
970.63026863449466
 20
505.91108597825109
 30
0.0
 40
131.49999999999969
 50
245.81287911435271
 51
294.187127039735
  0
ARC
  5
E11D
  8
0
 10
970.63026863449466
 20
505.91108597825109
 30
0.0
 40
131.49999999999969
 50
305.81285790721148
 51
308.1512678186844
  0
LINE
  5
E11E
  8
0
 10
822.20362763449396
 20
478.1664769782513
 30
0.0
 11
820.32424163449343
 21
478.85051797825128
 31
0.0
  0
ARC
  5
E11F
  8
0
 10
809.63026863449375
 20
449.46907797825128
 30
0.0
 40
2.0
 50
339.99999899999892
 51
0.0
  0
ARC
  5
E120
  8
0
 10
820.63026863449386
 20
550.53605797825139
 30
0.0
 40
9.0
 50
90.0
 51
180.0
  0
LINE
  5
E121
  8
0
 10
811.63026863449386
 20
550.53605797825139
 30
0.0
 11
811.63026863449386
 21
449.46907797825128
 31
0.0
  0
ARC
  5
E122
  8
0
 10
814.68884263449377
 20
442.90077197825133
 30
0.0
 40
5.0
 50
159.99999500000081
 51
250.0000049999978
  0
ARC
  5
E123
  8
0
 10
819.44772263449374
 20
441.41108797825132
 30
0.0
 40
2.0
 50
90.00000299999769
 51
99.385984999989944
  0
LINE
  5
E124
  8
0
 10
816.73751763449377
 20
436.83422697825119
 30
0.0
 11
812.97874163449387
 21
438.20230897825132
 31
0.0
  0
LINE
  5
E125
  8
0
 10
819.44772263449374
 20
443.41108497825132
 30
0.0
 11
829.89376388476705
 21
443.41108497825132
 31
0.0
  0
LINE
  5
E126
  8
0
 10
828.13025363449412
 20
559.53605797825116
 30
0.0
 11
820.63026863449386
 21
559.53605797825116
 31
0.0
  0
LINE
  5
E127
  8
0
 10
828.13025363449412
 20
500.29735899707771
 30
0.0
 11
820.32424163449343
 21
478.85051797825128
 31
0.0
  0
LINE
  5
E128
  8
0
 10
826.52974363449368
 20
490.05239397825108
 30
0.0
 11
828.28734243882843
 21
489.41268015681783
 31
0.0
  0
LINE
  5
E129
  8
0
 10
816.73751763449377
 20
436.83422697825119
 30
0.0
 11
828.95156218048908
 21
470.39203788218532
 31
0.0
  0
LINE
  5
E12A
  8
0
 10
826.52974363449368
 20
490.05239397825108
 30
0.0
 11
809.9903816344937
 21
444.61087097825128
 31
0.0
  0
LINE
  5
E391
  8
0
  6
CONTINUOUS
 62
     0
 10
511.06139251051172
 20
1018.187763295533
 30
0.0
 11
521.19797735755139
 21
1018.718995825427
 31
0.0
  0
TEXT
  5
E54E
  8
0
  6
CONTINUOUS
 62
     0
 10
810.01510415703433
 20
864.35360847760046
 30
0.0
 40
15.0
  1
VX22-040EBF~VX22-050EBF
  0
ENDSEC
  0
EOF
