  0
SECTION
  2
HEADER
  9
$ACADVER
  1
AC1009
  9
$INSBASE
 10
0.0
 20
0.0
 30
0.0
  9
$EXTMIN
 10
209.62427239657339
 20
431.62684310410748
 30
-0.0000000000000053
  9
$EXTMAX
 10
1450.361347659436
 20
1188.419943697829
 30
0.0000000000000099
  9
$LIMMIN
 10
0.0000005999945643
 20
-0.0000005963913736
  9
$LIMMAX
 10
1707.000000599995
 20
1109.9999994036091
  9
$ORTHOMODE
 70
     0
  9
$REGENMODE
 70
     1
  9
$FILLMODE
 70
     1
  9
$QTEXTMODE
 70
     0
  9
$MIRRTEXT
 70
     0
  9
$DRAGMODE
 70
     2
  9
$LTSCALE
 40
1.0
  9
$OSMODE
 70
   551
  9
$ATTMODE
 70
     1
  9
$TEXTSIZE
 40
2.5
  9
$TRACEWID
 40
1.0
  9
$TEXTSTYLE
  7
STANDARD
  9
$CLAYER
  8
0
  9
$CELTYPE
  6
BYLAYER
  9
$CECOLOR
 62
   256
  9
$DIMSCALE
 40
1.0
  9
$DIMASZ
 40
2.0
  9
$DIMEXO
 40
1.0
  9
$DIMDLI
 40
8.0
  9
$DIMRND
 40
0.0
  9
$DIMDLE
 40
0.0
  9
$DIMEXE
 40
1.0
  9
$DIMTP
 40
-0.025
  9
$DIMTM
 40
0.043
  9
$DIMTXT
 40
2.5
  9
$DIMCEN
 40
0.0
  9
$DIMTSZ
 40
0.0
  9
$DIMTOL
 70
     0
  9
$DIMLIM
 70
     0
  9
$DIMTIH
 70
     0
  9
$DIMTOH
 70
     0
  9
$DIMSE1
 70
     0
  9
$DIMSE2
 70
     0
  9
$DIMTAD
 70
     3
  9
$DIMZIN
 70
     8
  9
$DIMBLK
  1

  9
$DIMASO
 70
     1
  9
$DIMSHO
 70
     1
  9
$DIMPOST
  1

  9
$DIMAPOST
  1
"
  9
$DIMALT
 70
     0
  9
$DIMALTD
 70
     2
  9
$DIMALTF
 40
0.0393701
  9
$DIMLFAC
 40
1.0
  9
$DIMTOFL
 70
     1
  9
$DIMTVP
 40
0.0
  9
$DIMTIX
 70
     0
  9
$DIMSOXD
 70
     0
  9
$DIMSAH
 70
     0
  9
$DIMBLK1
  1

  9
$DIMBLK2
  1

  9
$DIMSTYLE
  2
AM_JIS
  9
$DIMCLRD
 70
     2
  9
$DIMCLRE
 70
     2
  9
$DIMCLRT
 70
     4
  9
$DIMTFAC
 40
0.71
  9
$DIMGAP
 40
1.5
  9
$LUNITS
 70
     2
  9
$LUPREC
 70
     2
  9
$SKETCHINC
 40
1.0
  9
$FILLETRAD
 40
0.0
  9
$AUNITS
 70
     0
  9
$AUPREC
 70
     0
  9
$MENU
  1
.
  9
$ELEVATION
 40
0.0
  9
$PELEVATION
 40
0.0
  9
$THICKNESS
 40
0.0
  9
$LIMCHECK
 70
     0
  9
$BLIPMODE
 70
     0
  9
$CHAMFERA
 40
3.0
  9
$CHAMFERB
 40
3.0
  9
$SKPOLY
 70
     0
  9
$TDCREATE
 40
2456829.3841110538
  9
$TDUPDATE
 40
2458541.3908988191
  9
$TDINDWG
 40
0.6756620833
  9
$TDUSRTIMER
 40
0.6756616898
  9
$USRTIMER
 70
     1
  9
$ANGBASE
 50
0.0
  9
$ANGDIR
 70
     0
  9
$PDMODE
 70
     0
  9
$PDSIZE
 40
0.0
  9
$PLINEWID
 40
0.0
  9
$COORDS
 70
     1
  9
$SPLFRAME
 70
     0
  9
$SPLINETYPE
 70
     6
  9
$SPLINESEGS
 70
     8
  9
$ATTDIA
 70
     1
  9
$ATTREQ
 70
     1
  9
$HANDLING
 70
     1
  9
$HANDSEED
  5
D17F
  9
$SURFTAB1
 70
     6
  9
$SURFTAB2
 70
     6
  9
$SURFTYPE
 70
     6
  9
$SURFU
 70
     6
  9
$SURFV
 70
     6
  9
$UCSNAME
  2

  9
$UCSORG
 10
0.0
 20
0.0
 30
0.0
  9
$UCSXDIR
 10
1.0
 20
0.0
 30
0.0
  9
$UCSYDIR
 10
0.0
 20
1.0
 30
0.0
  9
$PUCSNAME
  2

  9
$PUCSORG
 10
0.0
 20
0.0
 30
0.0
  9
$PUCSXDIR
 10
1.0
 20
0.0
 30
0.0
  9
$PUCSYDIR
 10
0.0
 20
1.0
 30
0.0
  9
$USERI1
 70
     0
  9
$USERI2
 70
     0
  9
$USERI3
 70
     0
  9
$USERI4
 70
     0
  9
$USERI5
 70
     0
  9
$USERR1
 40
0.0
  9
$USERR2
 40
0.0
  9
$USERR3
 40
0.0
  9
$USERR4
 40
0.0
  9
$USERR5
 40
0.0
  9
$WORLDVIEW
 70
     1
  9
$SHADEDGE
 70
     3
  9
$SHADEDIF
 70
    70
  9
$TILEMODE
 70
     1
  9
$MAXACTVP
 70
    64
  9
$PLIMCHECK
 70
     0
  9
$PEXTMIN
 10
1.0000000000000000E+020
 20
1.0000000000000000E+020
 30
1.0000000000000000E+020
  9
$PEXTMAX
 10
-1.0000000000000000E+020
 20
-1.0000000000000000E+020
 30
-1.0000000000000000E+020
  9
$PLIMMIN
 10
0.0
 20
0.0
  9
$PLIMMAX
 10
420.0
 20
297.0
  9
$UNITMODE
 70
     0
  9
$VISRETAIN
 70
     1
  9
$PLINEGEN
 70
     0
  9
$PSLTSCALE
 70
     1
  0
ENDSEC
  0
SECTION
  2
TABLES
  0
TABLE
  2
VPORT
 70
     1
  0
VPORT
  2
*ACTIVE
 70
     0
 10
0.0
 20
0.0
 11
1.0
 21
1.0
 12
829.99281002800478
 22
810.02339340096808
 13
0.0
 23
0.0
 14
15.0
 24
15.0
 15
60.0
 25
60.0
 16
0.0
 26
0.0
 36
1.0
 17
0.0
 27
0.0
 37
0.0
 40
761.98847657033707
 41
1.7571592210767459
 42
50.0
 43
0.0
 44
0.0
 50
0.0
 51
0.0
 71
    16
 72
  1000
 73
     1
 74
     3
 75
     0
 76
     0
 77
     0
 78
     0
  0
ENDTAB
  0
TABLE
  2
LTYPE
 70
    24
  0
LTYPE
  2
CONTINUOUS
 70
     0
  3
Solid line
 72
    65
 73
     0
 40
0.0
  0
LTYPE
  2
CENTER
 70
     0
  3
Center ____ _ ____ _ ____ _ ____ _ ____ _ ____
 72
    65
 73
     4
 40
50.799999999999997
 49
31.75
 49
-6.3499999999999979
 49
6.3499999999999979
 49
-6.3499999999999979
  0
LTYPE
  2
AM_ISO02W050
 70
     0
  3
__ __ __ __ __ __ __ __ __ __ __ __ __ __ __
 72
    65
 73
     2
 40
7.5
 49
6.0
 49
-1.5
  0
LTYPE
  2
AM_ISO08W050
 70
     0
  3
____ . ____ . ____ . ____ . ____ . ____ . ____
 72
    65
 73
     4
 40
18.0
 49
12.0
 49
-1.5
 49
3.0
 49
-1.5
  0
LTYPE
  2
AM_ISO09W050
 70
     0
  3
_____ . . _____ . . _____ . . ____ .. ____
 72
    65
 73
     6
 40
22.5
 49
12.0
 49
-1.5
 49
3.0
 49
-1.5
 49
3.0
 49
-1.5
  0
LTYPE
  2
AMCONSTR
 70
     0
  3
_______________________
 72
    65
 73
     2
 40
9999.0
 49
9999.0
 49
0.0
  0
LTYPE
  2
AM_ISO08W050X2
 70
     0
  3
__ . __ . __ . __ . __ . __
 72
    65
 73
     4
 40
9.0
 49
6.0
 49
-0.75
 49
1.5
 49
-0.75
  0
LTYPE
  2
AM_ISO02W050X2
 70
     0
  3
 _ _ _ _ _ _ _ _ _ _ _ _
 72
    65
 73
     2
 40
3.75
 49
3.0
 49
-0.75
  0
LTYPE
  2
AMZIGZAG
 70
     0
  3
/\/-/\/-/\/-/\/-/\/-/\/
 72
    65
 73
     2
 40
11.0001
 49
0.0001
 49
-11.0
  0
LTYPE
  2
ACANSTGBM
 70
     0
  3
__ . . __ . .
 72
    65
 73
     6
 40
9.0
 49
4.0
 49
-1.0
 49
1.0
 49
-1.0
 49
1.0
 49
-1.0
  0
LTYPE
  2
ACANSTGLM
 70
     0
  3
_ _ _ _ _
 72
    65
 73
     2
 40
3.0
 49
2.0
 49
-1.0
  0
LTYPE
  2
ACISOWELD
 70
     0
  3
_ _ _ _ _
 72
    65
 73
     2
 40
2.0
 49
2.0
 49
-1.0
  0
LTYPE
  2
ACISOTGB
 70
     0
  3
__ . . __ . .
 72
    65
 73
     6
 40
9.0
 49
4.0
 49
-1.0
 49
1.0
 49
-1.0
 49
1.0
 49
-1.0
  0
LTYPE
  2
ACISOTGL
 70
     0
  3
_ _ _ _ _
 72
    65
 73
     2
 40
3.0
 49
2.0
 49
-1.0
  0
LTYPE
  2
ACJISTGB
 70
     0
  3
__ . . __ . .
 72
    65
 73
     6
 40
9.0
 49
4.0
 49
-1.0
 49
1.0
 49
-1.0
 49
1.0
 49
-1.0
  0
LTYPE
  2
ACJISTGL
 70
     0
  3
_ _ _ _ _
 72
    65
 73
     2
 40
3.0
 49
2.0
 49
-1.0
  0
LTYPE
  2
HIDDEN
 70
     0
  3
Hidden __ __ __ __ __ __ __ __ __ __ __ __ __ _
 72
    65
 73
     2
 40
9.5249999999999968
 49
6.3499999999999979
 49
-3.174999999999998
  0
LTYPE
  2
PHANTOM2
 70
     0
  3
Phantom (.5x) ___ _ _ ___ _ _ ___ _ _ ___ _ _
 72
    65
 73
     6
 40
31.75
 49
15.875
 49
-3.174999999999998
 49
3.174999999999998
 49
-3.174999999999998
 49
3.174999999999998
 49
-3.174999999999998
  0
LTYPE
  2
CENTER2
 70
     0
  3
Center (.5x) ___ _ ___ _ ___ _ ___ _ ___ _ ___
 72
    65
 73
     4
 40
1.125
 49
0.75
 49
-0.125
 49
0.125
 49
-0.125
  0
LTYPE
  2
HIDDEN2
 70
     0
  3
Hidden (.5x) _ _ _ _ _ _ _ _ _ _ _ _ _ _ _ _ _
 72
    65
 73
     2
 40
0.1875
 49
0.125
 49
-0.0625
  0
LTYPE
  2
AMZIGZAG2
 70
     0
  3
/\/-/\/-/\/-/\/-/\/-/\/
 72
    65
 73
     2
 40
0.4401
 49
0.0001
 49
-0.4400000000000002
  0
LTYPE
  2
ACANSTGB
 70
     0
  3
__ . . __ . .
 72
    65
 73
     6
 40
0.35433070866
 49
0.15748031496
 49
-0.03937007874
 49
0.03937007874
 49
-0.03937007874
 49
0.03937007874
 49
-0.03937007874
  0
LTYPE
  2
ACANSTGL
 70
     0
  3
_ _ _ _ _
 72
    65
 73
     2
 40
0.11811023622
 49
0.07874015748
 49
-0.03937007874
  0
ENDTAB
  0
TABLE
  2
LAYER
 70
     5
  0
LAYER
  2
0
 70
     0
 62
     7
  6
CONTINUOUS
  0
LAYER
  2
DEFPOINTS
 70
     0
 62
     7
  6
CONTINUOUS
  0
LAYER
  2
AM_0
 70
     0
 62
     7
  6
CONTINUOUS
  0
LAYER
  2
AM_5
 70
     0
 62
     2
  6
CONTINUOUS
  0
LAYER
  2
AM_CL
 70
     0
 62
     1
  6
AMCONSTR
  0
ENDTAB
  0
TABLE
  2
STYLE
 70
     8
  0
STYLE
  2
STANDARD
 70
     0
 40
0.0
 41
0.7400000000000003
 50
0.0
 71
     0
 42
2.5
  3
txt.shx
  4
bigfont.shx
  0
STYLE
  2

 70
     1
 40
0.0
 41
1.0
 50
0.0
 71
     0
 42
2.5
  3
ltypeshp.shx
  4

  0
STYLE
  2
ACANSTS
 70
     0
 40
1.0
 41
1.0
 50
0.0
 71
     0
 42
2.5
  3
romans.shx
  4
bigfont.shx
  0
STYLE
  2
ACANSGDT
 70
     0
 40
0.0
 41
1.0
 50
0.0
 71
     0
 42
2.5
  3
amgdtans.shx
  4

  0
STYLE
  2
ACISOTS
 70
     0
 40
1.0
 41
1.0
 50
0.0
 71
     0
 42
2.5
  3
isocp.shx
  4
extfont.shx
  0
STYLE
  2
ACISOGDT
 70
     0
 40
0.0
 41
1.0
 50
0.0
 71
     0
 42
2.5
  3
amgdt.shx
  4

  0
STYLE
  2
ACJISGDT
 70
     0
 40
0.0
 41
1.0
 50
0.0
 71
     0
 42
2.5
  3
amgdt.shx
  4

  0
STYLE
  2
ACJISTS
 70
     0
 40
1.0
 41
1.0
 50
0.0
 71
     0
 42
2.5
  3
isocp.shx
  4
extfont.shx
  0
ENDTAB
  0
TABLE
  2
VIEW
 70
     6
  0
VIEW
  2
AM_VIEW1
 70
     0
 40
555.00000000000011
 10
599.14035147718755
 20
832.49999940360885
 41
1198.280701754386
 11
0.0
 21
0.0
 31
1.0
 12
0.0
 22
0.0
 32
0.0
 42
50.0
 43
0.0
 44
0.0
 50
0.0
 71
    16
  0
VIEW
  2
AM_VIEW2
 70
     0
 40
555.00000000000011
 10
1107.8596497228009
 20
832.49999940360885
 41
1198.280701754386
 11
0.0
 21
0.0
 31
1.0
 12
0.0
 22
0.0
 32
0.0
 42
50.0
 43
0.0
 44
0.0
 50
0.0
 71
    16
  0
VIEW
  2
AM_VIEW3
 70
     0
 40
555.00000000000011
 10
599.14035147718755
 20
277.49999940360868
 41
1198.280701754386
 11
0.0
 21
0.0
 31
1.0
 12
0.0
 22
0.0
 32
0.0
 42
50.0
 43
0.0
 44
0.0
 50
0.0
 71
    16
  0
VIEW
  2
AM_VIEW4
 70
     0
 40
555.00000000000011
 10
1107.8596497228009
 20
277.49999940360868
 41
1198.280701754386
 11
0.0
 21
0.0
 31
1.0
 12
0.0
 22
0.0
 32
0.0
 42
50.0
 43
0.0
 44
0.0
 50
0.0
 71
    16
  0
VIEW
  2
AM_VIEW5
 70
     0
 40
555.00000000000011
 10
853.50000059999445
 20
554.99999940360874
 41
1198.280701754386
 11
0.0
 21
0.0
 31
1.0
 12
0.0
 22
0.0
 32
0.0
 42
50.0
 43
0.0
 44
0.0
 50
0.0
 71
    16
  0
VIEW
  2
AM_VIEW6
 70
     0
 40
1109.9889000000001
 10
853.50000059999445
 20
554.99999940360874
 41
2396.5374378947372
 11
0.0
 21
0.0
 31
1.0
 12
0.0
 22
0.0
 32
0.0
 42
50.0
 43
0.0
 44
0.0
 50
0.0
 71
    16
  0
ENDTAB
  0
TABLE
  2
UCS
 70
     0
  0
ENDTAB
  0
TABLE
  2
APPID
 70
   158
  0
APPID
  2
ACAD
 70
     0
  0
APPID
  2
ACADANNOTATIVE
 70
     0
  0
APPID
  2
ACAD_MLEADERVER
 70
     0
  0
APPID
  2
MCAD_NO_VIS
 70
     0
  0
APPID
  2
ACAD_TEMP_GRAPHIC
 70
     0
  0
APPID
  2
AD_DRAW
 70
     0
  0
APPID
  2
ACATTRIBSERVICES
 70
     0
  0
APPID
  2
DESIGNERASSEMBLIES
 70
     0
  0
APPID
  2
ACADM_DIM_EDIT
 70
     0
  0
APPID
  2
AMDT_DM_ADJ
 70
     0
  0
APPID
  2
GENIUS_GENDIMSH_14
 70
     0
  0
APPID
  2
GEVID1057795304
 70
     0
  0
APPID
  2
GEVDC
 70
     0
  0
APPID
  2
GEVCON
 70
     0
  0
APPID
  2
GENIUS_GENBH_13
 70
     0
  0
APPID
  2
GENIUS_GENOENT_13
 70
     0
  0
APPID
  2
GENIUS_GENOBJ-NBEHI-BHF_13
 70
     0
  0
APPID
  2
GENIUS_GENOLIS_13
 70
     0
  0
APPID
  2
GENIUS_GENODEF_13
 70
     0
  0
APPID
  2
GENIUS_GENOREF_13
 70
     0
  0
APPID
  2
GENIUS_GENOBJ-NBEHI-BHB_13
 70
     0
  0
APPID
  2
GENIUS_GENOBJ-F-SCPASSM_13
 70
     0
  0
APPID
  2
GENIUS_GENDTOL_13
 70
     0
  0
APPID
  2
GENIUS_GENTRA_14
 70
     0
  0
APPID
  2
ASURF_PCURVE_APPNAME
 70
     0
  0
APPID
  2
GENIUS_GENCFG_13
 70
     0
  0
APPID
  2
GENIUS_GE3CFG0_13
 70
     0
  0
APPID
  2
GENIUS_GENCFG0_13
 70
     0
  0
APPID
  2
GENIUS_GENCFG1_13
 70
     0
  0
APPID
  2
GENIUS_GENCFG2_13
 70
     0
  0
APPID
  2
GENIUS_GENCFG3_13
 70
     0
  0
APPID
  2
GENIUS_GENCFG4_13
 70
     0
  0
APPID
  2
GENIUS_GEVCFG0_13
 70
     0
  0
APPID
  2
GENIUS_GENOBJ-N-TIT_13
 70
     0
  0
APPID
  2
GENIUS_GENTITLE_13
 70
     0
  0
APPID
  2
GENIUS_GENSCREG_15
 70
     0
  0
APPID
  2
GENIUS_GENOBJ-N-SDF_13
 70
     0
  0
APPID
  2
GENIUS_GENFIL_13
 70
     0
  0
APPID
  2
GENIUS_GENOBJ-N-CHA_13
 70
     0
  0
APPID
  2
GENIUS_GEFSH_13
 70
     0
  0
APPID
  2
GENIUS_GENOBJ-F-SHS_13
 70
     0
  0
APPID
  2
GENIUS_GENOBJ-N-CEN_13
 70
     0
  0
APPID
  2
GENIUS_GENREC_14
 70
     0
  0
APPID
  2
GENIUS_GENOBJ-N-REC_13
 70
     0
  0
APPID
  2
GENIUS_GENOBJ-N-HTC_13
 70
     0
  0
APPID
  2
GENIUS_GENHATCH_13
 70
     0
  0
APPID
  2
ACAD_PSEXT
 70
     0
  0
APPID
  2
ACAD_EXEMPT_FROM_CAD_STANDARDS
 70
     0
  0
APPID
  2
ACAECLAYERSTANDARD
 70
     0
  0
APPID
  2
GENIUS_GENCEN_19
 70
     0
  0
APPID
  2
ACAD_DSTYLE_DIMINSPECT
 70
     0
  0
APPID
  2
ACAD_DSTYLE_DIMANGULAR_EXT
 70
     0
  0
APPID
  2
ACADANNOPO
 70
     0
  0
APPID
  2
ACAD_NAV_VCDISPLAY
 70
     0
  0
APPID
  2
GENIUS_GENOBJ-N-FIL_13
 70
     0
  0
APPID
  2
ACAD_DSTYLE_DIMBREAK
 70
     0
  0
APPID
  2
ACAD_DSTYLE_DIMJAG
 70
     0
  0
APPID
  2
ACAD_DSTYLE_DIMRADIAL_EXTENSION
 70
     0
  0
APPID
  2
GENIUS_GENHINW_13
 70
     0
  0
APPID
  2
GENIUS_FIRSTVISTXT_14
 70
     0
  0
APPID
  2
GENIUS_GENOBJ-N-LEADER_13
 70
     0
  0
APPID
  2
DCO15
 70
     0
  0
APPID
  2
GENIUS_DUMCFG0_13
 70
     0
  0
APPID
  2
ACAD_DSTYLE_DIMTEXT_FILL
 70
     0
  0
APPID
  2
AMG_2DHIDE
 70
     0
  0
APPID
  2
GENIUS_GEFSHEP_13
 70
     0
  0
APPID
  2
GENIUS_GENOBJ-F-SHE_13
 70
     0
  0
APPID
  2
GENIUS_GEFSHE_13
 70
     0
  0
APPID
  2
ACAD_DIMASSOC_DIMLFAC
 70
     0
  0
APPID
  2
ACAD_DIMASSOC_CALC_DIMLFAC
 70
     0
  0
APPID
  2
ACAD_DIMASSOC_OVERRIDDEN_D
 70
     0
  0
APPID
  2
GENIUS_GENOBJ-F-SHSV_13
 70
     0
  0
APPID
  2
GENIUS_GEFWELD_13
 70
     0
  0
APPID
  2
GENIUS_GENOBJ-N-CRS_13
 70
     0
  0
APPID
  2
GENIUS_GENOBJ-N-RSBK_13
 70
     0
  0
APPID
  2
GENIUS_GENOBJ-N-LIB_13
 70
     0
  0
APPID
  2
GENIUS_GENSCALE_13
 70
     0
  0
APPID
  2
GENIUS_GENDREL_13
 70
     0
  0
APPID
  2
GEVPT
 70
     0
  0
APPID
  2
GEVIT
 70
     0
  0
APPID
  2
VCC
 70
     0
  0
APPID
  2
GENBH
 70
     0
  0
APPID
  2
GEVMK
 70
     0
  0
APPID
  2
GENIUS_GENOBJ-F-DESC_13
 70
     0
  0
APPID
  2
GENIUS_GEFDESC_14
 70
     0
  0
APPID
  2
GENIUS_GENOBJ-F-FEAT_13
 70
     0
  0
APPID
  2
GENIUS_GEFFEAT_14
 70
     0
  0
APPID
  2
GENIUS_GEFPARTINS_13
 70
     0
  0
APPID
  2
GENIUS_GENSCREG_13
 70
     0
  0
APPID
  2
GENIUS_GEFSHP_13
 70
     0
  0
APPID
  2
GEVID1025574798
 70
     0
  0
APPID
  2
GEVID1025574769
 70
     0
  0
APPID
  2
GEVID1025757451
 70
     0
  0
APPID
  2
GEVID1240528327
 70
     0
  0
APPID
  2
AMG_2DSTRUCT_BTR
 70
     0
  0
APPID
  2
ACADM_2DVIEW_IGN_NOTIFY
 70
     0
  0
APPID
  2
GEVID1240528328
 70
     0
  0
APPID
  2
GEVID1240528329
 70
     0
  0
APPID
  2
GEVRADREF
 70
     0
  0
APPID
  2
GEVID1240528330
 70
     0
  0
APPID
  2
GEVID1240528331
 70
     0
  0
APPID
  2
GEVID1240528332
 70
     0
  0
APPID
  2
GEVID1240791080
 70
     0
  0
APPID
  2
GEVID1240791081
 70
     0
  0
APPID
  2
GEVID1240791082
 70
     0
  0
APPID
  2
GEVID1240791083
 70
     0
  0
APPID
  2
GEVID1240791084
 70
     0
  0
APPID
  2
GEVID1240791085
 70
     0
  0
APPID
  2
GEVID1240791086
 70
     0
  0
APPID
  2
GEVID1240791087
 70
     0
  0
APPID
  2
GEVID1240791088
 70
     0
  0
APPID
  2
GEVID1240791089
 70
     0
  0
APPID
  2
GEVID1240791090
 70
     0
  0
APPID
  2
GEVID1240791091
 70
     0
  0
APPID
  2
GEVID1240791092
 70
     0
  0
APPID
  2
GEVID1240791093
 70
     0
  0
APPID
  2
GEVID1240791094
 70
     0
  0
APPID
  2
GEVID1240791095
 70
     0
  0
APPID
  2
GEVID1240791096
 70
     0
  0
APPID
  2
GEVID1240791097
 70
     0
  0
APPID
  2
GEVID1240791098
 70
     0
  0
APPID
  2
GEVID1240791099
 70
     0
  0
APPID
  2
GEVID1240791100
 70
     0
  0
APPID
  2
GEVID1240791101
 70
     0
  0
APPID
  2
GEVID1240791102
 70
     0
  0
APPID
  2
GEVID1240791103
 70
     0
  0
APPID
  2
GEVID1240791104
 70
     0
  0
APPID
  2
GEVID1240791105
 70
     0
  0
APPID
  2
GEVID1240875381
 70
     0
  0
APPID
  2
GEVID1240875382
 70
     0
  0
APPID
  2
GEVID1240875383
 70
     0
  0
APPID
  2
GEVID1240875384
 70
     0
  0
APPID
  2
GEVID1240875385
 70
     0
  0
APPID
  2
GEVID1240875386
 70
     0
  0
APPID
  2
GEVID1240875387
 70
     0
  0
APPID
  2
GEVID1240875388
 70
     0
  0
APPID
  2
GEVID1240875389
 70
     0
  0
APPID
  2
GEVID1240875390
 70
     0
  0
APPID
  2
GEVID1240875391
 70
     0
  0
APPID
  2
GEVID1240875392
 70
     0
  0
APPID
  2
GEVID1240875393
 70
     0
  0
APPID
  2
GEVID1240875394
 70
     0
  0
APPID
  2
GEVID1240875395
 70
     0
  0
APPID
  2
GEVID1240875396
 70
     0
  0
APPID
  2
GEVID1240875397
 70
     0
  0
APPID
  2
GEVID1240875398
 70
     0
  0
APPID
  2
GEVID1240875399
 70
     0
  0
APPID
  2
GEVID1240908996
 70
     0
  0
APPID
  2
GEVID1240908997
 70
     0
  0
APPID
  2
GEVID1240908998
 70
     0
  0
APPID
  2
GEVID1240908999
 70
     0
  0
APPID
  2
GEVID1240909000
 70
     0
  0
APPID
  2
GENIUS_GENOBJ-N-ZOO_13
 70
     0
  0
APPID
  2
GENIUS_GENZOO_17
 70
     0
  0
APPID
  2
GENIUS_GE3SECT_13
 70
     0
  0
APPID
  2
GEV_VCCNULL_SWITCH_OFF
 70
     0
  0
APPID
  2
ACAD_DSTYLE_DIMTALN
 70
     0
  0
APPID
  2
CONTENTBLOCKDESCRIPTION
 70
     0
  0
ENDTAB
  0
TABLE
  2
DIMSTYLE
 70
    22
  0
DIMSTYLE
  2
AM_ANSI
 70
     0
  3

  4
"
  5

  6

  7

 40
1.0
 41
2.5
 42
1.0
 43
10.0
 44
1.0
 45
0.0
 46
0.0
 47
0.1
 48
0.1
140
3.5
141
0.0
142
0.0
143
0.0393701
144
1.0
145
0.0
146
0.71
147
1.5
 71
     0
 72
     0
 73
     1
 74
     1
 75
     0
 76
     0
 77
     0
 78
     8
170
     0
171
     2
172
     0
173
     0
174
     0
175
     0
176
     2
177
     2
178
     4
  0
DIMSTYLE
  2
AM_ANSI$3
 70
     0
  3

  4
"
  5

  6

  7

 40
1.0
 41
2.5
 42
1.0
 43
10.0
 44
1.0
 45
0.0
 46
0.0
 47
0.1
 48
0.1
140
3.5
141
0.0
142
0.0
143
0.0393701
144
1.0
145
0.0
146
0.71
147
1.5
 71
     0
 72
     0
 73
     1
 74
     1
 75
     0
 76
     0
 77
     0
 78
     8
170
     0
171
     2
172
     0
173
     0
174
     0
175
     0
176
     2
177
     2
178
     4
  0
DIMSTYLE
  2
AM_ANSI$4
 70
     0
  3

  4
"
  5

  6

  7

 40
1.0
 41
2.5
 42
1.0
 43
10.0
 44
1.0
 45
0.0
 46
0.0
 47
0.1
 48
0.1
140
3.5
141
0.0
142
0.0
143
0.0393701
144
1.0
145
0.0
146
0.71
147
1.5
 71
     0
 72
     0
 73
     1
 74
     1
 75
     0
 76
     0
 77
     0
 78
     8
170
     0
171
     2
172
     0
173
     0
174
     0
175
     0
176
     2
177
     2
178
     4
  0
DIMSTYLE
  2
AM_ANSI$7
 70
     0
  3

  4
"
  5

  6

  7

 40
1.0
 41
2.5
 42
1.0
 43
10.0
 44
1.0
 45
0.0
 46
0.0
 47
0.1
 48
0.1
140
5.0
141
0.0
142
0.0
143
0.0393701
144
1.0
145
0.0
146
0.71
147
1.5
 71
     0
 72
     0
 73
     1
 74
     1
 75
     0
 76
     0
 77
     0
 78
     8
170
     0
171
     2
172
     0
173
     0
174
     0
175
     0
176
     2
177
     2
178
     4
  0
DIMSTYLE
  2
AM_ANSI$SF
 70
     0
  3

  4
"
  5

  6

  7

 40
1.0
 41
2.5
 42
1.0
 43
10.0
 44
1.0
 45
0.0
 46
0.0
 47
0.1
 48
0.1
140
3.5
141
0.0
142
0.0
143
0.0393701
144
1.0
145
0.0
146
0.71
147
1.5
 71
     0
 72
     0
 73
     1
 74
     1
 75
     1
 76
     1
 77
     0
 78
     8
170
     0
171
     2
172
     0
173
     0
174
     0
175
     0
176
     2
177
     2
178
     4
  0
DIMSTYLE
  2
AM_ANSI$SH
 70
     0
  3

  4
"
  5

  6
GENAXEH
  7

 40
1.0
 41
2.5
 42
1.0
 43
10.0
 44
1.0
 45
0.0
 46
0.0
 47
0.1
 48
0.1
140
3.5
141
0.0
142
0.0
143
0.0393701
144
1.0
145
0.0
146
0.71
147
1.5
 71
     0
 72
     0
 73
     1
 74
     1
 75
     1
 76
     1
 77
     0
 78
     8
170
     0
171
     2
172
     0
173
     1
174
     0
175
     0
176
     2
177
     2
178
     4
  0
DIMSTYLE
  2
AM_ISO
 70
     0
  3

  4
"
  5

  6

  7

 40
1.0
 41
2.5
 42
1.0
 43
10.0
 44
1.0
 45
0.0
 46
0.0
 47
0.1
 48
0.1
140
3.5
141
0.0
142
0.0
143
0.0393701
144
1.0
145
0.0
146
0.71
147
1.5
 71
     0
 72
     0
 73
     0
 74
     0
 75
     0
 76
     0
 77
     1
 78
     8
170
     0
171
     2
172
     1
173
     0
174
     0
175
     0
176
   256
177
   256
178
     2
  0
DIMSTYLE
  2
AM_ISO$3
 70
     0
  3

  4
"
  5

  6

  7

 40
1.0
 41
2.5
 42
1.0
 43
10.0
 44
1.0
 45
0.0
 46
0.0
 47
0.1
 48
0.1
140
3.5
141
0.0
142
0.0
143
0.0393701
144
1.0
145
0.0
146
0.71
147
1.5
 71
     0
 72
     0
 73
     0
 74
     1
 75
     0
 76
     0
 77
     1
 78
     8
170
     0
171
     2
172
     0
173
     0
174
     0
175
     0
176
   256
177
   256
178
     2
  0
DIMSTYLE
  2
AM_ISO$4
 70
     0
  3

  4
"
  5

  6

  7

 40
1.0
 41
2.5
 42
1.0
 43
10.0
 44
1.0
 45
0.0
 46
0.0
 47
0.1
 48
0.1
140
3.5
141
0.0
142
0.0
143
0.0393701
144
1.0
145
0.0
146
0.71
147
1.5
 71
     0
 72
     0
 73
     0
 74
     1
 75
     0
 76
     0
 77
     1
 78
     8
170
     0
171
     2
172
     0
173
     0
174
     0
175
     0
176
   256
177
   256
178
     2
  0
DIMSTYLE
  2
AM_ISO$6
 70
     0
  3

  4
"
  5

  6

  7

 40
1.0
 41
2.5
 42
1.0
 43
10.0
 44
1.0
 45
0.0
 46
0.0
 47
0.1
 48
0.1
140
3.5
141
0.0
142
0.0
143
0.0393701
144
1.0
145
0.0
146
0.71
147
1.5
 71
     0
 72
     0
 73
     0
 74
     0
 75
     0
 76
     0
 77
     0
 78
     8
170
     0
171
     2
172
     1
173
     0
174
     0
175
     0
176
   256
177
   256
178
     2
  0
DIMSTYLE
  2
AM_ISO$7
 70
     0
  3

  4
"
  5

  6

  7

 40
1.0
 41
2.5
 42
1.0
 43
10.0
 44
1.0
 45
0.0
 46
0.0
 47
0.1
 48
0.1
140
5.0
141
0.0
142
0.0
143
0.0393701
144
1.0
145
0.0
146
0.71
147
1.5
 71
     0
 72
     0
 73
     0
 74
     0
 75
     0
 76
     0
 77
     1
 78
     8
170
     0
171
     2
172
     1
173
     0
174
     0
175
     0
176
   256
177
   256
178
     2
  0
DIMSTYLE
  2
AM_ISO$SF
 70
     0
  3

  4
"
  5

  6

  7

 40
1.0
 41
2.5
 42
1.0
 43
10.0
 44
1.0
 45
0.0
 46
0.0
 47
0.1
 48
0.1
140
3.5
141
0.0
142
0.0
143
0.0393701
144
1.0
145
0.0
146
0.71
147
1.5
 71
     0
 72
     0
 73
     0
 74
     0
 75
     1
 76
     1
 77
     1
 78
     8
170
     0
171
     2
172
     1
173
     0
174
     0
175
     0
176
   256
177
   256
178
     2
  0
DIMSTYLE
  2
AM_ISO$SH
 70
     0
  3

  4
"
  5

  6
GENAXEH
  7

 40
1.0
 41
2.5
 42
1.0
 43
10.0
 44
1.0
 45
0.0
 46
0.0
 47
0.1
 48
0.1
140
3.5
141
0.0
142
0.0
143
0.0393701
144
2.0
145
0.0
146
0.71
147
1.5
 71
     0
 72
     0
 73
     0
 74
     0
 75
     1
 76
     1
 77
     1
 78
     8
170
     0
171
     2
172
     1
173
     1
174
     0
175
     0
176
   256
177
   256
178
     2
  0
DIMSTYLE
  2
AM_JIS
 70
     0
  3

  4
"
  5

  6

  7

 40
1.0
 41
2.0
 42
1.0
 43
8.0
 44
1.0
 45
0.0
 46
0.0
 47
0.1
 48
0.1
140
2.5
141
0.0
142
0.0
143
0.0393701
144
1.0
145
0.0
146
0.71
147
1.5
 71
     0
 72
     0
 73
     0
 74
     0
 75
     0
 76
     0
 77
     3
 78
     8
170
     0
171
     2
172
     1
173
     0
174
     0
175
     0
176
     2
177
     2
178
     4
  0
DIMSTYLE
  2
AM_JIS$3
 70
     0
  3

  4
"
  5

  6

  7

 40
1.0
 41
2.0
 42
1.0
 43
10.0
 44
1.0
 45
0.0
 46
0.0
 47
0.1
 48
0.1
140
2.5
141
0.0
142
0.0
143
0.0393701
144
1.0
145
0.0
146
0.71
147
1.5
 71
     0
 72
     0
 73
     0
 74
     1
 75
     0
 76
     0
 77
     3
 78
     8
170
     0
171
     2
172
     0
173
     0
174
     0
175
     0
176
     2
177
     2
178
     4
  0
DIMSTYLE
  2
AM_JIS$4
 70
     0
  3

  4
"
  5

  6

  7

 40
1.0
 41
2.0
 42
1.0
 43
10.0
 44
1.0
 45
0.0
 46
0.0
 47
0.1
 48
0.1
140
2.5
141
0.0
142
0.0
143
0.0393701
144
1.0
145
0.0
146
0.71
147
1.5
 71
     0
 72
     0
 73
     0
 74
     0
 75
     0
 76
     0
 77
     3
 78
     8
170
     0
171
     2
172
     0
173
     0
174
     0
175
     0
176
     2
177
     2
178
     4
  0
DIMSTYLE
  2
AM_JIS$6
 70
     0
  3

  4
"
  5

  6

  7

 40
1.0
 41
2.0
 42
1.0
 43
10.0
 44
1.0
 45
0.0
 46
0.0
 47
0.1
 48
0.1
140
2.5
141
0.0
142
0.0
143
0.0393701
144
1.0
145
0.0
146
0.71
147
1.5
 71
     0
 72
     0
 73
     0
 74
     0
 75
     0
 76
     0
 77
     0
 78
     8
170
     0
171
     2
172
     1
173
     0
174
     0
175
     0
176
     2
177
     2
178
     4
  0
DIMSTYLE
  2
AM_JIS$7
 70
     0
  3

  4
"
  5

  6
OPEN30
  7
OPEN30
 40
1.0
 41
2.0
 42
1.0
 43
10.0
 44
1.0
 45
0.0
 46
0.0
 47
0.1
 48
0.1
140
2.5
141
0.0
142
0.0
143
0.0393701
144
1.0
145
0.0
146
0.71
147
1.5
 71
     0
 72
     0
 73
     0
 74
     0
 75
     0
 76
     0
 77
     3
 78
     8
170
     0
171
     2
172
     1
173
     0
174
     0
175
     0
176
     2
177
     2
178
     4
  0
DIMSTYLE
  2
AM_JIS$SF
 70
     0
  3

  4
"
  5

  6

  7

 40
1.0
 41
2.0
 42
1.0
 43
10.0
 44
1.0
 45
0.0
 46
0.0
 47
0.1
 48
0.1
140
2.5
141
0.0
142
0.0
143
0.0393701
144
1.0
145
0.0
146
0.71
147
1.5
 71
     0
 72
     0
 73
     0
 74
     0
 75
     1
 76
     1
 77
     3
 78
     8
170
     0
171
     2
172
     1
173
     0
174
     0
175
     0
176
     2
177
     2
178
     4
  0
DIMSTYLE
  2
AM_JIS$SH
 70
     0
  3

  4
"
  5

  6
GENAXEH
  7

 40
1.0
 41
2.0
 42
1.0
 43
10.0
 44
1.0
 45
0.0
 46
0.0
 47
0.1
 48
0.1
140
2.5
141
0.0
142
0.0
143
0.0393701
144
2.0
145
0.0
146
0.71
147
1.5
 71
     0
 72
     0
 73
     0
 74
     0
 75
     1
 76
     1
 77
     3
 78
     8
170
     0
171
     2
172
     1
173
     1
174
     0
175
     0
176
     2
177
     2
178
     4
  0
DIMSTYLE
  2
AM_JIS$0
 70
     0
  3

  4
"
  5

  6

  7

 40
1.0
 41
2.0
 42
1.0
 43
8.0
 44
1.0
 45
0.0
 46
0.0
 47
0.1
 48
0.1
140
2.5
141
0.0
142
0.0
143
0.0393701
144
1.0
145
0.0
146
0.71
147
1.5
 71
     0
 72
     0
 73
     0
 74
     0
 75
     0
 76
     0
 77
     3
 78
     8
170
     0
171
     2
172
     1
173
     0
174
     0
175
     0
176
     2
177
     2
178
     4
  0
DIMSTYLE
  2
STANDARD
 70
     0
  3

  4

  5

  6

  7

 40
1.0
 41
0.18
 42
0.0625
 43
0.38
 44
0.18
 45
0.0
 46
0.0
 47
0.0
 48
0.0
140
0.18
141
0.09
142
0.0
143
25.399999999999999
144
1.0
145
0.0
146
1.0
147
0.09
 71
     0
 72
     0
 73
     1
 74
     1
 75
     0
 76
     0
 77
     0
 78
     0
170
     0
171
     2
172
     0
173
     0
174
     0
175
     0
176
     0
177
     0
178
     0
  0
ENDTAB
  0
ENDSEC
  0
SECTION
  2
BLOCKS
  0
BLOCK
  8
0
  2
$MODEL_SPACE
 70
     0
 10
0.0
 20
0.0
 30
0.0
  3
$MODEL_SPACE
  1

  0
ENDBLK
  5
77
  8
0
  0
BLOCK
 67
     1
  8
0
  2
$PAPER_SPACE
 70
     0
 10
0.0
 20
0.0
 30
0.0
  3
$PAPER_SPACE
  1

  0
ENDBLK
  5
73
 67
     1
  8
0
  0
BLOCK
  8
0
  2
GENAXEH
 70
     0
 10
0.0
 20
0.0
 30
0.0
  3
GENAXEH
  1

  0
LINE
  5
CFDA
  8
0
 10
-1.0
 20
0.0
 30
0.0
 11
1.0
 21
0.0
 31
0.0
  0
ENDBLK
  5
CFDB
  8
0
  0
BLOCK
  8
0
  6
BYBLOCK
 62
     0
  2
$6-45
 70
     0
 10
0.0
 20
0.0
 30
0.0
  3
$6-45
  1

  0
ARC
  5
AC67
  8
0
  6
CONTINUOUS
 62
     0
 10
-2.6499939999999902
 20
2.800201000000015
 30
0.0
 40
2.6003989999999999
 50
89.999982000000799
 51
179.99997799999841
  0
ARC
  5
AC68
  8
0
  6
CONTINUOUS
 62
     0
 10
2.6499939999999902
 20
2.800201000000015
 30
0.0
 40
2.600403
 50
0.0
 51
89.999982000000799
  0
LINE
  5
AC69
  8
0
  6
CONTINUOUS
 62
     0
 10
0.0660249999999678
 20
0.0
 30
0.0
 11
-0.7999999999999548
 21
1.5
 31
0.0
  0
LINE
  5
AC6A
  8
0
  6
CONTINUOUS
 62
     0
 10
1.0660249999999669
 20
0.0
 30
0.0
 11
0.2000000000000455
 21
1.5
 31
0.0
  0
LINE
  5
AC6B
  8
0
  6
CONTINUOUS
 62
     0
 10
6.1000000000000218
 20
0.0
 30
0.0
 11
-6.1000000000000218
 21
0.0
 31
0.0
  0
LINE
  5
AC6C
  8
0
  6
CONTINUOUS
 62
     0
 10
6.1000000000000218
 20
1.5
 30
0.0
 11
6.1000000000000218
 21
0.0
 31
0.0
  0
LINE
  5
AC6D
  8
0
  6
CONTINUOUS
 62
     0
 10
-6.1000000000000218
 20
1.5
 30
0.0
 11
-6.1000000000000218
 21
0.0
 31
0.0
  0
LINE
  5
AC6E
  8
0
  6
CONTINUOUS
 62
     0
 10
2.6499939999999902
 20
5.3999939999999906
 30
0.0
 11
-2.6499939999999902
 21
5.3999939999999906
 31
0.0
  0
LINE
  5
AC6F
  8
0
  6
CONTINUOUS
 62
     0
 10
6.1000000000000218
 20
1.5
 30
0.0
 11
-6.1000000000000218
 21
1.5
 31
0.0
  0
LINE
  5
AC70
  8
0
  6
CONTINUOUS
 62
     0
 10
-5.25
 20
1.5
 30
0.0
 11
-5.25
 21
2.800201000000015
 31
0.0
  0
LINE
  5
AC71
  8
0
  6
CONTINUOUS
 62
     0
 10
5.25
 20
1.5
 30
0.0
 11
5.25
 21
2.800201000000015
 31
0.0
  0
ENDBLK
  5
AC72
  8
0
  6
BYBLOCK
 62
     0
  0
BLOCK
  8
0
  2
_OPEN30
 70
     0
 10
0.0
 20
0.0
 30
0.0
  3
_OPEN30
  1

  0
LINE
  5
D021
  8
0
  6
BYBLOCK
 62
     0
 10
-1.0
 20
0.26794919
 30
0.0
 11
0.0
 21
0.0
 31
0.0
  0
LINE
  5
D022
  8
0
  6
BYBLOCK
 62
     0
 10
0.0
 20
0.0
 30
0.0
 11
-1.0
 21
-0.26794919
 31
0.0
  0
LINE
  5
D023
  8
0
  6
BYBLOCK
 62
     0
 10
0.0
 20
0.0
 30
0.0
 11
-1.0
 21
0.0
 31
0.0
  0
ENDBLK
  5
D024
  8
0
  0
BLOCK
  8
0
  2
_ACMFILLEDHALF
 70
     0
 10
0.0
 20
0.0
 30
0.0
  3
_ACMFILLEDHALF
  1

  0
TRACE
  5
D0E3
  8
AM_0
 62
     0
 10
-0.8
 20
0.0
 30
0.0
 11
-1.0
 21
0.166666666
 31
0.0
 12
0.0
 22
0.0
 32
0.0
 13
0.0
 23
0.0
 33
0.0
  0
LINE
  5
D0E4
  8
AM_0
 62
     0
 10
-1.0
 20
0.0
 30
0.0
 11
-0.8
 21
0.0
 31
0.0
  0
ENDBLK
  5
D0E5
  8
0
  0
ENDSEC
  0
SECTION
  2
ENTITIES
  0
LINE
  5
9255
  8
0
 10
856.71700214467398
 20
661.79308882777104
 30
0.0
 11
856.71700214467398
 21
602.79308882777104
 31
0.0
  0
LINE
  5
927E
  8
0
 10
621.71700214467137
 20
752.29307382777074
 30
0.0
 11
621.71700214467126
 21
437.29308382777077
 31
0.0
  0
LINE
  5
928B
  8
0
 10
587.73480214467281
 20
721.91707382777065
 30
0.0
 11
573.68150214467028
 21
702.94502382777057
 31
0.0
  0
LINE
  5
928C
  8
0
 10
553.21700214467489
 20
670.29308382777072
 30
0.0
 11
566.89145214467283
 21
670.77061882777082
 31
0.0
  0
LINE
  5
928D
  8
0
 10
590.71700214467228
 20
752.29307382777074
 30
0.0
 11
621.71700214467137
 21
752.29307382777074
 31
0.0
  0
LINE
  5
928E
  8
0
 10
588.71700214467216
 20
750.29312382777073
 30
0.0
 11
588.71700214467216
 21
724.89322382777073
 31
0.0
  0
LINE
  5
928F
  8
0
 10
593.64720214467104
 20
751.31282382777056
 30
0.0
 11
621.71700214467137
 21
752.29307382777074
 31
0.0
  0
LINE
  5
9291
  8
0
 10
591.71700214467467
 20
749.31412382777069
 30
0.0
 11
591.71700214467467
 21
460.43206382777078
 31
0.0
  0
LINE
  5
9292
  8
0
 10
571.71700214467216
 20
696.9927738277712
 30
0.0
 11
571.71700214467216
 21
486.0805288277711
 31
0.0
  0
LINE
  5
9293
  8
0
 10
571.71700214467216
 20
486.0805288277711
 30
0.0
 11
571.71700214467216
 21
476.22078882777072
 31
0.0
  0
LINE
  5
9294
  8
0
 10
553.21700214467126
 20
500.29308382777077
 30
0.0
 11
566.89155214467269
 21
499.81557882777082
 31
0.0
  0
LINE
  5
9296
  8
0
 10
590.73480214467281
 20
725.96707382777072
 30
0.0
 11
587.73480214467281
 21
721.91707382777065
 31
0.0
  0
LINE
  5
9297
  8
0
 10
593.92295214467265
 20
761.29307382777074
 30
0.0
 11
613.51100214467488
 21
761.29307382777074
 31
0.0
  0
LINE
  5
9298
  8
0
 10
591.21700214467126
 20
752.29307382777074
 30
0.0
 11
593.46750214467215
 21
760.69197382777065
 31
0.0
  0
LINE
  5
9299
  8
0
 10
616.21705214467272
 20
752.29307382777074
 30
0.0
 11
613.96655214467273
 21
760.69202382777098
 31
0.0
  0
LINE
  5
929A
  8
0
 10
594.23895214467257
 20
761.41407382777072
 30
0.0
 11
603.71700214467228
 21
763.29312382777073
 31
0.0
  0
LINE
  5
929B
  8
0
 10
603.71700214467228
 20
763.29307382777097
 30
0.0
 11
613.19510214467243
 21
761.41407382777072
 31
0.0
  0
ARC
  5
92D8
  8
0
 10
586.71700214467126
 20
728.94322382777057
 30
0.0
 40
5.0
 50
323.47113999998618
 51
0.0
  0
ARC
  5
92D9
  8
0
 10
593.71700214467216
 20
749.31412382777069
 30
0.0
 40
2.0000000500000001
 50
91.999997999994051
 51
180.00001000000091
  0
ARC
  5
92DA
  8
0
 10
590.71700214467228
 20
750.29312382777073
 30
0.0
 40
2.0000000500000001
 50
90.000002999984659
 51
180.00001000000091
  0
ARC
  5
92DB
  8
0
 10
581.71700214467216
 20
476.22078882777072
 30
0.0
 40
10.0
 50
179.999989999999
 51
224.0922199999896
  0
ARC
  5
92DC
  8
0
 10
583.71700214467137
 20
724.89322382777073
 30
0.0
 40
5.0
 50
323.47113999998618
 51
0.0
  0
ARC
  5
92DD
  8
0
 10
581.71700214467216
 20
696.9927738277712
 30
0.0
 40
10.0
 50
143.47113999998609
 51
180.00001000000091
  0
ARC
  5
92DE
  8
0
 10
566.71700214467387
 20
494.81859882777093
 30
0.0
 40
5.0
 50
0.0
 51
87.999999999996362
  0
CIRCLE
  5
92DF
  8
0
 10
603.71700214467228
 20
778.29307382777074
 30
0.0
 40
15.0
  0
ARC
  5
92E0
  8
0
 10
603.71700214467228
 20
778.29307382777074
 30
0.0
 40
25.000000499999999
 50
306.46671999997471
 51
233.5332899999614
  0
ARC
  5
92E1
  8
0
 10
594.43345214467115
 20
760.43317382777104
 30
0.0
 40
1.0
 50
101.21328999999341
 51
164.99998999998439
  0
ARC
  5
92E2
  8
0
 10
613.0006521446735
 20
760.43317382777104
 30
0.0
 40
1.0
 50
14.99999999999441
 51
78.786710000006536
  0
ARC
  5
92E3
  8
0
 10
585.29195214467245
 20
753.36277382777098
 30
0.0
 40
6.0
 50
349.72995000001242
 51
53.533291000030069
  0
ARC
  5
92E4
  8
0
 10
622.14200214467326
 20
753.36277382777098
 30
0.0
 40
6.0
 50
126.4666999999944
 51
190.27005999999199
  0
ARC
  5
92E5
  8
0
 10
566.71700214467387
 20
675.76756882777113
 30
0.0
 40
5.0
 50
272.00000000000369
 51
0.0
  0
LINE
  5
92FB
  8
0
  6
AM_ISO08W050
 10
608.7071386878672
 20
630.29308882777104
 30
0.0
 11
862.1458521446724
 21
630.29308882777104
 31
0.0
  0
LINE
  5
9302
  8
0
  6
AM_ISO08W050
 10
209.70967092088901
 20
585.29308382777072
 30
0.0
 11
618.85969750475351
 21
585.29308382777072
 31
0.0
  0
LINE
  5
AEBD
  8
0
 10
553.21700214467489
 20
500.29308382777077
 30
0.0
 11
553.21700214467489
 21
670.29308382777072
 31
0.0
  0
LINE
  5
BA99
  8
0
 10
340.71700214467512
 20
519.54852899179548
 30
0.0
 11
340.71700214467501
 21
498.29302282777081
 31
0.0
  0
LINE
  5
BA9A
  8
0
 10
446.21700214467501
 20
530.88225582777034
 30
0.0
 11
446.21700214467501
 21
510.89730582777082
 31
0.0
  0
LINE
  5
BA9B
  8
0
 10
487.21700214467478
 20
581.35621982777081
 30
0.0
 11
500.74700214467481
 21
581.35621982777081
 31
0.0
  0
LINE
  5
BA9C
  8
0
 10
330.28700214467511
 20
581.35621982777081
 30
0.0
 11
343.21700214467501
 21
581.35621982777081
 31
0.0
  0
LINE
  5
BA9D
  8
0
 10
336.71700214467501
 20
574.79621982777098
 30
0.0
 11
336.71700214467501
 21
588.06621982777074
 31
0.0
  0
LINE
  5
BA9E
  8
0
 10
481.21700214467501
 20
638.23621982777081
 30
0.0
 11
349.21700214467501
 21
638.23621982777081
 31
0.0
  0
LINE
  5
BA9F
  8
0
 10
343.21700214467501
 20
632.23621982777081
 30
0.0
 11
343.21700214467501
 21
531.15621982777088
 31
0.0
  0
LINE
  5
BAA0
  8
0
 10
487.21700214467478
 20
632.23621982777081
 30
0.0
 11
487.21700214467478
 21
531.15621982777088
 31
0.0
  0
LINE
  5
BAA1
  8
0
 10
349.21700214467501
 20
525.15621982777077
 30
0.0
 11
481.21700214467501
 21
525.15621982777077
 31
0.0
  0
LINE
  5
BAA2
  8
0
 10
493.73648614467498
 20
603.68313282777081
 30
0.0
 11
493.71700214467501
 21
632.25621982777102
 31
0.0
  0
LINE
  5
BAA3
  8
0
 10
481.21700214467501
 20
644.73621982777081
 30
0.0
 11
349.21700214467501
 21
644.73621982777081
 31
0.0
  0
LINE
  5
BAA4
  8
0
 10
336.71700214467501
 20
603.71621982777071
 30
0.0
 11
336.71700214467501
 21
632.23621982777081
 31
0.0
  0
LINE
  5
BAA5
  8
0
 10
336.71700214467501
 20
558.98621982777081
 30
0.0
 11
336.71700214467501
 21
528.71621982777083
 31
0.0
  0
LINE
  5
BAA6
  8
0
 10
493.71700214467501
 20
558.98621982777081
 30
0.0
 11
493.71700214467501
 21
528.71621982777083
 31
0.0
  0
LINE
  5
BAA7
  8
0
 10
349.21700214467501
 20
516.21621982777083
 30
0.0
 11
481.21700214467501
 21
516.21621982777083
 31
0.0
  0
ARC
  5
BAA8
  8
0
 10
508.71856414467487
 20
558.99517782777082
 30
0.0
 40
15.001564999999999
 50
131.81297400000199
 51
180.034212999999
  0
ARC
  5
BAA9
  8
0
 10
481.21649014467499
 20
632.23570782777074
 30
0.0
 40
6.0005119999999996
 50
0.0048860000006623
 51
89.995114000002559
  0
ARC
  5
BAAA
  8
0
 10
349.21550914467502
 20
632.23771282777068
 30
0.0
 40
5.998507
 50
89.985740000006984
 51
180.0142599999995
  0
ARC
  5
BAAB
  8
0
 10
349.21449814467502
 20
531.15371582777084
 30
0.0
 40
5.9974970000000001
 50
179.9760820000013
 51
270.02391799999867
  0
ARC
  5
BAAC
  8
0
 10
481.217501144675
 20
531.15572082777089
 30
0.0
 40
5.9995010000000004
 50
269.99523699999969
 51
0.0047630000002234
  0
ARC
  5
BAAD
  8
0
 10
321.7180671446751
 20
603.71608382777049
 30
0.0
 40
14.998934999999999
 50
311.80849600000408
 51
0.0005210000016347
  0
ARC
  5
BAAE
  8
0
 10
321.714890144675
 20
558.98747582777082
 30
0.0
 40
15.007673
 50
358.440192999999
 51
48.205064000001038
  0
ARC
  5
BAAF
  8
0
 10
328.21394914467498
 20
554.55891082777089
 30
0.0
 40
15.003053
 50
359.98972200000082
 51
63.249135999996362
  0
ARC
  5
BAB0
  8
0
 10
328.21663714467491
 20
608.14187382777072
 30
0.0
 40
15.000365
 50
296.74454000000122
 51
0.0166020000005167
  0
ARC
  5
BAB1
  8
0
 10
341.71499814467489
 20
581.35121982777082
 30
0.0
 40
14.998716
 50
116.7375830000023
 51
243.2624169999977
  0
ARC
  5
BAB2
  8
0
 10
502.21714814467498
 20
554.56070082777057
 30
0.0
 40
15.000147
 50
116.7440270000078
 51
180.01711599999811
  0
ARC
  5
BAB3
  8
0
 10
502.21445914467512
 20
608.14008382777081
 30
0.0
 40
14.997458999999999
 50
179.97655699999851
 51
243.26230100000251
  0
ARC
  5
BAB4
  8
0
 10
488.71499714467501
 20
581.35121982777082
 30
0.0
 40
15.00052
 50
296.75125799999171
 51
63.24874200000832
  0
ARC
  5
BAB5
  8
0
 10
481.21400114467491
 20
632.23319782777082
 30
0.0
 40
12.503022
 50
0.1054989999989198
 51
89.986248000005546
  0
ARC
  5
BAB6
  8
0
 10
349.21550914467502
 20
632.23771282777068
 30
0.0
 40
12.498507
 50
89.993156000006238
 51
180.0068440000002
  0
ARC
  5
BAB7
  8
0
 10
349.21249814467501
 20
528.71171582777083
 30
0.0
 40
12.495497
 50
179.9793499999987
 51
270.020649999998
  0
ARC
  5
BAB8
  8
0
 10
481.21950114467512
 20
528.71372082777089
 30
0.0
 40
12.497502000000001
 50
269.98854499999538
 51
0.0114550000013282
  0
ARC
  5
BAB9
  8
0
 10
508.73648214467488
 20
603.69336182777101
 30
0.0
 40
15.0
 50
180.03907000000001
 51
228.13549800000391
  0
LINE
  5
BABA
  8
0
 10
498.17387814467492
 20
634.47808382777066
 30
0.0
 11
498.17387814467492
 21
614.11308382777088
 31
0.0
  0
LINE
  5
BABB
  8
0
 10
514.21700114467501
 20
634.47808382777066
 30
0.0
 11
514.21700114467501
 21
614.11308382777088
 31
0.0
  0
LINE
  5
BABC
  8
0
 10
528.7663971446749
 20
529.27228782777058
 30
0.0
 11
514.21700114467501
 21
529.27228782777058
 31
0.0
  0
LINE
  5
BABD
  8
0
 10
533.71700214467501
 20
540.68463782777098
 30
0.0
 11
514.21700114467501
 21
540.68463782777098
 31
0.0
  0
LINE
  5
BABE
  8
0
 10
498.92239914467478
 20
533.98737782777084
 30
0.0
 11
514.21700214467501
 21
529.27228782777058
 31
0.0
  0
LINE
  5
BABF
  8
0
 10
514.21700214467501
 20
540.68463782777098
 30
0.0
 11
499.18106114467503
 21
540.14388682777087
 31
0.0
  0
ARC
  5
BAC0
  8
0
 10
499.21700214467489
 20
539.14453282777083
 30
0.0
 40
1.0
 50
92.059691000003724
 51
180.0
  0
ARC
  5
BAC1
  8
0
 10
499.21700214467489
 20
534.9429978277708
 30
0.0
 40
1.0
 50
180.0
 51
252.8662750000021
  0
LINE
  5
BAC2
  8
0
 10
514.21700214467501
 20
661.14587082777098
 30
0.0
 11
498.91654314467507
 21
656.32600482777082
 31
0.0
  0
ARC
  5
BAC3
  8
0
 10
499.21700214467489
 20
655.3722098277708
 30
0.0
 40
1.0
 50
107.485179
 51
180.0
  0
ARC
  5
BAC4
  8
0
 10
499.21700214467489
 20
653.02114482777074
 30
0.0
 40
1.0
 50
180.0
 51
270.0
  0
LINE
  5
BAC5
  8
0
 10
499.26555714467491
 20
652.02232382777072
 30
0.0
 11
514.21700214467501
 21
652.74914382777069
 31
0.0
  0
LINE
  5
BAC6
  8
0
 10
533.71700214467501
 20
652.74914382777069
 30
0.0
 11
514.21700214467501
 21
652.74914382777069
 31
0.0
  0
LINE
  5
BAC7
  8
0
 10
457.21700214467489
 20
683.57957682777089
 30
0.0
 11
544.66418714467488
 21
683.57957682777089
 31
0.0
  0
ARC
  5
BAC8
  8
0
 10
368.48124714467508
 20
681.57957682777101
 30
0.0
 40
2.0
 50
90.0
 51
156.10180000000179
  0
ARC
  5
BAC9
  8
0
 10
544.66418714467488
 20
681.57957682777101
 30
0.0
 40
2.0
 50
10.000001999998901
 51
90.0
  0
LINE
  5
BACA
  8
0
 10
548.21700214467501
 20
672.94810082777087
 30
0.0
 11
546.63380214467475
 21
681.92687382777081
 31
0.0
  0
LINE
  5
BACB
  8
0
 10
547.95619414467501
 20
672.94810082777087
 30
0.0
 11
548.21700214467501
 21
672.94810082777087
 31
0.0
  0
ARC
  5
BACC
  8
0
 10
353.54821714467522
 20
680.38980282777072
 30
0.0
 40
2.0
 50
90.0
 51
169.99999800000111
  0
LINE
  5
BACD
  8
0
 10
349.21700214467501
 20
667.34379982777079
 30
0.0
 11
351.57860214467502
 21
680.73709982777086
 31
0.0
  0
ARC
  5
BACE
  8
0
 10
544.61316814467489
 20
680.38980282777072
 30
0.0
 40
2.0
 50
10.000001999998901
 51
90.0
  0
LINE
  5
BACF
  8
0
 10
548.21700214467501
 20
671.46898282777101
 30
0.0
 11
546.58278314467475
 21
680.73709982777086
 31
0.0
  0
LINE
  5
BAD0
  8
0
 10
349.21700214467501
 20
667.34379982777079
 30
0.0
 11
349.784908144675
 21
667.34379982777079
 31
0.0
  0
LINE
  5
BAD1
  8
0
 10
547.68103114467476
 20
671.46898282777101
 30
0.0
 11
548.21700214467501
 21
671.46898282777101
 31
0.0
  0
ARC
  5
BAD2
  8
0
 10
544.52731314467485
 20
677.83706882777096
 30
0.0
 40
2.0
 50
10.00000100000252
 51
90.0
  0
ARC
  5
BAD3
  8
0
 10
353.666008144675
 20
677.83706882777096
 30
0.0
 40
2.0
 50
90.0
 51
169.9999989999975
  0
LINE
  5
BAD4
  8
0
 10
349.21700214467501
 20
664.12304382777074
 30
0.0
 11
351.69639214467509
 21
678.18436482777088
 31
0.0
  0
ARC
  5
BAD5
  8
0
 10
353.84714914467497
 20
673.87188382777072
 30
0.0
 40
2.0
 50
90.0
 51
169.9999999999971
  0
LINE
  5
BAD6
  8
0
 10
349.21700214467501
 20
659.13055882777098
 30
0.0
 11
351.877533144675
 21
674.21917982777074
 31
0.0
  0
ARC
  5
BAD7
  8
0
 10
354.12837714467503
 20
668.294455827771
 30
0.0
 40
2.0
 50
90.0
 51
169.9999999999971
  0
LINE
  5
BAD8
  8
0
 10
349.21700214467501
 20
651.95820682777082
 30
0.0
 11
352.15876114467488
 21
668.6417528277708
 31
0.0
  0
ARC
  5
BAD9
  8
0
 10
354.2236411446749
 20
662.29378882777075
 30
0.0
 40
2.0
 50
90.0
 51
169.9999989999975
  0
LINE
  5
BADA
  8
0
 10
349.21700214467501
 20
645.41727082777095
 30
0.0
 11
352.25402514467521
 21
662.6410848277709
 31
0.0
  0
LINE
  5
BADB
  8
0
 10
548.08874314467494
 20
669.15673282777072
 30
0.0
 11
546.49692814467494
 21
678.18436482777088
 31
0.0
  0
LINE
  5
BADC
  8
0
 10
349.21700214467501
 20
664.12304382777074
 30
0.0
 11
350.09731214467502
 21
664.12304382777074
 31
0.0
  0
ARC
  5
BADD
  8
0
 10
544.39793514467476
 20
673.87188382777072
 30
0.0
 40
2.0
 50
10.00000000000294
 51
90.0
  0
LINE
  5
BADE
  8
0
 10
547.26019714467475
 20
669.15673282777072
 30
0.0
 11
546.36755114467496
 21
674.21917982777074
 31
0.0
  0
ARC
  5
BADF
  8
0
 10
479.6060201446748
 20
668.294455827771
 30
0.0
 40
2.0
 50
5.5986529999992776
 51
90.0
  0
ARC
  5
BAE0
  8
0
 10
479.60406514467491
 20
662.29378882777075
 30
0.0
 40
2.0
 50
5.429018999998811
 51
90.0
  0
LINE
  5
BAE1
  8
0
 10
550.21700214467501
 20
545.57037782777059
 30
0.0
 11
550.21700214467501
 21
647.35901682777069
 31
0.0
  0
LINE
  5
BAE2
  8
0
 10
550.21700214467501
 20
669.15673282777072
 30
0.0
 11
550.21700214467501
 21
673.29308382777072
 31
0.0
  0
LINE
  5
BAE3
  8
0
 10
498.17387814467492
 20
659.13055882777098
 30
0.0
 11
514.21700114467501
 21
663.73042082777101
 31
0.0
  0
LINE
  5
BAE4
  8
0
 10
482.51391714467491
 20
659.13055882777098
 30
0.0
 11
498.17387814467492
 21
659.13055882777098
 31
0.0
  0
LINE
  5
BAE5
  8
0
 10
514.21700114467501
 20
663.73042082777101
 30
0.0
 11
528.91028514467484
 21
663.73042082777101
 31
0.0
  0
INSERT
  5
BAE6
  8
0
  2
$6-45
 10
533.71700214467501
 20
659.42634382777078
 30
0.0
 50
90.0
  0
INSERT
  5
BAE7
  8
0
  2
$6-45
 10
533.71700214467501
 20
533.38441682777079
 30
0.0
 50
90.0
  0
LINE
  5
BAE8
  8
0
 10
309.21700214467501
 20
588.29308382777072
 30
0.0
 11
241.225470144675
 21
588.29308382777072
 31
0.0
  0
LINE
  5
BAE9
  8
0
 10
548.15617214467511
 20
673.29308382777072
 30
0.0
 11
550.21700214467501
 21
673.29308382777072
 31
0.0
  0
LINE
  5
BAEA
  8
0
 10
353.84714914467497
 20
675.87188382777072
 30
0.0
 11
544.39793514467476
 21
675.87188382777072
 31
0.0
  0
LINE
  5
BAEB
  8
0
 10
353.666008144675
 20
679.83706882777074
 30
0.0
 11
544.52731314467485
 21
679.83706882777074
 31
0.0
  0
LINE
  5
BAEC
  8
0
 10
353.54821714467522
 20
682.38980282777072
 30
0.0
 11
544.61316814467489
 21
682.38980282777072
 31
0.0
  0
LINE
  5
BAED
  8
0
 10
340.71700214467501
 20
678.79308382777072
 30
0.0
 11
351.23582014467502
 21
678.79308382777072
 31
0.0
  0
LINE
  5
BAEE
  8
0
 10
368.48124714467508
 20
683.57957682777089
 30
0.0
 11
435.21700214467501
 21
683.57957682777089
 31
0.0
  0
LINE
  5
BAEF
  8
0
 10
514.21700114467501
 20
642.4530838277708
 30
0.0
 11
514.21700114467501
 21
637.108083827771
 31
0.0
  0
LINE
  5
BAF0
  8
0
 10
498.17387814467492
 20
642.4530838277708
 30
0.0
 11
498.17387814467492
 21
637.108083827771
 31
0.0
  0
LINE
  5
BAF1
  8
0
 10
514.21700114467501
 20
652.74914382777069
 30
0.0
 11
514.21700114467501
 21
645.15308382777073
 31
0.0
  0
LINE
  5
BAF2
  8
0
 10
514.21700114467501
 20
661.14587082777098
 30
0.0
 11
528.3170081446749
 21
661.14587082777098
 31
0.0
  0
LINE
  5
BAF3
  8
0
 10
349.21700214467501
 20
645.41727082777095
 30
0.0
 11
483.21700214467478
 21
645.41727082777095
 31
0.0
  0
LINE
  5
BAF4
  8
0
 10
482.53937514467509
 20
651.95820682777082
 30
0.0
 11
483.21700214467478
 21
651.95820682777082
 31
0.0
  0
LINE
  5
BAF5
  8
0
 10
354.2236411446749
 20
664.29378882777087
 30
0.0
 11
479.60406514467491
 21
664.29378882777087
 31
0.0
  0
LINE
  5
BAF6
  8
0
 10
349.21700214467501
 20
651.95820682777082
 30
0.0
 11
350.3703451446749
 21
651.95820682777082
 31
0.0
  0
LINE
  5
BAF7
  8
0
 10
354.12837714467503
 20
670.29445582777078
 30
0.0
 11
479.6060201446748
 21
670.29445582777078
 31
0.0
  0
LINE
  5
BAF8
  8
0
 10
550.21700214467501
 20
647.35901682777069
 30
0.0
 11
553.21700214467489
 21
645.62696582777073
 31
0.0
  0
ARC
  5
BAF9
  8
0
 10
532.71700214467489
 20
648.35901682777069
 30
0.0
 40
1.0
 50
270.0
 51
0.0
  0
ARC
  5
BAFA
  8
0
 10
535.71700214467501
 20
667.15673282777072
 30
0.0
 40
2.0
 50
90.0
 51
180.0
  0
ARC
  5
BAFB
  8
0
 10
535.71700214467501
 20
663.0327278277706
 30
0.0
 40
2.0
 50
180.0
 51
270.0
  0
ARC
  5
BAFC
  8
0
 10
535.71700214467501
 20
659.0327278277706
 30
0.0
 40
2.0
 50
90.0
 51
180.0
  0
LINE
  5
BAFD
  8
0
 10
535.71700214467501
 20
669.15673282777072
 30
0.0
 11
553.21700214467489
 21
669.15673282777072
 31
0.0
  0
LINE
  5
BAFE
  8
0
 10
533.71700214467501
 20
647.35901682777069
 30
0.0
 11
550.21700214467501
 21
647.35901682777069
 31
0.0
  0
LINE
  5
BAFF
  8
0
 10
535.71700214467501
 20
661.03272782777071
 30
0.0
 11
553.21700214467489
 21
661.03272782777071
 31
0.0
  0
LINE
  5
BB00
  8
0
 10
533.71700214467501
 20
648.35901682777069
 30
0.0
 11
533.71700214467501
 21
667.15673282777072
 31
0.0
  0
LINE
  5
BB01
  8
0
 10
349.21700214467501
 20
501.29308382777077
 30
0.0
 11
340.71700214467512
 21
501.29308382777077
 31
0.0
  0
LINE
  5
BB02
  8
0
 10
350.04119714467498
 20
516.21621982777083
 30
0.0
 11
350.80974414467499
 21
507.86882782777082
 31
0.0
  0
LINE
  5
BB03
  8
0
 10
349.21700214467501
 20
511.45560882777079
 30
0.0
 11
349.89977914467499
 21
511.45560882777079
 31
0.0
  0
LINE
  5
BB04
  8
0
 10
349.21700214467501
 20
506.46312382777091
 30
0.0
 11
349.74151514467491
 21
506.46312382777091
 31
0.0
  0
LINE
  5
BB05
  8
0
 10
349.21700214467501
 20
503.24236782777081
 30
0.0
 11
349.576944144675
 21
503.24236782777081
 31
0.0
  0
LINE
  5
BB06
  8
0
 10
349.1702251446751
 20
501.67278682777078
 30
0.0
 11
349.40061614467493
 21
501.67278682777078
 31
0.0
  0
LINE
  5
BB07
  8
0
 10
349.4465891446751
 20
516.21621982777083
 30
0.0
 11
350.80465414467488
 21
501.95018682777078
 31
0.0
  0
LINE
  5
BB08
  8
0
 10
349.21700214467501
 20
511.45560882777079
 30
0.0
 11
350.78883514467498
 21
496.4943978277708
 31
0.0
  0
LINE
  5
BB09
  8
0
 10
349.21700214467501
 20
506.46312382777091
 30
0.0
 11
350.77831314467522
 21
492.49253282777079
 31
0.0
  0
LINE
  5
BB0A
  8
0
 10
349.21700214467501
 20
503.24236782777081
 30
0.0
 11
350.77022114467491
 21
489.9650398277708
 31
0.0
  0
LINE
  5
BB0B
  8
0
 10
349.1702251446751
 20
501.67278682777078
 30
0.0
 11
350.76074114467502
 21
488.76205282777079
 31
0.0
  0
ARC
  5
BB0C
  8
0
 10
352.801320144675
 20
508.0521928277708
 30
0.0
 40
2.0
 50
185.26041100000171
 51
270.0
  0
ARC
  5
BB0D
  8
0
 10
352.79565214467499
 20
502.13972182777093
 30
0.0
 40
2.0
 50
185.4379220000005
 51
270.0
  0
ARC
  5
BB0E
  8
0
 10
352.77788814467499
 20
496.70336882777082
 30
0.0
 40
2.0
 50
185.99752600000051
 51
270.0
  0
ARC
  5
BB0F
  8
0
 10
352.76593914467497
 20
492.71466382777078
 30
0.0
 40
2.0
 50
186.3767420000014
 51
270.0
  0
ARC
  5
BB10
  8
0
 10
352.756675144675
 20
490.19742082777083
 30
0.0
 40
2.0
 50
186.672293999999
 51
270.0
  0
ARC
  5
BB11
  8
0
 10
352.745735144675
 20
489.00659082777082
 30
0.0
 40
2.0
 50
187.02306900000039
 51
270.0
  0
LINE
  5
BB12
  8
0
 10
548.21700214467501
 20
600.47308382777078
 30
0.0
 11
546.45700214467502
 21
601.02308382777073
 31
0.0
  0
LINE
  5
BB13
  8
0
 10
548.21700214467501
 20
603.11308382777065
 30
0.0
 11
548.21700214467501
 21
600.47308382777078
 31
0.0
  0
LINE
  5
BB14
  8
0
 10
546.45700214467502
 20
602.62308382777098
 30
0.0
 11
548.21700214467501
 21
603.11308382777065
 31
0.0
  0
LINE
  5
BB15
  8
0
 10
546.45700214467502
 20
602.62308382777098
 30
0.0
 11
546.45700214467502
 21
601.02308382777073
 31
0.0
  0
LINE
  5
BB16
  8
0
 10
548.21700214467501
 20
589.47308382777101
 30
0.0
 11
546.45700214467502
 21
590.02308382777073
 31
0.0
  0
LINE
  5
BB17
  8
0
 10
548.21700214467501
 20
592.11308382777088
 30
0.0
 11
548.21700214467501
 21
589.47308382777101
 31
0.0
  0
LINE
  5
BB18
  8
0
 10
546.45700214467502
 20
591.62308382777098
 30
0.0
 11
548.21700214467501
 21
592.11308382777088
 31
0.0
  0
LINE
  5
BB19
  8
0
 10
546.45700214467502
 20
591.62308382777098
 30
0.0
 11
546.45700214467502
 21
590.02308382777073
 31
0.0
  0
LINE
  5
BB1A
  8
0
 10
548.21700214467501
 20
578.47308382777101
 30
0.0
 11
546.45700214467502
 21
579.02308382777073
 31
0.0
  0
LINE
  5
BB1B
  8
0
 10
548.21700214467501
 20
581.11308382777077
 30
0.0
 11
548.21700214467501
 21
578.47308382777101
 31
0.0
  0
LINE
  5
BB1C
  8
0
 10
546.45700214467502
 20
580.62308382777076
 30
0.0
 11
548.21700214467501
 21
581.11308382777077
 31
0.0
  0
LINE
  5
BB1D
  8
0
 10
546.45700214467502
 20
580.62308382777076
 30
0.0
 11
546.45700214467502
 21
579.02308382777073
 31
0.0
  0
LINE
  5
BB1E
  8
0
 10
548.21700214467501
 20
567.47308382777067
 30
0.0
 11
546.45700214467502
 21
568.02308382777073
 31
0.0
  0
LINE
  5
BB1F
  8
0
 10
548.21700214467501
 20
570.11308382777065
 30
0.0
 11
548.21700214467501
 21
567.47308382777067
 31
0.0
  0
LINE
  5
BB20
  8
0
 10
546.45700214467502
 20
569.62308382777098
 30
0.0
 11
548.21700214467501
 21
570.11308382777065
 31
0.0
  0
LINE
  5
BB21
  8
0
 10
546.45700214467502
 20
569.62308382777098
 30
0.0
 11
546.45700214467502
 21
568.02308382777073
 31
0.0
  0
LINE
  5
BB22
  8
0
 10
547.6286711446752
 20
498.78380382777078
 30
0.0
 11
546.5970421446749
 21
489.96504282777079
 31
0.0
  0
LINE
  5
BB23
  8
0
 10
546.56178514467501
 20
492.49223682777102
 30
0.0
 11
547.61674214467484
 21
501.91922382777079
 31
0.0
  0
LINE
  5
BB24
  8
0
 10
546.58885514467511
 20
496.49309282777079
 30
0.0
 11
547.68776714467504
 21
506.88726682777082
 31
0.0
  0
LINE
  5
BB25
  8
0
 10
547.738708144675
 20
513.42388682777096
 30
0.0
 11
546.61342714467503
 21
501.94460282777078
 31
0.0
  0
LINE
  5
BB26
  8
0
 10
547.77987514467497
 20
520.83362882777101
 30
0.0
 11
546.547158144675
 21
507.86296782777077
 31
0.0
  0
LINE
  5
BB27
  8
0
 10
547.68879414467494
 20
497.64747582777079
 30
0.0
 11
546.61676114467468
 21
488.76689782777078
 31
0.0
  0
LINE
  5
BB28
  8
0
 10
546.45700214467502
 20
558.62308382777087
 30
0.0
 11
546.45700214467502
 21
557.02308382777085
 31
0.0
  0
LINE
  5
BB29
  8
0
 10
546.45700214467502
 20
558.62308382777087
 30
0.0
 11
548.21700214467501
 21
559.11308382777088
 31
0.0
  0
LINE
  5
BB2A
  8
0
 10
548.21700214467501
 20
559.11308382777088
 30
0.0
 11
548.21700214467501
 21
556.47308382777101
 31
0.0
  0
LINE
  5
BB2B
  8
0
 10
548.21700214467501
 20
556.47308382777101
 30
0.0
 11
546.45700214467502
 21
557.02308382777085
 31
0.0
  0
LINE
  5
BB2C
  8
0
 10
546.45700214467502
 20
613.62308382777076
 30
0.0
 11
546.45700214467502
 21
612.02308382777073
 31
0.0
  0
LINE
  5
BB2D
  8
0
 10
546.45700214467502
 20
613.62308382777076
 30
0.0
 11
548.21700214467501
 21
614.11308382777088
 31
0.0
  0
LINE
  5
BB2E
  8
0
 10
548.21700214467501
 20
614.11308382777088
 30
0.0
 11
548.21700214467501
 21
611.47308382777101
 31
0.0
  0
LINE
  5
BB2F
  8
0
 10
548.21700214467501
 20
611.47308382777101
 30
0.0
 11
546.45700214467502
 21
612.02308382777073
 31
0.0
  0
LINE
  5
BB30
  8
0
 10
498.17387814467492
 20
611.47308382777101
 30
0.0
 11
498.17387814467492
 21
603.11308382777065
 31
0.0
  0
LINE
  5
BB31
  8
0
 10
514.21700114467501
 20
611.47308382777101
 30
0.0
 11
514.21700114467501
 21
603.11308382777065
 31
0.0
  0
LINE
  5
BB32
  8
0
 10
514.21700114467501
 20
600.47308382777078
 30
0.0
 11
514.21700114467501
 21
592.11308382777088
 31
0.0
  0
LINE
  5
BB33
  8
0
 10
498.17387814467492
 20
600.47308382777078
 30
0.0
 11
498.17387814467492
 21
592.9936068277708
 31
0.0
  0
LINE
  5
BB34
  8
0
 10
514.21700114467501
 20
589.47308382777101
 30
0.0
 11
514.21700114467501
 21
581.11308382777077
 31
0.0
  0
LINE
  5
BB35
  8
0
 10
514.21700114467501
 20
578.47308382777101
 30
0.0
 11
514.21700114467501
 21
570.11308382777065
 31
0.0
  0
LINE
  5
BB36
  8
0
 10
498.17387814467492
 20
567.47308382777067
 30
0.0
 11
498.17387814467492
 21
559.11308382777088
 31
0.0
  0
LINE
  5
BB37
  8
0
 10
514.21700114467501
 20
567.47308382777067
 30
0.0
 11
514.21700114467501
 21
559.11308382777088
 31
0.0
  0
LINE
  5
BB38
  8
0
 10
514.21700114467501
 20
556.47308382777101
 30
0.0
 11
514.21700114467501
 21
540.68463782777098
 31
0.0
  0
LINE
  5
BB39
  8
0
 10
498.17387814467492
 20
556.47308382777101
 30
0.0
 11
498.17387814467492
 21
525.168014827771
 31
0.0
  0
LINE
  5
BB3A
  8
0
 10
547.77987514467497
 20
520.83362882777101
 30
0.0
 11
514.21700114467501
 21
520.83362882777101
 31
0.0
  0
LINE
  5
BB3B
  8
0
 10
547.738708144675
 20
513.42388682777096
 30
0.0
 11
547.07566214467477
 21
513.42388682777096
 31
0.0
  0
ARC
  5
BB3C
  8
0
 10
544.55613014467485
 20
508.0521928277708
 30
0.0
 40
2.0
 50
270.0
 51
354.57098100000121
  0
ARC
  5
BB3D
  8
0
 10
544.62296814467504
 20
502.13972182777093
 30
0.0
 40
2.0
 50
270.0
 51
354.40134700000061
  0
ARC
  5
BB3E
  8
0
 10
544.59994014467497
 20
496.70336882777082
 30
0.0
 40
2.0
 50
270.0
 51
353.96488599999998
  0
ARC
  5
BB3F
  8
0
 10
544.57419214467495
 20
492.71466382777078
 30
0.0
 40
2.0
 50
270.0
 51
353.61470099999917
  0
ARC
  5
BB40
  8
0
 10
544.61058814467503
 20
490.19742082777083
 30
0.0
 40
2.0
 50
270.0
 51
353.32780000000082
  0
ARC
  5
BB41
  8
0
 10
544.63117714467501
 20
489.00659082777082
 30
0.0
 40
2.0
 50
270.0
 51
353.11676000000182
  0
LINE
  5
BB42
  8
0
 10
547.68776714467504
 20
506.88726682777082
 30
0.0
 11
547.09794214467502
 21
506.88726682777082
 31
0.0
  0
LINE
  5
BB43
  8
0
 10
547.61674214467484
 20
501.91922382777079
 30
0.0
 11
547.16252714467487
 21
501.91922382777079
 31
0.0
  0
LINE
  5
BB44
  8
0
 10
547.6286711446752
 20
498.78380382777078
 30
0.0
 11
547.265863144675
 21
498.78380382777078
 31
0.0
  0
LINE
  5
BB45
  8
0
 10
547.68879414467494
 20
497.64747582777079
 30
0.0
 11
547.49574214467498
 21
497.64747582777079
 31
0.0
  0
LINE
  5
BB46
  8
0
 10
550.21700214467501
 20
545.57037782777059
 30
0.0
 11
533.71700214467501
 21
545.57037782777059
 31
0.0
  0
LINE
  5
BB47
  8
0
 10
553.21700214467489
 20
535.39108582777089
 30
0.0
 11
535.71700214467501
 21
535.39108582777089
 31
0.0
  0
LINE
  5
BB48
  8
0
 10
553.21700214467489
 20
523.10380482777077
 30
0.0
 11
535.71700214467501
 21
523.10380482777077
 31
0.0
  0
LINE
  5
BB49
  8
0
 10
533.71700214467501
 20
544.57037782777081
 30
0.0
 11
533.71700214467501
 21
525.103804827771
 31
0.0
  0
LINE
  5
BB4A
  8
0
 10
550.21700214467501
 20
545.57037782777059
 30
0.0
 11
553.21700214467489
 21
547.30242882777077
 31
0.0
  0
ARC
  5
BB4B
  8
0
 10
535.71700214467501
 20
537.39108582777078
 30
0.0
 40
2.0
 50
180.0
 51
270.0
  0
ARC
  5
BB4C
  8
0
 10
535.71700214467501
 20
525.103804827771
 30
0.0
 40
2.0
 50
180.0
 51
270.0
  0
ARC
  5
BB4D
  8
0
 10
535.71700214467501
 20
533.39108582777078
 30
0.0
 40
2.0
 50
90.0
 51
180.0
  0
LINE
  5
BB4E
  8
0
 10
514.21700114467501
 20
529.27228782777058
 30
0.0
 11
514.21700114467501
 21
520.83362882777101
 31
0.0
  0
LINE
  5
BB4F
  8
0
 10
498.17387814467492
 20
525.168014827771
 30
0.0
 11
514.21700114467501
 21
520.83362882777101
 31
0.0
  0
ARC
  5
BB50
  8
0
 10
532.71700214467489
 20
544.57037782777081
 30
0.0
 40
1.0
 50
0.0
 51
90.0
  0
LINE
  5
BB51
  8
0
 10
498.17387814467492
 20
525.168014827771
 30
0.0
 11
493.20347114467512
 21
525.168014827771
 31
0.0
  0
LINE
  5
BB52
  8
0
 10
544.63117714467501
 20
487.00659082777082
 30
0.0
 11
352.745735144675
 21
487.00659082777082
 31
0.0
  0
LINE
  5
BB53
  8
0
 10
544.61058814467503
 20
488.19742082777083
 30
0.0
 11
352.756675144675
 21
488.19742082777083
 31
0.0
  0
LINE
  5
BB54
  8
0
 10
544.57419214467495
 20
490.71466382777078
 30
0.0
 11
352.76593914467497
 21
490.71466382777078
 31
0.0
  0
LINE
  5
BB55
  8
0
 10
544.59994014467497
 20
494.7033688277707
 30
0.0
 11
352.77788814467499
 21
494.7033688277707
 31
0.0
  0
LINE
  5
BB56
  8
0
 10
544.62296814467504
 20
500.13972182777081
 30
0.0
 11
352.79565214467499
 21
500.13972182777081
 31
0.0
  0
LINE
  5
BB57
  8
0
 10
544.55613014467485
 20
506.0521928277708
 30
0.0
 11
352.801320144675
 21
506.0521928277708
 31
0.0
  0
LINE
  5
BB58
  8
0
 10
498.17387814467492
 20
659.13055882777098
 30
0.0
 11
498.17387814467492
 21
645.15308382777073
 31
0.0
  0
LINE
  5
BB59
  8
0
 10
514.21700114467501
 20
663.73042082777101
 30
0.0
 11
514.21700114467501
 21
661.14587082777098
 31
0.0
  0
LINE
  5
BB5A
  8
0
 10
493.72937414467492
 20
614.11308382777088
 30
0.0
 11
548.21700214467501
 21
614.11308382777088
 31
0.0
  0
LINE
  5
BB5B
  8
0
 10
493.72970814467487
 20
613.62308382777076
 30
0.0
 11
546.45700214467502
 21
613.62308382777076
 31
0.0
  0
LINE
  5
BB5C
  8
0
 10
493.73079914467502
 20
612.02308382777073
 30
0.0
 11
546.45700214467502
 21
612.02308382777073
 31
0.0
  0
LINE
  5
BB5D
  8
0
 10
493.73117414467492
 20
611.47308382777101
 30
0.0
 11
548.21700214467501
 21
611.47308382777101
 31
0.0
  0
LINE
  5
BB5E
  8
0
 10
493.71746214467493
 20
559.11308382777088
 30
0.0
 11
548.21700214467501
 21
559.11308382777088
 31
0.0
  0
LINE
  5
BB5F
  8
0
 10
493.71700214467501
 20
558.62308382777087
 30
0.0
 11
546.45700214467502
 21
558.62308382777087
 31
0.0
  0
LINE
  5
BB60
  8
0
 10
493.71700214467501
 20
557.02308382777085
 30
0.0
 11
546.45700214467502
 21
557.02308382777085
 31
0.0
  0
LINE
  5
BB61
  8
0
 10
493.71700214467501
 20
556.47308382777101
 30
0.0
 11
548.21700214467501
 21
556.47308382777101
 31
0.0
  0
LINE
  5
BB62
  8
0
 10
501.32653614467478
 20
589.47308382777101
 30
0.0
 11
548.21700214467501
 21
589.47308382777101
 31
0.0
  0
LINE
  5
BB63
  8
0
 10
500.95486514467478
 20
590.02308382777073
 30
0.0
 11
546.45700214467502
 21
590.02308382777073
 31
0.0
  0
LINE
  5
BB64
  8
0
 10
498.6507861446749
 20
570.11308382777065
 30
0.0
 11
548.21700214467501
 21
570.11308382777065
 31
0.0
  0
LINE
  5
BB65
  8
0
 10
498.13109214467488
 20
569.62308382777098
 30
0.0
 11
546.45700214467502
 21
569.62308382777098
 31
0.0
  0
LINE
  5
BB66
  8
0
 10
496.73758514467499
 20
568.02308382777073
 30
0.0
 11
546.45700214467502
 21
568.02308382777073
 31
0.0
  0
LINE
  5
BB67
  8
0
 10
496.3422941446749
 20
567.47308382777067
 30
0.0
 11
548.21700214467501
 21
567.47308382777067
 31
0.0
  0
LINE
  5
BB68
  8
0
 10
503.71362714467477
 20
581.11308382777077
 30
0.0
 11
548.21700214467501
 21
581.11308382777077
 31
0.0
  0
LINE
  5
BB69
  8
0
 10
503.69783414467508
 20
580.62308382777076
 30
0.0
 11
546.45700214467502
 21
580.62308382777076
 31
0.0
  0
LINE
  5
BB6A
  8
0
 10
503.53374814467497
 20
579.02308382777073
 30
0.0
 11
546.45700214467502
 21
579.02308382777073
 31
0.0
  0
LINE
  5
BB6B
  8
0
 10
503.43681514467488
 20
578.47308382777101
 30
0.0
 11
548.21700214467501
 21
578.47308382777101
 31
0.0
  0
LINE
  5
BB6C
  8
0
 10
493.74771114467489
 20
603.11308382777065
 30
0.0
 11
548.21700214467501
 21
603.11308382777065
 31
0.0
  0
LINE
  5
BB6D
  8
0
 10
493.77471414467499
 20
602.62308382777098
 30
0.0
 11
546.45700214467502
 21
602.62308382777098
 31
0.0
  0
LINE
  5
BB6E
  8
0
 10
493.97607514467478
 20
601.02308382777073
 30
0.0
 11
546.45700214467502
 21
601.02308382777073
 31
0.0
  0
LINE
  5
BB6F
  8
0
 10
494.08623314467502
 20
600.47308382777078
 30
0.0
 11
548.21700214467501
 21
600.47308382777078
 31
0.0
  0
LINE
  5
BB70
  8
0
 10
499.16477614467487
 20
592.11308382777088
 30
0.0
 11
548.21700214467501
 21
592.11308382777088
 31
0.0
  0
LINE
  5
BB71
  8
0
 10
499.646804144675
 20
591.62308382777098
 30
0.0
 11
546.45700214467502
 21
591.62308382777098
 31
0.0
  0
LINE
  5
BB73
  8
0
 10
550.21700214467501
 20
497.29308382777077
 30
0.0
 11
550.21700214467501
 21
523.10380482777077
 31
0.0
  0
LINE
  5
BB74
  8
0
 10
547.64601314467495
 20
497.29308382777077
 30
0.0
 11
550.21700214467501
 21
497.29308382777077
 31
0.0
  0
LINE
  5
BB75
  8
0
 10
548.21700214467501
 20
645.15308382777073
 30
0.0
 11
546.45700214467502
 21
644.5930838277709
 31
0.0
  0
LINE
  5
BB76
  8
0
 10
546.45700214467502
 20
642.99308382777099
 30
0.0
 11
548.21700214467501
 21
642.4530838277708
 31
0.0
  0
LINE
  5
BB77
  8
0
 10
548.21700214467501
 20
642.4530838277708
 30
0.0
 11
548.21700214467501
 21
645.15308382777073
 31
0.0
  0
LINE
  5
BB78
  8
0
 10
546.45700214467502
 20
642.99308382777099
 30
0.0
 11
546.45700214467502
 21
644.5930838277709
 31
0.0
  0
LINE
  5
BB79
  8
0
 10
548.21700214467501
 20
637.108083827771
 30
0.0
 11
546.45700214467502
 21
636.56808382777069
 31
0.0
  0
LINE
  5
BB7A
  8
0
 10
546.45700214467502
 20
634.96808382777067
 30
0.0
 11
548.21700214467501
 21
634.47808382777066
 31
0.0
  0
LINE
  5
BB7B
  8
0
 10
546.45700214467502
 20
634.96808382777067
 30
0.0
 11
546.45700214467502
 21
636.56808382777069
 31
0.0
  0
LINE
  5
BB7C
  8
0
 10
548.21700214467501
 20
634.47808382777066
 30
0.0
 11
548.21700214467501
 21
637.108083827771
 31
0.0
  0
LINE
  5
BB7D
  8
0
 10
483.21700214467478
 20
645.41727082777095
 30
0.0
 11
481.59509314467488
 21
662.48301382777072
 31
0.0
  0
LINE
  5
BB7E
  8
0
 10
483.21700214467478
 20
651.95820682777082
 30
0.0
 11
481.59647914467502
 21
668.48957482777098
 31
0.0
  0
LINE
  5
BB7F
  8
0
 10
228.27553514467499
 20
650.6250538277709
 30
0.0
 11
233.276633144675
 21
678.9876638277708
 31
0.0
  0
LINE
  5
BB80
  8
0
 10
235.996848144675
 20
675.85881882777073
 30
0.0
 11
235.996848144675
 21
586.97097182777065
 31
0.0
  0
ARC
  5
BB81
  8
0
 10
237.21587314467499
 20
678.29308382777072
 30
0.0
 40
4.0
 50
90.0
 51
170.00018300000031
  0
LINE
  5
BB82
  8
0
 10
228.21700214467501
 20
642.8930598277708
 30
0.0
 11
228.21700214467501
 21
556.58205582777077
 31
0.0
  0
ARC
  5
BB83
  8
0
 10
229.21700214467501
 20
647.29308382777072
 30
0.0
 40
3.0
 50
118.7876890000052
 51
180.0
  0
LINE
  5
BB84
  8
0
 10
226.21700214467501
 20
647.29308382777072
 30
0.0
 11
226.21700214467501
 21
535.44136982777081
 31
0.0
  0
LINE
  5
BB85
  8
0
 10
235.996848144675
 20
575.11245882777098
 30
0.0
 11
235.996848144675
 21
504.28112082777102
 31
0.0
  0
LINE
  5
BB86
  8
0
 10
229.90502114467509
 20
510.71976182777098
 30
0.0
 11
231.51335814467501
 21
501.5985038277708
 31
0.0
  0
ARC
  5
BB87
  8
0
 10
235.45259814467499
 20
502.29308382777077
 30
0.0
 40
4.0
 50
189.9998319999988
 51
270.0
  0
ARC
  5
BB88
  8
0
 10
227.29073214467499
 20
650.79875982777082
 30
0.0
 40
1.0
 50
298.7879640000001
 51
350.00021399999918
  0
LINE
  5
BB89
  8
0
 10
230.27436714467501
 20
578.32910582777072
 30
0.0
 11
223.23033814467499
 21
503.87130282777082
 31
0.0
  0
LINE
  5
BB8A
  8
0
 10
236.2476961446751
 20
577.76400282777081
 30
0.0
 11
229.203666144675
 21
503.3061998277708
 31
0.0
  0
ARC
  5
BB8B
  8
0
 10
241.225470144675
 20
577.29308382777072
 30
0.0
 40
5.0
 50
90.0
 51
174.5956570000011
  0
ARC
  5
BB8C
  8
0
 10
241.225470144675
 20
577.29308382777072
 30
0.0
 40
11.0
 50
90.0
 51
174.5956570000011
  0
ARC
  5
BB8D
  8
0
 10
226.21700214467501
 20
503.58875082777081
 30
0.0
 40
3.0
 50
174.5956570000011
 51
354.5956570000011
  0
ARC
  5
BB8E
  8
0
 10
226.21700214467501
 20
503.58875082777081
 30
0.0
 40
3.799999999999998
 50
220.00000000000011
 51
32.140571999997661
  0
LINE
  5
BB8F
  8
0
 10
220.83324914467491
 20
504.94557882777082
 30
0.0
 11
223.247792144675
 21
501.22489282777082
 31
0.0
  0
LINE
  5
BB90
  8
0
 10
221.45071214467501
 20
505.46369182777079
 30
0.0
 11
223.918869144675
 21
501.66038782777082
 31
0.0
  0
LINE
  5
BB91
  8
0
 10
221.45071214467501
 20
505.46369182777079
 30
0.0
 11
220.83324914467491
 21
504.94557882777082
 31
0.0
  0
LINE
  5
BB92
  8
0
 10
350.48168114467501
 20
659.13055882777098
 30
0.0
 11
349.21700214467501
 21
659.13055882777098
 31
0.0
  0
LINE
  5
BB93
  8
0
 10
349.21700214467501
 20
645.15308382777073
 30
0.0
 11
350.52714814467498
 21
644.73621982777081
 31
0.0
  0
LINE
  5
BB94
  8
0
 10
349.21700214467501
 20
644.73621982777081
 30
0.0
 11
349.21700214467501
 21
645.15308382777073
 31
0.0
  0
LINE
  5
BB95
  8
0
 10
340.71700214467489
 20
668.91338082777065
 30
0.0
 11
349.49376114467498
 21
668.91338082777065
 31
0.0
  0
LINE
  5
BB96
  8
0
 10
324.21700214467501
 20
598.696112827771
 30
0.0
 11
324.21700214467501
 21
574.310083827771
 31
0.0
  0
LINE
  5
BB97
  8
0
 10
309.71700214467501
 20
587.7930838277706
 30
0.0
 11
328.17011461419901
 21
587.7930838277706
 31
0.0
  0
ARC
  5
BB98
  8
0
 10
324.21700214467501
 20
585.29308382777072
 30
0.0
 40
9.0
 50
43.89821675632092
 51
163.8723909999996
  0
ARC
  5
BB99
  8
0
 10
324.21700214467501
 20
585.29308382777072
 30
0.0
 40
5.5
 50
37.234941055981601
 51
152.9643079999984
  0
LINE
  5
BB9A
  8
0
 10
309.71700214467501
 20
582.79308382777072
 30
0.0
 11
326.78574800094168
 21
582.79308382777072
 31
0.0
  0
ARC
  5
BB9B
  8
0
 10
324.21700214467501
 20
585.29308382777072
 30
0.0
 40
9.0
 50
196.1276090000004
 51
290.7110054129422
  0
ARC
  5
BB9C
  8
0
 10
324.21700214467501
 20
585.29308382777072
 30
0.0
 40
5.5
 50
207.0356920000016
 51
297.3742811132829
  0
LINE
  5
BB9D
  8
0
 10
340.71700214467501
 20
682.29308382777072
 30
0.0
 11
340.71700214467501
 21
641.40221259589794
 31
0.0
  0
LINE
  5
BB9E
  8
0
 10
309.71700214467501
 20
587.7930838277706
 30
0.0
 11
309.21700214467501
 21
588.29308382777072
 31
0.0
  0
LINE
  5
BB9F
  8
0
 10
309.71700214467501
 20
582.79308382777072
 30
0.0
 11
309.21700214467501
 21
582.29308382777072
 31
0.0
  0
LINE
  5
BBA0
  8
0
 10
435.21700214467501
 20
686.29308382777072
 30
0.0
 11
457.21700214467489
 21
686.29308382777072
 31
0.0
  0
LINE
  5
BBA1
  8
0
 10
435.21700214467501
 20
686.29308382777072
 30
0.0
 11
435.21700214467501
 21
682.38980282777072
 31
0.0
  0
LINE
  5
BBA2
  8
0
 10
457.21700214467489
 20
686.29308382777072
 30
0.0
 11
457.21700214467489
 21
682.38980282777072
 31
0.0
  0
LINE
  5
BBA3
  8
0
 10
309.21700214467501
 20
582.29308382777072
 30
0.0
 11
241.225470144675
 21
582.29308382777072
 31
0.0
  0
LINE
  5
BBA4
  8
0
 10
340.71700214467501
 20
498.29308382777077
 30
0.0
 11
235.45259814467499
 21
498.29308382777077
 31
0.0
  0
LINE
  5
BBA5
  8
0
 10
340.71700214467501
 20
682.29308382777072
 30
0.0
 11
237.21587314467499
 21
682.29308382777072
 31
0.0
  0
LINE
  5
BBA6
  8
0
 10
487.58192114467488
 20
642.99308382777099
 30
0.0
 11
546.45700214467502
 21
642.99308382777099
 31
0.0
  0
LINE
  5
BBA7
  8
0
 10
483.100470144675
 20
644.5930838277709
 30
0.0
 11
546.45700214467502
 21
644.5930838277709
 31
0.0
  0
LINE
  5
BBA8
  8
0
 10
488.41674214467503
 20
642.4530838277708
 30
0.0
 11
548.21700214467501
 21
642.4530838277708
 31
0.0
  0
LINE
  5
BBA9
  8
0
 10
349.21700214467501
 20
645.15308382777073
 30
0.0
 11
548.21700214467501
 21
645.15308382777073
 31
0.0
  0
LINE
  5
BBAA
  8
0
 10
493.51384014467482
 20
634.47808382777066
 30
0.0
 11
548.21700214467501
 21
634.47808382777066
 31
0.0
  0
LINE
  5
BBAB
  8
0
 10
492.72751714467489
 20
637.108083827771
 30
0.0
 11
548.21700214467501
 21
637.108083827771
 31
0.0
  0
LINE
  5
BBAC
  8
0
 10
493.41424514467479
 20
634.96808382777067
 30
0.0
 11
546.45700214467502
 21
634.96808382777067
 31
0.0
  0
LINE
  5
BBAD
  8
0
 10
492.94150414467492
 20
636.56808382777069
 30
0.0
 11
546.45700214467502
 21
636.56808382777069
 31
0.0
  0
LINE
  5
BBAE
  8
0
 10
553.21700214467489
 20
500.29308382777077
 30
0.0
 11
550.21700214467501
 21
497.29308382777077
 31
0.0
  0
LINE
  5
BBAF
  8
0
 10
553.21700214467489
 20
500.29308382777077
 30
0.0
 11
553.21700214467489
 21
670.29308382777072
 31
0.0
  0
LINE
  5
BBB0
  8
0
 10
553.21700214467489
 20
670.29308382777072
 30
0.0
 11
550.21700214467501
 21
673.29308382777072
 31
0.0
  0
LINE
  5
BCDC
  8
0
 10
493.98200214467499
 20
574.72121982777082
 30
0.0
 11
493.98200214467499
 21
587.99121982777081
 31
0.0
  0
LINE
  5
C85C
  8
0
  6
CONTINUOUS
 62
     0
 10
571.71700214467455
 20
961.16599628462677
 30
0.0
 11
553.2170621446744
 21
961.16599628462677
 31
0.0
  0
LINE
  5
C85D
  8
0
  6
CONTINUOUS
 62
     0
 10
571.71700214467455
 20
983.6529272846268
 30
0.0
 11
553.2170621446744
 21
983.6529272846268
 31
0.0
  0
LINE
  5
C85E
  8
0
  6
CONTINUOUS
 62
     0
 10
571.71700214467455
 20
973.47363528462665
 30
0.0
 11
553.2170621446744
 21
973.47363528462665
 31
0.0
  0
LINE
  5
C85F
  8
0
  6
CONTINUOUS
 62
     0
 10
571.71700214467455
 20
1085.4415952846271
 30
0.0
 11
553.2170621446744
 21
1085.4415952846271
 31
0.0
  0
LINE
  5
C860
  8
0
  6
CONTINUOUS
 62
     0
 10
571.71700214467455
 20
1099.1152772846269
 30
0.0
 11
553.2170621446744
 21
1099.1152772846269
 31
0.0
  0
LINE
  5
C861
  8
0
  6
AM_ISO08W050
 10
210.88856656203319
 20
1023.375633284626
 30
0.0
 11
867.33425214467411
 21
1023.375633284626
 31
0.0
  0
LINE
  5
C862
  8
0
  6
CONTINUOUS
 62
     0
 10
553.21700214467455
 20
1107.3755732846271
 30
0.0
 11
566.89150214467418
 21
1107.853103284627
 31
0.0
  0
LINE
  5
C863
  8
0
  6
CONTINUOUS
 62
     0
 10
553.21700214467455
 20
939.37557328462617
 30
0.0
 11
566.89150214467418
 21
938.8980332846271
 31
0.0
  0
LINE
  5
C864
  8
0
  6
CONTINUOUS
 62
     0
 10
553.2170621446744
 20
939.37557328462617
 30
0.0
 11
553.2170621446744
 21
1107.375633284626
 31
0.0
  0
LINE
  5
C89B
  8
0
  6
CONTINUOUS
 62
     0
 10
586.89150214467406
 20
1135.189653284627
 30
0.0
 11
576.54250214467424
 21
1134.8282632846269
 31
0.0
  0
LINE
  5
C89C
  8
0
  6
CONTINUOUS
 62
     0
 10
586.89156214467448
 20
911.56160328462681
 30
0.0
 11
576.54250214467424
 21
911.92299328462695
 31
0.0
  0
LINE
  5
C89D
  8
0
  6
CONTINUOUS
 62
     0
 10
571.71700214467455
 20
916.91994328462681
 30
0.0
 11
571.71700214467455
 21
1129.8313232846269
 31
0.0
  0
LINE
  5
C89E
  8
0
  6
CENTER
 62
     0
 10
603.7170621446744
 20
1008.1953332846271
 30
0.0
 11
603.7170621446744
 21
1037.930193284627
 31
0.0
  0
LINE
  5
C89F
  8
0
  6
CONTINUOUS
 62
     0
 10
583.7170621446744
 20
1018.375633284626
 30
0.0
 11
623.71706214467406
 21
1018.375633284626
 31
0.0
  0
LINE
  5
C8A0
  8
0
  6
CONTINUOUS
 62
     0
 10
583.7170621446744
 20
1028.375633284626
 30
0.0
 11
623.71706214467406
 21
1028.375633284626
 31
0.0
  0
ARC
  5
C8C9
  8
0
  6
CONTINUOUS
 62
     0
 10
576.71700214467455
 20
916.91994328462681
 30
0.0
 40
5.0
 50
180.000010000001
 51
267.99999999999619
  0
ARC
  5
C8CA
  8
0
  6
CONTINUOUS
 62
     0
 10
576.71700214467455
 20
1129.8313232846269
 30
0.0
 40
5.0
 50
91.999997999994306
 51
180.000010000001
  0
ARC
  5
C8CB
  8
0
  6
CONTINUOUS
 62
     0
 10
603.7170621446744
 20
1023.375633284626
 30
0.0
 40
15.0
 50
148.21197999999171
 51
160.5287699999993
  0
ARC
  5
C8CC
  8
0
  6
CONTINUOUS
 62
     0
 10
603.7170621446744
 20
1023.375633284626
 30
0.0
 40
12.5
 50
23.578179999997541
 51
156.42182000000241
  0
ARC
  5
C8CD
  8
0
  6
CONTINUOUS
 62
     0
 10
583.7170621446744
 20
1023.375633284626
 30
0.0
 40
5.0
 50
90.000002999984659
 51
270.0
  0
ARC
  5
C8CE
  8
0
  6
CONTINUOUS
 62
     0
 10
623.71706214467406
 20
1023.375633284626
 30
0.0
 40
5.0
 50
270.0
 51
90.000002999984659
  0
ARC
  5
C8CF
  8
0
  6
CONTINUOUS
 62
     0
 10
603.7170621446744
 20
1023.375633284626
 30
0.0
 40
12.5
 50
203.5781799999975
 51
336.42182999999483
  0
ARC
  5
C8D0
  8
0
  6
CONTINUOUS
 62
     0
 10
603.7170621446744
 20
1023.375633284626
 30
0.0
 40
15.0
 50
199.4712300000007
 51
211.78802000000829
  0
ARC
  5
C8D3
  8
0
  6
CONTINUOUS
 62
     0
 10
566.71700214467455
 20
933.90108328462713
 30
0.0
 40
5.0
 50
0.0
 51
87.999999999996476
  0
ARC
  5
C8D4
  8
0
  6
CONTINUOUS
 62
     0
 10
566.71700214467455
 20
1112.8501132846261
 30
0.0
 40
5.0
 50
272.00000000000369
 51
0.0
  0
ARC
  5
C8D7
  8
0
  6
CONTINUOUS
 62
     0
 10
586.71700214467455
 20
1012.840043284627
 30
0.0
 40
5.0
 50
0.0
 51
31.788018000003131
  0
ARC
  5
C8D8
  8
0
  6
CONTINUOUS
 62
     0
 10
586.71700214467455
 20
1033.9111532846259
 30
0.0
 40
5.0
 50
328.2119799999918
 51
0.0
  0
LINE
  5
C8D9
  8
0
  6
CONTINUOUS
 62
     0
 10
553.2170621446744
 20
938.3756332846267
 30
0.0
 11
553.2170621446744
 21
1108.375633284626
 31
0.0
  0
ARC
  5
C8DA
  8
0
 10
334.05006214467448
 20
896.19961328462659
 30
0.0
 40
7.3402899999999969
 50
116.67697999999911
 51
177.34798000000251
  0
ARC
  5
C8DB
  8
0
 10
323.92409214467438
 20
915.45962328462656
 30
0.0
 40
15.0
 50
316.51494999999102
 51
336.88495000000182
  0
ARC
  5
C8DC
  8
0
 10
334.05006214467448
 20
889.55166328462633
 30
0.0
 40
7.3402899999999969
 50
182.65198000000061
 51
265.23795999998953
  0
ARC
  5
C8DD
  8
0
 10
334.05006214467448
 20
888.87258328462633
 30
0.0
 40
7.3402899999999969
 50
94.761785000012509
 51
177.34798000000251
  0
ARC
  5
C8DE
  8
0
 10
323.92409214467438
 20
908.1325932846263
 30
0.0
 40
15.0
 50
316.51494999999102
 51
336.88495000000182
  0
ARC
  5
C8DF
  8
0
 10
337.62306214467429
 20
901.83962328462644
 30
0.0
 40
5.8039399999999972
 50
283.12597000000932
 51
344.53994999999787
  0
ARC
  5
C8E0
  8
0
 10
349.2170621446744
 20
899.6655532846263
 30
0.0
 40
6.0
 50
89.999989000004106
 51
179.99997999999789
  0
ARC
  5
C8E1
  8
0
 10
349.2170621446744
 20
897.3365732846263
 30
0.0
 40
12.5
 50
89.999989000004106
 51
156.88497999999879
  0
ARC
  5
C8E2
  8
0
 10
496.3830721446742
 20
896.19961328462659
 30
0.0
 40
7.3402899999999969
 50
2.6518660000028751
 51
63.323093999992352
  0
ARC
  5
C8E3
  8
0
 10
506.5090521446744
 20
915.45962328462656
 30
0.0
 40
15.0
 50
203.1149699999892
 51
223.48497000000251
  0
ARC
  5
C8E4
  8
0
 10
496.3830721446742
 20
889.55166328462633
 30
0.0
 40
7.3402899999999969
 50
274.76196000001192
 51
357.34794999999428
  0
ARC
  5
C8E5
  8
0
 10
496.3830721446742
 20
888.87258328462633
 30
0.0
 40
7.3402899999999969
 50
2.6518660000028751
 51
85.238185999987664
  0
ARC
  5
C8E6
  8
0
 10
506.5090521446744
 20
908.1325932846263
 30
0.0
 40
15.0
 50
203.1149699999892
 51
223.48497000000251
  0
ARC
  5
C8E7
  8
0
 10
492.8110521446747
 20
876.58462328462656
 30
0.0
 40
5.8039399999999972
 50
103.1259899999863
 51
164.53997999999399
  0
ARC
  5
C8E8
  8
0
 10
492.8110521446747
 20
901.83962328462644
 30
0.0
 40
5.8039399999999972
 50
195.4599800000087
 51
256.87396999999709
  0
ARC
  5
C8E9
  8
0
 10
337.62306214467429
 20
876.58462328462656
 30
0.0
 40
5.8039399999999972
 50
15.459701000003831
 51
76.873786000000194
  0
ARC
  5
C8EA
  8
0
 10
349.2170621446744
 20
870.37563328462636
 30
0.0
 40
6.0
 50
179.99997999999789
 51
269.9999499999949
  0
ARC
  5
C8EB
  8
0
 10
349.2170621446744
 20
874.93420728462661
 30
0.0
 40
12.5
 50
179.99997999999789
 51
269.9999499999949
  0
ARC
  5
C8EC
  8
0
 10
481.21706214467429
 20
870.37563328462636
 30
0.0
 40
6.0
 50
269.99995999999589
 51
359.9999499999949
  0
ARC
  5
C8ED
  8
0
 10
481.21706214467429
 20
874.93420728462661
 30
0.0
 40
12.5
 50
269.99995999999589
 51
359.9999499999949
  0
ARC
  5
C8EE
  8
0
 10
481.21706214467429
 20
899.6655532846263
 30
0.0
 40
6.0
 50
0.0
 51
89.999989000004106
  0
ARC
  5
C8EF
  8
0
 10
481.21706214467429
 20
897.3365732846263
 30
0.0
 40
12.5
 50
23.114595000003099
 51
89.999989000004106
  0
ARC
  5
C8F0
  8
0
 10
348.2170621446744
 20
912.37563328462636
 30
0.0
 40
6.0
 50
89.999989000004106
 51
147.54197999998669
  0
ARC
  5
C8F1
  8
0
 10
349.2170621446744
 20
904.66360328462633
 30
0.0
 40
12.5
 50
89.999989000004106
 51
156.9299800000019
  0
ARC
  5
C8F2
  8
0
 10
482.21706214467417
 20
912.37563328462636
 30
0.0
 40
6.0
 50
32.458496999997593
 51
89.999989000004106
  0
ARC
  5
C8F3
  8
0
 10
481.21706214467429
 20
904.66360328462633
 30
0.0
 40
12.5
 50
23.114595000003099
 51
89.999989000004106
  0
LINE
  5
C8F4
  8
0
 10
483.7170621446744
 20
918.18459328462632
 30
0.0
 11
483.7170621446744
 21
921.37563328462636
 31
0.0
  0
LINE
  5
C8F5
  8
0
 10
408.7170621446744
 20
918.37563328462625
 30
0.0
 11
408.7170621446744
 21
921.37563328462636
 31
0.0
  0
LINE
  5
C8F6
  8
0
 10
334.80800214467439
 20
905.13760328462615
 30
0.0
 11
330.75502214467451
 21
902.75857328462632
 31
0.0
  0
LINE
  5
C8F7
  8
0
 10
333.44105214467442
 20
882.23659328462645
 30
0.0
 11
338.94105214467442
 21
882.23659328462645
 31
0.0
  0
LINE
  5
C8F8
  8
0
 10
334.80800214467439
 20
897.81063328462619
 30
0.0
 11
330.7550821446743
 21
895.43063328462654
 31
0.0
  0
LINE
  5
C8F9
  8
0
 10
333.40700214467461
 20
896.18465328462662
 30
0.0
 11
338.94099214467451
 21
896.18771328462628
 31
0.0
  0
LINE
  5
C8FA
  8
0
 10
326.7170621446744
 20
889.23464328462649
 30
0.0
 11
326.7170621446744
 21
896.51662328462635
 31
0.0
  0
LINE
  5
C8FB
  8
0
 10
336.7170621446744
 20
886.06264328462646
 30
0.0
 11
336.7170621446744
 21
892.92556328462615
 31
0.0
  0
LINE
  5
C8FC
  8
0
 10
340.21510214467429
 20
889.21157328462618
 30
0.0
 11
333.95705214467449
 21
889.21157328462618
 31
0.0
  0
LINE
  5
C8FD
  8
0
 10
495.62599214467429
 20
905.13766328462634
 30
0.0
 11
499.67903214467469
 21
902.75863328462628
 31
0.0
  0
LINE
  5
C8FE
  8
0
 10
496.99306214467418
 20
882.23659328462645
 30
0.0
 11
491.49306214467418
 21
882.23659328462645
 31
0.0
  0
LINE
  5
C8FF
  8
0
 10
495.6260521446743
 20
897.81057328462657
 30
0.0
 11
499.67903214467469
 21
895.43056328462649
 31
0.0
  0
LINE
  5
C900
  8
0
 10
497.02595214467448
 20
896.18459328462654
 30
0.0
 11
491.49300214467428
 21
896.18764328462646
 31
0.0
  0
LINE
  5
C901
  8
0
 10
503.7170621446744
 20
889.23464328462649
 30
0.0
 11
503.7170621446744
 21
896.51662328462635
 31
0.0
  0
LINE
  5
C902
  8
0
 10
493.71706214467429
 20
886.06264328462646
 30
0.0
 11
493.71706214467429
 21
892.92556328462615
 31
0.0
  0
LINE
  5
C903
  8
0
 10
490.2180321446744
 20
889.21157328462618
 30
0.0
 11
496.47609214467451
 21
889.21157328462618
 31
0.0
  0
LINE
  5
C904
  8
0
 10
343.2170621446744
 20
870.37563528462636
 30
0.0
 11
343.2170621446744
 21
899.6655532846263
 31
0.0
  0
LINE
  5
C905
  8
0
 10
336.7170621446744
 20
874.93420728462661
 30
0.0
 11
336.7170621446744
 21
882.23659328462645
 31
0.0
  0
LINE
  5
C906
  8
0
 10
487.2170621446744
 20
870.37562828462649
 30
0.0
 11
487.2170621446744
 21
899.6655532846263
 31
0.0
  0
LINE
  5
C907
  8
0
 10
349.2170621446744
 20
909.8365732846263
 30
0.0
 11
481.21706214467429
 21
909.8365732846263
 31
0.0
  0
LINE
  5
C908
  8
0
 10
493.71706214467429
 20
874.93420728462661
 30
0.0
 11
493.71706214467429
 21
882.23659328462645
 31
0.0
  0
LINE
  5
C909
  8
0
 10
349.2170621446744
 20
862.43420728462661
 30
0.0
 11
481.21706214467429
 21
862.43420728462661
 31
0.0
  0
LINE
  5
C90A
  8
0
 10
349.2170621446744
 20
864.37563328462636
 30
0.0
 11
481.21706214467429
 21
864.37563328462636
 31
0.0
  0
LINE
  5
C90B
  8
0
 10
349.2170621446744
 20
905.66555328462618
 30
0.0
 11
481.21706214467429
 21
905.66555328462618
 31
0.0
  0
LINE
  5
C90C
  8
0
 10
348.2170621446744
 20
918.37563328462625
 30
0.0
 11
482.21706214467417
 21
918.37563328462625
 31
0.0
  0
LINE
  5
C90D
  8
0
 10
349.2170621446744
 20
917.16360328462633
 30
0.0
 11
481.21706214467429
 21
917.16360328462633
 31
0.0
  0
LINE
  5
C90E
  8
0
 10
348.2170621446744
 20
915.37563328462625
 30
0.0
 11
482.21706214467417
 21
915.37563328462625
 31
0.0
  0
ARC
  5
C90F
  8
0
 10
354.16070614467441
 20
940.97495328462617
 30
0.0
 40
2.0
 50
190.000000000005
 51
270.0
  0
LINE
  5
C910
  8
0
 10
352.19109114467437
 20
940.62765728462637
 30
0.0
 11
349.2170621446744
 21
957.49421128462632
 31
0.0
  0
LINE
  5
C911
  8
0
 10
349.2170621446744
 20
957.49421128462632
 30
0.0
 11
350.27880114467422
 21
957.49421128462632
 31
0.0
  0
LINE
  5
C912
  8
0
 10
547.68120314467433
 20
1109.5479402846261
 30
0.0
 11
548.21706214467417
 21
1109.5479402846261
 31
0.0
  0
LINE
  5
C913
  8
0
 10
547.94159414467447
 20
1111.1101972846261
 30
0.0
 11
548.21706214467417
 21
1111.1101972846261
 31
0.0
  0
LINE
  5
C914
  8
0
 10
549.89526114467435
 20
935.37578428462632
 30
0.0
 11
550.2170621446744
 21
935.37578428462632
 31
0.0
  0
LINE
  5
C915
  8
0
 10
546.03766714467406
 20
940.22364728462674
 30
0.0
 11
548.21706214467417
 21
940.22364728462674
 31
0.0
  0
LINE
  5
C916
  8
0
 10
547.0437501446745
 20
952.32921728462634
 30
0.0
 11
548.21706214467417
 21
952.32921728462634
 31
0.0
  0
LINE
  5
C917
  8
0
 10
446.2170621446744
 20
915.71966828462632
 30
0.0
 11
446.2170621446744
 21
924.90138428462626
 31
0.0
  0
ARC
  5
C918
  8
0
 10
544.45994214467407
 20
1112.3838812846261
 30
0.0
 40
2.0
 50
10.00000000000502
 51
90.0
  0
ARC
  5
C919
  8
0
 10
544.52595914467429
 20
1115.924680284626
 30
0.0
 40
2.0
 50
10.00000000000502
 51
90.0
  0
ARC
  5
C91A
  8
0
 10
544.61187714467439
 20
1118.476417284626
 30
0.0
 40
2.0
 50
10.00000000000502
 51
90.0
  0
ARC
  5
C91B
  8
0
 10
544.64062614467412
 20
1119.875633284626
 30
0.0
 40
2.0
 50
10.00000000000502
 51
90.0
  0
LINE
  5
C91C
  8
0
 10
553.21706514467451
 20
1108.375633284626
 30
0.0
 11
550.21706514467439
 21
1111.375633284626
 31
0.0
  0
LINE
  5
C91D
  8
0
 10
340.7170621446744
 20
1120.3756072846261
 30
0.0
 11
340.7170621446744
 21
926.37563328462625
 31
0.0
  0
LINE
  5
C91E
  8
0
 10
548.17025814467434
 20
1111.375633284626
 30
0.0
 11
550.2170621446744
 21
1111.375633284626
 31
0.0
  0
LINE
  5
C91F
  8
0
 10
553.2170621446744
 20
938.37563328462636
 30
0.0
 11
550.2170621446744
 21
935.37563328462625
 31
0.0
  0
LINE
  5
C920
  8
0
 10
550.2170621446744
 20
935.37563328462625
 30
0.0
 11
550.2170621446744
 21
960.99601928462664
 31
0.0
  0
LINE
  5
C921
  8
0
 10
553.2170621446744
 20
938.37563328462636
 30
0.0
 11
553.2170621446744
 21
1108.375633284626
 31
0.0
  0
CIRCLE
  5
C922
  8
0
 10
446.2170621446744
 20
1023.375633284626
 30
0.0
 40
11.0
  0
LINE
  5
C923
  8
0
 10
353.50318214467421
 20
1121.875633284626
 30
0.0
 11
405.2170621446744
 21
1121.875633284626
 31
0.0
  0
LINE
  5
C924
  8
0
 10
485.21706214467429
 20
1114.3838812846261
 30
0.0
 11
485.21706214467429
 21
1119.875633284626
 31
0.0
  0
LINE
  5
C925
  8
0
 10
407.21706214467417
 20
1114.3838812846261
 30
0.0
 11
407.21706214467417
 21
1119.875633284626
 31
0.0
  0
ARC
  5
C926
  8
0
 10
405.2170621446744
 20
1119.875633284626
 30
0.0
 40
2.0
 50
0.0
 51
90.0
  0
ARC
  5
C927
  8
0
 10
487.2170621446744
 20
1119.875633284626
 30
0.0
 40
2.0
 50
90.0
 51
180.0
  0
LINE
  5
C928
  8
0
 10
487.2170621446744
 20
1121.875633284626
 30
0.0
 11
544.64062614467412
 21
1121.875633284626
 31
0.0
  0
LINE
  5
C929
  8
0
 10
544.61187714467439
 20
1120.476417284626
 30
0.0
 11
487.2170621446744
 21
1120.476417284626
 31
0.0
  0
LINE
  5
C92A
  8
0
 10
548.21706214467417
 20
1109.5479402846261
 30
0.0
 11
546.58149314467425
 21
1118.8237132846259
 31
0.0
  0
LINE
  5
C92B
  8
0
 10
548.21706214467417
 20
1111.1101972846261
 30
0.0
 11
546.61024114467455
 21
1120.2229292846259
 31
0.0
  0
LINE
  5
C92C
  8
0
 10
349.2170621446744
 20
1107.085379284626
 30
0.0
 11
351.53356714467418
 21
1120.2229292846259
 31
0.0
  0
ARC
  5
C92D
  8
0
 10
353.50318214467421
 20
1119.875633284626
 30
0.0
 40
2.0
 50
90.0
 51
169.99999999999491
  0
LINE
  5
C92E
  8
0
 10
349.2170621446744
 20
1105.4263182846259
 30
0.0
 11
351.57938414467441
 21
1118.8237132846259
 31
0.0
  0
ARC
  5
C92F
  8
0
 10
353.54900014467461
 20
1118.476417284626
 30
0.0
 40
2.0
 50
90.0
 51
169.99999999999491
  0
ARC
  5
C930
  8
0
 10
405.2170621446744
 20
1118.476417284626
 30
0.0
 40
2.0
 50
0.0
 51
90.0
  0
ARC
  5
C931
  8
0
 10
487.2170621446744
 20
1118.476417284626
 30
0.0
 40
2.0
 50
90.0
 51
180.0
  0
LINE
  5
C932
  8
0
 10
405.2170621446744
 20
1120.476417284626
 30
0.0
 11
353.54900014467461
 21
1120.476417284626
 31
0.0
  0
LINE
  5
C933
  8
0
 10
544.52595914467429
 20
1117.924680284626
 30
0.0
 11
487.2170621446744
 21
1117.924680284626
 31
0.0
  0
LINE
  5
C934
  8
0
 10
548.08828214467417
 20
1107.2392822846259
 30
0.0
 11
546.49557414467415
 21
1116.271977284626
 31
0.0
  0
LINE
  5
C935
  8
0
 10
349.2170621446744
 20
1102.205527284626
 30
0.0
 11
351.6973571446747
 21
1116.271977284626
 31
0.0
  0
ARC
  5
C936
  8
0
 10
353.66697214467422
 20
1115.924680284626
 30
0.0
 40
2.0
 50
90.0
 51
169.99999999999491
  0
ARC
  5
C937
  8
0
 10
405.2170621446744
 20
1115.924680284626
 30
0.0
 40
2.0
 50
0.0
 51
90.0
  0
ARC
  5
C938
  8
0
 10
487.2170621446744
 20
1115.924680284626
 30
0.0
 40
2.0
 50
90.0
 51
180.0
  0
LINE
  5
C939
  8
0
 10
405.2170621446744
 20
1117.924680284626
 30
0.0
 11
353.66697214467422
 21
1117.924680284626
 31
0.0
  0
LINE
  5
C93A
  8
0
 10
544.45994214467407
 20
1114.3838812846261
 30
0.0
 11
353.8284811446743
 21
1114.3838812846261
 31
0.0
  0
LINE
  5
C93B
  8
0
 10
547.39792714467455
 20
1107.2392822846259
 30
0.0
 11
546.42955814467427
 21
1112.731177284626
 31
0.0
  0
LINE
  5
C93C
  8
0
 10
349.2170621446744
 20
1097.748767284626
 30
0.0
 11
351.85886514467438
 21
1112.731177284626
 31
0.0
  0
ARC
  5
C93D
  8
0
 10
353.8284811446743
 20
1112.3838812846261
 30
0.0
 40
2.0
 50
90.0
 51
169.99999999999491
  0
LINE
  5
C93E
  8
0
 10
478.27341814467439
 20
1107.776313284626
 30
0.0
 11
354.16070614467441
 21
1107.776313284626
 31
0.0
  0
LINE
  5
C93F
  8
0
 10
483.2170621446744
 20
1089.2570552846259
 30
0.0
 11
480.24303314467443
 21
1106.1236092846259
 31
0.0
  0
ARC
  5
C940
  8
0
 10
478.27341814467439
 20
1105.776313284626
 30
0.0
 40
2.0
 50
10.00000000000502
 51
90.0
  0
LINE
  5
C941
  8
0
 10
349.2170621446744
 20
1089.2570552846259
 30
0.0
 11
352.19109114467437
 21
1106.1236092846259
 31
0.0
  0
ARC
  5
C942
  8
0
 10
354.16070614467441
 20
1105.776313284626
 30
0.0
 40
2.0
 50
90.0
 51
169.99999999999491
  0
LINE
  5
C943
  8
0
 10
477.94315414467428
 20
1102.3742692846261
 30
0.0
 11
354.49097014467452
 21
1102.3742692846261
 31
0.0
  0
LINE
  5
C944
  8
0
 10
482.99601114467441
 20
1083.2356332846259
 30
0.0
 11
479.9127701446746
 21
1100.7215662846261
 31
0.0
  0
ARC
  5
C945
  8
0
 10
477.94315414467428
 20
1100.3742692846261
 30
0.0
 40
2.0
 50
10.00000000000502
 51
90.0
  0
LINE
  5
C946
  8
0
 10
349.49405614467429
 20
1083.5529012846259
 30
0.0
 11
352.52135414467421
 21
1100.7215662846261
 31
0.0
  0
ARC
  5
C947
  8
0
 10
354.49097014467452
 20
1100.3742692846261
 30
0.0
 40
2.0
 50
90.0
 51
169.99999999999491
  0
LINE
  5
C948
  8
0
 10
548.21706214467417
 20
1028.4057852846261
 30
0.0
 11
548.21706214467417
 21
1031.353477284626
 31
0.0
  0
LINE
  5
C949
  8
0
 10
548.21706214467417
 20
1038.405261284626
 30
0.0
 11
548.21706214467417
 21
1041.3667402846261
 31
0.0
  0
LINE
  5
C94A
  8
0
 10
548.21706214467417
 20
1049.397441284626
 30
0.0
 11
548.21706214467417
 21
1052.3900682846261
 31
0.0
  0
LINE
  5
C94B
  8
0
 10
548.21706214467417
 20
1060.3802362846261
 30
0.0
 11
548.21706214467417
 21
1063.425942284626
 31
0.0
  0
LINE
  5
C94C
  8
0
 10
548.21706214467417
 20
1071.3501152846261
 30
0.0
 11
548.21706214467417
 21
1074.4810282846261
 31
0.0
  0
LINE
  5
C94D
  8
0
 10
548.21706214467417
 20
1080.3085912846259
 30
0.0
 11
548.21706214467417
 21
1083.5529012846259
 31
0.0
  0
LINE
  5
C94E
  8
0
 10
498.21706214467417
 20
1097.748767284626
 30
0.0
 11
481.71974414467451
 21
1097.748767284626
 31
0.0
  0
LINE
  5
C94F
  8
0
 10
530.0038391446742
 20
1102.5937352846261
 30
0.0
 11
514.21706214467429
 21
1102.5937352846261
 31
0.0
  0
LINE
  5
C950
  8
0
 10
498.21706214467417
 20
1097.748767284626
 30
0.0
 11
514.21706214467429
 21
1102.5937352846261
 31
0.0
  0
LINE
  5
C951
  8
0
 10
514.21706214467429
 20
1102.5937352846261
 30
0.0
 11
514.21706214467429
 21
1099.2284202846261
 31
0.0
  0
LINE
  5
C952
  8
0
 10
498.21706214467417
 20
1097.748767284626
 30
0.0
 11
498.21706214467417
 21
1083.5529012846259
 31
0.0
  0
LINE
  5
C953
  8
0
 10
533.7170621446744
 20
1086.4415952846259
 30
0.0
 11
533.7170621446744
 21
1105.2392822846259
 31
0.0
  0
ARC
  5
C954
  8
0
 10
535.71706214467417
 20
1105.2392822846259
 30
0.0
 40
2.0
 50
90.0
 51
180.0
  0
LINE
  5
C955
  8
0
 10
533.7170621446744
 20
1090.831693284626
 30
0.0
 11
514.21706214467429
 21
1090.831693284626
 31
0.0
  0
LINE
  5
C956
  8
0
 10
528.31706814467452
 20
1099.2284202846261
 30
0.0
 11
514.21706214467429
 21
1099.2284202846261
 31
0.0
  0
LINE
  5
C957
  8
0
 10
514.21706214467429
 20
1090.831693284626
 30
0.0
 11
514.21706214467429
 21
1083.5529012846259
 31
0.0
  0
ARC
  5
C958
  8
0
  6
CONTINUOUS
 10
530.91686114467416
 20
1094.858899284626
 30
0.0
 40
2.6003989999999999
 50
179.99998200000081
 51
269.99997800000818
  0
ARC
  5
C959
  8
0
  6
CONTINUOUS
 10
530.91686114467416
 20
1100.158887284626
 30
0.0
 40
2.600403
 50
90.0
 51
179.99998200000081
  0
LINE
  5
C95A
  8
0
  6
CONTINUOUS
 10
533.7170621446744
 20
1097.5749182846259
 30
0.0
 11
532.21706214467406
 21
1096.7088932846259
 31
0.0
  0
LINE
  5
C95B
  8
0
  6
CONTINUOUS
 10
533.7170621446744
 20
1098.5749182846259
 30
0.0
 11
532.21706214467406
 21
1097.7088932846259
 31
0.0
  0
LINE
  5
C95C
  8
0
  6
CONTINUOUS
 10
533.7170621446744
 20
1103.608893284626
 30
0.0
 11
533.7170621446744
 21
1091.4088932846259
 31
0.0
  0
LINE
  5
C95D
  8
0
  6
CONTINUOUS
 10
532.21706214467406
 20
1103.608893284626
 30
0.0
 11
533.7170621446744
 21
1103.608893284626
 31
0.0
  0
LINE
  5
C95E
  8
0
  6
CONTINUOUS
 10
532.21706214467406
 20
1091.4088932846259
 30
0.0
 11
533.7170621446744
 21
1091.4088932846259
 31
0.0
  0
LINE
  5
C95F
  8
0
  6
CONTINUOUS
 10
528.31706814467452
 20
1100.158887284626
 30
0.0
 11
528.31706814467452
 21
1094.858899284626
 31
0.0
  0
LINE
  5
C960
  8
0
  6
CONTINUOUS
 10
532.21706214467406
 20
1103.608893284626
 30
0.0
 11
532.21706214467406
 21
1091.4088932846259
 31
0.0
  0
LINE
  5
C961
  8
0
  6
CONTINUOUS
 10
532.21706214467406
 20
1092.2588932846261
 30
0.0
 11
530.91686114467416
 21
1092.2588932846261
 31
0.0
  0
LINE
  5
C962
  8
0
  6
CONTINUOUS
 10
532.21706214467406
 20
1102.7588932846261
 30
0.0
 11
530.91686114467416
 21
1102.7588932846261
 31
0.0
  0
LINE
  5
C963
  8
0
 10
553.2170621446744
 20
1107.2392822846259
 30
0.0
 11
535.71706214467417
 21
1107.2392822846259
 31
0.0
  0
LINE
  5
C964
  8
0
 10
553.2170621446744
 20
1085.4415952846259
 30
0.0
 11
532.7170621446744
 21
1085.4415952846259
 31
0.0
  0
ARC
  5
C965
  8
0
 10
532.7170621446744
 20
1086.4415952846259
 30
0.0
 40
1.0
 50
270.0
 51
0.0
  0
LINE
  5
C966
  8
0
 10
553.2170621446744
 20
1099.115277284626
 30
0.0
 11
535.71706214467417
 21
1099.115277284626
 31
0.0
  0
LINE
  5
C967
  8
0
 10
340.7170621446744
 20
1107.375633284626
 30
0.0
 11
349.2170621446744
 21
1107.375633284626
 31
0.0
  0
ARC
  5
C968
  8
0
 10
549.89526114467435
 20
933.37563328462625
 30
0.0
 40
2.0
 50
90.0
 51
169.99999999999491
  0
ARC
  5
C969
  8
0
 10
485.9597041446745
 20
928.38197628462603
 30
0.0
 40
1.9936590000000001
 50
90.075931000003507
 51
178.1702539999921
  0
LINE
  5
C96A
  8
0
 10
485.95706214467413
 20
930.37563328462636
 30
0.0
 11
545.65722814467415
 21
930.37563328462636
 31
0.0
  0
LINE
  5
C96B
  8
0
 10
483.7170621446744
 20
921.37563328462636
 30
0.0
 11
484.33309114467409
 21
938.97495328462628
 31
0.0
  0
LINE
  5
C96C
  8
0
 10
547.92564614467437
 20
933.72292928462628
 30
0.0
 11
547.62684314467424
 21
932.02833728462633
 31
0.0
  0
ARC
  5
C96D
  8
0
 10
545.65722814467415
 20
932.37563328462625
 30
0.0
 40
2.0
 50
270.0
 51
349.99999999999488
  0
LINE
  5
C96E
  8
0
 10
349.79441214467442
 20
938.37563328462636
 30
0.0
 11
357.0112911446746
 21
925.87563328462636
 31
0.0
  0
LINE
  5
C96F
  8
0
 10
358.74334114467462
 20
924.87563328462636
 30
0.0
 11
406.6620331446743
 21
924.87563328462636
 31
0.0
  0
LINE
  5
C970
  8
0
 10
408.7170621446744
 20
921.37563328462636
 30
0.0
 11
408.66075014467418
 21
922.94724828462631
 31
0.0
  0
ARC
  5
C971
  8
0
 10
348.06236114467453
 20
937.37563328462636
 30
0.0
 40
2.0
 50
30.000000000000551
 51
90.0
  0
ARC
  5
C972
  8
0
 10
358.74334114467462
 20
926.87563328462636
 30
0.0
 40
2.0
 50
210.00000000000051
 51
270.0
  0
ARC
  5
C973
  8
0
 10
406.6620331446743
 20
922.87563328462625
 30
0.0
 40
2.0
 50
2.0520649999985339
 51
90.0
  0
LINE
  5
C974
  8
0
 10
408.7170621446744
 20
921.37563328462636
 30
0.0
 11
483.7170621446744
 21
921.37563328462636
 31
0.0
  0
LINE
  5
C975
  8
0
 10
357.74334114467462
 20
925.14358228462618
 30
0.0
 11
357.74334114467462
 21
938.97495328462628
 31
0.0
  0
LINE
  5
C976
  8
0
 10
544.18414614467429
 20
938.97495328462628
 30
0.0
 11
354.16070614467441
 21
938.97495328462628
 31
0.0
  0
LINE
  5
C977
  8
0
 10
543.96336014467443
 20
944.37699728462633
 30
0.0
 11
354.26991914467447
 21
944.37699728462633
 31
0.0
  0
LINE
  5
C978
  8
0
 10
548.21706214467417
 20
958.98339928462656
 30
0.0
 11
514.21706214467429
 21
958.98339928462656
 31
0.0
  0
LINE
  5
C979
  8
0
 10
548.21706214467417
 20
958.98339928462656
 30
0.0
 11
545.9329751446744
 21
946.02970028462619
 31
0.0
  0
ARC
  5
C97A
  8
0
 10
543.96336014467443
 20
946.37699728462633
 30
0.0
 40
2.0
 50
270.0
 51
349.99999999999488
  0
LINE
  5
C97B
  8
0
 10
548.21706214467417
 20
952.32921728462634
 30
0.0
 11
546.15376114467415
 21
940.62765728462637
 31
0.0
  0
ARC
  5
C97C
  8
0
 10
544.18414614467429
 20
940.97495328462617
 30
0.0
 40
2.0
 50
270.0
 51
349.99999999999488
  0
LINE
  5
C97D
  8
0
 10
352.95980014467432
 20
939.37563328462636
 30
0.0
 11
340.7170621446744
 21
939.37563328462636
 31
0.0
  0
LINE
  5
C97E
  8
0
 10
548.21706214467417
 20
940.22364728462674
 30
0.0
 11
546.7720081446746
 21
932.02833728462633
 31
0.0
  0
ARC
  5
C97F
  8
0
 10
544.80239214467417
 20
932.37563328462625
 30
0.0
 40
2.0
 50
270.0
 51
349.99999999999488
  0
LINE
  5
C980
  8
0
 10
483.2170621446744
 20
975.21563328462628
 30
0.0
 11
483.2170621446744
 21
972.51563328462635
 31
0.0
  0
LINE
  5
C981
  8
0
 10
553.2170621446744
 20
961.16599628462654
 30
0.0
 11
535.71706214467417
 21
961.16599628462654
 31
0.0
  0
LINE
  5
C982
  8
0
 10
553.2170621446744
 20
973.47363528462643
 30
0.0
 11
535.71706214467417
 21
973.47363528462643
 31
0.0
  0
LINE
  5
C983
  8
0
 10
553.2170621446744
 20
983.65292728462634
 30
0.0
 11
548.21706214467417
 21
983.65292728462634
 31
0.0
  0
LINE
  5
C984
  8
0
 10
533.7170621446744
 20
982.65292728462634
 30
0.0
 11
533.7170621446744
 21
963.16599628462643
 31
0.0
  0
ARC
  5
C985
  8
0
 10
532.7170621446744
 20
982.65292728462634
 30
0.0
 40
1.0
 50
0.0
 51
42.252324000004279
  0
ARC
  5
C986
  8
0
 10
535.71706214467417
 20
963.16599628462643
 30
0.0
 40
2.0
 50
180.0
 51
270.0
  0
LINE
  5
C987
  8
0
 10
498.21706214467417
 20
1080.3085912846259
 30
0.0
 11
498.21706214467417
 21
1074.4810282846261
 31
0.0
  0
LINE
  5
C988
  8
0
 10
514.21706214467429
 20
1080.3085912846259
 30
0.0
 11
514.21706214467429
 21
1074.4810282846261
 31
0.0
  0
LINE
  5
C989
  8
0
 10
498.21706214467417
 20
1071.3501152846261
 30
0.0
 11
498.21706214467417
 21
1063.425942284626
 31
0.0
  0
LINE
  5
C98A
  8
0
 10
498.21706214467417
 20
1060.3802362846261
 30
0.0
 11
498.21706214467417
 21
1052.3900682846261
 31
0.0
  0
LINE
  5
C98B
  8
0
 10
498.21706214467417
 20
1049.397441284626
 30
0.0
 11
498.21706214467417
 21
1041.3667402846261
 31
0.0
  0
LINE
  5
C98C
  8
0
 10
498.21706214467417
 20
1038.405261284626
 30
0.0
 11
498.21706214467417
 21
1031.353477284626
 31
0.0
  0
LINE
  5
C98D
  8
0
 10
498.21706214467417
 20
1028.5356332846261
 30
0.0
 11
498.21706214467417
 21
1018.345481284626
 31
0.0
  0
LINE
  5
C98E
  8
0
 10
514.21706214467429
 20
1028.5356332846261
 30
0.0
 11
514.21706214467429
 21
1018.345481284626
 31
0.0
  0
LINE
  5
C98F
  8
0
 10
514.21706214467429
 20
1038.405261284626
 30
0.0
 11
514.21706214467429
 21
1031.353477284626
 31
0.0
  0
LINE
  5
C990
  8
0
 10
514.21706214467429
 20
1049.397441284626
 30
0.0
 11
514.21706214467429
 21
1041.3667402846261
 31
0.0
  0
LINE
  5
C991
  8
0
 10
514.21706214467429
 20
1060.3802362846261
 30
0.0
 11
514.21706214467429
 21
1052.3900682846261
 31
0.0
  0
LINE
  5
C992
  8
0
 10
514.21706214467429
 20
1071.3501152846261
 30
0.0
 11
514.21706214467429
 21
1063.425942284626
 31
0.0
  0
LINE
  5
C993
  8
0
 10
498.21706214467417
 20
1015.397789284626
 30
0.0
 11
498.21706214467417
 21
1008.346005284626
 31
0.0
  0
LINE
  5
C994
  8
0
 10
514.21706214467429
 20
1015.397789284626
 30
0.0
 11
514.21706214467429
 21
1008.346005284626
 31
0.0
  0
LINE
  5
C995
  8
0
 10
514.21706214467429
 20
1005.384526284626
 30
0.0
 11
514.21706214467429
 21
997.35382528462662
 31
0.0
  0
LINE
  5
C996
  8
0
 10
498.21706214467417
 20
1005.384526284626
 30
0.0
 11
498.21706214467417
 21
997.35382528462662
 31
0.0
  0
LINE
  5
C997
  8
0
 10
498.21706214467417
 20
994.36119828462631
 30
0.0
 11
498.21706214467417
 21
986.37103028462661
 31
0.0
  0
LINE
  5
C998
  8
0
 10
514.21706214467429
 20
994.36119828462631
 30
0.0
 11
514.21706214467429
 21
986.37103028462661
 31
0.0
  0
LINE
  5
C999
  8
0
 10
528.7664571446744
 20
967.35483728462646
 30
0.0
 11
514.2170611446744
 21
967.35483728462646
 31
0.0
  0
LINE
  5
C99A
  8
0
 10
533.7170621446744
 20
978.76718728462617
 30
0.0
 11
514.2170611446744
 21
978.76718728462617
 31
0.0
  0
LINE
  5
C99B
  8
0
 10
498.21706214467417
 20
983.32532428462628
 30
0.0
 11
498.21706214467417
 21
963.32532428462628
 31
0.0
  0
LINE
  5
C99C
  8
0
 10
550.2170621446744
 20
1107.2392822846259
 30
0.0
 11
550.2170621446744
 21
1111.375633284626
 31
0.0
  0
LINE
  5
C99D
  8
0
 10
548.21706214467417
 20
937.17388928462628
 30
0.0
 11
547.30976214467455
 21
932.02833728462633
 31
0.0
  0
ARC
  5
C99E
  8
0
 10
545.34014714467457
 20
932.37563328462625
 30
0.0
 40
2.0
 50
270.0
 51
349.99999999999488
  0
LINE
  5
C99F
  8
0
 10
514.21706214467429
 20
983.32532428462628
 30
0.0
 11
514.21706214467429
 21
978.76718728462617
 31
0.0
  0
LINE
  5
C9A0
  8
0
 10
550.2170621446744
 20
983.65292728462634
 30
0.0
 11
550.2170621446744
 21
1085.4415952846259
 31
0.0
  0
LINE
  5
C9A1
  8
0
 10
349.2170621446744
 20
963.51563328462623
 30
0.0
 11
352.30030414467461
 21
946.02970028462619
 31
0.0
  0
ARC
  5
C9A2
  8
0
 10
354.26991914467447
 20
946.37699728462633
 30
0.0
 40
2.0
 50
190.000000000005
 51
270.0
  0
LINE
  5
C9A3
  8
0
 10
498.92245914467412
 20
972.06992728462615
 30
0.0
 11
514.21706214467429
 21
967.35483728462646
 31
0.0
  0
LINE
  5
C9A4
  8
0
 10
514.21706214467429
 20
978.76718728462617
 30
0.0
 11
499.18112114467431
 21
978.22643628462617
 31
0.0
  0
LINE
  5
C9A5
  8
0
 10
514.21706214467429
 20
967.35483728462646
 30
0.0
 11
514.21706214467429
 21
958.98339928462656
 31
0.0
  0
ARC
  5
C9A6
  8
0
 10
499.2170621446744
 20
977.22708228462636
 30
0.0
 40
1.0
 50
92.059690999990565
 51
180.0
  0
ARC
  5
C9A7
  8
0
 10
499.2170621446744
 20
973.02554728462633
 30
0.0
 40
1.0
 50
180.0
 51
252.8662750000021
  0
LINE
  5
C9A8
  8
0
 10
514.21706214467429
 20
1099.2284202846261
 30
0.0
 11
498.91660314467418
 21
1094.408554284626
 31
0.0
  0
LINE
  5
C9A9
  8
0
 10
499.2656171446742
 20
1090.104873284627
 30
0.0
 11
514.21706214467429
 21
1090.831693284626
 31
0.0
  0
ARC
  5
C9AA
  8
0
 10
499.2170621446744
 20
1093.4547592846261
 30
0.0
 40
1.0
 50
107.4851790000144
 51
180.0
  0
ARC
  5
C9AB
  8
0
 10
499.2170621446744
 20
1091.103694284626
 30
0.0
 40
1.0
 50
180.0
 51
270.0
  0
ARC
  5
C9AC
  8
0
  6
CONTINUOUS
 10
530.91686114467416
 20
968.81697228462633
 30
0.0
 40
2.6003989999999999
 50
179.99998200000081
 51
269.99997800000818
  0
ARC
  5
C9AD
  8
0
  6
CONTINUOUS
 10
530.91686114467416
 20
974.1169602846262
 30
0.0
 40
2.600403
 50
90.0
 51
179.99998200000081
  0
LINE
  5
C9AE
  8
0
  6
CONTINUOUS
 10
533.7170621446744
 20
971.53299128462629
 30
0.0
 11
532.21706214467406
 21
970.6669662846266
 31
0.0
  0
LINE
  5
C9AF
  8
0
  6
CONTINUOUS
 10
533.7170621446744
 20
972.53299128462618
 30
0.0
 11
532.21706214467406
 21
971.6669662846266
 31
0.0
  0
LINE
  5
C9B0
  8
0
  6
CONTINUOUS
 10
533.7170621446744
 20
977.56696628462635
 30
0.0
 11
533.7170621446744
 21
965.3669662846263
 31
0.0
  0
LINE
  5
C9B1
  8
0
  6
CONTINUOUS
 10
532.21706214467406
 20
977.56696628462635
 30
0.0
 11
533.7170621446744
 21
977.56696628462635
 31
0.0
  0
LINE
  5
C9B2
  8
0
  6
CONTINUOUS
 10
532.21706214467406
 20
965.3669662846263
 30
0.0
 11
533.7170621446744
 21
965.3669662846263
 31
0.0
  0
LINE
  5
C9B3
  8
0
  6
CONTINUOUS
 10
528.31706814467452
 20
974.1169602846262
 30
0.0
 11
528.31706814467452
 21
968.81697228462633
 31
0.0
  0
LINE
  5
C9B4
  8
0
  6
CONTINUOUS
 10
532.21706214467406
 20
977.56696628462635
 30
0.0
 11
532.21706214467406
 21
965.3669662846263
 31
0.0
  0
LINE
  5
C9B5
  8
0
  6
CONTINUOUS
 10
532.21706214467406
 20
966.21696628462632
 30
0.0
 11
530.91686114467416
 21
966.21696628462632
 31
0.0
  0
LINE
  5
C9B6
  8
0
  6
CONTINUOUS
 10
532.21706214467406
 20
976.71696628462644
 30
0.0
 11
530.91686114467416
 21
976.71696628462644
 31
0.0
  0
LINE
  5
C9B7
  8
0
 10
548.21706214467417
 20
1083.5529012846259
 30
0.0
 11
349.2170621446744
 21
1083.5529012846259
 31
0.0
  0
LINE
  5
C9B8
  8
0
 10
548.21706214467417
 20
1080.3085912846259
 30
0.0
 11
349.2170621446744
 21
1080.3085912846259
 31
0.0
  0
LINE
  5
C9B9
  8
0
 10
548.21706214467417
 20
1074.4810282846261
 30
0.0
 11
349.2170621446744
 21
1074.4810282846261
 31
0.0
  0
LINE
  5
C9BA
  8
0
 10
548.21706214467417
 20
1071.3501152846261
 30
0.0
 11
349.2170621446744
 21
1071.3501152846261
 31
0.0
  0
LINE
  5
C9BB
  8
0
 10
548.21706214467417
 20
1063.425942284626
 30
0.0
 11
349.2170621446744
 21
1063.425942284626
 31
0.0
  0
LINE
  5
C9BC
  8
0
 10
548.21706214467417
 20
1060.3802362846261
 30
0.0
 11
349.2170621446744
 21
1060.3802362846261
 31
0.0
  0
LINE
  5
C9BD
  8
0
 10
548.21706214467417
 20
1052.3900682846261
 30
0.0
 11
349.2170621446744
 21
1052.3900682846261
 31
0.0
  0
LINE
  5
C9BE
  8
0
 10
548.21706214467417
 20
1049.397441284626
 30
0.0
 11
349.2170621446744
 21
1049.397441284626
 31
0.0
  0
LINE
  5
C9BF
  8
0
 10
548.21706214467417
 20
1041.3667402846261
 30
0.0
 11
349.2170621446744
 21
1041.3667402846261
 31
0.0
  0
LINE
  5
C9C0
  8
0
 10
548.21706214467417
 20
1038.405261284626
 30
0.0
 11
349.2170621446744
 21
1038.405261284626
 31
0.0
  0
LINE
  5
C9C1
  8
0
 10
548.21706214467417
 20
1031.353477284626
 30
0.0
 11
453.79030514467411
 21
1031.353477284626
 31
0.0
  0
LINE
  5
C9C2
  8
0
 10
548.21706214467417
 20
1028.4057852846261
 30
0.0
 11
460.60270914467418
 21
1028.4057852846261
 31
0.0
  0
LINE
  5
C9C3
  8
0
 10
546.13814114467459
 20
1082.875633284626
 30
0.0
 11
546.13814114467459
 21
1080.875633284626
 31
0.0
  0
LINE
  5
C9C4
  8
0
 10
351.29598314467461
 20
1080.875633284626
 30
0.0
 11
546.13814114467459
 21
1080.875633284626
 31
0.0
  0
LINE
  5
C9C5
  8
0
 10
351.29598314467461
 20
1082.875633284626
 30
0.0
 11
546.13814114467459
 21
1082.875633284626
 31
0.0
  0
LINE
  5
C9C6
  8
0
 10
351.29598314467461
 20
1071.875633284626
 30
0.0
 11
546.13814114467459
 21
1071.875633284626
 31
0.0
  0
LINE
  5
C9C7
  8
0
 10
351.29598314467461
 20
1073.875633284626
 30
0.0
 11
546.13814114467459
 21
1073.875633284626
 31
0.0
  0
LINE
  5
C9C8
  8
0
 10
351.29598314467461
 20
1060.875633284626
 30
0.0
 11
546.13814114467459
 21
1060.875633284626
 31
0.0
  0
LINE
  5
C9C9
  8
0
 10
351.29598314467461
 20
1062.875633284626
 30
0.0
 11
546.13814114467459
 21
1062.875633284626
 31
0.0
  0
LINE
  5
C9CA
  8
0
 10
351.29598314467461
 20
1049.875633284626
 30
0.0
 11
546.13814114467459
 21
1049.875633284626
 31
0.0
  0
LINE
  5
C9CB
  8
0
 10
351.29598314467461
 20
1051.875633284626
 30
0.0
 11
546.13814114467459
 21
1051.875633284626
 31
0.0
  0
LINE
  5
C9CC
  8
0
 10
351.29598314467461
 20
1038.875633284626
 30
0.0
 11
546.13814114467459
 21
1038.875633284626
 31
0.0
  0
LINE
  5
C9CD
  8
0
 10
351.29598314467461
 20
1040.875633284626
 30
0.0
 11
546.13814114467459
 21
1040.875633284626
 31
0.0
  0
LINE
  5
C9CE
  8
0
 10
459.99203914467432
 20
1028.875633284626
 30
0.0
 11
546.13814114467459
 21
1028.875633284626
 31
0.0
  0
LINE
  5
C9CF
  8
0
 10
454.26380014467441
 20
1030.875633284626
 30
0.0
 11
546.13814114467459
 21
1030.875633284626
 31
0.0
  0
LINE
  5
C9D0
  8
0
 10
546.13814114467459
 20
1082.875633284626
 30
0.0
 11
548.21706214467417
 21
1083.5529012846259
 31
0.0
  0
LINE
  5
C9D1
  8
0
 10
546.13814114467459
 20
1080.875633284626
 30
0.0
 11
548.21706214467417
 21
1080.3085912846259
 31
0.0
  0
LINE
  5
C9D2
  8
0
 10
546.13814114467459
 20
1073.875633284626
 30
0.0
 11
548.21706214467417
 21
1074.4810282846261
 31
0.0
  0
LINE
  5
C9D3
  8
0
 10
546.13814114467459
 20
1071.875633284626
 30
0.0
 11
548.21706214467417
 21
1071.3501152846261
 31
0.0
  0
LINE
  5
C9D4
  8
0
 10
546.13814114467459
 20
1062.875633284626
 30
0.0
 11
548.21706214467417
 21
1063.425942284626
 31
0.0
  0
LINE
  5
C9D5
  8
0
 10
546.13814114467459
 20
1060.875633284626
 30
0.0
 11
548.21706214467417
 21
1060.3802362846261
 31
0.0
  0
LINE
  5
C9D6
  8
0
 10
546.13814114467459
 20
1051.875633284626
 30
0.0
 11
548.21706214467417
 21
1052.3900682846261
 31
0.0
  0
LINE
  5
C9D7
  8
0
 10
546.13814114467459
 20
1049.875633284626
 30
0.0
 11
548.21706214467417
 21
1049.397441284626
 31
0.0
  0
LINE
  5
C9D8
  8
0
 10
546.13814114467459
 20
1040.875633284626
 30
0.0
 11
548.21706214467417
 21
1041.3667402846261
 31
0.0
  0
LINE
  5
C9D9
  8
0
 10
546.13814114467459
 20
1038.875633284626
 30
0.0
 11
548.21706214467417
 21
1038.405261284626
 31
0.0
  0
LINE
  5
C9DA
  8
0
 10
546.13814114467459
 20
1030.875633284626
 30
0.0
 11
548.21706214467417
 21
1031.353477284626
 31
0.0
  0
LINE
  5
C9DB
  8
0
 10
546.13814114467459
 20
1028.875633284626
 30
0.0
 11
548.21706214467417
 21
1028.4057852846261
 31
0.0
  0
LINE
  5
C9DC
  8
0
 10
546.13814114467459
 20
1073.875633284626
 30
0.0
 11
546.13814114467459
 21
1071.875633284626
 31
0.0
  0
LINE
  5
C9DD
  8
0
 10
546.13814114467459
 20
1062.875633284626
 30
0.0
 11
546.13814114467459
 21
1060.875633284626
 31
0.0
  0
LINE
  5
C9DE
  8
0
 10
546.13814114467459
 20
1051.875633284626
 30
0.0
 11
546.13814114467459
 21
1049.875633284626
 31
0.0
  0
LINE
  5
C9DF
  8
0
 10
546.13814114467459
 20
1040.875633284626
 30
0.0
 11
546.13814114467459
 21
1038.875633284626
 31
0.0
  0
LINE
  5
C9E0
  8
0
 10
546.13814114467459
 20
1030.875633284626
 30
0.0
 11
546.13814114467459
 21
1028.875633284626
 31
0.0
  0
ARC
  5
C9E1
  8
0
 10
459.99203914467432
 20
1025.875633284626
 30
0.0
 40
3.0
 50
90.0
 51
190.28656100000819
  0
ARC
  5
C9E2
  8
0
 10
460.60270914467418
 20
1024.935785284626
 30
0.0
 40
3.4700000000000002
 50
90.0
 51
186.1896490000004
  0
LINE
  5
C9E3
  8
0
 10
366.29598314467472
 20
1030.875633284626
 30
0.0
 11
366.29598314467472
 21
1028.875633284626
 31
0.0
  0
LINE
  5
C9E4
  8
0
 10
351.29598314467461
 20
1040.875633284626
 30
0.0
 11
351.29598314467461
 21
1038.875633284626
 31
0.0
  0
LINE
  5
C9E5
  8
0
 10
351.29598314467461
 20
1051.875633284626
 30
0.0
 11
351.29598314467461
 21
1049.875633284626
 31
0.0
  0
LINE
  5
C9E6
  8
0
 10
351.29598314467461
 20
1062.875633284626
 30
0.0
 11
351.29598314467461
 21
1060.875633284626
 31
0.0
  0
LINE
  5
C9E7
  8
0
 10
351.29598314467461
 20
1073.875633284626
 30
0.0
 11
351.29598314467461
 21
1071.875633284626
 31
0.0
  0
LINE
  5
C9E8
  8
0
 10
366.29598314467472
 20
1028.875633284626
 30
0.0
 11
364.2170621446744
 21
1028.4057852846261
 31
0.0
  0
LINE
  5
C9E9
  8
0
 10
366.29598314467472
 20
1030.875633284626
 30
0.0
 11
364.2170621446744
 21
1031.353477284626
 31
0.0
  0
LINE
  5
C9EA
  8
0
 10
351.29598314467461
 20
1038.875633284626
 30
0.0
 11
349.2170621446744
 21
1038.405261284626
 31
0.0
  0
LINE
  5
C9EB
  8
0
 10
351.29598314467461
 20
1040.875633284626
 30
0.0
 11
349.2170621446744
 21
1041.3667402846261
 31
0.0
  0
LINE
  5
C9EC
  8
0
 10
351.29598314467461
 20
1049.875633284626
 30
0.0
 11
349.2170621446744
 21
1049.397441284626
 31
0.0
  0
LINE
  5
C9ED
  8
0
 10
351.29598314467461
 20
1051.875633284626
 30
0.0
 11
349.2170621446744
 21
1052.3900682846261
 31
0.0
  0
LINE
  5
C9EE
  8
0
 10
351.29598314467461
 20
1060.875633284626
 30
0.0
 11
349.2170621446744
 21
1060.3802362846261
 31
0.0
  0
LINE
  5
C9EF
  8
0
 10
351.29598314467461
 20
1062.875633284626
 30
0.0
 11
349.2170621446744
 21
1063.425942284626
 31
0.0
  0
LINE
  5
C9F0
  8
0
 10
351.29598314467461
 20
1071.875633284626
 30
0.0
 11
349.2170621446744
 21
1071.3501152846261
 31
0.0
  0
LINE
  5
C9F1
  8
0
 10
351.29598314467461
 20
1073.875633284626
 30
0.0
 11
349.2170621446744
 21
1074.4810282846261
 31
0.0
  0
LINE
  5
C9F2
  8
0
 10
351.29598314467461
 20
1080.875633284626
 30
0.0
 11
349.2170621446744
 21
1080.3085912846259
 31
0.0
  0
LINE
  5
C9F3
  8
0
 10
351.29598314467461
 20
1082.875633284626
 30
0.0
 11
349.2170621446744
 21
1083.5529012846259
 31
0.0
  0
LINE
  5
C9F4
  8
0
 10
351.29598314467461
 20
1082.875633284626
 30
0.0
 11
351.29598314467461
 21
1080.875633284626
 31
0.0
  0
LINE
  5
C9F5
  8
0
 10
349.2170621446744
 20
1080.3085912846259
 30
0.0
 11
349.2170621446744
 21
1083.5529012846259
 31
0.0
  0
LINE
  5
C9F6
  8
0
 10
349.2170621446744
 20
1071.3501152846261
 30
0.0
 11
349.2170621446744
 21
1074.4810282846261
 31
0.0
  0
LINE
  5
C9F7
  8
0
 10
349.2170621446744
 20
1060.3802362846261
 30
0.0
 11
349.2170621446744
 21
1063.425942284626
 31
0.0
  0
LINE
  5
C9F8
  8
0
 10
349.2170621446744
 20
1049.397441284626
 30
0.0
 11
349.2170621446744
 21
1052.3900682846261
 31
0.0
  0
LINE
  5
C9F9
  8
0
 10
349.2170621446744
 20
1038.405261284626
 30
0.0
 11
349.2170621446744
 21
1041.3667402846261
 31
0.0
  0
LINE
  5
C9FA
  8
0
 10
364.2170621446744
 20
1028.4057852846261
 30
0.0
 11
364.2170621446744
 21
1031.353477284626
 31
0.0
  0
LINE
  5
C9FB
  8
0
 10
364.2170621446744
 20
1031.353477284626
 30
0.0
 11
438.64381914467452
 21
1031.353477284626
 31
0.0
  0
LINE
  5
C9FC
  8
0
 10
364.2170621446744
 20
1028.4057852846261
 30
0.0
 11
431.83141514467428
 21
1028.4057852846261
 31
0.0
  0
LINE
  5
C9FD
  8
0
 10
432.44208514467442
 20
1028.875633284626
 30
0.0
 11
366.29598314467472
 21
1028.875633284626
 31
0.0
  0
LINE
  5
C9FE
  8
0
 10
438.1703241446744
 20
1030.875633284626
 30
0.0
 11
366.29598314467472
 21
1030.875633284626
 31
0.0
  0
ARC
  5
C9FF
  8
0
 10
432.44208514467442
 20
1025.875633284626
 30
0.0
 40
3.0
 50
349.71343899999181
 51
90.0
  0
ARC
  5
CA00
  8
0
 10
431.83141514467428
 20
1024.935785284626
 30
0.0
 40
3.4700000000000002
 50
353.81035099999951
 51
90.0
  0
LINE
  5
CA01
  8
0
 10
548.21706214467417
 20
983.32532428462628
 30
0.0
 11
349.2170621446744
 21
983.32532428462628
 31
0.0
  0
LINE
  5
CA02
  8
0
 10
548.21706214467417
 20
986.37103028462661
 30
0.0
 11
349.2170621446744
 21
986.37103028462661
 31
0.0
  0
LINE
  5
CA03
  8
0
 10
548.21706214467417
 20
994.36119828462631
 30
0.0
 11
349.2170621446744
 21
994.36119828462631
 31
0.0
  0
LINE
  5
CA04
  8
0
 10
548.21706214467417
 20
997.35382528462662
 30
0.0
 11
349.2170621446744
 21
997.35382528462662
 31
0.0
  0
LINE
  5
CA05
  8
0
 10
548.21706214467417
 20
1005.384526284626
 30
0.0
 11
349.2170621446744
 21
1005.384526284626
 31
0.0
  0
LINE
  5
CA06
  8
0
 10
548.21706214467417
 20
1008.346005284626
 30
0.0
 11
349.2170621446744
 21
1008.346005284626
 31
0.0
  0
LINE
  5
CA07
  8
0
 10
351.29598314467461
 20
985.87563328462625
 30
0.0
 11
546.13814114467459
 21
985.87563328462625
 31
0.0
  0
LINE
  5
CA08
  8
0
 10
351.29598314467461
 20
983.87563328462636
 30
0.0
 11
546.13814114467459
 21
983.87563328462636
 31
0.0
  0
LINE
  5
CA09
  8
0
 10
351.29598314467461
 20
996.87563328462625
 30
0.0
 11
546.13814114467459
 21
996.87563328462625
 31
0.0
  0
LINE
  5
CA0A
  8
0
 10
351.29598314467461
 20
994.87563328462625
 30
0.0
 11
546.13814114467459
 21
994.87563328462625
 31
0.0
  0
LINE
  5
CA0B
  8
0
 10
351.29598314467461
 20
1007.875633284626
 30
0.0
 11
546.13814114467459
 21
1007.875633284626
 31
0.0
  0
LINE
  5
CA0C
  8
0
 10
351.29598314467461
 20
1005.875633284626
 30
0.0
 11
546.13814114467459
 21
1005.875633284626
 31
0.0
  0
LINE
  5
CA0D
  8
0
 10
364.2170621446744
 20
1015.397789284626
 30
0.0
 11
438.64381914467452
 21
1015.397789284626
 31
0.0
  0
LINE
  5
CA0E
  8
0
 10
364.2170621446744
 20
1018.345481284626
 30
0.0
 11
431.83141514467428
 21
1018.345481284626
 31
0.0
  0
LINE
  5
CA0F
  8
0
 10
432.44208514467442
 20
1017.875633284626
 30
0.0
 11
366.29598314467472
 21
1017.875633284626
 31
0.0
  0
LINE
  5
CA10
  8
0
 10
438.1703241446744
 20
1015.875633284626
 30
0.0
 11
366.29598314467472
 21
1015.875633284626
 31
0.0
  0
LINE
  5
CA11
  8
0
 10
364.2170621446744
 20
1018.345481284626
 30
0.0
 11
364.2170621446744
 21
1015.397789284626
 31
0.0
  0
LINE
  5
CA12
  8
0
 10
349.2170621446744
 20
1008.346005284626
 30
0.0
 11
349.2170621446744
 21
1005.384526284626
 31
0.0
  0
LINE
  5
CA13
  8
0
 10
349.2170621446744
 20
997.35382528462662
 30
0.0
 11
349.2170621446744
 21
994.36119828462631
 31
0.0
  0
LINE
  5
CA14
  8
0
 10
349.2170621446744
 20
986.37103028462661
 30
0.0
 11
349.2170621446744
 21
983.32532428462628
 31
0.0
  0
LINE
  5
CA15
  8
0
 10
351.29598314467461
 20
983.87563328462636
 30
0.0
 11
349.2170621446744
 21
983.32532428462628
 31
0.0
  0
LINE
  5
CA16
  8
0
 10
351.29598314467461
 20
985.87563328462625
 30
0.0
 11
349.2170621446744
 21
986.37103028462661
 31
0.0
  0
LINE
  5
CA17
  8
0
 10
351.29598314467461
 20
994.87563328462625
 30
0.0
 11
349.2170621446744
 21
994.36119828462631
 31
0.0
  0
LINE
  5
CA18
  8
0
 10
351.29598314467461
 20
996.87563328462625
 30
0.0
 11
349.2170621446744
 21
997.35382528462662
 31
0.0
  0
LINE
  5
CA19
  8
0
 10
351.29598314467461
 20
1005.875633284626
 30
0.0
 11
349.2170621446744
 21
1005.384526284626
 31
0.0
  0
LINE
  5
CA1A
  8
0
 10
351.29598314467461
 20
1007.875633284626
 30
0.0
 11
349.2170621446744
 21
1008.346005284626
 31
0.0
  0
LINE
  5
CA1B
  8
0
 10
366.29598314467472
 20
1015.875633284626
 30
0.0
 11
364.2170621446744
 21
1015.397789284626
 31
0.0
  0
LINE
  5
CA1C
  8
0
 10
366.29598314467472
 20
1017.875633284626
 30
0.0
 11
364.2170621446744
 21
1018.345481284626
 31
0.0
  0
LINE
  5
CA1D
  8
0
 10
351.29598314467461
 20
983.87563328462636
 30
0.0
 11
351.29598314467461
 21
985.87563328462625
 31
0.0
  0
LINE
  5
CA1E
  8
0
 10
351.29598314467461
 20
994.87563328462625
 30
0.0
 11
351.29598314467461
 21
996.87563328462625
 31
0.0
  0
LINE
  5
CA1F
  8
0
 10
351.29598314467461
 20
1005.875633284626
 30
0.0
 11
351.29598314467461
 21
1007.875633284626
 31
0.0
  0
LINE
  5
CA20
  8
0
 10
366.29598314467472
 20
1015.875633284626
 30
0.0
 11
366.29598314467472
 21
1017.875633284626
 31
0.0
  0
ARC
  5
CA21
  8
0
 10
432.44208514467442
 20
1020.875633284626
 30
0.0
 40
3.0
 50
270.0
 51
10.28656100000822
  0
ARC
  5
CA22
  8
0
 10
431.83141514467428
 20
1021.815481284626
 30
0.0
 40
3.4700000000000002
 50
270.0
 51
6.1896490000005366
  0
LINE
  5
CA23
  8
0
 10
548.21706214467417
 20
1015.397789284626
 30
0.0
 11
453.79030514467411
 21
1015.397789284626
 31
0.0
  0
LINE
  5
CA24
  8
0
 10
548.21706214467417
 20
1018.345481284626
 30
0.0
 11
460.60270914467418
 21
1018.345481284626
 31
0.0
  0
LINE
  5
CA25
  8
0
 10
459.99203914467432
 20
1017.875633284626
 30
0.0
 11
546.13814114467459
 21
1017.875633284626
 31
0.0
  0
LINE
  5
CA26
  8
0
 10
454.26380014467441
 20
1015.875633284626
 30
0.0
 11
546.13814114467459
 21
1015.875633284626
 31
0.0
  0
ARC
  5
CA27
  8
0
 10
459.99203914467432
 20
1020.875633284626
 30
0.0
 40
3.0
 50
169.71343899999181
 51
270.0
  0
ARC
  5
CA28
  8
0
 10
460.60270914467418
 20
1021.815481284626
 30
0.0
 40
3.4700000000000002
 50
173.8103509999994
 51
270.0
  0
LINE
  5
CA29
  8
0
 10
546.13814114467459
 20
1015.875633284626
 30
0.0
 11
546.13814114467459
 21
1017.875633284626
 31
0.0
  0
LINE
  5
CA2A
  8
0
 10
546.13814114467459
 20
1005.875633284626
 30
0.0
 11
546.13814114467459
 21
1007.875633284626
 31
0.0
  0
LINE
  5
CA2B
  8
0
 10
546.13814114467459
 20
994.87563328462625
 30
0.0
 11
546.13814114467459
 21
996.87563328462625
 31
0.0
  0
LINE
  5
CA2C
  8
0
 10
546.13814114467459
 20
983.87563328462636
 30
0.0
 11
546.13814114467459
 21
985.87563328462625
 31
0.0
  0
LINE
  5
CA2D
  8
0
 10
546.13814114467459
 20
1017.875633284626
 30
0.0
 11
548.21706214467417
 21
1018.345481284626
 31
0.0
  0
LINE
  5
CA2E
  8
0
 10
546.13814114467459
 20
1015.875633284626
 30
0.0
 11
548.21706214467417
 21
1015.397789284626
 31
0.0
  0
LINE
  5
CA2F
  8
0
 10
546.13814114467459
 20
1007.875633284626
 30
0.0
 11
548.21706214467417
 21
1008.346005284626
 31
0.0
  0
LINE
  5
CA30
  8
0
 10
546.13814114467459
 20
1005.875633284626
 30
0.0
 11
548.21706214467417
 21
1005.384526284626
 31
0.0
  0
LINE
  5
CA31
  8
0
 10
546.13814114467459
 20
996.87563328462625
 30
0.0
 11
548.21706214467417
 21
997.35382528462662
 31
0.0
  0
LINE
  5
CA32
  8
0
 10
546.13814114467459
 20
994.87563328462625
 30
0.0
 11
548.21706214467417
 21
994.36119828462631
 31
0.0
  0
LINE
  5
CA33
  8
0
 10
546.13814114467459
 20
985.87563328462625
 30
0.0
 11
548.21706214467417
 21
986.37103028462661
 31
0.0
  0
LINE
  5
CA34
  8
0
 10
546.13814114467459
 20
983.87563328462636
 30
0.0
 11
548.21706214467417
 21
983.32532428462628
 31
0.0
  0
LINE
  5
CA35
  8
0
 10
548.21706214467417
 20
986.37103028462661
 30
0.0
 11
548.21706214467417
 21
983.32532428462628
 31
0.0
  0
LINE
  5
CA36
  8
0
 10
548.21706214467417
 20
997.35382528462662
 30
0.0
 11
548.21706214467417
 21
994.36119828462631
 31
0.0
  0
LINE
  5
CA37
  8
0
 10
548.21706214467417
 20
1008.346005284626
 30
0.0
 11
548.21706214467417
 21
1005.384526284626
 31
0.0
  0
LINE
  5
CA38
  8
0
 10
548.21706214467417
 20
1018.345481284626
 30
0.0
 11
548.21706214467417
 21
1015.397789284626
 31
0.0
  0
LINE
  5
CA39
  8
0
 10
481.13814114467408
 20
974.87563328462636
 30
0.0
 11
483.2170621446744
 21
975.37103028462673
 31
0.0
  0
LINE
  5
CA3A
  8
0
 10
483.2170621446744
 20
975.37103028462673
 30
0.0
 11
349.2170621446744
 21
975.37103028462673
 31
0.0
  0
LINE
  5
CA3B
  8
0
 10
351.29598314467461
 20
974.87563328462636
 30
0.0
 11
481.13814114467408
 21
974.87563328462636
 31
0.0
  0
LINE
  5
CA3C
  8
0
 10
481.13814114467408
 20
972.87563328462625
 30
0.0
 11
481.13814114467408
 21
974.87563328462636
 31
0.0
  0
LINE
  5
CA3D
  8
0
 10
483.2170621446744
 20
972.32532428462628
 30
0.0
 11
349.2170621446744
 21
972.32532428462628
 31
0.0
  0
LINE
  5
CA3E
  8
0
 10
351.29598314467461
 20
972.87563328462625
 30
0.0
 11
481.13814114467408
 21
972.87563328462625
 31
0.0
  0
LINE
  5
CA3F
  8
0
 10
481.13814114467408
 20
972.87563328462625
 30
0.0
 11
483.2170621446744
 21
972.32532428462628
 31
0.0
  0
LINE
  5
CA40
  8
0
 10
483.2170621446744
 20
966.37103028462673
 30
0.0
 11
349.2170621446744
 21
966.37103028462673
 31
0.0
  0
LINE
  5
CA41
  8
0
 10
351.29598314467461
 20
965.87563328462636
 30
0.0
 11
481.13814114467408
 21
965.87563328462636
 31
0.0
  0
LINE
  5
CA42
  8
0
 10
483.2170621446744
 20
963.32532428462628
 30
0.0
 11
349.2506191446742
 21
963.32532428462628
 31
0.0
  0
LINE
  5
CA43
  8
0
 10
351.29598314467461
 20
963.87563328462625
 30
0.0
 11
481.13814114467408
 21
963.87563328462625
 31
0.0
  0
LINE
  5
CA44
  8
0
 10
481.13814114467408
 20
963.87563328462625
 30
0.0
 11
483.2170621446744
 21
963.32532428462628
 31
0.0
  0
LINE
  5
CA45
  8
0
 10
483.2170621446744
 20
966.37103028462673
 30
0.0
 11
483.2170621446744
 21
963.32532428462628
 31
0.0
  0
LINE
  5
CA46
  8
0
 10
481.13814114467408
 20
963.87563328462625
 30
0.0
 11
481.13814114467408
 21
965.87563328462636
 31
0.0
  0
LINE
  5
CA47
  8
0
 10
481.13814114467408
 20
965.87563328462636
 30
0.0
 11
483.2170621446744
 21
966.37103028462673
 31
0.0
  0
LINE
  5
CA48
  8
0
 10
483.2170621446744
 20
963.32532428462628
 30
0.0
 11
498.21706214467417
 21
963.32532428462628
 31
0.0
  0
LINE
  5
CA49
  8
0
 10
498.21706214467417
 20
963.32532428462628
 30
0.0
 11
514.21706214467429
 21
958.98339928462656
 31
0.0
  0
LINE
  5
CA4A
  8
0
 10
349.2170621446744
 20
975.37103028462673
 30
0.0
 11
349.2170621446744
 21
972.32532428462628
 31
0.0
  0
LINE
  5
CA4B
  8
0
 10
349.2170621446744
 20
966.37103028462673
 30
0.0
 11
349.2170621446744
 21
963.32532428462628
 31
0.0
  0
LINE
  5
CA4C
  8
0
 10
351.29598314467461
 20
972.87563328462625
 30
0.0
 11
351.29598314467461
 21
974.87563328462636
 31
0.0
  0
LINE
  5
CA4D
  8
0
 10
351.29598314467461
 20
974.87563328462636
 30
0.0
 11
349.2170621446744
 21
975.37103028462673
 31
0.0
  0
LINE
  5
CA4E
  8
0
 10
351.29598314467461
 20
972.87563328462625
 30
0.0
 11
349.2170621446744
 21
972.32532428462628
 31
0.0
  0
LINE
  5
CA4F
  8
0
 10
351.29598314467461
 20
965.87563328462636
 30
0.0
 11
349.2170621446744
 21
966.37103028462673
 31
0.0
  0
LINE
  5
CA50
  8
0
 10
351.29598314467461
 20
963.87563328462625
 30
0.0
 11
351.29598314467461
 21
965.87563328462636
 31
0.0
  0
LINE
  5
CA51
  8
0
 10
351.29598314467461
 20
963.87563328462625
 30
0.0
 11
349.2170621446744
 21
963.32532428462628
 31
0.0
  0
LINE
  5
CA52
  8
0
 10
241.11709214467419
 20
1123.375633284626
 30
0.0
 11
318.7170621446744
 21
1123.375633284626
 31
0.0
  0
LINE
  5
CA53
  8
0
 10
241.11709214467419
 20
1129.375633284626
 30
0.0
 11
318.7170621446744
 21
1129.375633284626
 31
0.0
  0
LINE
  5
CA54
  8
0
 10
340.7170621446744
 20
1120.375633284626
 30
0.0
 11
237.2170621446744
 21
1120.375633284626
 31
0.0
  0
LINE
  5
CA55
  8
0
 10
329.7170621446744
 20
1123.375633284626
 30
0.0
 11
343.2170621446744
 21
1123.375633284626
 31
0.0
  0
ARC
  5
CA56
  8
0
 10
987.50404214467414
 20
1023.375633284626
 30
0.0
 40
764.28698999999995
 50
172.82194999999871
 51
187.17804000000049
  0
LINE
  5
CA57
  8
0
 10
233.86709214467419
 20
929.77559328462621
 30
0.0
 11
233.86709214467419
 21
1117.0655732846269
 31
0.0
  0
LINE
  5
CA58
  8
0
 10
228.2170621446744
 20
1085.8155732846269
 30
0.0
 11
228.2170621446744
 21
960.23561328462642
 31
0.0
  0
LINE
  5
CA59
  8
0
 10
226.2170621446744
 20
1085.8155732846269
 30
0.0
 11
226.2170621446744
 21
960.92555328462618
 31
0.0
  0
LINE
  5
CA5A
  8
0
 10
340.7170621446744
 20
926.37563328462625
 30
0.0
 11
237.2170621446744
 21
926.37563328462625
 31
0.0
  0
LINE
  5
CA5B
  8
0
 10
228.36703214467431
 20
957.5456132846266
 30
0.0
 11
233.27706214467429
 21
929.67561328462637
 31
0.0
  0
ARC
  5
CA5C
  8
0
 10
241.1188021446747
 20
929.37367328462619
 30
0.0
 40
5.9980479999999998
 50
207.05351000000039
 51
269.98324000000241
  0
ARC
  5
CA5D
  8
0
 10
241.11953214467439
 20
929.37172328462646
 30
0.0
 40
11.996128000000001
 50
187.16444000000149
 51
269.98822000000808
  0
ARC
  5
CA5E
  8
0
 10
227.37746214467421
 20
957.37868328462628
 30
0.0
 40
1.0035289999999999
 50
9.5734909999996063
 51
62.10181499998955
  0
ARC
  5
CA5F
  8
0
 10
229.21560214467451
 20
960.93361328462618
 30
0.0
 40
2.9985330000000001
 50
180.1533100000014
 51
242.84512999998921
  0
ARC
  5
CA60
  8
0
 10
237.21645214467441
 20
930.37697328462616
 30
0.0
 40
4.0014059999999976
 50
190.09553000000011
 51
270.00785000000678
  0
LINE
  5
CA61
  8
0
 10
228.36703214467431
 20
1089.195573284627
 30
0.0
 11
233.2770021446745
 21
1117.0655732846269
 31
0.0
  0
ARC
  5
CA62
  8
0
 10
237.2165821446747
 20
1116.3762432846261
 30
0.0
 40
3.9993959999999982
 50
89.993275000011238
 51
170.07406000000469
  0
ARC
  5
CA63
  8
0
 10
227.37771214467421
 20
1089.3747732846259
 30
0.0
 40
1.005431999999995
 50
297.82706000000729
 51
349.7352699999982
  0
ARC
  5
CA64
  8
0
 10
229.21426214467419
 20
1085.818383284626
 30
0.0
 40
2.997211999999998
 50
117.13965999999481
 51
180.05331000000339
  0
ARC
  5
CA65
  8
0
 10
241.1179421446746
 20
1117.3789232846259
 30
0.0
 40
5.9966319999999991
 50
90.008472000013285
 51
152.954760000004
  0
ARC
  5
CA66
  8
0
 10
241.1185521446746
 20
1117.3805732846261
 30
0.0
 40
11.995034
 50
90.007167000000024
 51
172.84015999999829
  0
LINE
  5
CA67
  8
0
 10
220.8270521446743
 20
1018.375633284626
 30
0.0
 11
220.8270521446743
 21
1028.375633284626
 31
0.0
  0
LINE
  5
CA68
  8
0
 10
223.2370821446743
 20
1028.375633284626
 30
0.0
 11
220.8270521446743
 21
1028.375633284626
 31
0.0
  0
LINE
  5
CA69
  8
0
 10
223.2370821446743
 20
1018.375633284626
 30
0.0
 11
220.8270521446743
 21
1018.375633284626
 31
0.0
  0
LINE
  5
CA6A
  8
0
 10
343.2170621446744
 20
1129.375633284626
 30
0.0
 11
343.2170621446744
 21
1123.375633284626
 31
0.0
  0
LINE
  5
CA6B
  8
0
 10
318.7170621446744
 20
1130.375633284626
 30
0.0
 11
318.7170621446744
 21
1120.375633284626
 31
0.0
  0
LINE
  5
CA6C
  8
0
 10
329.7170621446744
 20
1130.375633284626
 30
0.0
 11
329.7170621446744
 21
1120.375633284626
 31
0.0
  0
LINE
  5
CA6D
  8
0
 10
329.7170621446744
 20
1129.375633284626
 30
0.0
 11
343.2170621446744
 21
1129.375633284626
 31
0.0
  0
LINE
  5
CA6E
  8
0
 10
318.7170621446744
 20
1130.375633284626
 30
0.0
 11
329.7170621446744
 21
1130.375633284626
 31
0.0
  0
LINE
  5
CA6F
  8
0
 10
241.1170881446746
 20
923.37559228462635
 30
0.0
 11
318.71705814467441
 21
923.37558928462659
 31
0.0
  0
LINE
  5
CA70
  8
0
 10
241.1170881446746
 20
917.37559228462635
 30
0.0
 11
318.71705814467441
 21
917.37558928462659
 31
0.0
  0
LINE
  5
CA71
  8
0
 10
318.71705814467441
 20
916.37558928462659
 30
0.0
 11
318.71705814467441
 21
926.37558928462636
 31
0.0
  0
LINE
  5
CA72
  8
0
 10
318.71705814467441
 20
916.37558928462659
 30
0.0
 11
329.71705814467441
 21
916.37558928462659
 31
0.0
  0
LINE
  5
CA73
  8
0
 10
329.71705814467441
 20
916.37558928462659
 30
0.0
 11
329.71705814467441
 21
926.37558928462636
 31
0.0
  0
LINE
  5
CA74
  8
0
 10
329.71705814467441
 20
917.37558928462659
 30
0.0
 11
343.21705814467441
 21
917.37558928462659
 31
0.0
  0
LINE
  5
CA75
  8
0
 10
343.21705814467441
 20
917.37558928462659
 30
0.0
 11
343.21705814467441
 21
923.37558928462659
 31
0.0
  0
LINE
  5
CA76
  8
0
 10
329.71705814467441
 20
923.37558928462659
 30
0.0
 11
343.21705814467441
 21
923.37558928462659
 31
0.0
  0
LINE
  5
CA77
  8
0
 10
340.7170621446744
 20
1031.019404284626
 30
0.0
 11
352.2170621446744
 21
1031.019404284626
 31
0.0
  0
LINE
  5
CA78
  8
0
 10
340.7170621446744
 20
1031.3534822846259
 30
0.0
 11
352.89706214467418
 21
1031.3534822846259
 31
0.0
  0
LINE
  5
CA79
  8
0
 10
354.2170621446744
 20
1029.019404284626
 30
0.0
 11
354.2170621446744
 21
1023.375637284626
 31
0.0
  0
LINE
  5
CA7A
  8
0
 10
355.89706214467418
 20
1034.3534822846259
 30
0.0
 11
355.89706214467418
 21
1023.375637284626
 31
0.0
  0
ARC
  5
CA7B
  8
0
 10
352.89706214467418
 20
1034.3534822846259
 30
0.0
 40
3.0
 50
270.0
 51
0.0
  0
LINE
  5
CA7C
  8
0
 10
340.7170621446744
 20
1015.731869284626
 30
0.0
 11
352.2170621446744
 21
1015.731869284626
 31
0.0
  0
LINE
  5
CA7D
  8
0
 10
340.7170621446744
 20
1015.397792174977
 30
0.0
 11
352.89706214467418
 21
1015.397791284626
 31
0.0
  0
LINE
  5
CA7E
  8
0
 10
354.2170621446744
 20
1017.731869284626
 30
0.0
 11
354.2170621446744
 21
1023.375637284626
 31
0.0
  0
LINE
  5
CA7F
  8
0
 10
355.89706214467418
 20
1012.397791284626
 30
0.0
 11
355.89706214467418
 21
1023.375637284626
 31
0.0
  0
ARC
  5
CA80
  8
0
 10
352.89706214467418
 20
1012.397791284626
 30
0.0
 40
3.0
 50
359.99999799999722
 51
89.999998000010223
  0
LINE
  5
CA81
  8
0
 10
571.71700214467216
 20
669.15673282777072
 30
0.0
 11
553.21700214467489
 21
669.15673282777072
 31
0.0
  0
LINE
  5
CA82
  8
0
 10
571.71700214467216
 20
661.03272782777071
 30
0.0
 11
553.21700214467489
 21
661.03272782777071
 31
0.0
  0
LINE
  5
CA83
  8
0
 10
571.71700214467216
 20
647.35901682777069
 30
0.0
 11
553.21700214467489
 21
647.35901682777069
 31
0.0
  0
LINE
  5
CA84
  8
0
 10
571.71700214467216
 20
545.57037782777059
 30
0.0
 11
553.21700214467489
 21
545.57037782777059
 31
0.0
  0
LINE
  5
CA85
  8
0
 10
571.71700214467216
 20
535.39108582777089
 30
0.0
 11
553.21700214467489
 21
535.39108582777089
 31
0.0
  0
LINE
  5
CA86
  8
0
 10
571.71700214467216
 20
523.10380482777077
 30
0.0
 11
553.21700214467489
 21
523.10380482777077
 31
0.0
  0
LINE
  5
CD20
  8
AM_0
 10
794.71700214467421
 20
661.79308882777104
 30
0.0
 11
794.71700214467421
 21
657.79308882777104
 31
0.0
  0
LINE
  5
CD21
  8
AM_0
 10
794.71700214467421
 20
661.79308882777104
 30
0.0
 11
856.71700214467421
 21
661.79308882777104
 31
0.0
  0
LINE
  5
CD22
  8
AM_0
 10
774.71700214467421
 20
602.79308382777072
 30
0.0
 11
856.71700214467421
 21
602.79308382777072
 31
0.0
  0
LINE
  5
CD23
  8
AM_0
 10
856.71700214467421
 20
661.79308882777104
 30
0.0
 11
856.71700214467421
 21
602.79308382777072
 31
0.0
  0
LINE
  5
CD24
  8
AM_0
 10
774.71700214467421
 20
657.79308882777104
 30
0.0
 11
856.71700214467421
 21
657.79308882777104
 31
0.0
  0
LINE
  5
CD25
  8
AM_0
 10
774.71700214467421
 20
660.29308882777104
 30
0.0
 11
774.71700214467421
 21
600.2930838277706
 31
0.0
  0
LINE
  5
CD26
  8
AM_0
 10
771.71700214467421
 20
600.2930838277706
 30
0.0
 11
774.71700214467421
 21
600.2930838277706
 31
0.0
  0
LINE
  5
CD27
  8
AM_0
 10
771.71700214467421
 20
660.29308882777104
 30
0.0
 11
774.71700214467421
 21
660.29308882777104
 31
0.0
  0
LINE
  5
CD28
  8
AM_0
 10
729.51490214467378
 20
744.47242382777074
 30
0.0
 11
728.44400214467407
 21
756.02002382777073
 31
0.0
  0
LINE
  5
CD29
  8
AM_0
 10
733.36715214467461
 20
717.13472382777059
 30
0.0
 11
744.71705214467374
 21
725.4585238277707
 31
0.0
  0
LINE
  5
CD2A
  8
AM_0
 10
704.06660214467456
 20
727.657073827771
 30
0.0
 11
742.30580214467454
 21
750.79947382777073
 31
0.0
  0
LINE
  5
CD2B
  8
AM_0
 10
706.65540214467421
 20
716.16662382777065
 30
0.0
 11
730.41025214467425
 21
716.16662382777065
 31
0.0
  0
LINE
  5
CD2C
  8
AM_0
 10
706.6461021446745
 20
717.94352382777117
 30
0.0
 11
742.21525214467374
 21
739.4699738277709
 31
0.0
  0
LINE
  5
CD2D
  8
AM_0
 10
701.65540214467421
 20
723.37947382777065
 30
0.0
 11
701.65540214467421
 21
721.16662382777065
 31
0.0
  0
LINE
  5
CD2E
  8
AM_0
 10
744.04365214467396
 20
587.8049888277709
 30
0.0
 11
732.13985214467402
 21
716.16667382777064
 31
0.0
  0
LINE
  5
CD2F
  8
AM_0
 10
744.71700214467421
 20
538.01918882777079
 30
0.0
 11
744.71700214467421
 21
470.29308382777072
 31
0.0
  0
LINE
  5
CD30
  8
AM_0
 10
753.71700214467398
 20
754.64222382777098
 30
0.0
 11
753.71700214467398
 21
505.9439638277708
 31
0.0
  0
LINE
  5
CD31
  8
AM_0
 10
593.71700214467421
 20
536.96389382777079
 30
0.0
 11
744.71700214467421
 21
536.96389382777079
 31
0.0
  0
LINE
  5
CD32
  8
AM_0
 10
706.37970455983623
 20
434.47309225698262
 30
0.0
 11
758.71700214467421
 21
465.29308382777077
 31
0.0
  0
LINE
  5
CD33
  8
AM_0
 10
771.71700214467421
 20
770.29312382777084
 30
0.0
 11
771.71700214467421
 21
490.29308382777077
 31
0.0
  0
LINE
  5
CD34
  8
AM_0
 10
766.71700214467421
 20
770.29312382777084
 30
0.0
 11
771.71700214467421
 21
770.29312382777084
 31
0.0
  0
LINE
  5
CD35
  8
AM_0
 10
766.71700214467421
 20
490.29308382777077
 30
0.0
 11
771.71700214467421
 21
490.29308382777077
 31
0.0
  0
LINE
  5
CD36
  8
AM_0
 10
766.71700214467421
 20
795.29312382777084
 30
0.0
 11
766.71700214467421
 21
465.29308382777077
 31
0.0
  0
LINE
  5
CD37
  8
AM_0
 10
744.71700214467421
 20
789.69637382777057
 30
0.0
 11
744.71700214467421
 21
596.02971882777069
 31
0.0
  0
LINE
  5
CD38
  8
AM_0
 10
666.71700214467421
 20
485.89415882777081
 30
0.0
 11
744.71700214467421
 21
485.89415882777081
 31
0.0
  0
LINE
  5
CD39
  8
AM_0
 10
666.71700214467421
 20
510.53899382777081
 30
0.0
 11
744.71700214467421
 21
510.53899382777081
 31
0.0
  0
LINE
  5
CD3A
  8
AM_0
 10
621.71695214467445
 20
752.29312382777118
 30
0.0
 11
723.49835214467441
 21
754.95832382777064
 31
0.0
  0
LINE
  5
CD3B
  8
AM_0
 10
749.71700214467398
 20
465.29308382777077
 30
0.0
 11
766.71700214467421
 21
465.29308382777077
 31
0.0
  0
LINE
  5
CD3C
  8
AM_0
 10
749.54250214467402
 20
794.69332382777088
 30
0.0
 11
766.71700214467421
 21
795.29307382777074
 31
0.0
  0
LINE
  5
CD3D
  8
AM_0
 10
730.30775214467451
 20
757.8838238277707
 30
0.0
 11
744.71700214467421
 21
772.29307382777085
 31
0.0
  0
LINE
  5
CD3E
  8
AM_0
 10
621.71700214466819
 20
437.29308382777111
 30
0.0
 11
706.37970455983623
 21
434.47309225698262
 31
0.0
  0
LINE
  5
CD3F
  8
AM_0
 10
661.7170021446741
 20
505.53899382777081
 30
0.0
 11
661.7170021446741
 21
490.89412882777083
 31
0.0
  0
LINE
  5
CD40
  8
AM_0
 10
591.71700214467421
 20
638.75948882777072
 30
0.0
 11
739.31830214467448
 21
638.75948882777072
 31
0.0
  0
ARC
  5
CD41
  8
AM_0
 10
739.71700214467421
 20
755.07717382777071
 30
0.0
 40
5.0
 50
301.18236000000519
 51
0.0
  0
ARC
  5
CD42
  8
AM_0
 10
706.65540214467421
 20
723.37947382777065
 30
0.0
 40
5.0
 50
121.1823600000052
 51
180.000010000001
  0
ARC
  5
CD43
  8
AM_0
 10
706.65540214467421
 20
721.16662382777065
 30
0.0
 40
5.0
 50
179.999989999999
 51
270.0
  0
ARC
  5
CD44
  8
AM_0
 10
730.41025214467425
 20
721.16662382777065
 30
0.0
 40
5.0
 50
270.0
 51
306.25555000000281
  0
ARC
  5
CD45
  8
AM_0
 10
723.23665214467439
 20
764.95487382777071
 30
0.0
 40
10.0
 50
271.4999999999896
 51
315.00000000000921
  0
ARC
  5
CD46
  8
AM_0
 10
752.00940214467448
 20
588.54372882777102
 30
0.0
 40
8.0
 50
185.2982400000015
 51
270.0
  0
ARC
  5
CD47
  8
AM_0
 10
745.71700214467421
 20
754.64222382777098
 30
0.0
 40
8.0
 50
0.0
 51
90.000002999984659
  0
ARC
  5
CD48
  8
AM_0
 10
745.71700214467421
 20
696.62972882777103
 30
0.0
 40
8.0
 50
0.0
 51
90.000002999984659
  0
ARC
  5
CD49
  8
AM_0
 10
745.71700214467421
 20
505.9439638277708
 30
0.0
 40
8.0
 50
270.0
 51
0.0
  0
ARC
  5
CD4A
  8
AM_0
 10
745.71700214467421
 20
545.95644382777084
 30
0.0
 40
8.0
 50
270.0
 51
0.0
  0
ARC
  5
CD4B
  8
AM_0
 10
666.71700214467421
 20
505.53899382777081
 30
0.0
 40
5.0
 50
90.000002999984659
 51
180.000010000001
  0
ARC
  5
CD4C
  8
AM_0
 10
749.71700214467398
 20
470.29308382777072
 30
0.0
 40
5.0
 50
179.999989999999
 51
270.0
  0
ARC
  5
CD4D
  8
AM_0
 10
749.71700214467398
 20
789.69637382777057
 30
0.0
 40
5.0
 50
91.999997999994051
 51
180.000010000001
  0
ARC
  5
CD4E
  8
AM_0
 10
666.71700214467421
 20
490.89412882777083
 30
0.0
 40
5.0
 50
179.999989999999
 51
270.0
  0
LINE
  5
CD5A
  8
AM_0
 10
590.30815214467418
 20
452.98145382777102
 30
0.0
 11
574.53485214467423
 21
469.26262882777092
 31
0.0
  0
ARC
  5
CD5B
  8
AM_0
 10
581.7170021446741
 20
476.22081882777093
 30
0.0
 40
10.0
 50
179.999989999999
 51
224.0922199999749
  0
ARC
  5
CD5C
  8
AM_0
 10
593.7170021446741
 20
440.27207382777101
 30
0.0
 40
2.0000000500000001
 50
179.999989999999
 51
268.00000999999207
  0
ARC
  5
CD5D
  8
AM_0
 10
586.7170021446741
 20
449.50237382777078
 30
0.0
 40
5.0
 50
0.0
 51
44.092232000029739
  0
LINE
  5
CD5F
  8
AM_0
 10
593.64720343100271
 20
438.27329211393368
 30
0.0
 11
621.71700214466819
 21
437.29308382777111
 31
0.0
1001
GENIUS_GENODEF_13
1002
{
1000
HIER
1070
     0
1002
}
1002
{
1000
MANEDIT
1070
     0
1002
}
1002
{
1000
NOSEL
1070
     0
1002
}
1002
{
1000
BEHIND
1070
     0
1002
}
1002
{
1000
OTHER
1070
     0
1002
}
1002
{
1000
REACTOR
1002
}
1001
GENIUS_GENOBJ-N-CEN_13
1002
{
1000
OWNER
1000
GEN
1002
}
1001
GENIUS_GENCEN_19
1002
{
1040
2.7939999999999978
1002
}
  0
LINE
  5
CD60
  8
AM_0
 10
591.71700209467383
 20
440.27207382777101
 30
0.0
 11
591.71700214467387
 21
449.50237407946122
 31
0.0
1001
GENIUS_GENODEF_13
1002
{
1000
HIER
1070
     0
1002
}
1002
{
1000
MANEDIT
1070
     0
1002
}
1002
{
1000
NOSEL
1070
     0
1002
}
1002
{
1000
BEHIND
1070
     0
1002
}
1002
{
1000
OTHER
1070
     0
1002
}
1002
{
1000
REACTOR
1002
}
1001
GENIUS_GENOBJ-N-CEN_13
1002
{
1000
OWNER
1000
GEN
1002
}
1001
GENIUS_GENCEN_19
1002
{
1040
2.7939999999999978
1002
}
  0
LINE
  5
CDBF
  8
0
  6
CONTINUOUS
 62
     7
 10
621.71706214467383
 20
1156.375633284626
 30
0.0
 11
621.71706214467383
 21
1028.375633284626
 31
0.0
  0
LINE
  5
CDC0
  8
0
  6
CONTINUOUS
 62
     7
 10
621.71706214467383
 20
890.37563328462625
 30
0.0
 11
596.54256214467398
 21
891.25478328462611
 31
0.0
  0
LINE
  5
CDC1
  8
0
  6
CONTINUOUS
 62
     7
 10
621.71700214467421
 20
1156.3755732846259
 30
0.0
 11
596.54250214467402
 21
1155.496483284626
 31
0.0
  0
LINE
  5
CDC2
  8
0
  6
CENTER
 62
     7
 10
603.71706214467406
 20
1008.195333284626
 30
0.0
 11
603.71706214467406
 21
1037.9301932846261
 31
0.0
  0
LINE
  5
CDC3
  8
0
  6
CONTINUOUS
 62
     7
 10
621.71706214467383
 20
1018.375633284626
 30
0.0
 11
621.71706214467383
 21
890.37563328462625
 31
0.0
  0
LINE
  5
CDC4
  8
0
  6
CONTINUOUS
 62
     7
 10
591.71700214467421
 20
896.2517332846262
 30
0.0
 11
591.71700214467421
 21
1012.8400432846259
 31
0.0
  0
LINE
  5
CDC5
  8
0
  6
CONTINUOUS
 62
     7
 10
591.71700214467421
 20
1033.9111532846259
 30
0.0
 11
591.71700214467421
 21
1150.4995332846261
 31
0.0
  0
LINE
  5
CDC6
  8
0
  6
CONTINUOUS
 62
     7
 10
794.71706214467406
 20
1031.3755732846259
 30
0.0
 11
856.71700214467398
 21
1031.3755732846259
 31
0.0
  0
LINE
  5
CDC7
  8
0
  6
CONTINUOUS
 62
     7
 10
621.71706214467383
 20
890.37557328462617
 30
0.0
 11
737.87380214467396
 21
886.31929328462559
 31
0.0
  0
LINE
  5
CDC8
  8
0
  6
CONTINUOUS
 62
     7
 10
733.36720214467391
 20
1110.2171832846259
 30
0.0
 11
744.71712214467391
 21
1118.540973284626
 31
0.0
  0
LINE
  5
CDC9
  8
0
  6
CONTINUOUS
 62
     7
 10
741.23482214467413
 20
884.85793328462557
 30
0.0
 11
744.71712214467391
 21
881.37563328462602
 31
0.0
  0
LINE
  5
CDCA
  8
0
  6
CONTINUOUS
 62
     7
 10
794.71706214467406
 20
1015.3755732846259
 30
0.0
 11
856.71700214467398
 21
1015.3755732846259
 31
0.0
  0
LINE
  5
CDCB
  8
0
  6
CONTINUOUS
 62
     7
 10
774.71700214467421
 20
1053.375633284626
 30
0.0
 11
774.71700214467421
 21
993.37563328462591
 31
0.0
  0
LINE
  5
CDCC
  8
0
  6
CONTINUOUS
 62
     7
 10
771.71706214467395
 20
1053.375633284626
 30
0.0
 11
774.71700214467421
 21
1053.375633284626
 31
0.0
  0
LINE
  5
CDCD
  8
0
  6
CONTINUOUS
 62
     7
 10
794.71700214467421
 20
1031.3755732846259
 30
0.0
 11
794.71700214467421
 21
1015.3755732846259
 31
0.0
  0
LINE
  5
CDCE
  8
0
  6
CONTINUOUS
 62
     7
 10
856.71700214467398
 20
1050.875633284626
 30
0.0
 11
856.71700214467398
 21
995.87563328462602
 31
0.0
  0
LINE
  5
CDCF
  8
0
  6
CONTINUOUS
 62
     7
 10
774.71700214467421
 20
995.87563328462602
 30
0.0
 11
856.71700214467398
 21
995.87563328462602
 31
0.0
  0
LINE
  5
CDD0
  8
0
  6
CONTINUOUS
 62
     7
 10
774.71700214467421
 20
1050.875633284626
 30
0.0
 11
856.71700214467398
 21
1050.875633284626
 31
0.0
  0
LINE
  5
CDD1
  8
0
  6
CONTINUOUS
 62
     7
 10
733.36720214467391
 20
936.53395328462602
 30
0.0
 11
744.71712214467391
 21
928.21016328462633
 31
0.0
  0
LINE
  5
CDD2
  8
0
  6
CONTINUOUS
 62
     7
 10
766.71706214467395
 20
883.37563328462613
 30
0.0
 11
771.71706214467395
 21
883.37563328462613
 31
0.0
  0
LINE
  5
CDD3
  8
0
  6
CONTINUOUS
 62
     7
 10
704.06661214467397
 20
926.01155328462539
 30
0.0
 11
742.30586214467405
 21
902.86910328462614
 31
0.0
  0
LINE
  5
CDD4
  8
0
  6
CONTINUOUS
 62
     7
 10
706.65547214467404
 20
937.50209328462586
 30
0.0
 11
730.41029214467414
 21
937.50209328462586
 31
0.0
  0
LINE
  5
CDD5
  8
0
  6
CONTINUOUS
 62
     7
 10
706.64620214467391
 20
935.72518328462616
 30
0.0
 11
742.21529214467398
 21
914.19875328462592
 31
0.0
  0
LINE
  5
CDD6
  8
0
  6
CONTINUOUS
 62
     7
 10
701.65547214467404
 20
930.28920328462573
 30
0.0
 11
701.65547214467404
 21
932.5020932846262
 31
0.0
  0
LINE
  5
CDD7
  8
0
  6
CONTINUOUS
 62
     7
 10
621.71706214467383
 20
1156.3755732846259
 30
0.0
 11
737.87380214467396
 21
1160.4319032846261
 31
0.0
  0
LINE
  5
CDD8
  8
0
  6
CONTINUOUS
 62
     7
 10
744.71706214467406
 20
1182.7788932846261
 30
0.0
 11
744.71706214467406
 21
863.97237328462609
 31
0.0
  0
LINE
  5
CDD9
  8
0
  6
CONTINUOUS
 62
     7
 10
771.71706214467395
 20
993.37563328462591
 30
0.0
 11
774.71700214467421
 21
993.37563328462591
 31
0.0
  0
LINE
  5
CDDA
  8
0
  6
CONTINUOUS
 62
     7
 10
741.23488214467409
 20
1161.893273284626
 30
0.0
 11
744.71712214467391
 21
1165.3755032846259
 31
0.0
  0
LINE
  5
CDDB
  8
0
  6
CONTINUOUS
 62
     7
 10
749.5426821446739
 20
1187.7759032846261
 30
0.0
 11
766.71712214467379
 21
1188.375633284626
 31
0.0
  0
LINE
  5
CDDC
  8
0
  6
CONTINUOUS
 62
     7
 10
749.54262214467406
 20
858.9753632846257
 30
0.0
 11
766.71712214467379
 21
858.37563328462613
 31
0.0
  0
LINE
  5
CDDD
  8
0
  6
CONTINUOUS
 62
     7
 10
766.71706214467395
 20
1188.375633284626
 30
0.0
 11
766.71706214467395
 21
858.37557328462606
 31
0.0
  0
LINE
  5
CDDE
  8
0
  6
CONTINUOUS
 62
     7
 10
766.71706214467395
 20
1163.375633284626
 30
0.0
 11
771.71706214467395
 21
1163.375633284626
 31
0.0
  0
LINE
  5
CDDF
  8
0
  6
CONTINUOUS
 62
     7
 10
771.71706214467395
 20
1163.375633284626
 30
0.0
 11
771.71706214467395
 21
883.37563328462613
 31
0.0
  0
LINE
  5
CDE0
  8
0
  6
CONTINUOUS
 62
     7
 10
753.71712214467391
 20
1147.7247532846261
 30
0.0
 11
753.71712214467391
 21
899.02651328462605
 31
0.0
  0
LINE
  5
CDE1
  8
0
  6
CONTINUOUS
 62
     7
 10
706.65547214467404
 20
1109.2491632846261
 30
0.0
 11
730.41029214467414
 21
1109.2491632846261
 31
0.0
  0
LINE
  5
CDE2
  8
0
  6
CONTINUOUS
 62
     7
 10
701.65547214467404
 20
1116.461993284626
 30
0.0
 11
701.65547214467404
 21
1114.2491632846261
 31
0.0
  0
LINE
  5
CDE3
  8
0
  6
CONTINUOUS
 62
     7
 10
706.64620214467391
 20
1111.026023284626
 30
0.0
 11
742.21529214467398
 21
1132.552513284626
 31
0.0
  0
LINE
  5
CDE4
  8
0
  6
CONTINUOUS
 62
     7
 10
704.06654214467426
 20
1120.7397032846261
 30
0.0
 11
742.30586214467405
 21
1143.8821032846261
 31
0.0
  0
ARC
  5
CDE5
  8
0
  6
CONTINUOUS
 62
     7
 10
603.71706214467406
 20
1023.375633284626
 30
0.0
 40
15.0
 50
148.21198000000069
 51
160.5287699999993
  0
ARC
  5
CDE6
  8
0
  6
CONTINUOUS
 62
     7
 10
603.71706214467406
 20
1023.375633284626
 30
0.0
 40
12.5
 50
23.578179999997541
 51
156.42182000000241
  0
ARC
  5
CDE7
  8
0
  6
CONTINUOUS
 62
     7
 10
623.71706214467406
 20
1023.375633284626
 30
0.0
 40
5.0
 50
270.0
 51
90.00000299999769
  0
ARC
  5
CDE8
  8
0
  6
CONTINUOUS
 62
     7
 10
603.71706214467406
 20
1023.375633284626
 30
0.0
 40
12.5
 50
203.5781799999975
 51
336.4218300000008
  0
ARC
  5
CDE9
  8
0
  6
CONTINUOUS
 62
     7
 10
603.71706214467406
 20
1023.375633284626
 30
0.0
 40
15.0
 50
199.4712300000007
 51
211.78801999999931
  0
ARC
  5
CDEA
  8
0
  6
CONTINUOUS
 62
     7
 10
596.71700214467421
 20
896.2517332846262
 30
0.0
 40
5.0
 50
180.000010000001
 51
268.0000000000029
  0
ARC
  5
CDEB
  8
0
  6
CONTINUOUS
 62
     7
 10
596.71700214467421
 20
1150.4995332846261
 30
0.0
 40
5.0
 50
91.999998000000787
 51
180.000010000001
  0
ARC
  5
CDEC
  8
0
  6
CONTINUOUS
 62
     7
 10
586.7170021446741
 20
1140.186603284626
 30
0.0
 40
5.0
 50
271.99999999999721
 51
0.0
  0
ARC
  5
CDED
  8
0
  6
CONTINUOUS
 62
     7
 10
586.7170021446741
 20
906.56459328462643
 30
0.0
 40
5.0
 50
0.0
 51
88.000000000002998
  0
ARC
  5
CDEE
  8
0
  6
CONTINUOUS
 62
     7
 10
586.7170021446741
 20
1012.8400432846259
 30
0.0
 40
5.0
 50
0.0
 51
31.788018000003131
  0
ARC
  5
CDEF
  8
0
  6
CONTINUOUS
 62
     7
 10
586.7170021446741
 20
1033.9111532846259
 30
0.0
 40
5.0
 50
328.21198000000072
 51
0.0
  0
ARC
  5
CDF0
  8
0
  6
CONTINUOUS
 62
     7
 10
730.41029214467414
 20
1114.2491632846261
 30
0.0
 40
5.0
 50
270.0
 51
306.25554999999889
  0
ARC
  5
CDF1
  8
0
  6
CONTINUOUS
 62
     7
 10
737.69930214467422
 20
881.32240328462603
 30
0.0
 40
5.0
 50
45.00000099999918
 51
88.000000000002998
  0
ARC
  5
CDF2
  8
0
  6
CONTINUOUS
 62
     7
 10
737.69930214467422
 20
1165.428853284626
 30
0.0
 40
5.0
 50
271.99999999999721
 51
315.0
  0
ARC
  5
CDF3
  8
0
  6
CONTINUOUS
 62
     7
 10
749.71706214467395
 20
863.97237328462609
 30
0.0
 40
5.0
 50
179.999989999999
 51
268.00000999999861
  0
ARC
  5
CDF4
  8
0
  6
CONTINUOUS
 62
     7
 10
794.71706214467406
 20
1023.3755732846259
 30
0.0
 40
8.0000113999999982
 50
90.00000299999769
 51
270.0
  0
ARC
  5
CDF5
  8
0
  6
CONTINUOUS
 62
     7
 10
706.65547214467404
 20
1116.461993284626
 30
0.0
 40
5.0
 50
121.1823599999997
 51
180.000010000001
  0
ARC
  5
CDF6
  8
0
  6
CONTINUOUS
 62
     7
 10
739.71706214467395
 20
1148.159683284626
 30
0.0
 40
5.0
 50
301.18235999999632
 51
0.0
  0
ARC
  5
CDF7
  8
0
  6
CONTINUOUS
 62
     7
 10
706.65547214467404
 20
1114.2491632846261
 30
0.0
 40
5.0
 50
179.999989999999
 51
270.0
  0
ARC
  5
CDF8
  8
0
  6
CONTINUOUS
 62
     7
 10
706.65547214467404
 20
932.5020932846262
 30
0.0
 40
5.0
 50
90.00000299999769
 51
180.000010000001
  0
ARC
  5
CDF9
  8
0
  6
CONTINUOUS
 62
     7
 10
739.71706214467395
 20
898.59151328462644
 30
0.0
 40
5.0
 50
0.0
 51
58.817640999998339
  0
ARC
  5
CDFA
  8
0
  6
CONTINUOUS
 62
     7
 10
706.65547214467404
 20
930.28920328462573
 30
0.0
 40
5.0
 50
179.999989999999
 51
238.81764999999709
  0
ARC
  5
CDFB
  8
0
  6
CONTINUOUS
 62
     7
 10
745.71706214467395
 20
957.03896328462622
 30
0.0
 40
8.0
 50
270.0
 51
0.0
  0
ARC
  5
CDFC
  8
0
  6
CONTINUOUS
 62
     7
 10
730.41029214467414
 20
932.5020932846262
 30
0.0
 40
5.0
 50
53.744452999999368
 51
90.00000299999769
  0
ARC
  5
CDFD
  8
0
  6
CONTINUOUS
 62
     7
 10
745.71706214467395
 20
899.02651328462605
 30
0.0
 40
8.0
 50
270.0
 51
0.0
  0
ARC
  5
CDFE
  8
0
  6
CONTINUOUS
 62
     7
 10
749.71706214467395
 20
1182.7788932846261
 30
0.0
 40
5.0
 50
91.999998000000787
 51
180.000010000001
  0
ARC
  5
CDFF
  8
0
  6
CONTINUOUS
 62
     7
 10
745.71706214467395
 20
1089.7122432846261
 30
0.0
 40
8.0
 50
0.0
 51
90.00000299999769
  0
ARC
  5
CE00
  8
0
  6
CONTINUOUS
 62
     7
 10
745.71706214467395
 20
1147.7247532846261
 30
0.0
 40
8.0
 50
0.0
 51
90.00000299999769
  0
POLYLINE
  5
CE01
  8
0
  6
CONTINUOUS
 62
     7
 66
     1
 10
0.0
 20
0.0
 30
0.0
  0
VERTEX
  5
CE02
  8
0
  6
CONTINUOUS
 62
     7
 10
734.80060214467403
 20
907.41133328462615
 30
0.0
 42
0.0020909347
  0
VERTEX
  5
CE03
  8
0
  6
CONTINUOUS
 62
     7
 10
735.76645214467396
 20
900.370823284626
 30
0.0
 42
0.0020881749
  0
VERTEX
  5
CE04
  8
0
  6
CONTINUOUS
 62
     7
 10
736.79103214467375
 20
893.33920328462602
 30
0.0
 42
0.0020849591
  0
VERTEX
  5
CE05
  8
0
  6
CONTINUOUS
 62
     7
 10
737.87380214467396
 20
886.31935328462635
 30
0.0
  0
SEQEND
  5
CE06
  8
0
 62
     7
  0
POLYLINE
  5
CE07
  8
0
  6
CONTINUOUS
 62
     7
 66
     1
 10
0.0
 20
0.0
 30
0.0
  0
VERTEX
  5
CE08
  8
0
  6
CONTINUOUS
 62
     7
 10
732.61989214467405
 20
1109.763883284626
 30
0.0
 42
0.01720808
  0
VERTEX
  5
CE09
  8
0
  6
CONTINUOUS
 62
     7
 10
728.20362214467411
 20
1052.388693284626
 30
0.0
 42
0.0088311605
  0
VERTEX
  5
CE0A
  8
0
  6
CONTINUOUS
 62
     7
 10
727.48677214467398
 20
1023.375633284626
 30
0.0
 42
0.025919753
  0
VERTEX
  5
CE0B
  8
0
  6
CONTINUOUS
 62
     7
 10
731.35560214467409
 20
937.41194328462643
 30
0.0
  0
SEQEND
  5
CE0C
  8
0
 62
     7
  0
POLYLINE
  5
CE0D
  8
0
  6
CONTINUOUS
 62
     7
 66
     1
 10
0.0
 20
0.0
 30
0.0
  0
VERTEX
  5
CE0E
  8
0
  6
CONTINUOUS
 62
     7
 10
739.84218214467398
 20
1160.500633284626
 30
0.0
  0
VERTEX
  5
CE0F
  8
0
  6
CONTINUOUS
 62
     7
 10
736.61192214467405
 20
1140.4361232846261
 30
0.0
 42
-1.0
  0
SEQEND
  5
CE10
  8
0
 62
     7
  0
LINE
  5
CE70
  8
AM_0
 10
1267.8715218380621
 20
798.29307382776062
 30
0.0
 11
1267.8715218380621
 21
795.29312382776072
 31
0.0
  0
LINE
  5
CE71
  8
AM_0
 10
1277.8715218380621
 20
798.29307382776062
 30
0.0
 11
1277.8715218380621
 21
795.29312382776072
 31
0.0
  0
LINE
  5
CE72
  8
AM_0
 10
1280.871491838062
 20
651.79308882776047
 30
0.0
 11
1280.871491838062
 21
661.79308882776081
 31
0.0
  0
LINE
  5
CE73
  8
AM_0
 10
1264.871491838062
 20
651.79308882776047
 30
0.0
 11
1264.871491838062
 21
661.79308882776081
 31
0.0
  0
LINE
  5
CE74
  8
AM_0
 10
1264.871491838062
 20
661.79308882776081
 30
0.0
 11
1280.871491838062
 21
661.79308882776081
 31
0.0
  0
LINE
  5
CE75
  8
AM_0
 10
1264.871491838062
 20
651.79308882776047
 30
0.0
 11
1280.871491838062
 21
651.79308882776047
 31
0.0
  0
LINE
  5
CE76
  8
AM_0
 10
1217.8715218380621
 20
795.29312382776072
 30
0.0
 11
1131.332651838062
 21
790.75777382776062
 31
0.0
  0
LINE
  5
CE77
  8
AM_0
 10
1107.8715018380619
 20
575.29308382776026
 30
0.0
 11
1112.406851838062
 21
488.75426382776061
 31
0.0
  0
LINE
  5
CE78
  8
AM_0
 10
1437.8715118380619
 20
575.29305382776056
 30
0.0
 11
1433.336201838061
 21
488.75426382776061
 31
0.0
  0
LINE
  5
CE79
  8
AM_0
 10
1437.8715118380619
 20
685.29308882776036
 30
0.0
 11
1433.336201838061
 21
771.83192382776031
 31
0.0
  0
LINE
  5
CE7A
  8
AM_0
 10
1327.871491838062
 20
465.29306882776058
 30
0.0
 11
1414.410326838062
 21
469.82839382776041
 31
0.0
  0
LINE
  5
CE7B
  8
AM_0
 10
1327.871491838062
 20
795.29307382776062
 30
0.0
 11
1414.410326838062
 21
790.75777382776062
 31
0.0
  0
LINE
  5
CE7C
  8
AM_0
 10
1107.8715018380619
 20
685.29308882776036
 30
0.0
 11
1112.406851838062
 21
771.83187382776066
 31
0.0
  0
LINE
  5
CE7D
  8
0
  6
AM_ISO08W050
 10
1151.195051838062
 20
508.61660382776068
 30
0.0
 11
1120.7549518380611
 21
478.17653882776028
 31
0.0
  0
LINE
  5
CE7E
  8
AM_0
 10
1212.5975968380619
 20
682.08169382776055
 30
0.0
 11
1179.1637868380619
 21
715.51552382776072
 31
0.0
  0
LINE
  5
CE7F
  8
AM_0
 10
1221.082886838062
 20
690.56698382776051
 30
0.0
 11
1187.6490468380621
 21
724.00082382776066
 31
0.0
  0
LINE
  5
CE80
  8
0
  6
AM_ISO08W050
 10
1395.4500168380609
 20
752.8715738277607
 30
0.0
 11
1424.9880268380609
 21
782.40957382776048
 31
0.0
  0
LINE
  5
CE81
  8
AM_0
 10
1333.145386838062
 20
682.08169382776055
 30
0.0
 11
1366.5792268380619
 21
715.51552382776072
 31
0.0
  0
LINE
  5
CE82
  8
AM_0
 10
1347.871491838062
 20
630.29308882776058
 30
0.0
 11
1347.871491838062
 21
620.29308382776037
 31
0.0
  0
LINE
  5
CE83
  8
0
  6
AM_ISO08W050
 10
1394.5479768380619
 20
508.61660382776068
 30
0.0
 11
1424.9880268380609
 21
478.1765688277606
 31
0.0
  0
LINE
  5
CE84
  8
AM_0
 10
1197.871521838061
 20
630.29308882776058
 30
0.0
 11
1197.871521838061
 21
620.29308382776037
 31
0.0
  0
LINE
  5
CE85
  8
AM_0
 10
1324.6600968380619
 20
690.56698382776051
 30
0.0
 11
1358.0939368380621
 21
724.00082382776066
 31
0.0
  0
LINE
  5
CE86
  8
AM_0
 10
1437.8714968380621
 20
575.29308382776026
 30
0.0
 11
1437.8714968380621
 21
685.29308882776036
 31
0.0
  0
LINE
  5
CE87
  8
AM_0
 10
1217.871491838061
 20
465.2930838277606
 30
0.0
 11
1131.332651838062
 21
469.82839382776041
 31
0.0
  0
LINE
  5
CE88
  8
AM_0
 10
1107.8715018380619
 20
575.29308382776026
 30
0.0
 11
1107.8715018380619
 21
685.29308882776036
 31
0.0
  0
LINE
  5
CE89
  8
AM_0
 10
1217.8715218380621
 20
795.29312382776072
 30
0.0
 11
1327.8714618380609
 21
795.29312382776072
 31
0.0
  0
LINE
  5
CE8A
  8
AM_0
 10
1217.8715218380621
 20
465.2930838277606
 30
0.0
 11
1327.8714618380609
 21
465.2930838277606
 31
0.0
  0
LINE
  5
CE8B
  8
AM_0
 10
1399.477191838062
 20
615.2930838277606
 30
0.0
 11
1352.871491838062
 21
615.2930838277606
 31
0.0
  0
LINE
  5
CE8C
  8
AM_0
 10
1146.2658518380611
 20
615.2930838277606
 30
0.0
 11
1192.871521838061
 21
615.2930838277606
 31
0.0
  0
LINE
  5
CE8D
  8
0
  6
AM_ISO08W050
 10
1096.8898018380621
 20
630.29308882776058
 30
0.0
 11
1450.298086838061
 21
630.29308882776058
 31
0.0
  0
LINE
  5
CE8E
  8
AM_0
 10
1342.071751838062
 20
436.79157382776071
 30
0.0
 11
1364.8466218380611
 21
452.73870382776062
 31
0.0
  0
LINE
  5
CE8F
  8
AM_0
 10
1211.0244768380619
 20
434.47309382776058
 30
0.0
 11
1334.718506838062
 21
434.47309382776058
 31
0.0
  0
LINE
  5
CE90
  8
0
  6
AM_ISO08W050
 10
1149.5213518380619
 20
753.64327382776082
 30
0.0
 11
1120.7549518380611
 21
782.40962382776036
 31
0.0
  0
LINE
  5
CE91
  8
AM_0
 10
1203.671236838062
 20
436.7915588277607
 30
0.0
 11
1180.896361838061
 21
452.73868382776061
 31
0.0
  0
ARC
  5
CE92
  8
AM_0
 10
1272.871521838061
 20
798.29307382776062
 30
0.0
 40
5.0
 50
359.999989999999
 51
179.999989999999
  0
ARC
  5
CE93
  8
AM_0
 10
1272.871521838061
 20
630.29308882776058
 30
0.0
 40
27.500000499999999
 50
106.912389999978
 51
73.087597000012295
  0
CIRCLE
  5
CE94
  8
AM_0
 10
1272.871521838061
 20
630.29308882776058
 30
0.0
 40
4.500000049999997
  0
CIRCLE
  5
CE95
  8
0
  6
AM_ISO08W050
 10
1272.871521838061
 20
630.29308882776058
 30
0.0
 40
6.0
  0
ARC
  5
CE96
  8
AM_0
 10
1399.477191838062
 20
620.29308382776037
 30
0.0
 40
5.0
 50
270.0
 51
355.48385000000479
  0
ARC
  5
CE97
  8
AM_0
 10
1132.3794018380611
 20
489.80098882776048
 30
0.0
 40
20.000000499999999
 50
183.00000999999349
 51
266.99999999999432
  0
ARC
  5
CE98
  8
AM_0
 10
1272.871521838061
 20
630.29308882776058
 30
0.0
 40
75.0
 50
0.0
 51
37.096792999987748
  0
ARC
  5
CE99
  8
AM_0
 10
1413.3636068380611
 20
489.80098882776048
 30
0.0
 40
20.000000499999999
 50
273.00000000000568
 51
356.9999999999946
  0
ARC
  5
CE9A
  8
AM_0
 10
1132.3794018380611
 20
770.78517382776045
 30
0.0
 40
20.000000499999999
 50
92.999998999995213
 51
176.99999000000639
  0
ARC
  5
CE9B
  8
AM_0
 10
1413.3636068380611
 20
770.78517382776045
 30
0.0
 40
20.000000499999999
 50
3.0000000999988461
 51
86.999998999983973
  0
ARC
  5
CE9C
  8
0
  6
AM_ISO08W050
 10
1272.871521838061
 20
630.29308882776058
 30
0.0
 40
195.00000499999999
 50
218.16531999998321
 51
232.12886000002379
  0
ARC
  5
CE9D
  8
0
  6
AM_ISO08W050
 10
1272.8715218380671
 20
630.29308882775661
 30
0.0
 40
195.0000050000061
 50
125.3077887736941
 51
140.91562999999189
  0
CIRCLE
  5
CE9E
  8
0
  6
AM_ISO08W050
 10
1410.7573268380611
 20
492.40727882776019
 30
0.0
 40
9.5
  0
ARC
  5
CE9F
  8
0
  6
AM_ISO08W050
 10
1272.871521838061
 20
630.29308882776058
 30
0.0
 40
195.00000499999999
 50
39.367219000016
 51
50.896189000030951
  0
CIRCLE
  5
CEA0
  8
0
  6
AM_ISO08W050
 10
1134.9857018380619
 20
492.40727882776019
 30
0.0
 40
9.5
  0
ARC
  5
CEA1
  8
0
  6
AM_ISO08W050
 10
1272.8715218380539
 20
630.29308882776866
 30
0.0
 40
195.00000500001079
 50
305.82211228584708
 51
320.46633000000628
  0
CIRCLE
  5
CEA2
  8
0
  6
AM_ISO08W050
 10
1134.9857018380619
 20
768.17892382776074
 30
0.0
 40
9.5
  0
CIRCLE
  5
CEA3
  8
0
  6
AM_ISO08W050
 10
1410.7573268380611
 20
768.17892382776074
 30
0.0
 40
9.5
  0
ARC
  5
CEA4
  8
AM_0
 10
1352.871491838062
 20
620.29308382776037
 30
0.0
 40
5.0
 50
179.999989999999
 51
270.0
  0
ARC
  5
CEA5
  8
AM_0
 10
1192.871521838061
 20
620.29308382776037
 30
0.0
 40
5.0
 50
270.0
 51
0.0
  0
ARC
  5
CEA6
  8
AM_0
 10
1370.114746838062
 20
711.98002382776065
 30
0.0
 40
5.0
 50
40.031148000018398
 51
135.00000000000921
  0
ARC
  5
CEA7
  8
AM_0
 10
1175.6282368380621
 20
711.98002382776065
 30
0.0
 40
5.0
 50
45.000001000013
 51
139.96885000000219
  0
CIRCLE
  5
CEA8
  8
AM_0
 10
1272.871521838061
 20
630.29308882776058
 30
0.0
 40
140.0
  0
ARC
  5
CEA9
  8
AM_0
 10
1272.871521838061
 20
630.29308882776058
 30
0.0
 40
60.0
 50
270.0
 51
90.000002999984659
  0
ARC
  5
CEAA
  8
AM_0
 10
1209.0620718380619
 20
678.54616882776065
 30
0.0
 40
5.0
 50
322.90321000000728
 51
45.000001000013
  0
ARC
  5
CEAB
  8
AM_0
 10
1272.871521838061
 20
630.29308882776058
 30
0.0
 40
60.0
 50
90.000002999984659
 51
270.0
  0
ARC
  5
CEAC
  8
AM_0
 10
1191.1846018380611
 20
727.53632382776061
 30
0.0
 40
5.0
 50
130.03114999999781
 51
224.99999999999079
  0
ARC
  5
CEAD
  8
AM_0
 10
1146.2658518380611
 20
620.29308382776037
 30
0.0
 40
5.0
 50
184.5161599999995
 51
270.0
  0
CIRCLE
  5
CEAE
  8
AM_0
 10
1272.871521838061
 20
630.29308882776058
 30
0.0
 40
132.0
  0
ARC
  5
CEAF
  8
AM_0
 10
1336.680911838062
 20
678.54616882776065
 30
0.0
 40
5.0
 50
135.00000000000921
 51
217.0968000000199
  0
ARC
  5
CEB0
  8
AM_0
 10
1305.871491838062
 20
536.96389382776056
 30
0.0
 40
102.81999500000001
 50
304.9999999999792
 51
317.98482000001081
  0
ARC
  5
CEB1
  8
AM_0
 10
1334.718506838062
 20
447.2930838277606
 30
0.0
 40
12.82
 50
270.0
 51
304.9999999999792
  0
ARC
  5
CEB2
  8
AM_0
 10
1211.0244768380619
 20
447.2930838277606
 30
0.0
 40
12.82
 50
235.00000000002089
 51
270.0
  0
ARC
  5
CEB3
  8
AM_0
 10
1239.871491838062
 20
536.96389382776056
 30
0.0
 40
102.81999500000001
 50
222.01517999998919
 51
235.00000000002089
  0
ARC
  5
CEB4
  8
AM_0
 10
1224.6184068380619
 20
694.10250382776064
 30
0.0
 40
5.0
 50
224.99999999999079
 51
307.09678999999272
  0
ARC
  5
CEB5
  8
AM_0
 10
1321.124576838062
 20
694.10250382776064
 30
0.0
 40
5.0
 50
232.90321000000739
 51
315.00000000000921
  0
ARC
  5
CEB6
  8
AM_0
 10
1354.5584118380621
 20
727.53632382776061
 30
0.0
 40
5.0
 50
315.00000000000921
 51
49.968851000019427
  0
ARC
  5
CEB7
  8
AM_0
 10
1272.871521838061
 20
630.29308882776058
 30
0.0
 40
75.0
 50
142.90321000000739
 51
180.000010000001
  0
ARC
  5
CEB8
  8
AM_0
 10
1272.871521838061
 20
630.29308882776058
 30
0.0
 40
75.0
 50
52.903205999970417
 51
127.09678999999259
  0
LINE
  5
CECB
  8
0
  6
AM_ISO08W050
 10
1272.8714916041849
 20
431.67909382776048
 30
0.0
 11
1272.8715229446029
 21
806.08707382776049
 31
0.0
1001
GENIUS_GENODEF_13
1002
{
1000
HIER
1070
     0
1002
}
1002
{
1000
MANEDIT
1070
     0
1002
}
1002
{
1000
NOSEL
1070
     0
1002
}
1002
{
1000
BEHIND
1070
     0
1002
}
1002
{
1000
OTHER
1070
     0
1002
}
1002
{
1000
REACTOR
1002
}
1001
GENIUS_GENOBJ-N-CEN_13
1002
{
1000
OWNER
1000
GEN
1002
}
1001
GENIUS_GENCEN_19
1002
{
1040
2.7939999999999978
1002
}
  0
TEXT
  5
D11B
  8
0
  6
CONTINUOUS
 62
     0
 10
1102.4166496898681
 20
1015.139159505129
 30
0.0
 40
15.0
  1
VX22-060EBF~VX22-200EBF
  0
ENDSEC
  0
EOF
