  0
SECTION
  2
HEADER
  9
$ACADVER
  1
AC1009
  9
$INSBASE
 10
0.0
 20
0.0
 30
0.0
  9
$EXTMIN
 10
130.44214339814329
 20
419.20231138065537
 30
-0.000000000000013
  9
$EXTMAX
 10
1443.068256830634
 20
1276.97601148576
 30
0.0000000000000023
  9
$LIMMIN
 10
0.0000005999945643
 20
-0.0000005963913736
  9
$LIMMAX
 10
1707.000000599995
 20
1109.9999994036091
  9
$ORTHOMODE
 70
     1
  9
$REGENMODE
 70
     1
  9
$FILLMODE
 70
     1
  9
$QTEXTMODE
 70
     0
  9
$MIRRTEXT
 70
     0
  9
$DRAGMODE
 70
     2
  9
$LTSCALE
 40
1.0
  9
$OSMODE
 70
   551
  9
$ATTMODE
 70
     1
  9
$TEXTSIZE
 40
2.5
  9
$TRACEWID
 40
1.0
  9
$TEXTSTYLE
  7
STANDARD
  9
$CLAYER
  8
0
  9
$CELTYPE
  6
BYLAYER
  9
$CECOLOR
 62
   256
  9
$DIMSCALE
 40
1.0
  9
$DIMASZ
 40
2.0
  9
$DIMEXO
 40
1.0
  9
$DIMDLI
 40
8.0
  9
$DIMRND
 40
0.0
  9
$DIMDLE
 40
0.0
  9
$DIMEXE
 40
1.0
  9
$DIMTP
 40
-0.025
  9
$DIMTM
 40
0.043
  9
$DIMTXT
 40
2.5
  9
$DIMCEN
 40
0.0
  9
$DIMTSZ
 40
0.0
  9
$DIMTOL
 70
     0
  9
$DIMLIM
 70
     0
  9
$DIMTIH
 70
     0
  9
$DIMTOH
 70
     0
  9
$DIMSE1
 70
     0
  9
$DIMSE2
 70
     0
  9
$DIMTAD
 70
     3
  9
$DIMZIN
 70
     8
  9
$DIMBLK
  1

  9
$DIMASO
 70
     1
  9
$DIMSHO
 70
     1
  9
$DIMPOST
  1

  9
$DIMAPOST
  1
"
  9
$DIMALT
 70
     0
  9
$DIMALTD
 70
     2
  9
$DIMALTF
 40
0.0393701
  9
$DIMLFAC
 40
1.0
  9
$DIMTOFL
 70
     1
  9
$DIMTVP
 40
0.0
  9
$DIMTIX
 70
     0
  9
$DIMSOXD
 70
     0
  9
$DIMSAH
 70
     0
  9
$DIMBLK1
  1

  9
$DIMBLK2
  1

  9
$DIMSTYLE
  2
AM_JIS
  9
$DIMCLRD
 70
     2
  9
$DIMCLRE
 70
     2
  9
$DIMCLRT
 70
     4
  9
$DIMTFAC
 40
0.71
  9
$DIMGAP
 40
1.5
  9
$LUNITS
 70
     2
  9
$LUPREC
 70
     2
  9
$SKETCHINC
 40
1.0
  9
$FILLETRAD
 40
0.0
  9
$AUNITS
 70
     0
  9
$AUPREC
 70
     0
  9
$MENU
  1
.
  9
$ELEVATION
 40
0.0
  9
$PELEVATION
 40
0.0
  9
$THICKNESS
 40
0.0
  9
$LIMCHECK
 70
     0
  9
$BLIPMODE
 70
     0
  9
$CHAMFERA
 40
3.0
  9
$CHAMFERB
 40
3.0
  9
$SKPOLY
 70
     0
  9
$TDCREATE
 40
2456829.3841110538
  9
$TDUPDATE
 40
2458541.3913650461
  9
$TDINDWG
 40
0.673375625
  9
$TDUSRTIMER
 40
0.6733752431
  9
$USRTIMER
 70
     1
  9
$ANGBASE
 50
0.0
  9
$ANGDIR
 70
     0
  9
$PDMODE
 70
     0
  9
$PDSIZE
 40
0.0
  9
$PLINEWID
 40
0.0
  9
$COORDS
 70
     1
  9
$SPLFRAME
 70
     0
  9
$SPLINETYPE
 70
     6
  9
$SPLINESEGS
 70
     8
  9
$ATTDIA
 70
     1
  9
$ATTREQ
 70
     1
  9
$HANDLING
 70
     1
  9
$HANDSEED
  5
DA78
  9
$SURFTAB1
 70
     6
  9
$SURFTAB2
 70
     6
  9
$SURFTYPE
 70
     6
  9
$SURFU
 70
     6
  9
$SURFV
 70
     6
  9
$UCSNAME
  2

  9
$UCSORG
 10
0.0
 20
0.0
 30
0.0
  9
$UCSXDIR
 10
1.0
 20
0.0
 30
0.0
  9
$UCSYDIR
 10
0.0
 20
1.0
 30
0.0
  9
$PUCSNAME
  2

  9
$PUCSORG
 10
0.0
 20
0.0
 30
0.0
  9
$PUCSXDIR
 10
1.0
 20
0.0
 30
0.0
  9
$PUCSYDIR
 10
0.0
 20
1.0
 30
0.0
  9
$USERI1
 70
     0
  9
$USERI2
 70
     0
  9
$USERI3
 70
     0
  9
$USERI4
 70
     0
  9
$USERI5
 70
     0
  9
$USERR1
 40
0.0
  9
$USERR2
 40
0.0
  9
$USERR3
 40
0.0
  9
$USERR4
 40
0.0
  9
$USERR5
 40
0.0
  9
$WORLDVIEW
 70
     1
  9
$SHADEDGE
 70
     3
  9
$SHADEDIF
 70
    70
  9
$TILEMODE
 70
     1
  9
$MAXACTVP
 70
    64
  9
$PLIMCHECK
 70
     0
  9
$PEXTMIN
 10
1.0000000000000000E+020
 20
1.0000000000000000E+020
 30
1.0000000000000000E+020
  9
$PEXTMAX
 10
-1.0000000000000000E+020
 20
-1.0000000000000000E+020
 30
-1.0000000000000000E+020
  9
$PLIMMIN
 10
0.0
 20
0.0
  9
$PLIMMAX
 10
420.0
 20
297.0
  9
$UNITMODE
 70
     0
  9
$VISRETAIN
 70
     1
  9
$PLINEGEN
 70
     0
  9
$PSLTSCALE
 70
     1
  0
ENDSEC
  0
SECTION
  2
TABLES
  0
TABLE
  2
VPORT
 70
     1
  0
VPORT
  2
*ACTIVE
 70
     0
 10
0.0
 20
0.0
 11
1.0
 21
1.0
 12
786.75520011438857
 22
848.08916143320778
 13
0.0
 23
0.0
 14
15.0
 24
15.0
 15
60.0
 25
60.0
 16
0.0
 26
0.0
 36
1.0
 17
0.0
 27
0.0
 37
0.0
 40
863.66230674198221
 41
1.7571592210767459
 42
50.0
 43
0.0
 44
0.0
 50
0.0
 51
0.0
 71
     0
 72
  1000
 73
     1
 74
     3
 75
     0
 76
     0
 77
     0
 78
     0
  0
ENDTAB
  0
TABLE
  2
LTYPE
 70
    24
  0
LTYPE
  2
CONTINUOUS
 70
     0
  3
Solid line
 72
    65
 73
     0
 40
0.0
  0
LTYPE
  2
CENTER
 70
     0
  3
Center ____ _ ____ _ ____ _ ____ _ ____ _ ____
 72
    65
 73
     4
 40
50.799999999999997
 49
31.75
 49
-6.3499999999999979
 49
6.3499999999999979
 49
-6.3499999999999979
  0
LTYPE
  2
AM_ISO02W050
 70
     0
  3
__ __ __ __ __ __ __ __ __ __ __ __ __ __ __
 72
    65
 73
     2
 40
7.5
 49
6.0
 49
-1.5
  0
LTYPE
  2
AM_ISO08W050
 70
     0
  3
____ . ____ . ____ . ____ . ____ . ____ . ____
 72
    65
 73
     4
 40
18.0
 49
12.0
 49
-1.5
 49
3.0
 49
-1.5
  0
LTYPE
  2
AM_ISO09W050
 70
     0
  3
_____ . . _____ . . _____ . . ____ .. ____
 72
    65
 73
     6
 40
22.5
 49
12.0
 49
-1.5
 49
3.0
 49
-1.5
 49
3.0
 49
-1.5
  0
LTYPE
  2
AMCONSTR
 70
     0
  3
_______________________
 72
    65
 73
     2
 40
9999.0
 49
9999.0
 49
0.0
  0
LTYPE
  2
AM_ISO08W050X2
 70
     0
  3
__ . __ . __ . __ . __ . __
 72
    65
 73
     4
 40
9.0
 49
6.0
 49
-0.75
 49
1.5
 49
-0.75
  0
LTYPE
  2
AM_ISO02W050X2
 70
     0
  3
 _ _ _ _ _ _ _ _ _ _ _ _
 72
    65
 73
     2
 40
3.75
 49
3.0
 49
-0.75
  0
LTYPE
  2
AMZIGZAG
 70
     0
  3
/\/-/\/-/\/-/\/-/\/-/\/
 72
    65
 73
     2
 40
11.0001
 49
0.0001
 49
-11.0
  0
LTYPE
  2
ACANSTGBM
 70
     0
  3
__ . . __ . .
 72
    65
 73
     6
 40
9.0
 49
4.0
 49
-1.0
 49
1.0
 49
-1.0
 49
1.0
 49
-1.0
  0
LTYPE
  2
ACANSTGLM
 70
     0
  3
_ _ _ _ _
 72
    65
 73
     2
 40
3.0
 49
2.0
 49
-1.0
  0
LTYPE
  2
ACISOWELD
 70
     0
  3
_ _ _ _ _
 72
    65
 73
     2
 40
2.0
 49
2.0
 49
-1.0
  0
LTYPE
  2
ACISOTGB
 70
     0
  3
__ . . __ . .
 72
    65
 73
     6
 40
9.0
 49
4.0
 49
-1.0
 49
1.0
 49
-1.0
 49
1.0
 49
-1.0
  0
LTYPE
  2
ACISOTGL
 70
     0
  3
_ _ _ _ _
 72
    65
 73
     2
 40
3.0
 49
2.0
 49
-1.0
  0
LTYPE
  2
ACJISTGB
 70
     0
  3
__ . . __ . .
 72
    65
 73
     6
 40
9.0
 49
4.0
 49
-1.0
 49
1.0
 49
-1.0
 49
1.0
 49
-1.0
  0
LTYPE
  2
ACJISTGL
 70
     0
  3
_ _ _ _ _
 72
    65
 73
     2
 40
3.0
 49
2.0
 49
-1.0
  0
LTYPE
  2
HIDDEN
 70
     0
  3
Hidden __ __ __ __ __ __ __ __ __ __ __ __ __ _
 72
    65
 73
     2
 40
9.5249999999999968
 49
6.3499999999999979
 49
-3.174999999999998
  0
LTYPE
  2
PHANTOM2
 70
     0
  3
Phantom (.5x) ___ _ _ ___ _ _ ___ _ _ ___ _ _
 72
    65
 73
     6
 40
31.75
 49
15.875
 49
-3.174999999999998
 49
3.174999999999998
 49
-3.174999999999998
 49
3.174999999999998
 49
-3.174999999999998
  0
LTYPE
  2
CENTER2
 70
     0
  3
Center (.5x) ___ _ ___ _ ___ _ ___ _ ___ _ ___
 72
    65
 73
     4
 40
1.125
 49
0.75
 49
-0.125
 49
0.125
 49
-0.125
  0
LTYPE
  2
HIDDEN2
 70
     0
  3
Hidden (.5x) _ _ _ _ _ _ _ _ _ _ _ _ _ _ _ _ _
 72
    65
 73
     2
 40
0.1875
 49
0.125
 49
-0.0625
  0
LTYPE
  2
AMZIGZAG2
 70
     0
  3
/\/-/\/-/\/-/\/-/\/-/\/
 72
    65
 73
     2
 40
0.4401
 49
0.0001
 49
-0.4400000000000002
  0
LTYPE
  2
ACANSTGB
 70
     0
  3
__ . . __ . .
 72
    65
 73
     6
 40
0.35433070866
 49
0.15748031496
 49
-0.03937007874
 49
0.03937007874
 49
-0.03937007874
 49
0.03937007874
 49
-0.03937007874
  0
LTYPE
  2
ACANSTGL
 70
     0
  3
_ _ _ _ _
 72
    65
 73
     2
 40
0.11811023622
 49
0.07874015748
 49
-0.03937007874
  0
ENDTAB
  0
TABLE
  2
LAYER
 70
     5
  0
LAYER
  2
0
 70
     0
 62
     7
  6
CONTINUOUS
  0
LAYER
  2
DEFPOINTS
 70
     0
 62
     7
  6
CONTINUOUS
  0
LAYER
  2
AM_0
 70
     0
 62
     7
  6
CONTINUOUS
  0
LAYER
  2
AM_5
 70
     0
 62
     2
  6
CONTINUOUS
  0
LAYER
  2
AM_CL
 70
     0
 62
     1
  6
AMCONSTR
  0
ENDTAB
  0
TABLE
  2
STYLE
 70
     8
  0
STYLE
  2
STANDARD
 70
     0
 40
0.0
 41
0.7400000000000003
 50
0.0
 71
     0
 42
2.5
  3
txt.shx
  4
bigfont.shx
  0
STYLE
  2

 70
     1
 40
0.0
 41
1.0
 50
0.0
 71
     0
 42
2.5
  3
ltypeshp.shx
  4

  0
STYLE
  2
ACANSTS
 70
     0
 40
1.0
 41
1.0
 50
0.0
 71
     0
 42
2.5
  3
romans.shx
  4
bigfont.shx
  0
STYLE
  2
ACANSGDT
 70
     0
 40
0.0
 41
1.0
 50
0.0
 71
     0
 42
2.5
  3
amgdtans.shx
  4

  0
STYLE
  2
ACISOTS
 70
     0
 40
1.0
 41
1.0
 50
0.0
 71
     0
 42
2.5
  3
isocp.shx
  4
extfont.shx
  0
STYLE
  2
ACISOGDT
 70
     0
 40
0.0
 41
1.0
 50
0.0
 71
     0
 42
2.5
  3
amgdt.shx
  4

  0
STYLE
  2
ACJISGDT
 70
     0
 40
0.0
 41
1.0
 50
0.0
 71
     0
 42
2.5
  3
amgdt.shx
  4

  0
STYLE
  2
ACJISTS
 70
     0
 40
1.0
 41
1.0
 50
0.0
 71
     0
 42
2.5
  3
isocp.shx
  4
extfont.shx
  0
ENDTAB
  0
TABLE
  2
VIEW
 70
     6
  0
VIEW
  2
AM_VIEW1
 70
     0
 40
555.00000000000011
 10
586.60142408753904
 20
832.49999940360885
 41
1173.202846975089
 11
0.0
 21
0.0
 31
1.0
 12
0.0
 22
0.0
 32
0.0
 42
50.0
 43
0.0
 44
0.0
 50
0.0
 71
     0
  0
VIEW
  2
AM_VIEW2
 70
     0
 40
555.00000000000011
 10
1120.3985771124501
 20
832.49999940360885
 41
1173.202846975089
 11
0.0
 21
0.0
 31
1.0
 12
0.0
 22
0.0
 32
0.0
 42
50.0
 43
0.0
 44
0.0
 50
0.0
 71
     0
  0
VIEW
  2
AM_VIEW3
 70
     0
 40
555.00000000000011
 10
586.60142408753904
 20
277.49999940360868
 41
1173.202846975089
 11
0.0
 21
0.0
 31
1.0
 12
0.0
 22
0.0
 32
0.0
 42
50.0
 43
0.0
 44
0.0
 50
0.0
 71
     0
  0
VIEW
  2
AM_VIEW4
 70
     0
 40
555.00000000000011
 10
1120.3985771124501
 20
277.49999940360868
 41
1173.202846975089
 11
0.0
 21
0.0
 31
1.0
 12
0.0
 22
0.0
 32
0.0
 42
50.0
 43
0.0
 44
0.0
 50
0.0
 71
     0
  0
VIEW
  2
AM_VIEW5
 70
     0
 40
555.00000000000011
 10
853.50000059999445
 20
554.99999940360874
 41
1173.202846975089
 11
0.0
 21
0.0
 31
1.0
 12
0.0
 22
0.0
 32
0.0
 42
50.0
 43
0.0
 44
0.0
 50
0.0
 71
     0
  0
VIEW
  2
AM_VIEW6
 70
     0
 40
1109.9889000000001
 10
853.50000059999445
 20
554.99999940360874
 41
2346.3822298932391
 11
0.0
 21
0.0
 31
1.0
 12
0.0
 22
0.0
 32
0.0
 42
50.0
 43
0.0
 44
0.0
 50
0.0
 71
     0
  0
ENDTAB
  0
TABLE
  2
UCS
 70
     0
  0
ENDTAB
  0
TABLE
  2
APPID
 70
   158
  0
APPID
  2
ACAD
 70
     0
  0
APPID
  2
ACADANNOTATIVE
 70
     0
  0
APPID
  2
ACAD_MLEADERVER
 70
     0
  0
APPID
  2
MCAD_NO_VIS
 70
     0
  0
APPID
  2
ACAD_TEMP_GRAPHIC
 70
     0
  0
APPID
  2
AD_DRAW
 70
     0
  0
APPID
  2
ACATTRIBSERVICES
 70
     0
  0
APPID
  2
DESIGNERASSEMBLIES
 70
     0
  0
APPID
  2
ACADM_DIM_EDIT
 70
     0
  0
APPID
  2
AMDT_DM_ADJ
 70
     0
  0
APPID
  2
GENIUS_GENDIMSH_14
 70
     0
  0
APPID
  2
GEVID1057795304
 70
     0
  0
APPID
  2
GEVDC
 70
     0
  0
APPID
  2
GEVCON
 70
     0
  0
APPID
  2
GENIUS_GENBH_13
 70
     0
  0
APPID
  2
GENIUS_GENOENT_13
 70
     0
  0
APPID
  2
GENIUS_GENOBJ-NBEHI-BHF_13
 70
     0
  0
APPID
  2
GENIUS_GENOLIS_13
 70
     0
  0
APPID
  2
GENIUS_GENODEF_13
 70
     0
  0
APPID
  2
GENIUS_GENOREF_13
 70
     0
  0
APPID
  2
GENIUS_GENOBJ-NBEHI-BHB_13
 70
     0
  0
APPID
  2
GENIUS_GENOBJ-F-SCPASSM_13
 70
     0
  0
APPID
  2
GENIUS_GENDTOL_13
 70
     0
  0
APPID
  2
GENIUS_GENTRA_14
 70
     0
  0
APPID
  2
ASURF_PCURVE_APPNAME
 70
     0
  0
APPID
  2
GENIUS_GENCFG_13
 70
     0
  0
APPID
  2
GENIUS_GE3CFG0_13
 70
     0
  0
APPID
  2
GENIUS_GENCFG0_13
 70
     0
  0
APPID
  2
GENIUS_GENCFG1_13
 70
     0
  0
APPID
  2
GENIUS_GENCFG2_13
 70
     0
  0
APPID
  2
GENIUS_GENCFG3_13
 70
     0
  0
APPID
  2
GENIUS_GENCFG4_13
 70
     0
  0
APPID
  2
GENIUS_GEVCFG0_13
 70
     0
  0
APPID
  2
GENIUS_GENOBJ-N-TIT_13
 70
     0
  0
APPID
  2
GENIUS_GENTITLE_13
 70
     0
  0
APPID
  2
GENIUS_GENSCREG_15
 70
     0
  0
APPID
  2
GENIUS_GENOBJ-N-SDF_13
 70
     0
  0
APPID
  2
GENIUS_GENFIL_13
 70
     0
  0
APPID
  2
GENIUS_GENOBJ-N-CHA_13
 70
     0
  0
APPID
  2
GENIUS_GEFSH_13
 70
     0
  0
APPID
  2
GENIUS_GENOBJ-F-SHS_13
 70
     0
  0
APPID
  2
GENIUS_GENOBJ-N-CEN_13
 70
     0
  0
APPID
  2
GENIUS_GENREC_14
 70
     0
  0
APPID
  2
GENIUS_GENOBJ-N-REC_13
 70
     0
  0
APPID
  2
GENIUS_GENOBJ-N-HTC_13
 70
     0
  0
APPID
  2
GENIUS_GENHATCH_13
 70
     0
  0
APPID
  2
ACAD_PSEXT
 70
     0
  0
APPID
  2
ACAD_EXEMPT_FROM_CAD_STANDARDS
 70
     0
  0
APPID
  2
ACAECLAYERSTANDARD
 70
     0
  0
APPID
  2
GENIUS_GENCEN_19
 70
     0
  0
APPID
  2
ACAD_DSTYLE_DIMINSPECT
 70
     0
  0
APPID
  2
ACAD_DSTYLE_DIMANGULAR_EXT
 70
     0
  0
APPID
  2
ACADANNOPO
 70
     0
  0
APPID
  2
ACAD_NAV_VCDISPLAY
 70
     0
  0
APPID
  2
GENIUS_GENOBJ-N-FIL_13
 70
     0
  0
APPID
  2
ACAD_DSTYLE_DIMBREAK
 70
     0
  0
APPID
  2
ACAD_DSTYLE_DIMJAG
 70
     0
  0
APPID
  2
ACAD_DSTYLE_DIMRADIAL_EXTENSION
 70
     0
  0
APPID
  2
GENIUS_GENHINW_13
 70
     0
  0
APPID
  2
GENIUS_FIRSTVISTXT_14
 70
     0
  0
APPID
  2
GENIUS_GENOBJ-N-LEADER_13
 70
     0
  0
APPID
  2
DCO15
 70
     0
  0
APPID
  2
GENIUS_DUMCFG0_13
 70
     0
  0
APPID
  2
ACAD_DSTYLE_DIMTEXT_FILL
 70
     0
  0
APPID
  2
AMG_2DHIDE
 70
     0
  0
APPID
  2
GENIUS_GEFSHEP_13
 70
     0
  0
APPID
  2
GENIUS_GENOBJ-F-SHE_13
 70
     0
  0
APPID
  2
GENIUS_GEFSHE_13
 70
     0
  0
APPID
  2
ACAD_DIMASSOC_DIMLFAC
 70
     0
  0
APPID
  2
ACAD_DIMASSOC_CALC_DIMLFAC
 70
     0
  0
APPID
  2
ACAD_DIMASSOC_OVERRIDDEN_D
 70
     0
  0
APPID
  2
GENIUS_GENOBJ-F-SHSV_13
 70
     0
  0
APPID
  2
GENIUS_GEFWELD_13
 70
     0
  0
APPID
  2
GENIUS_GENOBJ-N-CRS_13
 70
     0
  0
APPID
  2
GENIUS_GENOBJ-N-RSBK_13
 70
     0
  0
APPID
  2
GENIUS_GENOBJ-N-LIB_13
 70
     0
  0
APPID
  2
GENIUS_GENSCALE_13
 70
     0
  0
APPID
  2
GENIUS_GENDREL_13
 70
     0
  0
APPID
  2
GEVPT
 70
     0
  0
APPID
  2
GEVIT
 70
     0
  0
APPID
  2
VCC
 70
     0
  0
APPID
  2
GENBH
 70
     0
  0
APPID
  2
GEVMK
 70
     0
  0
APPID
  2
GENIUS_GENOBJ-F-DESC_13
 70
     0
  0
APPID
  2
GENIUS_GEFDESC_14
 70
     0
  0
APPID
  2
GENIUS_GENOBJ-F-FEAT_13
 70
     0
  0
APPID
  2
GENIUS_GEFFEAT_14
 70
     0
  0
APPID
  2
GENIUS_GEFPARTINS_13
 70
     0
  0
APPID
  2
GENIUS_GENSCREG_13
 70
     0
  0
APPID
  2
GENIUS_GEFSHP_13
 70
     0
  0
APPID
  2
GEVID1025574798
 70
     0
  0
APPID
  2
GEVID1025574769
 70
     0
  0
APPID
  2
GEVID1025757451
 70
     0
  0
APPID
  2
GEVID1240528327
 70
     0
  0
APPID
  2
AMG_2DSTRUCT_BTR
 70
     0
  0
APPID
  2
ACADM_2DVIEW_IGN_NOTIFY
 70
     0
  0
APPID
  2
GEVID1240528328
 70
     0
  0
APPID
  2
GEVID1240528329
 70
     0
  0
APPID
  2
GEVRADREF
 70
     0
  0
APPID
  2
GEVID1240528330
 70
     0
  0
APPID
  2
GEVID1240528331
 70
     0
  0
APPID
  2
GEVID1240528332
 70
     0
  0
APPID
  2
GEVID1240791080
 70
     0
  0
APPID
  2
GEVID1240791081
 70
     0
  0
APPID
  2
GEVID1240791082
 70
     0
  0
APPID
  2
GEVID1240791083
 70
     0
  0
APPID
  2
GEVID1240791084
 70
     0
  0
APPID
  2
GEVID1240791085
 70
     0
  0
APPID
  2
GEVID1240791086
 70
     0
  0
APPID
  2
GEVID1240791087
 70
     0
  0
APPID
  2
GEVID1240791088
 70
     0
  0
APPID
  2
GEVID1240791089
 70
     0
  0
APPID
  2
GEVID1240791090
 70
     0
  0
APPID
  2
GEVID1240791091
 70
     0
  0
APPID
  2
GEVID1240791092
 70
     0
  0
APPID
  2
GEVID1240791093
 70
     0
  0
APPID
  2
GEVID1240791094
 70
     0
  0
APPID
  2
GEVID1240791095
 70
     0
  0
APPID
  2
GEVID1240791096
 70
     0
  0
APPID
  2
GEVID1240791097
 70
     0
  0
APPID
  2
GEVID1240791098
 70
     0
  0
APPID
  2
GEVID1240791099
 70
     0
  0
APPID
  2
GEVID1240791100
 70
     0
  0
APPID
  2
GEVID1240791101
 70
     0
  0
APPID
  2
GEVID1240791102
 70
     0
  0
APPID
  2
GEVID1240791103
 70
     0
  0
APPID
  2
GEVID1240791104
 70
     0
  0
APPID
  2
GEVID1240791105
 70
     0
  0
APPID
  2
GEVID1240875381
 70
     0
  0
APPID
  2
GEVID1240875382
 70
     0
  0
APPID
  2
GEVID1240875383
 70
     0
  0
APPID
  2
GEVID1240875384
 70
     0
  0
APPID
  2
GEVID1240875385
 70
     0
  0
APPID
  2
GEVID1240875386
 70
     0
  0
APPID
  2
GEVID1240875387
 70
     0
  0
APPID
  2
GEVID1240875388
 70
     0
  0
APPID
  2
GEVID1240875389
 70
     0
  0
APPID
  2
GEVID1240875390
 70
     0
  0
APPID
  2
GEVID1240875391
 70
     0
  0
APPID
  2
GEVID1240875392
 70
     0
  0
APPID
  2
GEVID1240875393
 70
     0
  0
APPID
  2
GEVID1240875394
 70
     0
  0
APPID
  2
GEVID1240875395
 70
     0
  0
APPID
  2
GEVID1240875396
 70
     0
  0
APPID
  2
GEVID1240875397
 70
     0
  0
APPID
  2
GEVID1240875398
 70
     0
  0
APPID
  2
GEVID1240875399
 70
     0
  0
APPID
  2
GEVID1240908996
 70
     0
  0
APPID
  2
GEVID1240908997
 70
     0
  0
APPID
  2
GEVID1240908998
 70
     0
  0
APPID
  2
GEVID1240908999
 70
     0
  0
APPID
  2
GEVID1240909000
 70
     0
  0
APPID
  2
GENIUS_GENOBJ-N-ZOO_13
 70
     0
  0
APPID
  2
GENIUS_GENZOO_17
 70
     0
  0
APPID
  2
GENIUS_GE3SECT_13
 70
     0
  0
APPID
  2
GEV_VCCNULL_SWITCH_OFF
 70
     0
  0
APPID
  2
ACAD_DSTYLE_DIMTALN
 70
     0
  0
APPID
  2
CONTENTBLOCKDESCRIPTION
 70
     0
  0
ENDTAB
  0
TABLE
  2
DIMSTYLE
 70
    22
  0
DIMSTYLE
  2
AM_ANSI
 70
     0
  3

  4
"
  5

  6

  7

 40
1.0
 41
2.5
 42
1.0
 43
10.0
 44
1.0
 45
0.0
 46
0.0
 47
0.1
 48
0.1
140
3.5
141
0.0
142
0.0
143
0.0393701
144
1.0
145
0.0
146
0.71
147
1.5
 71
     0
 72
     0
 73
     1
 74
     1
 75
     0
 76
     0
 77
     0
 78
     8
170
     0
171
     2
172
     0
173
     0
174
     0
175
     0
176
     2
177
     2
178
     4
  0
DIMSTYLE
  2
AM_ANSI$3
 70
     0
  3

  4
"
  5

  6

  7

 40
1.0
 41
2.5
 42
1.0
 43
10.0
 44
1.0
 45
0.0
 46
0.0
 47
0.1
 48
0.1
140
3.5
141
0.0
142
0.0
143
0.0393701
144
1.0
145
0.0
146
0.71
147
1.5
 71
     0
 72
     0
 73
     1
 74
     1
 75
     0
 76
     0
 77
     0
 78
     8
170
     0
171
     2
172
     0
173
     0
174
     0
175
     0
176
     2
177
     2
178
     4
  0
DIMSTYLE
  2
AM_ANSI$4
 70
     0
  3

  4
"
  5

  6

  7

 40
1.0
 41
2.5
 42
1.0
 43
10.0
 44
1.0
 45
0.0
 46
0.0
 47
0.1
 48
0.1
140
3.5
141
0.0
142
0.0
143
0.0393701
144
1.0
145
0.0
146
0.71
147
1.5
 71
     0
 72
     0
 73
     1
 74
     1
 75
     0
 76
     0
 77
     0
 78
     8
170
     0
171
     2
172
     0
173
     0
174
     0
175
     0
176
     2
177
     2
178
     4
  0
DIMSTYLE
  2
AM_ANSI$7
 70
     0
  3

  4
"
  5

  6

  7

 40
1.0
 41
2.5
 42
1.0
 43
10.0
 44
1.0
 45
0.0
 46
0.0
 47
0.1
 48
0.1
140
5.0
141
0.0
142
0.0
143
0.0393701
144
1.0
145
0.0
146
0.71
147
1.5
 71
     0
 72
     0
 73
     1
 74
     1
 75
     0
 76
     0
 77
     0
 78
     8
170
     0
171
     2
172
     0
173
     0
174
     0
175
     0
176
     2
177
     2
178
     4
  0
DIMSTYLE
  2
AM_ANSI$SF
 70
     0
  3

  4
"
  5

  6

  7

 40
1.0
 41
2.5
 42
1.0
 43
10.0
 44
1.0
 45
0.0
 46
0.0
 47
0.1
 48
0.1
140
3.5
141
0.0
142
0.0
143
0.0393701
144
1.0
145
0.0
146
0.71
147
1.5
 71
     0
 72
     0
 73
     1
 74
     1
 75
     1
 76
     1
 77
     0
 78
     8
170
     0
171
     2
172
     0
173
     0
174
     0
175
     0
176
     2
177
     2
178
     4
  0
DIMSTYLE
  2
AM_ANSI$SH
 70
     0
  3

  4
"
  5

  6
GENAXEH
  7

 40
1.0
 41
2.5
 42
1.0
 43
10.0
 44
1.0
 45
0.0
 46
0.0
 47
0.1
 48
0.1
140
3.5
141
0.0
142
0.0
143
0.0393701
144
1.0
145
0.0
146
0.71
147
1.5
 71
     0
 72
     0
 73
     1
 74
     1
 75
     1
 76
     1
 77
     0
 78
     8
170
     0
171
     2
172
     0
173
     1
174
     0
175
     0
176
     2
177
     2
178
     4
  0
DIMSTYLE
  2
AM_ISO
 70
     0
  3

  4
"
  5

  6

  7

 40
1.0
 41
2.5
 42
1.0
 43
10.0
 44
1.0
 45
0.0
 46
0.0
 47
0.1
 48
0.1
140
3.5
141
0.0
142
0.0
143
0.0393701
144
1.0
145
0.0
146
0.71
147
1.5
 71
     0
 72
     0
 73
     0
 74
     0
 75
     0
 76
     0
 77
     1
 78
     8
170
     0
171
     2
172
     1
173
     0
174
     0
175
     0
176
   256
177
   256
178
     2
  0
DIMSTYLE
  2
AM_ISO$3
 70
     0
  3

  4
"
  5

  6

  7

 40
1.0
 41
2.5
 42
1.0
 43
10.0
 44
1.0
 45
0.0
 46
0.0
 47
0.1
 48
0.1
140
3.5
141
0.0
142
0.0
143
0.0393701
144
1.0
145
0.0
146
0.71
147
1.5
 71
     0
 72
     0
 73
     0
 74
     1
 75
     0
 76
     0
 77
     1
 78
     8
170
     0
171
     2
172
     0
173
     0
174
     0
175
     0
176
   256
177
   256
178
     2
  0
DIMSTYLE
  2
AM_ISO$4
 70
     0
  3

  4
"
  5

  6

  7

 40
1.0
 41
2.5
 42
1.0
 43
10.0
 44
1.0
 45
0.0
 46
0.0
 47
0.1
 48
0.1
140
3.5
141
0.0
142
0.0
143
0.0393701
144
1.0
145
0.0
146
0.71
147
1.5
 71
     0
 72
     0
 73
     0
 74
     1
 75
     0
 76
     0
 77
     1
 78
     8
170
     0
171
     2
172
     0
173
     0
174
     0
175
     0
176
   256
177
   256
178
     2
  0
DIMSTYLE
  2
AM_ISO$6
 70
     0
  3

  4
"
  5

  6

  7

 40
1.0
 41
2.5
 42
1.0
 43
10.0
 44
1.0
 45
0.0
 46
0.0
 47
0.1
 48
0.1
140
3.5
141
0.0
142
0.0
143
0.0393701
144
1.0
145
0.0
146
0.71
147
1.5
 71
     0
 72
     0
 73
     0
 74
     0
 75
     0
 76
     0
 77
     0
 78
     8
170
     0
171
     2
172
     1
173
     0
174
     0
175
     0
176
   256
177
   256
178
     2
  0
DIMSTYLE
  2
AM_ISO$7
 70
     0
  3

  4
"
  5

  6

  7

 40
1.0
 41
2.5
 42
1.0
 43
10.0
 44
1.0
 45
0.0
 46
0.0
 47
0.1
 48
0.1
140
5.0
141
0.0
142
0.0
143
0.0393701
144
1.0
145
0.0
146
0.71
147
1.5
 71
     0
 72
     0
 73
     0
 74
     0
 75
     0
 76
     0
 77
     1
 78
     8
170
     0
171
     2
172
     1
173
     0
174
     0
175
     0
176
   256
177
   256
178
     2
  0
DIMSTYLE
  2
AM_ISO$SF
 70
     0
  3

  4
"
  5

  6

  7

 40
1.0
 41
2.5
 42
1.0
 43
10.0
 44
1.0
 45
0.0
 46
0.0
 47
0.1
 48
0.1
140
3.5
141
0.0
142
0.0
143
0.0393701
144
1.0
145
0.0
146
0.71
147
1.5
 71
     0
 72
     0
 73
     0
 74
     0
 75
     1
 76
     1
 77
     1
 78
     8
170
     0
171
     2
172
     1
173
     0
174
     0
175
     0
176
   256
177
   256
178
     2
  0
DIMSTYLE
  2
AM_ISO$SH
 70
     0
  3

  4
"
  5

  6
GENAXEH
  7

 40
1.0
 41
2.5
 42
1.0
 43
10.0
 44
1.0
 45
0.0
 46
0.0
 47
0.1
 48
0.1
140
3.5
141
0.0
142
0.0
143
0.0393701
144
2.0
145
0.0
146
0.71
147
1.5
 71
     0
 72
     0
 73
     0
 74
     0
 75
     1
 76
     1
 77
     1
 78
     8
170
     0
171
     2
172
     1
173
     1
174
     0
175
     0
176
   256
177
   256
178
     2
  0
DIMSTYLE
  2
AM_JIS
 70
     0
  3

  4
"
  5

  6

  7

 40
1.0
 41
2.0
 42
1.0
 43
8.0
 44
1.0
 45
0.0
 46
0.0
 47
0.1
 48
0.1
140
2.5
141
0.0
142
0.0
143
0.0393701
144
1.0
145
0.0
146
0.71
147
1.5
 71
     0
 72
     0
 73
     0
 74
     0
 75
     0
 76
     0
 77
     3
 78
     8
170
     0
171
     2
172
     1
173
     0
174
     0
175
     0
176
     2
177
     2
178
     4
  0
DIMSTYLE
  2
AM_JIS$3
 70
     0
  3

  4
"
  5

  6

  7

 40
1.0
 41
2.0
 42
1.0
 43
10.0
 44
1.0
 45
0.0
 46
0.0
 47
0.1
 48
0.1
140
2.5
141
0.0
142
0.0
143
0.0393701
144
1.0
145
0.0
146
0.71
147
1.5
 71
     0
 72
     0
 73
     0
 74
     1
 75
     0
 76
     0
 77
     3
 78
     8
170
     0
171
     2
172
     0
173
     0
174
     0
175
     0
176
     2
177
     2
178
     4
  0
DIMSTYLE
  2
AM_JIS$4
 70
     0
  3

  4
"
  5

  6

  7

 40
1.0
 41
2.0
 42
1.0
 43
10.0
 44
1.0
 45
0.0
 46
0.0
 47
0.1
 48
0.1
140
2.5
141
0.0
142
0.0
143
0.0393701
144
1.0
145
0.0
146
0.71
147
1.5
 71
     0
 72
     0
 73
     0
 74
     0
 75
     0
 76
     0
 77
     3
 78
     8
170
     0
171
     2
172
     0
173
     0
174
     0
175
     0
176
     2
177
     2
178
     4
  0
DIMSTYLE
  2
AM_JIS$6
 70
     0
  3

  4
"
  5

  6

  7

 40
1.0
 41
2.0
 42
1.0
 43
10.0
 44
1.0
 45
0.0
 46
0.0
 47
0.1
 48
0.1
140
2.5
141
0.0
142
0.0
143
0.0393701
144
1.0
145
0.0
146
0.71
147
1.5
 71
     0
 72
     0
 73
     0
 74
     0
 75
     0
 76
     0
 77
     0
 78
     8
170
     0
171
     2
172
     1
173
     0
174
     0
175
     0
176
     2
177
     2
178
     4
  0
DIMSTYLE
  2
AM_JIS$7
 70
     0
  3

  4
"
  5

  6
OPEN30
  7
OPEN30
 40
1.0
 41
2.0
 42
1.0
 43
10.0
 44
1.0
 45
0.0
 46
0.0
 47
0.1
 48
0.1
140
2.5
141
0.0
142
0.0
143
0.0393701
144
1.0
145
0.0
146
0.71
147
1.5
 71
     0
 72
     0
 73
     0
 74
     0
 75
     0
 76
     0
 77
     3
 78
     8
170
     0
171
     2
172
     1
173
     0
174
     0
175
     0
176
     2
177
     2
178
     4
  0
DIMSTYLE
  2
AM_JIS$SF
 70
     0
  3

  4
"
  5

  6

  7

 40
1.0
 41
2.0
 42
1.0
 43
10.0
 44
1.0
 45
0.0
 46
0.0
 47
0.1
 48
0.1
140
2.5
141
0.0
142
0.0
143
0.0393701
144
1.0
145
0.0
146
0.71
147
1.5
 71
     0
 72
     0
 73
     0
 74
     0
 75
     1
 76
     1
 77
     3
 78
     8
170
     0
171
     2
172
     1
173
     0
174
     0
175
     0
176
     2
177
     2
178
     4
  0
DIMSTYLE
  2
AM_JIS$SH
 70
     0
  3

  4
"
  5

  6
GENAXEH
  7

 40
1.0
 41
2.0
 42
1.0
 43
10.0
 44
1.0
 45
0.0
 46
0.0
 47
0.1
 48
0.1
140
2.5
141
0.0
142
0.0
143
0.0393701
144
2.0
145
0.0
146
0.71
147
1.5
 71
     0
 72
     0
 73
     0
 74
     0
 75
     1
 76
     1
 77
     3
 78
     8
170
     0
171
     2
172
     1
173
     1
174
     0
175
     0
176
     2
177
     2
178
     4
  0
DIMSTYLE
  2
AM_JIS$0
 70
     0
  3

  4
"
  5

  6

  7

 40
1.0
 41
2.0
 42
1.0
 43
8.0
 44
1.0
 45
0.0
 46
0.0
 47
0.1
 48
0.1
140
2.5
141
0.0
142
0.0
143
0.0393701
144
1.0
145
0.0
146
0.71
147
1.5
 71
     0
 72
     0
 73
     0
 74
     0
 75
     0
 76
     0
 77
     3
 78
     8
170
     0
171
     2
172
     1
173
     0
174
     0
175
     0
176
     2
177
     2
178
     4
  0
DIMSTYLE
  2
STANDARD
 70
     0
  3

  4

  5

  6

  7

 40
1.0
 41
0.18
 42
0.0625
 43
0.38
 44
0.18
 45
0.0
 46
0.0
 47
0.0
 48
0.0
140
0.18
141
0.09
142
0.0
143
25.399999999999999
144
1.0
145
0.0
146
1.0
147
0.09
 71
     0
 72
     0
 73
     1
 74
     1
 75
     0
 76
     0
 77
     0
 78
     0
170
     0
171
     2
172
     0
173
     0
174
     0
175
     0
176
     0
177
     0
178
     0
  0
ENDTAB
  0
ENDSEC
  0
SECTION
  2
BLOCKS
  0
BLOCK
  8
0
  2
$MODEL_SPACE
 70
     0
 10
0.0
 20
0.0
 30
0.0
  3
$MODEL_SPACE
  1

  0
ENDBLK
  5
77
  8
0
  0
BLOCK
 67
     1
  8
0
  2
$PAPER_SPACE
 70
     0
 10
0.0
 20
0.0
 30
0.0
  3
$PAPER_SPACE
  1

  0
ENDBLK
  5
73
 67
     1
  8
0
  0
BLOCK
  8
0
  2
GENAXEH
 70
     0
 10
0.0
 20
0.0
 30
0.0
  3
GENAXEH
  1

  0
LINE
  5
D8CF
  8
0
 10
-1.0
 20
0.0
 30
0.0
 11
1.0
 21
0.0
 31
0.0
  0
ENDBLK
  5
D8D0
  8
0
  0
BLOCK
  8
0
  6
BYBLOCK
 62
     0
  2
$6-45
 70
     0
 10
0.0
 20
0.0
 30
0.0
  3
$6-45
  1

  0
ARC
  5
B2DD
  8
0
  6
CONTINUOUS
 62
     0
 10
-2.6499939999999902
 20
2.800201000000015
 30
0.0
 40
2.6003989999999999
 50
89.999982000000799
 51
179.99997799999841
  0
ARC
  5
B2DE
  8
0
  6
CONTINUOUS
 62
     0
 10
2.6499939999999902
 20
2.800201000000015
 30
0.0
 40
2.600403
 50
0.0
 51
89.999982000000799
  0
LINE
  5
B2DF
  8
0
  6
CONTINUOUS
 62
     0
 10
0.0660249999999678
 20
0.0
 30
0.0
 11
-0.7999999999999548
 21
1.5
 31
0.0
  0
LINE
  5
B2E0
  8
0
  6
CONTINUOUS
 62
     0
 10
1.0660249999999669
 20
0.0
 30
0.0
 11
0.2000000000000455
 21
1.5
 31
0.0
  0
LINE
  5
B2E1
  8
0
  6
CONTINUOUS
 62
     0
 10
6.1000000000000218
 20
0.0
 30
0.0
 11
-6.1000000000000218
 21
0.0
 31
0.0
  0
LINE
  5
B2E2
  8
0
  6
CONTINUOUS
 62
     0
 10
6.1000000000000218
 20
1.5
 30
0.0
 11
6.1000000000000218
 21
0.0
 31
0.0
  0
LINE
  5
B2E3
  8
0
  6
CONTINUOUS
 62
     0
 10
-6.1000000000000218
 20
1.5
 30
0.0
 11
-6.1000000000000218
 21
0.0
 31
0.0
  0
LINE
  5
B2E4
  8
0
  6
CONTINUOUS
 62
     0
 10
2.6499939999999902
 20
5.3999939999999906
 30
0.0
 11
-2.6499939999999902
 21
5.3999939999999906
 31
0.0
  0
LINE
  5
B2E5
  8
0
  6
CONTINUOUS
 62
     0
 10
6.1000000000000218
 20
1.5
 30
0.0
 11
-6.1000000000000218
 21
1.5
 31
0.0
  0
LINE
  5
B2E6
  8
0
  6
CONTINUOUS
 62
     0
 10
-5.25
 20
1.5
 30
0.0
 11
-5.25
 21
2.800201000000015
 31
0.0
  0
LINE
  5
B2E7
  8
0
  6
CONTINUOUS
 62
     0
 10
5.25
 20
1.5
 30
0.0
 11
5.25
 21
2.800201000000015
 31
0.0
  0
ENDBLK
  5
B2E8
  8
0
  6
BYBLOCK
 62
     0
  0
BLOCK
  8
0
  2
_OPEN30
 70
     0
 10
0.0
 20
0.0
 30
0.0
  3
_OPEN30
  1

  0
LINE
  5
D916
  8
0
  6
BYBLOCK
 62
     0
 10
-1.0
 20
0.26794919
 30
0.0
 11
0.0
 21
0.0
 31
0.0
  0
LINE
  5
D917
  8
0
  6
BYBLOCK
 62
     0
 10
0.0
 20
0.0
 30
0.0
 11
-1.0
 21
-0.26794919
 31
0.0
  0
LINE
  5
D918
  8
0
  6
BYBLOCK
 62
     0
 10
0.0
 20
0.0
 30
0.0
 11
-1.0
 21
0.0
 31
0.0
  0
ENDBLK
  5
D919
  8
0
  0
BLOCK
  8
0
  2
*D4
 70
     1
 10
0.0
 20
0.0
 30
0.0
  3
*D4
  1

  0
LINE
  5
D95F
  8
AM_5
 62
     2
 10
943.72842914217631
 20
672.39063362709908
 30
0.0
 11
943.72842914217631
 21
785.56590384326978
 31
0.0
  0
LINE
  5
D960
  8
AM_5
 62
     2
 10
148.22837914217601
 20
598.19895872007874
 30
0.0
 11
148.22837914217601
 21
785.56590384326978
 31
0.0
  0
LINE
  5
D961
  8
AM_5
 62
     2
 10
941.72842914217631
 20
784.56590384327001
 30
0.0
 11
150.22837914217601
 21
784.56590384327001
 31
0.0
  0
SOLID
  5
D962
  8
AM_5
 62
     2
 10
941.72842914217631
 20
784.89923717660326
 30
0.0
 11
941.72842914217631
 21
784.23257050993664
 31
0.0
 12
943.72842914217631
 22
784.56590384327001
 32
0.0
 13
943.72842914217631
 23
784.56590384327001
 33
0.0
  0
SOLID
  5
D963
  8
AM_5
 62
     2
 10
150.22837914217601
 20
784.89923717660326
 30
0.0
 11
150.22837914217601
 21
784.23257050993664
 31
0.0
 12
148.22837914217601
 22
784.56590384327001
 32
0.0
 13
148.22837914217601
 23
784.56590384327001
 33
0.0
  0
INSERT
  5
D964
  8
0
  2
*U8
 10
0.0
 20
0.0
 30
0.0
  0
POINT
  5
D965
  8
DEFPOINTS
 62
     0
 10
943.72842914217631
 20
671.39063362709919
 30
0.0
  0
POINT
  5
D966
  8
DEFPOINTS
 62
     0
 10
148.22837914217601
 20
597.19895872007874
 30
0.0
  0
POINT
  5
D967
  8
DEFPOINTS
 62
     0
 10
148.22837914217601
 20
784.56590384327001
 30
0.0
  0
ENDBLK
  5
D941
  8
0
  0
BLOCK
  8
0
  2
_ACMFILLEDHALF
 70
     0
 10
0.0
 20
0.0
 30
0.0
  3
_ACMFILLEDHALF
  1

  0
TRACE
  5
D9D8
  8
AM_0
 62
     0
 10
-0.8
 20
0.0
 30
0.0
 11
-1.0
 21
0.166666666
 31
0.0
 12
0.0
 22
0.0
 32
0.0
 13
0.0
 23
0.0
 33
0.0
  0
LINE
  5
D9D9
  8
AM_0
 62
     0
 10
-1.0
 20
0.0
 30
0.0
 11
-0.8
 21
0.0
 31
0.0
  0
ENDBLK
  5
D9DA
  8
0
  0
BLOCK
  8
0
  2
*U8
 70
     1
 10
0.0
 20
0.0
 30
0.0
  3
*U8
  1

  0
TEXT
  5
DA75
  8
AM_5
 62
     4
 10
543.51173747550945
 20
786.06590384326967
 30
0.0
 40
2.5
  1
796
 41
0.7400000000000003
  0
ENDBLK
  5
DA77
  8
0
  0
ENDSEC
  0
SECTION
  2
ENTITIES
  0
LINE
  5
9CBF
  8
0
 10
943.72842914217631
 20
687.69517088288683
 30
0.0
 11
943.72842914217631
 21
623.69515088288654
 31
0.0
  0
LINE
  5
9CFD
  8
0
 10
555.72842914217563
 20
485.69514588288661
 30
0.0
 11
566.72837914217575
 21
485.69514588288661
 31
0.0
  0
LINE
  5
9CFE
  8
0
 10
555.72842914217563
 20
725.69517088288683
 30
0.0
 11
566.72837914217575
 21
725.69517088288683
 31
0.0
  0
LINE
  5
9D01
  8
0
 10
568.72837914217587
 20
723.69517088288615
 30
0.0
 11
568.72837914217587
 21
487.69518088288658
 31
0.0
  0
LINE
  5
9D03
  8
0
 10
555.72842914217563
 20
725.69517088288683
 30
0.0
 11
555.72842914217563
 21
485.69514588288661
 31
0.0
  0
LINE
  5
9D0C
  8
0
 10
528.72837914217575
 20
705.42237088288607
 30
0.0
 11
568.72837914217587
 21
705.42237088288607
 31
0.0
  0
LINE
  5
9D0D
  8
0
 10
526.72837914217598
 20
689.8659708828867
 30
0.0
 11
568.72837914217587
 21
689.8659708828867
 31
0.0
  0
LINE
  5
9D0E
  8
0
 10
526.72837914217598
 20
521.52428088288661
 30
0.0
 11
568.72837914217587
 21
521.52428088288661
 31
0.0
  0
LINE
  5
9D0F
  8
0
 10
528.72837914217575
 20
505.96794588288662
 30
0.0
 11
568.72837914217587
 21
505.96794588288662
 31
0.0
  0
LINE
  5
9D14
  8
0
 10
539.72842914217563
 20
681.69177088288632
 30
0.0
 11
568.72837914217587
 21
681.69177088288632
 31
0.0
  0
LINE
  5
9D15
  8
0
 10
539.72842914217563
 20
529.69850588288625
 30
0.0
 11
568.72837914217587
 21
529.69850588288625
 31
0.0
  0
LINE
  5
9D1E
  8
0
 10
540.72842914217563
 20
725.69517088288683
 30
0.0
 11
555.72842914217563
 21
725.69517088288683
 31
0.0
  0
LINE
  5
9D1F
  8
0
 10
519.55387914217681
 20
484.43193588288619
 30
0.0
 11
555.72842914217563
 21
485.69518088288658
 31
0.0
  0
LINE
  5
9D20
  8
0
 10
514.72842914217563
 20
502.96794588288623
 30
0.0
 11
514.72837919217454
 21
463.19514211523659
 31
0.0
  0
LINE
  5
9D21
  8
0
 10
526.72837914217598
 20
507.96794588288623
 30
0.0
 11
526.72837914217598
 21
537.69847588288656
 31
0.0
  0
LINE
  5
9D22
  8
0
 10
475.22837914217592
 20
630.19518088288658
 30
0.0
 11
489.83312914217538
 21
630.70519088288665
 31
0.0
  0
LINE
  5
9D23
  8
0
 10
475.22837914217592
 20
460.19517588288659
 30
0.0
 11
511.72837914217592
 21
460.19517588288659
 31
0.0
  0
LINE
  5
9D24
  8
0
 10
508.72837914217598
 20
545.19518088288669
 30
0.0
 11
508.72837914217598
 21
681.17847088288659
 31
0.0
  0
LINE
  5
9D25
  8
0
 10
492.72837914217598
 20
630.95873550760609
 30
0.0
 11
492.72837914217598
 21
652.69518088288669
 31
0.0
  0
LINE
  5
9D26
  8
0
 10
495.72837914217592
 20
655.69515088288654
 30
0.0
 11
505.72837914217598
 21
655.69515088288654
 31
0.0
  0
LINE
  5
9D27
  8
0
 10
509.39832914217709
 20
683.6784708828867
 30
0.0
 11
525.19247914217613
 21
711.03492088288624
 31
0.0
  0
LINE
  5
9D28
  8
0
 10
492.72837914217598
 20
630.43237088288652
 30
0.0
 11
507.98662914217579
 21
630.43237088288652
 31
0.0
  0
LINE
  5
9D29
  8
0
 10
537.72837914217575
 20
722.69517088288615
 30
0.0
 11
537.72837914217575
 21
705.42237088288607
 31
0.0
  0
LINE
  5
9D2A
  8
0
 10
527.79057914217515
 20
712.53492088288669
 30
0.0
 11
534.72842914217563
 21
712.53492088288669
 31
0.0
  0
LINE
  5
9D2B
  8
0
 10
537.72837914217575
 20
679.69182088288653
 30
0.0
 11
537.72837914217575
 21
531.69850588288625
 31
0.0
  0
LINE
  5
9D2C
  8
0
 10
526.72837914217598
 20
673.69177088288632
 30
0.0
 11
526.72837914217598
 21
703.42237088288618
 31
0.0
  0
ARC
  5
9D68
  8
0
 10
566.72837914217575
 20
723.69517088288615
 30
0.0
 40
2.0000000500000001
 50
0.0
 51
90.000002999984659
  0
ARC
  5
9D69
  8
0
 10
566.72837914217575
 20
487.69518088288658
 30
0.0
 40
2.0000000500000001
 50
270.0
 51
0.0
  0
ARC
  5
9D6B
  8
0
 10
570.72842914217563
 20
491.69514588288661
 30
0.0
 40
2.0000000500000001
 50
90.000002999984659
 51
180.00001000000091
  0
ARC
  5
9D6C
  8
0
 10
570.72842914217563
 20
719.69517088288615
 30
0.0
 40
2.0000000500000001
 50
179.999989999999
 51
270.0
  0
ARC
  5
9D80
  8
0
 10
519.72842914217654
 20
479.43498588288668
 30
0.0
 40
5.0
 50
91.999997999994051
 51
180.00001000000091
  0
ARC
  5
9D81
  8
0
 10
495.72837914217592
 20
652.69518088288669
 30
0.0
 40
3.0000000500000001
 50
90.000002999984659
 51
180.00001000000091
  0
ARC
  5
9D82
  8
0
 10
505.72837914217598
 20
658.69515088288654
 30
0.0
 40
3.0000000500000001
 50
270.0
 51
0.0
  0
ARC
  5
9D83
  8
0
 10
511.72837914217592
 20
463.19514588288661
 30
0.0
 40
3.0000000500000001
 50
270.0
 51
0.2885557991143159
  0
ARC
  5
9D84
  8
0
 10
513.72837914217598
 20
681.17847088288659
 30
0.0
 40
5.0
 50
149.9999999999807
 51
180.00001000000091
  0
ARC
  5
9D85
  8
0
 10
489.72852914217651
 20
633.70333088288623
 30
0.0
 40
3.0000000500000001
 50
272.00000000000369
 51
0.0
  0
ARC
  5
9D86
  8
0
 10
489.72852914217651
 20
630.92873088288673
 30
0.0
 40
3.0000000500000001
 50
270.0
 51
0.5730556653541667
  0
ARC
  5
9D87
  8
0
 10
540.72842914217563
 20
722.69517088288615
 30
0.0
 40
3.0000000500000001
 50
90.000002999984659
 51
180.00001000000091
  0
ARC
  5
9D88
  8
0
 10
528.72837914217575
 20
703.42237088288618
 30
0.0
 40
2.0000000500000001
 50
90.000002999984659
 51
180.00001000000091
  0
ARC
  5
9D89
  8
0
 10
534.72842914217563
 20
715.53487088288682
 30
0.0
 40
3.0000000500000001
 50
270.0
 51
0.0
  0
ARC
  5
9D8A
  8
0
 10
527.79057914217515
 20
709.53487088288625
 30
0.0
 40
3.0000000500000001
 50
90.000002999984659
 51
149.9999999999807
  0
ARC
  5
9D8B
  8
0
 10
517.72837914217598
 20
502.96794588288623
 30
0.0
 40
3.0000000500000001
 50
90.000002999984659
 51
180.00001000000091
  0
ARC
  5
9D8C
  8
0
 10
528.72837914217575
 20
507.96794588288623
 30
0.0
 40
2.0000000500000001
 50
179.999989999999
 51
270.0
  0
ARC
  5
9D8D
  8
0
 10
539.72842914217563
 20
679.69182088288653
 30
0.0
 40
2.0000000500000001
 50
90.000002999984659
 51
180.00001000000091
  0
ARC
  5
9D8E
  8
0
 10
524.72842914217654
 20
673.69177088288632
 30
0.0
 40
2.0000000500000001
 50
270.0
 51
0.0
  0
ARC
  5
9D8F
  8
0
 10
524.72842914217654
 20
537.69847588288656
 30
0.0
 40
2.0000000500000001
 50
0.0
 51
90.000002999984659
  0
ARC
  5
9D90
  8
0
 10
539.72842914217563
 20
531.69850588288625
 30
0.0
 40
2.0000000500000001
 50
179.999989999999
 51
270.0
  0
LINE
  5
9DA1
  8
0
  6
AM_ISO08W050
 10
946.66742914217548
 20
653.69515088288654
 30
0.0
 11
596.47908744252322
 21
653.69515088288654
 31
0.0
  0
LINE
  5
9DA8
  8
0
  6
AM_ISO08W050
 10
133.22033486031791
 20
545.19518088288669
 30
0.0
 11
609.5727297483927
 21
545.19518088288669
 31
0.0
  0
LINE
  5
B52F
  8
0
 10
475.22837914217592
 20
460.1951808828868
 30
0.0
 11
475.22837914217592
 21
630.19518088288658
 31
0.0
  0
LINE
  5
C068
  8
0
 10
262.7283791421761
 20
479.45062604691122
 30
0.0
 11
262.72837914217598
 21
458.19511988288667
 31
0.0
  0
LINE
  5
C069
  8
0
 10
368.22837914217598
 20
490.78435288288659
 30
0.0
 11
368.22837914217598
 21
470.79940288288662
 31
0.0
  0
LINE
  5
C06A
  8
0
 10
409.22837914217598
 20
541.25831688288667
 30
0.0
 11
422.7583791421759
 21
541.25831688288667
 31
0.0
  0
LINE
  5
C06B
  8
0
 10
252.298379142176
 20
541.25831688288667
 30
0.0
 11
265.22837914217598
 21
541.25831688288667
 31
0.0
  0
LINE
  5
C06C
  8
0
 10
258.72837914217598
 20
534.69831688288662
 30
0.0
 11
258.72837914217598
 21
547.9683168828866
 31
0.0
  0
LINE
  5
C06D
  8
0
 10
403.22837914217592
 20
598.13831688288656
 30
0.0
 11
271.22837914217598
 21
598.13831688288656
 31
0.0
  0
LINE
  5
C06E
  8
0
 10
265.22837914217598
 20
592.13831688288656
 30
0.0
 11
265.22837914217598
 21
491.05831688288669
 31
0.0
  0
LINE
  5
C06F
  8
0
 10
409.22837914217598
 20
592.13831688288656
 30
0.0
 11
409.22837914217598
 21
491.05831688288669
 31
0.0
  0
LINE
  5
C070
  8
0
 10
271.22837914217598
 20
485.05831688288657
 30
0.0
 11
403.22837914217592
 21
485.05831688288657
 31
0.0
  0
LINE
  5
C071
  8
0
 10
415.74786314217579
 20
563.58522988288655
 30
0.0
 11
415.72837914217592
 21
592.15831688288665
 31
0.0
  0
LINE
  5
C072
  8
0
 10
403.22837914217592
 20
604.63831688288656
 30
0.0
 11
271.22837914217598
 21
604.63831688288656
 31
0.0
  0
LINE
  5
C073
  8
0
 10
258.72837914217598
 20
563.61831688288669
 30
0.0
 11
258.72837914217598
 21
592.13831688288656
 31
0.0
  0
LINE
  5
C074
  8
0
 10
258.72837914217598
 20
518.88831688288667
 30
0.0
 11
258.72837914217598
 21
488.61831688288657
 31
0.0
  0
LINE
  5
C075
  8
0
 10
415.72837914217592
 20
518.88831688288667
 30
0.0
 11
415.72837914217592
 21
488.61831688288657
 31
0.0
  0
LINE
  5
C076
  8
0
 10
271.22837914217598
 20
476.11831688288657
 30
0.0
 11
403.22837914217592
 21
476.11831688288657
 31
0.0
  0
ARC
  5
C077
  8
0
 10
430.7299411421759
 20
518.89727488288668
 30
0.0
 40
15.001564999999999
 50
131.81297400000079
 51
180.03421299999579
  0
ARC
  5
C078
  8
0
 10
403.2278671421758
 20
592.1378048828866
 30
0.0
 40
6.0005119999999996
 50
0.0048859999974049
 51
89.995114000002559
  0
ARC
  5
C079
  8
0
 10
271.226886142176
 20
592.13980988288665
 30
0.0
 40
5.998507
 50
89.985740000000476
 51
180.0142599999995
  0
ARC
  5
C07A
  8
0
 10
271.22587514217588
 20
491.05581288288658
 30
0.0
 40
5.9974970000000001
 50
179.9760820000013
 51
270.02391799999867
  0
ARC
  5
C07B
  8
0
 10
403.22887814217592
 20
491.05781788288658
 30
0.0
 40
5.9995010000000004
 50
269.99523699999969
 51
0.0047630000002228
  0
ARC
  5
C07C
  8
0
 10
243.72944414217599
 20
563.61818088288658
 30
0.0
 40
14.998934999999999
 50
311.8084959999992
 51
0.0005210000016347
  0
ARC
  5
C07D
  8
0
 10
243.726267142176
 20
518.88957288288668
 30
0.0
 40
15.007673
 50
358.4401929999994
 51
48.205064000001038
  0
ARC
  5
C07E
  8
0
 10
250.22532614217599
 20
514.46100788288663
 30
0.0
 40
15.003053
 50
359.98972200000082
 51
63.249136000002181
  0
ARC
  5
C07F
  8
0
 10
250.22801414217599
 20
568.0439708828867
 30
0.0
 40
15.000365
 50
296.74454000000122
 51
0.0166020000037755
  0
ARC
  5
C080
  8
0
 10
263.72637514217593
 20
541.25331688288668
 30
0.0
 40
14.998716
 50
116.7375830000023
 51
243.2624169999977
  0
ARC
  5
C081
  8
0
 10
424.22852514217578
 20
514.46279788288655
 30
0.0
 40
15.000147
 50
116.74402700000201
 51
180.01711599999811
  0
ARC
  5
C082
  8
0
 10
424.22583614217592
 20
568.04218088288656
 30
0.0
 40
14.997458999999999
 50
179.97655699999851
 51
243.26230100000319
  0
ARC
  5
C083
  8
0
 10
410.72637414217598
 20
541.25331688288668
 30
0.0
 40
15.00052
 50
296.75125799999751
 51
63.248742000002501
  0
ARC
  5
C084
  8
0
 10
403.225378142176
 20
592.13529488288657
 30
0.0
 40
12.503022
 50
0.1054989999989078
 51
89.986247999999051
  0
ARC
  5
C085
  8
0
 10
271.226886142176
 20
592.13980988288665
 30
0.0
 40
12.498507
 50
89.993155999999715
 51
180.0068440000002
  0
ARC
  5
C086
  8
0
 10
271.22387514217598
 20
488.61381288288658
 30
0.0
 40
12.495497
 50
179.97934999999549
 51
270.020649999998
  0
ARC
  5
C087
  8
0
 10
403.23087814217592
 20
488.61581788288657
 30
0.0
 40
12.497502000000001
 50
269.98854500000192
 51
0.0114549999980713
  0
ARC
  5
C088
  8
0
 10
430.74785914217591
 20
563.59545888288665
 30
0.0
 40
15.0
 50
180.03906999999671
 51
228.13549799999799
  0
LINE
  5
C089
  8
0
 10
420.18525514217578
 20
594.38018088288663
 30
0.0
 11
420.18525514217578
 21
574.01518088288663
 31
0.0
  0
LINE
  5
C08A
  8
0
 10
436.22837814217581
 20
594.38018088288663
 30
0.0
 11
436.22837814217581
 21
574.01518088288663
 31
0.0
  0
LINE
  5
C08B
  8
0
 10
450.77777414217599
 20
489.17438488288661
 30
0.0
 11
436.22837814217581
 21
489.17438488288661
 31
0.0
  0
LINE
  5
C08C
  8
0
 10
455.72837914217598
 20
500.58673488288662
 30
0.0
 11
436.22837814217581
 21
500.58673488288662
 31
0.0
  0
LINE
  5
C08D
  8
0
 10
420.93377614217587
 20
493.88947488288659
 30
0.0
 11
436.22837914217581
 21
489.17438488288661
 31
0.0
  0
LINE
  5
C08E
  8
0
 10
436.22837914217581
 20
500.58673488288662
 30
0.0
 11
421.19243814217572
 21
500.04598388288667
 31
0.0
  0
ARC
  5
C08F
  8
0
 10
421.22837914217592
 20
499.04662988288658
 30
0.0
 40
1.0
 50
92.059690999997201
 51
180.0
  0
ARC
  5
C090
  8
0
 10
421.22837914217592
 20
494.8450948828866
 30
0.0
 40
1.0
 50
180.0
 51
252.8662750000021
  0
LINE
  5
C091
  8
0
 10
436.22837914217581
 20
621.04796788288672
 30
0.0
 11
420.92792014217559
 21
616.22810188288656
 31
0.0
  0
ARC
  5
C092
  8
0
 10
421.22837914217592
 20
615.27430688288678
 30
0.0
 40
1.0
 50
107.485179
 51
180.0
  0
ARC
  5
C093
  8
0
 10
421.22837914217592
 20
612.92324188288671
 30
0.0
 40
1.0
 50
180.0
 51
270.0
  0
LINE
  5
C094
  8
0
 10
421.27693414217589
 20
611.92442088288669
 30
0.0
 11
436.22837914217581
 21
612.65124088288655
 31
0.0
  0
LINE
  5
C095
  8
0
 10
455.72837914217598
 20
612.65124088288655
 30
0.0
 11
436.22837914217581
 21
612.65124088288655
 31
0.0
  0
LINE
  5
C096
  8
0
 10
379.22837914217598
 20
643.48167388288675
 30
0.0
 11
466.67556414217592
 21
643.48167388288675
 31
0.0
  0
ARC
  5
C097
  8
0
 10
290.492624142176
 20
641.48167388288675
 30
0.0
 40
2.0
 50
90.0
 51
156.10179999999909
  0
ARC
  5
C098
  8
0
 10
466.67556414217592
 20
641.48167388288675
 30
0.0
 40
2.0
 50
10.000001999998901
 51
90.0
  0
LINE
  5
C099
  8
0
 10
470.22837914217592
 20
632.85019788288673
 30
0.0
 11
468.645179142176
 21
641.82897088288655
 31
0.0
  0
LINE
  5
C09A
  8
0
 10
469.96757114217593
 20
632.85019788288673
 30
0.0
 11
470.22837914217592
 21
632.85019788288673
 31
0.0
  0
ARC
  5
C09B
  8
0
 10
275.55959414217602
 20
640.2918998828867
 30
0.0
 40
2.0
 50
90.0
 51
169.99999800000111
  0
LINE
  5
C09C
  8
0
 10
271.22837914217598
 20
627.24589688288665
 30
0.0
 11
273.58997914217588
 21
640.63919688288672
 31
0.0
  0
ARC
  5
C09D
  8
0
 10
466.62454514217592
 20
640.2918998828867
 30
0.0
 40
2.0
 50
10.000001999998901
 51
90.0
  0
LINE
  5
C09E
  8
0
 10
470.22837914217592
 20
631.37107988288665
 30
0.0
 11
468.59416014217589
 21
640.63919688288672
 31
0.0
  0
LINE
  5
C09F
  8
0
 10
271.22837914217598
 20
627.24589688288665
 30
0.0
 11
271.79628514217598
 21
627.24589688288665
 31
0.0
  0
LINE
  5
C0A0
  8
0
 10
469.69240814217602
 20
631.37107988288665
 30
0.0
 11
470.22837914217592
 21
631.37107988288665
 31
0.0
  0
ARC
  5
C0A1
  8
0
 10
466.53869014217599
 20
637.73916588288671
 30
0.0
 40
2.0
 50
10.00000100000252
 51
90.0
  0
ARC
  5
C0A2
  8
0
 10
275.67738514217592
 20
637.73916588288671
 30
0.0
 40
2.0
 50
90.0
 51
169.9999989999975
  0
LINE
  5
C0A3
  8
0
 10
271.22837914217598
 20
624.02514088288672
 30
0.0
 11
273.70776914217601
 21
638.08646188288662
 31
0.0
  0
ARC
  5
C0A4
  8
0
 10
275.85852614217589
 20
633.77398088288669
 30
0.0
 40
2.0
 50
90.0
 51
170.00000000000139
  0
LINE
  5
C0A5
  8
0
 10
271.22837914217598
 20
619.03265588288673
 30
0.0
 11
273.88891014217597
 21
634.12127688288672
 31
0.0
  0
ARC
  5
C0A6
  8
0
 10
276.139754142176
 20
628.19655288288675
 30
0.0
 40
2.0
 50
90.0
 51
170.00000000000139
  0
LINE
  5
C0A7
  8
0
 10
271.22837914217598
 20
611.86030388288657
 30
0.0
 11
274.17013814217592
 21
628.54384988288678
 31
0.0
  0
ARC
  5
C0A8
  8
0
 10
276.23501814217587
 20
622.19588588288661
 30
0.0
 40
2.0
 50
90.0
 51
169.9999989999975
  0
LINE
  5
C0A9
  8
0
 10
271.22837914217598
 20
605.3193678828867
 30
0.0
 11
274.26540214217607
 21
622.54318188288664
 31
0.0
  0
LINE
  5
C0AA
  8
0
 10
470.10012014217591
 20
629.0588298828867
 30
0.0
 11
468.5083051421758
 21
638.08646188288662
 31
0.0
  0
LINE
  5
C0AB
  8
0
 10
271.22837914217598
 20
624.02514088288672
 30
0.0
 11
272.10868914217599
 21
624.02514088288672
 31
0.0
  0
ARC
  5
C0AC
  8
0
 10
466.40931214217602
 20
633.77398088288669
 30
0.0
 40
2.0
 50
9.9999999999986073
 51
90.0
  0
LINE
  5
C0AD
  8
0
 10
469.27157414217601
 20
629.0588298828867
 30
0.0
 11
468.37892814217582
 21
634.12127688288672
 31
0.0
  0
ARC
  5
C0AE
  8
0
 10
401.61739714217589
 20
628.19655288288675
 30
0.0
 40
2.0
 50
5.5986529999986434
 51
90.0
  0
ARC
  5
C0AF
  8
0
 10
401.61544214217588
 20
622.19588588288661
 30
0.0
 40
2.0
 50
5.4290190000020546
 51
90.0
  0
LINE
  5
C0B0
  8
0
 10
472.22837914217598
 20
505.47247488288662
 30
0.0
 11
472.22837914217598
 21
607.26111388288655
 31
0.0
  0
LINE
  5
C0B1
  8
0
 10
472.22837914217598
 20
629.0588298828867
 30
0.0
 11
472.22837914217598
 21
633.19518088288669
 31
0.0
  0
LINE
  5
C0B2
  8
0
 10
420.18525514217578
 20
619.03265588288673
 30
0.0
 11
436.22837814217581
 21
623.63251788288676
 31
0.0
  0
LINE
  5
C0B3
  8
0
 10
404.5252941421756
 20
619.03265588288673
 30
0.0
 11
420.18525514217578
 21
619.03265588288673
 31
0.0
  0
LINE
  5
C0B4
  8
0
 10
436.22837814217581
 20
623.63251788288676
 30
0.0
 11
450.92166214217559
 21
623.63251788288676
 31
0.0
  0
INSERT
  5
C0B5
  8
0
  2
$6-45
 10
455.72837914217598
 20
619.32844088288675
 30
0.0
 50
90.0
  0
INSERT
  5
C0B6
  8
0
  2
$6-45
 10
455.72837914217598
 20
493.2865138828866
 30
0.0
 50
90.0
  0
LINE
  5
C0B7
  8
0
 10
231.22837914217601
 20
548.19518088288658
 30
0.0
 11
163.236847142176
 21
548.19518088288658
 31
0.0
  0
LINE
  5
C0B8
  8
0
 10
470.16754914217597
 20
633.19518088288669
 30
0.0
 11
472.22837914217598
 21
633.19518088288669
 31
0.0
  0
LINE
  5
C0B9
  8
0
 10
275.85852614217589
 20
635.77398088288669
 30
0.0
 11
466.40931214217602
 21
635.77398088288669
 31
0.0
  0
LINE
  5
C0BA
  8
0
 10
275.67738514217592
 20
639.7391658828866
 30
0.0
 11
466.53869014217599
 21
639.7391658828866
 31
0.0
  0
LINE
  5
C0BB
  8
0
 10
275.55959414217602
 20
642.29189988288658
 30
0.0
 11
466.62454514217592
 21
642.29189988288658
 31
0.0
  0
LINE
  5
C0BC
  8
0
 10
262.72837914217598
 20
638.69518088288658
 30
0.0
 11
273.24719714217599
 21
638.69518088288658
 31
0.0
  0
LINE
  5
C0BD
  8
0
 10
290.492624142176
 20
643.48167388288675
 30
0.0
 11
357.22837914217598
 21
643.48167388288675
 31
0.0
  0
LINE
  5
C0BE
  8
0
 10
436.22837814217581
 20
602.35518088288654
 30
0.0
 11
436.22837814217581
 21
597.01018088288674
 31
0.0
  0
LINE
  5
C0BF
  8
0
 10
420.18525514217578
 20
602.35518088288654
 30
0.0
 11
420.18525514217578
 21
597.01018088288674
 31
0.0
  0
LINE
  5
C0C0
  8
0
 10
436.22837814217581
 20
612.65124088288655
 30
0.0
 11
436.22837814217581
 21
605.0551808828867
 31
0.0
  0
LINE
  5
C0C1
  8
0
 10
436.22837814217581
 20
621.04796788288672
 30
0.0
 11
450.32838514217599
 21
621.04796788288672
 31
0.0
  0
LINE
  5
C0C2
  8
0
 10
271.22837914217598
 20
605.3193678828867
 30
0.0
 11
405.22837914217598
 21
605.3193678828867
 31
0.0
  0
LINE
  5
C0C3
  8
0
 10
404.55075214217578
 20
611.86030388288657
 30
0.0
 11
405.22837914217598
 21
611.86030388288657
 31
0.0
  0
LINE
  5
C0C4
  8
0
 10
276.23501814217587
 20
624.19588588288661
 30
0.0
 11
401.61544214217588
 21
624.19588588288661
 31
0.0
  0
LINE
  5
C0C5
  8
0
 10
271.22837914217598
 20
611.86030388288657
 30
0.0
 11
272.38172214217587
 21
611.86030388288657
 31
0.0
  0
LINE
  5
C0C6
  8
0
 10
276.139754142176
 20
630.19655288288675
 30
0.0
 11
401.61739714217589
 21
630.19655288288675
 31
0.0
  0
LINE
  5
C0C7
  8
0
 10
472.22837914217598
 20
607.26111388288655
 30
0.0
 11
475.22837914217592
 21
605.52906288288671
 31
0.0
  0
ARC
  5
C0C8
  8
0
 10
454.72837914217598
 20
608.26111388288655
 30
0.0
 40
1.0
 50
270.0
 51
0.0
  0
ARC
  5
C0C9
  8
0
 10
457.72837914217592
 20
627.0588298828867
 30
0.0
 40
2.0
 50
90.0
 51
180.0
  0
ARC
  5
C0CA
  8
0
 10
457.72837914217592
 20
622.93482488288657
 30
0.0
 40
2.0
 50
180.0
 51
270.0
  0
ARC
  5
C0CB
  8
0
 10
457.72837914217592
 20
618.93482488288657
 30
0.0
 40
2.0
 50
90.0
 51
180.0
  0
LINE
  5
C0CC
  8
0
 10
457.72837914217592
 20
629.0588298828867
 30
0.0
 11
475.22837914217592
 21
629.0588298828867
 31
0.0
  0
LINE
  5
C0CD
  8
0
 10
455.72837914217598
 20
607.26111388288655
 30
0.0
 11
472.22837914217598
 21
607.26111388288655
 31
0.0
  0
LINE
  5
C0CE
  8
0
 10
457.72837914217592
 20
620.93482488288669
 30
0.0
 11
475.22837914217592
 21
620.93482488288669
 31
0.0
  0
LINE
  5
C0CF
  8
0
 10
455.72837914217598
 20
608.26111388288655
 30
0.0
 11
455.72837914217598
 21
627.0588298828867
 31
0.0
  0
LINE
  5
C0D0
  8
0
 10
271.22837914217598
 20
461.19518088288658
 30
0.0
 11
262.7283791421761
 21
461.19518088288658
 31
0.0
  0
LINE
  5
C0D1
  8
0
 10
272.05257414217601
 20
476.11831688288657
 30
0.0
 11
272.82112114217603
 21
467.77092488288662
 31
0.0
  0
LINE
  5
C0D2
  8
0
 10
271.22837914217598
 20
471.35770588288671
 30
0.0
 11
271.91115614217603
 21
471.35770588288671
 31
0.0
  0
LINE
  5
C0D3
  8
0
 10
271.22837914217598
 20
466.3652208828866
 30
0.0
 11
271.75289214217588
 21
466.3652208828866
 31
0.0
  0
LINE
  5
C0D4
  8
0
 10
271.22837914217598
 20
463.14446488288672
 30
0.0
 11
271.58832114217603
 21
463.14446488288672
 31
0.0
  0
LINE
  5
C0D5
  8
0
 10
271.18160214217608
 20
461.57488388288658
 30
0.0
 11
271.4119931421759
 21
461.57488388288658
 31
0.0
  0
LINE
  5
C0D6
  8
0
 10
271.45796614217602
 20
476.11831688288657
 30
0.0
 11
272.81603114217592
 21
461.85228388288658
 31
0.0
  0
LINE
  5
C0D7
  8
0
 10
271.22837914217598
 20
471.35770588288671
 30
0.0
 11
272.80021214217589
 21
456.3964948828866
 31
0.0
  0
LINE
  5
C0D8
  8
0
 10
271.22837914217598
 20
466.3652208828866
 30
0.0
 11
272.78969014217603
 21
452.3946298828867
 31
0.0
  0
LINE
  5
C0D9
  8
0
 10
271.22837914217598
 20
463.14446488288672
 30
0.0
 11
272.78159814217599
 21
449.8671368828866
 31
0.0
  0
LINE
  5
C0DA
  8
0
 10
271.18160214217608
 20
461.57488388288658
 30
0.0
 11
272.772118142176
 21
448.66414988288659
 31
0.0
  0
ARC
  5
C0DB
  8
0
 10
274.81269714217592
 20
467.9542898828866
 30
0.0
 40
2.0
 50
185.26041100000501
 51
270.0
  0
ARC
  5
C0DC
  8
0
 10
274.80702914217602
 20
462.04181888288667
 30
0.0
 40
2.0
 50
185.4379219999999
 51
270.0
  0
ARC
  5
C0DD
  8
0
 10
274.78926514217602
 20
456.60546588288668
 30
0.0
 40
2.0
 50
185.99752600000051
 51
270.0
  0
ARC
  5
C0DE
  8
0
 10
274.77731614217601
 20
452.61676088288658
 30
0.0
 40
2.0
 50
186.37674200000069
 51
270.0
  0
ARC
  5
C0DF
  8
0
 10
274.76805214217597
 20
450.09951788288657
 30
0.0
 40
2.0
 50
186.67229399999829
 51
270.0
  0
ARC
  5
C0E0
  8
0
 10
274.75711214217603
 20
448.90868788288662
 30
0.0
 40
2.0
 50
187.0230689999963
 51
270.0
  0
LINE
  5
C0E1
  8
0
 10
470.22837914217592
 20
560.37518088288664
 30
0.0
 11
468.46837914217582
 21
560.92518088288671
 31
0.0
  0
LINE
  5
C0E2
  8
0
 10
470.22837914217592
 20
563.01518088288663
 30
0.0
 11
470.22837914217592
 21
560.37518088288664
 31
0.0
  0
LINE
  5
C0E3
  8
0
 10
468.46837914217582
 20
562.52518088288662
 30
0.0
 11
470.22837914217592
 21
563.01518088288663
 31
0.0
  0
LINE
  5
C0E4
  8
0
 10
468.46837914217582
 20
562.52518088288662
 30
0.0
 11
468.46837914217582
 21
560.92518088288671
 31
0.0
  0
LINE
  5
C0E5
  8
0
 10
470.22837914217592
 20
549.37518088288664
 30
0.0
 11
468.46837914217582
 21
549.92518088288671
 31
0.0
  0
LINE
  5
C0E6
  8
0
 10
470.22837914217592
 20
552.01518088288663
 30
0.0
 11
470.22837914217592
 21
549.37518088288664
 31
0.0
  0
LINE
  5
C0E7
  8
0
 10
468.46837914217582
 20
551.52518088288662
 30
0.0
 11
470.22837914217592
 21
552.01518088288663
 31
0.0
  0
LINE
  5
C0E8
  8
0
 10
468.46837914217582
 20
551.52518088288662
 30
0.0
 11
468.46837914217582
 21
549.92518088288671
 31
0.0
  0
LINE
  5
C0E9
  8
0
 10
470.22837914217592
 20
538.37518088288675
 30
0.0
 11
468.46837914217582
 21
538.92518088288659
 31
0.0
  0
LINE
  5
C0EA
  8
0
 10
470.22837914217592
 20
541.01518088288663
 30
0.0
 11
470.22837914217592
 21
538.37518088288675
 31
0.0
  0
LINE
  5
C0EB
  8
0
 10
468.46837914217582
 20
540.5251808828865
 30
0.0
 11
470.22837914217592
 21
541.01518088288663
 31
0.0
  0
LINE
  5
C0EC
  8
0
 10
468.46837914217582
 20
540.5251808828865
 30
0.0
 11
468.46837914217582
 21
538.92518088288659
 31
0.0
  0
LINE
  5
C0ED
  8
0
 10
470.22837914217592
 20
527.37518088288664
 30
0.0
 11
468.46837914217582
 21
527.92518088288671
 31
0.0
  0
LINE
  5
C0EE
  8
0
 10
470.22837914217592
 20
530.01518088288663
 30
0.0
 11
470.22837914217592
 21
527.37518088288664
 31
0.0
  0
LINE
  5
C0EF
  8
0
 10
468.46837914217582
 20
529.52518088288662
 30
0.0
 11
470.22837914217592
 21
530.01518088288663
 31
0.0
  0
LINE
  5
C0F0
  8
0
 10
468.46837914217582
 20
529.52518088288662
 30
0.0
 11
468.46837914217582
 21
527.92518088288671
 31
0.0
  0
LINE
  5
C0F1
  8
0
 10
469.64004814217589
 20
458.68590088288659
 30
0.0
 11
468.60841914217599
 21
449.86713988288659
 31
0.0
  0
LINE
  5
C0F2
  8
0
 10
468.57316214217587
 20
452.3943338828866
 30
0.0
 11
469.62811914217599
 21
461.8213208828866
 31
0.0
  0
LINE
  5
C0F3
  8
0
 10
468.60023214217591
 20
456.3951898828866
 30
0.0
 11
469.6991441421759
 21
466.78936388288662
 31
0.0
  0
LINE
  5
C0F4
  8
0
 10
469.75008514217592
 20
473.32598388288659
 30
0.0
 11
468.624804142176
 21
461.84669988288658
 31
0.0
  0
LINE
  5
C0F5
  8
0
 10
469.79125214217601
 20
480.73572588288658
 30
0.0
 11
468.5585351421758
 21
467.76506488288658
 31
0.0
  0
LINE
  5
C0F6
  8
0
 10
469.70017114217592
 20
457.54957288288659
 30
0.0
 11
468.62813814217589
 21
448.66899488288658
 31
0.0
  0
LINE
  5
C0F7
  8
0
 10
468.46837914217582
 20
518.52518088288662
 30
0.0
 11
468.46837914217582
 21
516.92518088288671
 31
0.0
  0
LINE
  5
C0F8
  8
0
 10
468.46837914217582
 20
518.52518088288662
 30
0.0
 11
470.22837914217592
 21
519.01518088288663
 31
0.0
  0
LINE
  5
C0F9
  8
0
 10
470.22837914217592
 20
519.01518088288663
 30
0.0
 11
470.22837914217592
 21
516.37518088288664
 31
0.0
  0
LINE
  5
C0FA
  8
0
 10
470.22837914217592
 20
516.37518088288664
 30
0.0
 11
468.46837914217582
 21
516.92518088288671
 31
0.0
  0
LINE
  5
C0FB
  8
0
 10
468.46837914217582
 20
573.52518088288673
 30
0.0
 11
468.46837914217582
 21
571.92518088288659
 31
0.0
  0
LINE
  5
C0FC
  8
0
 10
468.46837914217582
 20
573.52518088288673
 30
0.0
 11
470.22837914217592
 21
574.01518088288663
 31
0.0
  0
LINE
  5
C0FD
  8
0
 10
470.22837914217592
 20
574.01518088288663
 30
0.0
 11
470.22837914217592
 21
571.37518088288675
 31
0.0
  0
LINE
  5
C0FE
  8
0
 10
470.22837914217592
 20
571.37518088288675
 30
0.0
 11
468.46837914217582
 21
571.92518088288659
 31
0.0
  0
LINE
  5
C0FF
  8
0
 10
420.18525514217578
 20
571.37518088288675
 30
0.0
 11
420.18525514217578
 21
563.01518088288663
 31
0.0
  0
LINE
  5
C100
  8
0
 10
436.22837814217581
 20
571.37518088288675
 30
0.0
 11
436.22837814217581
 21
563.01518088288663
 31
0.0
  0
LINE
  5
C101
  8
0
 10
436.22837814217581
 20
560.37518088288664
 30
0.0
 11
436.22837814217581
 21
552.01518088288663
 31
0.0
  0
LINE
  5
C102
  8
0
 10
420.18525514217578
 20
560.37518088288664
 30
0.0
 11
420.18525514217578
 21
552.89570388288655
 31
0.0
  0
LINE
  5
C103
  8
0
 10
436.22837814217581
 20
549.37518088288664
 30
0.0
 11
436.22837814217581
 21
541.01518088288663
 31
0.0
  0
LINE
  5
C104
  8
0
 10
436.22837814217581
 20
538.37518088288675
 30
0.0
 11
436.22837814217581
 21
530.01518088288663
 31
0.0
  0
LINE
  5
C105
  8
0
 10
420.18525514217578
 20
527.37518088288664
 30
0.0
 11
420.18525514217578
 21
519.01518088288663
 31
0.0
  0
LINE
  5
C106
  8
0
 10
436.22837814217581
 20
527.37518088288664
 30
0.0
 11
436.22837814217581
 21
519.01518088288663
 31
0.0
  0
LINE
  5
C107
  8
0
 10
436.22837814217581
 20
516.37518088288664
 30
0.0
 11
436.22837814217581
 21
500.58673488288662
 31
0.0
  0
LINE
  5
C108
  8
0
 10
420.18525514217578
 20
516.37518088288664
 30
0.0
 11
420.18525514217578
 21
485.07011188288658
 31
0.0
  0
LINE
  5
C109
  8
0
 10
469.79125214217601
 20
480.73572588288658
 30
0.0
 11
436.22837814217581
 21
480.73572588288658
 31
0.0
  0
LINE
  5
C10A
  8
0
 10
469.75008514217592
 20
473.32598388288659
 30
0.0
 11
469.08703914217602
 21
473.32598388288659
 31
0.0
  0
ARC
  5
C10B
  8
0
 10
466.567507142176
 20
467.9542898828866
 30
0.0
 40
2.0
 50
270.0
 51
354.57098099999791
  0
ARC
  5
C10C
  8
0
 10
466.63434514217579
 20
462.04181888288667
 30
0.0
 40
2.0
 50
270.0
 51
354.40134700000141
  0
ARC
  5
C10D
  8
0
 10
466.61131714217578
 20
456.60546588288668
 30
0.0
 40
2.0
 50
270.0
 51
353.96488600000072
  0
ARC
  5
C10E
  8
0
 10
466.58556914217598
 20
452.61676088288658
 30
0.0
 40
2.0
 50
270.0
 51
353.61470099999991
  0
ARC
  5
C10F
  8
0
 10
466.6219651421759
 20
450.09951788288657
 30
0.0
 40
2.0
 50
270.0
 51
353.32779999999769
  0
ARC
  5
C110
  8
0
 10
466.64255414217598
 20
448.90868788288662
 30
0.0
 40
2.0
 50
270.0
 51
353.11676000000102
  0
LINE
  5
C111
  8
0
 10
469.6991441421759
 20
466.78936388288662
 30
0.0
 11
469.10931914217559
 21
466.78936388288662
 31
0.0
  0
LINE
  5
C112
  8
0
 10
469.62811914217599
 20
461.8213208828866
 30
0.0
 11
469.1739041421759
 21
461.8213208828866
 31
0.0
  0
LINE
  5
C113
  8
0
 10
469.64004814217589
 20
458.68590088288659
 30
0.0
 11
469.27724014217591
 21
458.68590088288659
 31
0.0
  0
LINE
  5
C114
  8
0
 10
469.70017114217592
 20
457.54957288288659
 30
0.0
 11
469.50711914217578
 21
457.54957288288659
 31
0.0
  0
LINE
  5
C115
  8
0
 10
472.22837914217598
 20
505.47247488288662
 30
0.0
 11
455.72837914217598
 21
505.47247488288662
 31
0.0
  0
LINE
  5
C116
  8
0
 10
475.22837914217592
 20
495.29318288288658
 30
0.0
 11
457.72837914217592
 21
495.29318288288658
 31
0.0
  0
LINE
  5
C117
  8
0
 10
475.22837914217592
 20
483.00590188288658
 30
0.0
 11
457.72837914217592
 21
483.00590188288658
 31
0.0
  0
LINE
  5
C118
  8
0
 10
455.72837914217598
 20
504.47247488288662
 30
0.0
 11
455.72837914217598
 21
485.00590188288658
 31
0.0
  0
LINE
  5
C119
  8
0
 10
472.22837914217598
 20
505.47247488288662
 30
0.0
 11
475.22837914217592
 21
507.20452588288663
 31
0.0
  0
ARC
  5
C11A
  8
0
 10
457.72837914217592
 20
497.29318288288658
 30
0.0
 40
2.0
 50
180.0
 51
270.0
  0
ARC
  5
C11B
  8
0
 10
457.72837914217592
 20
485.00590188288658
 30
0.0
 40
2.0
 50
180.0
 51
270.0
  0
ARC
  5
C11C
  8
0
 10
457.72837914217592
 20
493.29318288288658
 30
0.0
 40
2.0
 50
90.0
 51
180.0
  0
LINE
  5
C11D
  8
0
 10
436.22837814217581
 20
489.17438488288661
 30
0.0
 11
436.22837814217581
 21
480.73572588288658
 31
0.0
  0
LINE
  5
C11E
  8
0
 10
420.18525514217578
 20
485.07011188288658
 30
0.0
 11
436.22837814217581
 21
480.73572588288658
 31
0.0
  0
ARC
  5
C11F
  8
0
 10
454.72837914217598
 20
504.47247488288662
 30
0.0
 40
1.0
 50
0.0
 51
90.0
  0
LINE
  5
C120
  8
0
 10
420.18525514217578
 20
485.07011188288658
 30
0.0
 11
415.21484814217592
 21
485.07011188288658
 31
0.0
  0
LINE
  5
C121
  8
0
 10
466.64255414217598
 20
446.90868788288668
 30
0.0
 11
274.75711214217603
 21
446.90868788288668
 31
0.0
  0
LINE
  5
C122
  8
0
 10
466.6219651421759
 20
448.09951788288657
 30
0.0
 11
274.76805214217597
 21
448.09951788288657
 31
0.0
  0
LINE
  5
C123
  8
0
 10
466.58556914217598
 20
450.61676088288658
 30
0.0
 11
274.77731614217601
 21
450.61676088288658
 31
0.0
  0
LINE
  5
C124
  8
0
 10
466.61131714217578
 20
454.60546588288651
 30
0.0
 11
274.78926514217602
 21
454.60546588288651
 31
0.0
  0
LINE
  5
C125
  8
0
 10
466.63434514217579
 20
460.04181888288662
 30
0.0
 11
274.80702914217602
 21
460.04181888288662
 31
0.0
  0
LINE
  5
C126
  8
0
 10
466.567507142176
 20
465.9542898828866
 30
0.0
 11
274.81269714217592
 21
465.9542898828866
 31
0.0
  0
LINE
  5
C127
  8
0
 10
420.18525514217578
 20
619.03265588288673
 30
0.0
 11
420.18525514217578
 21
605.0551808828867
 31
0.0
  0
LINE
  5
C128
  8
0
 10
436.22837814217581
 20
623.63251788288676
 30
0.0
 11
436.22837814217581
 21
621.04796788288672
 31
0.0
  0
LINE
  5
C129
  8
0
 10
415.7407511421759
 20
574.01518088288663
 30
0.0
 11
470.22837914217592
 21
574.01518088288663
 31
0.0
  0
LINE
  5
C12A
  8
0
 10
415.7410851421759
 20
573.52518088288673
 30
0.0
 11
468.46837914217582
 21
573.52518088288673
 31
0.0
  0
LINE
  5
C12B
  8
0
 10
415.74217614217571
 20
571.92518088288659
 30
0.0
 11
468.46837914217582
 21
571.92518088288659
 31
0.0
  0
LINE
  5
C12C
  8
0
 10
415.7425511421759
 20
571.37518088288675
 30
0.0
 11
470.22837914217592
 21
571.37518088288675
 31
0.0
  0
LINE
  5
C12D
  8
0
 10
415.7288391421759
 20
519.01518088288663
 30
0.0
 11
470.22837914217592
 21
519.01518088288663
 31
0.0
  0
LINE
  5
C12E
  8
0
 10
415.72837914217592
 20
518.52518088288662
 30
0.0
 11
468.46837914217582
 21
518.52518088288662
 31
0.0
  0
LINE
  5
C12F
  8
0
 10
415.72837914217592
 20
516.92518088288671
 30
0.0
 11
468.46837914217582
 21
516.92518088288671
 31
0.0
  0
LINE
  5
C130
  8
0
 10
415.72837914217592
 20
516.37518088288664
 30
0.0
 11
470.22837914217592
 21
516.37518088288664
 31
0.0
  0
LINE
  5
C131
  8
0
 10
423.33791314217592
 20
549.37518088288664
 30
0.0
 11
470.22837914217592
 21
549.37518088288664
 31
0.0
  0
LINE
  5
C132
  8
0
 10
422.96624214217587
 20
549.92518088288671
 30
0.0
 11
468.46837914217582
 21
549.92518088288671
 31
0.0
  0
LINE
  5
C133
  8
0
 10
420.66216314217593
 20
530.01518088288663
 30
0.0
 11
470.22837914217592
 21
530.01518088288663
 31
0.0
  0
LINE
  5
C134
  8
0
 10
420.14246914217603
 20
529.52518088288662
 30
0.0
 11
468.46837914217582
 21
529.52518088288662
 31
0.0
  0
LINE
  5
C135
  8
0
 10
418.74896214217591
 20
527.92518088288671
 30
0.0
 11
468.46837914217582
 21
527.92518088288671
 31
0.0
  0
LINE
  5
C136
  8
0
 10
418.35367114217581
 20
527.37518088288664
 30
0.0
 11
470.22837914217592
 21
527.37518088288664
 31
0.0
  0
LINE
  5
C137
  8
0
 10
425.72500414217598
 20
541.01518088288663
 30
0.0
 11
470.22837914217592
 21
541.01518088288663
 31
0.0
  0
LINE
  5
C138
  8
0
 10
425.70921114217589
 20
540.5251808828865
 30
0.0
 11
468.46837914217582
 21
540.5251808828865
 31
0.0
  0
LINE
  5
C139
  8
0
 10
425.54512514217578
 20
538.92518088288659
 30
0.0
 11
468.46837914217582
 21
538.92518088288659
 31
0.0
  0
LINE
  5
C13A
  8
0
 10
425.44819214217591
 20
538.37518088288675
 30
0.0
 11
470.22837914217592
 21
538.37518088288675
 31
0.0
  0
LINE
  5
C13B
  8
0
 10
415.75908814217593
 20
563.01518088288663
 30
0.0
 11
470.22837914217592
 21
563.01518088288663
 31
0.0
  0
LINE
  5
C13C
  8
0
 10
415.78609114217579
 20
562.52518088288662
 30
0.0
 11
468.46837914217582
 21
562.52518088288662
 31
0.0
  0
LINE
  5
C13D
  8
0
 10
415.98745214217598
 20
560.92518088288671
 30
0.0
 11
468.46837914217582
 21
560.92518088288671
 31
0.0
  0
LINE
  5
C13E
  8
0
 10
416.09761014217571
 20
560.37518088288664
 30
0.0
 11
470.22837914217592
 21
560.37518088288664
 31
0.0
  0
LINE
  5
C13F
  8
0
 10
421.17615314217602
 20
552.01518088288663
 30
0.0
 11
470.22837914217592
 21
552.01518088288663
 31
0.0
  0
LINE
  5
C140
  8
0
 10
421.65818114217592
 20
551.52518088288662
 30
0.0
 11
468.46837914217582
 21
551.52518088288662
 31
0.0
  0
LINE
  5
C142
  8
0
 10
472.22837914217598
 20
457.19518088288658
 30
0.0
 11
472.22837914217598
 21
483.00590188288658
 31
0.0
  0
LINE
  5
C143
  8
0
 10
469.65739014217598
 20
457.19518088288658
 30
0.0
 11
472.22837914217598
 21
457.19518088288658
 31
0.0
  0
LINE
  5
C144
  8
0
 10
470.22837914217592
 20
605.0551808828867
 30
0.0
 11
468.46837914217582
 21
604.49518088288664
 31
0.0
  0
LINE
  5
C145
  8
0
 10
468.46837914217582
 20
602.89518088288673
 30
0.0
 11
470.22837914217592
 21
602.35518088288654
 31
0.0
  0
LINE
  5
C146
  8
0
 10
470.22837914217592
 20
602.35518088288654
 30
0.0
 11
470.22837914217592
 21
605.0551808828867
 31
0.0
  0
LINE
  5
C147
  8
0
 10
468.46837914217582
 20
602.89518088288673
 30
0.0
 11
468.46837914217582
 21
604.49518088288664
 31
0.0
  0
LINE
  5
C148
  8
0
 10
470.22837914217592
 20
597.01018088288674
 30
0.0
 11
468.46837914217582
 21
596.47018088288655
 31
0.0
  0
LINE
  5
C149
  8
0
 10
468.46837914217582
 20
594.87018088288664
 30
0.0
 11
470.22837914217592
 21
594.38018088288663
 31
0.0
  0
LINE
  5
C14A
  8
0
 10
468.46837914217582
 20
594.87018088288664
 30
0.0
 11
468.46837914217582
 21
596.47018088288655
 31
0.0
  0
LINE
  5
C14B
  8
0
 10
470.22837914217592
 20
594.38018088288663
 30
0.0
 11
470.22837914217592
 21
597.01018088288674
 31
0.0
  0
LINE
  5
C14C
  8
0
 10
405.22837914217598
 20
605.3193678828867
 30
0.0
 11
403.60647014217591
 21
622.38511088288669
 31
0.0
  0
LINE
  5
C14D
  8
0
 10
405.22837914217598
 20
611.86030388288657
 30
0.0
 11
403.60785614217582
 21
628.39167188288673
 31
0.0
  0
LINE
  5
C14E
  8
0
 10
150.28691214217599
 20
610.52715088288664
 30
0.0
 11
155.28801014217589
 21
638.88976088288655
 31
0.0
  0
LINE
  5
C14F
  8
0
 10
158.008225142176
 20
635.76091588288671
 30
0.0
 11
158.008225142176
 21
546.87306888288663
 31
0.0
  0
ARC
  5
C150
  8
0
 10
159.22725014217599
 20
638.19518088288658
 30
0.0
 40
4.0
 50
90.0
 51
170.00018299999601
  0
LINE
  5
C151
  8
0
 10
150.22837914217601
 20
602.79515688288654
 30
0.0
 11
150.22837914217601
 21
516.48415288288663
 31
0.0
  0
ARC
  5
C152
  8
0
 10
151.22837914217601
 20
607.19518088288669
 30
0.0
 40
3.0
 50
118.7876889999995
 51
180.0
  0
LINE
  5
C153
  8
0
 10
148.22837914217601
 20
607.19518088288669
 30
0.0
 11
148.22837914217601
 21
495.34346688288662
 31
0.0
  0
LINE
  5
C154
  8
0
 10
158.008225142176
 20
535.01455588288661
 30
0.0
 11
158.008225142176
 21
464.18321788288682
 31
0.0
  0
LINE
  5
C155
  8
0
 10
151.91639814217601
 20
470.62185888288673
 30
0.0
 11
153.5247351421759
 21
461.5006008828866
 31
0.0
  0
ARC
  5
C156
  8
0
 10
157.463975142176
 20
462.19518088288658
 30
0.0
 40
4.0
 50
189.9998320000031
 51
270.0
  0
ARC
  5
C157
  8
0
 10
149.30210914217591
 20
610.70085688288668
 30
0.0
 40
1.0
 50
298.7879640000001
 51
350.00021400000242
  0
LINE
  5
C158
  8
0
 10
152.28574414217599
 20
538.23120288288669
 30
0.0
 11
145.24171514217591
 21
463.77339988288662
 31
0.0
  0
LINE
  5
C159
  8
0
 10
158.25907314217599
 20
537.66609988288656
 30
0.0
 11
151.215043142176
 21
463.2082968828866
 31
0.0
  0
ARC
  5
C15A
  8
0
 10
163.236847142176
 20
537.19518088288669
 30
0.0
 40
5.0
 50
90.0
 51
174.59565700000161
  0
ARC
  5
C15B
  8
0
 10
163.236847142176
 20
537.19518088288669
 30
0.0
 40
11.0
 50
90.0
 51
174.59565700000161
  0
ARC
  5
C15C
  8
0
 10
148.22837914217601
 20
463.49084788288661
 30
0.0
 40
3.0
 50
174.59565700000161
 51
354.59565700000172
  0
ARC
  5
C15D
  8
0
 10
148.22837914217601
 20
463.49084788288661
 30
0.0
 40
3.799999999999998
 50
220.00000000000131
 51
32.140571999997661
  0
LINE
  5
C15E
  8
0
 10
142.84462614217591
 20
464.84767588288662
 30
0.0
 11
145.25916914217601
 21
461.12698988288662
 31
0.0
  0
LINE
  5
C15F
  8
0
 10
143.4620891421759
 20
465.36578888288659
 30
0.0
 11
145.930246142176
 21
461.56248488288668
 31
0.0
  0
LINE
  5
C160
  8
0
 10
143.4620891421759
 20
465.36578888288659
 30
0.0
 11
142.84462614217591
 21
464.84767588288662
 31
0.0
  0
LINE
  5
C161
  8
0
 10
272.4930581421761
 20
619.03265588288673
 30
0.0
 11
271.22837914217598
 21
619.03265588288673
 31
0.0
  0
LINE
  5
C162
  8
0
 10
271.22837914217598
 20
605.0551808828867
 30
0.0
 11
272.53852514217601
 21
604.63831688288656
 31
0.0
  0
LINE
  5
C163
  8
0
 10
271.22837914217598
 20
604.63831688288656
 30
0.0
 11
271.22837914217598
 21
605.0551808828867
 31
0.0
  0
LINE
  5
C164
  8
0
 10
262.72837914217592
 20
628.81547788288663
 30
0.0
 11
271.50513814217589
 21
628.81547788288674
 31
0.0
  0
LINE
  5
C165
  8
0
 10
246.22837914217601
 20
558.59820988288664
 30
0.0
 11
246.22837914217601
 21
534.21218088288663
 31
0.0
  0
LINE
  5
C166
  8
0
 10
231.72837914217601
 20
547.69518088288658
 30
0.0
 11
250.1814916116999
 21
547.69518088288658
 31
0.0
  0
ARC
  5
C167
  8
0
 10
246.22837914217601
 20
545.19518088288669
 30
0.0
 40
9.0
 50
43.898216756325418
 51
163.87239099999641
  0
ARC
  5
C168
  8
0
 10
246.22837914217601
 20
545.19518088288669
 30
0.0
 40
5.5
 50
37.234941055984187
 51
152.9643079999955
  0
LINE
  5
C169
  8
0
 10
231.72837914217601
 20
542.69518088288658
 30
0.0
 11
248.7971249984426
 21
542.69518088288658
 31
0.0
  0
ARC
  5
C16A
  8
0
 10
246.22837914217601
 20
545.19518088288669
 30
0.0
 40
9.0
 50
196.1276090000035
 51
290.7110054129422
  0
ARC
  5
C16B
  8
0
 10
246.22837914217601
 20
545.19518088288669
 30
0.0
 40
5.5
 50
207.03569200000439
 51
297.3742811132829
  0
LINE
  5
C16C
  8
0
 10
262.72837914217598
 20
642.19518088288658
 30
0.0
 11
262.72837914217598
 21
601.30430965101368
 31
0.0
  0
LINE
  5
C16D
  8
0
 10
231.72837914217601
 20
547.69518088288658
 30
0.0
 11
231.22837914217601
 21
548.19518088288658
 31
0.0
  0
LINE
  5
C16E
  8
0
 10
231.72837914217601
 20
542.69518088288658
 30
0.0
 11
231.22837914217601
 21
542.19518088288658
 31
0.0
  0
LINE
  5
C16F
  8
0
 10
357.22837914217598
 20
646.19518088288658
 30
0.0
 11
379.22837914217598
 21
646.19518088288658
 31
0.0
  0
LINE
  5
C170
  8
0
 10
357.22837914217598
 20
646.19518088288658
 30
0.0
 11
357.22837914217598
 21
642.29189988288658
 31
0.0
  0
LINE
  5
C171
  8
0
 10
379.22837914217598
 20
646.19518088288658
 30
0.0
 11
379.22837914217598
 21
642.29189988288658
 31
0.0
  0
LINE
  5
C172
  8
0
 10
231.22837914217601
 20
542.19518088288658
 30
0.0
 11
163.236847142176
 21
542.19518088288658
 31
0.0
  0
LINE
  5
C173
  8
0
 10
262.72837914217598
 20
458.19518088288658
 30
0.0
 11
157.463975142176
 21
458.19518088288658
 31
0.0
  0
LINE
  5
C174
  8
0
 10
262.72837914217598
 20
642.19518088288658
 30
0.0
 11
159.22725014217599
 21
642.19518088288658
 31
0.0
  0
LINE
  5
C175
  8
0
 10
409.59329814217591
 20
602.89518088288673
 30
0.0
 11
468.46837914217582
 21
602.89518088288673
 31
0.0
  0
LINE
  5
C176
  8
0
 10
405.11184714217598
 20
604.49518088288664
 30
0.0
 11
468.46837914217582
 21
604.49518088288664
 31
0.0
  0
LINE
  5
C177
  8
0
 10
410.428119142176
 20
602.35518088288654
 30
0.0
 11
470.22837914217592
 21
602.35518088288654
 31
0.0
  0
LINE
  5
C178
  8
0
 10
271.22837914217598
 20
605.0551808828867
 30
0.0
 11
470.22837914217592
 21
605.0551808828867
 31
0.0
  0
LINE
  5
C179
  8
0
 10
415.5252171421759
 20
594.38018088288663
 30
0.0
 11
470.22837914217592
 21
594.38018088288663
 31
0.0
  0
LINE
  5
C17A
  8
0
 10
414.73889414217592
 20
597.01018088288674
 30
0.0
 11
470.22837914217592
 21
597.01018088288674
 31
0.0
  0
LINE
  5
C17B
  8
0
 10
415.42562214217588
 20
594.87018088288664
 30
0.0
 11
468.46837914217582
 21
594.87018088288664
 31
0.0
  0
LINE
  5
C17C
  8
0
 10
414.9528811421759
 20
596.47018088288655
 30
0.0
 11
468.46837914217582
 21
596.47018088288655
 31
0.0
  0
LINE
  5
C17D
  8
0
 10
475.22837914217592
 20
460.19518088288658
 30
0.0
 11
472.22837914217598
 21
457.19518088288658
 31
0.0
  0
LINE
  5
C17E
  8
0
 10
475.22837914217592
 20
460.19518088288658
 30
0.0
 11
475.22837914217592
 21
630.19518088288658
 31
0.0
  0
LINE
  5
C17F
  8
0
 10
475.22837914217592
 20
630.19518088288658
 30
0.0
 11
472.22837914217598
 21
633.19518088288669
 31
0.0
  0
LINE
  5
C180
  8
0
 10
415.95837914217572
 20
534.69831688288662
 30
0.0
 11
415.95837914217572
 21
547.9683168828866
 31
0.0
  0
LINE
  5
CDE3
  8
0
 62
     0
 10
516.07691470472764
 20
505.47247488288662
 30
0.0
 11
475.22837914217592
 21
505.47247488288662
 31
0.0
  0
LINE
  5
CDE4
  8
0
 62
     0
 10
514.7284195035686
 20
495.29318288288653
 30
0.0
 11
475.22837914217592
 21
495.29318288288653
 31
0.0
  0
LINE
  5
CDE5
  8
0
 62
     0
 10
514.72840407217723
 20
483.00590188288658
 30
0.0
 11
475.22837914217592
 21
483.00590188288658
 31
0.0
  0
LINE
  5
CDE6
  8
0
 62
     0
 10
475.22837914217592
 20
629.0588298828867
 30
0.0
 11
492.07447682918871
 21
629.0588298828867
 31
0.0
  0
LINE
  5
CDE7
  8
0
 62
     0
 10
475.22837914217592
 20
620.93482488288669
 30
0.0
 11
508.72837914217598
 21
620.93482488288669
 31
0.0
  0
LINE
  5
CDE8
  8
0
 62
     0
 10
475.22837914217592
 20
607.26111388288655
 30
0.0
 11
508.72837914217598
 21
607.26111388288655
 31
0.0
  0
LINE
  5
D048
  8
0
  6
CONTINUOUS
 62
     0
 10
475.22846914217621
 20
1052.2368511695749
 30
0.0
 11
508.72846914217689
 21
1052.2368511695749
 31
0.0
  0
LINE
  5
D049
  8
0
  6
CONTINUOUS
 62
     0
 10
475.22846914217621
 20
1042.0575591695761
 30
0.0
 11
508.72846914217689
 21
1042.0575591695761
 31
0.0
  0
LINE
  5
D04A
  8
0
  6
CONTINUOUS
 62
     0
 10
475.22846914217621
 20
1029.749920169575
 30
0.0
 11
508.72846914217689
 21
1029.749920169575
 31
0.0
  0
LINE
  5
D04B
  8
0
  6
CONTINUOUS
 62
     0
 10
475.22846914217621
 20
1154.025519169576
 30
0.0
 11
508.72846914217689
 21
1154.025519169576
 31
0.0
  0
LINE
  5
D04C
  8
0
  6
CONTINUOUS
 62
     0
 10
475.22846914217621
 20
1167.6992011695761
 30
0.0
 11
508.72846914217689
 21
1167.6992011695761
 31
0.0
  0
LINE
  5
D04D
  8
0
  6
AM_ISO08W050
 10
130.54806349588119
 20
1091.9595771695761
 30
0.0
 11
959.55136914217621
 21
1091.9595771695761
 31
0.0
  0
LINE
  5
D0A2
  8
0
  6
CONTINUOUS
 62
     0
 10
537.72846914217621
 20
1209.959537169575
 30
0.0
 11
537.72846914217621
 21
973.95957716957571
 31
0.0
  0
LINE
  5
D0A3
  8
0
  6
CONTINUOUS
 62
     0
 10
508.72846914217689
 20
1185.903437169575
 30
0.0
 11
508.72846914217689
 21
998.01572716957594
 31
0.0
  0
LINE
  5
D0A4
  8
0
  6
CONTINUOUS
 62
     0
 10
503.90286914217592
 20
1006.958237169575
 30
0.0
 11
475.22846914217621
 21
1007.9595771695761
 31
0.0
  0
LINE
  5
D0A5
  8
0
  6
CONTINUOUS
 62
     0
 10
503.90286914217592
 20
1176.9609371695749
 30
0.0
 11
475.22846914217621
 21
1175.959537169575
 31
0.0
  0
LINE
  5
D0A6
  8
0
  6
CONTINUOUS
 62
     0
 10
475.22846914217621
 20
1007.9595771695761
 30
0.0
 11
475.22846914217621
 21
1175.959537169575
 31
0.0
  0
LINE
  5
D0A7
  8
0
  6
CONTINUOUS
 62
     0
 10
512.01826914217793
 20
1190.6019371695729
 30
0.0
 11
534.43846914217784
 21
1198.762237169575
 31
0.0
  0
LINE
  5
D0A8
  8
0
  6
CONTINUOUS
 62
     0
 10
512.01836914217586
 20
993.31730716957475
 30
0.0
 11
534.43846914217784
 21
985.15702716957503
 31
0.0
  0
ARC
  5
D0F0
  8
0
  6
CONTINUOUS
 62
     0
 10
532.72846914217712
 20
1203.460637169575
 30
0.0
 40
5.0
 50
289.9999999999892
 51
0.0
  0
ARC
  5
D0F1
  8
0
  6
CONTINUOUS
 62
     0
 10
513.72846914217598
 20
1185.903437169575
 30
0.0
 40
5.0
 50
109.9999999999892
 51
180.000010000001
  0
ARC
  5
D0F2
  8
0
  6
CONTINUOUS
 62
     0
 10
532.72846914217712
 20
980.45853716957538
 30
0.0
 40
5.0
 50
0.0
 51
70.000000000010758
  0
ARC
  5
D0F3
  8
0
  6
CONTINUOUS
 62
     0
 10
513.72846914217598
 20
998.01572716957594
 30
0.0
 40
5.0
 50
179.999989999999
 51
250.0000000000108
  0
ARC
  5
D0F4
  8
0
  6
CONTINUOUS
 62
     0
 10
503.72846914217791
 20
1181.957837169575
 30
0.0
 40
5.0
 50
272.00000000000352
 51
0.0
  0
ARC
  5
D0F5
  8
0
  6
CONTINUOUS
 62
     0
 10
503.72846914217791
 20
1001.961287169575
 30
0.0
 40
5.0
 50
0.0
 51
87.999999999996476
  0
LINE
  5
D0F6
  8
0
 62
     0
 10
475.22846914217621
 20
1006.959557169575
 30
0.0
 11
475.22846914217621
 21
1176.959557169575
 31
0.0
  0
ARC
  5
D0F7
  8
0
 10
256.06146914217641
 20
964.78355716957583
 30
0.0
 40
7.3402899999999969
 50
116.67697999999911
 51
177.34798000000251
  0
ARC
  5
D0F8
  8
0
 10
245.93549914217621
 20
984.04356716957557
 30
0.0
 40
15.0
 50
316.51494999999102
 51
336.8849499999958
  0
ARC
  5
D0F9
  8
0
 10
256.06146914217641
 20
958.13560716957556
 30
0.0
 40
7.3402899999999969
 50
182.65198000000061
 51
265.23795999998902
  0
ARC
  5
D0FA
  8
0
 10
256.06146914217641
 20
957.45652716957579
 30
0.0
 40
7.3402899999999969
 50
94.761785000012509
 51
177.34798000000251
  0
ARC
  5
D0FB
  8
0
 10
245.93549914217621
 20
976.71653716957564
 30
0.0
 40
15.0
 50
316.51494999999102
 51
336.8849499999958
  0
ARC
  5
D0FC
  8
0
 10
259.63446914217621
 20
970.42356716957568
 30
0.0
 40
5.8039399999999972
 50
283.12597000000932
 51
344.53994999999787
  0
ARC
  5
D0FD
  8
0
 10
271.2284691421761
 20
968.24949716957576
 30
0.0
 40
6.0
 50
89.999989000004106
 51
179.99997999999789
  0
ARC
  5
D0FE
  8
0
 10
271.2284691421761
 20
965.92051716957576
 30
0.0
 40
12.5
 50
89.999989000004106
 51
156.88497999999879
  0
ARC
  5
D0FF
  8
0
 10
418.39447914217612
 20
964.78355716957583
 30
0.0
 40
7.3402899999999969
 50
2.6518660000028751
 51
63.323093999992352
  0
ARC
  5
D100
  8
0
 10
428.52045914217638
 20
984.04356716957557
 30
0.0
 40
15.0
 50
203.1149699999952
 51
223.48497000000251
  0
ARC
  5
D101
  8
0
 10
418.39447914217612
 20
958.13560716957556
 30
0.0
 40
7.3402899999999969
 50
274.76196000001192
 51
357.34794999999428
  0
ARC
  5
D102
  8
0
 10
418.39447914217612
 20
957.45652716957579
 30
0.0
 40
7.3402899999999969
 50
2.6518660000028751
 51
85.238185999987664
  0
ARC
  5
D103
  8
0
 10
428.52045914217638
 20
976.71653716957564
 30
0.0
 40
15.0
 50
203.1149699999952
 51
223.48497000000251
  0
ARC
  5
D104
  8
0
 10
414.82245914217629
 20
945.16856716957557
 30
0.0
 40
5.8039399999999972
 50
103.1259899999863
 51
164.53997999999399
  0
ARC
  5
D105
  8
0
 10
414.82245914217629
 20
970.42356716957568
 30
0.0
 40
5.8039399999999972
 50
195.4599800000087
 51
256.87396999999709
  0
ARC
  5
D106
  8
0
 10
259.63446914217621
 20
945.16856716957557
 30
0.0
 40
5.8039399999999972
 50
15.459700999997549
 51
76.873786000000194
  0
ARC
  5
D107
  8
0
 10
271.2284691421761
 20
938.95957716957571
 30
0.0
 40
6.0
 50
179.99997999999789
 51
269.9999499999949
  0
ARC
  5
D108
  8
0
 10
271.2284691421761
 20
943.51815116957562
 30
0.0
 40
12.5
 50
179.99997999999789
 51
269.9999499999949
  0
ARC
  5
D109
  8
0
 10
403.22846914217621
 20
938.95957716957571
 30
0.0
 40
6.0
 50
269.99995999999589
 51
359.9999499999949
  0
ARC
  5
D10A
  8
0
 10
403.22846914217621
 20
943.51815116957562
 30
0.0
 40
12.5
 50
269.99995999999589
 51
359.9999499999949
  0
ARC
  5
D10B
  8
0
 10
403.22846914217621
 20
968.24949716957576
 30
0.0
 40
6.0
 50
0.0
 51
89.999989000004106
  0
ARC
  5
D10C
  8
0
 10
403.22846914217621
 20
965.92051716957576
 30
0.0
 40
12.5
 50
23.114595000003099
 51
89.999989000004106
  0
ARC
  5
D10D
  8
0
 10
270.22846914217621
 20
980.95957716957571
 30
0.0
 40
6.0
 50
89.999989000004106
 51
147.54197999998669
  0
ARC
  5
D10E
  8
0
 10
271.2284691421761
 20
973.2475471695758
 30
0.0
 40
12.5
 50
89.999989000004106
 51
156.9299800000019
  0
ARC
  5
D10F
  8
0
 10
404.22846914217621
 20
980.95957716957571
 30
0.0
 40
6.0
 50
32.458496999997593
 51
89.999989000004106
  0
ARC
  5
D110
  8
0
 10
403.22846914217621
 20
973.2475471695758
 30
0.0
 40
12.5
 50
23.114595000003099
 51
89.999989000004106
  0
LINE
  5
D111
  8
0
 10
405.7284691421761
 20
986.76853716957578
 30
0.0
 11
405.7284691421761
 21
989.95957716957571
 31
0.0
  0
LINE
  5
D112
  8
0
 10
330.72846914217621
 20
986.95957716957582
 30
0.0
 11
330.72846914217621
 21
989.95957716957571
 31
0.0
  0
LINE
  5
D113
  8
0
 10
256.81940914217631
 20
973.72154716957584
 30
0.0
 11
252.76642914217629
 21
971.34251716957579
 31
0.0
  0
LINE
  5
D114
  8
0
 10
255.4524591421762
 20
950.8205371695758
 30
0.0
 11
260.95245914217622
 21
950.8205371695758
 31
0.0
  0
LINE
  5
D115
  8
0
 10
256.81940914217631
 20
966.39457716957565
 30
0.0
 11
252.7664891421762
 21
964.01457716957577
 31
0.0
  0
LINE
  5
D116
  8
0
 10
255.41840914217639
 20
964.76859716957551
 30
0.0
 11
260.95239914217632
 21
964.77165716957575
 31
0.0
  0
LINE
  5
D117
  8
0
 10
248.72846914217621
 20
957.81858716957561
 30
0.0
 11
248.72846914217621
 21
965.10056716957592
 31
0.0
  0
LINE
  5
D118
  8
0
 10
258.7284691421761
 20
954.64658716957558
 30
0.0
 11
258.7284691421761
 21
961.50950716957573
 31
0.0
  0
LINE
  5
D119
  8
0
 10
262.22650914217621
 20
957.79551716957565
 30
0.0
 11
255.96845914217619
 21
957.79551716957565
 31
0.0
  0
LINE
  5
D11A
  8
0
 10
417.63739914217621
 20
973.7216071695758
 30
0.0
 11
421.69043914217622
 21
971.34257716957575
 31
0.0
  0
LINE
  5
D11B
  8
0
 10
419.00446914217599
 20
950.8205371695758
 30
0.0
 11
413.50446914217582
 21
950.8205371695758
 31
0.0
  0
LINE
  5
D11C
  8
0
 10
417.63745914217611
 20
966.39451716957558
 30
0.0
 11
421.69043914217622
 21
964.01450716957595
 31
0.0
  0
LINE
  5
D11D
  8
0
 10
419.03735914217651
 20
964.76853716957589
 30
0.0
 11
413.5044091421762
 21
964.7715871695757
 31
0.0
  0
LINE
  5
D11E
  8
0
 10
425.7284691421761
 20
957.81858716957561
 30
0.0
 11
425.7284691421761
 21
965.10056716957592
 31
0.0
  0
LINE
  5
D11F
  8
0
 10
415.72846914217621
 20
954.64658716957558
 30
0.0
 11
415.72846914217621
 21
961.50950716957573
 31
0.0
  0
LINE
  5
D120
  8
0
 10
412.22943914217609
 20
957.79551716957565
 30
0.0
 11
418.48749914217638
 21
957.79551716957565
 31
0.0
  0
LINE
  5
D121
  8
0
 10
265.2284691421761
 20
938.9595791695757
 30
0.0
 11
265.2284691421761
 21
968.24949716957576
 31
0.0
  0
LINE
  5
D122
  8
0
 10
258.7284691421761
 20
943.51815116957562
 30
0.0
 11
258.7284691421761
 21
950.8205371695758
 31
0.0
  0
LINE
  5
D123
  8
0
 10
409.2284691421761
 20
938.95957216957549
 30
0.0
 11
409.2284691421761
 21
968.24949716957576
 31
0.0
  0
LINE
  5
D124
  8
0
 10
271.2284691421761
 20
978.42051716957576
 30
0.0
 11
403.22846914217621
 21
978.42051716957576
 31
0.0
  0
LINE
  5
D125
  8
0
 10
415.72846914217621
 20
943.51815116957562
 30
0.0
 11
415.72846914217621
 21
950.8205371695758
 31
0.0
  0
LINE
  5
D126
  8
0
 10
271.2284691421761
 20
931.01815116957562
 30
0.0
 11
403.22846914217621
 21
931.01815116957562
 31
0.0
  0
LINE
  5
D127
  8
0
 10
271.2284691421761
 20
932.95957716957594
 30
0.0
 11
403.22846914217621
 21
932.95957716957594
 31
0.0
  0
LINE
  5
D128
  8
0
 10
271.2284691421761
 20
974.24949716957565
 30
0.0
 11
403.22846914217621
 21
974.24949716957565
 31
0.0
  0
LINE
  5
D129
  8
0
 10
270.22846914217621
 20
986.95957716957582
 30
0.0
 11
404.22846914217621
 21
986.95957716957582
 31
0.0
  0
LINE
  5
D12A
  8
0
 10
271.2284691421761
 20
985.7475471695758
 30
0.0
 11
403.22846914217621
 21
985.7475471695758
 31
0.0
  0
LINE
  5
D12B
  8
0
 10
270.22846914217621
 20
983.95957716957582
 30
0.0
 11
404.22846914217621
 21
983.95957716957582
 31
0.0
  0
ARC
  5
D12C
  8
0
 10
276.17211314217622
 20
1009.558897169576
 30
0.0
 40
2.0
 50
190.000000000005
 51
270.0
  0
LINE
  5
D12D
  8
0
 10
274.20249814217618
 20
1009.2116011695761
 30
0.0
 11
271.2284691421761
 21
1026.078155169575
 31
0.0
  0
LINE
  5
D12E
  8
0
 10
271.2284691421761
 20
1026.078155169575
 30
0.0
 11
272.29020814217603
 21
1026.078155169575
 31
0.0
  0
LINE
  5
D12F
  8
0
 10
469.69261014217608
 20
1178.1318841695761
 30
0.0
 11
470.22846914217621
 21
1178.1318841695761
 31
0.0
  0
LINE
  5
D130
  8
0
 10
469.95300114217628
 20
1179.6941411695759
 30
0.0
 11
470.22846914217621
 21
1179.6941411695759
 31
0.0
  0
LINE
  5
D131
  8
0
 10
471.9066681421761
 20
1003.959728169576
 30
0.0
 11
472.2284691421761
 21
1003.959728169576
 31
0.0
  0
LINE
  5
D132
  8
0
 10
468.04907414217621
 20
1008.8075911695749
 30
0.0
 11
470.22846914217621
 21
1008.8075911695749
 31
0.0
  0
LINE
  5
D133
  8
0
 10
469.05515714217631
 20
1020.913161169576
 30
0.0
 11
470.22846914217621
 21
1020.913161169576
 31
0.0
  0
LINE
  5
D134
  8
0
 10
368.22846914217621
 20
984.30361216957579
 30
0.0
 11
368.22846914217621
 21
993.48532816957561
 31
0.0
  0
ARC
  5
D135
  8
0
 10
466.471349142176
 20
1180.9678251695759
 30
0.0
 40
2.0
 50
10.00000000000502
 51
90.0
  0
ARC
  5
D136
  8
0
 10
466.53736614217593
 20
1184.508624169576
 30
0.0
 40
2.0
 50
10.00000000000502
 51
90.0
  0
ARC
  5
D137
  8
0
 10
466.6232841421762
 20
1187.060361169576
 30
0.0
 40
2.0
 50
10.00000000000502
 51
90.0
  0
ARC
  5
D138
  8
0
 10
466.65203314217592
 20
1188.4595771695761
 30
0.0
 40
2.0
 50
10.00000000000502
 51
90.0
  0
LINE
  5
D139
  8
0
 10
475.22847214217609
 20
1176.9595771695761
 30
0.0
 11
472.2284721421762
 21
1179.9595771695761
 31
0.0
  0
LINE
  5
D13A
  8
0
 10
262.72846914217621
 20
1188.9595511695759
 30
0.0
 11
262.72846914217621
 21
994.95957716957582
 31
0.0
  0
LINE
  5
D13B
  8
0
 10
470.18166514217609
 20
1179.9595771695761
 30
0.0
 11
472.2284691421761
 21
1179.9595771695761
 31
0.0
  0
LINE
  5
D13C
  8
0
 10
475.22846914217621
 20
1006.9595771695761
 30
0.0
 11
472.2284691421761
 21
1003.9595771695761
 31
0.0
  0
LINE
  5
D13D
  8
0
 10
472.2284691421761
 20
1003.9595771695761
 30
0.0
 11
472.2284691421761
 21
1029.5799631695761
 31
0.0
  0
LINE
  5
D13E
  8
0
 10
475.22846914217621
 20
1006.9595771695761
 30
0.0
 11
475.22846914217621
 21
1176.9595771695761
 31
0.0
  0
CIRCLE
  5
D13F
  8
0
 10
368.22846914217621
 20
1091.9595771695761
 30
0.0
 40
11.0
  0
LINE
  5
D140
  8
0
 10
275.51458914217602
 20
1190.4595771695761
 30
0.0
 11
327.22846914217621
 21
1190.4595771695761
 31
0.0
  0
LINE
  5
D141
  8
0
 10
407.22846914217621
 20
1182.9678251695759
 30
0.0
 11
407.22846914217621
 21
1188.4595771695761
 31
0.0
  0
LINE
  5
D142
  8
0
 10
329.22846914217621
 20
1182.9678251695759
 30
0.0
 11
329.22846914217621
 21
1188.4595771695761
 31
0.0
  0
ARC
  5
D143
  8
0
 10
327.22846914217621
 20
1188.4595771695761
 30
0.0
 40
2.0
 50
0.0
 51
90.0
  0
ARC
  5
D144
  8
0
 10
409.2284691421761
 20
1188.4595771695761
 30
0.0
 40
2.0
 50
90.0
 51
180.0
  0
LINE
  5
D145
  8
0
 10
409.2284691421761
 20
1190.4595771695761
 30
0.0
 11
466.65203314217592
 21
1190.4595771695761
 31
0.0
  0
LINE
  5
D146
  8
0
 10
466.6232841421762
 20
1189.060361169576
 30
0.0
 11
409.2284691421761
 21
1189.060361169576
 31
0.0
  0
LINE
  5
D147
  8
0
 10
470.22846914217621
 20
1178.1318841695761
 30
0.0
 11
468.59290014217618
 21
1187.407657169575
 31
0.0
  0
LINE
  5
D148
  8
0
 10
470.22846914217621
 20
1179.6941411695759
 30
0.0
 11
468.62164814217613
 21
1188.806873169576
 31
0.0
  0
LINE
  5
D149
  8
0
 10
271.2284691421761
 20
1175.669323169576
 30
0.0
 11
273.54497414217599
 21
1188.806873169576
 31
0.0
  0
ARC
  5
D14A
  8
0
 10
275.51458914217602
 20
1188.4595771695761
 30
0.0
 40
2.0
 50
90.0
 51
169.99999999999491
  0
LINE
  5
D14B
  8
0
 10
271.2284691421761
 20
1174.010262169576
 30
0.0
 11
273.59079114217622
 21
1187.407657169575
 31
0.0
  0
ARC
  5
D14C
  8
0
 10
275.56040714217647
 20
1187.060361169576
 30
0.0
 40
2.0
 50
90.0
 51
169.99999999999491
  0
ARC
  5
D14D
  8
0
 10
327.22846914217621
 20
1187.060361169576
 30
0.0
 40
2.0
 50
0.0
 51
90.0
  0
ARC
  5
D14E
  8
0
 10
409.2284691421761
 20
1187.060361169576
 30
0.0
 40
2.0
 50
90.0
 51
180.0
  0
LINE
  5
D14F
  8
0
 10
327.22846914217621
 20
1189.060361169576
 30
0.0
 11
275.56040714217647
 21
1189.060361169576
 31
0.0
  0
LINE
  5
D150
  8
0
 10
466.53736614217593
 20
1186.508624169576
 30
0.0
 11
409.2284691421761
 21
1186.508624169576
 31
0.0
  0
LINE
  5
D151
  8
0
 10
470.0996891421762
 20
1175.8232261695759
 30
0.0
 11
468.50698114217607
 21
1184.8559211695749
 31
0.0
  0
LINE
  5
D152
  8
0
 10
271.2284691421761
 20
1170.789471169576
 30
0.0
 11
273.70876414217651
 21
1184.8559211695749
 31
0.0
  0
ARC
  5
D153
  8
0
 10
275.67837914217603
 20
1184.508624169576
 30
0.0
 40
2.0
 50
90.0
 51
169.99999999999491
  0
ARC
  5
D154
  8
0
 10
327.22846914217621
 20
1184.508624169576
 30
0.0
 40
2.0
 50
0.0
 51
90.0
  0
ARC
  5
D155
  8
0
 10
409.2284691421761
 20
1184.508624169576
 30
0.0
 40
2.0
 50
90.0
 51
180.0
  0
LINE
  5
D156
  8
0
 10
327.22846914217621
 20
1186.508624169576
 30
0.0
 11
275.67837914217603
 21
1186.508624169576
 31
0.0
  0
LINE
  5
D157
  8
0
 10
466.471349142176
 20
1182.9678251695759
 30
0.0
 11
275.83988814217611
 21
1182.9678251695759
 31
0.0
  0
LINE
  5
D158
  8
0
 10
469.40933414217648
 20
1175.8232261695759
 30
0.0
 11
468.44096514217631
 21
1181.3151211695761
 31
0.0
  0
LINE
  5
D159
  8
0
 10
271.2284691421761
 20
1166.332711169576
 30
0.0
 11
273.87027214217619
 21
1181.3151211695761
 31
0.0
  0
ARC
  5
D15A
  8
0
 10
275.83988814217611
 20
1180.9678251695759
 30
0.0
 40
2.0
 50
90.0
 51
169.99999999999491
  0
LINE
  5
D15B
  8
0
 10
400.28482514217609
 20
1176.360257169576
 30
0.0
 11
276.17211314217622
 21
1176.360257169576
 31
0.0
  0
LINE
  5
D15C
  8
0
 10
405.2284691421761
 20
1157.8409991695751
 30
0.0
 11
402.25444014217618
 21
1174.707553169575
 31
0.0
  0
ARC
  5
D15D
  8
0
 10
400.28482514217609
 20
1174.360257169576
 30
0.0
 40
2.0
 50
10.00000000000502
 51
90.0
  0
LINE
  5
D15E
  8
0
 10
271.2284691421761
 20
1157.8409991695751
 30
0.0
 11
274.20249814217618
 21
1174.707553169575
 31
0.0
  0
ARC
  5
D15F
  8
0
 10
276.17211314217622
 20
1174.360257169576
 30
0.0
 40
2.0
 50
90.0
 51
169.99999999999491
  0
LINE
  5
D160
  8
0
 10
399.9545611421762
 20
1170.9582131695761
 30
0.0
 11
276.50237714217627
 21
1170.9582131695761
 31
0.0
  0
LINE
  5
D161
  8
0
 10
405.00741814217622
 20
1151.819577169575
 30
0.0
 11
401.92417714217618
 21
1169.3055101695761
 31
0.0
  0
ARC
  5
D162
  8
0
 10
399.9545611421762
 20
1168.9582131695761
 30
0.0
 40
2.0
 50
10.00000000000502
 51
90.0
  0
LINE
  5
D163
  8
0
 10
271.50546314217598
 20
1152.1368451695751
 30
0.0
 11
274.53276114217601
 21
1169.3055101695761
 31
0.0
  0
ARC
  5
D164
  8
0
 10
276.50237714217627
 20
1168.9582131695761
 30
0.0
 40
2.0
 50
90.0
 51
169.99999999999491
  0
LINE
  5
D165
  8
0
 10
470.22846914217621
 20
1096.9897291695761
 30
0.0
 11
470.22846914217621
 21
1099.9374211695761
 31
0.0
  0
LINE
  5
D166
  8
0
 10
470.22846914217621
 20
1106.9892051695749
 30
0.0
 11
470.22846914217621
 21
1109.9506841695761
 31
0.0
  0
LINE
  5
D167
  8
0
 10
470.22846914217621
 20
1117.981385169576
 30
0.0
 11
470.22846914217621
 21
1120.974012169575
 31
0.0
  0
LINE
  5
D168
  8
0
 10
470.22846914217621
 20
1128.9641801695759
 30
0.0
 11
470.22846914217621
 21
1132.0098861695751
 31
0.0
  0
LINE
  5
D169
  8
0
 10
470.22846914217621
 20
1139.9340591695759
 30
0.0
 11
470.22846914217621
 21
1143.0649721695761
 31
0.0
  0
LINE
  5
D16A
  8
0
 10
470.22846914217621
 20
1148.8925351695759
 30
0.0
 11
470.22846914217621
 21
1152.1368451695751
 31
0.0
  0
LINE
  5
D16B
  8
0
 10
420.22846914217621
 20
1166.332711169576
 30
0.0
 11
403.73115114217649
 21
1166.332711169576
 31
0.0
  0
LINE
  5
D16C
  8
0
 10
452.01524614217578
 20
1171.1776791695761
 30
0.0
 11
436.22846914217621
 21
1171.1776791695761
 31
0.0
  0
LINE
  5
D16D
  8
0
 10
420.22846914217621
 20
1166.332711169576
 30
0.0
 11
436.22846914217621
 21
1171.1776791695761
 31
0.0
  0
LINE
  5
D16E
  8
0
 10
436.22846914217621
 20
1171.1776791695761
 30
0.0
 11
436.22846914217621
 21
1167.8123641695761
 31
0.0
  0
LINE
  5
D16F
  8
0
 10
420.22846914217621
 20
1166.332711169576
 30
0.0
 11
420.22846914217621
 21
1152.1368451695751
 31
0.0
  0
LINE
  5
D170
  8
0
 10
455.72846914217621
 20
1155.025539169575
 30
0.0
 11
455.72846914217621
 21
1173.8232261695759
 31
0.0
  0
ARC
  5
D171
  8
0
 10
457.72846914217621
 20
1173.8232261695759
 30
0.0
 40
2.0
 50
90.0
 51
180.0
  0
LINE
  5
D172
  8
0
 10
455.72846914217621
 20
1159.415637169576
 30
0.0
 11
436.22846914217621
 21
1159.415637169576
 31
0.0
  0
LINE
  5
D173
  8
0
 10
450.3284751421761
 20
1167.8123641695761
 30
0.0
 11
436.22846914217621
 21
1167.8123641695761
 31
0.0
  0
LINE
  5
D174
  8
0
 10
436.22846914217621
 20
1159.415637169576
 30
0.0
 11
436.22846914217621
 21
1152.1368451695751
 31
0.0
  0
ARC
  5
D175
  8
0
  6
CONTINUOUS
 10
452.92826814217608
 20
1163.442843169576
 30
0.0
 40
2.6003989999999999
 50
179.99998200000081
 51
269.99997800000818
  0
ARC
  5
D176
  8
0
  6
CONTINUOUS
 10
452.92826814217608
 20
1168.742831169576
 30
0.0
 40
2.600403
 50
90.0
 51
179.99998200000081
  0
LINE
  5
D177
  8
0
  6
CONTINUOUS
 10
455.72846914217621
 20
1166.1588621695751
 30
0.0
 11
454.22846914217621
 21
1165.2928371695759
 31
0.0
  0
LINE
  5
D178
  8
0
  6
CONTINUOUS
 10
455.72846914217621
 20
1167.158862169576
 30
0.0
 11
454.22846914217621
 21
1166.2928371695759
 31
0.0
  0
LINE
  5
D179
  8
0
  6
CONTINUOUS
 10
455.72846914217621
 20
1172.192837169576
 30
0.0
 11
455.72846914217621
 21
1159.992837169576
 31
0.0
  0
LINE
  5
D17A
  8
0
  6
CONTINUOUS
 10
454.22846914217621
 20
1172.192837169576
 30
0.0
 11
455.72846914217621
 21
1172.192837169576
 31
0.0
  0
LINE
  5
D17B
  8
0
  6
CONTINUOUS
 10
454.22846914217621
 20
1159.992837169576
 30
0.0
 11
455.72846914217621
 21
1159.992837169576
 31
0.0
  0
LINE
  5
D17C
  8
0
  6
CONTINUOUS
 10
450.3284751421761
 20
1168.742831169576
 30
0.0
 11
450.3284751421761
 21
1163.442843169576
 31
0.0
  0
LINE
  5
D17D
  8
0
  6
CONTINUOUS
 10
454.22846914217621
 20
1172.192837169576
 30
0.0
 11
454.22846914217621
 21
1159.992837169576
 31
0.0
  0
LINE
  5
D17E
  8
0
  6
CONTINUOUS
 10
454.22846914217621
 20
1160.8428371695759
 30
0.0
 11
452.92826814217608
 21
1160.8428371695759
 31
0.0
  0
LINE
  5
D17F
  8
0
  6
CONTINUOUS
 10
454.22846914217621
 20
1171.342837169575
 30
0.0
 11
452.92826814217608
 21
1171.342837169575
 31
0.0
  0
LINE
  5
D180
  8
0
 10
475.22846914217621
 20
1175.8232261695759
 30
0.0
 11
457.72846914217621
 21
1175.8232261695759
 31
0.0
  0
LINE
  5
D181
  8
0
 10
475.22846914217621
 20
1154.025539169575
 30
0.0
 11
454.7284691421761
 21
1154.025539169575
 31
0.0
  0
ARC
  5
D182
  8
0
 10
454.7284691421761
 20
1155.025539169575
 30
0.0
 40
1.0
 50
270.0
 51
0.0
  0
LINE
  5
D183
  8
0
 10
475.22846914217621
 20
1167.699221169576
 30
0.0
 11
457.72846914217621
 21
1167.699221169576
 31
0.0
  0
LINE
  5
D184
  8
0
 10
262.72846914217621
 20
1175.9595771695761
 30
0.0
 11
271.2284691421761
 21
1175.9595771695761
 31
0.0
  0
ARC
  5
D185
  8
0
 10
471.9066681421761
 20
1001.9595771695761
 30
0.0
 40
2.0
 50
90.0
 51
169.99999999999491
  0
ARC
  5
D186
  8
0
 10
407.97111114217631
 20
996.96592016957584
 30
0.0
 40
1.9936590000000001
 50
90.075931000003507
 51
178.1702539999921
  0
LINE
  5
D187
  8
0
 10
407.96846914217599
 20
998.95957716957594
 30
0.0
 11
467.66863514217607
 21
998.95957716957594
 31
0.0
  0
LINE
  5
D188
  8
0
 10
405.7284691421761
 20
989.95957716957571
 30
0.0
 11
406.34449814217601
 21
1007.558897169576
 31
0.0
  0
LINE
  5
D189
  8
0
 10
469.93705314217613
 20
1002.3068731695751
 30
0.0
 11
469.63825014217588
 21
1000.612281169576
 31
0.0
  0
ARC
  5
D18A
  8
0
 10
467.66863514217607
 20
1000.9595771695761
 30
0.0
 40
2.0
 50
270.0
 51
349.99999999999488
  0
LINE
  5
D18B
  8
0
 10
271.80581914217618
 20
1006.9595771695761
 30
0.0
 11
279.0226981421763
 21
994.45957716957571
 31
0.0
  0
LINE
  5
D18C
  8
0
 10
280.75474814217642
 20
993.45957716957571
 30
0.0
 11
328.6734401421761
 21
993.45957716957571
 31
0.0
  0
LINE
  5
D18D
  8
0
 10
330.72846914217621
 20
989.95957716957571
 30
0.0
 11
330.6721571421761
 21
991.53119216957577
 31
0.0
  0
ARC
  5
D18E
  8
0
 10
270.07376814217628
 20
1005.959577169575
 30
0.0
 40
2.0
 50
30.000000000000551
 51
90.0
  0
ARC
  5
D18F
  8
0
 10
280.75474814217642
 20
995.45957716957594
 30
0.0
 40
2.0
 50
210.00000000000051
 51
270.0
  0
ARC
  5
D190
  8
0
 10
328.6734401421761
 20
991.45957716957582
 30
0.0
 40
2.0
 50
2.0520649999985339
 51
90.0
  0
LINE
  5
D191
  8
0
 10
330.72846914217621
 20
989.95957716957571
 30
0.0
 11
405.7284691421761
 21
989.95957716957571
 31
0.0
  0
LINE
  5
D192
  8
0
 10
279.75474814217642
 20
993.72752616957575
 30
0.0
 11
279.75474814217642
 21
1007.558897169576
 31
0.0
  0
LINE
  5
D193
  8
0
 10
466.19555314217592
 20
1007.558897169576
 30
0.0
 11
276.17211314217622
 21
1007.558897169576
 31
0.0
  0
LINE
  5
D194
  8
0
 10
465.97476714217618
 20
1012.960941169576
 30
0.0
 11
276.28132614217628
 21
1012.960941169576
 31
0.0
  0
LINE
  5
D195
  8
0
 10
470.22846914217621
 20
1027.5673431695759
 30
0.0
 11
436.22846914217621
 21
1027.5673431695759
 31
0.0
  0
LINE
  5
D196
  8
0
 10
470.22846914217621
 20
1027.5673431695759
 30
0.0
 11
467.94438214217621
 21
1014.613644169576
 31
0.0
  0
ARC
  5
D197
  8
0
 10
465.97476714217618
 20
1014.960941169576
 30
0.0
 40
2.0
 50
270.0
 51
349.99999999999488
  0
LINE
  5
D198
  8
0
 10
470.22846914217621
 20
1020.913161169576
 30
0.0
 11
468.16516814217613
 21
1009.2116011695761
 31
0.0
  0
ARC
  5
D199
  8
0
 10
466.19555314217592
 20
1009.558897169576
 30
0.0
 40
2.0
 50
270.0
 51
349.99999999999488
  0
LINE
  5
D19A
  8
0
 10
274.97120714217613
 20
1007.9595771695761
 30
0.0
 11
262.72846914217621
 21
1007.9595771695761
 31
0.0
  0
LINE
  5
D19B
  8
0
 10
470.22846914217621
 20
1008.8075911695749
 30
0.0
 11
468.78341514217601
 21
1000.612281169576
 31
0.0
  0
ARC
  5
D19C
  8
0
 10
466.81379914217609
 20
1000.9595771695761
 30
0.0
 40
2.0
 50
270.0
 51
349.99999999999488
  0
LINE
  5
D19D
  8
0
 10
405.2284691421761
 20
1043.799577169576
 30
0.0
 11
405.2284691421761
 21
1041.0995771695759
 31
0.0
  0
LINE
  5
D19E
  8
0
 10
475.22846914217621
 20
1029.7499401695759
 30
0.0
 11
457.72846914217621
 21
1029.7499401695759
 31
0.0
  0
LINE
  5
D19F
  8
0
 10
475.22846914217621
 20
1042.057579169576
 30
0.0
 11
457.72846914217621
 21
1042.057579169576
 31
0.0
  0
LINE
  5
D1A0
  8
0
 10
475.22846914217621
 20
1052.236871169576
 30
0.0
 11
470.22846914217621
 21
1052.236871169576
 31
0.0
  0
LINE
  5
D1A1
  8
0
 10
455.72846914217621
 20
1051.236871169576
 30
0.0
 11
455.72846914217621
 21
1031.7499401695759
 31
0.0
  0
ARC
  5
D1A2
  8
0
 10
454.7284691421761
 20
1051.236871169576
 30
0.0
 40
1.0
 50
0.0
 51
42.252324000004279
  0
ARC
  5
D1A3
  8
0
 10
457.72846914217621
 20
1031.7499401695759
 30
0.0
 40
2.0
 50
180.0
 51
270.0
  0
LINE
  5
D1A4
  8
0
 10
420.22846914217621
 20
1148.8925351695759
 30
0.0
 11
420.22846914217621
 21
1143.0649721695761
 31
0.0
  0
LINE
  5
D1A5
  8
0
 10
436.22846914217621
 20
1148.8925351695759
 30
0.0
 11
436.22846914217621
 21
1143.0649721695761
 31
0.0
  0
LINE
  5
D1A6
  8
0
 10
420.22846914217621
 20
1139.9340591695759
 30
0.0
 11
420.22846914217621
 21
1132.0098861695751
 31
0.0
  0
LINE
  5
D1A7
  8
0
 10
420.22846914217621
 20
1128.9641801695759
 30
0.0
 11
420.22846914217621
 21
1120.974012169575
 31
0.0
  0
LINE
  5
D1A8
  8
0
 10
420.22846914217621
 20
1117.981385169576
 30
0.0
 11
420.22846914217621
 21
1109.9506841695761
 31
0.0
  0
LINE
  5
D1A9
  8
0
 10
420.22846914217621
 20
1106.9892051695749
 30
0.0
 11
420.22846914217621
 21
1099.9374211695761
 31
0.0
  0
LINE
  5
D1AA
  8
0
 10
420.22846914217621
 20
1097.1195771695759
 30
0.0
 11
420.22846914217621
 21
1086.929425169576
 31
0.0
  0
LINE
  5
D1AB
  8
0
 10
436.22846914217621
 20
1097.1195771695759
 30
0.0
 11
436.22846914217621
 21
1086.929425169576
 31
0.0
  0
LINE
  5
D1AC
  8
0
 10
436.22846914217621
 20
1106.9892051695749
 30
0.0
 11
436.22846914217621
 21
1099.9374211695761
 31
0.0
  0
LINE
  5
D1AD
  8
0
 10
436.22846914217621
 20
1117.981385169576
 30
0.0
 11
436.22846914217621
 21
1109.9506841695761
 31
0.0
  0
LINE
  5
D1AE
  8
0
 10
436.22846914217621
 20
1128.9641801695759
 30
0.0
 11
436.22846914217621
 21
1120.974012169575
 31
0.0
  0
LINE
  5
D1AF
  8
0
 10
436.22846914217621
 20
1139.9340591695759
 30
0.0
 11
436.22846914217621
 21
1132.0098861695751
 31
0.0
  0
LINE
  5
D1B0
  8
0
 10
420.22846914217621
 20
1083.981733169576
 30
0.0
 11
420.22846914217621
 21
1076.929949169576
 31
0.0
  0
LINE
  5
D1B1
  8
0
 10
436.22846914217621
 20
1083.981733169576
 30
0.0
 11
436.22846914217621
 21
1076.929949169576
 31
0.0
  0
LINE
  5
D1B2
  8
0
 10
436.22846914217621
 20
1073.9684701695751
 30
0.0
 11
436.22846914217621
 21
1065.9377691695761
 31
0.0
  0
LINE
  5
D1B3
  8
0
 10
420.22846914217621
 20
1073.9684701695751
 30
0.0
 11
420.22846914217621
 21
1065.9377691695761
 31
0.0
  0
LINE
  5
D1B4
  8
0
 10
420.22846914217621
 20
1062.945142169576
 30
0.0
 11
420.22846914217621
 21
1054.954974169576
 31
0.0
  0
LINE
  5
D1B5
  8
0
 10
436.22846914217621
 20
1062.945142169576
 30
0.0
 11
436.22846914217621
 21
1054.954974169576
 31
0.0
  0
LINE
  5
D1B6
  8
0
 10
450.7778641421761
 20
1035.9387811695749
 30
0.0
 11
436.22846814217621
 21
1035.9387811695749
 31
0.0
  0
LINE
  5
D1B7
  8
0
 10
455.72846914217621
 20
1047.3511311695761
 30
0.0
 11
436.22846814217621
 21
1047.3511311695761
 31
0.0
  0
LINE
  5
D1B8
  8
0
 10
420.22846914217621
 20
1051.9092681695761
 30
0.0
 11
420.22846914217621
 21
1031.9092681695761
 31
0.0
  0
LINE
  5
D1B9
  8
0
 10
472.2284691421761
 20
1175.8232261695759
 30
0.0
 11
472.2284691421761
 21
1179.9595771695761
 31
0.0
  0
LINE
  5
D1BA
  8
0
 10
470.22846914217621
 20
1005.757833169576
 30
0.0
 11
469.32116914217642
 21
1000.612281169576
 31
0.0
  0
ARC
  5
D1BB
  8
0
 10
467.35155414217621
 20
1000.9595771695761
 30
0.0
 40
2.0
 50
270.0
 51
349.99999999999488
  0
LINE
  5
D1BC
  8
0
 10
436.22846914217621
 20
1051.9092681695761
 30
0.0
 11
436.22846914217621
 21
1047.3511311695761
 31
0.0
  0
LINE
  5
D1BD
  8
0
 10
472.2284691421761
 20
1052.236871169576
 30
0.0
 11
472.2284691421761
 21
1154.025539169575
 31
0.0
  0
LINE
  5
D1BE
  8
0
 10
271.2284691421761
 20
1032.0995771695759
 30
0.0
 11
274.31171114217642
 21
1014.613644169576
 31
0.0
  0
ARC
  5
D1BF
  8
0
 10
276.28132614217628
 20
1014.960941169576
 30
0.0
 40
2.0
 50
190.000000000005
 51
270.0
  0
LINE
  5
D1C0
  8
0
 10
420.93386614217582
 20
1040.653871169576
 30
0.0
 11
436.22846914217621
 21
1035.9387811695749
 31
0.0
  0
LINE
  5
D1C1
  8
0
 10
436.22846914217621
 20
1047.3511311695761
 30
0.0
 11
421.19252814217612
 21
1046.8103801695761
 31
0.0
  0
LINE
  5
D1C2
  8
0
 10
436.22846914217621
 20
1035.9387811695749
 30
0.0
 11
436.22846914217621
 21
1027.5673431695759
 31
0.0
  0
ARC
  5
D1C3
  8
0
 10
421.2284691421761
 20
1045.8110261695761
 30
0.0
 40
1.0
 50
92.059690999990565
 51
180.0
  0
ARC
  5
D1C4
  8
0
 10
421.2284691421761
 20
1041.6094911695759
 30
0.0
 40
1.0
 50
180.0
 51
252.86627500000029
  0
LINE
  5
D1C5
  8
0
 10
436.22846914217621
 20
1167.8123641695761
 30
0.0
 11
420.92801014217611
 21
1162.992498169576
 31
0.0
  0
LINE
  5
D1C6
  8
0
 10
421.27702414217578
 20
1158.6888171695759
 30
0.0
 11
436.22846914217621
 21
1159.415637169576
 31
0.0
  0
ARC
  5
D1C7
  8
0
 10
421.2284691421761
 20
1162.038703169575
 30
0.0
 40
1.0
 50
107.4851790000144
 51
180.0
  0
ARC
  5
D1C8
  8
0
 10
421.2284691421761
 20
1159.6876381695761
 30
0.0
 40
1.0
 50
180.0
 51
270.0
  0
ARC
  5
D1C9
  8
0
  6
CONTINUOUS
 10
452.92826814217608
 20
1037.400916169576
 30
0.0
 40
2.6003989999999999
 50
179.99998200000081
 51
269.99997800000818
  0
ARC
  5
D1CA
  8
0
  6
CONTINUOUS
 10
452.92826814217608
 20
1042.700904169576
 30
0.0
 40
2.600403
 50
90.0
 51
179.99998200000081
  0
LINE
  5
D1CB
  8
0
  6
CONTINUOUS
 10
455.72846914217621
 20
1040.116935169576
 30
0.0
 11
454.22846914217621
 21
1039.2509101695759
 31
0.0
  0
LINE
  5
D1CC
  8
0
  6
CONTINUOUS
 10
455.72846914217621
 20
1041.116935169576
 30
0.0
 11
454.22846914217621
 21
1040.2509101695759
 31
0.0
  0
LINE
  5
D1CD
  8
0
  6
CONTINUOUS
 10
455.72846914217621
 20
1046.150910169576
 30
0.0
 11
455.72846914217621
 21
1033.950910169576
 31
0.0
  0
LINE
  5
D1CE
  8
0
  6
CONTINUOUS
 10
454.22846914217621
 20
1046.150910169576
 30
0.0
 11
455.72846914217621
 21
1046.150910169576
 31
0.0
  0
LINE
  5
D1CF
  8
0
  6
CONTINUOUS
 10
454.22846914217621
 20
1033.950910169576
 30
0.0
 11
455.72846914217621
 21
1033.950910169576
 31
0.0
  0
LINE
  5
D1D0
  8
0
  6
CONTINUOUS
 10
450.3284751421761
 20
1042.700904169576
 30
0.0
 11
450.3284751421761
 21
1037.400916169576
 31
0.0
  0
LINE
  5
D1D1
  8
0
  6
CONTINUOUS
 10
454.22846914217621
 20
1046.150910169576
 30
0.0
 11
454.22846914217621
 21
1033.950910169576
 31
0.0
  0
LINE
  5
D1D2
  8
0
  6
CONTINUOUS
 10
454.22846914217621
 20
1034.8009101695759
 30
0.0
 11
452.92826814217608
 21
1034.8009101695759
 31
0.0
  0
LINE
  5
D1D3
  8
0
  6
CONTINUOUS
 10
454.22846914217621
 20
1045.3009101695759
 30
0.0
 11
452.92826814217608
 21
1045.3009101695759
 31
0.0
  0
LINE
  5
D1D4
  8
0
 10
470.22846914217621
 20
1152.1368451695751
 30
0.0
 11
271.2284691421761
 21
1152.1368451695751
 31
0.0
  0
LINE
  5
D1D5
  8
0
 10
470.22846914217621
 20
1148.8925351695759
 30
0.0
 11
271.2284691421761
 21
1148.8925351695759
 31
0.0
  0
LINE
  5
D1D6
  8
0
 10
470.22846914217621
 20
1143.0649721695761
 30
0.0
 11
271.2284691421761
 21
1143.0649721695761
 31
0.0
  0
LINE
  5
D1D7
  8
0
 10
470.22846914217621
 20
1139.9340591695759
 30
0.0
 11
271.2284691421761
 21
1139.9340591695759
 31
0.0
  0
LINE
  5
D1D8
  8
0
 10
470.22846914217621
 20
1132.0098861695751
 30
0.0
 11
271.2284691421761
 21
1132.0098861695751
 31
0.0
  0
LINE
  5
D1D9
  8
0
 10
470.22846914217621
 20
1128.9641801695759
 30
0.0
 11
271.2284691421761
 21
1128.9641801695759
 31
0.0
  0
LINE
  5
D1DA
  8
0
 10
470.22846914217621
 20
1120.974012169575
 30
0.0
 11
271.2284691421761
 21
1120.974012169575
 31
0.0
  0
LINE
  5
D1DB
  8
0
 10
470.22846914217621
 20
1117.981385169576
 30
0.0
 11
271.2284691421761
 21
1117.981385169576
 31
0.0
  0
LINE
  5
D1DC
  8
0
 10
470.22846914217621
 20
1109.9506841695761
 30
0.0
 11
271.2284691421761
 21
1109.9506841695761
 31
0.0
  0
LINE
  5
D1DD
  8
0
 10
470.22846914217621
 20
1106.9892051695749
 30
0.0
 11
271.2284691421761
 21
1106.9892051695749
 31
0.0
  0
LINE
  5
D1DE
  8
0
 10
470.22846914217621
 20
1099.9374211695761
 30
0.0
 11
375.80171214217597
 21
1099.9374211695761
 31
0.0
  0
LINE
  5
D1DF
  8
0
 10
470.22846914217621
 20
1096.9897291695761
 30
0.0
 11
382.61411614217627
 21
1096.9897291695761
 31
0.0
  0
LINE
  5
D1E0
  8
0
 10
468.14954814217612
 20
1151.4595771695761
 30
0.0
 11
468.14954814217612
 21
1149.4595771695761
 31
0.0
  0
LINE
  5
D1E1
  8
0
 10
273.30739014217647
 20
1149.4595771695761
 30
0.0
 11
468.14954814217612
 21
1149.4595771695761
 31
0.0
  0
LINE
  5
D1E2
  8
0
 10
273.30739014217647
 20
1151.4595771695761
 30
0.0
 11
468.14954814217612
 21
1151.4595771695761
 31
0.0
  0
LINE
  5
D1E3
  8
0
 10
273.30739014217647
 20
1140.4595771695761
 30
0.0
 11
468.14954814217612
 21
1140.4595771695761
 31
0.0
  0
LINE
  5
D1E4
  8
0
 10
273.30739014217647
 20
1142.4595771695761
 30
0.0
 11
468.14954814217612
 21
1142.4595771695761
 31
0.0
  0
LINE
  5
D1E5
  8
0
 10
273.30739014217647
 20
1129.4595771695761
 30
0.0
 11
468.14954814217612
 21
1129.4595771695761
 31
0.0
  0
LINE
  5
D1E6
  8
0
 10
273.30739014217647
 20
1131.4595771695761
 30
0.0
 11
468.14954814217612
 21
1131.4595771695761
 31
0.0
  0
LINE
  5
D1E7
  8
0
 10
273.30739014217647
 20
1118.4595771695761
 30
0.0
 11
468.14954814217612
 21
1118.4595771695761
 31
0.0
  0
LINE
  5
D1E8
  8
0
 10
273.30739014217647
 20
1120.4595771695761
 30
0.0
 11
468.14954814217612
 21
1120.4595771695761
 31
0.0
  0
LINE
  5
D1E9
  8
0
 10
273.30739014217647
 20
1107.4595771695761
 30
0.0
 11
468.14954814217612
 21
1107.4595771695761
 31
0.0
  0
LINE
  5
D1EA
  8
0
 10
273.30739014217647
 20
1109.4595771695761
 30
0.0
 11
468.14954814217612
 21
1109.4595771695761
 31
0.0
  0
LINE
  5
D1EB
  8
0
 10
382.0034461421763
 20
1097.4595771695761
 30
0.0
 11
468.14954814217612
 21
1097.4595771695761
 31
0.0
  0
LINE
  5
D1EC
  8
0
 10
376.27520714217621
 20
1099.4595771695761
 30
0.0
 11
468.14954814217612
 21
1099.4595771695761
 31
0.0
  0
LINE
  5
D1ED
  8
0
 10
468.14954814217612
 20
1151.4595771695761
 30
0.0
 11
470.22846914217621
 21
1152.1368451695751
 31
0.0
  0
LINE
  5
D1EE
  8
0
 10
468.14954814217612
 20
1149.4595771695761
 30
0.0
 11
470.22846914217621
 21
1148.8925351695759
 31
0.0
  0
LINE
  5
D1EF
  8
0
 10
468.14954814217612
 20
1142.4595771695761
 30
0.0
 11
470.22846914217621
 21
1143.0649721695761
 31
0.0
  0
LINE
  5
D1F0
  8
0
 10
468.14954814217612
 20
1140.4595771695761
 30
0.0
 11
470.22846914217621
 21
1139.9340591695759
 31
0.0
  0
LINE
  5
D1F1
  8
0
 10
468.14954814217612
 20
1131.4595771695761
 30
0.0
 11
470.22846914217621
 21
1132.0098861695751
 31
0.0
  0
LINE
  5
D1F2
  8
0
 10
468.14954814217612
 20
1129.4595771695761
 30
0.0
 11
470.22846914217621
 21
1128.9641801695759
 31
0.0
  0
LINE
  5
D1F3
  8
0
 10
468.14954814217612
 20
1120.4595771695761
 30
0.0
 11
470.22846914217621
 21
1120.974012169575
 31
0.0
  0
LINE
  5
D1F4
  8
0
 10
468.14954814217612
 20
1118.4595771695761
 30
0.0
 11
470.22846914217621
 21
1117.981385169576
 31
0.0
  0
LINE
  5
D1F5
  8
0
 10
468.14954814217612
 20
1109.4595771695761
 30
0.0
 11
470.22846914217621
 21
1109.9506841695761
 31
0.0
  0
LINE
  5
D1F6
  8
0
 10
468.14954814217612
 20
1107.4595771695761
 30
0.0
 11
470.22846914217621
 21
1106.9892051695749
 31
0.0
  0
LINE
  5
D1F7
  8
0
 10
468.14954814217612
 20
1099.4595771695761
 30
0.0
 11
470.22846914217621
 21
1099.9374211695761
 31
0.0
  0
LINE
  5
D1F8
  8
0
 10
468.14954814217612
 20
1097.4595771695761
 30
0.0
 11
470.22846914217621
 21
1096.9897291695761
 31
0.0
  0
LINE
  5
D1F9
  8
0
 10
468.14954814217612
 20
1142.4595771695761
 30
0.0
 11
468.14954814217612
 21
1140.4595771695761
 31
0.0
  0
LINE
  5
D1FA
  8
0
 10
468.14954814217612
 20
1131.4595771695761
 30
0.0
 11
468.14954814217612
 21
1129.4595771695761
 31
0.0
  0
LINE
  5
D1FB
  8
0
 10
468.14954814217612
 20
1120.4595771695761
 30
0.0
 11
468.14954814217612
 21
1118.4595771695761
 31
0.0
  0
LINE
  5
D1FC
  8
0
 10
468.14954814217612
 20
1109.4595771695761
 30
0.0
 11
468.14954814217612
 21
1107.4595771695761
 31
0.0
  0
LINE
  5
D1FD
  8
0
 10
468.14954814217612
 20
1099.4595771695761
 30
0.0
 11
468.14954814217612
 21
1097.4595771695761
 31
0.0
  0
ARC
  5
D1FE
  8
0
 10
382.0034461421763
 20
1094.4595771695749
 30
0.0
 40
3.0
 50
90.0
 51
190.28656100000819
  0
ARC
  5
D1FF
  8
0
 10
382.61411614217627
 20
1093.5197291695749
 30
0.0
 40
3.4700000000000002
 50
90.0
 51
186.1896490000004
  0
LINE
  5
D200
  8
0
 10
288.30739014217647
 20
1099.4595771695761
 30
0.0
 11
288.30739014217647
 21
1097.4595771695761
 31
0.0
  0
LINE
  5
D201
  8
0
 10
273.30739014217647
 20
1109.4595771695761
 30
0.0
 11
273.30739014217647
 21
1107.4595771695761
 31
0.0
  0
LINE
  5
D202
  8
0
 10
273.30739014217647
 20
1120.4595771695761
 30
0.0
 11
273.30739014217647
 21
1118.4595771695761
 31
0.0
  0
LINE
  5
D203
  8
0
 10
273.30739014217647
 20
1131.4595771695761
 30
0.0
 11
273.30739014217647
 21
1129.4595771695761
 31
0.0
  0
LINE
  5
D204
  8
0
 10
273.30739014217647
 20
1142.4595771695761
 30
0.0
 11
273.30739014217647
 21
1140.4595771695761
 31
0.0
  0
LINE
  5
D205
  8
0
 10
288.30739014217647
 20
1097.4595771695761
 30
0.0
 11
286.2284691421761
 21
1096.9897291695761
 31
0.0
  0
LINE
  5
D206
  8
0
 10
288.30739014217647
 20
1099.4595771695761
 30
0.0
 11
286.2284691421761
 21
1099.9374211695761
 31
0.0
  0
LINE
  5
D207
  8
0
 10
273.30739014217647
 20
1107.4595771695761
 30
0.0
 11
271.2284691421761
 21
1106.9892051695749
 31
0.0
  0
LINE
  5
D208
  8
0
 10
273.30739014217647
 20
1109.4595771695761
 30
0.0
 11
271.2284691421761
 21
1109.9506841695761
 31
0.0
  0
LINE
  5
D209
  8
0
 10
273.30739014217647
 20
1118.4595771695761
 30
0.0
 11
271.2284691421761
 21
1117.981385169576
 31
0.0
  0
LINE
  5
D20A
  8
0
 10
273.30739014217647
 20
1120.4595771695761
 30
0.0
 11
271.2284691421761
 21
1120.974012169575
 31
0.0
  0
LINE
  5
D20B
  8
0
 10
273.30739014217647
 20
1129.4595771695761
 30
0.0
 11
271.2284691421761
 21
1128.9641801695759
 31
0.0
  0
LINE
  5
D20C
  8
0
 10
273.30739014217647
 20
1131.4595771695761
 30
0.0
 11
271.2284691421761
 21
1132.0098861695751
 31
0.0
  0
LINE
  5
D20D
  8
0
 10
273.30739014217647
 20
1140.4595771695761
 30
0.0
 11
271.2284691421761
 21
1139.9340591695759
 31
0.0
  0
LINE
  5
D20E
  8
0
 10
273.30739014217647
 20
1142.4595771695761
 30
0.0
 11
271.2284691421761
 21
1143.0649721695761
 31
0.0
  0
LINE
  5
D20F
  8
0
 10
273.30739014217647
 20
1149.4595771695761
 30
0.0
 11
271.2284691421761
 21
1148.8925351695759
 31
0.0
  0
LINE
  5
D210
  8
0
 10
273.30739014217647
 20
1151.4595771695761
 30
0.0
 11
271.2284691421761
 21
1152.1368451695751
 31
0.0
  0
LINE
  5
D211
  8
0
 10
273.30739014217647
 20
1151.4595771695761
 30
0.0
 11
273.30739014217647
 21
1149.4595771695761
 31
0.0
  0
LINE
  5
D212
  8
0
 10
271.2284691421761
 20
1148.8925351695759
 30
0.0
 11
271.2284691421761
 21
1152.1368451695751
 31
0.0
  0
LINE
  5
D213
  8
0
 10
271.2284691421761
 20
1139.9340591695759
 30
0.0
 11
271.2284691421761
 21
1143.0649721695761
 31
0.0
  0
LINE
  5
D214
  8
0
 10
271.2284691421761
 20
1128.9641801695759
 30
0.0
 11
271.2284691421761
 21
1132.0098861695751
 31
0.0
  0
LINE
  5
D215
  8
0
 10
271.2284691421761
 20
1117.981385169576
 30
0.0
 11
271.2284691421761
 21
1120.974012169575
 31
0.0
  0
LINE
  5
D216
  8
0
 10
271.2284691421761
 20
1106.9892051695749
 30
0.0
 11
271.2284691421761
 21
1109.9506841695761
 31
0.0
  0
LINE
  5
D217
  8
0
 10
286.2284691421761
 20
1096.9897291695761
 30
0.0
 11
286.2284691421761
 21
1099.9374211695761
 31
0.0
  0
LINE
  5
D218
  8
0
 10
286.2284691421761
 20
1099.9374211695761
 30
0.0
 11
360.65522614217639
 21
1099.9374211695761
 31
0.0
  0
LINE
  5
D219
  8
0
 10
286.2284691421761
 20
1096.9897291695761
 30
0.0
 11
353.84282214217609
 21
1096.9897291695761
 31
0.0
  0
LINE
  5
D21A
  8
0
 10
354.45349214217617
 20
1097.4595771695761
 30
0.0
 11
288.30739014217647
 21
1097.4595771695761
 31
0.0
  0
LINE
  5
D21B
  8
0
 10
360.1817311421762
 20
1099.4595771695761
 30
0.0
 11
288.30739014217647
 21
1099.4595771695761
 31
0.0
  0
ARC
  5
D21C
  8
0
 10
354.45349214217617
 20
1094.4595771695749
 30
0.0
 40
3.0
 50
349.71343899999181
 51
90.0
  0
ARC
  5
D21D
  8
0
 10
353.84282214217609
 20
1093.5197291695749
 30
0.0
 40
3.4700000000000002
 50
353.81035099999951
 51
90.0
  0
LINE
  5
D21E
  8
0
 10
470.22846914217621
 20
1051.9092681695761
 30
0.0
 11
271.2284691421761
 21
1051.9092681695761
 31
0.0
  0
LINE
  5
D21F
  8
0
 10
470.22846914217621
 20
1054.954974169576
 30
0.0
 11
271.2284691421761
 21
1054.954974169576
 31
0.0
  0
LINE
  5
D220
  8
0
 10
470.22846914217621
 20
1062.945142169576
 30
0.0
 11
271.2284691421761
 21
1062.945142169576
 31
0.0
  0
LINE
  5
D221
  8
0
 10
470.22846914217621
 20
1065.9377691695761
 30
0.0
 11
271.2284691421761
 21
1065.9377691695761
 31
0.0
  0
LINE
  5
D222
  8
0
 10
470.22846914217621
 20
1073.9684701695751
 30
0.0
 11
271.2284691421761
 21
1073.9684701695751
 31
0.0
  0
LINE
  5
D223
  8
0
 10
470.22846914217621
 20
1076.929949169576
 30
0.0
 11
271.2284691421761
 21
1076.929949169576
 31
0.0
  0
LINE
  5
D224
  8
0
 10
273.30739014217647
 20
1054.4595771695761
 30
0.0
 11
468.14954814217612
 21
1054.4595771695761
 31
0.0
  0
LINE
  5
D225
  8
0
 10
273.30739014217647
 20
1052.4595771695749
 30
0.0
 11
468.14954814217612
 21
1052.4595771695749
 31
0.0
  0
LINE
  5
D226
  8
0
 10
273.30739014217647
 20
1065.4595771695761
 30
0.0
 11
468.14954814217612
 21
1065.4595771695761
 31
0.0
  0
LINE
  5
D227
  8
0
 10
273.30739014217647
 20
1063.4595771695761
 30
0.0
 11
468.14954814217612
 21
1063.4595771695761
 31
0.0
  0
LINE
  5
D228
  8
0
 10
273.30739014217647
 20
1076.4595771695749
 30
0.0
 11
468.14954814217612
 21
1076.4595771695749
 31
0.0
  0
LINE
  5
D229
  8
0
 10
273.30739014217647
 20
1074.4595771695761
 30
0.0
 11
468.14954814217612
 21
1074.4595771695761
 31
0.0
  0
LINE
  5
D22A
  8
0
 10
286.2284691421761
 20
1083.981733169576
 30
0.0
 11
360.65522614217639
 21
1083.981733169576
 31
0.0
  0
LINE
  5
D22B
  8
0
 10
286.2284691421761
 20
1086.929425169576
 30
0.0
 11
353.84282214217609
 21
1086.929425169576
 31
0.0
  0
LINE
  5
D22C
  8
0
 10
354.45349214217617
 20
1086.4595771695761
 30
0.0
 11
288.30739014217647
 21
1086.4595771695761
 31
0.0
  0
LINE
  5
D22D
  8
0
 10
360.1817311421762
 20
1084.4595771695749
 30
0.0
 11
288.30739014217647
 21
1084.4595771695749
 31
0.0
  0
LINE
  5
D22E
  8
0
 10
286.2284691421761
 20
1086.929425169576
 30
0.0
 11
286.2284691421761
 21
1083.981733169576
 31
0.0
  0
LINE
  5
D22F
  8
0
 10
271.2284691421761
 20
1076.929949169576
 30
0.0
 11
271.2284691421761
 21
1073.9684701695751
 31
0.0
  0
LINE
  5
D230
  8
0
 10
271.2284691421761
 20
1065.9377691695761
 30
0.0
 11
271.2284691421761
 21
1062.945142169576
 31
0.0
  0
LINE
  5
D231
  8
0
 10
271.2284691421761
 20
1054.954974169576
 30
0.0
 11
271.2284691421761
 21
1051.9092681695761
 31
0.0
  0
LINE
  5
D232
  8
0
 10
273.30739014217647
 20
1052.4595771695749
 30
0.0
 11
271.2284691421761
 21
1051.9092681695761
 31
0.0
  0
LINE
  5
D233
  8
0
 10
273.30739014217647
 20
1054.4595771695761
 30
0.0
 11
271.2284691421761
 21
1054.954974169576
 31
0.0
  0
LINE
  5
D234
  8
0
 10
273.30739014217647
 20
1063.4595771695761
 30
0.0
 11
271.2284691421761
 21
1062.945142169576
 31
0.0
  0
LINE
  5
D235
  8
0
 10
273.30739014217647
 20
1065.4595771695761
 30
0.0
 11
271.2284691421761
 21
1065.9377691695761
 31
0.0
  0
LINE
  5
D236
  8
0
 10
273.30739014217647
 20
1074.4595771695761
 30
0.0
 11
271.2284691421761
 21
1073.9684701695751
 31
0.0
  0
LINE
  5
D237
  8
0
 10
273.30739014217647
 20
1076.4595771695749
 30
0.0
 11
271.2284691421761
 21
1076.929949169576
 31
0.0
  0
LINE
  5
D238
  8
0
 10
288.30739014217647
 20
1084.4595771695749
 30
0.0
 11
286.2284691421761
 21
1083.981733169576
 31
0.0
  0
LINE
  5
D239
  8
0
 10
288.30739014217647
 20
1086.4595771695761
 30
0.0
 11
286.2284691421761
 21
1086.929425169576
 31
0.0
  0
LINE
  5
D23A
  8
0
 10
273.30739014217647
 20
1052.4595771695749
 30
0.0
 11
273.30739014217647
 21
1054.4595771695761
 31
0.0
  0
LINE
  5
D23B
  8
0
 10
273.30739014217647
 20
1063.4595771695761
 30
0.0
 11
273.30739014217647
 21
1065.4595771695761
 31
0.0
  0
LINE
  5
D23C
  8
0
 10
273.30739014217647
 20
1074.4595771695761
 30
0.0
 11
273.30739014217647
 21
1076.4595771695749
 31
0.0
  0
LINE
  5
D23D
  8
0
 10
288.30739014217647
 20
1084.4595771695749
 30
0.0
 11
288.30739014217647
 21
1086.4595771695761
 31
0.0
  0
ARC
  5
D23E
  8
0
 10
354.45349214217617
 20
1089.4595771695761
 30
0.0
 40
3.0
 50
270.0
 51
10.28656100000822
  0
ARC
  5
D23F
  8
0
 10
353.84282214217609
 20
1090.399425169576
 30
0.0
 40
3.4700000000000002
 50
270.0
 51
6.1896490000005366
  0
LINE
  5
D240
  8
0
 10
470.22846914217621
 20
1083.981733169576
 30
0.0
 11
375.80171214217597
 21
1083.981733169576
 31
0.0
  0
LINE
  5
D241
  8
0
 10
470.22846914217621
 20
1086.929425169576
 30
0.0
 11
382.61411614217627
 21
1086.929425169576
 31
0.0
  0
LINE
  5
D242
  8
0
 10
382.0034461421763
 20
1086.4595771695761
 30
0.0
 11
468.14954814217612
 21
1086.4595771695761
 31
0.0
  0
LINE
  5
D243
  8
0
 10
376.27520714217621
 20
1084.4595771695749
 30
0.0
 11
468.14954814217612
 21
1084.4595771695749
 31
0.0
  0
ARC
  5
D244
  8
0
 10
382.0034461421763
 20
1089.4595771695761
 30
0.0
 40
3.0
 50
169.71343899999181
 51
270.0
  0
ARC
  5
D245
  8
0
 10
382.61411614217627
 20
1090.399425169576
 30
0.0
 40
3.4700000000000002
 50
173.8103509999994
 51
270.0
  0
LINE
  5
D246
  8
0
 10
468.14954814217612
 20
1084.4595771695749
 30
0.0
 11
468.14954814217612
 21
1086.4595771695761
 31
0.0
  0
LINE
  5
D247
  8
0
 10
468.14954814217612
 20
1074.4595771695761
 30
0.0
 11
468.14954814217612
 21
1076.4595771695749
 31
0.0
  0
LINE
  5
D248
  8
0
 10
468.14954814217612
 20
1063.4595771695761
 30
0.0
 11
468.14954814217612
 21
1065.4595771695761
 31
0.0
  0
LINE
  5
D249
  8
0
 10
468.14954814217612
 20
1052.4595771695749
 30
0.0
 11
468.14954814217612
 21
1054.4595771695761
 31
0.0
  0
LINE
  5
D24A
  8
0
 10
468.14954814217612
 20
1086.4595771695761
 30
0.0
 11
470.22846914217621
 21
1086.929425169576
 31
0.0
  0
LINE
  5
D24B
  8
0
 10
468.14954814217612
 20
1084.4595771695749
 30
0.0
 11
470.22846914217621
 21
1083.981733169576
 31
0.0
  0
LINE
  5
D24C
  8
0
 10
468.14954814217612
 20
1076.4595771695749
 30
0.0
 11
470.22846914217621
 21
1076.929949169576
 31
0.0
  0
LINE
  5
D24D
  8
0
 10
468.14954814217612
 20
1074.4595771695761
 30
0.0
 11
470.22846914217621
 21
1073.9684701695751
 31
0.0
  0
LINE
  5
D24E
  8
0
 10
468.14954814217612
 20
1065.4595771695761
 30
0.0
 11
470.22846914217621
 21
1065.9377691695761
 31
0.0
  0
LINE
  5
D24F
  8
0
 10
468.14954814217612
 20
1063.4595771695761
 30
0.0
 11
470.22846914217621
 21
1062.945142169576
 31
0.0
  0
LINE
  5
D250
  8
0
 10
468.14954814217612
 20
1054.4595771695761
 30
0.0
 11
470.22846914217621
 21
1054.954974169576
 31
0.0
  0
LINE
  5
D251
  8
0
 10
468.14954814217612
 20
1052.4595771695749
 30
0.0
 11
470.22846914217621
 21
1051.9092681695761
 31
0.0
  0
LINE
  5
D252
  8
0
 10
470.22846914217621
 20
1054.954974169576
 30
0.0
 11
470.22846914217621
 21
1051.9092681695761
 31
0.0
  0
LINE
  5
D253
  8
0
 10
470.22846914217621
 20
1065.9377691695761
 30
0.0
 11
470.22846914217621
 21
1062.945142169576
 31
0.0
  0
LINE
  5
D254
  8
0
 10
470.22846914217621
 20
1076.929949169576
 30
0.0
 11
470.22846914217621
 21
1073.9684701695751
 31
0.0
  0
LINE
  5
D255
  8
0
 10
470.22846914217621
 20
1086.929425169576
 30
0.0
 11
470.22846914217621
 21
1083.981733169576
 31
0.0
  0
LINE
  5
D256
  8
0
 10
403.14954814217577
 20
1043.4595771695761
 30
0.0
 11
405.2284691421761
 21
1043.9549741695751
 31
0.0
  0
LINE
  5
D257
  8
0
 10
405.2284691421761
 20
1043.9549741695751
 30
0.0
 11
271.2284691421761
 21
1043.9549741695751
 31
0.0
  0
LINE
  5
D258
  8
0
 10
273.30739014217647
 20
1043.4595771695761
 30
0.0
 11
403.14954814217577
 21
1043.4595771695761
 31
0.0
  0
LINE
  5
D259
  8
0
 10
403.14954814217577
 20
1041.4595771695761
 30
0.0
 11
403.14954814217577
 21
1043.4595771695761
 31
0.0
  0
LINE
  5
D25A
  8
0
 10
405.2284691421761
 20
1040.9092681695761
 30
0.0
 11
271.2284691421761
 21
1040.9092681695761
 31
0.0
  0
LINE
  5
D25B
  8
0
 10
273.30739014217647
 20
1041.4595771695761
 30
0.0
 11
403.14954814217577
 21
1041.4595771695761
 31
0.0
  0
LINE
  5
D25C
  8
0
 10
403.14954814217577
 20
1041.4595771695761
 30
0.0
 11
405.2284691421761
 21
1040.9092681695761
 31
0.0
  0
LINE
  5
D25D
  8
0
 10
405.2284691421761
 20
1034.954974169576
 30
0.0
 11
271.2284691421761
 21
1034.954974169576
 31
0.0
  0
LINE
  5
D25E
  8
0
 10
273.30739014217647
 20
1034.4595771695761
 30
0.0
 11
403.14954814217577
 21
1034.4595771695761
 31
0.0
  0
LINE
  5
D25F
  8
0
 10
405.2284691421761
 20
1031.9092681695761
 30
0.0
 11
271.26202614217601
 21
1031.9092681695761
 31
0.0
  0
LINE
  5
D260
  8
0
 10
273.30739014217647
 20
1032.4595771695761
 30
0.0
 11
403.14954814217577
 21
1032.4595771695761
 31
0.0
  0
LINE
  5
D261
  8
0
 10
403.14954814217577
 20
1032.4595771695761
 30
0.0
 11
405.2284691421761
 21
1031.9092681695761
 31
0.0
  0
LINE
  5
D262
  8
0
 10
405.2284691421761
 20
1034.954974169576
 30
0.0
 11
405.2284691421761
 21
1031.9092681695761
 31
0.0
  0
LINE
  5
D263
  8
0
 10
403.14954814217577
 20
1032.4595771695761
 30
0.0
 11
403.14954814217577
 21
1034.4595771695761
 31
0.0
  0
LINE
  5
D264
  8
0
 10
403.14954814217577
 20
1034.4595771695761
 30
0.0
 11
405.2284691421761
 21
1034.954974169576
 31
0.0
  0
LINE
  5
D265
  8
0
 10
405.2284691421761
 20
1031.9092681695761
 30
0.0
 11
420.22846914217621
 21
1031.9092681695761
 31
0.0
  0
LINE
  5
D266
  8
0
 10
420.22846914217621
 20
1031.9092681695761
 30
0.0
 11
436.22846914217621
 21
1027.5673431695759
 31
0.0
  0
LINE
  5
D267
  8
0
 10
271.2284691421761
 20
1043.9549741695751
 30
0.0
 11
271.2284691421761
 21
1040.9092681695761
 31
0.0
  0
LINE
  5
D268
  8
0
 10
271.2284691421761
 20
1034.954974169576
 30
0.0
 11
271.2284691421761
 21
1031.9092681695761
 31
0.0
  0
LINE
  5
D269
  8
0
 10
273.30739014217647
 20
1041.4595771695761
 30
0.0
 11
273.30739014217647
 21
1043.4595771695761
 31
0.0
  0
LINE
  5
D26A
  8
0
 10
273.30739014217647
 20
1043.4595771695761
 30
0.0
 11
271.2284691421761
 21
1043.9549741695751
 31
0.0
  0
LINE
  5
D26B
  8
0
 10
273.30739014217647
 20
1041.4595771695761
 30
0.0
 11
271.2284691421761
 21
1040.9092681695761
 31
0.0
  0
LINE
  5
D26C
  8
0
 10
273.30739014217647
 20
1034.4595771695761
 30
0.0
 11
271.2284691421761
 21
1034.954974169576
 31
0.0
  0
LINE
  5
D26D
  8
0
 10
273.30739014217647
 20
1032.4595771695761
 30
0.0
 11
273.30739014217647
 21
1034.4595771695761
 31
0.0
  0
LINE
  5
D26E
  8
0
 10
273.30739014217647
 20
1032.4595771695761
 30
0.0
 11
271.2284691421761
 21
1031.9092681695761
 31
0.0
  0
LINE
  5
D26F
  8
0
 10
163.128499142176
 20
1191.9595771695761
 30
0.0
 11
240.72846914217621
 21
1191.9595771695761
 31
0.0
  0
LINE
  5
D270
  8
0
 10
163.128499142176
 20
1197.9595771695761
 30
0.0
 11
240.72846914217621
 21
1197.9595771695761
 31
0.0
  0
LINE
  5
D271
  8
0
 10
262.72846914217621
 20
1188.9595771695761
 30
0.0
 11
159.22846914217621
 21
1188.9595771695761
 31
0.0
  0
LINE
  5
D272
  8
0
 10
251.72846914217621
 20
1191.9595771695761
 30
0.0
 11
265.2284691421761
 21
1191.9595771695761
 31
0.0
  0
ARC
  5
D273
  8
0
 10
909.51544914217607
 20
1091.9595771695761
 30
0.0
 40
764.28698999999995
 50
172.82194999999871
 51
187.17804000000049
  0
LINE
  5
D274
  8
0
 10
155.878499142176
 20
998.35953716957556
 30
0.0
 11
155.878499142176
 21
1185.649517169576
 31
0.0
  0
LINE
  5
D275
  8
0
 10
150.22846914217621
 20
1154.399517169576
 30
0.0
 11
150.22846914217621
 21
1028.8195571695751
 31
0.0
  0
LINE
  5
D276
  8
0
 10
148.22846914217621
 20
1154.399517169576
 30
0.0
 11
148.22846914217621
 21
1029.509497169576
 31
0.0
  0
LINE
  5
D277
  8
0
 10
262.72846914217621
 20
994.95957716957582
 30
0.0
 11
159.22846914217621
 21
994.95957716957582
 31
0.0
  0
LINE
  5
D278
  8
0
 10
150.37843914217609
 20
1026.1295571695759
 30
0.0
 11
155.2884691421761
 21
998.25955716957594
 31
0.0
  0
ARC
  5
D279
  8
0
 10
163.1302091421764
 20
997.95761716957566
 30
0.0
 40
5.9980479999999998
 50
207.05350999999459
 51
269.98324000000241
  0
ARC
  5
D27A
  8
0
 10
163.1309391421762
 20
997.95566716957569
 30
0.0
 40
11.996128000000001
 50
187.16444000000149
 51
269.98822000000808
  0
ARC
  5
D27B
  8
0
 10
149.38886914217591
 20
1025.9626271695761
 30
0.0
 40
1.0035289999999999
 50
9.5734909999996063
 51
62.10181499998955
  0
ARC
  5
D27C
  8
0
 10
151.2270091421762
 20
1029.5175571695761
 30
0.0
 40
2.9985330000000001
 50
180.1533100000014
 51
242.84512999999231
  0
ARC
  5
D27D
  8
0
 10
159.2278591421761
 20
998.96091716957585
 30
0.0
 40
4.0014059999999976
 50
190.09553000000011
 51
270.00785000000678
  0
LINE
  5
D27E
  8
0
 10
150.37843914217609
 20
1157.7795171695759
 30
0.0
 11
155.28840914217631
 21
1185.649517169576
 31
0.0
  0
ARC
  5
D27F
  8
0
 10
159.22798914217651
 20
1184.9601871695761
 30
0.0
 40
3.9993959999999982
 50
89.993275000011238
 51
170.07406000000469
  0
ARC
  5
D280
  8
0
 10
149.38911914217601
 20
1157.9587171695759
 30
0.0
 40
1.005431999999995
 50
297.82706000000439
 51
349.7352699999982
  0
ARC
  5
D281
  8
0
 10
151.225669142176
 20
1154.402327169576
 30
0.0
 40
2.997211999999998
 50
117.13965999999481
 51
180.05331000000339
  0
ARC
  5
D282
  8
0
 10
163.1293491421763
 20
1185.9628671695759
 30
0.0
 40
5.9966319999999991
 50
90.008472000013285
 51
152.954760000004
  0
ARC
  5
D283
  8
0
 10
163.1299591421764
 20
1185.9645171695761
 30
0.0
 40
11.995034
 50
90.007167000000024
 51
172.84015999999829
  0
LINE
  5
D284
  8
0
 10
142.83845914217611
 20
1086.9595771695761
 30
0.0
 11
142.83845914217611
 21
1096.9595771695761
 31
0.0
  0
LINE
  5
D285
  8
0
 10
145.24848914217611
 20
1096.9595771695761
 30
0.0
 11
142.83845914217611
 21
1096.9595771695761
 31
0.0
  0
LINE
  5
D286
  8
0
 10
145.24848914217611
 20
1086.9595771695761
 30
0.0
 11
142.83845914217611
 21
1086.9595771695761
 31
0.0
  0
LINE
  5
D287
  8
0
 10
265.2284691421761
 20
1197.9595771695761
 30
0.0
 11
265.2284691421761
 21
1191.9595771695761
 31
0.0
  0
LINE
  5
D288
  8
0
 10
240.72846914217621
 20
1198.9595771695761
 30
0.0
 11
240.72846914217621
 21
1188.9595771695761
 31
0.0
  0
LINE
  5
D289
  8
0
 10
251.72846914217621
 20
1198.9595771695761
 30
0.0
 11
251.72846914217621
 21
1188.9595771695761
 31
0.0
  0
LINE
  5
D28A
  8
0
 10
251.72846914217621
 20
1197.9595771695761
 30
0.0
 11
265.2284691421761
 21
1197.9595771695761
 31
0.0
  0
LINE
  5
D28B
  8
0
 10
240.72846914217621
 20
1198.9595771695761
 30
0.0
 11
251.72846914217621
 21
1198.9595771695761
 31
0.0
  0
LINE
  5
D28C
  8
0
 10
163.1284951421764
 20
991.95953616957581
 30
0.0
 11
240.72846514217619
 21
991.95953316957582
 31
0.0
  0
LINE
  5
D28D
  8
0
 10
163.1284951421764
 20
985.95953616957581
 30
0.0
 11
240.72846514217619
 21
985.95953316957571
 31
0.0
  0
LINE
  5
D28E
  8
0
 10
240.72846514217619
 20
984.95953316957571
 30
0.0
 11
240.72846514217619
 21
994.95953316957571
 31
0.0
  0
LINE
  5
D28F
  8
0
 10
240.72846514217619
 20
984.95953316957571
 30
0.0
 11
251.72846514217611
 21
984.95953316957571
 31
0.0
  0
LINE
  5
D290
  8
0
 10
251.72846514217611
 20
984.95953316957571
 30
0.0
 11
251.72846514217611
 21
994.95953316957571
 31
0.0
  0
LINE
  5
D291
  8
0
 10
251.72846514217611
 20
985.95953316957571
 30
0.0
 11
265.22846514217622
 21
985.95953316957571
 31
0.0
  0
LINE
  5
D292
  8
0
 10
265.22846514217622
 20
985.95953316957571
 30
0.0
 11
265.22846514217622
 21
991.95953316957582
 31
0.0
  0
LINE
  5
D293
  8
0
 10
251.72846514217611
 20
991.95953316957582
 30
0.0
 11
265.22846514217622
 21
991.95953316957582
 31
0.0
  0
LINE
  5
D294
  8
0
 10
262.72846914217621
 20
1099.6033481695761
 30
0.0
 11
274.22846914217621
 21
1099.6033481695761
 31
0.0
  0
LINE
  5
D295
  8
0
 10
262.72846914217621
 20
1099.9374261695759
 30
0.0
 11
274.9084691421761
 21
1099.9374261695759
 31
0.0
  0
LINE
  5
D296
  8
0
 10
276.2284691421761
 20
1097.6033481695761
 30
0.0
 11
276.2284691421761
 21
1091.959581169576
 31
0.0
  0
LINE
  5
D297
  8
0
 10
277.90846914217599
 20
1102.9374261695759
 30
0.0
 11
277.90846914217599
 21
1091.959581169576
 31
0.0
  0
ARC
  5
D298
  8
0
 10
274.9084691421761
 20
1102.9374261695759
 30
0.0
 40
3.0
 50
270.0
 51
0.0
  0
LINE
  5
D299
  8
0
 10
262.72846914217621
 20
1084.3158131695759
 30
0.0
 11
274.22846914217621
 21
1084.3158131695759
 31
0.0
  0
LINE
  5
D29A
  8
0
 10
262.72846914217621
 20
1083.9817360599261
 30
0.0
 11
274.9084691421761
 21
1083.981735169576
 31
0.0
  0
LINE
  5
D29B
  8
0
 10
276.2284691421761
 20
1086.3158131695759
 30
0.0
 11
276.2284691421761
 21
1091.959581169576
 31
0.0
  0
LINE
  5
D29C
  8
0
 10
277.90846914217599
 20
1080.981735169576
 30
0.0
 11
277.90846914217599
 21
1091.959581169576
 31
0.0
  0
ARC
  5
D29D
  8
0
 10
274.9084691421761
 20
1080.981735169576
 30
0.0
 40
3.0
 50
359.99999799999722
 51
89.999998000010223
  0
LINE
  5
D568
  8
0
  6
CONTINUOUS
 62
     7
 10
690.2284291421762
 20
1250.906637169576
 30
0.0
 11
690.2284291421762
 21
933.01255716957576
 31
0.0
  0
LINE
  5
D569
  8
0
  6
CENTER
 62
     7
 10
650.22842914217597
 20
1074.824687169576
 30
0.0
 11
650.22842914217597
 21
1107.8729071695759
 31
0.0
  0
LINE
  5
D56A
  8
0
  6
CONTINUOUS
 62
     7
 10
630.22842914217631
 20
1086.9595771695761
 30
0.0
 11
670.2284291421762
 21
1086.9595771695761
 31
0.0
  0
LINE
  5
D56B
  8
0
  6
CONTINUOUS
 62
     7
 10
630.22842914217631
 20
1096.9595771695761
 30
0.0
 11
670.2284291421762
 21
1096.9595771695761
 31
0.0
  0
LINE
  5
D56C
  8
0
  6
CONTINUOUS
 62
     7
 10
570.72846914217814
 20
979.95957716957594
 30
0.0
 11
610.22836914217612
 21
979.95957716957594
 31
0.0
  0
LINE
  5
D56D
  8
0
  6
CONTINUOUS
 62
     7
 10
539.72846914217621
 20
971.95957716957594
 30
0.0
 11
566.72846914217621
 21
971.95957716957594
 31
0.0
  0
LINE
  5
D56E
  8
0
  6
CONTINUOUS
 62
     7
 10
539.72846914217621
 20
1211.9595371695759
 30
0.0
 11
566.72846914217621
 21
1211.9595371695759
 31
0.0
  0
LINE
  5
D56F
  8
0
  6
CONTINUOUS
 62
     7
 10
568.72836914217805
 20
1209.9595371695759
 30
0.0
 11
568.72836914217805
 21
973.95957716957594
 31
0.0
  0
LINE
  5
D570
  8
0
  6
CONTINUOUS
 62
     7
 10
570.72846914217814
 20
1203.9595371695759
 30
0.0
 11
610.22836914217612
 21
1203.9595371695759
 31
0.0
  0
LINE
  5
D571
  8
0
  6
CONTINUOUS
 62
     7
 10
555.72846914217621
 20
1211.9595371695759
 30
0.0
 11
555.72846914217621
 21
971.95957716957594
 31
0.0
  0
LINE
  5
D572
  8
0
  6
CONTINUOUS
 62
     7
 10
568.72836914217805
 20
1021.026777169576
 30
0.0
 11
615.22836914217612
 21
1021.026777169576
 31
0.0
  0
LINE
  5
D573
  8
0
  6
CONTINUOUS
 62
     7
 10
555.72846914217621
 20
1191.686737169576
 30
0.0
 11
568.72836914217805
 21
1191.686737169576
 31
0.0
  0
LINE
  5
D574
  8
0
  6
CONTINUOUS
 62
     7
 10
555.72846914217621
 20
1176.130337169576
 30
0.0
 11
568.72836914217805
 21
1176.130337169576
 31
0.0
  0
LINE
  5
D575
  8
0
  6
CONTINUOUS
 62
     7
 10
568.72836914217805
 20
1162.892337169576
 30
0.0
 11
615.22836914217612
 21
1162.892337169576
 31
0.0
  0
LINE
  5
D576
  8
0
  6
CONTINUOUS
 62
     7
 10
555.72846914217621
 20
1167.956137169575
 30
0.0
 11
568.72836914217805
 21
1167.956137169575
 31
0.0
  0
LINE
  5
D577
  8
0
  6
CONTINUOUS
 62
     7
 10
555.72846914217621
 20
1015.962867169576
 30
0.0
 11
568.72836914217805
 21
1015.962867169576
 31
0.0
  0
LINE
  5
D578
  8
0
  6
CONTINUOUS
 62
     7
 10
568.72836914217805
 20
1178.6345371695741
 30
0.0
 11
615.22836914217612
 21
1178.6345371695741
 31
0.0
  0
LINE
  5
D579
  8
0
  6
CONTINUOUS
 62
     7
 10
555.72846914217621
 20
1007.788677169576
 30
0.0
 11
568.72836914217805
 21
1007.788677169576
 31
0.0
  0
LINE
  5
D57A
  8
0
  6
CONTINUOUS
 62
     7
 10
555.72846914217621
 20
992.232337169576
 30
0.0
 11
568.72836914217805
 21
992.232337169576
 31
0.0
  0
LINE
  5
D57B
  8
0
  6
CONTINUOUS
 62
     7
 10
568.72836914217805
 20
1005.284707169576
 30
0.0
 11
615.22836914217612
 21
1005.284707169576
 31
0.0
  0
LINE
  5
D57C
  8
0
  6
CONTINUOUS
 62
     7
 10
635.22836914217612
 20
939.76163716957592
 30
0.0
 11
635.22836914217612
 21
1086.9595771695761
 31
0.0
  0
LINE
  5
D57D
  8
0
  6
CONTINUOUS
 62
     7
 10
690.2284291421762
 20
933.01255716957576
 30
0.0
 11
640.05386914217615
 21
934.76468716957561
 31
0.0
  0
LINE
  5
D57E
  8
0
  6
CONTINUOUS
 62
     7
 10
798.90292914217605
 20
1254.7016371695761
 30
0.0
 11
690.2284291421762
 21
1250.906637169576
 31
0.0
  0
LINE
  5
D57F
  8
0
  6
CONTINUOUS
 62
     7
 10
640.22836914217612
 20
997.01542716957601
 30
0.0
 11
666.22842914217608
 21
997.01542716957601
 31
0.0
  0
LINE
  5
D580
  8
0
  6
CONTINUOUS
 62
     7
 10
640.22836914217612
 20
1042.9310071695761
 30
0.0
 11
666.22842914217608
 21
1042.9310071695761
 31
0.0
  0
LINE
  5
D581
  8
0
  6
CONTINUOUS
 62
     7
 10
640.22836914217612
 20
955.65995716957593
 30
0.0
 11
666.22842914217608
 21
955.65995716957593
 31
0.0
  0
LINE
  5
D582
  8
0
  6
CONTINUOUS
 62
     7
 10
640.22836914217612
 20
944.86954716957564
 30
0.0
 11
666.22842914217608
 21
944.86954716957564
 31
0.0
  0
LINE
  5
D583
  8
0
  6
CONTINUOUS
 62
     7
 10
668.22842914217631
 20
946.86954716957575
 30
0.0
 11
668.22842914217631
 21
953.65995716957593
 31
0.0
  0
LINE
  5
D584
  8
0
  6
CONTINUOUS
 62
     7
 10
668.22842914217631
 20
999.01542716957636
 30
0.0
 11
668.22842914217631
 21
1040.9310071695761
 31
0.0
  0
LINE
  5
D585
  8
0
  6
CONTINUOUS
 62
     7
 10
640.22836914217612
 20
1239.0495371695761
 30
0.0
 11
666.22842914217608
 21
1239.0495371695761
 31
0.0
  0
LINE
  5
D586
  8
0
  6
CONTINUOUS
 62
     7
 10
668.22842914217631
 20
1184.903837169576
 30
0.0
 11
668.22842914217631
 21
1142.988137169576
 31
0.0
  0
LINE
  5
D587
  8
0
  6
CONTINUOUS
 62
     7
 10
640.22836914217612
 20
1186.903837169576
 30
0.0
 11
666.22842914217608
 21
1186.903837169576
 31
0.0
  0
LINE
  5
D588
  8
0
  6
CONTINUOUS
 62
     7
 10
640.22836914217612
 20
1228.259137169576
 30
0.0
 11
666.22842914217608
 21
1228.259137169576
 31
0.0
  0
LINE
  5
D589
  8
0
  6
CONTINUOUS
 62
     7
 10
640.22836914217612
 20
1140.988137169576
 30
0.0
 11
666.22842914217608
 21
1140.988137169576
 31
0.0
  0
LINE
  5
D58A
  8
0
  6
CONTINUOUS
 62
     7
 10
668.22842914217631
 20
1237.0495371695761
 30
0.0
 11
668.22842914217631
 21
1230.259137169576
 31
0.0
  0
LINE
  5
D58B
  8
0
  6
CONTINUOUS
 62
     7
 10
615.22836914217612
 20
967.02817716957566
 30
0.0
 11
615.22836914217612
 21
1216.890937169575
 31
0.0
  0
LINE
  5
D58C
  8
0
  6
CONTINUOUS
 62
     7
 10
630.56240914217631
 20
961.32499716957602
 30
0.0
 11
619.89438914217612
 21
962.03934716957565
 31
0.0
  0
LINE
  5
D58D
  8
0
  6
CONTINUOUS
 62
     7
 10
630.56247914217613
 20
1222.594137169576
 30
0.0
 11
619.89431914217619
 21
1221.8797371695759
 31
0.0
  0
LINE
  5
D58E
  8
0
  6
CONTINUOUS
 62
     7
 10
635.22836914217612
 20
1096.9595771695761
 30
0.0
 11
635.22836914217612
 21
1244.157437169576
 31
0.0
  0
LINE
  5
D58F
  8
0
  6
CONTINUOUS
 62
     7
 10
537.72846914217621
 20
1209.9595371695759
 30
0.0
 11
537.72846914217621
 21
973.95957716957594
 31
0.0
  0
LINE
  5
D590
  8
0
  6
CONTINUOUS
 62
     7
 10
838.7284291421762
 20
1061.9595771695761
 30
0.0
 11
943.72842914217631
 21
1061.9595771695761
 31
0.0
  0
LINE
  5
D591
  8
0
  6
CONTINUOUS
 62
     7
 10
833.72842914217608
 20
1124.4595771695761
 30
0.0
 11
838.7284291421762
 21
1124.4595771695761
 31
0.0
  0
LINE
  5
D592
  8
0
  6
CONTINUOUS
 62
     7
 10
833.72842914217608
 20
1059.4595771695761
 30
0.0
 11
838.7284291421762
 21
1059.4595771695761
 31
0.0
  0
LINE
  5
D593
  8
0
  6
CONTINUOUS
 62
     7
 10
943.72842914217631
 20
1121.9595771695761
 30
0.0
 11
943.72842914217631
 21
1061.9595771695761
 31
0.0
  0
LINE
  5
D594
  8
0
  6
CONTINUOUS
 62
     7
 10
838.7284291421762
 20
1124.4595771695761
 30
0.0
 11
838.7284291421762
 21
1059.4595771695761
 31
0.0
  0
LINE
  5
D595
  8
0
  6
CONTINUOUS
 62
     7
 10
838.7284291421762
 20
1121.9595771695761
 30
0.0
 11
943.72842914217631
 21
1121.9595771695761
 31
0.0
  0
LINE
  5
D596
  8
0
  6
CONTINUOUS
 62
     7
 10
862.7284291421762
 20
1100.9595771695761
 30
0.0
 11
862.7284291421762
 21
1082.9595771695761
 31
0.0
  0
LINE
  5
D597
  8
0
  6
CONTINUOUS
 62
     7
 10
801.36068914217651
 20
1232.672137169576
 30
0.0
 11
745.09622914217607
 21
1197.8338371695761
 31
0.0
  0
LINE
  5
D598
  8
0
  6
CONTINUOUS
 62
     7
 10
801.36056914217602
 20
1220.7067371695759
 30
0.0
 11
746.42355914217603
 21
1186.690337169576
 31
0.0
  0
LINE
  5
D599
  8
0
  6
CONTINUOUS
 62
     7
 10
742.7284291421762
 20
1193.582737169575
 30
0.0
 11
742.7284291421762
 21
1189.402237169576
 31
0.0
  0
LINE
  5
D59A
  8
0
  6
CONTINUOUS
 62
     7
 10
803.72848914217604
 20
1201.8663371695759
 30
0.0
 11
781.55063914217624
 21
1185.388637169576
 31
0.0
  0
LINE
  5
D59B
  8
0
  6
CONTINUOUS
 62
     7
 10
747.7284291421762
 20
1184.402237169576
 30
0.0
 11
778.56869914217589
 21
1184.402237169576
 31
0.0
  0
LINE
  5
D59C
  8
0
  6
CONTINUOUS
 62
     7
 10
805.7284291421762
 20
1240.5184371695759
 30
0.0
 11
810.72842914217608
 21
1240.5184371695759
 31
0.0
  0
LINE
  5
D59D
  8
0
  6
CONTINUOUS
 62
     7
 10
803.7284291421762
 20
1178.230937169576
 30
0.0
 11
810.72842914217608
 21
1178.230937169576
 31
0.0
  0
LINE
  5
D59E
  8
0
  6
CONTINUOUS
 62
     7
 10
806.7284291421762
 20
1276.9595371695759
 30
0.0
 11
828.7284291421762
 21
1276.9595371695759
 31
0.0
  0
LINE
  5
D59F
  8
0
  6
CONTINUOUS
 62
     7
 10
828.7284291421762
 20
1276.9595371695759
 30
0.0
 11
828.7284291421762
 21
906.95957716957594
 31
0.0
  0
LINE
  5
D5A0
  8
0
  6
CONTINUOUS
 62
     7
 10
812.7284291421762
 20
1238.5184371695759
 30
0.0
 11
812.7284291421762
 21
945.38962716957587
 31
0.0
  0
LINE
  5
D5A1
  8
0
  6
CONTINUOUS
 62
     7
 10
828.7284291421762
 20
1246.9595371695759
 30
0.0
 11
833.72842914217608
 21
1246.9595371695759
 31
0.0
  0
LINE
  5
D5A2
  8
0
  6
CONTINUOUS
 62
     7
 10
803.7284291421762
 20
1273.9595371695759
 30
0.0
 11
803.7284291421762
 21
909.95957716957582
 31
0.0
  0
LINE
  5
D5A3
  8
0
  6
CONTINUOUS
 62
     7
 10
833.72842914217608
 20
936.95957716957605
 30
0.0
 11
833.72842914217608
 21
1246.9595371695759
 31
0.0
  0
LINE
  5
D5A4
  8
0
  6
CONTINUOUS
 62
     7
 10
690.2284291421762
 20
1250.906637169576
 30
0.0
 11
640.05386914217615
 21
1249.1545371695761
 31
0.0
  0
LINE
  5
D5A5
  8
0
  6
CONTINUOUS
 62
     7
 10
798.90292914217605
 20
929.21750716957581
 30
0.0
 11
690.2284291421762
 21
933.01249716957591
 31
0.0
  0
LINE
  5
D5A6
  8
0
  6
CONTINUOUS
 62
     7
 10
801.36062914217621
 20
951.24692716957577
 30
0.0
 11
745.09622914217607
 21
986.08530716957569
 31
0.0
  0
LINE
  5
D5A7
  8
0
  6
CONTINUOUS
 62
     7
 10
801.36056914217602
 20
963.21244716957585
 30
0.0
 11
746.42355914217603
 21
997.22892716957585
 31
0.0
  0
LINE
  5
D5A8
  8
0
  6
CONTINUOUS
 62
     7
 10
742.7284291421762
 20
990.33640716957575
 30
0.0
 11
742.7284291421762
 21
994.51694716957593
 31
0.0
  0
LINE
  5
D5A9
  8
0
  6
CONTINUOUS
 62
     7
 10
803.72848914217604
 20
982.05277716957585
 30
0.0
 11
781.55063914217624
 21
998.53043716957586
 31
0.0
  0
LINE
  5
D5AA
  8
0
  6
CONTINUOUS
 62
     7
 10
747.7284291421762
 20
999.51694716957581
 30
0.0
 11
778.56869914217589
 21
999.51694716957581
 31
0.0
  0
LINE
  5
D5AB
  8
0
  6
CONTINUOUS
 62
     7
 10
805.7284291421762
 20
943.40067716957583
 30
0.0
 11
810.72842914217608
 21
943.40067716957583
 31
0.0
  0
LINE
  5
D5AC
  8
0
  6
CONTINUOUS
 62
     7
 10
803.7284291421762
 20
1005.688217169576
 30
0.0
 11
810.72842914217608
 21
1005.688217169576
 31
0.0
  0
LINE
  5
D5AD
  8
0
  6
CONTINUOUS
 62
     7
 10
806.7284291421762
 20
906.95951716957586
 30
0.0
 11
828.7284291421762
 21
906.95951716957586
 31
0.0
  0
LINE
  5
D5AE
  8
0
  6
CONTINUOUS
 62
     7
 10
828.7284291421762
 20
936.95957716957605
 30
0.0
 11
833.72842914217608
 21
936.95957716957605
 31
0.0
  0
LINE
  5
D5AF
  8
0
  6
CONTINUOUS
 62
     7
 10
862.7284291421762
 20
1100.9595771695761
 30
0.0
 11
943.72842914217631
 21
1100.9595771695761
 31
0.0
  0
LINE
  5
D5B0
  8
0
  6
CONTINUOUS
 62
     7
 10
862.7284291421762
 20
1082.9595771695761
 30
0.0
 11
943.72842914217631
 21
1082.9595771695761
 31
0.0
  0
ARC
  5
D5B1
  8
0
  6
CONTINUOUS
 62
     7
 10
670.2284291421762
 20
1091.9595771695761
 30
0.0
 40
5.0
 50
270.0
 51
90.00000299999769
  0
ARC
  5
D5B2
  8
0
  6
CONTINUOUS
 62
     7
 10
630.22842914217631
 20
1091.9595771695761
 30
0.0
 40
5.0
 50
90.00000299999769
 51
270.0
  0
ARC
  5
D5B3
  8
0
  6
CONTINUOUS
 62
     7
 10
650.22842914217597
 20
1091.9595771695761
 30
0.0
 40
12.5
 50
23.578179999997541
 51
156.42182000000241
  0
ARC
  5
D5B4
  8
0
  6
CONTINUOUS
 62
     7
 10
650.22842914217597
 20
1091.9595771695761
 30
0.0
 40
12.5
 50
203.5781799999975
 51
336.42182999999483
  0
ARC
  5
D5B5
  8
0
  6
CONTINUOUS
 62
     7
 10
610.22836914217612
 20
974.95957716957594
 30
0.0
 40
5.0
 50
0.0
 51
90.00000299999769
  0
ARC
  5
D5B6
  8
0
  6
CONTINUOUS
 62
     7
 10
610.22836914217612
 20
1208.9595371695759
 30
0.0
 40
5.0
 50
270.0
 51
0.0
  0
ARC
  5
D5B7
  8
0
  6
CONTINUOUS
 62
     7
 10
566.72846914217621
 20
1209.9595371695759
 30
0.0
 40
2.0
 50
0.0
 51
90.00000299999769
  0
ARC
  5
D5B8
  8
0
  6
CONTINUOUS
 62
     7
 10
566.72846914217621
 20
973.95957716957594
 30
0.0
 40
2.0
 50
270.0
 51
0.0
  0
ARC
  5
D5B9
  8
0
  6
CONTINUOUS
 62
     7
 10
570.72846914217814
 20
977.95957716957605
 30
0.0
 40
2.0
 50
90.00000299999769
 51
180.000010000001
  0
ARC
  5
D5BA
  8
0
  6
CONTINUOUS
 62
     7
 10
570.72846914217814
 20
1205.959537169575
 30
0.0
 40
2.0
 50
179.999989999999
 51
270.0
  0
ARC
  5
D5BB
  8
0
  6
CONTINUOUS
 62
     7
 10
640.22836914217612
 20
939.76163716957592
 30
0.0
 40
5.0
 50
180.000010000001
 51
268.00000999999878
  0
ARC
  5
D5BC
  8
0
  6
CONTINUOUS
 62
     7
 10
640.22836914217612
 20
1244.157437169576
 30
0.0
 40
5.0
 50
91.999998000000787
 51
180.000010000001
  0
ARC
  5
D5BD
  8
0
  6
CONTINUOUS
 62
     7
 10
666.22842914217608
 20
946.86954716957575
 30
0.0
 40
2.0
 50
270.0
 51
0.0
  0
ARC
  5
D5BE
  8
0
  6
CONTINUOUS
 62
     7
 10
666.22842914217608
 20
953.65995716957593
 30
0.0
 40
2.0
 50
0.0
 51
90.00000299999769
  0
ARC
  5
D5BF
  8
0
  6
CONTINUOUS
 62
     7
 10
666.22842914217608
 20
999.01542716957636
 30
0.0
 40
2.0
 50
270.0
 51
0.0
  0
ARC
  5
D5C0
  8
0
  6
CONTINUOUS
 62
     7
 10
666.22842914217608
 20
1040.9310071695761
 30
0.0
 40
2.0
 50
0.0
 51
90.00000299999769
  0
ARC
  5
D5C1
  8
0
  6
CONTINUOUS
 62
     7
 10
640.22836914217612
 20
1047.9310071695761
 30
0.0
 40
5.0
 50
180.000010000001
 51
270.0
  0
ARC
  5
D5C2
  8
0
  6
CONTINUOUS
 62
     7
 10
640.22836914217612
 20
992.01542716957613
 30
0.0
 40
5.0
 50
90.00000299999769
 51
180.000010000001
  0
ARC
  5
D5C3
  8
0
  6
CONTINUOUS
 62
     7
 10
640.22836914217612
 20
960.65995716957605
 30
0.0
 40
5.0
 50
180.000010000001
 51
270.0
  0
ARC
  5
D5C4
  8
0
  6
CONTINUOUS
 62
     7
 10
640.22836914217612
 20
939.86954716957575
 30
0.0
 40
5.0
 50
90.00000299999769
 51
180.000010000001
  0
ARC
  5
D5C5
  8
0
  6
CONTINUOUS
 62
     7
 10
640.22836914217612
 20
1244.0495371695749
 30
0.0
 40
5.0
 50
180.000010000001
 51
270.0
  0
ARC
  5
D5C6
  8
0
  6
CONTINUOUS
 62
     7
 10
666.22842914217608
 20
1142.988137169576
 30
0.0
 40
2.0
 50
270.0
 51
0.0
  0
ARC
  5
D5C7
  8
0
  6
CONTINUOUS
 62
     7
 10
666.22842914217608
 20
1230.259137169576
 30
0.0
 40
2.0
 50
270.0
 51
0.0
  0
ARC
  5
D5C8
  8
0
  6
CONTINUOUS
 62
     7
 10
666.22842914217608
 20
1237.0495371695761
 30
0.0
 40
2.0
 50
0.0
 51
90.00000299999769
  0
ARC
  5
D5C9
  8
0
  6
CONTINUOUS
 62
     7
 10
640.22836914217612
 20
1135.9881371695751
 30
0.0
 40
5.0
 50
90.00000299999769
 51
180.000010000001
  0
ARC
  5
D5CA
  8
0
  6
CONTINUOUS
 62
     7
 10
666.22842914217608
 20
1184.903837169576
 30
0.0
 40
2.0
 50
0.0
 51
90.00000299999769
  0
ARC
  5
D5CB
  8
0
  6
CONTINUOUS
 62
     7
 10
640.22836914217612
 20
1191.903837169576
 30
0.0
 40
5.0
 50
180.000010000001
 51
270.0
  0
ARC
  5
D5CC
  8
0
  6
CONTINUOUS
 62
     7
 10
640.22836914217612
 20
1223.259137169576
 30
0.0
 40
5.0
 50
90.00000299999769
 51
180.000010000001
  0
ARC
  5
D5CD
  8
0
  6
CONTINUOUS
 62
     7
 10
630.22836914217612
 20
956.3361671695759
 30
0.0
 40
5.0
 50
0.0
 51
86.16916099999878
  0
ARC
  5
D5CE
  8
0
  6
CONTINUOUS
 62
     7
 10
620.22836914217612
 20
967.02817716957566
 30
0.0
 40
5.0
 50
180.000010000001
 51
266.1691599999977
  0
ARC
  5
D5CF
  8
0
  6
CONTINUOUS
 62
     7
 10
620.22836914217612
 20
1216.890937169575
 30
0.0
 40
5.0
 50
93.830836999998056
 51
180.000010000001
  0
ARC
  5
D5D0
  8
0
  6
CONTINUOUS
 62
     7
 10
630.22836914217612
 20
1227.5830371695749
 30
0.0
 40
5.0
 50
273.83084000000241
 51
0.0
  0
ARC
  5
D5D1
  8
0
  6
CONTINUOUS
 62
     7
 10
539.72846914217621
 20
973.95957716957594
 30
0.0
 40
2.0
 50
179.999989999999
 51
270.0
  0
ARC
  5
D5D2
  8
0
  6
CONTINUOUS
 62
     7
 10
539.72846914217621
 20
1209.9595371695759
 30
0.0
 40
2.0
 50
90.00000299999769
 51
180.000010000001
  0
ARC
  5
D5D3
  8
0
  6
CONTINUOUS
 62
     7
 10
532.72846914217712
 20
1203.460637169575
 30
0.0
 40
5.0
 50
289.99999999999528
 51
0.0
  0
ARC
  5
D5D4
  8
0
  6
CONTINUOUS
 62
     7
 10
532.72846914217712
 20
980.45853716957595
 30
0.0
 40
5.0
 50
0.0
 51
70.000000000004647
  0
ARC
  5
D5D5
  8
0
  6
CONTINUOUS
 62
     7
 10
747.7284291421762
 20
1193.582737169575
 30
0.0
 40
5.0
 50
121.76535999999901
 51
180.000010000001
  0
ARC
  5
D5D6
  8
0
  6
CONTINUOUS
 62
     7
 10
778.56869914217589
 20
1189.402237169576
 30
0.0
 40
5.0
 50
270.0
 51
306.61150000000521
  0
ARC
  5
D5D7
  8
0
  6
CONTINUOUS
 62
     7
 10
747.7284291421762
 20
1189.402237169576
 30
0.0
 40
5.0
 50
179.999989999999
 51
270.0
  0
ARC
  5
D5D8
  8
0
  6
CONTINUOUS
 62
     7
 10
798.7284291421762
 20
1236.923237169575
 30
0.0
 40
5.0
 50
301.76536999999581
 51
0.0
  0
ARC
  5
D5D9
  8
0
  6
CONTINUOUS
 62
     7
 10
806.7284291421762
 20
1273.9595371695759
 30
0.0
 40
3.0
 50
90.00000299999769
 51
180.000010000001
  0
ARC
  5
D5DA
  8
0
  6
CONTINUOUS
 62
     7
 10
810.72842914217608
 20
1176.230937169576
 30
0.0
 40
2.0
 50
0.0
 51
90.00000299999769
  0
ARC
  5
D5DB
  8
0
  6
CONTINUOUS
 62
     7
 10
810.72842914217608
 20
1238.5184371695759
 30
0.0
 40
2.0
 50
0.0
 51
90.00000299999769
  0
ARC
  5
D5DC
  8
0
  6
CONTINUOUS
 62
     7
 10
805.7284291421762
 20
1242.5184371695759
 30
0.0
 40
2.0
 50
179.999989999999
 51
270.0
  0
ARC
  5
D5DD
  8
0
  6
CONTINUOUS
 62
     7
 10
798.7284291421762
 20
1259.698637169575
 30
0.0
 40
5.0
 50
271.99999999999699
 51
0.0
  0
ARC
  5
D5DE
  8
0
  6
CONTINUOUS
 62
     7
 10
798.7284291421762
 20
924.22062716957578
 30
0.0
 40
5.0
 50
0.0
 51
88.000000000002998
  0
ARC
  5
D5DF
  8
0
  6
CONTINUOUS
 62
     7
 10
747.7284291421762
 20
990.33640716957575
 30
0.0
 40
5.0
 50
179.999989999999
 51
238.23464999999629
  0
ARC
  5
D5E0
  8
0
  6
CONTINUOUS
 62
     7
 10
778.56869914217589
 20
994.51694716957593
 30
0.0
 40
5.0
 50
53.388504999994019
 51
90.00000299999769
  0
ARC
  5
D5E1
  8
0
  6
CONTINUOUS
 62
     7
 10
747.7284291421762
 20
994.51694716957593
 30
0.0
 40
5.0
 50
90.00000299999769
 51
180.000010000001
  0
ARC
  5
D5E2
  8
0
  6
CONTINUOUS
 62
     7
 10
798.7284291421762
 20
946.99595716957595
 30
0.0
 40
5.0
 50
0.0
 51
58.234630000004231
  0
ARC
  5
D5E3
  8
0
  6
CONTINUOUS
 62
     7
 10
806.7284291421762
 20
909.95957716957582
 30
0.0
 40
3.0
 50
179.999989999999
 51
270.0
  0
ARC
  5
D5E4
  8
0
  6
CONTINUOUS
 62
     7
 10
810.72842914217608
 20
1007.688217169576
 30
0.0
 40
2.0
 50
270.0
 51
0.0
  0
ARC
  5
D5E5
  8
0
  6
CONTINUOUS
 62
     7
 10
810.72842914217608
 20
945.40067716957594
 30
0.0
 40
2.0
 50
270.0
 51
0.0
  0
ARC
  5
D5E6
  8
0
  6
CONTINUOUS
 62
     7
 10
805.7284291421762
 20
941.40067716957583
 30
0.0
 40
2.0
 50
90.00000299999769
 51
180.000010000001
  0
ARC
  5
D5E7
  8
0
  6
CONTINUOUS
 62
     7
 10
862.7284291421762
 20
1091.9595771695761
 30
0.0
 40
9.0
 50
90.00000299999769
 51
270.0
  0
POLYLINE
  5
D5E8
  8
0
  6
CONTINUOUS
 62
     7
 66
     1
 10
0.0
 20
0.0
 30
0.0
  0
VERTEX
  5
D5E9
  8
0
  6
CONTINUOUS
 62
     7
 10
803.7284291421762
 20
1256.9595371695759
 30
0.0
  0
VERTEX
  5
D5EA
  8
0
  6
CONTINUOUS
 62
     7
 10
793.90178914217609
 20
1228.0540371695761
 30
0.0
 42
-1.0
  0
SEQEND
  5
D5EB
  8
0
 62
     7
  0
POLYLINE
  5
D5EC
  8
0
  6
CONTINUOUS
 62
     7
 66
     1
 10
0.0
 20
0.0
 30
0.0
  0
VERTEX
  5
D5ED
  8
0
  6
CONTINUOUS
 62
     7
 10
783.11192914217611
 20
1186.548737169574
 30
0.0
 42
0.034282229
  0
VERTEX
  5
D5EE
  8
0
  6
CONTINUOUS
 62
     7
 10
774.06762914217609
 20
1123.702487169576
 30
0.0
 42
0.072426646
  0
VERTEX
  5
D5EF
  8
0
  6
CONTINUOUS
 62
     7
 10
783.11192914217611
 20
997.37039716957565
 30
0.0
  0
SEQEND
  5
D5F0
  8
0
 62
     7
  0
POLYLINE
  5
D5F1
  8
0
  6
CONTINUOUS
 62
     7
 66
     1
 10
0.0
 20
0.0
 30
0.0
  0
VERTEX
  5
D5F2
  8
0
  6
CONTINUOUS
 62
     7
 10
793.90173914217621
 20
955.86526716957565
 30
0.0
 42
0.0050438079
  0
VERTEX
  5
D5F3
  8
0
  6
CONTINUOUS
 62
     7
 10
796.98374914217641
 20
946.16487716957602
 30
0.0
 42
0.0050105797
  0
VERTEX
  5
D5F4
  8
0
  6
CONTINUOUS
 62
     7
 10
800.26016914217621
 20
936.52841716957596
 30
0.0
 42
0.0049830203
  0
VERTEX
  5
D5F5
  8
0
  6
CONTINUOUS
 62
     7
 10
803.7284291421762
 20
926.95957716957605
 30
0.0
  0
SEQEND
  5
D5F6
  8
0
 62
     7
  0
LINE
  5
D6BA
  8
AM_0
 10
862.72837914217666
 20
687.69518088288623
 30
0.0
 11
943.72842914217631
 21
687.69518088288623
 31
0.0
  0
LINE
  5
D6BB
  8
AM_0
 10
862.72837914217666
 20
687.69518088288623
 30
0.0
 11
862.72837914217666
 21
683.69515088288654
 31
0.0
  0
LINE
  5
D6BC
  8
AM_0
 10
838.72837914217666
 20
623.69515088288654
 30
0.0
 11
943.72842914217631
 21
623.69515088288654
 31
0.0
  0
LINE
  5
D6BD
  8
AM_0
 10
838.72837914217666
 20
683.69515088288654
 30
0.0
 11
943.72842914217631
 21
683.69515088288654
 31
0.0
  0
LINE
  5
D6BE
  8
AM_0
 10
943.72842914217631
 20
687.69518088288623
 30
0.0
 11
943.72842914217631
 21
623.69515088288654
 31
0.0
  0
LINE
  5
D6BF
  8
AM_0
 10
838.72837914217666
 20
686.19515088288654
 30
0.0
 11
838.72837914217666
 21
621.19515088288654
 31
0.0
  0
LINE
  5
D6C0
  8
AM_0
 10
833.72837914217655
 20
621.19515088288654
 30
0.0
 11
838.72837914217666
 21
621.19515088288654
 31
0.0
  0
LINE
  5
D6C1
  8
AM_0
 10
833.72837914217655
 20
686.19515088288654
 30
0.0
 11
838.72837914217666
 21
686.19515088288654
 31
0.0
  0
LINE
  5
D6C2
  8
AM_0
 10
631.47537914217673
 20
751.69272088288653
 30
0.0
 11
618.98142914217692
 21
741.69757088288634
 31
0.0
  0
LINE
  5
D6C3
  8
AM_0
 10
618.19297914217691
 20
476.97513088288628
 30
0.0
 11
632.26382914217675
 21
463.04498588288652
 31
0.0
  0
LINE
  5
D6C4
  8
AM_0
 10
668.22842914217733
 20
773.44272088288653
 30
0.0
 11
668.22842914217733
 21
760.81582088288656
 31
0.0
  0
LINE
  5
D6C5
  8
AM_0
 10
570.72842914217733
 20
493.69514588288638
 30
0.0
 11
610.22837914217678
 21
493.69514588288638
 31
0.0
  0
LINE
  5
D6C6
  8
AM_0
 10
635.22837914217678
 20
783.69517088288637
 30
0.0
 11
635.22837914217678
 21
435.54716588288642
 31
0.0
  0
LINE
  5
D6C7
  8
AM_0
 10
568.72837914217666
 20
723.69515088288654
 30
0.0
 11
568.72837914217666
 21
487.69514588288621
 31
0.0
  0
LINE
  5
D6C8
  8
AM_0
 10
570.72842914217733
 20
717.69518088288646
 30
0.0
 11
610.22837914217678
 21
717.69518088288646
 31
0.0
  0
LINE
  5
D6C9
  8
AM_0
 10
615.22837914217655
 20
733.88892088288662
 30
0.0
 11
615.22837914217655
 21
484.08165088288609
 31
0.0
  0
LINE
  5
D6CA
  8
AM_0
 10
640.05402914217632
 20
783.94302088288623
 30
0.0
 11
690.22842914217711
 21
785.69517088288649
 31
0.0
  0
LINE
  5
D6CB
  8
AM_0
 10
637.22842914217631
 20
785.69517088288649
 30
0.0
 11
690.22837914217655
 21
785.69517088288649
 31
0.0
  0
LINE
  5
D6CC
  8
AM_0
 10
640.43437914217679
 20
794.69517088288649
 30
0.0
 11
660.02247914217673
 21
794.69517088288649
 31
0.0
  0
LINE
  5
D6CD
  8
AM_0
 10
637.72852914217651
 20
785.69507088288651
 30
0.0
 11
639.97897914217697
 21
794.09402088288653
 31
0.0
  0
LINE
  5
D6CE
  8
AM_0
 10
662.72842914217733
 20
785.69517088288649
 30
0.0
 11
660.47797914217665
 21
794.09407088288663
 31
0.0
  0
LINE
  5
D6CF
  8
AM_0
 10
640.7503791421766
 20
794.81612088288648
 30
0.0
 11
650.22837914217655
 21
796.69507088288651
 31
0.0
  0
LINE
  5
D6D0
  8
AM_0
 10
650.22842914217733
 20
796.69517088288615
 30
0.0
 11
659.70647914217693
 21
794.81617088288635
 31
0.0
  0
LINE
  5
D6D1
  8
AM_0
 10
568.72837914217666
 20
534.76234588288639
 30
0.0
 11
615.22837914217655
 21
534.76234588288639
 31
0.0
  0
LINE
  5
D6D2
  8
AM_0
 10
568.72837914217666
 20
519.02028088288625
 30
0.0
 11
615.22837914217655
 21
519.02028088288625
 31
0.0
  0
LINE
  5
D6D3
  8
AM_0
 10
568.72837914217666
 20
676.6279808828865
 30
0.0
 11
615.22837914217655
 21
676.6279808828865
 31
0.0
  0
LINE
  5
D6D4
  8
AM_0
 10
568.72837914217666
 20
692.37004588288664
 30
0.0
 11
615.22837914217655
 21
692.37004588288664
 31
0.0
  0
LINE
  5
D6D5
  8
AM_0
 10
640.22837914217655
 20
516.36867088288659
 30
0.0
 11
666.22837914217655
 21
516.36867088288659
 31
0.0
  0
LINE
  5
D6D6
  8
AM_0
 10
640.22837914217655
 20
556.63805088288655
 30
0.0
 11
666.22837914217655
 21
556.63805088288655
 31
0.0
  0
LINE
  5
D6D7
  8
AM_0
 10
640.22837914217655
 20
641.74599088288664
 30
0.0
 11
666.22837914217655
 21
641.74599088288664
 31
0.0
  0
LINE
  5
D6D8
  8
AM_0
 10
640.22837914217655
 20
678.92018588288659
 30
0.0
 11
666.22837914217655
 21
678.92018588288659
 31
0.0
  0
LINE
  5
D6D9
  8
AM_0
 10
640.22837914217655
 20
758.81582088288656
 30
0.0
 11
666.22837914217655
 21
758.81582088288656
 31
0.0
  0
LINE
  5
D6DA
  8
AM_0
 10
640.22837914217655
 20
775.44272088288653
 30
0.0
 11
666.22837914217655
 21
775.44272088288653
 31
0.0
  0
LINE
  5
D6DB
  8
AM_0
 10
668.22842914217733
 20
554.63802088288662
 30
0.0
 11
668.22842914217733
 21
518.36870088288651
 31
0.0
  0
LINE
  5
D6DC
  8
AM_0
 10
668.22842914217733
 20
676.92018588288624
 30
0.0
 11
668.22842914217733
 21
643.74599088288664
 31
0.0
  0
LINE
  5
D6DD
  8
AM_0
 10
780.22287914217623
 20
746.13772088288647
 30
0.0
 11
803.46597914217705
 21
596.15202588288662
 31
0.0
  0
LINE
  5
D6DE
  8
AM_0
 10
690.22837914217655
 20
785.69517088288649
 30
0.0
 11
690.22837914217655
 21
431.69514588288638
 31
0.0
  0
LINE
  5
D6DF
  8
AM_0
 10
833.72837914217655
 20
498.69514588288638
 30
0.0
 11
833.72837914217655
 21
808.69517088288615
 31
0.0
  0
LINE
  5
D6E0
  8
AM_0
 10
723.72837914217655
 20
510.13191588288629
 30
0.0
 11
723.72837914217655
 21
496.48189088288632
 31
0.0
  0
LINE
  5
D6E1
  8
AM_0
 10
803.72837914217666
 20
835.69517088288637
 30
0.0
 11
803.72837914217666
 21
595.75813588288634
 31
0.0
  0
LINE
  5
D6E2
  8
AM_0
 10
690.22842914217711
 20
785.69517088288649
 30
0.0
 11
768.90482914217682
 21
787.75532088288651
 31
0.0
  0
LINE
  5
D6E3
  8
AM_0
 10
773.64127914217681
 20
788.60792088288622
 30
0.0
 11
775.24817914217658
 21
778.23917088288681
 31
0.0
  0
LINE
  5
D6E4
  8
AM_0
 10
753.76092914217645
 20
429.60215918119911
 30
0.0
 11
820.72842914217711
 21
468.69514588288638
 31
0.0
  0
LINE
  5
D6E5
  8
AM_0
 10
805.72842914217733
 20
505.13628088288618
 30
0.0
 11
810.72842914217711
 21
505.13628088288618
 31
0.0
  0
LINE
  5
D6E6
  8
AM_0
 10
805.44232914217696
 20
594.45833088288623
 30
0.0
 11
810.72842914217711
 21
594.45833088288623
 31
0.0
  0
LINE
  5
D6E7
  8
AM_0
 10
828.72837914217666
 20
808.69517088288615
 30
0.0
 11
833.72837914217655
 21
808.69517088288615
 31
0.0
  0
LINE
  5
D6E8
  8
AM_0
 10
828.72837914217666
 20
498.69514588288638
 30
0.0
 11
833.72837914217655
 21
498.69514588288638
 31
0.0
  0
LINE
  5
D6E9
  8
AM_0
 10
812.72837914217666
 20
800.25407088288648
 30
0.0
 11
812.72837914217666
 21
507.13628088288641
 31
0.0
  0
LINE
  5
D6EA
  8
AM_0
 10
828.72837914217666
 20
838.6952208828867
 30
0.0
 11
828.72837914217666
 21
468.69514588288638
 31
0.0
  0
LINE
  5
D6EB
  8
AM_0
 10
803.72837914217666
 20
541.91188588288651
 30
0.0
 11
803.72837914217666
 21
471.69514588288621
 31
0.0
  0
LINE
  5
D6EC
  8
AM_0
 10
805.72842914217733
 20
543.1012458828867
 30
0.0
 11
810.72842914217711
 21
543.1012458828867
 31
0.0
  0
LINE
  5
D6ED
  8
AM_0
 10
775.7141791421767
 20
790.68087088288655
 30
0.0
 11
802.26397914217682
 21
817.23067088288633
 31
0.0
  0
LINE
  5
D6EE
  8
AM_0
 10
806.72837914217655
 20
838.6952208828867
 30
0.0
 11
828.72837914217666
 21
838.6952208828867
 31
0.0
  0
LINE
  5
D6EF
  8
AM_0
 10
803.72837914217666
 20
739.96652088288647
 30
0.0
 11
810.72842914217711
 21
739.96652088288647
 31
0.0
  0
LINE
  5
D6F0
  8
AM_0
 10
805.72842914217733
 20
802.25407088288648
 30
0.0
 11
810.72842914217711
 21
802.25407088288648
 31
0.0
  0
LINE
  5
D6F1
  8
AM_0
 10
757.10827914217646
 20
524.05064588288656
 30
0.0
 11
803.72837914217666
 21
524.05064588288656
 31
0.0
  0
LINE
  5
D6F2
  8
AM_0
 10
828.72837914217666
 20
468.69514588288638
 30
0.0
 11
806.72837914217655
 21
468.69514588288638
 31
0.0
  0
LINE
  5
D6F3
  8
AM_0
 10
757.10827914217646
 20
483.4256308828862
 30
0.0
 11
803.72837914217666
 21
483.4256308828862
 31
0.0
  0
LINE
  5
D6F4
  8
AM_0
 10
720.64757914217682
 20
511.71681588288652
 30
0.0
 11
738.42837914217648
 21
511.71681588288652
 31
0.0
  0
LINE
  5
D6F5
  8
AM_0
 10
720.64757914217682
 20
494.59611588288658
 30
0.0
 11
738.96927914217622
 21
494.59611588288658
 31
0.0
  0
LINE
  5
D6F6
  8
AM_0
 10
758.72837914217655
 20
521.89189588288616
 30
0.0
 11
758.72837914217655
 21
485.77190088288648
 31
0.0
  0
LINE
  5
D6F7
  8
AM_0
 10
690.22832914217679
 20
431.69516088288651
 30
0.0
 11
753.76092914217645
 21
429.60215918119911
 31
0.0
  0
LINE
  5
D6F8
  8
AM_0
 10
747.72837914217678
 20
746.13777088288634
 30
0.0
 11
778.56872914217684
 21
746.13777088288634
 31
0.0
  0
LINE
  5
D6F9
  8
AM_0
 10
803.7284291421762
 20
763.60187088288637
 30
0.0
 11
781.55057914217684
 21
747.12427088288655
 31
0.0
  0
LINE
  5
D6FA
  8
AM_0
 10
742.72837914217655
 20
755.3183208828865
 30
0.0
 11
742.72837914217655
 21
751.1377708828868
 31
0.0
  0
LINE
  5
D6FB
  8
AM_0
 10
801.36057914217668
 20
782.44222088288609
 30
0.0
 11
746.42352914217622
 21
748.42572088288625
 31
0.0
  0
LINE
  5
D6FC
  8
AM_0
 10
801.36057914217668
 20
794.40772088288622
 30
0.0
 11
745.09617914217665
 21
759.56937088288623
 31
0.0
  0
LINE
  5
D6FD
  8
AM_0
 10
640.22837914217655
 20
447.69514588288621
 30
0.0
 11
666.22837914217655
 21
447.69514588288621
 31
0.0
  0
LINE
  5
D6FE
  8
AM_0
 10
637.15862914217701
 20
433.54840088288631
 30
0.0
 11
690.22837914217655
 21
431.69516088288651
 31
0.0
  0
LINE
  5
D6FF
  8
AM_0
 10
668.22842914217733
 20
445.69516088288651
 30
0.0
 11
668.22842914217733
 21
434.39479088288653
 31
0.0
  0
ARC
  5
D700
  8
AM_0
 10
637.22842914217631
 20
783.69517088288637
 30
0.0
 40
2.0000000500000001
 50
90.000002999984659
 51
180.000010000001
  0
ARC
  5
D701
  8
AM_0
 10
625.22837914217655
 20
455.93844588288653
 30
0.0
 40
10.0
 50
0.0
 51
45.287917999983151
  0
ARC
  5
D702
  8
AM_0
 10
610.22837914217678
 20
488.69514588288621
 30
0.0
 40
5.0
 50
0.0
 51
90.000002999984659
  0
ARC
  5
D703
  8
AM_0
 10
625.22837914217655
 20
759.50137088288625
 30
0.0
 40
10.0
 50
308.65981000002392
 51
0.0
  0
ARC
  5
D704
  8
AM_0
 10
640.22837914217655
 20
778.94607088288637
 30
0.0
 40
5.0
 50
91.999997999994051
 51
180.000010000001
  0
ARC
  5
D705
  8
AM_0
 10
610.22837914217678
 20
722.69518088288635
 30
0.0
 40
5.0
 50
270.0
 51
0.0
  0
ARC
  5
D706
  8
AM_0
 10
625.22837914217655
 20
733.88892088288662
 30
0.0
 40
10.0
 50
128.65981000002381
 51
180.000010000001
  0
ARC
  5
D707
  8
AM_0
 10
570.72842914217733
 20
491.69514588288621
 30
0.0
 40
2.0000000500000001
 50
90.000002999984659
 51
180.000010000001
  0
ARC
  5
D708
  8
AM_0
 10
570.72842914217733
 20
719.69515088288654
 30
0.0
 40
2.0000000500000001
 50
179.999989999999
 51
270.0
  0
ARC
  5
D709
  8
AM_0
 10
625.22837914217655
 20
484.08165088288609
 30
0.0
 40
10.0
 50
179.999989999999
 51
225.28791999998839
  0
CIRCLE
  5
D70A
  8
AM_0
 10
650.22837914217655
 20
811.69517088288637
 30
0.0
 40
15.0
  0
ARC
  5
D70B
  8
AM_0
 10
650.22837914217655
 20
811.69517088288637
 30
0.0
 40
25.000000499999999
 50
306.46671999997682
 51
233.53329000002691
  0
ARC
  5
D70C
  8
AM_0
 10
640.94482914217656
 20
793.83527088288645
 30
0.0
 40
1.0
 50
101.2132899999924
 51
164.99998999998439
  0
ARC
  5
D70D
  8
AM_0
 10
659.51202914217686
 20
793.83527088288645
 30
0.0
 40
1.0
 50
14.999999999994451
 51
78.786710000007588
  0
ARC
  5
D70E
  8
AM_0
 10
631.80337914217648
 20
786.76487088288638
 30
0.0
 40
6.0
 50
349.72994999999878
 51
53.533290999981389
  0
ARC
  5
D70F
  8
AM_0
 10
668.65342914217638
 20
786.76487088288638
 30
0.0
 40
6.0
 50
126.4666999999876
 51
190.2700600000056
  0
ARC
  5
D710
  8
AM_0
 10
666.22837914217655
 20
760.81582088288656
 30
0.0
 40
2.0000000500000001
 50
270.0
 51
0.0
  0
ARC
  5
D711
  8
AM_0
 10
666.22837914217655
 20
773.44272088288653
 30
0.0
 40
2.0000000500000001
 50
0.0
 51
90.000002999984659
  0
ARC
  5
D712
  8
AM_0
 10
666.22837914217655
 20
518.36870088288651
 30
0.0
 40
2.0000000500000001
 50
270.0
 51
0.0
  0
ARC
  5
D713
  8
AM_0
 10
666.22837914217655
 20
554.63802088288662
 30
0.0
 40
2.0000000500000001
 50
0.0
 51
90.000002999984659
  0
ARC
  5
D714
  8
AM_0
 10
666.22837914217655
 20
643.74599088288664
 30
0.0
 40
2.0000000500000001
 50
270.0
 51
0.0
  0
ARC
  5
D715
  8
AM_0
 10
666.22837914217655
 20
676.92018588288624
 30
0.0
 40
2.0000000500000001
 50
0.0
 51
90.000002999984659
  0
ARC
  5
D716
  8
AM_0
 10
640.22837914217655
 20
511.36867088288659
 30
0.0
 40
5.0
 50
90.000002999984659
 51
180.000010000001
  0
ARC
  5
D717
  8
AM_0
 10
640.22837914217655
 20
561.63805088288655
 30
0.0
 40
5.0
 50
179.999989999999
 51
270.0
  0
ARC
  5
D718
  8
AM_0
 10
640.22837914217655
 20
636.74599088288664
 30
0.0
 40
5.0
 50
90.000002999984659
 51
180.000010000001
  0
ARC
  5
D719
  8
AM_0
 10
640.22837914217655
 20
683.92018588288659
 30
0.0
 40
5.0
 50
179.999989999999
 51
270.0
  0
ARC
  5
D71A
  8
AM_0
 10
640.22837914217655
 20
753.81582088288656
 30
0.0
 40
5.0
 50
90.000002999984659
 51
180.000010000001
  0
ARC
  5
D71B
  8
AM_0
 10
640.22837914217655
 20
780.44272088288653
 30
0.0
 40
5.0
 50
179.999989999999
 51
270.0
  0
ARC
  5
D71C
  8
AM_0
 10
810.72842914217711
 20
507.13628088288641
 30
0.0
 40
2.0000000500000001
 50
270.0
 51
0.0
  0
ARC
  5
D71D
  8
AM_0
 10
810.72842914217711
 20
592.45836088288661
 30
0.0
 40
2.0000000500000001
 50
0.0
 51
90.000002999984659
  0
ARC
  5
D71E
  8
AM_0
 10
805.72842914217733
 20
804.25407088288625
 30
0.0
 40
2.0000000500000001
 50
179.999989999999
 51
270.0
  0
ARC
  5
D71F
  8
AM_0
 10
810.72842914217711
 20
800.25407088288648
 30
0.0
 40
2.0000000500000001
 50
0.0
 51
90.000002999984659
  0
ARC
  5
D720
  8
AM_0
 10
805.72842914217733
 20
503.13625088288637
 30
0.0
 40
2.0000000500000001
 50
90.000002999984659
 51
180.000010000001
  0
ARC
  5
D721
  8
AM_0
 10
805.44232914217696
 20
596.45833088288657
 30
0.0
 40
2.0000000500000001
 50
188.80900000000449
 51
270.0
  0
ARC
  5
D722
  8
AM_0
 10
804.7284291421762
 20
595.75813588288634
 30
0.0
 40
1.0
 50
179.999989999999
 51
224.44400000001349
  0
ARC
  5
D723
  8
AM_0
 10
798.72837914217655
 20
820.76622088288639
 30
0.0
 40
5.0
 50
315.00000000000921
 51
0.0
  0
ARC
  5
D724
  8
AM_0
 10
810.72842914217711
 20
545.10124588288647
 30
0.0
 40
2.0000000500000001
 50
270.0
 51
0.0
  0
ARC
  5
D725
  8
AM_0
 10
810.72842914217711
 20
737.96652088288624
 30
0.0
 40
2.0000000500000001
 50
0.0
 51
90.000002999984659
  0
ARC
  5
D726
  8
AM_0
 10
806.72837914217655
 20
835.69517088288637
 30
0.0
 40
3.0000000500000001
 50
90.000002999984659
 51
180.000010000001
  0
ARC
  5
D727
  8
AM_0
 10
806.72837914217655
 20
471.69514588288621
 30
0.0
 40
3.0000000500000001
 50
179.999989999999
 51
270.0
  0
ARC
  5
D728
  8
AM_0
 10
768.64307914217682
 20
797.75192088288622
 30
0.0
 40
10.0
 50
271.4999999999896
 51
315.00000000000921
  0
ARC
  5
D729
  8
AM_0
 10
757.10827914217646
 20
503.7381458828865
 30
0.0
 40
20.3124945
 50
90.000002999984659
 51
270.0
  0
ARC
  5
D72A
  8
AM_0
 10
720.64757914217682
 20
503.15648088288668
 30
0.0
 40
8.5603474999999971
 50
90.000002999984659
 51
270.0
  0
ARC
  5
D72B
  8
AM_0
 10
798.72837914217655
 20
798.65877088288653
 30
0.0
 40
5.0
 50
301.76537000001917
 51
0.0
  0
ARC
  5
D72C
  8
AM_0
 10
747.72837914217678
 20
751.1377708828868
 30
0.0
 40
5.0
 50
179.999989999999
 51
270.0
  0
ARC
  5
D72D
  8
AM_0
 10
778.56872914217684
 20
751.1377708828868
 30
0.0
 40
5.0
 50
270.0
 51
306.61150000001038
  0
ARC
  5
D72E
  8
AM_0
 10
747.72837914217678
 20
755.3183208828865
 30
0.0
 40
5.0
 50
121.76535999998799
 51
180.000010000001
  0
ARC
  5
D72F
  8
AM_0
 10
637.22842914217631
 20
435.54716588288642
 30
0.0
 40
2.0000000500000001
 50
179.999989999999
 51
268.00000999999207
  0
ARC
  5
D730
  8
AM_0
 10
670.22837914217655
 20
434.39479088288653
 30
0.0
 40
2.0000000500000001
 50
179.999989999999
 51
268.00000999999207
  0
ARC
  5
D731
  8
AM_0
 10
666.22837914217655
 20
445.69516088288651
 30
0.0
 40
2.0000000500000001
 50
0.0
 51
90.000002999984659
  0
ARC
  5
D732
  8
AM_0
 10
640.22837914217655
 20
452.69514588288638
 30
0.0
 40
5.0
 50
179.999989999999
 51
270.0
  0
LINE
  5
D795
  8
0
  6
AM_ISO08W050
 10
1054.4046876831519
 20
653.69515088288654
 30
0.0
 11
1443.014517683152
 21
653.69515088288654
 31
0.0
  0
LINE
  5
D796
  8
0
  6
AM_ISO08W050
 10
1247.925377683152
 20
847.64510088288648
 30
0.0
 11
1247.925377683152
 21
419.25763088288647
 31
0.0
  0
LINE
  5
D797
  8
0
  6
CONTINUOUS
 62
     7
 10
1238.925377683152
 20
687.69515088288654
 30
0.0
 11
1238.925377683152
 21
676.69515088288654
 31
0.0
  0
LINE
  5
D798
  8
0
  6
CONTINUOUS
 62
     7
 10
1238.925377683152
 20
687.69515088288654
 30
0.0
 11
1256.925377683152
 21
687.69515088288654
 31
0.0
  0
LINE
  5
D799
  8
0
  6
CONTINUOUS
 62
     7
 10
1238.925377683152
 20
676.69515088288654
 30
0.0
 11
1256.925377683152
 21
676.69515088288654
 31
0.0
  0
LINE
  5
D79A
  8
0
  6
CONTINUOUS
 62
     7
 10
1256.925377683152
 20
687.69515088288654
 30
0.0
 11
1256.925377683152
 21
676.69515088288654
 31
0.0
  0
LINE
  5
D79B
  8
0
  6
CONTINUOUS
 62
     7
 10
1318.6567576831519
 20
432.25586088288651
 30
0.0
 11
1354.281467683152
 21
457.8904008828863
 31
0.0
  0
LINE
  5
D79C
  8
0
  6
CONTINUOUS
 62
     7
 10
1185.425377683152
 20
429.60214088288632
 30
0.0
 11
1310.425377683152
 21
429.60214088288632
 31
0.0
  0
LINE
  5
D79D
  8
0
  6
CONTINUOUS
 62
     7
 10
1106.5769576831519
 20
633.82884088288654
 30
0.0
 11
1114.831897683152
 21
680.64494088288654
 31
0.0
  0
LINE
  5
D79E
  8
0
  6
CONTINUOUS
 62
     7
 10
1389.2738276831519
 20
633.8288108828865
 30
0.0
 11
1381.0188676831519
 21
680.64494088288654
 31
0.0
  0
LINE
  5
D79F
  8
0
  6
CONTINUOUS
 62
     7
 10
1329.925357683152
 20
653.69515088288654
 30
0.0
 11
1329.925357683152
 21
643.69515088288654
 31
0.0
  0
LINE
  5
D7A0
  8
0
  6
CONTINUOUS
 62
     7
 10
1180.2261276831521
 20
711.49489088288624
 30
0.0
 11
1145.973077683152
 21
745.74791088288623
 31
0.0
  0
LINE
  5
D7A1
  8
0
  6
CENTER
 62
     7
 10
1073.6235276831519
 20
479.39336088288621
 30
0.0
 11
1104.029107683152
 21
509.79895088288617
 31
0.0
  0
LINE
  5
D7A2
  8
0
  6
CONTINUOUS
 62
     7
 10
1407.925377683152
 20
468.6951508828862
 30
0.0
 11
1087.925377683152
 21
468.6951508828862
 31
0.0
  0
LINE
  5
D7A3
  8
0
  6
CENTER
 62
     7
 10
1073.6235576831521
 20
827.99696088288636
 30
0.0
 11
1105.3080676831521
 21
796.31246088288663
 31
0.0
  0
LINE
  5
D7A4
  8
0
  6
CONTINUOUS
 62
     7
 10
1107.725517683152
 20
633.69515088288654
 30
0.0
 11
1155.925377683152
 21
633.69515088288654
 31
0.0
  0
LINE
  5
D7A5
  8
0
  6
CONTINUOUS
 62
     7
 10
1315.6246076831519
 20
711.49489088288624
 30
0.0
 11
1349.8776776831519
 21
745.74797088288619
 31
0.0
  0
LINE
  5
D7A6
  8
0
  6
CENTER
 62
     7
 10
1422.227178683152
 20
479.39333088288652
 30
0.0
 11
1391.8215876831521
 21
509.79892088288631
 31
0.0
  0
LINE
  5
D7A7
  8
0
  6
CONTINUOUS
 62
     7
 10
1388.125217683152
 20
633.69515088288654
 30
0.0
 11
1339.925357683152
 21
633.69515088288654
 31
0.0
  0
LINE
  5
D7A8
  8
0
  6
CONTINUOUS
 62
     7
 10
1087.925377683152
 20
838.69521088288661
 30
0.0
 11
1407.925377683152
 21
838.69521088288661
 31
0.0
  0
LINE
  5
D7A9
  8
0
  6
CONTINUOUS
 62
     7
 10
1062.925377683152
 20
493.6951508828862
 30
0.0
 11
1062.925377683152
 21
813.69515088288654
 31
0.0
  0
LINE
  5
D7AA
  8
0
  6
CONTINUOUS
 62
     7
 10
1305.725117683153
 20
721.39440088288654
 30
0.0
 11
1339.9781876831521
 21
755.64748088288661
 31
0.0
  0
LINE
  5
D7AB
  8
0
  6
CONTINUOUS
 62
     7
 10
1432.9253606831519
 20
813.69515088288654
 30
0.0
 11
1432.9253606831519
 21
493.6951508828862
 31
0.0
  0
LINE
  5
D7AC
  8
0
  6
CENTER
 62
     7
 10
1422.227133683152
 20
827.99696088288636
 30
0.0
 11
1389.564687683152
 21
795.33455088288645
 31
0.0
  0
LINE
  5
D7AD
  8
0
  6
CONTINUOUS
 62
     7
 10
1165.925377683152
 20
653.69515088288654
 30
0.0
 11
1165.925377683152
 21
643.69515088288654
 31
0.0
  0
LINE
  5
D7AE
  8
0
  6
CONTINUOUS
 62
     7
 10
1190.1256276831521
 20
721.39440088288654
 30
0.0
 11
1155.872577683152
 21
755.64742088288654
 31
0.0
  0
LINE
  5
D7AF
  8
0
  6
CONTINUOUS
 62
     7
 10
1177.1939576831519
 20
432.25586088288651
 30
0.0
 11
1141.569267683152
 21
457.89038088288652
 31
0.0
  0
CIRCLE
  5
D7B0
  8
0
  6
CONTINUOUS
 62
     7
 10
1247.925377683152
 20
653.69515088288654
 30
0.0
 40
4.5
  0
CIRCLE
  5
D7B1
  8
0
  6
CONTINUOUS
 62
     7
 10
1247.925377683152
 20
653.69515088288654
 30
0.0
 40
6.0
  0
ARC
  5
D7B2
  8
0
  6
CONTINUOUS
 62
     7
 10
1247.925377683152
 20
653.69515088288654
 30
0.0
 40
30.0
 50
107.4576000000072
 51
72.542384000004162
  0
ARC
  5
D7B3
  8
0
  6
CONTINUOUS
 62
     7
 10
1247.925377683152
 20
605.69515088288654
 30
0.0
 40
182.0929899999999
 50
228.79547000000139
 51
234.26227999999779
  0
ARC
  5
D7B4
  8
0
  6
CONTINUOUS
 62
     7
 10
1247.925377683152
 20
653.69515088288654
 30
0.0
 40
82.0
 50
144.59407000000161
 51
180.000010000001
  0
ARC
  5
D7B5
  8
0
  6
CONTINUOUS
 62
     7
 10
1247.925377683152
 20
653.69515088288654
 30
0.0
 40
82.0
 50
54.5940669999991
 51
125.40592999999841
  0
ARC
  5
D7B6
  8
0
  6
CONTINUOUS
 62
     7
 10
1185.425377683152
 20
443.6951508828862
 30
0.0
 40
14.09299899999999
 50
234.26227999999779
 51
270.0
  0
ARC
  5
D7B7
  8
0
  6
CONTINUOUS
 62
     7
 10
1310.425377683152
 20
443.6951508828862
 30
0.0
 40
14.09299899999999
 50
270.0
 51
305.73772000000218
  0
ARC
  5
D7B8
  8
0
  6
CONTINUOUS
 62
     7
 10
1225.1303576831519
 20
661.1963708828863
 30
0.0
 40
112.0
 50
133.04831000000391
 51
169.99998999999769
  0
ARC
  5
D7B9
  8
0
  6
CONTINUOUS
 62
     7
 10
1270.720407683152
 20
661.1963708828863
 30
0.0
 40
112.0
 50
9.9999997000027125
 51
46.951683000003783
  0
ARC
  5
D7BA
  8
0
  6
CONTINUOUS
 62
     7
 10
1247.925377683152
 20
605.69515088288654
 30
0.0
 40
172.0
 50
58.77028800000641
 51
121.229710000004
  0
ARC
  5
D7BB
  8
0
  6
CONTINUOUS
 62
     7
 10
1300.0682576831521
 20
727.05123088288644
 30
0.0
 40
8.0
 50
234.59407000000161
 51
314.9999999999954
  0
ARC
  5
D7BC
  8
0
  6
CONTINUOUS
 62
     7
 10
1247.925377683152
 20
653.69515088288654
 30
0.0
 40
82.0
 50
0.0
 51
35.405932000002593
  0
ARC
  5
D7BD
  8
0
  6
CONTINUOUS
 62
     7
 10
1407.925377683152
 20
813.69515088288654
 30
0.0
 40
25.0
 50
0.0
 51
90.00000299999769
  0
ARC
  5
D7BE
  8
0
  6
CONTINUOUS
 62
     7
 10
1107.725517683152
 20
638.69515088288654
 30
0.0
 40
5.0
 50
186.1068500000045
 51
270.0
  0
ARC
  5
D7BF
  8
0
  6
CONTINUOUS
 62
     7
 10
1161.529377683152
 20
761.30431088288651
 30
0.0
 40
8.0
 50
128.759870000001
 51
225.0000000000046
  0
ARC
  5
D7C0
  8
0
  6
CONTINUOUS
 62
     7
 10
1247.925377683152
 20
653.69515088288654
 30
0.0
 40
146.0
 50
270.0
 51
90.00000299999769
  0
ARC
  5
D7C1
  8
0
  6
CONTINUOUS
 62
     7
 10
1247.925377683152
 20
653.69515088288654
 30
0.0
 40
146.0
 50
90.00000299999769
 51
270.0
  0
ARC
  5
D7C2
  8
0
  6
CONTINUOUS
 62
     7
 10
1334.321337683152
 20
761.30431088288651
 30
0.0
 40
8.0
 50
314.9999999999954
 51
51.240129999994892
  0
ARC
  5
D7C3
  8
0
  6
CONTINUOUS
 62
     7
 10
1321.281467683152
 20
705.83806088288623
 30
0.0
 40
8.0
 50
134.9999999999954
 51
215.40592999999839
  0
ARC
  5
D7C4
  8
0
  6
CONTINUOUS
 62
     7
 10
1388.125217683152
 20
638.69515088288654
 30
0.0
 40
5.0
 50
270.0
 51
353.8931499999955
  0
ARC
  5
D7C5
  8
0
  6
CONTINUOUS
 62
     7
 10
1087.925377683152
 20
493.6951508828862
 30
0.0
 40
25.0
 50
179.999989999999
 51
270.0
  0
ARC
  5
D7C6
  8
0
  6
CONTINUOUS
 62
     7
 10
1407.925377683152
 20
493.6951508828862
 30
0.0
 40
25.0
 50
270.0
 51
0.0
  0
ARC
  5
D7C7
  8
0
  6
CONTINUOUS
 62
     7
 10
1087.925377683152
 20
813.69515088288654
 30
0.0
 40
25.0
 50
90.00000299999769
 51
180.000010000001
  0
ARC
  5
D7C8
  8
0
  6
CONTINUOUS
 62
     7
 10
1195.782457683152
 20
727.05123088288644
 30
0.0
 40
8.0
 50
225.0000000000046
 51
305.40592999999842
  0
ARC
  5
D7C9
  8
0
  6
CONTINUOUS
 62
     7
 10
1247.925377683152
 20
653.69515088288654
 30
0.0
 40
65.0
 50
90.00000299999769
 51
270.0
  0
CIRCLE
  5
D7CA
  8
0
  6
CONTINUOUS
 62
     7
 10
1088.8263476831521
 20
494.59612088288628
 30
0.0
 40
12.0
  0
ARC
  5
D7CB
  8
0
  6
CENTER
 62
     7
 10
1247.925377683152
 20
653.69515088288654
 30
0.0
 40
225.0
 50
128.43889000000109
 51
141.1473999999987
  0
CIRCLE
  5
D7CC
  8
0
  6
CONTINUOUS
 62
     7
 10
1088.8263476831521
 20
812.79421088288609
 30
0.0
 40
12.0
  0
ARC
  5
D7CD
  8
0
  6
CONTINUOUS
 62
     7
 10
1247.925377683152
 20
653.69515088288654
 30
0.0
 40
155.0
 50
270.0
 51
90.00000299999769
  0
ARC
  5
D7CE
  8
0
  6
CENTER
 62
     7
 10
1247.925377683152
 20
653.69515088288654
 30
0.0
 40
225.0
 50
219.522979999998
 51
230.477020000002
  0
ARC
  5
D7CF
  8
0
  6
CONTINUOUS
 62
     7
 10
1339.925357683152
 20
643.69515088288654
 30
0.0
 40
10.0
 50
179.999989999999
 51
270.0
  0
ARC
  5
D7D0
  8
0
  6
CONTINUOUS
 62
     7
 10
1140.316217683152
 20
740.09114088288652
 30
0.0
 40
8.0
 50
45.000000999994569
 51
141.240130000004
  0
ARC
  5
D7D1
  8
0
  6
CONTINUOUS
 62
     7
 10
1174.5692976831519
 20
705.83806088288623
 30
0.0
 40
8.0
 50
324.59407000000158
 51
45.000000999994569
  0
ARC
  5
D7D2
  8
0
  6
CONTINUOUS
 62
     7
 10
1155.925377683152
 20
643.69515088288654
 30
0.0
 40
10.0
 50
270.0
 51
0.0
  0
ARC
  5
D7D3
  8
0
  6
CONTINUOUS
 62
     7
 10
1247.925377683152
 20
653.69515088288654
 30
0.0
 40
65.0
 50
270.0
 51
90.00000299999769
  0
CIRCLE
  5
D7D4
  8
0
  6
CONTINUOUS
 62
     7
 10
1407.0243976831521
 20
494.59612088288628
 30
0.0
 40
12.0
  0
ARC
  5
D7D5
  8
0
  6
CENTER
 62
     7
 10
1247.925377683152
 20
653.69515088288654
 30
0.0
 40
225.0
 50
38.696152999996329
 51
51.127439000001473
  0
CIRCLE
  5
D7D6
  8
0
  6
CONTINUOUS
 62
     7
 10
1407.0243976831521
 20
812.79421088288609
 30
0.0
 40
12.0
  0
ARC
  5
D7D7
  8
0
  6
CENTER
 62
     7
 10
1247.925377683152
 20
653.69515088288654
 30
0.0
 40
225.0
 50
308.20956000000223
 51
320.8512499999955
  0
ARC
  5
D7D8
  8
0
  6
CONTINUOUS
 62
     7
 10
1355.5345476831519
 20
740.09114088288652
 30
0.0
 40
8.0
 50
38.759869000004251
 51
134.9999999999954
  0
ARC
  5
D7D9
  8
0
  6
CONTINUOUS
 62
     7
 10
1247.925377683152
 20
653.69515088288654
 30
0.0
 40
155.0
 50
90.00000299999769
 51
270.0
  0
ARC
  5
D7DA
  8
0
  6
CONTINUOUS
 62
     7
 10
1247.925377683152
 20
605.69515088288654
 30
0.0
 40
182.0929899999999
 50
305.73772000000218
 51
311.20452999999861
  0
TEXT
  5
DA10
  8
0
  6
CONTINUOUS
 62
     0
 10
1092.112016394439
 20
1084.38430215571
 30
0.0
 40
15.0
  1
VX22-240EBF~VX22-300EBF
  0
ENDSEC
  0
EOF
