  0
SECTION
  2
HEADER
  9
$ACADVER
  1
AC1009
  9
$INSBASE
 10
0.0
 20
0.0
 30
0.0
  9
$EXTMIN
 10
173.02858448775939
 20
422.90113304470327
 30
-0.000000000000013
  9
$EXTMAX
 10
1487.8686719218499
 20
1239.095776395912
 30
0.0000000000000023
  9
$LIMMIN
 10
0.0000005999945643
 20
-0.0000005963913736
  9
$LIMMAX
 10
1707.000000599995
 20
1109.9999994036091
  9
$ORTHOMODE
 70
     0
  9
$REGENMODE
 70
     1
  9
$FILLMODE
 70
     1
  9
$QTEXTMODE
 70
     0
  9
$MIRRTEXT
 70
     0
  9
$DRAGMODE
 70
     2
  9
$LTSCALE
 40
1.0
  9
$OSMODE
 70
   551
  9
$ATTMODE
 70
     1
  9
$TEXTSIZE
 40
12.5
  9
$TRACEWID
 40
1.0
  9
$TEXTSTYLE
  7
USER1
  9
$CLAYER
  8
0
  9
$CELTYPE
  6
BYLAYER
  9
$CECOLOR
 62
   256
  9
$DIMSCALE
 40
1.0
  9
$DIMASZ
 40
2.0
  9
$DIMEXO
 40
1.0
  9
$DIMDLI
 40
8.0
  9
$DIMRND
 40
0.0
  9
$DIMDLE
 40
0.0
  9
$DIMEXE
 40
1.0
  9
$DIMTP
 40
-0.025
  9
$DIMTM
 40
0.043
  9
$DIMTXT
 40
2.5
  9
$DIMCEN
 40
0.0
  9
$DIMTSZ
 40
0.0
  9
$DIMTOL
 70
     0
  9
$DIMLIM
 70
     0
  9
$DIMTIH
 70
     0
  9
$DIMTOH
 70
     0
  9
$DIMSE1
 70
     0
  9
$DIMSE2
 70
     0
  9
$DIMTAD
 70
     3
  9
$DIMZIN
 70
     8
  9
$DIMBLK
  1

  9
$DIMASO
 70
     1
  9
$DIMSHO
 70
     1
  9
$DIMPOST
  1

  9
$DIMAPOST
  1
"
  9
$DIMALT
 70
     0
  9
$DIMALTD
 70
     2
  9
$DIMALTF
 40
0.0393701
  9
$DIMLFAC
 40
1.0
  9
$DIMTOFL
 70
     1
  9
$DIMTVP
 40
0.0
  9
$DIMTIX
 70
     0
  9
$DIMSOXD
 70
     0
  9
$DIMSAH
 70
     0
  9
$DIMBLK1
  1

  9
$DIMBLK2
  1

  9
$DIMSTYLE
  2
AM_JIS
  9
$DIMCLRD
 70
     2
  9
$DIMCLRE
 70
     2
  9
$DIMCLRT
 70
     4
  9
$DIMTFAC
 40
0.71
  9
$DIMGAP
 40
1.5
  9
$LUNITS
 70
     2
  9
$LUPREC
 70
     2
  9
$SKETCHINC
 40
1.0
  9
$FILLETRAD
 40
0.0
  9
$AUNITS
 70
     0
  9
$AUPREC
 70
     0
  9
$MENU
  1
.
  9
$ELEVATION
 40
0.0
  9
$PELEVATION
 40
0.0
  9
$THICKNESS
 40
0.0
  9
$LIMCHECK
 70
     0
  9
$BLIPMODE
 70
     0
  9
$CHAMFERA
 40
3.0
  9
$CHAMFERB
 40
3.0
  9
$SKPOLY
 70
     0
  9
$TDCREATE
 40
2456829.3841110538
  9
$TDUPDATE
 40
2458541.3953840742
  9
$TDINDWG
 40
0.5951064468
  9
$TDUSRTIMER
 40
0.5951060648
  9
$USRTIMER
 70
     1
  9
$ANGBASE
 50
0.0
  9
$ANGDIR
 70
     0
  9
$PDMODE
 70
     0
  9
$PDSIZE
 40
0.0
  9
$PLINEWID
 40
0.0
  9
$COORDS
 70
     1
  9
$SPLFRAME
 70
     0
  9
$SPLINETYPE
 70
     6
  9
$SPLINESEGS
 70
     8
  9
$ATTDIA
 70
     1
  9
$ATTREQ
 70
     1
  9
$HANDLING
 70
     1
  9
$HANDSEED
  5
CD8A
  9
$SURFTAB1
 70
     6
  9
$SURFTAB2
 70
     6
  9
$SURFTYPE
 70
     6
  9
$SURFU
 70
     6
  9
$SURFV
 70
     6
  9
$UCSNAME
  2

  9
$UCSORG
 10
0.0
 20
0.0
 30
0.0
  9
$UCSXDIR
 10
1.0
 20
0.0
 30
0.0
  9
$UCSYDIR
 10
0.0
 20
1.0
 30
0.0
  9
$PUCSNAME
  2

  9
$PUCSORG
 10
0.0
 20
0.0
 30
0.0
  9
$PUCSXDIR
 10
1.0
 20
0.0
 30
0.0
  9
$PUCSYDIR
 10
0.0
 20
1.0
 30
0.0
  9
$USERI1
 70
     0
  9
$USERI2
 70
     0
  9
$USERI3
 70
     0
  9
$USERI4
 70
     0
  9
$USERI5
 70
     0
  9
$USERR1
 40
0.0
  9
$USERR2
 40
0.0
  9
$USERR3
 40
0.0
  9
$USERR4
 40
0.0
  9
$USERR5
 40
0.0
  9
$WORLDVIEW
 70
     1
  9
$SHADEDGE
 70
     3
  9
$SHADEDIF
 70
    70
  9
$TILEMODE
 70
     1
  9
$MAXACTVP
 70
    64
  9
$PLIMCHECK
 70
     0
  9
$PEXTMIN
 10
1.0000000000000000E+020
 20
1.0000000000000000E+020
 30
1.0000000000000000E+020
  9
$PEXTMAX
 10
-1.0000000000000000E+020
 20
-1.0000000000000000E+020
 30
-1.0000000000000000E+020
  9
$PLIMMIN
 10
0.0
 20
0.0
  9
$PLIMMAX
 10
420.0
 20
297.0
  9
$UNITMODE
 70
     0
  9
$VISRETAIN
 70
     1
  9
$PLINEGEN
 70
     0
  9
$PSLTSCALE
 70
     1
  0
ENDSEC
  0
SECTION
  2
TABLES
  0
TABLE
  2
VPORT
 70
     1
  0
VPORT
  2
*ACTIVE
 70
     0
 10
0.0
 20
0.0
 11
1.0
 21
1.0
 12
830.44862820480489
 22
830.99845472030745
 13
0.0
 23
0.0
 14
15.0
 24
15.0
 15
60.0
 25
60.0
 16
0.0
 26
0.0
 36
1.0
 17
0.0
 27
0.0
 37
0.0
 40
821.79781023920305
 41
1.7571592210767459
 42
50.0
 43
0.0
 44
0.0
 50
0.0
 51
0.0
 71
    16
 72
  1000
 73
     1
 74
     3
 75
     0
 76
     0
 77
     0
 78
     0
  0
ENDTAB
  0
TABLE
  2
LTYPE
 70
    25
  0
LTYPE
  2
CONTINUOUS
 70
     0
  3
Solid line
 72
    65
 73
     0
 40
0.0
  0
LTYPE
  2
CENTER
 70
     0
  3
Center ____ _ ____ _ ____ _ ____ _ ____ _ ____
 72
    65
 73
     4
 40
50.799999999999997
 49
31.75
 49
-6.3499999999999979
 49
6.3499999999999979
 49
-6.3499999999999979
  0
LTYPE
  2
AM_ISO02W050
 70
     0
  3
__ __ __ __ __ __ __ __ __ __ __ __ __ __ __
 72
    65
 73
     2
 40
7.5
 49
6.0
 49
-1.5
  0
LTYPE
  2
AM_ISO08W050
 70
     0
  3
____ . ____ . ____ . ____ . ____ . ____ . ____
 72
    65
 73
     4
 40
18.0
 49
12.0
 49
-1.5
 49
3.0
 49
-1.5
  0
LTYPE
  2
AM_ISO09W050
 70
     0
  3
_____ . . _____ . . _____ . . ____ .. ____
 72
    65
 73
     6
 40
22.5
 49
12.0
 49
-1.5
 49
3.0
 49
-1.5
 49
3.0
 49
-1.5
  0
LTYPE
  2
AMCONSTR
 70
     0
  3
_______________________
 72
    65
 73
     2
 40
9999.0
 49
9999.0
 49
0.0
  0
LTYPE
  2
AM_ISO08W050X2
 70
     0
  3
__ . __ . __ . __ . __ . __
 72
    65
 73
     4
 40
9.0
 49
6.0
 49
-0.75
 49
1.5
 49
-0.75
  0
LTYPE
  2
AM_ISO02W050X2
 70
     0
  3
 _ _ _ _ _ _ _ _ _ _ _ _
 72
    65
 73
     2
 40
3.75
 49
3.0
 49
-0.75
  0
LTYPE
  2
AMZIGZAG
 70
     0
  3
/\/-/\/-/\/-/\/-/\/-/\/
 72
    65
 73
     2
 40
11.0001
 49
0.0001
 49
-11.0
  0
LTYPE
  2
ACANSTGBM
 70
     0
  3
__ . . __ . .
 72
    65
 73
     6
 40
9.0
 49
4.0
 49
-1.0
 49
1.0
 49
-1.0
 49
1.0
 49
-1.0
  0
LTYPE
  2
ACANSTGLM
 70
     0
  3
_ _ _ _ _
 72
    65
 73
     2
 40
3.0
 49
2.0
 49
-1.0
  0
LTYPE
  2
ACISOWELD
 70
     0
  3
_ _ _ _ _
 72
    65
 73
     2
 40
2.0
 49
2.0
 49
-1.0
  0
LTYPE
  2
ACISOTGB
 70
     0
  3
__ . . __ . .
 72
    65
 73
     6
 40
9.0
 49
4.0
 49
-1.0
 49
1.0
 49
-1.0
 49
1.0
 49
-1.0
  0
LTYPE
  2
ACISOTGL
 70
     0
  3
_ _ _ _ _
 72
    65
 73
     2
 40
3.0
 49
2.0
 49
-1.0
  0
LTYPE
  2
ACJISTGB
 70
     0
  3
__ . . __ . .
 72
    65
 73
     6
 40
9.0
 49
4.0
 49
-1.0
 49
1.0
 49
-1.0
 49
1.0
 49
-1.0
  0
LTYPE
  2
ACJISTGL
 70
     0
  3
_ _ _ _ _
 72
    65
 73
     2
 40
3.0
 49
2.0
 49
-1.0
  0
LTYPE
  2
HIDDEN
 70
     0
  3
Hidden __ __ __ __ __ __ __ __ __ __ __ __ __ _
 72
    65
 73
     2
 40
9.5249999999999968
 49
6.349999999999997
 49
-3.174999999999998
  0
LTYPE
  2
PHANTOM2
 70
     0
  3
Phantom (.5x) ___ _ _ ___ _ _ ___ _ _ ___ _ _
 72
    65
 73
     6
 40
31.75
 49
15.875
 49
-3.174999999999998
 49
3.174999999999998
 49
-3.174999999999998
 49
3.174999999999998
 49
-3.174999999999998
  0
LTYPE
  2
ACJISWELD
 70
     0
  3
_ _ _ _ _
 72
    65
 73
     2
 40
2.0
 49
2.0
 49
-1.0
  0
LTYPE
  2
CENTER2
 70
     0
  3
Center (.5x) ___ _ ___ _ ___ _ ___ _ ___ _ ___
 72
    65
 73
     4
 40
1.125
 49
0.75
 49
-0.125
 49
0.125
 49
-0.125
  0
LTYPE
  2
HIDDEN2
 70
     0
  3
Hidden (.5x) _ _ _ _ _ _ _ _ _ _ _ _ _ _ _ _ _
 72
    65
 73
     2
 40
0.1875
 49
0.125
 49
-0.0625
  0
LTYPE
  2
AMZIGZAG2
 70
     0
  3
/\/-/\/-/\/-/\/-/\/-/\/
 72
    65
 73
     2
 40
0.4401
 49
0.0001
 49
-0.4400000000000002
  0
LTYPE
  2
ACANSTGB
 70
     0
  3
__ . . __ . .
 72
    65
 73
     6
 40
0.35433070866
 49
0.15748031496
 49
-0.03937007874
 49
0.03937007874
 49
-0.03937007874
 49
0.03937007874
 49
-0.03937007874
  0
LTYPE
  2
ACANSTGL
 70
     0
  3
_ _ _ _ _
 72
    65
 73
     2
 40
0.11811023622
 49
0.07874015748
 49
-0.03937007874
  0
ENDTAB
  0
TABLE
  2
LAYER
 70
     5
  0
LAYER
  2
0
 70
     0
 62
     7
  6
CONTINUOUS
  0
LAYER
  2
DEFPOINTS
 70
     0
 62
     7
  6
CONTINUOUS
  0
LAYER
  2
AM_5
 70
     0
 62
     2
  6
CONTINUOUS
  0
LAYER
  2
AM_CL
 70
     0
 62
     1
  6
AMCONSTR
  0
LAYER
  2
AM_0
 70
     0
 62
     7
  6
CONTINUOUS
  0
ENDTAB
  0
TABLE
  2
STYLE
 70
     9
  0
STYLE
  2
STANDARD
 70
     0
 40
0.0
 41
0.7400000000000003
 50
0.0
 71
     0
 42
2.5
  3
txt.shx
  4
bigfont.shx
  0
STYLE
  2

 70
     1
 40
0.0
 41
1.0
 50
0.0
 71
     0
 42
2.5
  3
ltypeshp.shx
  4

  0
STYLE
  2
ACANSTS
 70
     0
 40
1.0
 41
1.0
 50
0.0
 71
     0
 42
2.5
  3
romans.shx
  4
bigfont.shx
  0
STYLE
  2
ACANSGDT
 70
     0
 40
0.0
 41
1.0
 50
0.0
 71
     0
 42
2.5
  3
amgdtans.shx
  4

  0
STYLE
  2
ACISOTS
 70
     0
 40
1.0
 41
1.0
 50
0.0
 71
     0
 42
2.5
  3
isocp.shx
  4
extfont.shx
  0
STYLE
  2
ACISOGDT
 70
     0
 40
0.0
 41
1.0
 50
0.0
 71
     0
 42
2.5
  3
amgdt.shx
  4

  0
STYLE
  2
ACJISGDT
 70
     0
 40
0.0
 41
1.0
 50
0.0
 71
     0
 42
2.5
  3
amgdt.shx
  4

  0
STYLE
  2
ACJISTS
 70
     0
 40
1.0
 41
1.0
 50
0.0
 71
     0
 42
2.5
  3
isocp.shx
  4
extfont.shx
  0
STYLE
  2
USER1
 70
     0
 40
0.0
 41
1.0
 50
0.0
 71
     0
 42
12.5
  3
TXT.SHX
  4

  0
ENDTAB
  0
TABLE
  2
VIEW
 70
     6
  0
VIEW
  2
AM_VIEW1
 70
     0
 40
555.00000000000011
 10
599.14035147718755
 20
832.49999940360885
 41
1198.280701754386
 11
0.0
 21
0.0
 31
1.0
 12
0.0
 22
0.0
 32
0.0
 42
50.0
 43
0.0
 44
0.0
 50
0.0
 71
    16
  0
VIEW
  2
AM_VIEW2
 70
     0
 40
555.00000000000011
 10
1107.8596497228009
 20
832.49999940360885
 41
1198.280701754386
 11
0.0
 21
0.0
 31
1.0
 12
0.0
 22
0.0
 32
0.0
 42
50.0
 43
0.0
 44
0.0
 50
0.0
 71
    16
  0
VIEW
  2
AM_VIEW3
 70
     0
 40
555.00000000000011
 10
599.14035147718755
 20
277.49999940360868
 41
1198.280701754386
 11
0.0
 21
0.0
 31
1.0
 12
0.0
 22
0.0
 32
0.0
 42
50.0
 43
0.0
 44
0.0
 50
0.0
 71
    16
  0
VIEW
  2
AM_VIEW4
 70
     0
 40
555.00000000000011
 10
1107.8596497228009
 20
277.49999940360868
 41
1198.280701754386
 11
0.0
 21
0.0
 31
1.0
 12
0.0
 22
0.0
 32
0.0
 42
50.0
 43
0.0
 44
0.0
 50
0.0
 71
    16
  0
VIEW
  2
AM_VIEW5
 70
     0
 40
555.00000000000011
 10
853.50000059999445
 20
554.99999940360874
 41
1198.280701754386
 11
0.0
 21
0.0
 31
1.0
 12
0.0
 22
0.0
 32
0.0
 42
50.0
 43
0.0
 44
0.0
 50
0.0
 71
    16
  0
VIEW
  2
AM_VIEW6
 70
     0
 40
1109.9889000000001
 10
853.50000059999445
 20
554.99999940360874
 41
2396.5374378947372
 11
0.0
 21
0.0
 31
1.0
 12
0.0
 22
0.0
 32
0.0
 42
50.0
 43
0.0
 44
0.0
 50
0.0
 71
    16
  0
ENDTAB
  0
TABLE
  2
UCS
 70
     0
  0
ENDTAB
  0
TABLE
  2
APPID
 70
   157
  0
APPID
  2
ACAD
 70
     0
  0
APPID
  2
ACADANNOTATIVE
 70
     0
  0
APPID
  2
ACAD_MLEADERVER
 70
     0
  0
APPID
  2
MCAD_NO_VIS
 70
     0
  0
APPID
  2
ACAD_TEMP_GRAPHIC
 70
     0
  0
APPID
  2
AD_DRAW
 70
     0
  0
APPID
  2
ACATTRIBSERVICES
 70
     0
  0
APPID
  2
DESIGNERASSEMBLIES
 70
     0
  0
APPID
  2
ACADM_DIM_EDIT
 70
     0
  0
APPID
  2
AMDT_DM_ADJ
 70
     0
  0
APPID
  2
GENIUS_GENDIMSH_14
 70
     0
  0
APPID
  2
GEVID1057795304
 70
     0
  0
APPID
  2
GEVDC
 70
     0
  0
APPID
  2
GEVCON
 70
     0
  0
APPID
  2
GENIUS_GENBH_13
 70
     0
  0
APPID
  2
GENIUS_GENOENT_13
 70
     0
  0
APPID
  2
GENIUS_GENOBJ-NBEHI-BHF_13
 70
     0
  0
APPID
  2
GENIUS_GENOLIS_13
 70
     0
  0
APPID
  2
GENIUS_GENODEF_13
 70
     0
  0
APPID
  2
GENIUS_GENOREF_13
 70
     0
  0
APPID
  2
GENIUS_GENOBJ-NBEHI-BHB_13
 70
     0
  0
APPID
  2
GENIUS_GENOBJ-F-SCPASSM_13
 70
     0
  0
APPID
  2
GENIUS_GENDTOL_13
 70
     0
  0
APPID
  2
GENIUS_GENTRA_14
 70
     0
  0
APPID
  2
ASURF_PCURVE_APPNAME
 70
     0
  0
APPID
  2
GENIUS_GENCFG_13
 70
     0
  0
APPID
  2
GENIUS_GE3CFG0_13
 70
     0
  0
APPID
  2
GENIUS_GENCFG0_13
 70
     0
  0
APPID
  2
GENIUS_GENCFG1_13
 70
     0
  0
APPID
  2
GENIUS_GENCFG2_13
 70
     0
  0
APPID
  2
GENIUS_GENCFG3_13
 70
     0
  0
APPID
  2
GENIUS_GENCFG4_13
 70
     0
  0
APPID
  2
GENIUS_GEVCFG0_13
 70
     0
  0
APPID
  2
GENIUS_GENOBJ-N-TIT_13
 70
     0
  0
APPID
  2
GENIUS_GENTITLE_13
 70
     0
  0
APPID
  2
GENIUS_GENSCREG_15
 70
     0
  0
APPID
  2
GENIUS_GENOBJ-N-SDF_13
 70
     0
  0
APPID
  2
GENIUS_GENFIL_13
 70
     0
  0
APPID
  2
GENIUS_GENOBJ-N-CHA_13
 70
     0
  0
APPID
  2
GENIUS_GEFSH_13
 70
     0
  0
APPID
  2
GENIUS_GENOBJ-F-SHS_13
 70
     0
  0
APPID
  2
GENIUS_GENOBJ-N-CEN_13
 70
     0
  0
APPID
  2
GENIUS_GENREC_14
 70
     0
  0
APPID
  2
GENIUS_GENOBJ-N-REC_13
 70
     0
  0
APPID
  2
GENIUS_GENOBJ-N-HTC_13
 70
     0
  0
APPID
  2
GENIUS_GENHATCH_13
 70
     0
  0
APPID
  2
ACAD_PSEXT
 70
     0
  0
APPID
  2
ACAD_EXEMPT_FROM_CAD_STANDARDS
 70
     0
  0
APPID
  2
ACAECLAYERSTANDARD
 70
     0
  0
APPID
  2
GENIUS_GENCEN_19
 70
     0
  0
APPID
  2
ACAD_DSTYLE_DIMINSPECT
 70
     0
  0
APPID
  2
ACAD_DSTYLE_DIMANGULAR_EXT
 70
     0
  0
APPID
  2
ACADANNOPO
 70
     0
  0
APPID
  2
ACAD_NAV_VCDISPLAY
 70
     0
  0
APPID
  2
GENIUS_GENOBJ-N-FIL_13
 70
     0
  0
APPID
  2
ACAD_DSTYLE_DIMBREAK
 70
     0
  0
APPID
  2
ACAD_DSTYLE_DIMJAG
 70
     0
  0
APPID
  2
ACAD_DSTYLE_DIMRADIAL_EXTENSION
 70
     0
  0
APPID
  2
GENIUS_GENHINW_13
 70
     0
  0
APPID
  2
GENIUS_FIRSTVISTXT_14
 70
     0
  0
APPID
  2
GENIUS_GENOBJ-N-LEADER_13
 70
     0
  0
APPID
  2
GENIUS_DUMCFG0_13
 70
     0
  0
APPID
  2
ACAD_DSTYLE_DIMTEXT_FILL
 70
     0
  0
APPID
  2
AMG_2DHIDE
 70
     0
  0
APPID
  2
GENIUS_GEFSHEP_13
 70
     0
  0
APPID
  2
GENIUS_GENOBJ-F-SHE_13
 70
     0
  0
APPID
  2
GENIUS_GEFSHE_13
 70
     0
  0
APPID
  2
ACAD_DIMASSOC_DIMLFAC
 70
     0
  0
APPID
  2
ACAD_DIMASSOC_CALC_DIMLFAC
 70
     0
  0
APPID
  2
ACAD_DIMASSOC_OVERRIDDEN_D
 70
     0
  0
APPID
  2
GENIUS_GENOBJ-F-SHSV_13
 70
     0
  0
APPID
  2
GENIUS_GEFWELD_13
 70
     0
  0
APPID
  2
GENIUS_GENOBJ-N-CRS_13
 70
     0
  0
APPID
  2
GENIUS_GENOBJ-N-RSBK_13
 70
     0
  0
APPID
  2
GENIUS_GENOBJ-N-LIB_13
 70
     0
  0
APPID
  2
GENIUS_GENSCALE_13
 70
     0
  0
APPID
  2
GENIUS_GENDREL_13
 70
     0
  0
APPID
  2
GEVPT
 70
     0
  0
APPID
  2
GEVIT
 70
     0
  0
APPID
  2
VCC
 70
     0
  0
APPID
  2
GENBH
 70
     0
  0
APPID
  2
GEVMK
 70
     0
  0
APPID
  2
GENIUS_GENOBJ-F-DESC_13
 70
     0
  0
APPID
  2
GENIUS_GEFDESC_14
 70
     0
  0
APPID
  2
GENIUS_GENOBJ-F-FEAT_13
 70
     0
  0
APPID
  2
GENIUS_GEFFEAT_14
 70
     0
  0
APPID
  2
GENIUS_GEFPARTINS_13
 70
     0
  0
APPID
  2
GENIUS_GENSCREG_13
 70
     0
  0
APPID
  2
GENIUS_GEFSHP_13
 70
     0
  0
APPID
  2
GEVID1025574798
 70
     0
  0
APPID
  2
GEVID1025574769
 70
     0
  0
APPID
  2
GEVID1025757451
 70
     0
  0
APPID
  2
GEVID1240528327
 70
     0
  0
APPID
  2
AMG_2DSTRUCT_BTR
 70
     0
  0
APPID
  2
ACADM_2DVIEW_IGN_NOTIFY
 70
     0
  0
APPID
  2
GEVID1240528328
 70
     0
  0
APPID
  2
GEVID1240528329
 70
     0
  0
APPID
  2
GEVRADREF
 70
     0
  0
APPID
  2
GEVID1240528330
 70
     0
  0
APPID
  2
GEVID1240528331
 70
     0
  0
APPID
  2
GEVID1240528332
 70
     0
  0
APPID
  2
GEVID1240791080
 70
     0
  0
APPID
  2
GEVID1240791081
 70
     0
  0
APPID
  2
GEVID1240791082
 70
     0
  0
APPID
  2
GEVID1240791083
 70
     0
  0
APPID
  2
GEVID1240791084
 70
     0
  0
APPID
  2
GEVID1240791085
 70
     0
  0
APPID
  2
GEVID1240791086
 70
     0
  0
APPID
  2
GEVID1240791087
 70
     0
  0
APPID
  2
GEVID1240791088
 70
     0
  0
APPID
  2
GEVID1240791089
 70
     0
  0
APPID
  2
GEVID1240791090
 70
     0
  0
APPID
  2
GEVID1240791091
 70
     0
  0
APPID
  2
GEVID1240791092
 70
     0
  0
APPID
  2
GEVID1240791093
 70
     0
  0
APPID
  2
GEVID1240791094
 70
     0
  0
APPID
  2
GEVID1240791095
 70
     0
  0
APPID
  2
GEVID1240791096
 70
     0
  0
APPID
  2
GEVID1240791097
 70
     0
  0
APPID
  2
GEVID1240791098
 70
     0
  0
APPID
  2
GEVID1240791099
 70
     0
  0
APPID
  2
GEVID1240791100
 70
     0
  0
APPID
  2
GEVID1240791101
 70
     0
  0
APPID
  2
GEVID1240791102
 70
     0
  0
APPID
  2
GEVID1240791103
 70
     0
  0
APPID
  2
GEVID1240791104
 70
     0
  0
APPID
  2
GEVID1240791105
 70
     0
  0
APPID
  2
GEVID1240875381
 70
     0
  0
APPID
  2
GEVID1240875382
 70
     0
  0
APPID
  2
GEVID1240875383
 70
     0
  0
APPID
  2
GEVID1240875384
 70
     0
  0
APPID
  2
GEVID1240875385
 70
     0
  0
APPID
  2
GEVID1240875386
 70
     0
  0
APPID
  2
GEVID1240875387
 70
     0
  0
APPID
  2
GEVID1240875388
 70
     0
  0
APPID
  2
GEVID1240875389
 70
     0
  0
APPID
  2
GEVID1240875390
 70
     0
  0
APPID
  2
GEVID1240875391
 70
     0
  0
APPID
  2
GEVID1240875392
 70
     0
  0
APPID
  2
GEVID1240875393
 70
     0
  0
APPID
  2
GEVID1240875394
 70
     0
  0
APPID
  2
GEVID1240875395
 70
     0
  0
APPID
  2
GEVID1240875396
 70
     0
  0
APPID
  2
GEVID1240875397
 70
     0
  0
APPID
  2
GEVID1240875398
 70
     0
  0
APPID
  2
GEVID1240875399
 70
     0
  0
APPID
  2
GEVID1240908996
 70
     0
  0
APPID
  2
GEVID1240908997
 70
     0
  0
APPID
  2
GEVID1240908998
 70
     0
  0
APPID
  2
GEVID1240908999
 70
     0
  0
APPID
  2
GEVID1240909000
 70
     0
  0
APPID
  2
GENIUS_GENOBJ-N-ZOO_13
 70
     0
  0
APPID
  2
GENIUS_GENZOO_17
 70
     0
  0
APPID
  2
GENIUS_GE3SECT_13
 70
     0
  0
APPID
  2
GEV_VCCNULL_SWITCH_OFF
 70
     0
  0
APPID
  2
ACAD_DSTYLE_DIMTALN
 70
     0
  0
APPID
  2
DCO15
 70
     0
  0
ENDTAB
  0
TABLE
  2
DIMSTYLE
 70
    22
  0
DIMSTYLE
  2
AM_ANSI
 70
     0
  3

  4
"
  5

  6

  7

 40
1.0
 41
2.5
 42
1.0
 43
10.0
 44
1.0
 45
0.0
 46
0.0
 47
0.1
 48
0.1
140
3.5
141
0.0
142
0.0
143
0.0393701
144
1.0
145
0.0
146
0.71
147
1.5
 71
     0
 72
     0
 73
     1
 74
     1
 75
     0
 76
     0
 77
     0
 78
     8
170
     0
171
     2
172
     0
173
     0
174
     0
175
     0
176
     2
177
     2
178
     4
  0
DIMSTYLE
  2
AM_ANSI$3
 70
     0
  3

  4
"
  5

  6

  7

 40
1.0
 41
2.5
 42
1.0
 43
10.0
 44
1.0
 45
0.0
 46
0.0
 47
0.1
 48
0.1
140
3.5
141
0.0
142
0.0
143
0.0393701
144
1.0
145
0.0
146
0.71
147
1.5
 71
     0
 72
     0
 73
     1
 74
     1
 75
     0
 76
     0
 77
     0
 78
     8
170
     0
171
     2
172
     0
173
     0
174
     0
175
     0
176
     2
177
     2
178
     4
  0
DIMSTYLE
  2
AM_ANSI$4
 70
     0
  3

  4
"
  5

  6

  7

 40
1.0
 41
2.5
 42
1.0
 43
10.0
 44
1.0
 45
0.0
 46
0.0
 47
0.1
 48
0.1
140
3.5
141
0.0
142
0.0
143
0.0393701
144
1.0
145
0.0
146
0.71
147
1.5
 71
     0
 72
     0
 73
     1
 74
     1
 75
     0
 76
     0
 77
     0
 78
     8
170
     0
171
     2
172
     0
173
     0
174
     0
175
     0
176
     2
177
     2
178
     4
  0
DIMSTYLE
  2
AM_ANSI$7
 70
     0
  3

  4
"
  5

  6

  7

 40
1.0
 41
2.5
 42
1.0
 43
10.0
 44
1.0
 45
0.0
 46
0.0
 47
0.1
 48
0.1
140
5.0
141
0.0
142
0.0
143
0.0393701
144
1.0
145
0.0
146
0.71
147
1.5
 71
     0
 72
     0
 73
     1
 74
     1
 75
     0
 76
     0
 77
     0
 78
     8
170
     0
171
     2
172
     0
173
     0
174
     0
175
     0
176
     2
177
     2
178
     4
  0
DIMSTYLE
  2
AM_ANSI$SF
 70
     0
  3

  4
"
  5

  6

  7

 40
1.0
 41
2.5
 42
1.0
 43
10.0
 44
1.0
 45
0.0
 46
0.0
 47
0.1
 48
0.1
140
3.5
141
0.0
142
0.0
143
0.0393701
144
1.0
145
0.0
146
0.71
147
1.5
 71
     0
 72
     0
 73
     1
 74
     1
 75
     1
 76
     1
 77
     0
 78
     8
170
     0
171
     2
172
     0
173
     0
174
     0
175
     0
176
     2
177
     2
178
     4
  0
DIMSTYLE
  2
AM_ANSI$SH
 70
     0
  3

  4
"
  5

  6
GENAXEH
  7

 40
1.0
 41
2.5
 42
1.0
 43
10.0
 44
1.0
 45
0.0
 46
0.0
 47
0.1
 48
0.1
140
3.5
141
0.0
142
0.0
143
0.0393701
144
1.0
145
0.0
146
0.71
147
1.5
 71
     0
 72
     0
 73
     1
 74
     1
 75
     1
 76
     1
 77
     0
 78
     8
170
     0
171
     2
172
     0
173
     1
174
     0
175
     0
176
     2
177
     2
178
     4
  0
DIMSTYLE
  2
AM_ISO
 70
     0
  3

  4
"
  5

  6

  7

 40
1.0
 41
2.5
 42
1.0
 43
10.0
 44
1.0
 45
0.0
 46
0.0
 47
0.1
 48
0.1
140
3.5
141
0.0
142
0.0
143
0.0393701
144
1.0
145
0.0
146
0.71
147
1.5
 71
     0
 72
     0
 73
     0
 74
     0
 75
     0
 76
     0
 77
     1
 78
     8
170
     0
171
     2
172
     1
173
     0
174
     0
175
     0
176
   256
177
   256
178
     2
  0
DIMSTYLE
  2
AM_ISO$3
 70
     0
  3

  4
"
  5

  6

  7

 40
1.0
 41
2.5
 42
1.0
 43
10.0
 44
1.0
 45
0.0
 46
0.0
 47
0.1
 48
0.1
140
3.5
141
0.0
142
0.0
143
0.0393701
144
1.0
145
0.0
146
0.71
147
1.5
 71
     0
 72
     0
 73
     0
 74
     1
 75
     0
 76
     0
 77
     1
 78
     8
170
     0
171
     2
172
     0
173
     0
174
     0
175
     0
176
   256
177
   256
178
     2
  0
DIMSTYLE
  2
AM_ISO$4
 70
     0
  3

  4
"
  5

  6

  7

 40
1.0
 41
2.5
 42
1.0
 43
10.0
 44
1.0
 45
0.0
 46
0.0
 47
0.1
 48
0.1
140
3.5
141
0.0
142
0.0
143
0.0393701
144
1.0
145
0.0
146
0.71
147
1.5
 71
     0
 72
     0
 73
     0
 74
     1
 75
     0
 76
     0
 77
     1
 78
     8
170
     0
171
     2
172
     0
173
     0
174
     0
175
     0
176
   256
177
   256
178
     2
  0
DIMSTYLE
  2
AM_ISO$6
 70
     0
  3

  4
"
  5

  6

  7

 40
1.0
 41
2.5
 42
1.0
 43
10.0
 44
1.0
 45
0.0
 46
0.0
 47
0.1
 48
0.1
140
3.5
141
0.0
142
0.0
143
0.0393701
144
1.0
145
0.0
146
0.71
147
1.5
 71
     0
 72
     0
 73
     0
 74
     0
 75
     0
 76
     0
 77
     0
 78
     8
170
     0
171
     2
172
     1
173
     0
174
     0
175
     0
176
   256
177
   256
178
     2
  0
DIMSTYLE
  2
AM_ISO$7
 70
     0
  3

  4
"
  5

  6

  7

 40
1.0
 41
2.5
 42
1.0
 43
10.0
 44
1.0
 45
0.0
 46
0.0
 47
0.1
 48
0.1
140
5.0
141
0.0
142
0.0
143
0.0393701
144
1.0
145
0.0
146
0.71
147
1.5
 71
     0
 72
     0
 73
     0
 74
     0
 75
     0
 76
     0
 77
     1
 78
     8
170
     0
171
     2
172
     1
173
     0
174
     0
175
     0
176
   256
177
   256
178
     2
  0
DIMSTYLE
  2
AM_ISO$SF
 70
     0
  3

  4
"
  5

  6

  7

 40
1.0
 41
2.5
 42
1.0
 43
10.0
 44
1.0
 45
0.0
 46
0.0
 47
0.1
 48
0.1
140
3.5
141
0.0
142
0.0
143
0.0393701
144
1.0
145
0.0
146
0.71
147
1.5
 71
     0
 72
     0
 73
     0
 74
     0
 75
     1
 76
     1
 77
     1
 78
     8
170
     0
171
     2
172
     1
173
     0
174
     0
175
     0
176
   256
177
   256
178
     2
  0
DIMSTYLE
  2
AM_ISO$SH
 70
     0
  3

  4
"
  5

  6
GENAXEH
  7

 40
1.0
 41
2.5
 42
1.0
 43
10.0
 44
1.0
 45
0.0
 46
0.0
 47
0.1
 48
0.1
140
3.5
141
0.0
142
0.0
143
0.0393701
144
2.0
145
0.0
146
0.71
147
1.5
 71
     0
 72
     0
 73
     0
 74
     0
 75
     1
 76
     1
 77
     1
 78
     8
170
     0
171
     2
172
     1
173
     1
174
     0
175
     0
176
   256
177
   256
178
     2
  0
DIMSTYLE
  2
AM_JIS
 70
     0
  3

  4
"
  5

  6

  7

 40
1.0
 41
2.0
 42
1.0
 43
8.0
 44
1.0
 45
0.0
 46
0.0
 47
0.1
 48
0.1
140
2.5
141
0.0
142
0.0
143
0.0393701
144
1.0
145
0.0
146
0.71
147
1.5
 71
     0
 72
     0
 73
     0
 74
     0
 75
     0
 76
     0
 77
     3
 78
     8
170
     0
171
     2
172
     1
173
     0
174
     0
175
     0
176
     2
177
     2
178
     4
  0
DIMSTYLE
  2
AM_JIS$3
 70
     0
  3

  4
"
  5

  6

  7

 40
1.0
 41
2.0
 42
1.0
 43
10.0
 44
1.0
 45
0.0
 46
0.0
 47
0.1
 48
0.1
140
2.5
141
0.0
142
0.0
143
0.0393701
144
1.0
145
0.0
146
0.71
147
1.5
 71
     0
 72
     0
 73
     0
 74
     1
 75
     0
 76
     0
 77
     3
 78
     8
170
     0
171
     2
172
     0
173
     0
174
     0
175
     0
176
     2
177
     2
178
     4
  0
DIMSTYLE
  2
AM_JIS$4
 70
     0
  3

  4
"
  5

  6

  7

 40
1.0
 41
2.0
 42
1.0
 43
10.0
 44
1.0
 45
0.0
 46
0.0
 47
0.1
 48
0.1
140
2.5
141
0.0
142
0.0
143
0.0393701
144
1.0
145
0.0
146
0.71
147
1.5
 71
     0
 72
     0
 73
     0
 74
     0
 75
     0
 76
     0
 77
     3
 78
     8
170
     0
171
     2
172
     0
173
     0
174
     0
175
     0
176
     2
177
     2
178
     4
  0
DIMSTYLE
  2
AM_JIS$6
 70
     0
  3

  4
"
  5

  6

  7

 40
1.0
 41
2.0
 42
1.0
 43
10.0
 44
1.0
 45
0.0
 46
0.0
 47
0.1
 48
0.1
140
2.5
141
0.0
142
0.0
143
0.0393701
144
1.0
145
0.0
146
0.71
147
1.5
 71
     0
 72
     0
 73
     0
 74
     0
 75
     0
 76
     0
 77
     0
 78
     8
170
     0
171
     2
172
     1
173
     0
174
     0
175
     0
176
     2
177
     2
178
     4
  0
DIMSTYLE
  2
AM_JIS$7
 70
     0
  3

  4
"
  5

  6
OPEN30
  7
OPEN30
 40
1.0
 41
2.0
 42
1.0
 43
10.0
 44
1.0
 45
0.0
 46
0.0
 47
0.1
 48
0.1
140
2.5
141
0.0
142
0.0
143
0.0393701
144
1.0
145
0.0
146
0.71
147
1.5
 71
     0
 72
     0
 73
     0
 74
     0
 75
     0
 76
     0
 77
     3
 78
     8
170
     0
171
     2
172
     1
173
     0
174
     0
175
     0
176
     2
177
     2
178
     4
  0
DIMSTYLE
  2
AM_JIS$SF
 70
     0
  3

  4
"
  5

  6

  7

 40
1.0
 41
2.0
 42
1.0
 43
10.0
 44
1.0
 45
0.0
 46
0.0
 47
0.1
 48
0.1
140
2.5
141
0.0
142
0.0
143
0.0393701
144
1.0
145
0.0
146
0.71
147
1.5
 71
     0
 72
     0
 73
     0
 74
     0
 75
     1
 76
     1
 77
     3
 78
     8
170
     0
171
     2
172
     1
173
     0
174
     0
175
     0
176
     2
177
     2
178
     4
  0
DIMSTYLE
  2
AM_JIS$SH
 70
     0
  3

  4
"
  5

  6
GENAXEH
  7

 40
1.0
 41
2.0
 42
1.0
 43
10.0
 44
1.0
 45
0.0
 46
0.0
 47
0.1
 48
0.1
140
2.5
141
0.0
142
0.0
143
0.0393701
144
2.0
145
0.0
146
0.71
147
1.5
 71
     0
 72
     0
 73
     0
 74
     0
 75
     1
 76
     1
 77
     3
 78
     8
170
     0
171
     2
172
     1
173
     1
174
     0
175
     0
176
     2
177
     2
178
     4
  0
DIMSTYLE
  2
AM_JIS$0
 70
     0
  3

  4
"
  5

  6

  7

 40
1.0
 41
2.0
 42
1.0
 43
8.0
 44
1.0
 45
0.0
 46
0.0
 47
0.1
 48
0.1
140
2.5
141
0.0
142
0.0
143
0.0393701
144
1.0
145
0.0
146
0.71
147
1.5
 71
     0
 72
     0
 73
     0
 74
     0
 75
     0
 76
     0
 77
     3
 78
     8
170
     0
171
     2
172
     1
173
     0
174
     0
175
     0
176
     2
177
     2
178
     4
  0
DIMSTYLE
  2
STANDARD
 70
     0
  3

  4

  5

  6

  7

 40
1.0
 41
0.18
 42
0.0625
 43
0.38
 44
0.18
 45
0.0
 46
0.0
 47
0.0
 48
0.0
140
0.18
141
0.09
142
0.0
143
25.399999999999999
144
1.0
145
0.0
146
1.0
147
0.09
 71
     0
 72
     0
 73
     1
 74
     1
 75
     0
 76
     0
 77
     0
 78
     0
170
     0
171
     2
172
     0
173
     0
174
     0
175
     0
176
     0
177
     0
178
     0
  0
ENDTAB
  0
ENDSEC
  0
SECTION
  2
BLOCKS
  0
BLOCK
  8
0
  2
$MODEL_SPACE
 70
     0
 10
0.0
 20
0.0
 30
0.0
  3
$MODEL_SPACE
  1

  0
ENDBLK
  5
77
  8
0
  0
BLOCK
 67
     1
  8
0
  2
$PAPER_SPACE
 70
     0
 10
0.0
 20
0.0
 30
0.0
  3
$PAPER_SPACE
  1

  0
ENDBLK
  5
73
 67
     1
  8
0
  0
BLOCK
  8
0
  2
GENAXEH
 70
     0
 10
0.0
 20
0.0
 30
0.0
  3
GENAXEH
  1

  0
LINE
  5
CBE0
  8
0
 10
-1.0
 20
0.0
 30
0.0
 11
1.0
 21
0.0
 31
0.0
  0
ENDBLK
  5
CBE1
  8
0
  0
BLOCK
  8
0
  2
_OPEN30
 70
     0
 10
0.0
 20
0.0
 30
0.0
  3
_OPEN30
  1

  0
LINE
  5
CC27
  8
0
  6
BYBLOCK
 62
     0
 10
-1.0
 20
0.26794919
 30
0.0
 11
0.0
 21
0.0
 31
0.0
  0
LINE
  5
CC28
  8
0
  6
BYBLOCK
 62
     0
 10
0.0
 20
0.0
 30
0.0
 11
-1.0
 21
-0.26794919
 31
0.0
  0
LINE
  5
CC29
  8
0
  6
BYBLOCK
 62
     0
 10
0.0
 20
0.0
 30
0.0
 11
-1.0
 21
0.0
 31
0.0
  0
ENDBLK
  5
CC2A
  8
0
  0
BLOCK
  8
0
  2
*D3
 70
     1
 10
0.0
 20
0.0
 30
0.0
  3
*D3
  1

  0
LINE
  5
CC70
  8
AM_5
 62
     2
 10
929.11685030609988
 20
649.84185806585572
 30
0.0
 11
929.11685030609988
 21
816.37412288201836
 31
0.0
  0
LINE
  5
CC71
  8
AM_5
 62
     2
 10
198.11690030610029
 20
673.9738741432177
 30
0.0
 11
198.11690030610029
 21
816.37412288201836
 31
0.0
  0
LINE
  5
CC72
  8
AM_5
 62
     2
 10
927.11685030609965
 20
815.37412288201858
 30
0.0
 11
200.11690030610029
 21
815.37412288201858
 31
0.0
  0
SOLID
  5
CC73
  8
AM_5
 62
     2
 10
927.11685030609965
 20
815.70745621535184
 30
0.0
 11
927.11685030609965
 21
815.04078954868532
 31
0.0
 12
929.11685030609988
 22
815.37412288201858
 32
0.0
 13
929.11685030609988
 23
815.37412288201858
 33
0.0
  0
SOLID
  5
CC74
  8
AM_5
 62
     2
 10
200.11690030610029
 20
815.70745621535184
 30
0.0
 11
200.11690030610029
 21
815.04078954868532
 31
0.0
 12
198.11690030610029
 22
815.37412288201858
 32
0.0
 13
198.11690030610029
 23
815.37412288201858
 33
0.0
  0
INSERT
  5
CC75
  8
0
  2
*U7
 10
0.0
 20
0.0
 30
0.0
  0
POINT
  5
CC76
  8
DEFPOINTS
 62
     0
 10
929.11685030609988
 20
648.84185806585572
 30
0.0
  0
POINT
  5
CC77
  8
DEFPOINTS
 62
     0
 10
198.11690030610029
 20
672.97387414321781
 30
0.0
  0
POINT
  5
CC78
  8
DEFPOINTS
 62
     0
 10
198.11690030610029
 20
815.37412288201858
 30
0.0
  0
ENDBLK
  5
CC52
  8
0
  0
BLOCK
  8
0
  2
_ACMFILLEDHALF
 70
     0
 10
0.0
 20
0.0
 30
0.0
  3
_ACMFILLEDHALF
  1

  0
TRACE
  5
CCE9
  8
AM_0
 62
     0
 10
-0.8
 20
0.0
 30
0.0
 11
-1.0
 21
0.166666666
 31
0.0
 12
0.0
 22
0.0
 32
0.0
 13
0.0
 23
0.0
 33
0.0
  0
LINE
  5
CCEA
  8
AM_0
 62
     0
 10
-1.0
 20
0.0
 30
0.0
 11
-0.8
 21
0.0
 31
0.0
  0
ENDBLK
  5
CCEB
  8
0
  0
BLOCK
  8
0
  2
*U7
 70
     1
 10
0.0
 20
0.0
 30
0.0
  3
*U7
  1

  0
TEXT
  5
CD87
  8
AM_5
 62
     4
 10
561.45854197276685
 20
816.87412288201836
 30
0.0
 40
2.5
  1
731
 41
0.7400000000000003
  0
ENDBLK
  5
CD89
  8
0
  0
ENDSEC
  0
SECTION
  2
ENTITIES
  0
LINE
  5
9D2E
  8
0
 10
615.11690030610043
 20
465.26711076092857
 30
0.0
 11
626.11685030609965
 21
465.26711076092857
 31
0.0
  0
LINE
  5
9D2F
  8
0
 10
615.11690030610043
 20
705.26715076092876
 30
0.0
 11
626.11685030609965
 21
705.26715076092876
 31
0.0
  0
LINE
  5
9D3C
  8
0
 10
616.09575030609983
 20
659.70406576092864
 30
0.0
 11
627.12465030610019
 21
659.70406576092864
 31
0.0
  0
LINE
  5
9D3D
  8
0
 10
615.11690030610043
 20
684.9943007609287
 30
0.0
 11
626.11685030609965
 21
684.9943007609287
 31
0.0
  0
LINE
  5
9D3E
  8
0
 10
615.11690030610043
 20
669.43795076092874
 30
0.0
 11
626.11685030609965
 21
669.43795076092874
 31
0.0
  0
LINE
  5
9D3F
  8
0
 10
615.11690030610043
 20
485.53991076092859
 30
0.0
 11
626.11685030609965
 21
485.53991076092859
 31
0.0
  0
LINE
  5
9D40
  8
0
 10
615.11690030610043
 20
501.09624576092858
 30
0.0
 11
626.11685030609965
 21
501.09624576092858
 31
0.0
  0
LINE
  5
9D41
  8
0
 10
616.09575030609983
 20
510.83016076092861
 30
0.0
 11
627.12465030610019
 21
510.83016076092861
 31
0.0
  0
LINE
  5
9DBB
  8
0
  6
AM_ISO08W050
 10
649.18707327267293
 20
629.98438314125531
 30
0.0
 11
943.10428144627997
 21
629.98438314125531
 31
0.0
  0
LINE
  5
9DC2
  8
0
  6
AM_ISO08W050
 10
668.73092036390528
 20
584.98438564125513
 30
0.0
 11
179.916632311304
 21
584.98438564125513
 31
0.0
  0
LINE
  5
B640
  8
0
 10
342.11690030610038
 20
581.98426364125521
 30
0.0
 11
342.11690030610038
 21
544.9294616412551
 31
0.0
  0
ARC
  5
B641
  8
0
 10
354.11690030610038
 20
633.44800864125511
 30
0.0
 40
2.0
 50
103.9145969999995
 51
180.00000899999949
  0
ARC
  5
B642
  8
0
 10
370.98958130610038
 20
645.67405264125512
 30
0.0
 40
10.0
 50
90.00000299999769
 51
107.64566599999689
  0
ARC
  5
B643
  8
0
 10
354.11690030610038
 20
648.70188464125522
 30
0.0
 40
2.0
 50
107.6456559999996
 51
180.00000899999949
  0
LINE
  5
B644
  8
0
 10
354.11683330610049
 20
635.50844964125497
 30
0.0
 11
353.63596330610039
 21
635.38931664125505
 31
0.0
  0
LINE
  5
B645
  8
0
 10
352.11690030610038
 20
629.37424764125512
 30
0.0
 11
352.11690030610038
 21
633.44800864125511
 31
0.0
  0
LINE
  5
B646
  8
0
 10
367.95829030610048
 20
655.20353364125515
 30
0.0
 11
353.51061530610048
 21
650.60778364125508
 31
0.0
  0
LINE
  5
B647
  8
0
 10
352.11690030610038
 20
643.82737264125512
 30
0.0
 11
352.11690030610038
 21
648.70188464125522
 31
0.0
  0
LINE
  5
B648
  8
0
 10
350.11690030610038
 20
573.14542564125509
 30
0.0
 11
350.11690030610038
 21
544.9294616412551
 31
0.0
  0
LINE
  5
B649
  8
0
 10
350.11690030610038
 20
657.58438564125515
 30
0.0
 11
350.11690030610038
 21
596.55588964125513
 31
0.0
  0
LINE
  5
B64A
  8
0
 10
342.11690030610038
 20
544.9294616412551
 30
0.0
 11
354.11683330610049
 21
544.9294616412551
 31
0.0
  0
LINE
  5
B64B
  8
0
 10
378.11695030610042
 20
457.43420364125512
 30
0.0
 11
356.11695030610031
 21
457.43420364125512
 31
0.0
  0
LINE
  5
B64C
  8
0
 10
378.11690030610049
 20
657.58438564125515
 30
0.0
 11
342.11690030610038
 21
657.58438564125515
 31
0.0
  0
LINE
  5
B64D
  8
0
 10
372.21979430610043
 20
452.73407964125511
 30
0.0
 11
593.01398430610016
 21
452.73407964125511
 31
0.0
  0
LINE
  5
B64E
  8
0
 10
377.11688830610052
 20
451.43438164125507
 30
0.0
 11
588.11688830610024
 21
451.43438164125507
 31
0.0
  0
ARC
  5
B64F
  8
0
 10
377.11688830610052
 20
453.43438164125507
 30
0.0
 40
2.0
 50
200.496600000001
 51
269.99999700000228
  0
ARC
  5
B650
  8
0
 10
372.21979430610043
 20
462.73407964125511
 30
0.0
 40
10.0
 50
238.90249299999979
 51
269.99999700000228
  0
LINE
  5
B651
  8
0
 10
615.11690030610043
 20
699.98439964125498
 30
0.0
 11
613.11692830610025
 21
699.99839764125511
 31
0.0
  0
LINE
  5
B652
  8
0
 10
613.11690030610043
 20
705.65804564125494
 30
0.0
 11
613.11690030610043
 21
689.5387536412552
 31
0.0
  0
LINE
  5
B653
  8
0
 10
597.27557830610044
 20
655.20355364125521
 30
0.0
 11
611.72322430610006
 21
650.60781364125512
 31
0.0
  0
LINE
  5
B654
  8
0
 10
596.98086430610044
 20
639.01062964125504
 30
0.0
 11
611.5978643061004
 21
635.38933764125522
 31
0.0
  0
LINE
  5
B655
  8
0
 10
596.61851230610023
 20
621.65768164125495
 30
0.0
 11
611.44803830610044
 21
619.16792364125513
 31
0.0
  0
LINE
  5
B656
  8
0
 10
596.21796630610049
 20
603.53518564125511
 30
0.0
 11
611.28580830610042
 21
602.25785364125522
 31
0.0
  0
LINE
  5
B657
  8
0
 10
541.11683330610049
 20
621.79572564125499
 30
0.0
 11
594.96272630610042
 21
621.79572564125499
 31
0.0
  0
LINE
  5
B658
  8
0
 10
613.11690030610043
 20
643.82737364125512
 30
0.0
 11
613.11690030610043
 21
648.70188364125511
 31
0.0
  0
LINE
  5
B659
  8
0
 10
613.11690030610043
 20
629.37424764125512
 30
0.0
 11
613.11690030610043
 21
633.448009641255
 31
0.0
  0
LINE
  5
B65A
  8
0
 10
613.11690030610043
 20
614.05710964125524
 30
0.0
 11
613.11690030610043
 21
617.19553764125521
 31
0.0
  0
LINE
  5
B65B
  8
0
 10
541.11683330610049
 20
614.05710964125524
 30
0.0
 11
610.11690030610043
 21
614.05710964125524
 31
0.0
  0
LINE
  5
B65C
  8
0
 10
541.11683330610049
 20
629.37424764125512
 30
0.0
 11
610.11690030610043
 21
629.37424764125512
 31
0.0
  0
LINE
  5
B65D
  8
0
 10
540.52431130610034
 20
643.82737364125512
 30
0.0
 11
610.11690030610043
 21
643.82737364125512
 31
0.0
  0
LINE
  5
B65E
  8
0
 10
543.81287030610031
 20
598.17408364125504
 30
0.0
 11
610.11690030610043
 21
598.17408364125504
 31
0.0
  0
LINE
  5
B65F
  8
0
 10
595.79641430610025
 20
587.05115764125503
 30
0.0
 11
611.67170230610043
 21
586.48339964125512
 31
0.0
  0
LINE
  5
B660
  8
0
 10
595.79634430610042
 20
587.05119764125504
 30
0.0
 11
550.33983630610044
 21
587.72000964125505
 31
0.0
  0
LINE
  5
B661
  8
0
 10
613.11690030610043
 20
598.17408364125504
 30
0.0
 11
613.11690030610043
 21
600.26502564125497
 31
0.0
  0
LINE
  5
B662
  8
0
 10
541.45842230610026
 20
603.57093364125512
 30
0.0
 11
595.37324830610044
 21
603.57093364125512
 31
0.0
  0
LINE
  5
B663
  8
0
 10
497.61690030610032
 20
671.82865364125496
 30
0.0
 11
497.61690030610032
 21
686.28962164125505
 31
0.0
  0
LINE
  5
B664
  8
0
 10
350.11690030610038
 20
657.13517364125505
 30
0.0
 11
615.11690030610043
 21
657.13517364125505
 31
0.0
  0
LINE
  5
B665
  8
0
 10
378.11690030610049
 20
670.82865364125507
 30
0.0
 11
593.90858830610023
 21
670.82865364125507
 31
0.0
  0
LINE
  5
B666
  8
0
 10
604.99757830610042
 20
667.22617564125505
 30
0.0
 11
615.11690030610043
 21
667.22617564125505
 31
0.0
  0
LINE
  5
B667
  8
0
 10
604.99752830610043
 20
667.22617564125505
 30
0.0
 11
597.55434030610047
 21
670.14037364125511
 31
0.0
  0
LINE
  5
B668
  8
0
 10
378.11690030610049
 20
687.28962164125505
 30
0.0
 11
593.57820430610047
 21
687.28962164125505
 31
0.0
  0
LINE
  5
B669
  8
0
 10
604.99756630610045
 20
682.9963736412551
 30
0.0
 11
597.80660630610043
 21
686.351691641255
 31
0.0
  0
LINE
  5
B66A
  8
0
 10
498.61690030610038
 20
682.99636364125513
 30
0.0
 11
615.11690030610043
 21
682.99636364125513
 31
0.0
  0
LINE
  5
B66B
  8
0
 10
378.11690030610049
 20
698.241191641255
 30
0.0
 11
593.36623030610042
 21
698.241191641255
 31
0.0
  0
LINE
  5
B66C
  8
0
 10
612.03476630610044
 20
689.8532356412552
 30
0.0
 11
597.95558430610015
 21
697.12585364125505
 31
0.0
  0
LINE
  5
B66D
  8
0
 10
613.11690030610043
 20
688.07631964125505
 30
0.0
 11
613.11690030610043
 21
682.99636364125513
 31
0.0
  0
LINE
  5
B66E
  8
0
 10
378.11690030610049
 20
706.98839964125523
 30
0.0
 11
593.20155630610043
 21
706.98839964125523
 31
0.0
  0
LINE
  5
B66F
  8
0
 10
598.06392230610038
 20
705.72662164125518
 30
0.0
 11
612.08935430610018
 21
697.92220564125523
 31
0.0
  0
LINE
  5
B670
  8
0
 10
378.11690030610049
 20
713.36089564125507
 30
0.0
 11
593.08424630610023
 21
713.36089564125507
 31
0.0
  0
LINE
  5
B671
  8
0
 10
612.12741030610016
 20
703.79889564125494
 30
0.0
 11
598.13691630610015
 21
711.99048364125508
 31
0.0
  0
LINE
  5
B672
  8
0
 10
378.11690030610049
 20
717.23469164125504
 30
0.0
 11
593.01399630610024
 21
717.23469164125504
 31
0.0
  0
LINE
  5
B673
  8
0
 10
612.14988630610026
 20
707.37065364125522
 30
0.0
 11
598.17897030610038
 21
715.79761964125487
 31
0.0
  0
LINE
  5
B674
  8
0
 10
378.11690030610049
 20
718.53438964125496
 30
0.0
 11
588.11690030610043
 21
718.53438964125496
 31
0.0
  0
LINE
  5
B675
  8
0
 10
466.61690030610032
 20
682.99636364125513
 30
0.0
 11
378.11690030610049
 21
682.99636364125513
 31
0.0
  0
LINE
  5
B676
  8
0
 10
467.61690030610032
 20
671.82865364125496
 30
0.0
 11
467.61690030610032
 21
686.28962164125505
 31
0.0
  0
LINE
  5
B677
  8
0
 10
471.11690030610009
 20
721.98438564125524
 30
0.0
 11
494.11690030610038
 21
721.98438564125524
 31
0.0
  0
LINE
  5
B678
  8
0
 10
471.11690030610009
 20
721.98438564125524
 30
0.0
 11
471.11690030610009
 21
718.53438964125496
 31
0.0
  0
LINE
  5
B679
  8
0
 10
494.11690030610038
 20
721.98438564125524
 30
0.0
 11
494.11690030610038
 21
718.53438964125496
 31
0.0
  0
ARC
  5
B67A
  8
0
 10
611.11690030610043
 20
600.26502564125497
 30
0.0
 40
2.0
 50
0.0
 51
85.154495999998488
  0
ARC
  5
B67B
  8
0
 10
611.11690030610043
 20
617.19553764125521
 30
0.0
 40
2.0
 50
0.0
 51
80.469389000002835
  0
ARC
  5
B67C
  8
0
 10
611.11690030610043
 20
633.448009641255
 30
0.0
 40
2.0
 50
0.0
 51
76.085411000000079
  0
ARC
  5
B67D
  8
0
 10
611.11690030610043
 20
648.70188364125511
 30
0.0
 40
2.0
 50
0.0
 51
72.354331999996703
  0
ARC
  5
B67E
  8
0
 10
594.24422030610049
 20
645.67405164125512
 30
0.0
 40
10.0
 50
72.354331999996703
 51
90.00000299999769
  0
ARC
  5
B67F
  8
0
 10
594.57613030610025
 20
629.30405764125499
 30
0.0
 40
10.0
 50
76.085411000000079
 51
90.00000299999769
  0
ARC
  5
B680
  8
0
 10
594.96272630610042
 20
611.7957256412551
 30
0.0
 40
10.0
 50
80.469389000002835
 51
90.00000299999769
  0
ARC
  5
B681
  8
0
 10
595.37324830610044
 20
593.57093364125512
 30
0.0
 40
10.0
 50
85.154495999998488
 51
90.00000299999769
  0
ARC
  5
B682
  8
0
 10
611.61812230610042
 20
584.98319564125495
 30
0.0
 40
1.498794
 50
0.04549800000434
 51
90.00000299999769
  0
ARC
  5
B683
  8
0
 10
593.90858830610023
 20
660.8286536412553
 30
0.0
 40
10.0
 50
68.618382000002711
 51
90.00000299999769
  0
ARC
  5
B684
  8
0
 10
593.57820430610047
 20
677.28962164125505
 30
0.0
 40
10.0
 50
64.9861420000001
 51
90.00000299999769
  0
ARC
  5
B685
  8
0
 10
593.36623030610042
 20
688.241191641255
 30
0.0
 40
10.0
 50
62.681328999998101
 51
90.00000299999769
  0
ARC
  5
B686
  8
0
 10
611.11690030610043
 20
688.07631964125505
 30
0.0
 40
2.0
 50
0.0
 51
62.681328999998101
  0
ARC
  5
B687
  8
0
 10
593.20155630610043
 20
696.98839964125523
 30
0.0
 40
10.0
 50
60.906360999999372
 51
90.00000299999769
  0
ARC
  5
B688
  8
0
 10
611.11690030610043
 20
696.17457164125517
 30
0.0
 40
2.0
 50
0.0
 51
60.906360999999372
  0
ARC
  5
B689
  8
0
 10
593.08424630610023
 20
703.36089564125507
 30
0.0
 40
10.0
 50
59.650561999998729
 51
90.00000299999769
  0
ARC
  5
B68A
  8
0
 10
611.11690030610043
 20
702.07299364125515
 30
0.0
 40
2.0
 50
0.0
 51
59.650561999998729
  0
ARC
  5
B68B
  8
0
 10
611.11690030610043
 20
705.65804564125494
 30
0.0
 40
2.0
 50
0.0
 51
58.902492999999822
  0
ARC
  5
B68C
  8
0
 10
593.01399630610024
 20
707.23469164125504
 30
0.0
 40
10.0
 50
58.902492999999822
 51
90.00000299999769
  0
ARC
  5
B68D
  8
0
 10
588.11690030610043
 20
716.53438964125519
 30
0.0
 40
2.0
 50
20.4965989999992
 51
90.00000299999769
  0
ARC
  5
B68E
  8
0
 10
498.61690030610038
 20
671.82865364125496
 30
0.0
 40
1.0
 50
179.9999949999995
 51
269.99999700000228
  0
ARC
  5
B68F
  8
0
 10
466.61690030610032
 20
671.82865364125496
 30
0.0
 40
1.0
 50
269.99999700000228
 51
0.0
  0
ARC
  5
B690
  8
0
 10
498.61690030610038
 20
681.99636364125513
 30
0.0
 40
1.0
 50
89.999998999998596
 51
180.00000899999949
  0
ARC
  5
B691
  8
0
 10
466.61690030610032
 20
681.99636364125513
 30
0.0
 40
1.0
 50
0.0
 51
90.00000299999769
  0
ARC
  5
B692
  8
0
 10
498.61690030610038
 20
686.28962164125505
 30
0.0
 40
1.0
 50
89.999998999998596
 51
180.00000899999949
  0
ARC
  5
B693
  8
0
 10
466.61690030610032
 20
686.28962164125505
 30
0.0
 40
1.0
 50
0.0
 51
90.00000299999769
  0
LINE
  5
B694
  8
0
 10
541.11683330610049
 20
639.30405764125521
 30
0.0
 11
594.57613030610025
 21
639.30405764125521
 31
0.0
  0
LINE
  5
B695
  8
0
 10
370.97240630610031
 20
655.67403764125515
 30
0.0
 11
594.24422030610049
 21
655.67403764125515
 31
0.0
  0
LINE
  5
B696
  8
0
 10
615.11690030610043
 20
469.98437164125511
 30
0.0
 11
613.11692830610025
 21
469.97037364125498
 31
0.0
  0
LINE
  5
B697
  8
0
 10
613.11690030610043
 20
464.31072564125509
 30
0.0
 11
613.11690030610043
 21
480.43001764125512
 31
0.0
  0
LINE
  5
B698
  8
0
 10
378.11695030610042
 20
514.29473364125511
 30
0.0
 11
594.24422030610049
 21
514.29473364125511
 31
0.0
  0
LINE
  5
B699
  8
0
 10
597.27557830610044
 20
514.76521764125505
 30
0.0
 11
611.72322430610006
 21
519.36095764125514
 31
0.0
  0
LINE
  5
B69A
  8
0
 10
596.98086430610044
 20
530.95814164125522
 30
0.0
 11
611.5978643061004
 21
534.57943364125504
 31
0.0
  0
LINE
  5
B69B
  8
0
 10
596.61851230610023
 20
548.31108964125519
 30
0.0
 11
611.44803830610044
 21
550.80084764125513
 31
0.0
  0
LINE
  5
B69C
  8
0
 10
596.21796630610049
 20
566.43358564125515
 30
0.0
 11
611.28580830610042
 21
567.71091764125515
 31
0.0
  0
LINE
  5
B69D
  8
0
 10
541.11683330610049
 20
548.17304564125504
 30
0.0
 11
594.96272630610042
 21
548.17304564125504
 31
0.0
  0
LINE
  5
B69E
  8
0
 10
613.11690030610043
 20
526.14139764125514
 30
0.0
 11
613.11690030610043
 21
521.26688764125515
 31
0.0
  0
LINE
  5
B69F
  8
0
 10
613.11690030610043
 20
540.59452364125514
 30
0.0
 11
613.11690030610043
 21
536.52076164125515
 31
0.0
  0
LINE
  5
B6A0
  8
0
 10
613.11690030610043
 20
555.91166164125514
 30
0.0
 11
613.11690030610043
 21
552.77323364125505
 31
0.0
  0
LINE
  5
B6A1
  8
0
 10
541.11683330610049
 20
555.91166164125514
 30
0.0
 11
610.11690030610043
 21
555.91166164125514
 31
0.0
  0
LINE
  5
B6A2
  8
0
 10
541.11683330610049
 20
540.59452364125514
 30
0.0
 11
610.11690030610043
 21
540.59452364125514
 31
0.0
  0
LINE
  5
B6A3
  8
0
 10
544.18423430610028
 20
571.79468764125522
 30
0.0
 11
610.11690030610043
 21
571.79468764125522
 31
0.0
  0
LINE
  5
B6A4
  8
0
 10
595.79641430610025
 20
582.91761364125523
 30
0.0
 11
611.67170230610043
 21
583.48537164125514
 31
0.0
  0
LINE
  5
B6A5
  8
0
 10
595.79634430610042
 20
582.91757364125476
 30
0.0
 11
550.38957630610025
 21
582.24949264125496
 31
0.0
  0
LINE
  5
B6A6
  8
0
 10
613.11690030610043
 20
571.79468764125522
 30
0.0
 11
613.11690030610043
 21
569.70374564125518
 31
0.0
  0
LINE
  5
B6A7
  8
0
 10
541.51906330610041
 20
566.39783764125514
 30
0.0
 11
595.37324830610044
 21
566.39783764125514
 31
0.0
  0
LINE
  5
B6A8
  8
0
 10
497.61690030610032
 20
498.14011764125507
 30
0.0
 11
497.61690030610032
 21
483.67914964125498
 31
0.0
  0
LINE
  5
B6A9
  8
0
 10
378.11695030610042
 20
512.83359764125521
 30
0.0
 11
615.11690030610043
 21
512.83359764125521
 31
0.0
  0
LINE
  5
B6AA
  8
0
 10
378.11695030610042
 20
499.14011764125502
 30
0.0
 11
593.90858830610023
 21
499.14011764125502
 31
0.0
  0
LINE
  5
B6AB
  8
0
 10
604.99757830610042
 20
502.74259564125498
 30
0.0
 11
615.11690030610043
 21
502.74259564125498
 31
0.0
  0
LINE
  5
B6AC
  8
0
 10
604.99752830610043
 20
502.74259564125498
 30
0.0
 11
597.55434030610047
 21
499.82839764125498
 31
0.0
  0
LINE
  5
B6AD
  8
0
 10
378.11695030610042
 20
482.67914964125521
 30
0.0
 11
593.57820430610047
 21
482.67914964125521
 31
0.0
  0
LINE
  5
B6AE
  8
0
 10
604.99756630610045
 20
486.9723976412551
 30
0.0
 11
597.80660630610043
 21
483.61707964125509
 31
0.0
  0
LINE
  5
B6AF
  8
0
 10
498.61690030610038
 20
486.97240764125507
 30
0.0
 11
615.11690030610043
 21
486.97240764125507
 31
0.0
  0
LINE
  5
B6B0
  8
0
 10
378.11695030610042
 20
471.72757964125498
 30
0.0
 11
593.36623030610042
 21
471.72757964125498
 31
0.0
  0
LINE
  5
B6B1
  8
0
 10
612.03476630610044
 20
480.11553564125512
 30
0.0
 11
597.95558430610015
 21
472.8429176412551
 31
0.0
  0
LINE
  5
B6B2
  8
0
 10
613.11690030610043
 20
481.89245164125498
 30
0.0
 11
613.11690030610043
 21
486.97240764125507
 31
0.0
  0
LINE
  5
B6B3
  8
0
 10
378.11695030610042
 20
462.98037164125509
 30
0.0
 11
593.20155630610043
 21
462.98037164125509
 31
0.0
  0
LINE
  5
B6B4
  8
0
 10
598.06392230610038
 20
464.24214964125508
 30
0.0
 11
612.08935430610018
 21
472.04656564125497
 31
0.0
  0
LINE
  5
B6B5
  8
0
 10
372.14954230610039
 20
456.60787564125508
 30
0.0
 11
593.08424630610023
 21
456.60787564125508
 31
0.0
  0
LINE
  5
B6B6
  8
0
 10
612.12741030610016
 20
466.16987564125498
 30
0.0
 11
598.13691630610015
 21
457.97828764125512
 31
0.0
  0
LINE
  5
B6B7
  8
0
 10
612.14988630610026
 20
462.59811764125499
 30
0.0
 11
598.17897030610038
 21
454.17115164125511
 31
0.0
  0
LINE
  5
B6B8
  8
0
 10
466.61690030610032
 20
486.97240764125507
 30
0.0
 11
378.11695030610042
 21
486.97240764125507
 31
0.0
  0
LINE
  5
B6B9
  8
0
 10
467.61690030610032
 20
498.14011764125507
 30
0.0
 11
467.61690030610032
 21
483.67914964125498
 31
0.0
  0
LINE
  5
B6BA
  8
0
 10
471.11690030610009
 20
447.98438564125507
 30
0.0
 11
494.11690030610038
 21
447.98438564125507
 31
0.0
  0
LINE
  5
B6BB
  8
0
 10
471.11690030610009
 20
447.98438564125507
 30
0.0
 11
471.11690030610009
 21
451.43438164125507
 31
0.0
  0
LINE
  5
B6BC
  8
0
 10
494.11690030610038
 20
447.98438564125507
 30
0.0
 11
494.11690030610038
 21
451.43438164125507
 31
0.0
  0
ARC
  5
B6BD
  8
0
 10
611.11690030610043
 20
569.70374564125518
 30
0.0
 40
2.0
 50
274.8455040000016
 51
0.0
  0
ARC
  5
B6BE
  8
0
 10
611.11690030610043
 20
552.77323364125505
 30
0.0
 40
2.0
 50
279.53061099999718
 51
0.0
  0
ARC
  5
B6BF
  8
0
 10
611.11690030610043
 20
536.52076164125515
 30
0.0
 40
2.0
 50
283.91458899999992
 51
0.0
  0
ARC
  5
B6C0
  8
0
 10
611.11690030610043
 20
521.26688764125515
 30
0.0
 40
2.0
 50
287.6456680000033
 51
0.0
  0
ARC
  5
B6C1
  8
0
 10
594.24422030610049
 20
524.29471964125514
 30
0.0
 40
10.0
 50
269.99999700000228
 51
287.6456680000033
  0
ARC
  5
B6C2
  8
0
 10
594.57613030610025
 20
540.66471364125505
 30
0.0
 40
10.0
 50
269.99999700000228
 51
283.91458899999992
  0
ARC
  5
B6C3
  8
0
 10
594.96272630610042
 20
558.17304564125504
 30
0.0
 40
10.0
 50
269.99999700000228
 51
279.53061099999718
  0
ARC
  5
B6C4
  8
0
 10
595.37324830610044
 20
576.39783764125514
 30
0.0
 40
10.0
 50
269.99999700000228
 51
274.8455040000016
  0
ARC
  5
B6C5
  8
0
 10
611.61812230610042
 20
584.98557564125508
 30
0.0
 40
1.498794
 50
272.04545800000011
 51
359.95450199999573
  0
ARC
  5
B6C6
  8
0
 10
593.90858830610023
 20
509.14011764125507
 30
0.0
 40
10.0
 50
269.99999700000228
 51
291.38161799999727
  0
ARC
  5
B6C7
  8
0
 10
593.57820430610047
 20
492.67914964125498
 30
0.0
 40
10.0
 50
269.99999700000228
 51
295.01385799999991
  0
ARC
  5
B6C8
  8
0
 10
593.36623030610042
 20
481.72757964125509
 30
0.0
 40
10.0
 50
269.99999700000228
 51
297.31867100000193
  0
ARC
  5
B6C9
  8
0
 10
611.11690030610043
 20
481.89245164125498
 30
0.0
 40
2.0
 50
297.31867100000193
 51
0.0
  0
ARC
  5
B6CA
  8
0
 10
593.20155630610043
 20
472.98037164125509
 30
0.0
 40
10.0
 50
269.99999700000228
 51
299.09363900000062
  0
ARC
  5
B6CB
  8
0
 10
611.11690030610043
 20
473.79419964125498
 30
0.0
 40
2.0
 50
299.09363900000062
 51
0.0
  0
ARC
  5
B6CC
  8
0
 10
593.08424630610023
 20
466.60787564125508
 30
0.0
 40
10.0
 50
269.99999700000228
 51
300.34943800000133
  0
ARC
  5
B6CD
  8
0
 10
611.11690030610043
 20
467.89577764125511
 30
0.0
 40
2.0
 50
300.34943800000133
 51
0.0
  0
ARC
  5
B6CE
  8
0
 10
611.11690030610043
 20
464.31072564125509
 30
0.0
 40
2.0
 50
301.09750700000012
 51
0.0
  0
ARC
  5
B6CF
  8
0
 10
593.01399630610024
 20
462.73407964125511
 30
0.0
 40
10.0
 50
269.99999700000228
 51
301.09750700000012
  0
ARC
  5
B6D0
  8
0
 10
588.11690030610043
 20
453.43438164125507
 30
0.0
 40
2.0
 50
269.99999700000228
 51
339.50340100000079
  0
ARC
  5
B6D1
  8
0
 10
498.61690030610038
 20
498.14011764125507
 30
0.0
 40
1.0
 50
90.00000299999769
 51
180.0000050000005
  0
ARC
  5
B6D2
  8
0
 10
466.61690030610032
 20
498.14011764125507
 30
0.0
 40
1.0
 50
0.0
 51
90.00000299999769
  0
ARC
  5
B6D3
  8
0
 10
498.61690030610038
 20
487.97240764125507
 30
0.0
 40
1.0
 50
179.99999100000039
 51
270.00000100000142
  0
ARC
  5
B6D4
  8
0
 10
466.61690030610032
 20
487.97240764125507
 30
0.0
 40
1.0
 50
269.99999700000228
 51
0.0
  0
ARC
  5
B6D5
  8
0
 10
498.61690030610038
 20
483.67914964125498
 30
0.0
 40
1.0
 50
179.99999100000039
 51
270.00000100000142
  0
ARC
  5
B6D6
  8
0
 10
466.61690030610032
 20
483.67914964125498
 30
0.0
 40
1.0
 50
269.99999700000228
 51
0.0
  0
LINE
  5
B6D7
  8
0
 10
541.11683330610049
 20
530.66471364125505
 30
0.0
 11
594.57613030610025
 21
530.66471364125505
 31
0.0
  0
LINE
  5
B6D8
  8
0
 10
541.00721930610041
 20
526.14139764125514
 30
0.0
 11
610.11690030610043
 21
526.14139764125514
 31
0.0
  0
LINE
  5
B6D9
  8
0
  6
AM_ISO08W050
 10
482.61689430610039
 20
536.11179864125495
 30
0.0
 11
482.61689430610039
 21
508.94936364125522
 31
0.0
  0
LINE
  5
B6DA
  8
0
 10
615.11690030610043
 20
705.26715076092876
 30
0.0
 11
615.11690030610043
 21
465.26711076092857
 31
0.0
  0
LINE
  5
B6DB
  8
0
 10
275.11690030610038
 20
721.85057464125521
 30
0.0
 11
378.11690030610049
 21
721.85077964125503
 31
0.0
  0
LINE
  5
B6DC
  8
0
 10
204.1169003061004
 20
508.63577164125508
 30
0.0
 11
204.1169003061004
 21
683.60627264125515
 31
0.0
  0
LINE
  5
B6DD
  8
0
 10
198.1169003061004
 20
487.47863864125509
 30
0.0
 11
198.1169003061004
 21
685.47614564125502
 31
0.0
  0
LINE
  5
B6DE
  8
0
 10
216.3451713061005
 20
705.39728864125505
 30
0.0
 11
216.3451713061005
 21
555.5995796412551
 31
0.0
  0
LINE
  5
B6DF
  8
0
 10
275.11690030610038
 20
587.9843966412551
 30
0.0
 11
275.11690030610038
 21
721.85057464125521
 31
0.0
  0
ARC
  5
B6E0
  8
0
 10
272.51680230610037
 20
719.42011564125505
 30
0.0
 40
0.6
 50
273.00006100000229
 51
0.0
  0
ARC
  5
B6E1
  8
0
 10
274.71699830610049
 20
719.25068164125514
 30
0.0
 40
1.6000000000000001
 50
75.526099999996745
 51
180.0
  0
LINE
  5
B6E2
  8
0
 10
205.17866830610041
 20
691.48078464125501
 30
0.0
 11
209.95210530610049
 21
709.93830364125495
 31
0.0
  0
ARC
  5
B6E3
  8
0
 10
217.6972223061004
 20
707.93513064125523
 30
0.0
 40
8.0
 50
93.000053000002623
 51
165.4999080000008
  0
ARC
  5
B6E4
  8
0
 10
199.61690030610029
 20
685.47614564125502
 30
0.0
 40
1.5
 50
91.884964000000949
 51
180.0
  0
ARC
  5
B6E5
  8
0
 10
199.36983030610051
 20
692.98322564125499
 30
0.0
 40
6.0
 50
271.88500999999673
 51
345.50021400000162
  0
LINE
  5
B6E6
  8
0
 10
272.5482963061005
 20
718.82075064125502
 30
0.0
 11
217.27852130610049
 21
715.92426564125503
 31
0.0
  0
LINE
  5
B6E7
  8
0
 10
275.11690030610038
 20
454.8506166412551
 30
0.0
 11
356.11695030610031
 21
454.85070064125512
 31
0.0
  0
LINE
  5
B6E8
  8
0
 10
275.11690030610038
 20
454.85059664125509
 30
0.0
 11
275.11690030610038
 21
581.98437464125504
 31
0.0
  0
LINE
  5
B6E9
  8
0
 10
216.3451713061005
 20
532.60469864125503
 30
0.0
 11
216.3451713061005
 21
467.34424864125498
 31
0.0
  0
LINE
  5
B6EA
  8
0
 10
205.17866830610041
 20
478.22034764125522
 30
0.0
 11
208.1169003061004
 21
466.85914164125512
 31
0.0
  0
ARC
  5
B6EB
  8
0
 10
274.71699830610049
 20
457.4506946412551
 30
0.0
 40
1.6000000000000001
 50
180.0
 51
284.4739000000032
  0
ARC
  5
B6EC
  8
0
 10
272.51680230610037
 20
457.28126064125507
 30
0.0
 40
0.6
 50
0.0
 51
86.999924000002295
  0
ARC
  5
B6ED
  8
0
 10
215.8620173061004
 20
468.86219364125509
 30
0.0
 40
8.0
 50
194.50007599999699
 51
267.00003099999992
  0
LINE
  5
B6EE
  8
0
 10
272.5482963061005
 20
457.8803816412551
 30
0.0
 11
215.4433163061004
 21
460.87317964125498
 31
0.0
  0
LINE
  5
B6EF
  8
0
 10
378.11690030610049
 20
721.85077964125503
 30
0.0
 11
378.11690030610049
 21
657.58438564125515
 31
0.0
  0
LINE
  5
B6F0
  8
0
 10
378.11695030610042
 20
515.29316264125487
 30
0.0
 11
378.11695030610042
 21
457.43420364125512
 31
0.0
  0
LINE
  5
B6F1
  8
0
 10
342.11690030610038
 20
657.58438564125515
 30
0.0
 11
342.11690030610038
 21
587.98426364125521
 31
0.0
  0
LINE
  5
B6F2
  8
0
 10
197.31660730610039
 20
484.51675464125498
 30
0.0
 11
197.31660730610039
 21
503.3504136412551
 31
0.0
  0
LINE
  5
B6F3
  8
0
 10
197.31660730610039
 20
503.3504136412551
 30
0.0
 11
198.11665630610051
 21
503.3504136412551
 31
0.0
  0
LINE
  5
B6F4
  8
0
 10
354.11683330610049
 20
606.75385564125497
 30
0.0
 11
354.11683330610049
 21
640.02448564125496
 31
0.0
  0
LINE
  5
B6F5
  8
0
 10
366.61683330610049
 20
652.52448564125496
 30
0.0
 11
528.61683330610049
 21
652.52448564125496
 31
0.0
  0
LINE
  5
B6F6
  8
0
 10
525.61683330610049
 20
644.55536964125508
 30
0.0
 11
369.61683330610049
 21
644.55536964125508
 31
0.0
  0
LINE
  5
B6F7
  8
0
 10
361.11683330610049
 20
636.05536964125508
 30
0.0
 11
361.11683330610049
 21
534.92402164125497
 31
0.0
  0
ARC
  5
B6F8
  8
0
 10
369.61683330610049
 20
636.05536964125508
 30
0.0
 40
8.5
 50
90.0
 51
180.0
  0
ARC
  5
B6F9
  8
0
 10
366.61683330610049
 20
640.02448564125496
 30
0.0
 40
12.5
 50
90.0
 51
180.0
  0
ARC
  5
B6FA
  8
0
 10
342.11683330610049
 20
614.00104864125512
 30
0.0
 40
19.0
 50
300.9777949999982
 51
0.0
  0
LINE
  5
B6FB
  8
0
  6
AM_ISO08W050
 10
354.61683330610049
 20
572.79499364125513
 30
0.0
 11
354.61683330610049
 21
595.01826064125521
 31
0.0
  0
ARC
  5
B6FC
  8
0
 10
359.61683330610049
 20
584.85065764125511
 30
0.0
 40
15.0
 50
120.9777979999991
 51
239.02220200000079
  0
ARC
  5
B6FD
  8
0
 10
339.11683330610049
 20
606.75385564125497
 30
0.0
 40
15.0
 50
313.10465999999877
 51
0.0
  0
LINE
  5
B6FE
  8
0
 10
354.11683330610049
 20
562.94745964125514
 30
0.0
 11
354.11683330610049
 21
527.79316264125487
 31
0.0
  0
ARC
  5
B6FF
  8
0
 10
339.11683330610049
 20
562.94745964125514
 30
0.0
 40
15.0
 50
0.0
 51
46.895329000001901
  0
ARC
  5
B700
  8
0
 10
342.11683330610049
 20
555.70014464125506
 30
0.0
 40
19.0
 50
0.0
 51
59.022189999997167
  0
LINE
  5
B701
  8
0
 10
366.61683330610049
 20
515.29316264125487
 30
0.0
 11
528.61683330610049
 21
515.29316264125487
 31
0.0
  0
LINE
  5
B702
  8
0
 10
369.61683330610049
 20
526.42402164125508
 30
0.0
 11
525.61683330610049
 21
526.42402164125508
 31
0.0
  0
ARC
  5
B703
  8
0
 10
369.61683330610049
 20
534.92402164125497
 30
0.0
 40
8.5
 50
180.0
 51
270.0
  0
ARC
  5
B704
  8
0
 10
366.61683330610049
 20
527.79316264125487
 30
0.0
 40
12.5
 50
180.0
 51
270.0
  0
LINE
  5
B705
  8
0
 10
541.11683330610049
 20
606.75385564125497
 30
0.0
 11
541.11683330610049
 21
640.02448564125496
 31
0.0
  0
LINE
  5
B706
  8
0
 10
534.11683330610049
 20
636.05536964125508
 30
0.0
 11
534.11683330610049
 21
534.92402164125497
 31
0.0
  0
LINE
  5
B707
  8
0
 10
541.11683330610049
 20
562.94745964125514
 30
0.0
 11
541.11683330610049
 21
527.79316264125487
 31
0.0
  0
ARC
  5
B708
  8
0
 10
556.11683330610026
 20
606.75385564125497
 30
0.0
 40
15.0
 50
180.0
 51
226.89534000000111
  0
ARC
  5
B709
  8
0
 10
553.11683330610015
 20
614.00104864125512
 30
0.0
 40
19.0
 50
180.0
 51
239.0222469999965
  0
ARC
  5
B70A
  8
0
 10
556.11683330610026
 20
562.94745964125514
 30
0.0
 40
15.0
 50
133.10467499999899
 51
180.0
  0
ARC
  5
B70B
  8
0
 10
553.11683330610015
 20
555.70014464125506
 30
0.0
 40
19.0
 50
120.9777450000001
 51
180.0
  0
LINE
  5
B70C
  8
0
  6
AM_ISO08W050
 10
540.61683330610015
 20
576.55097464125515
 30
0.0
 11
540.61683330610015
 21
594.39216164125514
 31
0.0
  0
ARC
  5
B70D
  8
0
 10
535.61683330610026
 20
584.85065764125511
 30
0.0
 40
15.0
 50
300.97784399999682
 51
59.022129000000739
  0
ARC
  5
B70E
  8
0
 10
528.61683330610049
 20
640.02448564125496
 30
0.0
 40
12.5
 50
0.0
 51
90.0
  0
ARC
  5
B70F
  8
0
 10
525.61683330610049
 20
636.05536964125508
 30
0.0
 40
8.5
 50
0.0
 51
90.0
  0
ARC
  5
B710
  8
0
 10
528.61683330610049
 20
527.79316264125487
 30
0.0
 40
12.5
 50
270.0
 51
0.0
  0
ARC
  5
B711
  8
0
 10
525.61683330610049
 20
534.92402164125497
 30
0.0
 40
8.5
 50
270.0
 51
0.0
  0
LINE
  5
B712
  8
0
 10
356.11695030610031
 20
457.43420364125512
 30
0.0
 11
356.11695030610031
 21
454.85070064125512
 31
0.0
  0
LINE
  5
B713
  8
0
 10
361.64474430610051
 20
457.43439564125498
 30
0.0
 11
367.0548183061004
 21
454.17115164125511
 31
0.0
  0
ARC
  5
B714
  8
0
 10
372.14954230610039
 20
466.60787564125508
 30
0.0
 40
10.0
 50
246.5414089999968
 51
270.00000299999761
  0
ARC
  5
B717
  8
0
 10
476.61689430610028
 20
725.28939364125517
 30
0.0
 40
3.999994999999998
 50
112.5229880000022
 51
179.999977999995
  0
ARC
  5
B718
  8
0
 10
488.61689430610039
 20
725.28939364125517
 30
0.0
 40
4.0
 50
0.0
 51
67.46979699999892
  0
ARC
  5
B719
  8
0
 10
482.61689430610039
 20
710.82039964125522
 30
0.0
 40
19.663599000000001
 50
67.475363999996873
 51
112.52499699999861
  0
ARC
  5
B71A
  8
0
 10
482.61689430610039
 20
742.98440064125521
 30
0.0
 40
20.5
 50
303.58634299999773
 51
236.41396600000081
  0
ARC
  5
B71B
  8
0
 10
469.61690930610041
 20
723.40738964125524
 30
0.0
 40
3.0
 50
0.0
 51
56.413954000001098
  0
ARC
  5
B71C
  8
0
 10
495.61689430610039
 20
723.40738964125524
 30
0.0
 40
3.000011999999999
 50
123.5861670000015
 51
179.999977999995
  0
CIRCLE
  5
B71D
  8
0
 10
482.61689430610039
 20
742.98440064125521
 30
0.0
 40
12.5
  0
LINE
  5
B71E
  8
0
 10
472.61690930610018
 20
725.28939364125517
 30
0.0
 11
472.61690930610018
 21
721.98438564125524
 31
0.0
  0
LINE
  5
B71F
  8
0
 10
492.61689430610039
 20
725.28939364125517
 30
0.0
 11
492.61689430610039
 21
721.98438564125524
 31
0.0
  0
LINE
  5
B720
  8
0
 10
490.14991430610041
 20
728.98438564125524
 30
0.0
 11
475.08491230610008
 21
728.98438564125524
 31
0.0
  0
ARC
  5
B721
  8
0
 10
325.11690030610038
 20
584.98427464125507
 30
0.0
 40
6.5
 50
202.6198650000035
 51
337.38013499999653
  0
ARC
  5
B722
  8
0
 10
325.11690030610038
 20
584.98427464125507
 30
0.0
 40
11.0
 50
193.1365589999983
 51
346.86344099999542
  0
ARC
  5
B723
  8
0
 10
325.11690030610038
 20
584.98425264125513
 30
0.0
 40
6.5
 50
22.619865000003461
 51
157.3801349999965
  0
ARC
  5
B724
  8
0
 10
325.11690030610038
 20
584.98425264125513
 30
0.0
 40
11.0
 50
13.136558999998311
 51
166.86344100000159
  0
LINE
  5
B725
  8
0
 10
309.61690030610038
 20
587.48425264125513
 30
0.0
 11
340.59844830610052
 21
587.48425264125513
 31
0.0
  0
LINE
  5
B726
  8
0
 10
309.61690030610038
 20
582.48427464125496
 30
0.0
 11
340.59844830610052
 21
582.48427464125496
 31
0.0
  0
LINE
  5
B727
  8
0
  6
AM_ISO08W050
 10
325.11690030610038
 20
570.73064764125513
 30
0.0
 11
325.11690030610038
 21
599.23787964125529
 31
0.0
  0
LINE
  5
B728
  8
0
 10
228.49345130610041
 20
577.54989064125505
 30
0.0
 11
200.99455030610039
 21
475.81174864125512
 31
0.0
  0
ARC
  5
B729
  8
0
 10
234.2856013061004
 20
575.98432464125494
 30
0.0
 40
12.0
 50
90.0
 51
164.8748879999994
  0
ARC
  5
B72A
  8
0
 10
234.2856013061004
 20
575.98432464125494
 30
0.0
 40
6.0
 50
90.0
 51
164.8748879999994
  0
LINE
  5
B72B
  8
0
 10
309.11688930610052
 20
587.98426364125521
 30
0.0
 11
234.24732830610029
 21
587.98426364125521
 31
0.0
  0
LINE
  5
B72C
  8
0
 10
309.61690030610038
 20
587.48425264125513
 30
0.0
 11
309.11688930610052
 21
587.98426364125521
 31
0.0
  0
LINE
  5
B72D
  8
0
 10
309.11688930610052
 20
581.98426364125521
 30
0.0
 11
234.25853830610049
 21
581.98426364125521
 31
0.0
  0
LINE
  5
B72E
  8
0
 10
309.61690030610038
 20
582.48427464125496
 30
0.0
 11
309.11688930610052
 21
581.98426364125521
 31
0.0
  0
LINE
  5
B72F
  8
0
 10
222.70130030610039
 20
579.11545664125515
 30
0.0
 11
195.2024003061004
 21
477.377314641255
 31
0.0
  0
LINE
  5
B730
  8
0
 10
193.2142163061003
 20
478.37048364125508
 30
0.0
 11
192.55698930610049
 21
477.9143546412551
 31
0.0
  0
LINE
  5
B731
  8
0
 10
192.55698930610049
 20
477.9143546412551
 30
0.0
 11
194.97665130610039
 21
474.42791864125508
 31
0.0
  0
LINE
  5
B732
  8
0
 10
193.2142163061003
 20
478.37048364125508
 30
0.0
 11
195.6338773061004
 21
474.88404764125511
 31
0.0
  0
ARC
  5
B733
  8
0
 10
198.0984753061004
 20
476.59453164125512
 30
0.0
 40
3.799999999999998
 50
216.32635400000021
 51
22.738533999997919
  0
ARC
  5
B734
  8
0
 10
198.0984753061004
 20
476.59453164125512
 30
0.0
 40
3.0
 50
164.8748879999994
 51
344.87488799999937
  0
ARC
  5
B735
  8
0
 10
199.36983030610051
 20
476.85175664125512
 30
0.0
 40
6.0
 50
14.5004039999992
 51
56.120363999999988
  0
LINE
  5
B736
  8
0
 10
343.09845930610038
 20
587.98426364125521
 30
0.0
 11
343.09845930610038
 21
581.98426364125521
 31
0.0
  0
LINE
  5
B737
  8
0
 10
341.09845930610038
 20
587.98426364125521
 30
0.0
 11
343.09845930610038
 21
587.98426364125521
 31
0.0
  0
LINE
  5
B738
  8
0
 10
341.09845930610038
 20
581.98426364125521
 30
0.0
 11
343.09845930610038
 21
581.98426364125521
 31
0.0
  0
LINE
  5
B739
  8
0
 10
340.59844830610052
 20
587.48425264125513
 30
0.0
 11
341.09845930610038
 21
587.98426364125521
 31
0.0
  0
LINE
  5
B73A
  8
0
 10
340.59844830610052
 20
582.48427464125496
 30
0.0
 11
341.09845930610038
 21
581.98426364125521
 31
0.0
  0
LINE
  5
C3C9
  8
0
  6
AM_ISO08W050
 10
173.04464655087591
 20
1074.037774267066
 30
0.0
 11
939.73410030610023
 21
1074.037774267066
 31
0.0
  0
LINE
  5
C402
  8
0
  6
CONTINUOUS
 10
616.09579030609973
 20
999.60082426706629
 30
0.0
 11
627.12466030610074
 21
999.60082426706629
 31
0.0
  0
LINE
  5
C403
  8
0
  6
CONTINUOUS
 10
615.11691030610007
 20
989.8668742670659
 30
0.0
 11
626.11691030610018
 21
989.8668742670659
 31
0.0
  0
LINE
  5
C404
  8
0
  6
CONTINUOUS
 10
615.11691030610007
 20
974.31053426706626
 30
0.0
 11
626.11691030610018
 21
974.31053426706626
 31
0.0
  0
LINE
  5
C405
  8
0
  6
CONTINUOUS
 10
615.11691030610007
 20
1158.208604267066
 30
0.0
 11
626.11691030610018
 21
1158.208604267066
 31
0.0
  0
LINE
  5
C406
  8
0
  6
CONTINUOUS
 10
615.11691030610007
 20
1173.7649442670661
 30
0.0
 11
626.11691030610018
 21
1173.7649442670661
 31
0.0
  0
LINE
  5
C407
  8
0
  6
CONTINUOUS
 10
616.09579030609973
 20
1148.474724267066
 30
0.0
 11
627.12466030610074
 21
1148.474724267066
 31
0.0
  0
LINE
  5
C40A
  8
0
  6
CONTINUOUS
 10
615.11691030610007
 20
1194.037774267066
 30
0.0
 11
615.11691030610007
 21
954.0377742670662
 31
0.0
  0
LINE
  5
C40C
  8
0
  6
CONTINUOUS
 10
615.11691030610007
 20
954.0377742670662
 30
0.0
 11
626.11691030610018
 21
954.0377742670662
 31
0.0
  0
LINE
  5
C40D
  8
0
  6
CONTINUOUS
 10
615.11691030610007
 20
1194.037774267066
 30
0.0
 11
626.11691030610018
 21
1194.037774267066
 31
0.0
  0
LINE
  5
C455
  8
0
 10
615.11691030610007
 20
1189.0377872670661
 30
0.0
 11
615.11691030610007
 21
959.0377742670662
 31
0.0
  0
ARC
  5
C456
  8
0
  6
CONTINUOUS
 10
611.11691030610007
 20
955.87366926706602
 30
0.0
 40
2.0
 50
299.99999800001649
 51
0.0
  0
LINE
  5
C457
  8
0
  6
CONTINUOUS
 10
612.11691130610063
 20
954.141643267066
 30
0.0
 11
606.77719730609999
 21
951.0587572670662
 31
0.0
  0
ARC
  5
C458
  8
0
  6
CONTINUOUS
 10
601.77718830610058
 20
959.71900626706622
 30
0.0
 40
10.0
 50
269.99999700001541
 51
299.99999800001649
  0
LINE
  5
C459
  8
0
  6
CONTINUOUS
 10
530.67512530610031
 20
949.71900626706633
 30
0.0
 11
601.77718830610058
 21
949.71900626706633
 31
0.0
  0
LINE
  5
C45A
  8
0
  6
CONTINUOUS
 10
615.11688930610035
 20
1189.0377872670661
 30
0.0
 11
613.11697130610003
 21
1189.0517872670659
 31
0.0
  0
LINE
  5
C45B
  8
0
  6
CONTINUOUS
 10
613.11697130610003
 20
1197.1077212670659
 30
0.0
 11
596.92220830610052
 21
1207.037774267066
 31
0.0
  0
LINE
  5
C45C
  8
0
  6
CONTINUOUS
 10
378.11691030610029
 20
1207.037774267066
 30
0.0
 11
596.92208630610014
 21
1207.037774267066
 31
0.0
  0
LINE
  5
C45D
  8
0
  6
CENTER
 10
482.61691030610029
 20
932.42600426706622
 30
0.0
 11
482.61691030610029
 21
946.87103626706607
 31
0.0
  0
LINE
  5
C45E
  8
0
  6
CONTINUOUS
 10
615.11688930610035
 20
959.03776126706623
 30
0.0
 11
608.16667630610027
 21
958.98910926706606
 31
0.0
  0
ARC
  5
C45F
  8
0
  6
CONTINUOUS
 10
601.77718830610058
 20
956.03777426706608
 30
0.0
 40
10.0
 50
269.99999700001541
 51
299.99999800001649
  0
ARC
  5
C460
  8
0
  6
CONTINUOUS
 10
614.61691030610007
 20
957.53423426706615
 30
0.0
 40
1.5
 50
90.401064000021776
 51
180.0000050000005
  0
ARC
  5
C461
  8
0
  6
CONTINUOUS
 10
611.11691030610007
 20
952.19243726706623
 30
0.0
 40
2.0
 50
299.99999800001649
 51
0.0
  0
LINE
  5
C462
  8
0
  6
CONTINUOUS
 10
612.11691130610063
 20
950.46041126706621
 30
0.0
 11
606.77719730609999
 21
947.37752526706606
 31
0.0
  0
LINE
  5
C463
  8
0
  6
CONTINUOUS
 10
613.11691030610018
 20
952.19243726706623
 30
0.0
 11
613.11691030610018
 21
957.53423426706615
 31
0.0
  0
LINE
  5
C464
  8
0
  6
CONTINUOUS
 10
529.68868730610041
 20
946.0377742670662
 30
0.0
 11
601.77718830610058
 21
946.0377742670662
 31
0.0
  0
LINE
  5
C465
  8
0
  6
CONTINUOUS
 10
528.61694430609975
 20
942.03777226706632
 30
0.0
 11
531.39488930610071
 21
952.40520426706621
 31
0.0
  0
ARC
  5
C466
  8
0
  6
CONTINUOUS
 10
432.84121430610043
 20
944.53777426706608
 30
0.0
 40
3.0
 50
14.999999999994451
 51
90.000002999984659
  0
ARC
  5
C467
  8
0
  6
CONTINUOUS
 10
386.37521130610008
 20
952.53777426706608
 30
0.0
 40
5.0
 50
239.99999700002189
 51
269.99999700001541
  0
LINE
  5
C468
  8
0
  6
CONTINUOUS
 10
436.61689930610009
 20
942.03782226706608
 30
0.0
 11
435.73897730610042
 21
945.31427026706604
 31
0.0
  0
LINE
  5
C469
  8
0
  6
CONTINUOUS
 10
386.37521130610008
 20
947.5377742670662
 30
0.0
 11
432.84121430610043
 21
947.5377742670662
 31
0.0
  0
LINE
  5
C46A
  8
0
  6
CONTINUOUS
 10
376.60487730610032
 20
952.40520426706621
 30
0.0
 11
383.87525230610038
 21
948.20765126706601
 31
0.0
  0
LINE
  5
C46B
  8
0
  6
CONTINUOUS
 10
342.11691030610029
 20
957.85518526706619
 30
0.0
 11
342.11691030610029
 21
937.03766526706625
 31
0.0
  0
LINE
  5
C46C
  8
0
  6
CONTINUOUS
 10
342.11691030610029
 20
957.85518526706619
 30
0.0
 11
378.11691030610029
 21
957.85518526706619
 31
0.0
  0
LINE
  5
C46D
  8
0
  6
CONTINUOUS
 10
343.11691030610029
 20
927.03766426706625
 30
0.0
 11
343.11691030610029
 21
933.03787526706606
 31
0.0
  0
LINE
  5
C46F
  8
0
  6
CONTINUOUS
 10
601.07839730610067
 20
1004.448909267066
 30
0.0
 11
615.11691030610007
 21
1004.448909267066
 31
0.0
  0
LINE
  5
C470
  8
0
  6
CONTINUOUS
 10
613.11697130610003
 20
974.83562726706623
 30
0.0
 11
596.92220830610052
 21
971.9972482670662
 31
0.0
  0
LINE
  5
C471
  8
0
  6
CONTINUOUS
 10
596.92226930610025
 20
988.55633026706607
 30
0.0
 11
613.11697130610003
 21
991.58758026706619
 31
0.0
  0
LINE
  5
C472
  8
0
  6
CONTINUOUS
 10
613.11697130610003
 20
1008.336360267066
 30
0.0
 11
596.92220830610052
 21
1003.106868267066
 31
0.0
  0
LINE
  5
C473
  8
0
  6
CONTINUOUS
 10
613.11697130610003
 20
1024.2714182670661
 30
0.0
 11
596.92220830610052
 21
1021.265437267066
 31
0.0
  0
LINE
  5
C474
  8
0
  6
CONTINUOUS
 10
613.11697130610003
 20
1039.644709267066
 30
0.0
 11
596.92220830610052
 21
1037.9148512670661
 31
0.0
  0
LINE
  5
C475
  8
0
  6
CONTINUOUS
 10
613.11697130610003
 20
1056.858577267066
 30
0.0
 11
596.92220830610052
 21
1055.6273752670661
 31
0.0
  0
LINE
  5
C476
  8
0
  6
CONTINUOUS
 10
601.07839730610067
 20
1143.6266432670659
 30
0.0
 11
615.11691030610007
 21
1143.6266432670659
 31
0.0
  0
LINE
  5
C477
  8
0
  6
CONTINUOUS
 10
613.11697130610003
 20
1091.2169752670659
 30
0.0
 11
596.92220830610052
 21
1092.4481762670659
 31
0.0
  0
LINE
  5
C478
  8
0
  6
CONTINUOUS
 10
613.11697130610003
 20
1108.4308422670661
 30
0.0
 11
596.92220830610052
 21
1110.1607012670661
 31
0.0
  0
LINE
  5
C479
  8
0
  6
CONTINUOUS
 10
613.11697130610003
 20
1123.8041332670659
 30
0.0
 11
596.92220830610052
 21
1126.8101152670661
 31
0.0
  0
LINE
  5
C47A
  8
0
  6
CONTINUOUS
 10
613.11697130610003
 20
1139.7391922670661
 30
0.0
 11
596.92220830610052
 21
1144.968684267066
 31
0.0
  0
LINE
  5
C47B
  8
0
  6
CONTINUOUS
 10
596.92226930610025
 20
1159.5192212670661
 30
0.0
 11
613.11697130610003
 21
1156.4879712670661
 31
0.0
  0
LINE
  5
C47C
  8
0
  6
CONTINUOUS
 10
613.11697130610003
 20
1173.239924267066
 30
0.0
 11
596.92220830610052
 21
1176.0783032670661
 31
0.0
  0
LINE
  5
C47D
  8
0
  6
CONTINUOUS
 10
613.11697130610003
 20
1178.075862267066
 30
0.0
 11
596.92220830610052
 21
1186.9279122670659
 31
0.0
  0
LINE
  5
C47E
  8
0
  6
CONTINUOUS
 10
613.11697130610003
 20
1186.1879222670659
 30
0.0
 11
596.92220830610052
 21
1195.670344267066
 31
0.0
  0
LINE
  5
C47F
  8
0
  6
CONTINUOUS
 10
613.11697130610003
 20
1192.2421212670661
 30
0.0
 11
596.92220830610052
 21
1201.8831132670659
 31
0.0
  0
LINE
  5
C480
  8
0
  6
CONTINUOUS
 10
613.11697130610003
 20
1195.8134112670659
 30
0.0
 11
596.92220830610052
 21
1205.743464267066
 31
0.0
  0
LINE
  5
C481
  8
0
  6
CONTINUOUS
 10
378.11691030610029
 20
1205.743464267066
 30
0.0
 11
596.92208630610014
 21
1205.743464267066
 31
0.0
  0
LINE
  5
C482
  8
0
  6
CONTINUOUS
 10
378.11691030610029
 20
1201.8831132670659
 30
0.0
 11
596.92220830610052
 21
1201.8831132670659
 31
0.0
  0
LINE
  5
C483
  8
0
  6
CONTINUOUS
 10
378.11691030610029
 20
1195.670344267066
 30
0.0
 11
596.92226930610025
 21
1195.670344267066
 31
0.0
  0
LINE
  5
C484
  8
0
  6
CONTINUOUS
 10
378.11684930610062
 20
1186.9279122670659
 30
0.0
 11
596.92226930610025
 21
1186.9279122670659
 31
0.0
  0
LINE
  5
C485
  8
0
  6
CONTINUOUS
 10
378.11691030610029
 20
1176.078053267066
 30
0.0
 11
596.92172030609981
 21
1176.0783032670661
 31
0.0
  0
LINE
  5
C486
  8
0
  6
CONTINUOUS
 10
378.11691030610029
 20
1159.5192212670661
 30
0.0
 11
596.92196430610056
 21
1159.5192212670661
 31
0.0
  0
LINE
  5
C487
  8
0
  6
CONTINUOUS
 10
378.11691030610029
 20
1144.968684267066
 30
0.0
 11
596.92226930610025
 21
1144.968684267066
 31
0.0
  0
LINE
  5
C488
  8
0
  6
CONTINUOUS
 10
378.11691030610029
 20
1126.8099932670659
 30
0.0
 11
596.92239130610062
 21
1126.8099932670659
 31
0.0
  0
LINE
  5
C489
  8
0
  6
CONTINUOUS
 10
378.11691030610029
 20
1110.161506267066
 30
0.0
 11
596.92214730610078
 21
1110.1607012670661
 31
0.0
  0
LINE
  5
C48A
  8
0
  6
CONTINUOUS
 10
378.11691030610029
 20
1092.4481762670659
 30
0.0
 11
596.92287930610007
 21
1092.4481762670659
 31
0.0
  0
LINE
  5
C48C
  8
0
  6
CONTINUOUS
 10
378.11691030610029
 20
957.85518526706619
 30
0.0
 11
378.11691030610029
 21
1211.0378982670661
 31
0.0
  0
LINE
  5
C48D
  8
0
  6
CONTINUOUS
 10
198.11691030610029
 20
976.66575626706617
 30
0.0
 11
198.11691030610029
 21
1174.6632642670661
 31
0.0
  0
LINE
  5
C48E
  8
0
  6
CONTINUOUS
 10
275.11691030610029
 20
1211.037654267066
 30
0.0
 11
378.11691030610029
 21
1211.0378592670661
 31
0.0
  0
LINE
  5
C48F
  8
0
  6
CONTINUOUS
 10
275.11691030610029
 20
937.03762426706624
 30
0.0
 11
275.11691030610029
 21
1211.037654267066
 31
0.0
  0
LINE
  5
C490
  8
0
  6
CONTINUOUS
 10
204.11691030610029
 20
975.04941726706591
 30
0.0
 11
204.11691030610029
 21
1172.793391267066
 31
0.0
  0
ARC
  5
C491
  8
0
  6
CONTINUOUS
 10
272.52756630610031
 20
1208.6213062670661
 30
0.0
 40
0.6
 50
273.00006100002201
 51
0.0
  0
ARC
  5
C492
  8
0
  6
CONTINUOUS
 10
274.71700830610018
 20
1208.437800267066
 30
0.0
 40
1.6000000000000001
 50
75.526100000002202
 51
180.0
  0
LINE
  5
C493
  8
0
  6
CONTINUOUS
 10
272.54830730610058
 20
1208.0078692670661
 30
0.0
 11
216.5463863061006
 21
1205.073015267066
 31
0.0
  0
LINE
  5
C494
  8
0
  6
CONTINUOUS
 10
205.1786783060999
 20
1180.6679032670661
 30
0.0
 11
210.1356933060998
 21
1199.835267267066
 31
0.0
  0
LINE
  5
C495
  8
0
  6
CONTINUOUS
 10
216.34518230610061
 20
1194.5844072670659
 30
0.0
 11
216.34518230610061
 21
954.27569426706623
 31
0.0
  0
LINE
  5
C496
  8
0
  6
CONTINUOUS
 10
197.3166173061
 20
992.53753226706624
 30
0.0
 11
198.1166663061004
 21
992.53753226706624
 31
0.0
  0
LINE
  5
C497
  8
0
  6
CONTINUOUS
 10
198.1166663061004
 20
973.41204326706622
 30
0.0
 11
198.1166663061004
 21
992.53753226706624
 31
0.0
  0
LINE
  5
C498
  8
0
  6
CONTINUOUS
 10
197.3166173061
 20
1155.537776267066
 30
0.0
 11
197.3166173061
 21
992.53753226706624
 31
0.0
  0
ARC
  5
C499
  8
0
  6
CONTINUOUS
 10
199.3698403061008
 20
1182.170344267066
 30
0.0
 40
6.0
 50
271.88500999997711
 51
345.50021400000162
  0
ARC
  5
C49A
  8
0
  6
CONTINUOUS
 10
199.61691030610029
 20
1174.6632642670661
 30
0.0
 40
1.5
 50
91.884964000020602
 51
180.0
  0
LINE
  5
C49B
  8
0
  6
CONTINUOUS
 10
275.11691030610029
 20
937.03762426706624
 30
0.0
 11
342.11691030610029
 21
937.03765626706615
 31
0.0
  0
LINE
  5
C49C
  8
0
  6
CONTINUOUS
 10
226.61716730609999
 20
1221.0376972670661
 30
0.0
 11
223.87150430610029
 21
1220.482071267066
 31
0.0
  0
LINE
  5
C49D
  8
0
  6
CONTINUOUS
 10
223.87150430610029
 20
1220.482071267066
 30
0.0
 11
221.14699230610049
 21
1218.8195772670661
 31
0.0
  0
LINE
  5
C49E
  8
0
  6
CONTINUOUS
 10
221.14699230610049
 20
1218.8195772670661
 30
0.0
 11
218.46411030610051
 21
1216.0628152670661
 31
0.0
  0
LINE
  5
C49F
  8
0
  6
CONTINUOUS
 10
218.46411030610051
 20
1216.0628152670661
 30
0.0
 11
215.84327630610019
 21
1212.232767267066
 31
0.0
  0
LINE
  5
C4A0
  8
0
  6
CONTINUOUS
 10
215.84327630610019
 20
1212.232767267066
 30
0.0
 11
213.3044353061006
 21
1207.3585822670659
 31
0.0
  0
LINE
  5
C4A1
  8
0
  6
CONTINUOUS
 10
213.3044353061006
 20
1207.3585822670659
 30
0.0
 11
211.0365103061005
 21
1201.8865632670661
 31
0.0
  0
LINE
  5
C4A2
  8
0
  6
CONTINUOUS
 10
197.3166173061
 20
1127.3297762670661
 30
0.0
 11
197.01659230610051
 21
1123.972595267066
 31
0.0
  0
LINE
  5
C4A3
  8
0
  6
CONTINUOUS
 10
197.01659230610051
 20
1123.972595267066
 30
0.0
 11
196.1902473061001
 21
1111.825234267066
 31
0.0
  0
LINE
  5
C4A4
  8
0
  6
CONTINUOUS
 10
196.1902473061001
 20
1111.825234267066
 30
0.0
 11
195.59546630610029
 21
1099.3902882670659
 31
0.0
  0
LINE
  5
C4A5
  8
0
  6
CONTINUOUS
 10
195.59546630610029
 20
1099.3902882670659
 30
0.0
 11
195.23677730610061
 21
1086.7623922670659
 31
0.0
  0
LINE
  5
C4A6
  8
0
  6
CONTINUOUS
 10
195.23677730610061
 20
1086.7623922670659
 30
0.0
 11
195.11691030610029
 21
1074.037654267066
 31
0.0
  0
LINE
  5
C4A7
  8
0
  6
CONTINUOUS
 10
195.11691030610029
 20
1074.037654267066
 30
0.0
 11
195.23677730610061
 21
1061.312915267066
 31
0.0
  0
LINE
  5
C4A8
  8
0
  6
CONTINUOUS
 10
195.23677730610061
 20
1061.312915267066
 30
0.0
 11
195.59546630610029
 21
1048.685020267066
 31
0.0
  0
LINE
  5
C4A9
  8
0
  6
CONTINUOUS
 10
195.59546630610029
 20
1048.685020267066
 30
0.0
 11
196.1902473061001
 21
1036.250073267066
 31
0.0
  0
LINE
  5
C4AA
  8
0
  6
CONTINUOUS
 10
196.1902473061001
 20
1036.250073267066
 30
0.0
 11
197.01659230610051
 21
1024.1027132670661
 31
0.0
  0
LINE
  5
C4AB
  8
0
  6
CONTINUOUS
 10
197.01659230610051
 20
1024.1027132670661
 30
0.0
 11
197.3166173061
 21
1020.745531267066
 31
0.0
  0
ARC
  5
C4AC
  8
0
  6
CONTINUOUS
 10
274.71700830610018
 20
939.63750726706633
 30
0.0
 40
1.6000000000000001
 50
180.0
 51
284.4738999999978
  0
LINE
  5
C4AD
  8
0
  6
CONTINUOUS
 10
272.54830730610058
 20
940.06743926706622
 30
0.0
 11
216.5463863061006
 21
943.0022922670662
 31
0.0
  0
ARC
  5
C4AE
  8
0
  6
CONTINUOUS
 10
272.51681230610041
 20
939.46807426706596
 30
0.0
 40
0.6
 50
0.0
 51
86.999938999978056
  0
LINE
  5
C4AF
  8
0
  6
CONTINUOUS
 10
205.1786783060999
 20
967.40740526706588
 30
0.0
 11
210.1356933060998
 21
948.24004026706609
 31
0.0
  0
ARC
  5
C4B0
  8
0
  6
CONTINUOUS
 10
199.3698403061008
 20
965.90496326706625
 30
0.0
 40
6.0
 50
14.49978599999838
 51
88.114990000022914
  0
ARC
  5
C4B1
  8
0
  6
CONTINUOUS
 10
199.61691030610029
 20
973.41204326706622
 30
0.0
 40
1.5
 50
180.0
 51
268.1150359999794
  0
LINE
  5
C4B2
  8
0
  6
CONTINUOUS
 10
343.11691030610029
 20
1221.0376732670661
 30
0.0
 11
343.11691030610029
 21
1215.0376732670661
 31
0.0
  0
LINE
  5
C4B3
  8
0
  6
CONTINUOUS
 10
331.11691030610029
 20
1215.0376792670661
 30
0.0
 11
343.11691030610029
 21
1215.0376732670661
 31
0.0
  0
LINE
  5
C4B4
  8
0
  6
CONTINUOUS
 10
331.11690930610001
 20
1221.0376792670661
 30
0.0
 11
343.11691030610029
 21
1221.0376732670661
 31
0.0
  0
LINE
  5
C4B5
  8
0
  6
CONTINUOUS
 10
331.11691030610029
 20
1221.037654267066
 30
0.0
 11
331.11691030610029
 21
1211.0377652670661
 31
0.0
  0
LINE
  5
C4B6
  8
0
  6
CONTINUOUS
 10
319.11691030610029
 20
1221.037684267066
 30
0.0
 11
331.11691030610029
 21
1221.0376792670661
 31
0.0
  0
LINE
  5
C4B7
  8
0
  6
CONTINUOUS
 10
319.11691030610029
 20
1221.037654267066
 30
0.0
 11
319.11691030610029
 21
1211.0377412670659
 31
0.0
  0
LINE
  5
C4B8
  8
0
  6
CONTINUOUS
 10
227.21816930610029
 20
1215.0376962670659
 30
0.0
 11
319.11691030610029
 21
1215.037654267066
 31
0.0
  0
LINE
  5
C4B9
  8
0
  6
CONTINUOUS
 10
226.6169113061006
 20
1221.0376972670661
 30
0.0
 11
319.11691030610029
 21
1221.037654267066
 31
0.0
  0
LINE
  5
C4BA
  8
0
  6
CONTINUOUS
 10
227.21816930610029
 20
1215.0376962670659
 30
0.0
 11
226.09593930610041
 21
1214.8105962670661
 31
0.0
  0
LINE
  5
C4BB
  8
0
  6
CONTINUOUS
 10
226.09593930610041
 20
1214.8105962670661
 30
0.0
 11
224.91871230610019
 21
1214.092254267066
 31
0.0
  0
LINE
  5
C4BC
  8
0
  6
CONTINUOUS
 10
224.91871230610019
 20
1214.092254267066
 30
0.0
 11
223.1241503061002
 21
1212.248275267066
 31
0.0
  0
LINE
  5
C4BD
  8
0
  6
CONTINUOUS
 10
223.1241503061002
 20
1212.248275267066
 30
0.0
 11
220.9983143061001
 21
1209.141610267066
 31
0.0
  0
LINE
  5
C4BE
  8
0
  6
CONTINUOUS
 10
220.9983143061001
 20
1209.141610267066
 30
0.0
 11
218.9445483061001
 21
1205.198694267066
 31
0.0
  0
LINE
  5
C4BF
  8
0
  6
CONTINUOUS
 10
192.59933230610031
 20
1069.537654267066
 30
0.0
 11
192.59933230610031
 21
1078.537654267066
 31
0.0
  0
LINE
  5
C4C0
  8
0
  6
CONTINUOUS
 10
192.59933230610031
 20
1078.537654267066
 30
0.0
 11
195.15930030610079
 21
1078.537654267066
 31
0.0
  0
LINE
  5
C4C1
  8
0
  6
CONTINUOUS
 10
192.59933230610031
 20
1069.537654267066
 30
0.0
 11
195.15930030610079
 21
1069.537654267066
 31
0.0
  0
LINE
  5
C4C2
  8
0
  6
CONTINUOUS
 10
378.11691030610029
 20
988.55633026706607
 30
0.0
 11
596.92196430610056
 21
988.55633026706607
 31
0.0
  0
LINE
  5
C4C3
  8
0
  6
CONTINUOUS
 10
378.11691030610029
 20
1003.106868267066
 30
0.0
 11
596.92226930610025
 21
1003.106868267066
 31
0.0
  0
LINE
  5
C4C4
  8
0
  6
CONTINUOUS
 10
378.11691030610029
 20
1021.265559267066
 30
0.0
 11
596.92239130610062
 21
1021.265559267066
 31
0.0
  0
LINE
  5
C4C5
  8
0
  6
CONTINUOUS
 10
378.11691030610029
 20
1037.9140462670659
 30
0.0
 11
596.92214730610078
 21
1037.9148512670661
 31
0.0
  0
LINE
  5
C4C6
  8
0
  6
CONTINUOUS
 10
378.11691030610029
 20
1055.6273752670661
 30
0.0
 11
596.92287930610007
 21
1055.6273752670661
 31
0.0
  0
ARC
  5
C4C7
  8
0
  6
CONTINUOUS
 10
482.61691030610029
 20
1074.037721267066
 30
0.0
 40
11.5
 50
20.35443300000496
 51
159.64561999997829
  0
LINE
  5
C4C8
  8
0
  6
CONTINUOUS
 10
466.11690830610041
 20
1078.037713267066
 30
0.0
 11
499.11690830610041
 21
1078.037729267066
 31
0.0
  0
LINE
  5
C4C9
  8
0
  6
CONTINUOUS
 10
466.11691230609972
 20
1070.037713267066
 30
0.0
 11
499.11691230609978
 21
1070.037729267066
 31
0.0
  0
ARC
  5
C4CA
  8
0
  6
CONTINUOUS
 10
466.11691030610029
 20
1074.037713267066
 30
0.0
 40
4.0
 50
90.000027000018335
 51
270.0
  0
ARC
  5
C4CB
  8
0
  6
CONTINUOUS
 10
499.11691030610029
 20
1074.037729267066
 30
0.0
 40
4.0
 50
270.0
 51
90.0
  0
ARC
  5
C4CC
  8
0
  6
CONTINUOUS
 10
482.61691030610029
 20
1074.037721267066
 30
0.0
 40
11.5
 50
200.35443300000489
 51
339.64561999997829
  0
LINE
  5
C4CD
  8
0
  6
CONTINUOUS
 10
197.3166173061
 20
1155.537776267066
 30
0.0
 11
198.1166663061004
 21
1155.537776267066
 31
0.0
  0
ARC
  5
C4CE
  8
0
  6
CONTINUOUS
 10
216.91272730610041
 20
1198.082608267066
 30
0.0
 40
7.0
 50
92.999915000003085
 51
165.50000500001161
  0
ARC
  5
C4CF
  8
0
  6
CONTINUOUS
 10
272.52756630610031
 20
939.45400226706624
 30
0.0
 40
0.6
 50
0.0
 51
86.999938999978056
  0
LINE
  5
C4D0
  8
0
  6
CONTINUOUS
 10
226.61716730609999
 20
927.03761126706604
 30
0.0
 11
223.87150430610029
 21
927.59323726706589
 31
0.0
  0
LINE
  5
C4D1
  8
0
  6
CONTINUOUS
 10
223.87150430610029
 20
927.59323726706589
 30
0.0
 11
221.14699230610049
 21
929.25573126706638
 31
0.0
  0
LINE
  5
C4D2
  8
0
  6
CONTINUOUS
 10
221.14699230610049
 20
929.25573126706638
 30
0.0
 11
218.46411030610051
 21
932.01249226706591
 31
0.0
  0
LINE
  5
C4D3
  8
0
  6
CONTINUOUS
 10
218.46411030610051
 20
932.01249226706591
 30
0.0
 11
215.84327630610019
 21
935.84254026706594
 31
0.0
  0
LINE
  5
C4D4
  8
0
  6
CONTINUOUS
 10
215.84327630610019
 20
935.84254026706594
 30
0.0
 11
213.3044353061006
 21
940.71672626706606
 31
0.0
  0
LINE
  5
C4D5
  8
0
  6
CONTINUOUS
 10
331.11691030610029
 20
933.03762926706622
 30
0.0
 11
343.11691030610029
 21
933.03763426706598
 31
0.0
  0
LINE
  5
C4D6
  8
0
  6
CONTINUOUS
 10
331.11691030610029
 20
927.03765926706592
 30
0.0
 11
331.11691030610029
 21
937.03754226706621
 31
0.0
  0
LINE
  5
C4D7
  8
0
  6
CONTINUOUS
 10
319.11691030610029
 20
927.03765426706605
 30
0.0
 11
319.11691030610029
 21
937.03756626706615
 31
0.0
  0
LINE
  5
C4D8
  8
0
  6
CONTINUOUS
 10
227.21816930610029
 20
933.03761126706627
 30
0.0
 11
319.11691030610029
 21
933.03765426706605
 31
0.0
  0
LINE
  5
C4D9
  8
0
  6
CONTINUOUS
 10
226.6169113061006
 20
927.03761126706604
 30
0.0
 11
343.11691030610029
 21
927.03766426706625
 31
0.0
  0
LINE
  5
C4DA
  8
0
  6
CONTINUOUS
 10
227.21816930610029
 20
933.03761126706627
 30
0.0
 11
226.09593930610041
 21
933.26471126706599
 31
0.0
  0
LINE
  5
C4DB
  8
0
  6
CONTINUOUS
 10
226.09593930610041
 20
933.26471126706599
 30
0.0
 11
224.91871230610019
 21
933.98305326706623
 31
0.0
  0
LINE
  5
C4DC
  8
0
  6
CONTINUOUS
 10
224.91871230610019
 20
933.98305326706623
 30
0.0
 11
223.1241503061002
 21
935.82703226706622
 31
0.0
  0
LINE
  5
C4DD
  8
0
  6
CONTINUOUS
 10
223.1241503061002
 20
935.82703226706622
 30
0.0
 11
220.9983143061001
 21
938.93369826706635
 31
0.0
  0
LINE
  5
C4DE
  8
0
  6
CONTINUOUS
 10
220.9983143061001
 20
938.93369826706635
 30
0.0
 11
218.9445483061001
 21
942.87661326706609
 31
0.0
  0
LINE
  5
C4DF
  8
0
  6
CONTINUOUS
 10
213.3044353061006
 20
940.71672626706606
 30
0.0
 11
211.0365103061005
 21
946.188744267066
 31
0.0
  0
ARC
  5
C4E0
  8
0
  6
CONTINUOUS
 10
216.91272730610041
 20
949.99270026706608
 30
0.0
 40
7.0
 50
194.49999499998839
 51
267.00008499999689
  0
LINE
  5
C4E1
  8
0
  6
CONTINUOUS
 10
368.1170933061004
 20
940.5377742670662
 30
0.0
 11
528.61691030610029
 21
940.5377742670662
 31
0.0
  0
LINE
  5
C4E2
  8
0
  6
CONTINUOUS
 10
366.6170933061004
 20
935.24548526706621
 30
0.0
 11
528.61709330610017
 21
935.24548526706621
 31
0.0
  0
LINE
  5
C4E3
  8
0
  6
CONTINUOUS
 10
366.6170933061004
 20
928.7558762670659
 30
0.0
 11
528.61709330610017
 21
928.7558762670659
 31
0.0
  0
LINE
  5
C4E4
  8
0
  6
CONTINUOUS
 10
367.1170933061004
 20
922.67689926706601
 30
0.0
 11
528.11709330610029
 21
922.67689926706601
 31
0.0
  0
LINE
  5
C4E5
  8
0
  6
CONTINUOUS
 10
367.1170933061004
 20
875.48877126706623
 30
0.0
 11
527.1170933061004
 21
875.48877126706623
 31
0.0
  0
LINE
  5
C4E6
  8
0
  6
CONTINUOUS
 10
366.6170933061004
 20
873.74035926706608
 30
0.0
 11
528.61709330610017
 21
873.74035926706608
 31
0.0
  0
LINE
  5
C4E7
  8
0
  6
CONTINUOUS
 10
541.11709330610017
 20
886.24035926706608
 30
0.0
 11
541.11709330610017
 21
891.91391726706615
 31
0.0
  0
LINE
  5
C4E8
  8
0
  6
CONTINUOUS
 10
544.1170933061004
 20
902.98428326706608
 30
0.0
 11
549.62644730610009
 21
902.98428326706608
 31
0.0
  0
LINE
  5
C4E9
  8
0
  6
CONTINUOUS
 10
544.10102930610003
 20
894.91387426706615
 30
0.0
 11
549.62644730610009
 21
894.91387426706615
 31
0.0
  0
ARC
  5
C4EA
  8
0
  6
CONTINUOUS
 10
541.8717703061003
 20
898.94907926706605
 30
0.0
 40
8.7417320000000007
 50
332.50944499999753
 51
27.49055500000247
  0
LINE
  5
C4EB
  8
0
  6
CONTINUOUS
 10
534.1170933061004
 20
882.488771267066
 30
0.0
 11
534.1170933061004
 21
916.67689926706589
 31
0.0
  0
ARC
  5
C4EC
  8
0
  6
CONTINUOUS
 10
544.1170933061004
 20
905.98428326706619
 30
0.0
 40
3.0
 50
180.0
 51
270.0
  0
ARC
  5
C4ED
  8
0
  6
CONTINUOUS
 10
528.61709330610017
 20
922.74548526706621
 30
0.0
 40
12.5
 50
0.0
 51
90.0
  0
ARC
  5
C4EE
  8
0
  6
CONTINUOUS
 10
528.61709330610017
 20
916.2558762670659
 30
0.0
 40
12.5
 50
0.0
 51
90.0
  0
ARC
  5
C4EF
  8
0
  6
CONTINUOUS
 10
528.11709330610029
 20
916.67689926706589
 30
0.0
 40
6.0
 50
0.0
 51
90.0
  0
ARC
  5
C4F0
  8
0
  6
CONTINUOUS
 10
528.61709330610017
 20
886.24035926706608
 30
0.0
 40
12.5
 50
270.0
 51
0.0
  0
ARC
  5
C4F1
  8
0
  6
CONTINUOUS
 10
544.1170933061004
 20
891.91391726706615
 30
0.0
 40
3.0
 50
90.0
 51
180.0
  0
LINE
  5
C4F2
  8
0
  6
CONTINUOUS
 10
541.11709330610017
 20
905.98428326706619
 30
0.0
 11
541.11709330610017
 21
922.74548526706621
 31
0.0
  0
LINE
  5
C4F3
  8
0
  6
CENTER
 10
540.61709330610029
 20
896.41903926706618
 30
0.0
 11
540.61709330610029
 21
901.81584426706615
 31
0.0
  0
LINE
  5
C4F4
  8
0
  6
CENTER
 10
537.89295830610001
 20
898.94910026706623
 30
0.0
 11
543.96436330610061
 21
898.94910026706623
 31
0.0
  0
ARC
  5
C4F5
  8
0
  6
CONTINUOUS
 10
366.6170933061004
 20
886.24035926706608
 30
0.0
 40
12.5
 50
180.0
 51
270.0
  0
ARC
  5
C4F6
  8
0
  6
CONTINUOUS
 10
353.36241630610039
 20
898.94907926706605
 30
0.0
 40
8.7417320000000007
 50
152.5094449999975
 51
207.4905550000025
  0
ARC
  5
C4F7
  8
0
  6
CONTINUOUS
 10
366.6170933061004
 20
916.2558762670659
 30
0.0
 40
12.5
 50
90.0
 51
180.0
  0
ARC
  5
C4F8
  8
0
  6
CONTINUOUS
 10
366.6170933061004
 20
922.74548526706621
 30
0.0
 40
12.5
 50
90.0
 51
180.0
  0
ARC
  5
C4F9
  8
0
  6
CONTINUOUS
 10
367.1170933061004
 20
916.67689926706589
 30
0.0
 40
6.0
 50
90.0
 51
180.0
  0
LINE
  5
C4FA
  8
0
  6
CONTINUOUS
 10
354.1170933061004
 20
905.98428326706619
 30
0.0
 11
354.1170933061004
 21
922.74548526706621
 31
0.0
  0
LINE
  5
C4FB
  8
0
  6
CENTER
 10
354.6170933061004
 20
896.41903926706618
 30
0.0
 11
354.6170933061004
 21
901.81584426706615
 31
0.0
  0
LINE
  5
C4FC
  8
0
  6
CENTER
 10
357.34122830609988
 20
898.94910026706623
 30
0.0
 11
351.26982330610008
 21
898.94910026706623
 31
0.0
  0
ARC
  5
C4FD
  8
0
  6
CONTINUOUS
 10
351.1170933061004
 20
905.98428326706619
 30
0.0
 40
3.0
 50
270.0
 51
0.0
  0
LINE
  5
C4FE
  8
0
  6
CONTINUOUS
 10
351.1170933061004
 20
902.98428326706608
 30
0.0
 11
345.60774030610003
 21
902.98428326706608
 31
0.0
  0
LINE
  5
C4FF
  8
0
  6
CONTINUOUS
 10
351.13315830610009
 20
894.91387426706615
 30
0.0
 11
345.60774030610003
 21
894.91387426706615
 31
0.0
  0
ARC
  5
C500
  8
0
  6
CONTINUOUS
 10
351.1170933061004
 20
891.91391726706615
 30
0.0
 40
3.0
 50
0.0
 51
90.0
  0
LINE
  5
C501
  8
0
  6
CONTINUOUS
 10
354.1170933061004
 20
886.24035926706608
 30
0.0
 11
354.1170933061004
 21
891.91391726706615
 31
0.0
  0
LINE
  5
C502
  8
0
  6
CONTINUOUS
 10
361.1170933061004
 20
881.488771267066
 30
0.0
 11
361.1170933061004
 21
916.67689926706589
 31
0.0
  0
ARC
  5
C503
  8
0
  6
CONTINUOUS
 10
544.1170933061004
 20
912.47430526706614
 30
0.0
 40
3.0
 50
180.0
 51
270.0
  0
LINE
  5
C504
  8
0
  6
CONTINUOUS
 10
544.1170933061004
 20
909.47430526706603
 30
0.0
 11
549.62644730610009
 21
909.47430526706603
 31
0.0
  0
ARC
  5
C505
  8
0
  6
CONTINUOUS
 10
541.8717703061003
 20
905.43910026706601
 30
0.0
 40
8.7417320000000007
 50
355.30207200000473
 51
27.49055500000247
  0
LINE
  5
C506
  8
0
  6
CONTINUOUS
 10
550.58413330609983
 20
898.23310926706597
 30
0.0
 11
550.58413330609983
 21
906.15507026706609
 31
0.0
  0
LINE
  5
C507
  8
0
  6
CONTINUOUS
 10
351.1170933061004
 20
909.47430526706603
 30
0.0
 11
345.60774030610003
 21
909.47430526706603
 31
0.0
  0
ARC
  5
C508
  8
0
  6
CONTINUOUS
 10
353.36241630610039
 20
905.43910026706601
 30
0.0
 40
8.7417320000000007
 50
152.5094449999975
 51
184.6979279999953
  0
LINE
  5
C509
  8
0
  6
CONTINUOUS
 10
344.65005330610001
 20
898.23310926706597
 30
0.0
 11
344.65005330610001
 21
906.15507026706609
 31
0.0
  0
ARC
  5
C50A
  8
0
  6
CONTINUOUS
 10
351.1170933061004
 20
912.47430526706614
 30
0.0
 40
3.0
 50
270.0
 51
0.0
  0
ARC
  5
C50B
  8
0
  6
CONTINUOUS
 10
527.1170933061004
 20
933.5377742670662
 30
0.0
 40
7.0
 50
3.5992130000037932
 51
90.0
  0
ARC
  5
C50C
  8
0
  6
CONTINUOUS
 10
527.1170933061004
 20
882.488771267066
 30
0.0
 40
7.0
 50
270.0
 51
0.0
  0
ARC
  5
C50D
  8
0
  6
CONTINUOUS
 10
368.1170933061004
 20
933.5377742670662
 30
0.0
 40
7.0
 50
90.0
 51
176.40078699999609
  0
ARC
  5
C50E
  8
0
  6
CONTINUOUS
 10
368.1170933061004
 20
882.488771267066
 30
0.0
 40
7.0
 50
180.0
 51
270.0
  0
LINE
  5
C50F
  8
0
  6
CONTINUOUS
 10
378.11691030610029
 20
971.99749826706602
 30
0.0
 11
596.92220830610052
 21
971.9972482670662
 31
0.0
  0
LINE
  5
C510
  8
0
  6
CONTINUOUS
 10
528.61691030610029
 20
942.03778926706605
 30
0.0
 11
528.61691030610029
 21
940.5377742670662
 31
0.0
  0
LINE
  5
C511
  8
0
  6
CONTINUOUS
 10
436.61691030610029
 20
942.03778926706605
 30
0.0
 11
436.61691030610029
 21
940.5377742670662
 31
0.0
  0
LINE
  5
C512
  8
0
  6
CONTINUOUS
 10
613.11697130610003
 20
1173.239924267066
 30
0.0
 11
613.11697130610003
 21
1197.1077212670659
 31
0.0
  0
LINE
  5
C513
  8
0
  6
CONTINUOUS
 10
613.1170933061004
 20
1156.487727267066
 30
0.0
 11
615.11691030610007
 21
1156.487727267066
 31
0.0
  0
LINE
  5
C514
  8
0
  6
CONTINUOUS
 10
613.11697130610003
 20
1120.4906572670659
 30
0.0
 11
613.11703230609965
 21
1123.8041332670659
 31
0.0
  0
LINE
  5
C515
  8
0
  6
CONTINUOUS
 10
613.11703230609965
 20
1135.2317452670659
 30
0.0
 11
613.11697130610003
 21
1139.7391922670661
 31
0.0
  0
LINE
  5
C516
  8
0
  6
CONTINUOUS
 10
613.11697130610003
 20
1108.4308422670661
 30
0.0
 11
613.11697130610003
 21
1105.5097002670659
 31
0.0
  0
LINE
  5
C517
  8
0
  6
CONTINUOUS
 10
613.11697130610003
 20
1091.2169752670659
 30
0.0
 11
613.11697130610003
 21
1090.2150222670659
 31
0.0
  0
LINE
  5
C518
  8
0
  6
CONTINUOUS
 10
613.1170933061004
 20
991.58782526706625
 30
0.0
 11
615.11691030610007
 21
991.58782526706625
 31
0.0
  0
LINE
  5
C519
  8
0
  6
CONTINUOUS
 10
613.11703230609965
 20
1012.843806267066
 30
0.0
 11
613.11697130610003
 21
1008.336360267066
 31
0.0
  0
LINE
  5
C51A
  8
0
  6
CONTINUOUS
 10
613.11697130610003
 20
1027.584895267066
 30
0.0
 11
613.11703230609965
 21
1024.2714182670661
 31
0.0
  0
LINE
  5
C51B
  8
0
  6
CONTINUOUS
 10
613.11697130610003
 20
1039.644709267066
 30
0.0
 11
613.11697130610003
 21
1042.565852267066
 31
0.0
  0
LINE
  5
C51C
  8
0
  6
CONTINUOUS
 10
613.11697130610003
 20
1056.858577267066
 30
0.0
 11
613.11697130610003
 21
1057.860530267066
 31
0.0
  0
LINE
  5
C51D
  8
0
  6
CONTINUOUS
 10
436.61693530610012
 20
942.0377742670662
 30
0.0
 11
528.61687430609982
 21
942.0377742670662
 31
0.0
  0
LINE
  5
C51E
  8
0
  6
CONTINUOUS
 10
613.11697130610003
 20
969.99968626706618
 30
0.0
 11
596.92220830610052
 21
961.14763626706622
 31
0.0
  0
LINE
  5
C51F
  8
0
  6
CONTINUOUS
 10
378.11684930610062
 20
961.14763626706622
 30
0.0
 11
596.92226930610025
 21
961.14763626706622
 31
0.0
  0
LINE
  5
C520
  8
0
  6
CONTINUOUS
 10
613.11697130610003
 20
974.83562726706623
 30
0.0
 11
613.11697130610003
 21
961.88762626706625
 31
0.0
  0
LINE
  5
C521
  8
0
  6
CONTINUOUS
 10
613.11697130610003
 20
961.88762626706625
 30
0.0
 11
596.92220830610052
 21
952.40520426706621
 31
0.0
  0
LINE
  5
C522
  8
0
  6
CONTINUOUS
 10
368.31172330610042
 20
952.40520426706621
 30
0.0
 11
596.92226930610025
 21
952.40520426706621
 31
0.0
  0
LINE
  5
C523
  8
0
  6
CONTINUOUS
 10
359.00385330609981
 20
957.85518526706619
 30
0.0
 11
368.31172330610042
 21
952.40520426706621
 31
0.0
  0
LINE
  5
C524
  8
0
  6
CONTINUOUS
 10
615.11691030610007
 20
1189.0377872670661
 30
0.0
 11
615.11691030610007
 21
959.0377742670662
 31
0.0
  0
LINE
  5
C7C0
  8
0
  6
CONTINUOUS
 62
     7
 10
694.11691030609995
 20
1207.037774267066
 30
0.0
 11
694.11691030609995
 21
1079.037774267066
 31
0.0
  0
LINE
  5
C7C1
  8
0
  6
CONTINUOUS
 62
     7
 10
694.11691030609995
 20
941.03777426706608
 30
0.0
 11
687.01217030609973
 21
941.28587426706599
 31
0.0
  0
LINE
  5
C7C2
  8
0
  6
CONTINUOUS
 62
     7
 10
694.1168503061001
 20
1207.037774267066
 30
0.0
 11
687.01217030609973
 21
1206.789664267066
 31
0.0
  0
LINE
  5
C7C3
  8
0
  6
CENTER
 62
     7
 10
676.11691030609973
 20
1058.857474267066
 30
0.0
 11
676.11691030609973
 21
1088.592334267066
 31
0.0
  0
LINE
  5
C7C4
  8
0
  6
CONTINUOUS
 62
     7
 10
656.11691030609973
 20
1069.037774267066
 30
0.0
 11
696.11691030609973
 21
1069.037774267066
 31
0.0
  0
LINE
  5
C7C5
  8
0
  6
CONTINUOUS
 62
     7
 10
656.11691030609973
 20
1079.037774267066
 30
0.0
 11
696.11691030609973
 21
1079.037774267066
 31
0.0
  0
LINE
  5
C7C6
  8
0
  6
CONTINUOUS
 62
     7
 10
694.11691030609995
 20
1069.037774267066
 30
0.0
 11
694.11691030609995
 21
941.03777426706608
 31
0.0
  0
LINE
  5
C7C7
  8
0
  6
CONTINUOUS
 62
     7
 10
630.11691030609973
 20
962.03777426706597
 30
0.0
 11
682.11685030610022
 21
962.03777426706597
 31
0.0
  0
LINE
  5
C7C8
  8
0
  6
CONTINUOUS
 62
     7
 10
628.11685030610022
 20
1192.037774267066
 30
0.0
 11
628.11685030610022
 21
956.03777426706608
 31
0.0
  0
LINE
  5
C7C9
  8
0
  6
CONTINUOUS
 62
     7
 10
630.11691030609973
 20
1186.0377142670659
 30
0.0
 11
682.11685030610022
 21
1186.0377142670659
 31
0.0
  0
LINE
  5
C7CA
  8
0
  6
CONTINUOUS
 62
     7
 10
628.11685030610022
 20
1160.7126342670661
 30
0.0
 11
674.61691030609973
 21
1160.7126342670661
 31
0.0
  0
LINE
  5
C7CB
  8
0
  6
CONTINUOUS
 62
     7
 10
628.11685030610022
 20
1144.970574267066
 30
0.0
 11
674.61691030609973
 21
1144.970574267066
 31
0.0
  0
LINE
  5
C7CC
  8
0
  6
CONTINUOUS
 62
     7
 10
628.11685030610022
 20
1003.104914267066
 30
0.0
 11
674.61691030609973
 21
1003.104914267066
 31
0.0
  0
LINE
  5
C7CD
  8
0
  6
CONTINUOUS
 62
     7
 10
628.11685030610022
 20
987.36284426706607
 30
0.0
 11
674.61691030609973
 21
987.36284426706607
 31
0.0
  0
LINE
  5
C7CE
  8
0
  6
CONTINUOUS
 62
     7
 10
684.1168503061001
 20
944.28404426706607
 30
0.0
 11
684.1168503061001
 21
1051.037774267066
 31
0.0
  0
LINE
  5
C7CF
  8
0
  6
CONTINUOUS
 62
     7
 10
682.65243030609975
 20
963.50218426706624
 30
0.0
 11
676.08139030609982
 21
970.07323426706603
 31
0.0
  0
LINE
  5
C7D0
  8
0
  6
CONTINUOUS
 62
     7
 10
676.08132030610011
 20
1178.0022442670661
 30
0.0
 11
682.65237030610012
 21
1184.5732942670661
 31
0.0
  0
LINE
  5
C7D1
  8
0
  6
CONTINUOUS
 62
     7
 10
674.61691030609973
 20
973.6088142670659
 30
0.0
 11
674.61691030609973
 21
1055.1234642670661
 31
0.0
  0
LINE
  5
C7D2
  8
0
  6
CONTINUOUS
 62
     7
 10
684.1168503061001
 20
1097.037774267066
 30
0.0
 11
684.1168503061001
 21
1203.7914942670659
 31
0.0
  0
LINE
  5
C7D3
  8
0
  6
CONTINUOUS
 62
     7
 10
674.61691030609973
 20
1092.952014267066
 30
0.0
 11
674.61691030609973
 21
1174.466724267066
 31
0.0
  0
LINE
  5
C7D4
  8
0
  6
CONTINUOUS
 62
     7
 10
867.11691030609995
 20
1082.0377142670659
 30
0.0
 11
929.11685030609988
 21
1082.0377142670659
 31
0.0
  0
LINE
  5
C7D5
  8
0
  6
CONTINUOUS
 62
     7
 10
694.11697030609969
 20
941.03771426706589
 30
0.0
 11
810.27371030609993
 21
936.98143426706565
 31
0.0
  0
LINE
  5
C7D6
  8
0
  6
CONTINUOUS
 62
     7
 10
805.76712030610031
 20
1160.8793242670661
 30
0.0
 11
817.11697030609957
 21
1169.2030542670659
 31
0.0
  0
LINE
  5
C7D7
  8
0
  6
CONTINUOUS
 62
     7
 10
813.63473030610021
 20
935.52001426706613
 30
0.0
 11
817.11697030609957
 21
932.03777426706608
 31
0.0
  0
LINE
  5
C7D8
  8
0
  6
CONTINUOUS
 62
     7
 10
867.11691030609995
 20
1066.0377142670659
 30
0.0
 11
929.11685030609988
 21
1066.0377142670659
 31
0.0
  0
LINE
  5
C7D9
  8
0
  6
CONTINUOUS
 62
     7
 10
847.11685030609988
 20
1104.037774267066
 30
0.0
 11
847.11685030609988
 21
1044.037774267066
 31
0.0
  0
LINE
  5
C7DA
  8
0
  6
CONTINUOUS
 62
     7
 10
844.11691030609995
 20
1104.037774267066
 30
0.0
 11
847.11685030609988
 21
1104.037774267066
 31
0.0
  0
LINE
  5
C7DB
  8
0
  6
CONTINUOUS
 62
     7
 10
867.11685030609999
 20
1082.0377142670659
 30
0.0
 11
867.11685030609999
 21
1066.0377142670659
 31
0.0
  0
LINE
  5
C7DC
  8
0
  6
CONTINUOUS
 62
     7
 10
929.11685030609988
 20
1101.537774267066
 30
0.0
 11
929.11685030609988
 21
1046.537774267066
 31
0.0
  0
LINE
  5
C7DD
  8
0
  6
CONTINUOUS
 62
     7
 10
847.11685030609988
 20
1046.537774267066
 30
0.0
 11
929.11685030609988
 21
1046.537774267066
 31
0.0
  0
LINE
  5
C7DE
  8
0
  6
CONTINUOUS
 62
     7
 10
847.11685030609988
 20
1101.537774267066
 30
0.0
 11
929.11685030609988
 21
1101.537774267066
 31
0.0
  0
LINE
  5
C7DF
  8
0
  6
CONTINUOUS
 62
     7
 10
805.76705030609969
 20
987.19609426706609
 30
0.0
 11
817.11697030609957
 21
978.87236426706602
 31
0.0
  0
LINE
  5
C7E0
  8
0
  6
CONTINUOUS
 62
     7
 10
839.11691030609995
 20
934.03777426706608
 30
0.0
 11
844.11691030609995
 21
934.03777426706608
 31
0.0
  0
LINE
  5
C7E1
  8
0
  6
CONTINUOUS
 62
     7
 10
776.46646030610032
 20
976.67369426706591
 30
0.0
 11
814.70571030609983
 21
953.53124426706597
 31
0.0
  0
LINE
  5
C7E2
  8
0
  6
CONTINUOUS
 62
     7
 10
779.0553203060997
 20
988.16423426706604
 30
0.0
 11
802.8101403060997
 21
988.16423426706604
 31
0.0
  0
LINE
  5
C7E3
  8
0
  6
CONTINUOUS
 62
     7
 10
779.04605030609957
 20
986.38732426706622
 30
0.0
 11
814.61514030610022
 21
964.86083426706614
 31
0.0
  0
LINE
  5
C7E4
  8
0
  6
CONTINUOUS
 62
     7
 10
774.0553203060997
 20
980.95134426706602
 30
0.0
 11
774.0553203060997
 21
983.16423426706615
 31
0.0
  0
LINE
  5
C7E5
  8
0
  6
CONTINUOUS
 62
     7
 10
694.11691030609995
 20
1207.037774267066
 30
0.0
 11
810.27365030609985
 21
1211.094044267066
 31
0.0
  0
LINE
  5
C7E6
  8
0
  6
CONTINUOUS
 62
     7
 10
817.11691030609995
 20
1233.4410342670651
 30
0.0
 11
817.11691030609995
 21
914.63451426706615
 31
0.0
  0
LINE
  5
C7E7
  8
0
  6
CONTINUOUS
 62
     7
 10
844.11691030609995
 20
1044.037774267066
 30
0.0
 11
847.11685030609988
 21
1044.037774267066
 31
0.0
  0
LINE
  5
C7E8
  8
0
  6
CONTINUOUS
 62
     7
 10
813.63473030610021
 20
1212.555414267066
 30
0.0
 11
817.11697030609957
 21
1216.0377142670659
 31
0.0
  0
LINE
  5
C7E9
  8
0
  6
CONTINUOUS
 62
     7
 10
821.94253030609968
 20
1238.4379342670661
 30
0.0
 11
839.11697030609969
 21
1239.0377342670661
 31
0.0
  0
LINE
  5
C7EA
  8
0
  6
CONTINUOUS
 62
     7
 10
821.94247030609972
 20
909.63750426706576
 30
0.0
 11
839.11703030610022
 21
909.03771426706589
 31
0.0
  0
LINE
  5
C7EB
  8
0
  6
CONTINUOUS
 62
     7
 10
839.11691030609995
 20
1239.0377342670661
 30
0.0
 11
839.11691030609995
 21
909.03771426706589
 31
0.0
  0
LINE
  5
C7EC
  8
0
  6
CONTINUOUS
 62
     7
 10
839.11691030609995
 20
1214.037774267066
 30
0.0
 11
844.11691030609995
 21
1214.037774267066
 31
0.0
  0
LINE
  5
C7ED
  8
0
  6
CONTINUOUS
 62
     7
 10
844.11691030609995
 20
1214.037774267066
 30
0.0
 11
844.11691030609995
 21
934.03777426706608
 31
0.0
  0
LINE
  5
C7EE
  8
0
  6
CONTINUOUS
 62
     7
 10
826.11697030609957
 20
1198.3868942670661
 30
0.0
 11
826.11697030609957
 21
949.68865426706623
 31
0.0
  0
LINE
  5
C7EF
  8
0
  6
CONTINUOUS
 62
     7
 10
779.0553203060997
 20
1159.911304267066
 30
0.0
 11
802.8101403060997
 21
1159.911304267066
 31
0.0
  0
LINE
  5
C7F0
  8
0
  6
CONTINUOUS
 62
     7
 10
774.0553203060997
 20
1167.124134267066
 30
0.0
 11
774.0553203060997
 21
1164.911304267066
 31
0.0
  0
LINE
  5
C7F1
  8
0
  6
CONTINUOUS
 62
     7
 10
779.04605030609957
 20
1161.688164267066
 30
0.0
 11
814.61514030610022
 21
1183.2145942670661
 31
0.0
  0
LINE
  5
C7F2
  8
0
  6
CONTINUOUS
 62
     7
 10
776.46646030610032
 20
1171.401784267066
 30
0.0
 11
814.70571030609983
 21
1194.544244267066
 31
0.0
  0
ARC
  5
C7F3
  8
0
  6
CONTINUOUS
 62
     7
 10
676.11691030609973
 20
1074.037774267066
 30
0.0
 40
15.0
 50
90.000146000002957
 51
160.5287699999993
  0
ARC
  5
C7F4
  8
0
  6
CONTINUOUS
 62
     7
 10
676.11691030609973
 20
1074.037774267066
 30
0.0
 40
12.5
 50
23.578179999997541
 51
156.42182000000241
  0
ARC
  5
C7F5
  8
0
  6
CONTINUOUS
 62
     7
 10
656.11691030609973
 20
1074.037774267066
 30
0.0
 40
5.0
 50
90.00000299999769
 51
270.0
  0
ARC
  5
C7F6
  8
0
  6
CONTINUOUS
 62
     7
 10
696.11691030609973
 20
1074.037774267066
 30
0.0
 40
5.0
 50
270.0
 51
90.00000299999769
  0
ARC
  5
C7F7
  8
0
  6
CONTINUOUS
 62
     7
 10
676.11691030609973
 20
1074.037774267066
 30
0.0
 40
12.5
 50
203.5781799999975
 51
336.42182999999483
  0
ARC
  5
C7F8
  8
0
  6
CONTINUOUS
 62
     7
 10
676.11691030609973
 20
1074.037774267066
 30
0.0
 40
15.0
 50
199.4712300000007
 51
269.99984999999788
  0
ARC
  5
C7F9
  8
0
  6
CONTINUOUS
 62
     7
 10
626.11691030609973
 20
976.31047426706607
 30
0.0
 40
2.0
 50
269.999989999999
 51
0.0000006832560184
  0
ARC
  5
C7FA
  8
0
  6
CONTINUOUS
 62
     7
 10
626.11691030609973
 20
991.8668742670659
 30
0.0
 40
2.0
 50
269.999989999999
 51
0.0000006832560184
  0
ARC
  5
C7FB
  8
0
  6
CONTINUOUS
 62
     7
 10
626.11691030609973
 20
1156.2085442670659
 30
0.0
 40
2.0
 50
0.0
 51
90.00000299999769
  0
ARC
  5
C7FC
  8
0
  6
CONTINUOUS
 62
     7
 10
626.11691030609973
 20
1171.7649442670661
 30
0.0
 40
2.0
 50
0.0
 51
90.00000299999769
  0
ARC
  5
C7FD
  8
0
  6
CONTINUOUS
 62
     7
 10
630.11691030609973
 20
1188.0377142670659
 30
0.0
 40
2.0
 50
179.999989999999
 51
270.0
  0
ARC
  5
C7FE
  8
0
  6
CONTINUOUS
 62
     7
 10
626.11691030609973
 20
1192.037774267066
 30
0.0
 40
2.0
 50
0.0
 51
90.00000299999769
  0
ARC
  5
C7FF
  8
0
  6
CONTINUOUS
 62
     7
 10
626.11691030609973
 20
956.03777426706608
 30
0.0
 40
2.0
 50
269.999989999999
 51
0.0000006832560184
  0
ARC
  5
C800
  8
0
  6
CONTINUOUS
 62
     7
 10
630.11691030609973
 20
960.03777426706597
 30
0.0
 40
2.0
 50
90.00000299999769
 51
180.000010000001
  0
ARC
  5
C801
  8
0
  6
CONTINUOUS
 62
     7
 10
687.11685030610022
 20
944.28404426706607
 30
0.0
 40
3.0
 50
180.000010000001
 51
268.0000000000029
  0
ARC
  5
C802
  8
0
  6
CONTINUOUS
 62
     7
 10
687.11685030610022
 20
1203.7914942670659
 30
0.0
 40
3.0
 50
91.999998000000787
 51
180.000010000001
  0
ARC
  5
C803
  8
0
  6
CONTINUOUS
 62
     7
 10
679.61691030609961
 20
973.6088142670659
 30
0.0
 40
5.0
 50
180.000010000001
 51
224.9999999999954
  0
ARC
  5
C804
  8
0
  6
CONTINUOUS
 62
     7
 10
679.61691030609961
 20
1174.466724267066
 30
0.0
 40
5.0
 50
135.0000000000046
 51
180.000010000001
  0
ARC
  5
C805
  8
0
  6
CONTINUOUS
 62
     7
 10
679.11685030610022
 20
959.96672426706596
 30
0.0
 40
5.0
 50
0.0
 51
44.999998000001611
  0
ARC
  5
C806
  8
0
  6
CONTINUOUS
 62
     7
 10
679.11685030610022
 20
1188.108814267066
 30
0.0
 40
5.0
 50
315.0000000000046
 51
0.0
  0
ARC
  5
C807
  8
0
  6
CONTINUOUS
 62
     7
 10
676.1168503061001
 20
1051.037774267066
 30
0.0
 40
8.0
 50
0.0
 51
89.999858999997556
  0
ARC
  5
C808
  8
0
  6
CONTINUOUS
 62
     7
 10
676.1168503061001
 20
1097.037774267066
 30
0.0
 40
8.0
 50
270.00015000000212
 51
0.0
  0
ARC
  5
C809
  8
0
  6
CONTINUOUS
 62
     7
 10
669.61691030609973
 20
1055.1234642670661
 30
0.0
 40
5.0
 50
0.0
 51
71.034342999998159
  0
ARC
  5
C80A
  8
0
  6
CONTINUOUS
 62
     7
 10
669.61691030609973
 20
1092.952014267066
 30
0.0
 40
5.0
 50
288.9656600000028
 51
0.0
  0
ARC
  5
C80B
  8
0
  6
CONTINUOUS
 62
     7
 10
682.11685030610022
 20
960.03777426706597
 30
0.0
 40
2.0
 50
0.0
 51
90.00000299999769
  0
ARC
  5
C80C
  8
0
  6
CONTINUOUS
 62
     7
 10
682.11685030610022
 20
1188.0377142670659
 30
0.0
 40
2.0
 50
270.0
 51
0.0
  0
ARC
  5
C80D
  8
0
  6
CONTINUOUS
 62
     7
 10
802.8101403060997
 20
1164.911304267066
 30
0.0
 40
5.0
 50
270.0
 51
306.25554999999889
  0
ARC
  5
C80E
  8
0
  6
CONTINUOUS
 62
     7
 10
810.09915030609989
 20
931.98454426706598
 30
0.0
 40
5.0
 50
45.00000099999918
 51
88.000000000002998
  0
ARC
  5
C80F
  8
0
  6
CONTINUOUS
 62
     7
 10
810.09915030609989
 20
1216.090994267066
 30
0.0
 40
5.0
 50
271.99999999999699
 51
315.0000000000046
  0
ARC
  5
C810
  8
0
  6
CONTINUOUS
 62
     7
 10
822.11691030609973
 20
914.63451426706615
 30
0.0
 40
5.0
 50
179.999989999999
 51
268.00000999999878
  0
ARC
  5
C811
  8
0
  6
CONTINUOUS
 62
     7
 10
867.11691030609995
 20
1074.0377142670659
 30
0.0
 40
8.0000113999999982
 50
90.00000299999769
 51
270.0
  0
ARC
  5
C812
  8
0
  6
CONTINUOUS
 62
     7
 10
779.0553203060997
 20
1167.124134267066
 30
0.0
 40
5.0
 50
121.1823599999997
 51
180.000010000001
  0
ARC
  5
C813
  8
0
  6
CONTINUOUS
 62
     7
 10
812.11691030610007
 20
1198.8218242670659
 30
0.0
 40
5.0
 50
301.18235999999968
 51
0.0
  0
ARC
  5
C814
  8
0
  6
CONTINUOUS
 62
     7
 10
779.0553203060997
 20
1164.911304267066
 30
0.0
 40
5.0
 50
179.999989999999
 51
270.0
  0
ARC
  5
C815
  8
0
  6
CONTINUOUS
 62
     7
 10
779.0553203060997
 20
983.16423426706615
 30
0.0
 40
5.0
 50
90.00000299999769
 51
180.000010000001
  0
ARC
  5
C816
  8
0
  6
CONTINUOUS
 62
     7
 10
812.11691030610007
 20
949.25365426706628
 30
0.0
 40
5.0
 50
0.0
 51
58.817640999998339
  0
ARC
  5
C817
  8
0
  6
CONTINUOUS
 62
     7
 10
779.0553203060997
 20
980.95134426706602
 30
0.0
 40
5.0
 50
179.999989999999
 51
238.81764999999371
  0
ARC
  5
C818
  8
0
  6
CONTINUOUS
 62
     7
 10
818.11691030609995
 20
1007.7011042670659
 30
0.0
 40
8.0
 50
270.0
 51
0.0
  0
ARC
  5
C819
  8
0
  6
CONTINUOUS
 62
     7
 10
802.8101403060997
 20
983.16423426706615
 30
0.0
 40
5.0
 50
53.744452999999368
 51
90.00000299999769
  0
ARC
  5
C81A
  8
0
  6
CONTINUOUS
 62
     7
 10
818.11691030609995
 20
949.68865426706623
 30
0.0
 40
8.0
 50
270.0
 51
0.0
  0
ARC
  5
C81B
  8
0
  6
CONTINUOUS
 62
     7
 10
822.11691030609973
 20
1233.4410342670651
 30
0.0
 40
5.0
 50
91.999998000000787
 51
180.000010000001
  0
ARC
  5
C81C
  8
0
  6
CONTINUOUS
 62
     7
 10
818.11691030609995
 20
1140.374384267066
 30
0.0
 40
8.0
 50
0.0
 51
90.00000299999769
  0
ARC
  5
C81D
  8
0
  6
CONTINUOUS
 62
     7
 10
818.11691030609995
 20
1198.3868942670661
 30
0.0
 40
8.0
 50
0.0
 51
90.00000299999769
  0
POLYLINE
  5
C81E
  8
0
  6
CONTINUOUS
 62
     7
 66
     1
 10
0.0
 20
0.0
 30
0.0
  0
VERTEX
  5
C81F
  8
0
  6
CONTINUOUS
 62
     7
 10
807.2004503060997
 20
958.07347426706554
 30
0.0
 42
0.0020909347
  0
VERTEX
  5
C820
  8
0
  6
CONTINUOUS
 62
     7
 10
808.16630030609986
 20
951.03296426706595
 30
0.0
 42
0.0020881749
  0
VERTEX
  5
C821
  8
0
  6
CONTINUOUS
 62
     7
 10
809.19088030610021
 20
944.00134426706609
 30
0.0
 42
0.0020849591
  0
VERTEX
  5
C822
  8
0
  6
CONTINUOUS
 62
     7
 10
810.27365030609985
 20
936.98149426706607
 30
0.0
  0
SEQEND
  5
C823
  8
0
 62
     7
  0
POLYLINE
  5
C824
  8
0
  6
CONTINUOUS
 62
     7
 66
     1
 10
0.0
 20
0.0
 30
0.0
  0
VERTEX
  5
C825
  8
0
  6
CONTINUOUS
 62
     7
 10
805.01974030609995
 20
1160.4260242670659
 30
0.0
 42
0.01720808
  0
VERTEX
  5
C826
  8
0
  6
CONTINUOUS
 62
     7
 10
800.60347030610012
 20
1103.050834267066
 30
0.0
 42
0.0088311605
  0
VERTEX
  5
C827
  8
0
  6
CONTINUOUS
 62
     7
 10
799.88662030609964
 20
1074.037774267066
 30
0.0
 42
0.025919753
  0
VERTEX
  5
C828
  8
0
  6
CONTINUOUS
 62
     7
 10
803.75545030610022
 20
988.07408426706593
 30
0.0
  0
SEQEND
  5
C829
  8
0
 62
     7
  0
POLYLINE
  5
C82A
  8
0
  6
CONTINUOUS
 62
     7
 66
     1
 10
0.0
 20
0.0
 30
0.0
  0
VERTEX
  5
C82B
  8
0
  6
CONTINUOUS
 62
     7
 10
812.24203030610033
 20
1211.162774267066
 30
0.0
  0
VERTEX
  5
C82C
  8
0
  6
CONTINUOUS
 62
     7
 10
809.01177030609995
 20
1191.098264267066
 30
0.0
 42
-1.0
  0
SEQEND
  5
C82D
  8
0
 62
     7
  0
LINE
  5
C892
  8
0
  6
CONTINUOUS
 62
     7
 10
847.11679030609969
 20
657.48438314125531
 30
0.0
 11
929.11685030609988
 21
657.48438314125531
 31
0.0
  0
LINE
  5
C893
  8
0
  6
CONTINUOUS
 62
     7
 10
929.11685030609988
 20
661.48434314125529
 30
0.0
 11
929.11685030609988
 21
602.48438314125531
 31
0.0
  0
LINE
  5
C894
  8
0
  6
CONTINUOUS
 62
     7
 10
847.11679030609969
 20
602.48438314125531
 30
0.0
 11
929.11685030609988
 21
602.48438314125531
 31
0.0
  0
LINE
  5
C895
  8
0
  6
CONTINUOUS
 62
     7
 10
867.11679030610003
 20
661.48434314125529
 30
0.0
 11
929.11685030609988
 21
661.48434314125529
 31
0.0
  0
LINE
  5
C896
  8
0
  6
CONTINUOUS
 62
     7
 10
867.11679030610003
 20
661.48434314125529
 30
0.0
 11
867.11679030610003
 21
657.48438314125531
 31
0.0
  0
LINE
  5
C897
  8
0
  6
CONTINUOUS
 62
     7
 10
628.11679030610014
 20
498.30948314125533
 30
0.0
 11
674.61685030609988
 21
498.30948314125533
 31
0.0
  0
LINE
  5
C898
  8
0
  6
CONTINUOUS
 62
     7
 10
628.11679030610014
 20
514.05154314125502
 30
0.0
 11
674.61685030609988
 21
514.05154314125502
 31
0.0
  0
LINE
  5
C899
  8
0
  6
CONTINUOUS
 62
     7
 10
628.11679030610014
 20
655.91718314125524
 30
0.0
 11
674.61685030609988
 21
655.91718314125524
 31
0.0
  0
LINE
  5
C89A
  8
0
  6
CONTINUOUS
 62
     7
 10
628.11679030610014
 20
671.65924314125527
 30
0.0
 11
674.61685030609988
 21
671.65924314125527
 31
0.0
  0
LINE
  5
C89B
  8
0
  6
CONTINUOUS
 62
     7
 10
683.3409103061
 20
729.75925314125516
 30
0.0
 11
675.39273030610002
 21
717.20947314125522
 31
0.0
  0
LINE
  5
C89C
  8
0
  6
CONTINUOUS
 62
     7
 10
659.11679030609969
 20
696.98434314125507
 30
0.0
 11
672.61685030609999
 21
696.98434314125507
 31
0.0
  0
LINE
  5
C89D
  8
0
  6
CONTINUOUS
 62
     7
 10
674.61685030609988
 20
714.53421314125535
 30
0.0
 11
674.61685030609988
 21
467.43452314125511
 31
0.0
  0
LINE
  5
C89E
  8
0
  6
CONTINUOUS
 62
     7
 10
630.11685030609965
 20
696.98434314125507
 30
0.0
 11
659.11679030609969
 21
696.98434314125507
 31
0.0
  0
LINE
  5
C89F
  8
0
  6
CONTINUOUS
 62
     7
 10
628.11679030610014
 20
702.98438314125497
 30
0.0
 11
628.11679030610014
 21
466.9843631412553
 31
0.0
  0
LINE
  5
C8A0
  8
0
  6
CONTINUOUS
 62
     7
 10
630.11685030609965
 20
472.98438314125508
 30
0.0
 11
672.24539030610049
 21
472.98438314125508
 31
0.0
  0
LINE
  5
C8A1
  8
0
  6
CONTINUOUS
 62
     7
 10
686.04696030609966
 20
751.70258314125522
 30
0.0
 11
693.81686030610001
 21
751.97391314125514
 31
0.0
  0
LINE
  5
C8A2
  8
0
  6
CONTINUOUS
 62
     7
 10
666.11685030609988
 20
751.98434314125507
 30
0.0
 11
693.81680030610005
 21
751.98434314125507
 31
0.0
  0
LINE
  5
C8A3
  8
0
  6
CONTINUOUS
 62
     7
 10
661.1168503061001
 20
746.98434314125507
 30
0.0
 11
661.1168503061001
 21
698.98434314125518
 31
0.0
  0
LINE
  5
C8A4
  8
0
  6
CONTINUOUS
 62
     7
 10
684.11679030609969
 20
749.70377314125506
 30
0.0
 11
684.11679030609969
 21
439.26494314125512
 31
0.0
  0
LINE
  5
C8A5
  8
0
  6
CONTINUOUS
 62
     7
 10
666.32278030610007
 20
760.98434314125507
 30
0.0
 11
685.91085030610009
 21
760.98434314125507
 31
0.0
  0
LINE
  5
C8A6
  8
0
  6
CONTINUOUS
 62
     7
 10
663.4021903060999
 20
751.18323314125496
 30
0.0
 11
665.86734030610023
 21
760.38327314125524
 31
0.0
  0
LINE
  5
C8A7
  8
0
  6
CONTINUOUS
 62
     7
 10
688.61685030609999
 20
751.98434314125507
 30
0.0
 11
686.36636030610009
 21
760.38333314125521
 31
0.0
  0
LINE
  5
C8A8
  8
0
  6
CONTINUOUS
 62
     7
 10
666.63876030610004
 20
761.10529314125495
 30
0.0
 11
676.11685030609999
 21
762.98428314125522
 31
0.0
  0
LINE
  5
C8A9
  8
0
  6
CONTINUOUS
 62
     7
 10
676.11679030610014
 20
762.98438314125519
 30
0.0
 11
685.59481030610004
 21
761.10538314125517
 31
0.0
  0
LINE
  5
C8AA
  8
0
  6
CONTINUOUS
 62
     7
 10
693.81680030610005
 20
751.98434314125507
 30
0.0
 11
694.11679030610003
 21
751.98434314125507
 31
0.0
  0
LINE
  5
C8AB
  8
0
  6
CONTINUOUS
 62
     7
 10
684.11679030609969
 20
638.4507431412552
 30
0.0
 11
811.71811030610002
 21
638.4507431412552
 31
0.0
  0
LINE
  5
C8AC
  8
0
  6
CONTINUOUS
 62
     7
 10
734.11679030610003
 20
505.230293141255
 30
0.0
 11
734.11679030610003
 21
490.58543314125541
 31
0.0
  0
LINE
  5
C8AD
  8
0
  6
CONTINUOUS
 62
     7
 10
694.11679030610003
 20
436.98436314125507
 30
0.0
 11
775.96011030610032
 21
434.84122314125511
 31
0.0
  0
LINE
  5
C8AE
  8
0
  6
CONTINUOUS
 62
     7
 10
802.70755030609985
 20
757.57510314125523
 30
0.0
 11
817.11679030610003
 21
771.98438314125519
 31
0.0
  0
LINE
  5
C8AF
  8
0
  6
CONTINUOUS
 62
     7
 10
694.11679030610003
 20
751.98434314125507
 30
0.0
 11
694.11679030610003
 21
436.98436314125507
 31
0.0
  0
LINE
  5
C8B0
  8
0
  6
CONTINUOUS
 62
     7
 10
821.94229030610006
 20
794.38464314125497
 30
0.0
 11
839.11679030609969
 21
794.98438314125497
 31
0.0
  0
LINE
  5
C8B1
  8
0
  6
CONTINUOUS
 62
     7
 10
822.11679030609969
 20
464.9843631412553
 30
0.0
 11
839.11679030609969
 21
464.9843631412553
 31
0.0
  0
LINE
  5
C8B2
  8
0
  6
CONTINUOUS
 62
     7
 10
694.11685030609999
 20
751.98438314125508
 30
0.0
 11
795.89828030609965
 21
754.64960314125506
 31
0.0
  0
LINE
  5
C8B3
  8
0
  6
CONTINUOUS
 62
     7
 10
739.11679030610003
 20
510.23029314125529
 30
0.0
 11
817.11679030610003
 21
510.23029314125529
 31
0.0
  0
LINE
  5
C8B4
  8
0
  6
CONTINUOUS
 62
     7
 10
739.11679030610003
 20
485.58543314125473
 30
0.0
 11
817.11679030610003
 21
485.58543314125473
 31
0.0
  0
LINE
  5
C8B5
  8
0
  6
CONTINUOUS
 62
     7
 10
817.11679030610003
 20
789.38763314125515
 30
0.0
 11
817.11679030610003
 21
595.72101314125518
 31
0.0
  0
LINE
  5
C8B6
  8
0
  6
CONTINUOUS
 62
     7
 10
839.11679030609969
 20
794.98438314125497
 30
0.0
 11
839.11679030609969
 21
464.9843631412553
 31
0.0
  0
LINE
  5
C8B7
  8
0
  6
CONTINUOUS
 62
     7
 10
839.11679030609969
 20
489.9843631412553
 30
0.0
 11
844.11679030610003
 21
489.9843631412553
 31
0.0
  0
LINE
  5
C8B8
  8
0
  6
CONTINUOUS
 62
     7
 10
839.11679030609969
 20
769.98438314125497
 30
0.0
 11
844.11679030610003
 21
769.98438314125497
 31
0.0
  0
LINE
  5
C8B9
  8
0
  6
CONTINUOUS
 62
     7
 10
844.11679030610003
 20
769.98438314125497
 30
0.0
 11
844.11679030610003
 21
489.9843631412553
 31
0.0
  0
LINE
  5
C8BA
  8
0
  6
CONTINUOUS
 62
     7
 10
781.22195030609976
 20
436.17754314125511
 30
0.0
 11
831.11685030609988
 21
464.9843631412553
 31
0.0
  0
LINE
  5
C8BB
  8
0
  6
CONTINUOUS
 62
     7
 10
684.11679030609969
 20
536.65518314125529
 30
0.0
 11
817.11679030610003
 21
536.65518314125529
 31
0.0
  0
LINE
  5
C8BC
  8
0
  6
CONTINUOUS
 62
     7
 10
826.11685030609965
 20
754.33350314125505
 30
0.0
 11
826.11685030609965
 21
505.63522314125521
 31
0.0
  0
LINE
  5
C8BD
  8
0
  6
CONTINUOUS
 62
     7
 10
817.11679030610003
 20
537.71048314125539
 30
0.0
 11
817.11679030610003
 21
469.98436314125519
 31
0.0
  0
LINE
  5
C8BE
  8
0
  6
CONTINUOUS
 62
     7
 10
816.44351030610005
 20
587.49628314125528
 30
0.0
 11
804.53970030609958
 21
715.85791314125515
 31
0.0
  0
LINE
  5
C8BF
  8
0
  6
CONTINUOUS
 62
     7
 10
774.05520030610001
 20
723.07077314125524
 30
0.0
 11
774.05520030610001
 21
720.85791314125515
 31
0.0
  0
LINE
  5
C8C0
  8
0
  6
CONTINUOUS
 62
     7
 10
779.04593030609965
 20
717.63480314125513
 30
0.0
 11
814.61502030610029
 21
739.16122314125505
 31
0.0
  0
LINE
  5
C8C1
  8
0
  6
CONTINUOUS
 62
     7
 10
779.05520030610001
 20
715.85791314125515
 30
0.0
 11
802.81002030609989
 21
715.85791314125515
 31
0.0
  0
LINE
  5
C8C2
  8
0
  6
CONTINUOUS
 62
     7
 10
776.46634030610016
 20
727.34842314125524
 30
0.0
 11
814.70559030610002
 21
750.49088314125515
 31
0.0
  0
LINE
  5
C8C3
  8
0
  6
CONTINUOUS
 62
     7
 10
805.76693030609988
 20
716.82599314125537
 30
0.0
 11
817.11685030609965
 21
725.14975314125513
 31
0.0
  0
LINE
  5
C8C4
  8
0
  6
CONTINUOUS
 62
     7
 10
801.91476030609965
 20
744.16376314125523
 30
0.0
 11
800.84384030609988
 21
755.71136314125522
 31
0.0
  0
LINE
  5
C8C5
  8
0
  6
CONTINUOUS
 62
     7
 10
686.04696030609966
 20
437.26616314125511
 30
0.0
 11
694.11685030609999
 21
436.98436314125507
 31
0.0
  0
LINE
  5
C8C6
  8
0
  6
CONTINUOUS
 62
     7
 10
683.34097030610008
 20
452.20947314125527
 30
0.0
 11
675.3927903061001
 21
464.75925314125521
 31
0.0
  0
LINE
  5
C8C7
  8
0
  6
CONTINUOUS
 62
     7
 10
844.11679030610003
 20
659.98438314125519
 30
0.0
 11
847.11679030609969
 21
659.98438314125519
 31
0.0
  0
LINE
  5
C8C8
  8
0
  6
CONTINUOUS
 62
     7
 10
844.11679030610003
 20
599.98438314125531
 30
0.0
 11
847.11679030609969
 21
599.98438314125531
 31
0.0
  0
LINE
  5
C8C9
  8
0
  6
CONTINUOUS
 62
     7
 10
847.11679030609969
 20
659.98438314125519
 30
0.0
 11
847.11679030609969
 21
599.98438314125531
 31
0.0
  0
ARC
  5
C8CA
  8
0
  6
CONTINUOUS
 62
     7
 10
679.61685030609965
 20
467.43452314125511
 30
0.0
 40
5.0
 50
179.999989999999
 51
212.3474399999966
  0
ARC
  5
C8CB
  8
0
  6
CONTINUOUS
 62
     7
 10
672.61685030609999
 20
470.98436314125507
 30
0.0
 40
2.0
 50
0.0
 51
90.00000299999769
  0
ARC
  5
C8CC
  8
0
  6
CONTINUOUS
 62
     7
 10
672.61685030609999
 20
698.98434314125518
 30
0.0
 40
2.0
 50
270.0
 51
0.0
  0
ARC
  5
C8CD
  8
0
  6
CONTINUOUS
 62
     7
 10
659.11679030609969
 20
698.98434314125518
 30
0.0
 40
2.0
 50
270.0
 51
0.0
  0
ARC
  5
C8CE
  8
0
  6
CONTINUOUS
 62
     7
 10
630.11685030609965
 20
470.98436314125507
 30
0.0
 40
2.0
 50
90.00000299999769
 51
180.000010000001
  0
ARC
  5
C8CF
  8
0
  6
CONTINUOUS
 62
     7
 10
626.11685030609999
 20
466.9843631412553
 30
0.0
 40
2.0
 50
270.0
 51
0.0
  0
ARC
  5
C8D0
  8
0
  6
CONTINUOUS
 62
     7
 10
679.61685030609965
 20
714.53421314125535
 30
0.0
 40
5.0
 50
147.65256000000329
 51
180.000010000001
  0
ARC
  5
C8D1
  8
0
  6
CONTINUOUS
 62
     7
 10
679.11679030610003
 20
732.43451314125514
 30
0.0
 40
5.0
 50
327.6525600000034
 51
0.0
  0
ARC
  5
C8D2
  8
0
  6
CONTINUOUS
 62
     7
 10
666.11685030609988
 20
746.98434314125507
 30
0.0
 40
5.0
 50
90.00000299999769
 51
180.000010000001
  0
ARC
  5
C8D3
  8
0
  6
CONTINUOUS
 62
     7
 10
626.11685030609999
 20
702.98438314125497
 30
0.0
 40
2.0
 50
0.0
 51
90.00000299999769
  0
ARC
  5
C8D4
  8
0
  6
CONTINUOUS
 62
     7
 10
630.11685030609965
 20
698.98434314125518
 30
0.0
 40
2.0
 50
179.999989999999
 51
270.0
  0
ARC
  5
C8D5
  8
0
  6
CONTINUOUS
 62
     7
 10
686.1168503061001
 20
749.70377314125506
 30
0.0
 40
2.0
 50
91.999998000000545
 51
180.000010000001
  0
CIRCLE
  5
C8D6
  8
0
  6
CONTINUOUS
 62
     7
 10
676.11685030609999
 20
777.98438314125497
 30
0.0
 40
15.0
  0
ARC
  5
C8D7
  8
0
  6
CONTINUOUS
 62
     7
 10
676.11685030609999
 20
777.98438314125497
 30
0.0
 40
25.0
 50
306.46672000000018
 51
233.53329000000349
  0
ARC
  5
C8D8
  8
0
  6
CONTINUOUS
 62
     7
 10
666.8332203061002
 20
760.12445314125523
 30
0.0
 40
1.0
 50
101.21328999999881
 51
164.999990000005
  0
ARC
  5
C8D9
  8
0
  6
CONTINUOUS
 62
     7
 10
685.40042030610005
 20
760.12445314125523
 30
0.0
 40
1.0
 50
15.000000000000741
 51
78.786710000001207
  0
ARC
  5
C8DA
  8
0
  6
CONTINUOUS
 62
     7
 10
657.69180030610005
 20
753.05411314125536
 30
0.0
 40
6.0
 50
349.72994999999878
 51
53.533291000004859
  0
ARC
  5
C8DB
  8
0
  6
CONTINUOUS
 62
     7
 10
694.54184030610031
 20
753.05411314125536
 30
0.0
 40
6.0
 50
126.46669999999671
 51
190.27005999999921
  0
ARC
  5
C8DC
  8
0
  6
CONTINUOUS
 62
     7
 10
626.11685030609999
 20
682.71158314125523
 30
0.0
 40
2.0
 50
0.0
 51
90.00000299999769
  0
ARC
  5
C8DD
  8
0
  6
CONTINUOUS
 62
     7
 10
626.11685030609999
 20
667.15521314125522
 30
0.0
 40
2.0
 50
0.0
 51
90.00000299999769
  0
ARC
  5
C8DE
  8
0
  6
CONTINUOUS
 62
     7
 10
626.11685030609999
 20
502.81351314125521
 30
0.0
 40
2.0
 50
270.0
 51
0.0
  0
ARC
  5
C8DF
  8
0
  6
CONTINUOUS
 62
     7
 10
626.11685030609999
 20
487.25716314125521
 30
0.0
 40
2.0
 50
270.0
 51
0.0
  0
ARC
  5
C8E0
  8
0
  6
CONTINUOUS
 62
     7
 10
739.11679030610003
 20
490.58543314125541
 30
0.0
 40
5.0
 50
179.999989999999
 51
270.0
  0
ARC
  5
C8E1
  8
0
  6
CONTINUOUS
 62
     7
 10
822.11679030609969
 20
789.38763314125515
 30
0.0
 40
5.0
 50
91.999998000000545
 51
180.000010000001
  0
ARC
  5
C8E2
  8
0
  6
CONTINUOUS
 62
     7
 10
822.11679030609969
 20
469.98436314125519
 30
0.0
 40
5.0
 50
179.999989999999
 51
270.0
  0
ARC
  5
C8E3
  8
0
  6
CONTINUOUS
 62
     7
 10
739.11679030610003
 20
505.230293141255
 30
0.0
 40
5.0
 50
90.00000299999769
 51
180.000010000001
  0
ARC
  5
C8E4
  8
0
  6
CONTINUOUS
 62
     7
 10
818.11679030610003
 20
545.64772314125514
 30
0.0
 40
8.0
 50
270.0
 51
0.0
  0
ARC
  5
C8E5
  8
0
  6
CONTINUOUS
 62
     7
 10
818.11679030610003
 20
505.63522314125521
 30
0.0
 40
8.0
 50
270.0
 51
0.0
  0
ARC
  5
C8E6
  8
0
  6
CONTINUOUS
 62
     7
 10
818.11679030610003
 20
696.32101314125521
 30
0.0
 40
8.0
 50
0.0
 51
90.00000299999769
  0
ARC
  5
C8E7
  8
0
  6
CONTINUOUS
 62
     7
 10
818.11679030610003
 20
754.33350314125505
 30
0.0
 40
8.0
 50
0.0
 51
90.00000299999769
  0
ARC
  5
C8E8
  8
0
  6
CONTINUOUS
 62
     7
 10
824.40921030609991
 20
588.23499314125525
 30
0.0
 40
8.0
 50
185.2982400000015
 51
270.0
  0
ARC
  5
C8E9
  8
0
  6
CONTINUOUS
 62
     7
 10
795.63650030610017
 20
764.64615314125524
 30
0.0
 40
10.0
 50
271.50000000000267
 51
315.0
  0
ARC
  5
C8EA
  8
0
  6
CONTINUOUS
 62
     7
 10
776.22195030609987
 20
444.83780314125511
 30
0.0
 40
10.0
 50
268.49999999999733
 51
300.00000000000051
  0
ARC
  5
C8EB
  8
0
  6
CONTINUOUS
 62
     7
 10
802.81002030609989
 20
720.85791314125515
 30
0.0
 40
5.0
 50
270.0
 51
306.25554999999889
  0
ARC
  5
C8EC
  8
0
  6
CONTINUOUS
 62
     7
 10
779.05520030610001
 20
720.85791314125515
 30
0.0
 40
5.0
 50
179.999989999999
 51
270.0
  0
ARC
  5
C8ED
  8
0
  6
CONTINUOUS
 62
     7
 10
779.05520030610001
 20
723.07077314125524
 30
0.0
 40
5.0
 50
121.18235999999629
 51
180.000010000001
  0
ARC
  5
C8EE
  8
0
  6
CONTINUOUS
 62
     7
 10
812.11679030610014
 20
754.7684631412551
 30
0.0
 40
5.0
 50
301.18235999999632
 51
0.0
  0
ARC
  5
C8EF
  8
0
  6
CONTINUOUS
 62
     7
 10
686.1168503061001
 20
439.26494314125512
 30
0.0
 40
2.0
 50
179.999989999999
 51
268.00000999999861
  0
ARC
  5
C8F0
  8
0
  6
CONTINUOUS
 62
     7
 10
679.11679030610003
 20
449.53423314125507
 30
0.0
 40
5.0
 50
0.0
 51
32.347444999999489
  0
LINE
  5
C983
  8
0
  6
CONTINUOUS
 62
     7
 10
1218.423611904461
 20
797.98437314125522
 30
0.0
 11
1218.423611904461
 21
794.98442314125509
 31
0.0
  0
LINE
  5
C984
  8
0
  6
CONTINUOUS
 62
     7
 10
1228.4235819044609
 20
797.98437314125522
 30
0.0
 11
1228.4235819044609
 21
794.98442314125509
 31
0.0
  0
LINE
  5
C985
  8
0
  6
CONTINUOUS
 62
     7
 10
1231.4235819044609
 20
651.48438814125495
 30
0.0
 11
1231.4235819044609
 21
661.48438814125529
 31
0.0
  0
LINE
  5
C986
  8
0
  6
CONTINUOUS
 62
     7
 10
1215.4235819044609
 20
651.48438814125495
 30
0.0
 11
1215.4235819044609
 21
661.48438814125529
 31
0.0
  0
LINE
  5
C987
  8
0
  6
CONTINUOUS
 62
     7
 10
1215.4235819044609
 20
661.48438814125529
 30
0.0
 11
1231.4235819044609
 21
661.48438814125529
 31
0.0
  0
LINE
  5
C988
  8
0
  6
CONTINUOUS
 62
     7
 10
1215.4235819044609
 20
651.48438814125495
 30
0.0
 11
1231.4235819044609
 21
651.48438814125495
 31
0.0
  0
LINE
  5
C989
  8
0
  6
CONTINUOUS
 62
     7
 10
1168.4235819044609
 20
794.98437314125522
 30
0.0
 11
1081.884731904461
 21
790.4490731412551
 31
0.0
  0
LINE
  5
C98A
  8
0
  6
CONTINUOUS
 62
     7
 10
1058.4235819044609
 20
574.98438314125531
 30
0.0
 11
1062.958886904461
 21
488.44556314125532
 31
0.0
  0
LINE
  5
C98B
  8
0
  6
CONTINUOUS
 62
     7
 10
1388.4235830970399
 20
574.98440232714017
 30
0.0
 11
1383.8882730970411
 21
488.4455823271403
 31
0.0
  0
LINE
  5
C98C
  8
0
  6
CONTINUOUS
 62
     7
 10
1388.4235830970399
 20
684.98443732714031
 30
0.0
 11
1383.88828809704
 21
771.52319232714024
 31
0.0
  0
LINE
  5
C98D
  8
0
  6
CONTINUOUS
 62
     7
 10
1278.4235819044609
 20
464.98438314125508
 30
0.0
 11
1364.962431904461
 21
469.51969314125512
 31
0.0
  0
LINE
  5
C98E
  8
0
  6
CONTINUOUS
 62
     7
 10
1278.4235819044609
 20
794.98442314125509
 30
0.0
 11
1364.9624019044611
 21
790.4490731412551
 31
0.0
  0
LINE
  5
C98F
  8
0
  6
CONTINUOUS
 62
     7
 10
1058.423611904461
 20
684.98441814125522
 30
0.0
 11
1062.958921904461
 21
771.52317314125526
 31
0.0
  0
LINE
  5
C990
  8
0
  6
CONTINUOUS
 62
     7
 10
1101.7471269044611
 20
508.30789814125529
 30
0.0
 11
1071.307066904461
 21
477.86786814125497
 31
0.0
  0
LINE
  5
C991
  8
0
  6
CONTINUOUS
 62
     7
 10
1163.1496869044611
 20
681.77299314125537
 30
0.0
 11
1129.7158769044611
 21
715.20679814125515
 31
0.0
  0
LINE
  5
C992
  8
0
  6
CONTINUOUS
 62
     7
 10
1171.6349769044609
 20
690.25828314125511
 30
0.0
 11
1138.201171904461
 21
723.69208814125523
 31
0.0
  0
LINE
  5
C993
  8
0
  6
CONTINUOUS
 62
     7
 10
1346.0020769044611
 20
752.56282314125519
 30
0.0
 11
1375.5401019044609
 21
782.10087314125508
 31
0.0
  0
LINE
  5
C994
  8
0
  6
CONTINUOUS
 62
     7
 10
1283.697446904461
 20
681.77299314125537
 30
0.0
 11
1317.1312869044609
 21
715.20682814125507
 31
0.0
  0
LINE
  5
C995
  8
0
  6
CONTINUOUS
 62
     7
 10
1298.4235819044609
 20
629.98438314125531
 30
0.0
 11
1298.4235819044609
 21
619.98438314125531
 31
0.0
  0
LINE
  5
C996
  8
0
  6
CONTINUOUS
 62
     7
 10
1345.100051904461
 20
508.30793314125532
 30
0.0
 11
1375.540116904461
 21
477.8678531412553
 31
0.0
  0
LINE
  5
C997
  8
0
  6
CONTINUOUS
 62
     7
 10
1148.423611904461
 20
629.98438314125531
 30
0.0
 11
1148.423611904461
 21
619.98438314125531
 31
0.0
  0
LINE
  5
C998
  8
0
  6
CONTINUOUS
 62
     7
 10
1275.2121569044609
 20
690.25828314125511
 30
0.0
 11
1308.6459969044611
 21
723.69211814125515
 31
0.0
  0
LINE
  5
C999
  8
0
  6
CONTINUOUS
 62
     7
 10
1388.42359809704
 20
574.98440232714017
 30
0.0
 11
1388.42359809704
 21
684.98440732714027
 31
0.0
  0
LINE
  5
C99A
  8
0
  6
CONTINUOUS
 62
     7
 10
1168.4235819044609
 20
464.98439814125533
 30
0.0
 11
1081.8847919044611
 21
469.51969314125512
 31
0.0
  0
LINE
  5
C99B
  8
0
  6
CONTINUOUS
 62
     7
 10
1058.423611904461
 20
574.98438314125531
 30
0.0
 11
1058.423611904461
 21
684.98438814125495
 31
0.0
  0
LINE
  5
C99C
  8
0
  6
CONTINUOUS
 62
     7
 10
1168.423611904461
 20
794.98442314125509
 30
0.0
 11
1278.4235819044609
 21
794.98442314125509
 31
0.0
  0
LINE
  5
C99D
  8
0
  6
CONTINUOUS
 62
     7
 10
1168.423611904461
 20
464.98438314125508
 30
0.0
 11
1278.4235819044609
 21
464.98438314125508
 31
0.0
  0
LINE
  5
C99E
  8
0
  6
CONTINUOUS
 62
     7
 10
1350.029281904461
 20
614.98438314125531
 30
0.0
 11
1303.4235819044609
 21
614.98438314125531
 31
0.0
  0
LINE
  5
C99F
  8
0
  6
CONTINUOUS
 62
     7
 10
1096.817926904461
 20
614.98438314125531
 30
0.0
 11
1143.423611904461
 21
614.98438314125531
 31
0.0
  0
LINE
  5
C9A0
  8
0
  6
AM_ISO08W050
 10
1047.441891904461
 20
629.98438314125531
 30
0.0
 11
1400.850176904461
 21
629.98438314125531
 31
0.0
  0
LINE
  5
C9A1
  8
0
  6
CONTINUOUS
 62
     7
 10
1292.623856904461
 20
436.48284314125527
 30
0.0
 11
1315.398726904461
 21
452.42996814125519
 31
0.0
  0
LINE
  5
C9A2
  8
0
  6
CONTINUOUS
 62
     7
 10
1161.5765669044611
 20
434.16438814125519
 30
0.0
 11
1285.2705969044609
 21
434.16438814125519
 31
0.0
  0
LINE
  5
C9A3
  8
0
  6
AM_ISO08W050
 10
1223.423611904461
 20
422.9592031412551
 30
0.0
 11
1223.423611904461
 21
812.71364621828434
 31
0.0
  0
LINE
  5
C9A4
  8
0
  6
CONTINUOUS
 62
     7
 10
1100.0734519044611
 20
753.33452314125509
 30
0.0
 11
1071.3070969044611
 21
782.10087314125508
 31
0.0
  0
LINE
  5
C9A5
  8
0
  6
CONTINUOUS
 62
     7
 10
1154.2233269044609
 20
436.48284314125527
 30
0.0
 11
1131.4484519044611
 21
452.42999814125528
 31
0.0
  0
ARC
  5
C9A6
  8
0
  6
CONTINUOUS
 62
     7
 10
1223.423611904461
 20
797.98437314125522
 30
0.0
 40
5.0
 50
359.999989999999
 51
179.999989999999
  0
ARC
  5
C9A7
  8
0
  6
CONTINUOUS
 62
     7
 10
1223.423611904461
 20
629.98438314125531
 30
0.0
 40
27.500000499999999
 50
106.91239000000481
 51
73.087597000012295
  0
CIRCLE
  5
C9A8
  8
0
  6
CONTINUOUS
 62
     7
 10
1223.423611904461
 20
629.98438314125531
 30
0.0
 40
4.500000049999997
  0
CIRCLE
  5
C9A9
  8
0
  6
CONTINUOUS
 62
     7
 10
1223.423611904461
 20
629.98438314125531
 30
0.0
 40
6.0
  0
ARC
  5
C9AA
  8
0
  6
CONTINUOUS
 62
     7
 10
1350.029281904461
 20
619.98438314125531
 30
0.0
 40
5.0
 50
270.0
 51
355.48384999999178
  0
ARC
  5
C9AB
  8
0
  6
CONTINUOUS
 62
     7
 10
1082.931516904461
 20
489.49228814125519
 30
0.0
 40
20.000000499999999
 50
183.00001000000651
 51
266.99999999999432
  0
ARC
  5
C9AC
  8
0
  6
CONTINUOUS
 62
     7
 10
1223.423611904461
 20
629.98438314125531
 30
0.0
 40
75.0
 50
0.0
 51
37.096793000006002
  0
ARC
  5
C9AD
  8
0
  6
CONTINUOUS
 62
     7
 10
1363.9156969044609
 20
489.49228814125519
 30
0.0
 40
20.000000499999999
 50
273.00000000000568
 51
357.00000000000762
  0
ARC
  5
C9AE
  8
0
  6
CONTINUOUS
 62
     7
 10
1082.931516904461
 20
770.47647314125516
 30
0.0
 40
20.000000499999999
 50
92.999998999995213
 51
176.9999899999934
  0
ARC
  5
C9AF
  8
0
  6
CONTINUOUS
 62
     7
 10
1363.9156969044609
 20
770.47647314125516
 30
0.0
 40
20.000000499999999
 50
3.0000000999988461
 51
86.999999000010007
  0
ARC
  5
C9B0
  8
0
  6
CONTINUOUS
 62
     7
 10
1223.423611904461
 20
629.98438314125531
 30
0.0
 40
195.00000499999999
 50
218.16531999998321
 51
232.12885999999131
  0
ARC
  5
C9B1
  8
0
  6
CONTINUOUS
 62
     7
 10
1223.423611904464
 20
629.9843831412544
 30
0.0
 40
195.00000500000229
 50
125.7154411401452
 51
140.91563000002029
  0
CIRCLE
  5
C9B2
  8
0
  6
CONTINUOUS
 62
     7
 10
1361.3094169044609
 20
492.09854814125521
 30
0.0
 40
9.5
  0
ARC
  5
C9B3
  8
0
  6
CONTINUOUS
 62
     7
 10
1223.423611904461
 20
629.98438314125531
 30
0.0
 40
195.00000499999999
 50
39.367218999987593
 51
50.896189000002501
  0
CIRCLE
  5
C9B4
  8
0
  6
CONTINUOUS
 62
     7
 10
1085.537776904461
 20
492.09854814125521
 30
0.0
 40
9.5
  0
ARC
  5
C9B5
  8
0
  6
CONTINUOUS
 62
     7
 10
1223.4236119044519
 20
629.98438314126417
 30
0.0
 40
195.00000500001249
 50
305.62064116353559
 51
320.46633000000628
  0
CIRCLE
  5
C9B6
  8
0
  6
CONTINUOUS
 62
     7
 10
1085.537776904461
 20
767.87022314125522
 30
0.0
 40
9.5
  0
CIRCLE
  5
C9B7
  8
0
  6
CONTINUOUS
 62
     7
 10
1361.3094169044609
 20
767.87022314125522
 30
0.0
 40
9.5
  0
ARC
  5
C9B8
  8
0
  6
CONTINUOUS
 62
     7
 10
1303.4235819044609
 20
619.98438314125531
 30
0.0
 40
5.0
 50
179.999989999999
 51
270.0
  0
ARC
  5
C9B9
  8
0
  6
CONTINUOUS
 62
     7
 10
1143.423611904461
 20
619.98438314125531
 30
0.0
 40
5.0
 50
270.0
 51
0.0
  0
ARC
  5
C9BA
  8
0
  6
CONTINUOUS
 62
     7
 10
1320.6668419044611
 20
711.67130814125517
 30
0.0
 40
5.0
 50
40.031147999981712
 51
135.00000000000921
  0
ARC
  5
C9BB
  8
0
  6
CONTINUOUS
 62
     7
 10
1126.1803269044619
 20
711.67130814125517
 30
0.0
 40
5.0
 50
45.000000999994569
 51
139.96885000000219
  0
CIRCLE
  5
C9BC
  8
0
  6
CONTINUOUS
 62
     7
 10
1223.423611904461
 20
629.98438314125531
 30
0.0
 40
140.0
  0
ARC
  5
C9BD
  8
0
  6
CONTINUOUS
 62
     7
 10
1223.423611904461
 20
629.98438314125531
 30
0.0
 40
60.0
 50
270.0
 51
90.000002999984659
  0
ARC
  5
C9BE
  8
0
  6
CONTINUOUS
 62
     7
 10
1159.6141619044611
 20
678.23746814125525
 30
0.0
 40
5.0
 50
322.90321000000728
 51
45.000000999994569
  0
ARC
  5
C9BF
  8
0
  6
CONTINUOUS
 62
     7
 10
1223.423611904461
 20
629.98438314125531
 30
0.0
 40
60.0
 50
90.000002999984659
 51
270.0
  0
ARC
  5
C9C0
  8
0
  6
CONTINUOUS
 62
     7
 10
1141.7366919044609
 20
727.22762314125509
 30
0.0
 40
5.0
 50
130.03114999999781
 51
224.99999999999079
  0
ARC
  5
C9C1
  8
0
  6
CONTINUOUS
 62
     7
 10
1096.817926904461
 20
619.98438314125531
 30
0.0
 40
5.0
 50
184.5161599999995
 51
270.0
  0
CIRCLE
  5
C9C2
  8
0
  6
CONTINUOUS
 62
     7
 10
1223.423611904461
 20
629.98438314125531
 30
0.0
 40
132.0
  0
ARC
  5
C9C3
  8
0
  6
CONTINUOUS
 62
     7
 10
1287.2330019044609
 20
678.23746814125525
 30
0.0
 40
5.0
 50
135.00000000000921
 51
217.0968000000199
  0
ARC
  5
C9C4
  8
0
  6
CONTINUOUS
 62
     7
 10
1256.4235819044609
 20
536.65519314125527
 30
0.0
 40
102.81999500000001
 50
305.00000000001182
 51
317.98481999999228
  0
ARC
  5
C9C5
  8
0
  6
CONTINUOUS
 62
     7
 10
1285.2705969044609
 20
446.98438314125531
 30
0.0
 40
12.82
 50
270.0
 51
305.00000000001182
  0
ARC
  5
C9C6
  8
0
  6
CONTINUOUS
 62
     7
 10
1161.5765669044611
 20
446.98438314125531
 30
0.0
 40
12.82
 50
234.99999999998451
 51
270.0
  0
ARC
  5
C9C7
  8
0
  6
CONTINUOUS
 62
     7
 10
1190.4235819044609
 20
536.65519314125527
 30
0.0
 40
102.81999500000001
 50
222.0151800000076
 51
234.99999999998451
  0
ARC
  5
C9C8
  8
0
  6
CONTINUOUS
 62
     7
 10
1175.1705019044609
 20
693.79380314125524
 30
0.0
 40
5.0
 50
224.99999999999079
 51
307.09678999999272
  0
ARC
  5
C9C9
  8
0
  6
CONTINUOUS
 62
     7
 10
1271.6766669044609
 20
693.79380314125524
 30
0.0
 40
5.0
 50
232.90321000000739
 51
315.00000000000921
  0
ARC
  5
C9CA
  8
0
  6
CONTINUOUS
 62
     7
 10
1305.110501904461
 20
727.22762314125509
 30
0.0
 40
5.0
 50
315.00000000000921
 51
49.968850999986898
  0
ARC
  5
C9CB
  8
0
  6
CONTINUOUS
 62
     7
 10
1223.423611904461
 20
629.98438314125531
 30
0.0
 40
75.0
 50
142.90321000000739
 51
180.000010000001
  0
ARC
  5
C9CC
  8
0
  6
CONTINUOUS
 62
     7
 10
1223.423611904461
 20
629.98438314125531
 30
0.0
 40
75.0
 50
52.903206000003003
 51
127.09678999999259
  0
LINE
  5
C9CD
  8
0
  6
CONTINUOUS
 62
     7
 10
1058.423611904461
 20
609.17113860865402
 30
0.0
 11
1023.467379904461
 21
522.65154502158157
 31
0.0
  0
LINE
  5
C9CE
  8
0
  6
CONTINUOUS
 62
     7
 10
1024.875093904461
 20
633.90618402158157
 30
0.0
 11
1024.875093904461
 21
526.52422602158163
 31
0.0
  0
ARC
  5
C9CF
  8
0
  6
CONTINUOUS
 62
     7
 10
1034.875093904461
 20
633.90630602158137
 30
0.0
 40
10.0
 50
89.999961999998746
 51
180.0000459999994
  0
LINE
  5
C9D0
  8
0
  6
CONTINUOUS
 62
     7
 10
1058.423611904461
 20
643.9063060215816
 30
0.0
 11
1034.875093904461
 21
643.9063060215816
 31
0.0
  0
LINE
  5
C9D1
  8
0
  6
CONTINUOUS
 62
     7
 10
1061.162837671535
 20
522.71624202158137
 30
0.0
 11
1033.4707979044611
 21
522.71624202158137
 31
0.0
  0
ARC
  5
C9D2
  8
0
  6
CONTINUOUS
 62
     7
 10
1028.103365904461
 20
520.77849802158164
 30
0.0
 40
5.0
 50
157.99999999999679
 51
248.00000000000529
  0
LINE
  5
C9D3
  8
0
  6
CONTINUOUS
 62
     7
 10
1058.4236779044611
 20
517.36626702158162
 30
0.0
 11
1058.4236779044611
 21
531.42510502158154
 31
0.0
  0
LINE
  5
C9D4
  8
0
  6
CONTINUOUS
 62
     7
 10
1029.939058904461
 20
514.64409902158161
 30
0.0
 11
1026.230318904461
 21
516.14251202158164
 31
0.0
  0
ARC
  5
C9D5
  8
0
  6
CONTINUOUS
 62
     7
 10
1022.875093904461
 20
526.52422602158163
 30
0.0
 40
2.0
 50
337.99999999999682
 51
359.99979600000029
  0
ARC
  5
C9D6
  8
0
  6
CONTINUOUS
 62
     7
 10
1033.4707979044611
 20
520.71624202158171
 30
0.0
 40
2.0
 50
89.999992000001797
 51
97.999847000002404
  0
LINE
  5
C9D7
  8
0
  6
CONTINUOUS
 62
     7
 10
1029.9431939044609
 20
514.64242802158162
 30
0.0
 11
1058.423611904461
 21
585.14039557499473
 31
0.0
  0
TEXT
  5
CD22
  8
0
  6
CONTINUOUS
 62
     0
 10
1034.4542067192319
 20
1057.7006897309041
 30
0.0
 40
20.0
  1
VX75-003EBF~VX75-020EBF
  0
ENDSEC
  0
EOF
