  0
SECTION
  2
HEADER
  9
$ACADVER
  1
AC1009
  9
$INSBASE
 10
0.0
 20
0.0
 30
0.0
  9
$EXTMIN
 10
121.1955460973395
 20
422.01764641159019
 30
-0.0000000000000053
  9
$EXTMAX
 10
1554.9390607938749
 20
1279.701678325531
 30
0.0000000000000099
  9
$LIMMIN
 10
0.0000005999945643
 20
-0.0000005963913736
  9
$LIMMAX
 10
1707.000000599995
 20
1109.9999994036091
  9
$ORTHOMODE
 70
     1
  9
$REGENMODE
 70
     1
  9
$FILLMODE
 70
     1
  9
$QTEXTMODE
 70
     0
  9
$MIRRTEXT
 70
     0
  9
$DRAGMODE
 70
     2
  9
$LTSCALE
 40
1.0
  9
$OSMODE
 70
   551
  9
$ATTMODE
 70
     1
  9
$TEXTSIZE
 40
2.5
  9
$TRACEWID
 40
1.0
  9
$TEXTSTYLE
  7
STANDARD
  9
$CLAYER
  8
0
  9
$CELTYPE
  6
BYLAYER
  9
$CECOLOR
 62
   256
  9
$DIMSCALE
 40
1.0
  9
$DIMASZ
 40
2.0
  9
$DIMEXO
 40
1.0
  9
$DIMDLI
 40
8.0
  9
$DIMRND
 40
0.0
  9
$DIMDLE
 40
0.0
  9
$DIMEXE
 40
1.0
  9
$DIMTP
 40
-0.025
  9
$DIMTM
 40
0.043
  9
$DIMTXT
 40
2.5
  9
$DIMCEN
 40
0.0
  9
$DIMTSZ
 40
0.0
  9
$DIMTOL
 70
     0
  9
$DIMLIM
 70
     0
  9
$DIMTIH
 70
     0
  9
$DIMTOH
 70
     0
  9
$DIMSE1
 70
     0
  9
$DIMSE2
 70
     0
  9
$DIMTAD
 70
     3
  9
$DIMZIN
 70
     8
  9
$DIMBLK
  1

  9
$DIMASO
 70
     1
  9
$DIMSHO
 70
     1
  9
$DIMPOST
  1

  9
$DIMAPOST
  1
"
  9
$DIMALT
 70
     0
  9
$DIMALTD
 70
     2
  9
$DIMALTF
 40
0.0393701
  9
$DIMLFAC
 40
1.0
  9
$DIMTOFL
 70
     1
  9
$DIMTVP
 40
0.0
  9
$DIMTIX
 70
     0
  9
$DIMSOXD
 70
     0
  9
$DIMSAH
 70
     0
  9
$DIMBLK1
  1

  9
$DIMBLK2
  1

  9
$DIMSTYLE
  2
AM_JIS
  9
$DIMCLRD
 70
     2
  9
$DIMCLRE
 70
     2
  9
$DIMCLRT
 70
     4
  9
$DIMTFAC
 40
0.71
  9
$DIMGAP
 40
1.5
  9
$LUNITS
 70
     2
  9
$LUPREC
 70
     2
  9
$SKETCHINC
 40
1.0
  9
$FILLETRAD
 40
0.0
  9
$AUNITS
 70
     0
  9
$AUPREC
 70
     0
  9
$MENU
  1
.
  9
$ELEVATION
 40
0.0
  9
$PELEVATION
 40
0.0
  9
$THICKNESS
 40
0.0
  9
$LIMCHECK
 70
     0
  9
$BLIPMODE
 70
     0
  9
$CHAMFERA
 40
3.0
  9
$CHAMFERB
 40
3.0
  9
$SKPOLY
 70
     0
  9
$TDCREATE
 40
2456829.3841110538
  9
$TDUPDATE
 40
2458541.3958781478
  9
$TDINDWG
 40
0.5925531019
  9
$TDUSRTIMER
 40
0.5925523843
  9
$USRTIMER
 70
     1
  9
$ANGBASE
 50
0.0
  9
$ANGDIR
 70
     0
  9
$PDMODE
 70
     0
  9
$PDSIZE
 40
0.0
  9
$PLINEWID
 40
0.0
  9
$COORDS
 70
     1
  9
$SPLFRAME
 70
     0
  9
$SPLINETYPE
 70
     6
  9
$SPLINESEGS
 70
     8
  9
$ATTDIA
 70
     1
  9
$ATTREQ
 70
     1
  9
$HANDLING
 70
     1
  9
$HANDSEED
  5
D493
  9
$SURFTAB1
 70
     6
  9
$SURFTAB2
 70
     6
  9
$SURFTYPE
 70
     6
  9
$SURFU
 70
     6
  9
$SURFV
 70
     6
  9
$UCSNAME
  2

  9
$UCSORG
 10
0.0
 20
0.0
 30
0.0
  9
$UCSXDIR
 10
1.0
 20
0.0
 30
0.0
  9
$UCSYDIR
 10
0.0
 20
1.0
 30
0.0
  9
$PUCSNAME
  2

  9
$PUCSORG
 10
0.0
 20
0.0
 30
0.0
  9
$PUCSXDIR
 10
1.0
 20
0.0
 30
0.0
  9
$PUCSYDIR
 10
0.0
 20
1.0
 30
0.0
  9
$USERI1
 70
     0
  9
$USERI2
 70
     0
  9
$USERI3
 70
     0
  9
$USERI4
 70
     0
  9
$USERI5
 70
     0
  9
$USERR1
 40
0.0
  9
$USERR2
 40
0.0
  9
$USERR3
 40
0.0
  9
$USERR4
 40
0.0
  9
$USERR5
 40
0.0
  9
$WORLDVIEW
 70
     1
  9
$SHADEDGE
 70
     3
  9
$SHADEDIF
 70
    70
  9
$TILEMODE
 70
     1
  9
$MAXACTVP
 70
    64
  9
$PLIMCHECK
 70
     0
  9
$PEXTMIN
 10
1.0000000000000000E+020
 20
1.0000000000000000E+020
 30
1.0000000000000000E+020
  9
$PEXTMAX
 10
-1.0000000000000000E+020
 20
-1.0000000000000000E+020
 30
-1.0000000000000000E+020
  9
$PLIMMIN
 10
0.0
 20
0.0
  9
$PLIMMAX
 10
420.0
 20
297.0
  9
$UNITMODE
 70
     0
  9
$VISRETAIN
 70
     1
  9
$PLINEGEN
 70
     0
  9
$PSLTSCALE
 70
     1
  0
ENDSEC
  0
SECTION
  2
TABLES
  0
TABLE
  2
VPORT
 70
     1
  0
VPORT
  2
*ACTIVE
 70
     0
 10
0.0
 20
0.0
 11
1.0
 21
1.0
 12
838.06730344560754
 22
850.85966236856052
 13
0.0
 23
0.0
 14
15.0
 24
15.0
 15
60.0
 25
60.0
 16
0.0
 26
0.0
 36
1.0
 17
0.0
 27
0.0
 37
0.0
 40
863.57202297971116
 41
1.7571592210767459
 42
50.0
 43
0.0
 44
0.0
 50
0.0
 51
0.0
 71
     0
 72
  1000
 73
     1
 74
     3
 75
     0
 76
     0
 77
     0
 78
     0
  0
ENDTAB
  0
TABLE
  2
LTYPE
 70
    24
  0
LTYPE
  2
CONTINUOUS
 70
     0
  3
Solid line
 72
    65
 73
     0
 40
0.0
  0
LTYPE
  2
CENTER
 70
     0
  3
Center ____ _ ____ _ ____ _ ____ _ ____ _ ____
 72
    65
 73
     4
 40
50.799999999999997
 49
31.75
 49
-6.3499999999999979
 49
6.3499999999999979
 49
-6.3499999999999979
  0
LTYPE
  2
AM_ISO02W050
 70
     0
  3
__ __ __ __ __ __ __ __ __ __ __ __ __ __ __
 72
    65
 73
     2
 40
7.5
 49
6.0
 49
-1.5
  0
LTYPE
  2
AM_ISO08W050
 70
     0
  3
____ . ____ . ____ . ____ . ____ . ____ . ____
 72
    65
 73
     4
 40
18.0
 49
12.0
 49
-1.5
 49
3.0
 49
-1.5
  0
LTYPE
  2
AM_ISO09W050
 70
     0
  3
_____ . . _____ . . _____ . . ____ .. ____
 72
    65
 73
     6
 40
22.5
 49
12.0
 49
-1.5
 49
3.0
 49
-1.5
 49
3.0
 49
-1.5
  0
LTYPE
  2
AMCONSTR
 70
     0
  3
_______________________
 72
    65
 73
     2
 40
9999.0
 49
9999.0
 49
0.0
  0
LTYPE
  2
AM_ISO08W050X2
 70
     0
  3
__ . __ . __ . __ . __ . __
 72
    65
 73
     4
 40
9.0
 49
6.0
 49
-0.75
 49
1.5
 49
-0.75
  0
LTYPE
  2
AM_ISO02W050X2
 70
     0
  3
 _ _ _ _ _ _ _ _ _ _ _ _
 72
    65
 73
     2
 40
3.75
 49
3.0
 49
-0.75
  0
LTYPE
  2
AMZIGZAG
 70
     0
  3
/\/-/\/-/\/-/\/-/\/-/\/
 72
    65
 73
     2
 40
11.0001
 49
0.0001
 49
-11.0
  0
LTYPE
  2
ACANSTGBM
 70
     0
  3
__ . . __ . .
 72
    65
 73
     6
 40
9.0
 49
4.0
 49
-1.0
 49
1.0
 49
-1.0
 49
1.0
 49
-1.0
  0
LTYPE
  2
ACANSTGLM
 70
     0
  3
_ _ _ _ _
 72
    65
 73
     2
 40
3.0
 49
2.0
 49
-1.0
  0
LTYPE
  2
ACISOWELD
 70
     0
  3
_ _ _ _ _
 72
    65
 73
     2
 40
2.0
 49
2.0
 49
-1.0
  0
LTYPE
  2
ACISOTGB
 70
     0
  3
__ . . __ . .
 72
    65
 73
     6
 40
9.0
 49
4.0
 49
-1.0
 49
1.0
 49
-1.0
 49
1.0
 49
-1.0
  0
LTYPE
  2
ACISOTGL
 70
     0
  3
_ _ _ _ _
 72
    65
 73
     2
 40
3.0
 49
2.0
 49
-1.0
  0
LTYPE
  2
ACJISTGB
 70
     0
  3
__ . . __ . .
 72
    65
 73
     6
 40
9.0
 49
4.0
 49
-1.0
 49
1.0
 49
-1.0
 49
1.0
 49
-1.0
  0
LTYPE
  2
ACJISTGL
 70
     0
  3
_ _ _ _ _
 72
    65
 73
     2
 40
3.0
 49
2.0
 49
-1.0
  0
LTYPE
  2
HIDDEN
 70
     0
  3
Hidden __ __ __ __ __ __ __ __ __ __ __ __ __ _
 72
    65
 73
     2
 40
9.5249999999999968
 49
6.349999999999997
 49
-3.174999999999998
  0
LTYPE
  2
PHANTOM2
 70
     0
  3
Phantom (.5x) ___ _ _ ___ _ _ ___ _ _ ___ _ _
 72
    65
 73
     6
 40
31.75
 49
15.875
 49
-3.174999999999998
 49
3.174999999999998
 49
-3.174999999999998
 49
3.174999999999998
 49
-3.174999999999998
  0
LTYPE
  2
CENTER2
 70
     0
  3
Center (.5x) ___ _ ___ _ ___ _ ___ _ ___ _ ___
 72
    65
 73
     4
 40
1.125
 49
0.75
 49
-0.125
 49
0.125
 49
-0.125
  0
LTYPE
  2
HIDDEN2
 70
     0
  3
Hidden (.5x) _ _ _ _ _ _ _ _ _ _ _ _ _ _ _ _ _
 72
    65
 73
     2
 40
0.1875
 49
0.125
 49
-0.0625
  0
LTYPE
  2
AMZIGZAG2
 70
     0
  3
/\/-/\/-/\/-/\/-/\/-/\/
 72
    65
 73
     2
 40
0.4401
 49
0.0001
 49
-0.4400000000000002
  0
LTYPE
  2
ACANSTGB
 70
     0
  3
__ . . __ . .
 72
    65
 73
     6
 40
0.35433070866
 49
0.15748031496
 49
-0.03937007874
 49
0.03937007874
 49
-0.03937007874
 49
0.03937007874
 49
-0.03937007874
  0
LTYPE
  2
ACANSTGL
 70
     0
  3
_ _ _ _ _
 72
    65
 73
     2
 40
0.11811023622
 49
0.07874015748
 49
-0.03937007874
  0
ENDTAB
  0
TABLE
  2
LAYER
 70
     5
  0
LAYER
  2
0
 70
     0
 62
     7
  6
CONTINUOUS
  0
LAYER
  2
DEFPOINTS
 70
     0
 62
     7
  6
CONTINUOUS
  0
LAYER
  2
AM_CL
 70
     0
 62
     1
  6
AMCONSTR
  0
LAYER
  2
AM_5
 70
     0
 62
     2
  6
CONTINUOUS
  0
LAYER
  2
AM_0
 70
     0
 62
     7
  6
CONTINUOUS
  0
ENDTAB
  0
TABLE
  2
STYLE
 70
     8
  0
STYLE
  2
STANDARD
 70
     0
 40
0.0
 41
0.7400000000000003
 50
0.0
 71
     0
 42
2.5
  3
txt.shx
  4
bigfont.shx
  0
STYLE
  2

 70
     1
 40
0.0
 41
1.0
 50
0.0
 71
     0
 42
2.5
  3
ltypeshp.shx
  4

  0
STYLE
  2
ACANSTS
 70
     0
 40
1.0
 41
1.0
 50
0.0
 71
     0
 42
2.5
  3
romans.shx
  4
bigfont.shx
  0
STYLE
  2
ACANSGDT
 70
     0
 40
0.0
 41
1.0
 50
0.0
 71
     0
 42
2.5
  3
amgdtans.shx
  4

  0
STYLE
  2
ACISOTS
 70
     0
 40
1.0
 41
1.0
 50
0.0
 71
     0
 42
2.5
  3
isocp.shx
  4
extfont.shx
  0
STYLE
  2
ACISOGDT
 70
     0
 40
0.0
 41
1.0
 50
0.0
 71
     0
 42
2.5
  3
amgdt.shx
  4

  0
STYLE
  2
ACJISGDT
 70
     0
 40
0.0
 41
1.0
 50
0.0
 71
     0
 42
2.5
  3
amgdt.shx
  4

  0
STYLE
  2
ACJISTS
 70
     0
 40
1.0
 41
1.0
 50
0.0
 71
     0
 42
2.5
  3
isocp.shx
  4
extfont.shx
  0
ENDTAB
  0
TABLE
  2
VIEW
 70
     6
  0
VIEW
  2
AM_VIEW1
 70
     0
 40
555.00000000000011
 10
586.60142408753904
 20
832.49999940360885
 41
1173.202846975089
 11
0.0
 21
0.0
 31
1.0
 12
0.0
 22
0.0
 32
0.0
 42
50.0
 43
0.0
 44
0.0
 50
0.0
 71
     0
  0
VIEW
  2
AM_VIEW2
 70
     0
 40
555.00000000000011
 10
1120.3985771124501
 20
832.49999940360885
 41
1173.202846975089
 11
0.0
 21
0.0
 31
1.0
 12
0.0
 22
0.0
 32
0.0
 42
50.0
 43
0.0
 44
0.0
 50
0.0
 71
     0
  0
VIEW
  2
AM_VIEW3
 70
     0
 40
555.00000000000011
 10
586.60142408753904
 20
277.49999940360868
 41
1173.202846975089
 11
0.0
 21
0.0
 31
1.0
 12
0.0
 22
0.0
 32
0.0
 42
50.0
 43
0.0
 44
0.0
 50
0.0
 71
     0
  0
VIEW
  2
AM_VIEW4
 70
     0
 40
555.00000000000011
 10
1120.3985771124501
 20
277.49999940360868
 41
1173.202846975089
 11
0.0
 21
0.0
 31
1.0
 12
0.0
 22
0.0
 32
0.0
 42
50.0
 43
0.0
 44
0.0
 50
0.0
 71
     0
  0
VIEW
  2
AM_VIEW5
 70
     0
 40
555.00000000000011
 10
853.50000059999445
 20
554.99999940360874
 41
1173.202846975089
 11
0.0
 21
0.0
 31
1.0
 12
0.0
 22
0.0
 32
0.0
 42
50.0
 43
0.0
 44
0.0
 50
0.0
 71
     0
  0
VIEW
  2
AM_VIEW6
 70
     0
 40
1109.9889000000001
 10
853.50000059999445
 20
554.99999940360874
 41
2346.3822298932391
 11
0.0
 21
0.0
 31
1.0
 12
0.0
 22
0.0
 32
0.0
 42
50.0
 43
0.0
 44
0.0
 50
0.0
 71
     0
  0
ENDTAB
  0
TABLE
  2
UCS
 70
     0
  0
ENDTAB
  0
TABLE
  2
APPID
 70
   157
  0
APPID
  2
ACAD
 70
     0
  0
APPID
  2
ACADANNOTATIVE
 70
     0
  0
APPID
  2
ACAD_MLEADERVER
 70
     0
  0
APPID
  2
MCAD_NO_VIS
 70
     0
  0
APPID
  2
ACAD_TEMP_GRAPHIC
 70
     0
  0
APPID
  2
AD_DRAW
 70
     0
  0
APPID
  2
ACATTRIBSERVICES
 70
     0
  0
APPID
  2
DESIGNERASSEMBLIES
 70
     0
  0
APPID
  2
ACADM_DIM_EDIT
 70
     0
  0
APPID
  2
AMDT_DM_ADJ
 70
     0
  0
APPID
  2
GENIUS_GENDIMSH_14
 70
     0
  0
APPID
  2
GEVID1057795304
 70
     0
  0
APPID
  2
GEVDC
 70
     0
  0
APPID
  2
GEVCON
 70
     0
  0
APPID
  2
GENIUS_GENBH_13
 70
     0
  0
APPID
  2
GENIUS_GENOENT_13
 70
     0
  0
APPID
  2
GENIUS_GENOBJ-NBEHI-BHF_13
 70
     0
  0
APPID
  2
GENIUS_GENOLIS_13
 70
     0
  0
APPID
  2
GENIUS_GENODEF_13
 70
     0
  0
APPID
  2
GENIUS_GENOREF_13
 70
     0
  0
APPID
  2
GENIUS_GENOBJ-NBEHI-BHB_13
 70
     0
  0
APPID
  2
GENIUS_GENOBJ-F-SCPASSM_13
 70
     0
  0
APPID
  2
GENIUS_GENDTOL_13
 70
     0
  0
APPID
  2
GENIUS_GENTRA_14
 70
     0
  0
APPID
  2
ASURF_PCURVE_APPNAME
 70
     0
  0
APPID
  2
GENIUS_GENCFG_13
 70
     0
  0
APPID
  2
GENIUS_GE3CFG0_13
 70
     0
  0
APPID
  2
GENIUS_GENCFG0_13
 70
     0
  0
APPID
  2
GENIUS_GENCFG1_13
 70
     0
  0
APPID
  2
GENIUS_GENCFG2_13
 70
     0
  0
APPID
  2
GENIUS_GENCFG3_13
 70
     0
  0
APPID
  2
GENIUS_GENCFG4_13
 70
     0
  0
APPID
  2
GENIUS_GEVCFG0_13
 70
     0
  0
APPID
  2
GENIUS_GENOBJ-N-TIT_13
 70
     0
  0
APPID
  2
GENIUS_GENTITLE_13
 70
     0
  0
APPID
  2
GENIUS_GENSCREG_15
 70
     0
  0
APPID
  2
GENIUS_GENOBJ-N-SDF_13
 70
     0
  0
APPID
  2
GENIUS_GENFIL_13
 70
     0
  0
APPID
  2
GENIUS_GENOBJ-N-CHA_13
 70
     0
  0
APPID
  2
GENIUS_GEFSH_13
 70
     0
  0
APPID
  2
GENIUS_GENOBJ-F-SHS_13
 70
     0
  0
APPID
  2
GENIUS_GENOBJ-N-CEN_13
 70
     0
  0
APPID
  2
GENIUS_GENREC_14
 70
     0
  0
APPID
  2
GENIUS_GENOBJ-N-REC_13
 70
     0
  0
APPID
  2
GENIUS_GENOBJ-N-HTC_13
 70
     0
  0
APPID
  2
GENIUS_GENHATCH_13
 70
     0
  0
APPID
  2
ACAD_PSEXT
 70
     0
  0
APPID
  2
ACAD_EXEMPT_FROM_CAD_STANDARDS
 70
     0
  0
APPID
  2
ACAECLAYERSTANDARD
 70
     0
  0
APPID
  2
GENIUS_GENCEN_19
 70
     0
  0
APPID
  2
ACAD_DSTYLE_DIMINSPECT
 70
     0
  0
APPID
  2
ACAD_DSTYLE_DIMANGULAR_EXT
 70
     0
  0
APPID
  2
ACADANNOPO
 70
     0
  0
APPID
  2
ACAD_NAV_VCDISPLAY
 70
     0
  0
APPID
  2
GENIUS_GENOBJ-N-FIL_13
 70
     0
  0
APPID
  2
ACAD_DSTYLE_DIMBREAK
 70
     0
  0
APPID
  2
ACAD_DSTYLE_DIMJAG
 70
     0
  0
APPID
  2
ACAD_DSTYLE_DIMRADIAL_EXTENSION
 70
     0
  0
APPID
  2
GENIUS_GENHINW_13
 70
     0
  0
APPID
  2
GENIUS_FIRSTVISTXT_14
 70
     0
  0
APPID
  2
GENIUS_GENOBJ-N-LEADER_13
 70
     0
  0
APPID
  2
GENIUS_DUMCFG0_13
 70
     0
  0
APPID
  2
ACAD_DSTYLE_DIMTEXT_FILL
 70
     0
  0
APPID
  2
AMG_2DHIDE
 70
     0
  0
APPID
  2
GENIUS_GEFSHEP_13
 70
     0
  0
APPID
  2
GENIUS_GENOBJ-F-SHE_13
 70
     0
  0
APPID
  2
GENIUS_GEFSHE_13
 70
     0
  0
APPID
  2
ACAD_DIMASSOC_DIMLFAC
 70
     0
  0
APPID
  2
ACAD_DIMASSOC_CALC_DIMLFAC
 70
     0
  0
APPID
  2
ACAD_DIMASSOC_OVERRIDDEN_D
 70
     0
  0
APPID
  2
GENIUS_GENOBJ-F-SHSV_13
 70
     0
  0
APPID
  2
GENIUS_GEFWELD_13
 70
     0
  0
APPID
  2
GENIUS_GENOBJ-N-CRS_13
 70
     0
  0
APPID
  2
GENIUS_GENOBJ-N-RSBK_13
 70
     0
  0
APPID
  2
GENIUS_GENOBJ-N-LIB_13
 70
     0
  0
APPID
  2
GENIUS_GENSCALE_13
 70
     0
  0
APPID
  2
GENIUS_GENDREL_13
 70
     0
  0
APPID
  2
GEVPT
 70
     0
  0
APPID
  2
GEVIT
 70
     0
  0
APPID
  2
VCC
 70
     0
  0
APPID
  2
GENBH
 70
     0
  0
APPID
  2
GEVMK
 70
     0
  0
APPID
  2
GENIUS_GENOBJ-F-DESC_13
 70
     0
  0
APPID
  2
GENIUS_GEFDESC_14
 70
     0
  0
APPID
  2
GENIUS_GENOBJ-F-FEAT_13
 70
     0
  0
APPID
  2
GENIUS_GEFFEAT_14
 70
     0
  0
APPID
  2
GENIUS_GEFPARTINS_13
 70
     0
  0
APPID
  2
GENIUS_GENSCREG_13
 70
     0
  0
APPID
  2
GENIUS_GEFSHP_13
 70
     0
  0
APPID
  2
GEVID1025574798
 70
     0
  0
APPID
  2
GEVID1025574769
 70
     0
  0
APPID
  2
GEVID1025757451
 70
     0
  0
APPID
  2
GEVID1240528327
 70
     0
  0
APPID
  2
AMG_2DSTRUCT_BTR
 70
     0
  0
APPID
  2
ACADM_2DVIEW_IGN_NOTIFY
 70
     0
  0
APPID
  2
GEVID1240528328
 70
     0
  0
APPID
  2
GEVID1240528329
 70
     0
  0
APPID
  2
GEVRADREF
 70
     0
  0
APPID
  2
GEVID1240528330
 70
     0
  0
APPID
  2
GEVID1240528331
 70
     0
  0
APPID
  2
GEVID1240528332
 70
     0
  0
APPID
  2
GEVID1240791080
 70
     0
  0
APPID
  2
GEVID1240791081
 70
     0
  0
APPID
  2
GEVID1240791082
 70
     0
  0
APPID
  2
GEVID1240791083
 70
     0
  0
APPID
  2
GEVID1240791084
 70
     0
  0
APPID
  2
GEVID1240791085
 70
     0
  0
APPID
  2
GEVID1240791086
 70
     0
  0
APPID
  2
GEVID1240791087
 70
     0
  0
APPID
  2
GEVID1240791088
 70
     0
  0
APPID
  2
GEVID1240791089
 70
     0
  0
APPID
  2
GEVID1240791090
 70
     0
  0
APPID
  2
GEVID1240791091
 70
     0
  0
APPID
  2
GEVID1240791092
 70
     0
  0
APPID
  2
GEVID1240791093
 70
     0
  0
APPID
  2
GEVID1240791094
 70
     0
  0
APPID
  2
GEVID1240791095
 70
     0
  0
APPID
  2
GEVID1240791096
 70
     0
  0
APPID
  2
GEVID1240791097
 70
     0
  0
APPID
  2
GEVID1240791098
 70
     0
  0
APPID
  2
GEVID1240791099
 70
     0
  0
APPID
  2
GEVID1240791100
 70
     0
  0
APPID
  2
GEVID1240791101
 70
     0
  0
APPID
  2
GEVID1240791102
 70
     0
  0
APPID
  2
GEVID1240791103
 70
     0
  0
APPID
  2
GEVID1240791104
 70
     0
  0
APPID
  2
GEVID1240791105
 70
     0
  0
APPID
  2
GEVID1240875381
 70
     0
  0
APPID
  2
GEVID1240875382
 70
     0
  0
APPID
  2
GEVID1240875383
 70
     0
  0
APPID
  2
GEVID1240875384
 70
     0
  0
APPID
  2
GEVID1240875385
 70
     0
  0
APPID
  2
GEVID1240875386
 70
     0
  0
APPID
  2
GEVID1240875387
 70
     0
  0
APPID
  2
GEVID1240875388
 70
     0
  0
APPID
  2
GEVID1240875389
 70
     0
  0
APPID
  2
GEVID1240875390
 70
     0
  0
APPID
  2
GEVID1240875391
 70
     0
  0
APPID
  2
GEVID1240875392
 70
     0
  0
APPID
  2
GEVID1240875393
 70
     0
  0
APPID
  2
GEVID1240875394
 70
     0
  0
APPID
  2
GEVID1240875395
 70
     0
  0
APPID
  2
GEVID1240875396
 70
     0
  0
APPID
  2
GEVID1240875397
 70
     0
  0
APPID
  2
GEVID1240875398
 70
     0
  0
APPID
  2
GEVID1240875399
 70
     0
  0
APPID
  2
GEVID1240908996
 70
     0
  0
APPID
  2
GEVID1240908997
 70
     0
  0
APPID
  2
GEVID1240908998
 70
     0
  0
APPID
  2
GEVID1240908999
 70
     0
  0
APPID
  2
GEVID1240909000
 70
     0
  0
APPID
  2
GENIUS_GENOBJ-N-ZOO_13
 70
     0
  0
APPID
  2
GENIUS_GENZOO_17
 70
     0
  0
APPID
  2
GENIUS_GE3SECT_13
 70
     0
  0
APPID
  2
GEV_VCCNULL_SWITCH_OFF
 70
     0
  0
APPID
  2
ACAD_DSTYLE_DIMTALN
 70
     0
  0
APPID
  2
DCO15
 70
     0
  0
ENDTAB
  0
TABLE
  2
DIMSTYLE
 70
    22
  0
DIMSTYLE
  2
AM_ANSI
 70
     0
  3

  4
"
  5

  6

  7

 40
1.0
 41
2.5
 42
1.0
 43
10.0
 44
1.0
 45
0.0
 46
0.0
 47
0.1
 48
0.1
140
3.5
141
0.0
142
0.0
143
0.0393701
144
1.0
145
0.0
146
0.71
147
1.5
 71
     0
 72
     0
 73
     1
 74
     1
 75
     0
 76
     0
 77
     0
 78
     8
170
     0
171
     2
172
     0
173
     0
174
     0
175
     0
176
     2
177
     2
178
     4
  0
DIMSTYLE
  2
AM_ANSI$3
 70
     0
  3

  4
"
  5

  6

  7

 40
1.0
 41
2.5
 42
1.0
 43
10.0
 44
1.0
 45
0.0
 46
0.0
 47
0.1
 48
0.1
140
3.5
141
0.0
142
0.0
143
0.0393701
144
1.0
145
0.0
146
0.71
147
1.5
 71
     0
 72
     0
 73
     1
 74
     1
 75
     0
 76
     0
 77
     0
 78
     8
170
     0
171
     2
172
     0
173
     0
174
     0
175
     0
176
     2
177
     2
178
     4
  0
DIMSTYLE
  2
AM_ANSI$4
 70
     0
  3

  4
"
  5

  6

  7

 40
1.0
 41
2.5
 42
1.0
 43
10.0
 44
1.0
 45
0.0
 46
0.0
 47
0.1
 48
0.1
140
3.5
141
0.0
142
0.0
143
0.0393701
144
1.0
145
0.0
146
0.71
147
1.5
 71
     0
 72
     0
 73
     1
 74
     1
 75
     0
 76
     0
 77
     0
 78
     8
170
     0
171
     2
172
     0
173
     0
174
     0
175
     0
176
     2
177
     2
178
     4
  0
DIMSTYLE
  2
AM_ANSI$7
 70
     0
  3

  4
"
  5

  6

  7

 40
1.0
 41
2.5
 42
1.0
 43
10.0
 44
1.0
 45
0.0
 46
0.0
 47
0.1
 48
0.1
140
5.0
141
0.0
142
0.0
143
0.0393701
144
1.0
145
0.0
146
0.71
147
1.5
 71
     0
 72
     0
 73
     1
 74
     1
 75
     0
 76
     0
 77
     0
 78
     8
170
     0
171
     2
172
     0
173
     0
174
     0
175
     0
176
     2
177
     2
178
     4
  0
DIMSTYLE
  2
AM_ANSI$SF
 70
     0
  3

  4
"
  5

  6

  7

 40
1.0
 41
2.5
 42
1.0
 43
10.0
 44
1.0
 45
0.0
 46
0.0
 47
0.1
 48
0.1
140
3.5
141
0.0
142
0.0
143
0.0393701
144
1.0
145
0.0
146
0.71
147
1.5
 71
     0
 72
     0
 73
     1
 74
     1
 75
     1
 76
     1
 77
     0
 78
     8
170
     0
171
     2
172
     0
173
     0
174
     0
175
     0
176
     2
177
     2
178
     4
  0
DIMSTYLE
  2
AM_ANSI$SH
 70
     0
  3

  4
"
  5

  6
GENAXEH
  7

 40
1.0
 41
2.5
 42
1.0
 43
10.0
 44
1.0
 45
0.0
 46
0.0
 47
0.1
 48
0.1
140
3.5
141
0.0
142
0.0
143
0.0393701
144
1.0
145
0.0
146
0.71
147
1.5
 71
     0
 72
     0
 73
     1
 74
     1
 75
     1
 76
     1
 77
     0
 78
     8
170
     0
171
     2
172
     0
173
     1
174
     0
175
     0
176
     2
177
     2
178
     4
  0
DIMSTYLE
  2
AM_ISO
 70
     0
  3

  4
"
  5

  6

  7

 40
1.0
 41
2.5
 42
1.0
 43
10.0
 44
1.0
 45
0.0
 46
0.0
 47
0.1
 48
0.1
140
3.5
141
0.0
142
0.0
143
0.0393701
144
1.0
145
0.0
146
0.71
147
1.5
 71
     0
 72
     0
 73
     0
 74
     0
 75
     0
 76
     0
 77
     1
 78
     8
170
     0
171
     2
172
     1
173
     0
174
     0
175
     0
176
   256
177
   256
178
     2
  0
DIMSTYLE
  2
AM_ISO$3
 70
     0
  3

  4
"
  5

  6

  7

 40
1.0
 41
2.5
 42
1.0
 43
10.0
 44
1.0
 45
0.0
 46
0.0
 47
0.1
 48
0.1
140
3.5
141
0.0
142
0.0
143
0.0393701
144
1.0
145
0.0
146
0.71
147
1.5
 71
     0
 72
     0
 73
     0
 74
     1
 75
     0
 76
     0
 77
     1
 78
     8
170
     0
171
     2
172
     0
173
     0
174
     0
175
     0
176
   256
177
   256
178
     2
  0
DIMSTYLE
  2
AM_ISO$4
 70
     0
  3

  4
"
  5

  6

  7

 40
1.0
 41
2.5
 42
1.0
 43
10.0
 44
1.0
 45
0.0
 46
0.0
 47
0.1
 48
0.1
140
3.5
141
0.0
142
0.0
143
0.0393701
144
1.0
145
0.0
146
0.71
147
1.5
 71
     0
 72
     0
 73
     0
 74
     1
 75
     0
 76
     0
 77
     1
 78
     8
170
     0
171
     2
172
     0
173
     0
174
     0
175
     0
176
   256
177
   256
178
     2
  0
DIMSTYLE
  2
AM_ISO$6
 70
     0
  3

  4
"
  5

  6

  7

 40
1.0
 41
2.5
 42
1.0
 43
10.0
 44
1.0
 45
0.0
 46
0.0
 47
0.1
 48
0.1
140
3.5
141
0.0
142
0.0
143
0.0393701
144
1.0
145
0.0
146
0.71
147
1.5
 71
     0
 72
     0
 73
     0
 74
     0
 75
     0
 76
     0
 77
     0
 78
     8
170
     0
171
     2
172
     1
173
     0
174
     0
175
     0
176
   256
177
   256
178
     2
  0
DIMSTYLE
  2
AM_ISO$7
 70
     0
  3

  4
"
  5

  6

  7

 40
1.0
 41
2.5
 42
1.0
 43
10.0
 44
1.0
 45
0.0
 46
0.0
 47
0.1
 48
0.1
140
5.0
141
0.0
142
0.0
143
0.0393701
144
1.0
145
0.0
146
0.71
147
1.5
 71
     0
 72
     0
 73
     0
 74
     0
 75
     0
 76
     0
 77
     1
 78
     8
170
     0
171
     2
172
     1
173
     0
174
     0
175
     0
176
   256
177
   256
178
     2
  0
DIMSTYLE
  2
AM_ISO$SF
 70
     0
  3

  4
"
  5

  6

  7

 40
1.0
 41
2.5
 42
1.0
 43
10.0
 44
1.0
 45
0.0
 46
0.0
 47
0.1
 48
0.1
140
3.5
141
0.0
142
0.0
143
0.0393701
144
1.0
145
0.0
146
0.71
147
1.5
 71
     0
 72
     0
 73
     0
 74
     0
 75
     1
 76
     1
 77
     1
 78
     8
170
     0
171
     2
172
     1
173
     0
174
     0
175
     0
176
   256
177
   256
178
     2
  0
DIMSTYLE
  2
AM_ISO$SH
 70
     0
  3

  4
"
  5

  6
GENAXEH
  7

 40
1.0
 41
2.5
 42
1.0
 43
10.0
 44
1.0
 45
0.0
 46
0.0
 47
0.1
 48
0.1
140
3.5
141
0.0
142
0.0
143
0.0393701
144
2.0
145
0.0
146
0.71
147
1.5
 71
     0
 72
     0
 73
     0
 74
     0
 75
     1
 76
     1
 77
     1
 78
     8
170
     0
171
     2
172
     1
173
     1
174
     0
175
     0
176
   256
177
   256
178
     2
  0
DIMSTYLE
  2
AM_JIS
 70
     0
  3

  4
"
  5

  6

  7

 40
1.0
 41
2.0
 42
1.0
 43
8.0
 44
1.0
 45
0.0
 46
0.0
 47
0.1
 48
0.1
140
2.5
141
0.0
142
0.0
143
0.0393701
144
1.0
145
0.0
146
0.71
147
1.5
 71
     0
 72
     0
 73
     0
 74
     0
 75
     0
 76
     0
 77
     3
 78
     8
170
     0
171
     2
172
     1
173
     0
174
     0
175
     0
176
     2
177
     2
178
     4
  0
DIMSTYLE
  2
AM_JIS$3
 70
     0
  3

  4
"
  5

  6

  7

 40
1.0
 41
2.0
 42
1.0
 43
10.0
 44
1.0
 45
0.0
 46
0.0
 47
0.1
 48
0.1
140
2.5
141
0.0
142
0.0
143
0.0393701
144
1.0
145
0.0
146
0.71
147
1.5
 71
     0
 72
     0
 73
     0
 74
     1
 75
     0
 76
     0
 77
     3
 78
     8
170
     0
171
     2
172
     0
173
     0
174
     0
175
     0
176
     2
177
     2
178
     4
  0
DIMSTYLE
  2
AM_JIS$4
 70
     0
  3

  4
"
  5

  6

  7

 40
1.0
 41
2.0
 42
1.0
 43
10.0
 44
1.0
 45
0.0
 46
0.0
 47
0.1
 48
0.1
140
2.5
141
0.0
142
0.0
143
0.0393701
144
1.0
145
0.0
146
0.71
147
1.5
 71
     0
 72
     0
 73
     0
 74
     0
 75
     0
 76
     0
 77
     3
 78
     8
170
     0
171
     2
172
     0
173
     0
174
     0
175
     0
176
     2
177
     2
178
     4
  0
DIMSTYLE
  2
AM_JIS$6
 70
     0
  3

  4
"
  5

  6

  7

 40
1.0
 41
2.0
 42
1.0
 43
10.0
 44
1.0
 45
0.0
 46
0.0
 47
0.1
 48
0.1
140
2.5
141
0.0
142
0.0
143
0.0393701
144
1.0
145
0.0
146
0.71
147
1.5
 71
     0
 72
     0
 73
     0
 74
     0
 75
     0
 76
     0
 77
     0
 78
     8
170
     0
171
     2
172
     1
173
     0
174
     0
175
     0
176
     2
177
     2
178
     4
  0
DIMSTYLE
  2
AM_JIS$7
 70
     0
  3

  4
"
  5

  6
OPEN30
  7
OPEN30
 40
1.0
 41
2.0
 42
1.0
 43
10.0
 44
1.0
 45
0.0
 46
0.0
 47
0.1
 48
0.1
140
2.5
141
0.0
142
0.0
143
0.0393701
144
1.0
145
0.0
146
0.71
147
1.5
 71
     0
 72
     0
 73
     0
 74
     0
 75
     0
 76
     0
 77
     3
 78
     8
170
     0
171
     2
172
     1
173
     0
174
     0
175
     0
176
     2
177
     2
178
     4
  0
DIMSTYLE
  2
AM_JIS$SF
 70
     0
  3

  4
"
  5

  6

  7

 40
1.0
 41
2.0
 42
1.0
 43
10.0
 44
1.0
 45
0.0
 46
0.0
 47
0.1
 48
0.1
140
2.5
141
0.0
142
0.0
143
0.0393701
144
1.0
145
0.0
146
0.71
147
1.5
 71
     0
 72
     0
 73
     0
 74
     0
 75
     1
 76
     1
 77
     3
 78
     8
170
     0
171
     2
172
     1
173
     0
174
     0
175
     0
176
     2
177
     2
178
     4
  0
DIMSTYLE
  2
AM_JIS$SH
 70
     0
  3

  4
"
  5

  6
GENAXEH
  7

 40
1.0
 41
2.0
 42
1.0
 43
10.0
 44
1.0
 45
0.0
 46
0.0
 47
0.1
 48
0.1
140
2.5
141
0.0
142
0.0
143
0.0393701
144
2.0
145
0.0
146
0.71
147
1.5
 71
     0
 72
     0
 73
     0
 74
     0
 75
     1
 76
     1
 77
     3
 78
     8
170
     0
171
     2
172
     1
173
     1
174
     0
175
     0
176
     2
177
     2
178
     4
  0
DIMSTYLE
  2
STANDARD
 70
     0
  3

  4

  5

  6

  7

 40
1.0
 41
0.18
 42
0.0625
 43
0.38
 44
0.18
 45
0.0
 46
0.0
 47
0.0
 48
0.0
140
0.18
141
0.09
142
0.0
143
25.399999999999999
144
1.0
145
0.0
146
1.0
147
0.09
 71
     0
 72
     0
 73
     1
 74
     1
 75
     0
 76
     0
 77
     0
 78
     0
170
     0
171
     2
172
     0
173
     0
174
     0
175
     0
176
     0
177
     0
178
     0
  0
DIMSTYLE
  2
AM_JIS$0
 70
     0
  3

  4
"
  5

  6

  7

 40
1.0
 41
2.0
 42
1.0
 43
8.0
 44
1.0
 45
0.0
 46
0.0
 47
0.1
 48
0.1
140
2.5
141
0.0
142
0.0
143
0.0393701
144
1.0
145
0.0
146
0.71
147
1.5
 71
     0
 72
     0
 73
     0
 74
     0
 75
     0
 76
     0
 77
     3
 78
     8
170
     0
171
     2
172
     1
173
     0
174
     0
175
     0
176
     2
177
     2
178
     4
  0
ENDTAB
  0
ENDSEC
  0
SECTION
  2
BLOCKS
  0
BLOCK
  8
0
  2
$MODEL_SPACE
 70
     0
 10
0.0
 20
0.0
 30
0.0
  3
$MODEL_SPACE
  1

  0
ENDBLK
  5
77
  8
0
  0
BLOCK
 67
     1
  8
0
  2
$PAPER_SPACE
 70
     0
 10
0.0
 20
0.0
 30
0.0
  3
$PAPER_SPACE
  1

  0
ENDBLK
  5
73
 67
     1
  8
0
  0
BLOCK
  8
0
  2
GENAXEH
 70
     0
 10
0.0
 20
0.0
 30
0.0
  3
GENAXEH
  1

  0
LINE
  5
D2E4
  8
0
 10
-1.0
 20
0.0
 30
0.0
 11
1.0
 21
0.0
 31
0.0
  0
ENDBLK
  5
D2E5
  8
0
  0
BLOCK
  8
0
  2
_OPEN30
 70
     0
 10
0.0
 20
0.0
 30
0.0
  3
_OPEN30
  1

  0
LINE
  5
D32B
  8
0
  6
BYBLOCK
 62
     0
 10
-1.0
 20
0.26794919
 30
0.0
 11
0.0
 21
0.0
 31
0.0
  0
LINE
  5
D32C
  8
0
  6
BYBLOCK
 62
     0
 10
0.0
 20
0.0
 30
0.0
 11
-1.0
 21
-0.26794919
 31
0.0
  0
LINE
  5
D32D
  8
0
  6
BYBLOCK
 62
     0
 10
0.0
 20
0.0
 30
0.0
 11
-1.0
 21
0.0
 31
0.0
  0
ENDBLK
  5
D32E
  8
0
  0
BLOCK
  8
0
  2
*D3
 70
     1
 10
0.0
 20
0.0
 30
0.0
  3
*D3
  1

  0
LINE
  5
D375
  8
AM_5
 62
     2
 10
913.7802694798587
 20
664.41540060954082
 30
0.0
 11
913.7802694798587
 21
809.44958224505206
 31
0.0
  0
LINE
  5
D376
  8
AM_5
 62
     2
 10
146.28031942985939
 20
664.41540060954082
 30
0.0
 11
146.28031942985939
 21
809.44958224505206
 31
0.0
  0
LINE
  5
D377
  8
AM_5
 62
     2
 10
911.7802694798587
 20
808.44958224505172
 30
0.0
 11
148.28031942985939
 21
808.44958224505172
 31
0.0
  0
SOLID
  5
D378
  8
AM_5
 62
     2
 10
911.7802694798587
 20
808.7829155783852
 30
0.0
 11
911.7802694798587
 21
808.11624891171857
 31
0.0
 12
913.7802694798587
 22
808.44958224505172
 32
0.0
 13
913.7802694798587
 23
808.44958224505172
 33
0.0
  0
SOLID
  5
D379
  8
AM_5
 62
     2
 10
148.28031942985939
 20
808.7829155783852
 30
0.0
 11
148.28031942985939
 21
808.11624891171857
 31
0.0
 12
146.28031942985939
 22
808.44958224505172
 32
0.0
 13
146.28031942985939
 23
808.44958224505172
 33
0.0
  0
INSERT
  5
D37A
  8
0
  2
*U7
 10
0.0
 20
0.0
 30
0.0
  0
POINT
  5
D37B
  8
DEFPOINTS
 62
     0
 10
913.7802694798587
 20
663.41540060954082
 30
0.0
  0
POINT
  5
D37C
  8
DEFPOINTS
 62
     0
 10
146.28031942985939
 20
663.41540060954082
 30
0.0
  0
POINT
  5
D37D
  8
DEFPOINTS
 62
     0
 10
146.28031942985939
 20
808.44958224505172
 30
0.0
  0
ENDBLK
  5
D357
  8
0
  0
BLOCK
  8
0
  2
_ACMFILLEDHALF
 70
     0
 10
0.0
 20
0.0
 30
0.0
  3
_ACMFILLEDHALF
  1

  0
TRACE
  5
D3F0
  8
AM_0
 62
     0
 10
-0.8
 20
0.0
 30
0.0
 11
-1.0
 21
0.166666666
 31
0.0
 12
0.0
 22
0.0
 32
0.0
 13
0.0
 23
0.0
 33
0.0
  0
LINE
  5
D3F1
  8
AM_0
 62
     0
 10
-1.0
 20
0.0
 30
0.0
 11
-0.8
 21
0.0
 31
0.0
  0
ENDBLK
  5
D3F2
  8
0
  0
BLOCK
  8
0
  2
*U7
 70
     1
 10
0.0
 20
0.0
 30
0.0
  3
*U7
  1

  0
TEXT
  5
D490
  8
AM_5
 62
     4
 10
527.56362778819221
 20
809.94958224505206
 30
0.0
 40
2.5
  1
767
 41
0.7400000000000003
  0
ENDBLK
  5
D492
  8
0
  0
ENDSEC
  0
SECTION
  2
ENTITIES
  0
LINE
  5
A703
  8
0
  6
AM_ISO08W050
 10
922.554227230386
 20
651.02358006933218
 30
0.0
 11
604.07004583505523
 21
651.02358006933218
 31
0.0
  0
LINE
  5
A70A
  8
0
  6
AM_ISO08W050
 10
613.26466683988156
 20
603.02358756933222
 30
0.0
 11
131.59156975649151
 21
603.02358756933222
 31
0.0
  0
LINE
  5
BB16
  8
0
 10
563.28031942985945
 20
483.30631268900578
 30
0.0
 11
574.28026942985866
 21
483.30631268900578
 31
0.0
  0
LINE
  5
BB17
  8
0
 10
563.28031942985945
 20
723.30635268900596
 30
0.0
 11
574.28026942985866
 21
723.30635268900596
 31
0.0
  0
LINE
  5
BB18
  8
0
 10
564.25916942985862
 20
677.74326768900573
 30
0.0
 11
575.28806942985921
 21
677.74326768900573
 31
0.0
  0
LINE
  5
BB19
  8
0
 10
563.28031942985945
 20
703.03350268900579
 30
0.0
 11
574.28026942985866
 21
703.03350268900579
 31
0.0
  0
LINE
  5
BB1A
  8
0
 10
563.28031942985945
 20
687.47715268900572
 30
0.0
 11
574.28026942985866
 21
687.47715268900572
 31
0.0
  0
LINE
  5
BB1B
  8
0
 10
563.28031942985945
 20
503.5791126890058
 30
0.0
 11
574.28026942985866
 21
503.5791126890058
 31
0.0
  0
LINE
  5
BB1C
  8
0
 10
563.28031942985945
 20
519.13544768900556
 30
0.0
 11
574.28026942985866
 21
519.13544768900556
 31
0.0
  0
LINE
  5
BB1D
  8
0
 10
564.25916942985862
 20
528.86936268900581
 30
0.0
 11
575.28806942985921
 21
528.86936268900581
 31
0.0
  0
LINE
  5
BB24
  8
0
 10
290.2803194298595
 20
600.0234655693323
 30
0.0
 11
290.2803194298595
 21
562.96866356933231
 31
0.0
  0
ARC
  5
BB25
  8
0
 10
302.2803194298595
 20
651.48721056933221
 30
0.0
 40
2.0
 50
103.9145969999999
 51
180.00000899999949
  0
ARC
  5
BB26
  8
0
 10
319.15300042985939
 20
663.71325456933209
 30
0.0
 40
10.0
 50
90.00000299999769
 51
107.64566599999689
  0
ARC
  5
BB27
  8
0
 10
302.2803194298595
 20
666.74108656933231
 30
0.0
 40
2.0
 50
107.6456559999987
 51
180.00000899999949
  0
LINE
  5
BB28
  8
0
 10
302.2802524298595
 20
653.54765156933206
 30
0.0
 11
301.79938242985941
 21
653.42851856933225
 31
0.0
  0
LINE
  5
BB29
  8
0
 10
300.2803194298595
 20
647.41344956933233
 30
0.0
 11
300.2803194298595
 21
651.48721056933221
 31
0.0
  0
LINE
  5
BB2A
  8
0
 10
316.12170942985949
 20
673.24273556933224
 30
0.0
 11
301.67403442985949
 21
668.64698556933229
 31
0.0
  0
LINE
  5
BB2B
  8
0
 10
300.2803194298595
 20
661.86657456933233
 30
0.0
 11
300.2803194298595
 21
666.74108656933231
 31
0.0
  0
LINE
  5
BB2C
  8
0
 10
298.2803194298595
 20
591.18462756933218
 30
0.0
 11
298.2803194298595
 21
562.96866356933231
 31
0.0
  0
LINE
  5
BB2D
  8
0
 10
298.2803194298595
 20
675.62358756933224
 30
0.0
 11
298.2803194298595
 21
614.59509156933223
 31
0.0
  0
LINE
  5
BB2E
  8
0
 10
290.2803194298595
 20
562.96866356933231
 30
0.0
 11
302.2802524298595
 21
562.96866356933231
 31
0.0
  0
LINE
  5
BB2F
  8
0
 10
326.28036942985938
 20
475.4734055693321
 30
0.0
 11
304.28036942985938
 21
475.4734055693321
 31
0.0
  0
LINE
  5
BB30
  8
0
 10
326.28031942985939
 20
675.62358756933224
 30
0.0
 11
290.2803194298595
 21
675.62358756933224
 31
0.0
  0
LINE
  5
BB31
  8
0
 10
320.38321342985938
 20
470.77328156933208
 30
0.0
 11
541.1774034298594
 21
470.77328156933208
 31
0.0
  0
LINE
  5
BB32
  8
0
 10
325.28030742985948
 20
469.47358356933222
 30
0.0
 11
536.28030742985948
 21
469.47358356933222
 31
0.0
  0
ARC
  5
BB33
  8
0
 10
325.28030742985948
 20
471.47358356933222
 30
0.0
 40
2.0
 50
200.496600000001
 51
269.99999700000228
  0
ARC
  5
BB34
  8
0
 10
320.38321342985938
 20
480.7732815693322
 30
0.0
 40
10.0
 50
238.9024929999994
 51
269.99999700000228
  0
LINE
  5
BB35
  8
0
 10
563.28031942985945
 20
718.02360156933219
 30
0.0
 11
561.28034742985915
 21
718.03759956933231
 31
0.0
  0
LINE
  5
BB36
  8
0
 10
561.28031942985945
 20
723.69724756933215
 30
0.0
 11
561.28031942985945
 21
707.57795556933229
 31
0.0
  0
LINE
  5
BB37
  8
0
 10
545.43899742985934
 20
673.24275556933219
 30
0.0
 11
559.88664342985942
 21
668.64701556933232
 31
0.0
  0
LINE
  5
BB38
  8
0
 10
545.14428342985934
 20
657.04983156933201
 30
0.0
 11
559.76128342985942
 21
653.42853956933232
 31
0.0
  0
LINE
  5
BB39
  8
0
 10
544.78193142985947
 20
639.69688356933204
 30
0.0
 11
559.61145742985934
 21
637.20712556933222
 31
0.0
  0
LINE
  5
BB3A
  8
0
 10
544.38138542985939
 20
621.5743875693322
 30
0.0
 11
559.44922742985943
 21
620.29705556933231
 31
0.0
  0
LINE
  5
BB3B
  8
0
 10
489.28025242985939
 20
639.83492756933219
 30
0.0
 11
543.12614542985943
 21
639.83492756933219
 31
0.0
  0
LINE
  5
BB3C
  8
0
 10
561.28031942985945
 20
661.86657556933233
 30
0.0
 11
561.28031942985945
 21
666.74108556933197
 31
0.0
  0
LINE
  5
BB3D
  8
0
 10
561.28031942985945
 20
647.41344956933233
 30
0.0
 11
561.28031942985945
 21
651.4872115693322
 31
0.0
  0
LINE
  5
BB3E
  8
0
 10
561.28031942985945
 20
632.09631156933233
 30
0.0
 11
561.28031942985945
 21
635.23473956933231
 31
0.0
  0
LINE
  5
BB3F
  8
0
 10
489.28025242985939
 20
632.09631156933233
 30
0.0
 11
558.28031942985945
 21
632.09631156933233
 31
0.0
  0
LINE
  5
BB40
  8
0
 10
489.28025242985939
 20
647.41344956933233
 30
0.0
 11
558.28031942985945
 21
647.41344956933233
 31
0.0
  0
LINE
  5
BB41
  8
0
 10
488.68773042985941
 20
661.86657556933233
 30
0.0
 11
558.28031942985945
 21
661.86657556933233
 31
0.0
  0
LINE
  5
BB42
  8
0
 10
491.97628942985921
 20
616.21328556933213
 30
0.0
 11
558.28031942985945
 21
616.21328556933213
 31
0.0
  0
LINE
  5
BB43
  8
0
 10
543.95983342985915
 20
605.09035956933212
 30
0.0
 11
559.83512142985944
 21
604.52260156933232
 31
0.0
  0
LINE
  5
BB44
  8
0
 10
543.95976342985944
 20
605.09039956933225
 30
0.0
 11
498.50325542985939
 21
605.75921156933214
 31
0.0
  0
LINE
  5
BB45
  8
0
 10
561.28031942985945
 20
616.21328556933213
 30
0.0
 11
561.28031942985945
 21
618.30422756933206
 31
0.0
  0
LINE
  5
BB46
  8
0
 10
489.62184142985927
 20
621.61013556933233
 30
0.0
 11
543.53666742985934
 21
621.61013556933233
 31
0.0
  0
LINE
  5
BB47
  8
0
 10
445.78031942985939
 20
689.86785556933216
 30
0.0
 11
445.78031942985939
 21
704.32882356933214
 31
0.0
  0
LINE
  5
BB48
  8
0
 10
298.2803194298595
 20
675.17437556933214
 30
0.0
 11
563.28031942985945
 21
675.17437556933214
 31
0.0
  0
LINE
  5
BB49
  8
0
 10
326.28031942985939
 20
688.86785556933216
 30
0.0
 11
542.07200742985947
 21
688.86785556933216
 31
0.0
  0
LINE
  5
BB4A
  8
0
 10
553.16099742985944
 20
685.26537756933226
 30
0.0
 11
563.28031942985945
 21
685.26537756933226
 31
0.0
  0
LINE
  5
BB4B
  8
0
 10
553.16094742985933
 20
685.26537756933226
 30
0.0
 11
545.71775942985937
 21
688.17957556933231
 31
0.0
  0
LINE
  5
BB4C
  8
0
 10
326.28031942985939
 20
705.32882356933214
 30
0.0
 11
541.74162342985937
 21
705.32882356933214
 31
0.0
  0
LINE
  5
BB4D
  8
0
 10
553.16098542985935
 20
701.03557556933197
 30
0.0
 11
545.97002542985933
 21
704.39089356933209
 31
0.0
  0
LINE
  5
BB4E
  8
0
 10
446.78031942985939
 20
701.03556556933222
 30
0.0
 11
563.28031942985945
 21
701.03556556933222
 31
0.0
  0
LINE
  5
BB4F
  8
0
 10
326.28031942985939
 20
716.28039356933209
 30
0.0
 11
541.52964942985943
 21
716.28039356933209
 31
0.0
  0
LINE
  5
BB50
  8
0
 10
560.19818542985934
 20
707.89243756933229
 30
0.0
 11
546.11900342985939
 21
715.16505556933225
 31
0.0
  0
LINE
  5
BB51
  8
0
 10
561.28031942985945
 20
706.11552156933226
 30
0.0
 11
561.28031942985945
 21
701.03556556933222
 31
0.0
  0
LINE
  5
BB52
  8
0
 10
326.28031942985939
 20
725.02760156933232
 30
0.0
 11
541.36497542985944
 21
725.02760156933232
 31
0.0
  0
LINE
  5
BB53
  8
0
 10
546.22734142985939
 20
723.76582356933227
 30
0.0
 11
560.25277342985942
 21
715.96140756933232
 31
0.0
  0
LINE
  5
BB54
  8
0
 10
326.28031942985939
 20
731.40009756933216
 30
0.0
 11
541.24766542985935
 21
731.40009756933216
 31
0.0
  0
LINE
  5
BB55
  8
0
 10
560.29082942985906
 20
721.83809756933215
 30
0.0
 11
546.3003354298595
 21
730.02968556933217
 31
0.0
  0
LINE
  5
BB56
  8
0
 10
326.28031942985939
 20
735.27389356933213
 30
0.0
 11
541.17741542985925
 21
735.27389356933213
 31
0.0
  0
LINE
  5
BB57
  8
0
 10
560.31330542985916
 20
725.40985556933231
 30
0.0
 11
546.34238942985928
 21
733.83682156933196
 31
0.0
  0
LINE
  5
BB58
  8
0
 10
326.28031942985939
 20
736.57359156933205
 30
0.0
 11
536.28031942985945
 21
736.57359156933205
 31
0.0
  0
LINE
  5
BB59
  8
0
 10
414.78031942985928
 20
701.03556556933222
 30
0.0
 11
326.28031942985939
 21
701.03556556933222
 31
0.0
  0
LINE
  5
BB5A
  8
0
 10
415.78031942985928
 20
689.86785556933216
 30
0.0
 11
415.78031942985928
 21
704.32882356933214
 31
0.0
  0
LINE
  5
BB5B
  8
0
 10
419.28031942985928
 20
740.02358756933222
 30
0.0
 11
442.28031942985939
 21
740.02358756933222
 31
0.0
  0
LINE
  5
BB5C
  8
0
 10
419.28031942985928
 20
740.02358756933222
 30
0.0
 11
419.28031942985928
 21
736.57359156933205
 31
0.0
  0
LINE
  5
BB5D
  8
0
 10
442.28031942985939
 20
740.02358756933222
 30
0.0
 11
442.28031942985939
 21
736.57359156933205
 31
0.0
  0
ARC
  5
BB5E
  8
0
 10
559.28031942985945
 20
618.30422756933206
 30
0.0
 40
2.0
 50
0.0
 51
85.1544959999989
  0
ARC
  5
BB5F
  8
0
 10
559.28031942985945
 20
635.23473956933231
 30
0.0
 40
2.0
 50
0.0
 51
80.469389000002835
  0
ARC
  5
BB60
  8
0
 10
559.28031942985945
 20
651.4872115693322
 30
0.0
 40
2.0
 50
0.0
 51
76.085411000000079
  0
ARC
  5
BB61
  8
0
 10
559.28031942985945
 20
666.74108556933197
 30
0.0
 40
2.0
 50
0.0
 51
72.354331999996262
  0
ARC
  5
BB62
  8
0
 10
542.4076394298595
 20
663.7132535693321
 30
0.0
 40
10.0
 50
72.354331999996262
 51
90.00000299999769
  0
ARC
  5
BB63
  8
0
 10
542.73954942985915
 20
647.34325956933219
 30
0.0
 40
10.0
 50
76.085411000000079
 51
90.00000299999769
  0
ARC
  5
BB64
  8
0
 10
543.12614542985943
 20
629.83492756933231
 30
0.0
 40
10.0
 50
80.469389000002835
 51
90.00000299999769
  0
ARC
  5
BB65
  8
0
 10
543.53666742985934
 20
611.61013556933233
 30
0.0
 40
10.0
 50
85.1544959999989
 51
90.00000299999769
  0
ARC
  5
BB66
  8
0
 10
559.78154142985943
 20
603.02239756933216
 30
0.0
 40
1.498794
 50
0.0454980000043418
 51
90.00000299999769
  0
ARC
  5
BB67
  8
0
 10
542.07200742985947
 20
678.86785556933228
 30
0.0
 40
10.0
 50
68.618382000003152
 51
90.00000299999769
  0
ARC
  5
BB68
  8
0
 10
541.74162342985937
 20
695.32882356933214
 30
0.0
 40
10.0
 50
64.986142000000967
 51
90.00000299999769
  0
ARC
  5
BB69
  8
0
 10
541.52964942985943
 20
706.28039356933175
 30
0.0
 40
10.0
 50
62.681328999998101
 51
90.00000299999769
  0
ARC
  5
BB6A
  8
0
 10
559.28031942985945
 20
706.11552156933226
 30
0.0
 40
2.0
 50
0.0
 51
62.681328999998101
  0
ARC
  5
BB6B
  8
0
 10
541.36497542985944
 20
715.02760156933221
 30
0.0
 40
10.0
 50
60.906360999998121
 51
90.00000299999769
  0
ARC
  5
BB6C
  8
0
 10
559.28031942985945
 20
714.21377356933226
 30
0.0
 40
2.0
 50
0.0
 51
60.906360999998121
  0
ARC
  5
BB6D
  8
0
 10
541.24766542985935
 20
721.40009756933216
 30
0.0
 40
10.0
 50
59.650561999999297
 51
90.00000299999769
  0
ARC
  5
BB6E
  8
0
 10
559.28031942985945
 20
720.11219556933224
 30
0.0
 40
2.0
 50
0.0
 51
59.650561999999297
  0
ARC
  5
BB6F
  8
0
 10
559.28031942985945
 20
723.69724756933215
 30
0.0
 40
2.0
 50
0.0
 51
58.902492999999488
  0
ARC
  5
BB70
  8
0
 10
541.17741542985925
 20
725.27389356933213
 30
0.0
 40
10.0
 50
58.902492999999488
 51
90.00000299999769
  0
ARC
  5
BB71
  8
0
 10
536.28031942985945
 20
734.57359156933205
 30
0.0
 40
2.0
 50
20.4965989999992
 51
90.00000299999769
  0
ARC
  5
BB72
  8
0
 10
446.78031942985939
 20
689.86785556933216
 30
0.0
 40
1.0
 50
179.9999949999995
 51
269.99999700000228
  0
ARC
  5
BB73
  8
0
 10
414.78031942985928
 20
689.86785556933216
 30
0.0
 40
1.0
 50
269.99999700000228
 51
0.0
  0
ARC
  5
BB74
  8
0
 10
446.78031942985939
 20
700.03556556933222
 30
0.0
 40
1.0
 50
89.999998999998596
 51
180.00000899999949
  0
ARC
  5
BB75
  8
0
 10
414.78031942985928
 20
700.03556556933222
 30
0.0
 40
1.0
 50
0.0
 51
90.00000299999769
  0
ARC
  5
BB76
  8
0
 10
446.78031942985939
 20
704.32882356933214
 30
0.0
 40
1.0
 50
89.999998999998596
 51
180.00000899999949
  0
ARC
  5
BB77
  8
0
 10
414.78031942985928
 20
704.32882356933214
 30
0.0
 40
1.0
 50
0.0
 51
90.00000299999769
  0
LINE
  5
BB78
  8
0
 10
489.28025242985939
 20
657.3432595693323
 30
0.0
 11
542.73954942985915
 21
657.3432595693323
 31
0.0
  0
LINE
  5
BB79
  8
0
 10
319.13582542985938
 20
673.71323956933225
 30
0.0
 11
542.4076394298595
 21
673.71323956933225
 31
0.0
  0
LINE
  5
BB7A
  8
0
 10
563.28031942985945
 20
488.0235735693322
 30
0.0
 11
561.28034742985915
 21
488.00957556933213
 31
0.0
  0
LINE
  5
BB7B
  8
0
 10
561.28031942985945
 20
482.34992756933212
 30
0.0
 11
561.28031942985945
 21
498.4692195693321
 31
0.0
  0
LINE
  5
BB7C
  8
0
 10
326.28036942985938
 20
532.33393556933186
 30
0.0
 11
542.4076394298595
 21
532.33393556933186
 31
0.0
  0
LINE
  5
BB7D
  8
0
 10
545.43899742985934
 20
532.80441956933214
 30
0.0
 11
559.88664342985942
 21
537.40015956933223
 31
0.0
  0
LINE
  5
BB7E
  8
0
 10
545.14428342985934
 20
548.99734356933232
 30
0.0
 11
559.76128342985942
 21
552.61863556933213
 31
0.0
  0
LINE
  5
BB7F
  8
0
 10
544.78193142985947
 20
566.35029156933228
 30
0.0
 11
559.61145742985934
 21
568.84004956933222
 31
0.0
  0
LINE
  5
BB80
  8
0
 10
544.38138542985939
 20
584.47278756933224
 30
0.0
 11
559.44922742985943
 21
585.75011956933224
 31
0.0
  0
LINE
  5
BB81
  8
0
 10
489.28025242985939
 20
566.21224756933225
 30
0.0
 11
543.12614542985943
 21
566.21224756933225
 31
0.0
  0
LINE
  5
BB82
  8
0
 10
561.28031942985945
 20
544.18059956933223
 30
0.0
 11
561.28031942985945
 21
539.30608956933224
 31
0.0
  0
LINE
  5
BB83
  8
0
 10
561.28031942985945
 20
558.63372556933211
 30
0.0
 11
561.28031942985945
 21
554.55996356933224
 31
0.0
  0
LINE
  5
BB84
  8
0
 10
561.28031942985945
 20
573.95086356933223
 30
0.0
 11
561.28031942985945
 21
570.81243556933214
 31
0.0
  0
LINE
  5
BB85
  8
0
 10
489.28025242985939
 20
573.95086356933223
 30
0.0
 11
558.28031942985945
 21
573.95086356933223
 31
0.0
  0
LINE
  5
BB86
  8
0
 10
489.28025242985939
 20
558.63372556933211
 30
0.0
 11
558.28031942985945
 21
558.63372556933211
 31
0.0
  0
LINE
  5
BB87
  8
0
 10
492.34765342985918
 20
589.8338895693322
 30
0.0
 11
558.28031942985945
 21
589.8338895693322
 31
0.0
  0
LINE
  5
BB88
  8
0
 10
543.95983342985915
 20
600.95681556933221
 30
0.0
 11
559.83512142985944
 21
601.52457356933223
 31
0.0
  0
LINE
  5
BB89
  8
0
 10
543.95976342985944
 20
600.95677556933197
 30
0.0
 11
498.55299542985932
 21
600.28869456933216
 31
0.0
  0
LINE
  5
BB8A
  8
0
 10
561.28031942985945
 20
589.8338895693322
 30
0.0
 11
561.28031942985945
 21
587.74294756933227
 31
0.0
  0
LINE
  5
BB8B
  8
0
 10
489.68248242985931
 20
584.43703956933223
 30
0.0
 11
543.53666742985934
 21
584.43703956933223
 31
0.0
  0
LINE
  5
BB8C
  8
0
 10
445.78031942985939
 20
516.17931956933205
 30
0.0
 11
445.78031942985939
 21
501.71835156933213
 31
0.0
  0
LINE
  5
BB8D
  8
0
 10
326.28036942985938
 20
530.8727995693323
 30
0.0
 11
563.28031942985945
 21
530.8727995693323
 31
0.0
  0
LINE
  5
BB8E
  8
0
 10
326.28036942985938
 20
517.17931956933216
 30
0.0
 11
542.07200742985947
 21
517.17931956933216
 31
0.0
  0
LINE
  5
BB8F
  8
0
 10
553.16099742985944
 20
520.78179756933218
 30
0.0
 11
563.28031942985945
 21
520.78179756933218
 31
0.0
  0
LINE
  5
BB90
  8
0
 10
553.16094742985933
 20
520.78179756933218
 30
0.0
 11
545.71775942985937
 21
517.86759956933224
 31
0.0
  0
LINE
  5
BB91
  8
0
 10
326.28036942985938
 20
500.71835156933219
 30
0.0
 11
541.74162342985937
 21
500.71835156933219
 31
0.0
  0
LINE
  5
BB92
  8
0
 10
553.16098542985935
 20
505.01159956933219
 30
0.0
 11
545.97002542985933
 21
501.65628156933218
 31
0.0
  0
LINE
  5
BB93
  8
0
 10
446.78031942985939
 20
505.01160956933222
 30
0.0
 11
563.28031942985945
 21
505.01160956933222
 31
0.0
  0
LINE
  5
BB94
  8
0
 10
326.28036942985938
 20
489.76678156933212
 30
0.0
 11
541.52964942985943
 21
489.76678156933212
 31
0.0
  0
LINE
  5
BB95
  8
0
 10
560.19818542985934
 20
498.15473756933221
 30
0.0
 11
546.11900342985939
 21
490.88211956933208
 31
0.0
  0
LINE
  5
BB96
  8
0
 10
561.28031942985945
 20
499.93165356933218
 30
0.0
 11
561.28031942985945
 21
505.01160956933222
 31
0.0
  0
LINE
  5
BB97
  8
0
 10
326.28036942985938
 20
481.01957356933212
 30
0.0
 11
541.36497542985944
 21
481.01957356933212
 31
0.0
  0
LINE
  5
BB98
  8
0
 10
546.22734142985939
 20
482.28135156933189
 30
0.0
 11
560.25277342985942
 21
490.08576756933212
 31
0.0
  0
LINE
  5
BB99
  8
0
 10
320.31296142985951
 20
474.64707756933223
 30
0.0
 11
541.24766542985935
 21
474.64707756933223
 31
0.0
  0
LINE
  5
BB9A
  8
0
 10
560.29082942985906
 20
484.20907756933201
 30
0.0
 11
546.3003354298595
 21
476.01748956933221
 31
0.0
  0
LINE
  5
BB9B
  8
0
 10
560.31330542985916
 20
480.63731956933208
 30
0.0
 11
546.34238942985928
 21
472.2103535693322
 31
0.0
  0
LINE
  5
BB9C
  8
0
 10
414.78031942985928
 20
505.01160956933222
 30
0.0
 11
326.28036942985938
 21
505.01160956933222
 31
0.0
  0
LINE
  5
BB9D
  8
0
 10
415.78031942985928
 20
516.17931956933205
 30
0.0
 11
415.78031942985928
 21
501.71835156933213
 31
0.0
  0
LINE
  5
BB9E
  8
0
 10
419.28031942985928
 20
466.02358756933222
 30
0.0
 11
442.28031942985939
 21
466.02358756933222
 31
0.0
  0
LINE
  5
BB9F
  8
0
 10
419.28031942985928
 20
466.02358756933222
 30
0.0
 11
419.28031942985928
 21
469.47358356933222
 31
0.0
  0
LINE
  5
BBA0
  8
0
 10
442.28031942985939
 20
466.02358756933222
 30
0.0
 11
442.28031942985939
 21
469.47358356933222
 31
0.0
  0
ARC
  5
BBA1
  8
0
 10
559.28031942985945
 20
587.74294756933227
 30
0.0
 40
2.0
 50
274.84550400000109
 51
0.0
  0
ARC
  5
BBA2
  8
0
 10
559.28031942985945
 20
570.81243556933214
 30
0.0
 40
2.0
 50
279.53061099999718
 51
0.0
  0
ARC
  5
BBA3
  8
0
 10
559.28031942985945
 20
554.55996356933224
 30
0.0
 40
2.0
 50
283.91458899999992
 51
0.0
  0
ARC
  5
BBA4
  8
0
 10
559.28031942985945
 20
539.30608956933224
 30
0.0
 40
2.0
 50
287.6456680000037
 51
0.0
  0
ARC
  5
BBA5
  8
0
 10
542.4076394298595
 20
542.33392156933223
 30
0.0
 40
10.0
 50
269.99999700000228
 51
287.6456680000037
  0
ARC
  5
BBA6
  8
0
 10
542.73954942985915
 20
558.70391556933214
 30
0.0
 40
10.0
 50
269.99999700000228
 51
283.91458899999992
  0
ARC
  5
BBA7
  8
0
 10
543.12614542985943
 20
576.21224756933225
 30
0.0
 40
10.0
 50
269.99999700000228
 51
279.53061099999718
  0
ARC
  5
BBA8
  8
0
 10
543.53666742985934
 20
594.43703956933223
 30
0.0
 40
10.0
 50
269.99999700000228
 51
274.84550400000109
  0
ARC
  5
BBA9
  8
0
 10
559.78154142985943
 20
603.02477756933229
 30
0.0
 40
1.498794
 50
272.04545800000011
 51
359.95450199999573
  0
ARC
  5
BBAA
  8
0
 10
542.07200742985947
 20
527.17931956933205
 30
0.0
 40
10.0
 50
269.99999700000228
 51
291.38161799999688
  0
ARC
  5
BBAB
  8
0
 10
541.74162342985937
 20
510.71835156933201
 30
0.0
 40
10.0
 50
269.99999700000228
 51
295.013857999999
  0
ARC
  5
BBAC
  8
0
 10
541.52964942985943
 20
499.76678156933212
 30
0.0
 40
10.0
 50
269.99999700000228
 51
297.31867100000193
  0
ARC
  5
BBAD
  8
0
 10
559.28031942985945
 20
499.93165356933218
 30
0.0
 40
2.0
 50
297.31867100000193
 51
0.0
  0
ARC
  5
BBAE
  8
0
 10
541.36497542985944
 20
491.01957356933218
 30
0.0
 40
10.0
 50
269.99999700000228
 51
299.09363900000187
  0
ARC
  5
BBAF
  8
0
 10
559.28031942985945
 20
491.83340156933212
 30
0.0
 40
2.0
 50
299.09363900000187
 51
0.0
  0
ARC
  5
BBB0
  8
0
 10
541.24766542985935
 20
484.64707756933223
 30
0.0
 40
10.0
 50
269.99999700000228
 51
300.34943800000059
  0
ARC
  5
BBB1
  8
0
 10
559.28031942985945
 20
485.93497956933209
 30
0.0
 40
2.0
 50
300.34943800000059
 51
0.0
  0
ARC
  5
BBB2
  8
0
 10
559.28031942985945
 20
482.34992756933212
 30
0.0
 40
2.0
 50
301.09750700000052
 51
0.0
  0
ARC
  5
BBB3
  8
0
 10
541.17741542985925
 20
480.7732815693322
 30
0.0
 40
10.0
 50
269.99999700000228
 51
301.09750700000052
  0
ARC
  5
BBB4
  8
0
 10
536.28031942985945
 20
471.47358356933222
 30
0.0
 40
2.0
 50
269.99999700000228
 51
339.50340100000079
  0
ARC
  5
BBB5
  8
0
 10
446.78031942985939
 20
516.17931956933205
 30
0.0
 40
1.0
 50
90.00000299999769
 51
180.0000050000005
  0
ARC
  5
BBB6
  8
0
 10
414.78031942985928
 20
516.17931956933205
 30
0.0
 40
1.0
 50
0.0
 51
90.00000299999769
  0
ARC
  5
BBB7
  8
0
 10
446.78031942985939
 20
506.01160956933222
 30
0.0
 40
1.0
 50
179.99999100000039
 51
270.00000100000142
  0
ARC
  5
BBB8
  8
0
 10
414.78031942985928
 20
506.01160956933222
 30
0.0
 40
1.0
 50
269.99999700000228
 51
0.0
  0
ARC
  5
BBB9
  8
0
 10
446.78031942985939
 20
501.71835156933213
 30
0.0
 40
1.0
 50
179.99999100000039
 51
270.00000100000142
  0
ARC
  5
BBBA
  8
0
 10
414.78031942985928
 20
501.71835156933213
 30
0.0
 40
1.0
 50
269.99999700000228
 51
0.0
  0
LINE
  5
BBBB
  8
0
 10
489.28025242985939
 20
548.70391556933214
 30
0.0
 11
542.73954942985915
 21
548.70391556933214
 31
0.0
  0
LINE
  5
BBBC
  8
0
 10
489.17063842985931
 20
544.18059956933223
 30
0.0
 11
558.28031942985945
 21
544.18059956933223
 31
0.0
  0
LINE
  5
BBBD
  8
0
  6
AM_ISO08W050
 10
430.7803134298594
 20
554.15100056933215
 30
0.0
 11
430.7803134298594
 21
526.9885655693322
 31
0.0
  0
LINE
  5
BBBE
  8
0
 10
563.28031942985945
 20
723.30635268900596
 30
0.0
 11
563.28031942985945
 21
483.30631268900578
 31
0.0
  0
LINE
  5
BBBF
  8
0
 10
223.2803194298595
 20
739.88977656933218
 30
0.0
 11
326.28031942985939
 21
739.88998156933212
 31
0.0
  0
LINE
  5
BBC0
  8
0
 10
152.28031942985939
 20
526.67497356933222
 30
0.0
 11
152.28031942985939
 21
701.64547456933224
 31
0.0
  0
LINE
  5
BBC1
  8
0
 10
146.28031942985939
 20
505.51784056933218
 30
0.0
 11
146.28031942985939
 21
703.51534756933211
 31
0.0
  0
LINE
  5
BBC2
  8
0
 10
164.50859042985951
 20
723.43649056933214
 30
0.0
 11
164.50859042985951
 21
573.63878156933231
 31
0.0
  0
LINE
  5
BBC3
  8
0
 10
223.2803194298595
 20
606.02359856933231
 30
0.0
 11
223.2803194298595
 21
739.88977656933218
 31
0.0
  0
ARC
  5
BBC4
  8
0
 10
220.6802214298595
 20
737.45931756933214
 30
0.0
 40
0.6
 50
273.00006100000229
 51
0.0
  0
ARC
  5
BBC5
  8
0
 10
222.88041742985939
 20
737.28988356933223
 30
0.0
 40
1.6000000000000001
 50
75.526099999997555
 51
180.0
  0
LINE
  5
BBC6
  8
0
 10
153.3420874298593
 20
709.5199865693321
 30
0.0
 11
158.11552442985951
 21
727.97750556933215
 31
0.0
  0
ARC
  5
BBC7
  8
0
 10
165.8606414298595
 20
725.97433256933232
 30
0.0
 40
8.0
 50
93.000053000002623
 51
165.4999080000008
  0
ARC
  5
BBC8
  8
0
 10
147.78031942985939
 20
703.51534756933211
 30
0.0
 40
1.5
 50
91.884964000000949
 51
180.0
  0
ARC
  5
BBC9
  8
0
 10
147.5332494298595
 20
711.02242756933219
 30
0.0
 40
6.0
 50
271.88500999999673
 51
345.50021400000151
  0
LINE
  5
BBCA
  8
0
 10
220.71171542985951
 20
736.85995256933211
 30
0.0
 11
165.4419404298595
 21
733.96346756933212
 31
0.0
  0
LINE
  5
BBCB
  8
0
 10
223.2803194298595
 20
472.88981856933219
 30
0.0
 11
304.28036942985938
 21
472.88990256933221
 31
0.0
  0
LINE
  5
BBCC
  8
0
 10
223.2803194298595
 20
472.88979856933207
 30
0.0
 11
223.2803194298595
 21
600.02357656933214
 31
0.0
  0
LINE
  5
BBCD
  8
0
 10
164.50859042985951
 20
550.64390056933212
 30
0.0
 11
164.50859042985951
 21
485.38345056933201
 31
0.0
  0
LINE
  5
BBCE
  8
0
 10
153.3420874298593
 20
496.25954956933219
 30
0.0
 11
156.28031942985939
 21
484.8983435693321
 31
0.0
  0
ARC
  5
BBCF
  8
0
 10
222.88041742985939
 20
475.48989656933207
 30
0.0
 40
1.6000000000000001
 50
180.0
 51
284.47390000000252
  0
ARC
  5
BBD0
  8
0
 10
220.6802214298595
 20
475.32046256933222
 30
0.0
 40
0.6
 50
0.0
 51
86.999924000002295
  0
ARC
  5
BBD1
  8
0
 10
164.02543642985941
 20
486.90139556933212
 30
0.0
 40
8.0
 50
194.50007599999699
 51
267.00003099999992
  0
LINE
  5
BBD2
  8
0
 10
220.71171542985951
 20
475.91958356933208
 30
0.0
 11
163.60673542985941
 21
478.91238156933213
 31
0.0
  0
LINE
  5
BBD3
  8
0
 10
326.28031942985939
 20
739.88998156933212
 30
0.0
 11
326.28031942985939
 21
675.62358756933224
 31
0.0
  0
LINE
  5
BBD4
  8
0
 10
326.28036942985938
 20
533.33236456933207
 30
0.0
 11
326.28036942985938
 21
475.4734055693321
 31
0.0
  0
LINE
  5
BBD5
  8
0
 10
290.2803194298595
 20
675.62358756933224
 30
0.0
 11
290.2803194298595
 21
606.0234655693323
 31
0.0
  0
LINE
  5
BBD6
  8
0
 10
145.48002642985941
 20
502.55595656933201
 30
0.0
 11
145.48002642985941
 21
521.38961556933214
 31
0.0
  0
LINE
  5
BBD7
  8
0
 10
145.48002642985941
 20
521.38961556933214
 30
0.0
 11
146.28007542985949
 21
521.38961556933214
 31
0.0
  0
LINE
  5
BBD8
  8
0
 10
302.2802524298595
 20
624.79305756933206
 30
0.0
 11
302.2802524298595
 21
658.06368756933205
 31
0.0
  0
LINE
  5
BBD9
  8
0
 10
314.7802524298595
 20
670.56368756933205
 30
0.0
 11
476.78025242985939
 21
670.56368756933205
 31
0.0
  0
LINE
  5
BBDA
  8
0
 10
473.78025242985939
 20
662.59457156933229
 30
0.0
 11
317.7802524298595
 21
662.59457156933229
 31
0.0
  0
LINE
  5
BBDB
  8
0
 10
309.2802524298595
 20
654.09457156933229
 30
0.0
 11
309.2802524298595
 21
552.96322356933217
 31
0.0
  0
ARC
  5
BBDC
  8
0
 10
317.7802524298595
 20
654.09457156933229
 30
0.0
 40
8.5
 50
90.0
 51
180.0
  0
ARC
  5
BBDD
  8
0
 10
314.7802524298595
 20
658.06368756933205
 30
0.0
 40
12.5
 50
90.0
 51
180.0
  0
ARC
  5
BBDE
  8
0
 10
290.2802524298595
 20
632.04025056933233
 30
0.0
 40
19.0
 50
300.97779499999791
 51
0.0
  0
LINE
  5
BBDF
  8
0
  6
AM_ISO08W050
 10
302.7802524298595
 20
590.83419556933222
 30
0.0
 11
302.7802524298595
 21
613.0574625693323
 31
0.0
  0
ARC
  5
BBE0
  8
0
 10
307.7802524298595
 20
602.8898595693322
 30
0.0
 40
15.0
 50
120.9777979999982
 51
239.0222020000017
  0
ARC
  5
BBE1
  8
0
 10
287.2802524298595
 20
624.79305756933206
 30
0.0
 40
15.0
 50
313.10465999999991
 51
0.0
  0
LINE
  5
BBE2
  8
0
 10
302.2802524298595
 20
580.98666156933223
 30
0.0
 11
302.2802524298595
 21
545.83236456933207
 31
0.0
  0
ARC
  5
BBE3
  8
0
 10
287.2802524298595
 20
580.98666156933223
 30
0.0
 40
15.0
 50
0.0
 51
46.89532900000161
  0
ARC
  5
BBE4
  8
0
 10
290.2802524298595
 20
573.73934656933216
 30
0.0
 40
19.0
 50
0.0
 51
59.022189999997742
  0
LINE
  5
BBE5
  8
0
 10
314.7802524298595
 20
533.33236456933207
 30
0.0
 11
476.78025242985939
 21
533.33236456933207
 31
0.0
  0
LINE
  5
BBE6
  8
0
 10
317.7802524298595
 20
544.46322356933217
 30
0.0
 11
473.78025242985939
 21
544.46322356933217
 31
0.0
  0
ARC
  5
BBE7
  8
0
 10
317.7802524298595
 20
552.96322356933217
 30
0.0
 40
8.5
 50
180.0
 51
270.0
  0
ARC
  5
BBE8
  8
0
 10
314.7802524298595
 20
545.83236456933207
 30
0.0
 40
12.5
 50
180.0
 51
270.0
  0
LINE
  5
BBE9
  8
0
 10
489.28025242985939
 20
624.79305756933206
 30
0.0
 11
489.28025242985939
 21
658.06368756933205
 31
0.0
  0
LINE
  5
BBEA
  8
0
 10
482.28025242985939
 20
654.09457156933229
 30
0.0
 11
482.28025242985939
 21
552.96322356933217
 31
0.0
  0
LINE
  5
BBEB
  8
0
 10
489.28025242985939
 20
580.98666156933223
 30
0.0
 11
489.28025242985939
 21
545.83236456933207
 31
0.0
  0
ARC
  5
BBEC
  8
0
 10
504.28025242985922
 20
624.79305756933206
 30
0.0
 40
15.0
 50
180.0
 51
226.89534
  0
ARC
  5
BBED
  8
0
 10
501.28025242985927
 20
632.04025056933233
 30
0.0
 40
19.0
 50
180.0
 51
239.02224699999519
  0
ARC
  5
BBEE
  8
0
 10
504.28025242985922
 20
580.98666156933223
 30
0.0
 40
15.0
 50
133.1046750000001
 51
180.0
  0
ARC
  5
BBEF
  8
0
 10
501.28025242985927
 20
573.73934656933216
 30
0.0
 40
19.0
 50
120.9777450000004
 51
180.0
  0
LINE
  5
BBF0
  8
0
  6
AM_ISO08W050
 10
488.78025242985927
 20
594.59017656933224
 30
0.0
 11
488.78025242985927
 21
612.43136356933223
 31
0.0
  0
ARC
  5
BBF1
  8
0
 10
483.78025242985927
 20
602.8898595693322
 30
0.0
 40
15.0
 50
300.97784399999722
 51
59.022129000001307
  0
ARC
  5
BBF2
  8
0
 10
476.78025242985939
 20
658.06368756933205
 30
0.0
 40
12.5
 50
0.0
 51
90.0
  0
ARC
  5
BBF3
  8
0
 10
473.78025242985939
 20
654.09457156933229
 30
0.0
 40
8.5
 50
0.0
 51
90.0
  0
ARC
  5
BBF4
  8
0
 10
476.78025242985939
 20
545.83236456933207
 30
0.0
 40
12.5
 50
270.0
 51
0.0
  0
ARC
  5
BBF5
  8
0
 10
473.78025242985939
 20
552.96322356933217
 30
0.0
 40
8.5
 50
270.0
 51
0.0
  0
LINE
  5
BBF6
  8
0
 10
304.28036942985938
 20
475.4734055693321
 30
0.0
 11
304.28036942985938
 21
472.88990256933221
 31
0.0
  0
LINE
  5
BBF7
  8
0
 10
309.80816342985952
 20
475.47359756933201
 30
0.0
 11
315.21823742985941
 21
472.2103535693322
 31
0.0
  0
ARC
  5
BBF8
  8
0
 10
320.31296142985951
 20
484.64707756933223
 30
0.0
 40
10.0
 50
246.54140899999589
 51
270.00000299999761
  0
ARC
  5
BBF9
  8
0
 10
424.78031342985918
 20
743.32859556933215
 30
0.0
 40
3.999994999999998
 50
112.5229880000019
 51
179.999977999995
  0
ARC
  5
BBFA
  8
0
 10
436.78031342985929
 20
743.32859556933215
 30
0.0
 40
4.0
 50
0.0
 51
67.469796999999772
  0
ARC
  5
BBFB
  8
0
 10
430.7803134298594
 20
728.85960156933231
 30
0.0
 40
19.663599000000001
 50
67.475363999996034
 51
112.5249969999977
  0
ARC
  5
BBFC
  8
0
 10
430.7803134298594
 20
761.0236025693323
 30
0.0
 40
20.5
 50
303.58634299999812
 51
236.41396600000081
  0
ARC
  5
BBFD
  8
0
 10
417.78032842985931
 20
741.4465915693321
 30
0.0
 40
3.0
 50
0.0
 51
56.413954000002391
  0
ARC
  5
BBFE
  8
0
 10
443.78031342985952
 20
741.4465915693321
 30
0.0
 40
3.000011999999999
 50
123.586167000001
 51
179.999977999995
  0
CIRCLE
  5
BBFF
  8
0
 10
430.7803134298594
 20
761.0236025693323
 30
0.0
 40
12.5
  0
LINE
  5
BC00
  8
0
 10
420.78032842985908
 20
743.32859556933215
 30
0.0
 11
420.78032842985908
 21
740.02358756933222
 31
0.0
  0
LINE
  5
BC01
  8
0
 10
440.78031342985929
 20
743.32859556933215
 30
0.0
 11
440.78031342985929
 21
740.02358756933222
 31
0.0
  0
LINE
  5
BC02
  8
0
 10
438.31333342985943
 20
747.02358756933222
 30
0.0
 11
423.24833142985949
 21
747.02358756933222
 31
0.0
  0
ARC
  5
BC03
  8
0
 10
273.2803194298595
 20
603.02347656933227
 30
0.0
 40
6.5
 50
202.6198650000033
 51
337.3801349999967
  0
ARC
  5
BC04
  8
0
 10
273.2803194298595
 20
603.02347656933227
 30
0.0
 40
11.0
 50
193.1365589999983
 51
346.86344099999542
  0
ARC
  5
BC05
  8
0
 10
273.2803194298595
 20
603.02345456933233
 30
0.0
 40
6.5
 50
22.619865000003308
 51
157.3801349999967
  0
ARC
  5
BC06
  8
0
 10
273.2803194298595
 20
603.02345456933233
 30
0.0
 40
11.0
 50
13.1365589999983
 51
166.86344100000159
  0
LINE
  5
BC07
  8
0
 10
257.78031942985939
 20
605.52345456933233
 30
0.0
 11
288.76186742985948
 21
605.52345456933233
 31
0.0
  0
LINE
  5
BC08
  8
0
 10
257.78031942985939
 20
600.52347656933205
 30
0.0
 11
288.76186742985948
 21
600.52347656933205
 31
0.0
  0
LINE
  5
BC09
  8
0
  6
AM_ISO08W050
 10
273.2803194298595
 20
588.76984956933222
 30
0.0
 11
273.2803194298595
 21
617.27708156933215
 31
0.0
  0
LINE
  5
BC0A
  8
0
 10
176.6568704298594
 20
595.58909256933225
 30
0.0
 11
149.15796942985941
 21
493.85095056933221
 31
0.0
  0
ARC
  5
BC0B
  8
0
 10
182.44902042985939
 20
594.02352656933215
 30
0.0
 40
12.0
 50
90.0
 51
164.87488799999949
  0
ARC
  5
BC0C
  8
0
 10
182.44902042985939
 20
594.02352656933215
 30
0.0
 40
6.0
 50
90.0
 51
164.87488799999949
  0
LINE
  5
BC0D
  8
0
 10
257.28030842985947
 20
606.0234655693323
 30
0.0
 11
182.41074742985941
 21
606.0234655693323
 31
0.0
  0
LINE
  5
BC0E
  8
0
 10
257.78031942985939
 20
605.52345456933233
 30
0.0
 11
257.28030842985947
 21
606.0234655693323
 31
0.0
  0
LINE
  5
BC0F
  8
0
 10
257.28030842985947
 20
600.0234655693323
 30
0.0
 11
182.4219574298595
 21
600.0234655693323
 31
0.0
  0
LINE
  5
BC10
  8
0
 10
257.78031942985939
 20
600.52347656933205
 30
0.0
 11
257.28030842985947
 21
600.0234655693323
 31
0.0
  0
LINE
  5
BC11
  8
0
 10
170.86471942985941
 20
597.15465856933224
 30
0.0
 11
143.36581942985941
 21
495.41651656933209
 31
0.0
  0
LINE
  5
BC12
  8
0
 10
141.3776354298594
 20
496.40968556933223
 30
0.0
 11
140.7204084298595
 21
495.95355656933219
 31
0.0
  0
LINE
  5
BC13
  8
0
 10
140.7204084298595
 20
495.95355656933219
 30
0.0
 11
143.14007042985941
 21
492.46712056933211
 31
0.0
  0
LINE
  5
BC14
  8
0
 10
141.3776354298594
 20
496.40968556933223
 30
0.0
 11
143.79729642985939
 21
492.92324956933209
 31
0.0
  0
ARC
  5
BC15
  8
0
 10
146.26189442985941
 20
494.63373356933209
 30
0.0
 40
3.799999999999998
 50
216.3263539999987
 51
22.738533999997919
  0
ARC
  5
BC16
  8
0
 10
146.26189442985941
 20
494.63373356933209
 30
0.0
 40
3.0
 50
164.87488799999949
 51
344.87488799999937
  0
ARC
  5
BC17
  8
0
 10
147.5332494298595
 20
494.89095856933199
 30
0.0
 40
6.0
 50
14.5004039999993
 51
56.120364000000613
  0
LINE
  5
BC18
  8
0
 10
291.26187842985939
 20
606.0234655693323
 30
0.0
 11
291.26187842985939
 21
600.0234655693323
 31
0.0
  0
LINE
  5
BC19
  8
0
 10
289.26187842985939
 20
606.0234655693323
 30
0.0
 11
291.26187842985939
 21
606.0234655693323
 31
0.0
  0
LINE
  5
BC1A
  8
0
 10
289.26187842985939
 20
600.0234655693323
 30
0.0
 11
291.26187842985939
 21
600.0234655693323
 31
0.0
  0
LINE
  5
BC1B
  8
0
 10
288.76186742985948
 20
605.52345456933233
 30
0.0
 11
289.26187842985939
 21
606.0234655693323
 31
0.0
  0
LINE
  5
BC1C
  8
0
 10
288.76186742985948
 20
600.52347656933205
 30
0.0
 11
289.26187842985939
 21
600.0234655693323
 31
0.0
  0
LINE
  5
C924
  8
0
  6
AM_ISO08W050
 10
121.2080057246343
 20
1094.6389834409899
 30
0.0
 11
929.60320947985781
 21
1094.6389834409899
 31
0.0
  0
LINE
  5
C926
  8
0
  6
CONTINUOUS
 10
563.28026947985882
 20
1214.638983440989
 30
0.0
 11
563.28026947985882
 21
974.63902344099017
 31
0.0
  0
LINE
  5
C936
  8
0
  6
CONTINUOUS
 10
563.28026947985882
 20
994.91178344099035
 30
0.0
 11
576.2801694798585
 21
994.91178344099035
 31
0.0
  0
LINE
  5
C937
  8
0
  6
CONTINUOUS
 10
563.28026947985882
 20
974.63902344099017
 30
0.0
 11
574.28026947985961
 21
974.63902344099017
 31
0.0
  0
LINE
  5
C93A
  8
0
  6
CONTINUOUS
 10
563.28026947985882
 20
1010.46812344099
 30
0.0
 11
576.2801694798585
 21
1010.46812344099
 31
0.0
  0
LINE
  5
C93B
  8
0
  6
CONTINUOUS
 10
563.28026947985882
 20
1018.6423134409901
 30
0.0
 11
576.2801694798585
 21
1018.6423134409901
 31
0.0
  0
LINE
  5
C95F
  8
0
  6
CONTINUOUS
 10
563.28026947985882
 20
1170.635583440989
 30
0.0
 11
576.2801694798585
 21
1170.635583440989
 31
0.0
  0
LINE
  5
C960
  8
0
  6
CONTINUOUS
 10
563.28026947985882
 20
1178.80978344099
 30
0.0
 11
576.2801694798585
 21
1178.80978344099
 31
0.0
  0
LINE
  5
C961
  8
0
  6
CONTINUOUS
 10
563.28026947985882
 20
1194.3661834409891
 30
0.0
 11
576.2801694798585
 21
1194.3661834409891
 31
0.0
  0
LINE
  5
C962
  8
0
  6
CONTINUOUS
 10
563.28026947985882
 20
1214.638983440989
 30
0.0
 11
574.28026947985961
 21
1214.638983440989
 31
0.0
  0
LINE
  5
C99E
  8
0
 10
563.28026947985882
 20
1209.63899644099
 30
0.0
 11
563.28026947985882
 21
979.63898344099061
 31
0.0
  0
ARC
  5
C99F
  8
0
  6
CONTINUOUS
 10
559.2802694798587
 20
976.47489844098959
 30
0.0
 40
2.0
 50
299.99999800001649
 51
0.0
  0
LINE
  5
C9A0
  8
0
  6
CONTINUOUS
 10
560.28027047985904
 20
974.74287244098957
 30
0.0
 11
554.9405564798584
 21
971.65998644098966
 31
0.0
  0
ARC
  5
C9A1
  8
0
  6
CONTINUOUS
 10
549.94054747985899
 20
980.32023544098968
 30
0.0
 40
10.0
 50
269.99999700001541
 51
299.99999800001649
  0
LINE
  5
C9A2
  8
0
  6
CONTINUOUS
 10
478.83848447985872
 20
970.32023544098956
 30
0.0
 11
549.94054747985899
 21
970.32023544098956
 31
0.0
  0
LINE
  5
C9A3
  8
0
  6
CONTINUOUS
 10
563.28024847985876
 20
1209.6390164409891
 30
0.0
 11
561.28033047985843
 21
1209.6530164409889
 31
0.0
  0
LINE
  5
C9A4
  8
0
  6
CONTINUOUS
 10
561.28033047985843
 20
1217.7089504409889
 30
0.0
 11
545.08556747985881
 21
1227.639003440989
 31
0.0
  0
LINE
  5
C9A5
  8
0
  6
CONTINUOUS
 10
326.2802694798587
 20
1227.639003440989
 30
0.0
 11
545.08544547985844
 21
1227.639003440989
 31
0.0
  0
LINE
  5
C9A6
  8
0
  6
CENTER
 10
430.7802694798587
 20
953.02723344098968
 30
0.0
 11
430.7802694798587
 21
967.47226544098964
 31
0.0
  0
LINE
  5
C9A7
  8
0
  6
CONTINUOUS
 10
563.28024847985876
 20
979.63899044098969
 30
0.0
 11
556.33003547985857
 21
979.59033844098963
 31
0.0
  0
ARC
  5
C9A8
  8
0
  6
CONTINUOUS
 10
549.94054747985899
 20
976.63900344098965
 30
0.0
 40
10.0
 50
269.99999700001541
 51
299.99999800001649
  0
ARC
  5
C9A9
  8
0
  6
CONTINUOUS
 10
562.7802694798587
 20
978.13546344098972
 30
0.0
 40
1.5
 50
90.401064000021776
 51
180.0000050000005
  0
ARC
  5
C9AA
  8
0
  6
CONTINUOUS
 10
559.2802694798587
 20
972.79366644098968
 30
0.0
 40
2.0
 50
299.99999800001649
 51
0.0
  0
LINE
  5
C9AB
  8
0
  6
CONTINUOUS
 10
560.28027047985904
 20
971.06164044098966
 30
0.0
 11
554.9405564798584
 21
967.97875444098952
 31
0.0
  0
LINE
  5
C9AC
  8
0
  6
CONTINUOUS
 10
561.28026947985859
 20
972.79366644098968
 30
0.0
 11
561.28026947985859
 21
978.13546344098972
 31
0.0
  0
LINE
  5
C9AD
  8
0
  6
CONTINUOUS
 10
477.8520464798587
 20
966.63900344098965
 30
0.0
 11
549.94054747985899
 21
966.63900344098965
 31
0.0
  0
LINE
  5
C9AE
  8
0
  6
CONTINUOUS
 10
476.78030347985839
 20
962.63900144098955
 30
0.0
 11
479.55824847985912
 21
973.00643344098967
 31
0.0
  0
ARC
  5
C9AF
  8
0
  6
CONTINUOUS
 10
381.004573479859
 20
965.13900344098965
 30
0.0
 40
3.0
 50
14.999999999994451
 51
90.000002999984659
  0
ARC
  5
C9B0
  8
0
  6
CONTINUOUS
 10
334.53857047985849
 20
973.13900344098965
 30
0.0
 40
5.0
 50
239.99999700002189
 51
269.99999700001541
  0
LINE
  5
C9B1
  8
0
  6
CONTINUOUS
 10
384.78025847985862
 20
962.63905144098942
 30
0.0
 11
383.902336479859
 21
965.91549944098972
 31
0.0
  0
LINE
  5
C9B2
  8
0
  6
CONTINUOUS
 10
334.53857047985849
 20
968.13900344098965
 30
0.0
 11
381.004573479859
 21
968.13900344098965
 31
0.0
  0
LINE
  5
C9B3
  8
0
  6
CONTINUOUS
 10
324.76823647985867
 20
973.00643344098967
 30
0.0
 11
332.03861147985879
 21
968.8088804409897
 31
0.0
  0
LINE
  5
C9B4
  8
0
  6
CONTINUOUS
 10
290.2802694798587
 20
978.45641444098965
 30
0.0
 11
290.2802694798587
 21
957.6388944409897
 31
0.0
  0
LINE
  5
C9B5
  8
0
  6
CONTINUOUS
 10
290.2802694798587
 20
978.45641444098965
 30
0.0
 11
326.2802694798587
 21
978.45641444098965
 31
0.0
  0
LINE
  5
C9B6
  8
0
  6
CONTINUOUS
 10
291.2802694798587
 20
947.6388934409897
 30
0.0
 11
291.2802694798587
 21
953.6391044409894
 31
0.0
  0
LINE
  5
C9B8
  8
0
  6
CONTINUOUS
 10
549.24175647985919
 20
1025.050138440989
 30
0.0
 11
563.28026947985882
 21
1025.050138440989
 31
0.0
  0
LINE
  5
C9B9
  8
0
  6
CONTINUOUS
 10
561.28033047985843
 20
995.43685644098969
 30
0.0
 11
545.08556747985881
 21
992.59847744098954
 31
0.0
  0
LINE
  5
C9BA
  8
0
  6
CONTINUOUS
 10
545.08562847985866
 20
1009.157559440989
 30
0.0
 11
561.28033047985843
 21
1012.188809440989
 31
0.0
  0
LINE
  5
C9BB
  8
0
  6
CONTINUOUS
 10
561.28033047985843
 20
1028.9375894409891
 30
0.0
 11
545.08556747985881
 21
1023.708097440989
 31
0.0
  0
LINE
  5
C9BC
  8
0
  6
CONTINUOUS
 10
561.28033047985843
 20
1044.8726474409891
 30
0.0
 11
545.08556747985881
 21
1041.8666664409891
 31
0.0
  0
LINE
  5
C9BD
  8
0
  6
CONTINUOUS
 10
561.28033047985843
 20
1060.245938440989
 30
0.0
 11
545.08556747985881
 21
1058.5160804409891
 31
0.0
  0
LINE
  5
C9BE
  8
0
  6
CONTINUOUS
 10
561.28033047985843
 20
1077.459806440989
 30
0.0
 11
545.08556747985881
 21
1076.2286044409891
 31
0.0
  0
LINE
  5
C9BF
  8
0
  6
CONTINUOUS
 10
549.24175647985919
 20
1164.22787244099
 30
0.0
 11
563.28026947985882
 21
1164.22787244099
 31
0.0
  0
LINE
  5
C9C0
  8
0
  6
CONTINUOUS
 10
561.28033047985843
 20
1111.8182044409889
 30
0.0
 11
545.08556747985881
 21
1113.0494054409889
 31
0.0
  0
LINE
  5
C9C1
  8
0
  6
CONTINUOUS
 10
561.28033047985843
 20
1129.0320714409891
 30
0.0
 11
545.08556747985881
 21
1130.7619304409891
 31
0.0
  0
LINE
  5
C9C2
  8
0
  6
CONTINUOUS
 10
561.28033047985843
 20
1144.4053624409901
 30
0.0
 11
545.08556747985881
 21
1147.4113444409891
 31
0.0
  0
LINE
  5
C9C3
  8
0
  6
CONTINUOUS
 10
561.28033047985843
 20
1160.3404214409891
 30
0.0
 11
545.08556747985881
 21
1165.569913440989
 31
0.0
  0
LINE
  5
C9C4
  8
0
  6
CONTINUOUS
 10
545.08562847985866
 20
1180.1204504409891
 30
0.0
 11
561.28033047985843
 21
1177.0892004409891
 31
0.0
  0
LINE
  5
C9C5
  8
0
  6
CONTINUOUS
 10
561.28033047985843
 20
1193.841153440989
 30
0.0
 11
545.08556747985881
 21
1196.6795324409891
 31
0.0
  0
LINE
  5
C9C6
  8
0
  6
CONTINUOUS
 10
561.28033047985843
 20
1198.677091440989
 30
0.0
 11
545.08556747985881
 21
1207.529141440989
 31
0.0
  0
LINE
  5
C9C7
  8
0
  6
CONTINUOUS
 10
561.28033047985843
 20
1206.7891514409889
 30
0.0
 11
545.08556747985881
 21
1216.271573440989
 31
0.0
  0
LINE
  5
C9C8
  8
0
  6
CONTINUOUS
 10
561.28033047985843
 20
1212.8433504409891
 30
0.0
 11
545.08556747985881
 21
1222.4843424409901
 31
0.0
  0
LINE
  5
C9C9
  8
0
  6
CONTINUOUS
 10
561.28033047985843
 20
1216.4146404409889
 30
0.0
 11
545.08556747985881
 21
1226.3446934409901
 31
0.0
  0
LINE
  5
C9CA
  8
0
  6
CONTINUOUS
 10
326.2802694798587
 20
1226.3446934409901
 30
0.0
 11
545.08544547985844
 21
1226.3446934409901
 31
0.0
  0
LINE
  5
C9CB
  8
0
  6
CONTINUOUS
 10
326.2802694798587
 20
1222.4843424409901
 30
0.0
 11
545.08556747985881
 21
1222.4843424409901
 31
0.0
  0
LINE
  5
C9CC
  8
0
  6
CONTINUOUS
 10
326.2802694798587
 20
1216.271573440989
 30
0.0
 11
545.08562847985866
 21
1216.271573440989
 31
0.0
  0
LINE
  5
C9CD
  8
0
  6
CONTINUOUS
 10
326.28020847985903
 20
1207.529141440989
 30
0.0
 11
545.08562847985866
 21
1207.529141440989
 31
0.0
  0
LINE
  5
C9CE
  8
0
  6
CONTINUOUS
 10
326.2802694798587
 20
1196.679282440989
 30
0.0
 11
545.08507947985834
 21
1196.6795324409891
 31
0.0
  0
LINE
  5
C9CF
  8
0
  6
CONTINUOUS
 10
326.2802694798587
 20
1180.1204504409891
 30
0.0
 11
545.08532347985874
 21
1180.1204504409891
 31
0.0
  0
LINE
  5
C9D0
  8
0
  6
CONTINUOUS
 10
326.2802694798587
 20
1165.569913440989
 30
0.0
 11
545.08562847985866
 21
1165.569913440989
 31
0.0
  0
LINE
  5
C9D1
  8
0
  6
CONTINUOUS
 10
326.2802694798587
 20
1147.4112224409901
 30
0.0
 11
545.08575047985903
 21
1147.4112224409901
 31
0.0
  0
LINE
  5
C9D2
  8
0
  6
CONTINUOUS
 10
326.2802694798587
 20
1130.762735440989
 30
0.0
 11
545.08550647985919
 21
1130.7619304409891
 31
0.0
  0
LINE
  5
C9D3
  8
0
  6
CONTINUOUS
 10
326.2802694798587
 20
1113.0494054409889
 30
0.0
 11
545.08623847985871
 21
1113.0494054409889
 31
0.0
  0
LINE
  5
C9D5
  8
0
  6
CONTINUOUS
 10
326.2802694798587
 20
978.45641444098965
 30
0.0
 11
326.2802694798587
 21
1231.6391274409889
 31
0.0
  0
LINE
  5
C9D6
  8
0
  6
CONTINUOUS
 10
146.2802694798587
 20
997.26698544098974
 30
0.0
 11
146.2802694798587
 21
1195.2644934409891
 31
0.0
  0
LINE
  5
C9D7
  8
0
  6
CONTINUOUS
 10
223.2802694798587
 20
1231.638883440989
 30
0.0
 11
326.2802694798587
 21
1231.63908844099
 31
0.0
  0
LINE
  5
C9D8
  8
0
  6
CONTINUOUS
 10
223.2802694798587
 20
957.63885344098969
 30
0.0
 11
223.2802694798587
 21
1231.638883440989
 31
0.0
  0
LINE
  5
C9D9
  8
0
  6
CONTINUOUS
 10
152.2802694798587
 20
995.65064644098936
 30
0.0
 11
152.2802694798587
 21
1193.394620440989
 31
0.0
  0
ARC
  5
C9DA
  8
0
  6
CONTINUOUS
 10
220.69092547985869
 20
1229.2225354409891
 30
0.0
 40
0.6
 50
273.00006100002201
 51
0.0
  0
ARC
  5
C9DB
  8
0
  6
CONTINUOUS
 10
222.88036747985859
 20
1229.0390294409899
 30
0.0
 40
1.6000000000000001
 50
75.526100000002202
 51
180.0
  0
LINE
  5
C9DC
  8
0
  6
CONTINUOUS
 10
220.71166647985899
 20
1228.6090984409891
 30
0.0
 11
164.7097454798589
 21
1225.6742444409899
 31
0.0
  0
LINE
  5
C9DD
  8
0
  6
CONTINUOUS
 10
153.34203747985831
 20
1201.2691324409891
 30
0.0
 11
158.2990524798582
 21
1220.436496440989
 31
0.0
  0
LINE
  5
C9DE
  8
0
  6
CONTINUOUS
 10
164.50854147985899
 20
1215.1856364409889
 30
0.0
 11
164.50854147985899
 21
974.87692344098969
 31
0.0
  0
LINE
  5
C9DF
  8
0
  6
CONTINUOUS
 10
145.47997647985841
 20
1013.138761440989
 30
0.0
 11
146.28002547985881
 21
1013.138761440989
 31
0.0
  0
LINE
  5
C9E0
  8
0
  6
CONTINUOUS
 10
146.28002547985881
 20
994.01327244098968
 30
0.0
 11
146.28002547985881
 21
1013.138761440989
 31
0.0
  0
LINE
  5
C9E1
  8
0
  6
CONTINUOUS
 10
145.47997647985841
 20
1176.139005440989
 30
0.0
 11
145.47997647985841
 21
1013.138761440989
 31
0.0
  0
ARC
  5
C9E2
  8
0
  6
CONTINUOUS
 10
147.53319947985921
 20
1202.7715734409901
 30
0.0
 40
6.0
 50
271.88500999997711
 51
345.50021400000162
  0
ARC
  5
C9E3
  8
0
  6
CONTINUOUS
 10
147.78026947985859
 20
1195.2644934409891
 30
0.0
 40
1.5
 50
91.884964000020602
 51
180.0
  0
LINE
  5
C9E4
  8
0
  6
CONTINUOUS
 10
223.2802694798587
 20
957.63885344098969
 30
0.0
 11
290.2802694798587
 21
957.63888544098972
 31
0.0
  0
LINE
  5
C9E5
  8
0
  6
CONTINUOUS
 10
174.78052647985839
 20
1241.6389264409891
 30
0.0
 11
172.0348634798587
 21
1241.0833004409899
 31
0.0
  0
LINE
  5
C9E6
  8
0
  6
CONTINUOUS
 10
172.0348634798587
 20
1241.0833004409899
 30
0.0
 11
169.31035147985889
 21
1239.4208064409891
 31
0.0
  0
LINE
  5
C9E7
  8
0
  6
CONTINUOUS
 10
169.31035147985889
 20
1239.4208064409891
 30
0.0
 11
166.6274694798588
 21
1236.6640444409891
 31
0.0
  0
LINE
  5
C9E8
  8
0
  6
CONTINUOUS
 10
166.6274694798588
 20
1236.6640444409891
 30
0.0
 11
164.0066354798586
 21
1232.833996440989
 31
0.0
  0
LINE
  5
C9E9
  8
0
  6
CONTINUOUS
 10
164.0066354798586
 20
1232.833996440989
 30
0.0
 11
161.46779447985901
 21
1227.9598114409889
 31
0.0
  0
LINE
  5
C9EA
  8
0
  6
CONTINUOUS
 10
161.46779447985901
 20
1227.9598114409889
 30
0.0
 11
159.19986947985879
 21
1222.4877924409891
 31
0.0
  0
LINE
  5
C9EB
  8
0
  6
CONTINUOUS
 10
145.47997647985841
 20
1147.9310054409891
 30
0.0
 11
145.17995147985889
 21
1144.573824440989
 31
0.0
  0
LINE
  5
C9EC
  8
0
  6
CONTINUOUS
 10
145.17995147985889
 20
1144.573824440989
 30
0.0
 11
144.35360647985851
 21
1132.426463440989
 31
0.0
  0
LINE
  5
C9ED
  8
0
  6
CONTINUOUS
 10
144.35360647985851
 20
1132.426463440989
 30
0.0
 11
143.75882547985859
 21
1119.9915174409889
 31
0.0
  0
LINE
  5
C9EE
  8
0
  6
CONTINUOUS
 10
143.75882547985859
 20
1119.9915174409889
 30
0.0
 11
143.40013647985899
 21
1107.3636214409889
 31
0.0
  0
LINE
  5
C9EF
  8
0
  6
CONTINUOUS
 10
143.40013647985899
 20
1107.3636214409889
 30
0.0
 11
143.2802694798587
 21
1094.638883440989
 31
0.0
  0
LINE
  5
C9F0
  8
0
  6
CONTINUOUS
 10
143.2802694798587
 20
1094.638883440989
 30
0.0
 11
143.40013647985899
 21
1081.914144440989
 31
0.0
  0
LINE
  5
C9F1
  8
0
  6
CONTINUOUS
 10
143.40013647985899
 20
1081.914144440989
 30
0.0
 11
143.75882547985859
 21
1069.286249440989
 31
0.0
  0
LINE
  5
C9F2
  8
0
  6
CONTINUOUS
 10
143.75882547985859
 20
1069.286249440989
 30
0.0
 11
144.35360647985851
 21
1056.8513024409899
 31
0.0
  0
LINE
  5
C9F3
  8
0
  6
CONTINUOUS
 10
144.35360647985851
 20
1056.8513024409899
 30
0.0
 11
145.17995147985889
 21
1044.7039424409891
 31
0.0
  0
LINE
  5
C9F4
  8
0
  6
CONTINUOUS
 10
145.17995147985889
 20
1044.7039424409891
 30
0.0
 11
145.47997647985841
 21
1041.3467604409891
 31
0.0
  0
ARC
  5
C9F5
  8
0
  6
CONTINUOUS
 10
222.88036747985859
 20
960.23873644098956
 30
0.0
 40
1.6000000000000001
 50
180.0
 51
284.4738999999978
  0
LINE
  5
C9F6
  8
0
  6
CONTINUOUS
 10
220.71166647985899
 20
960.66866844098968
 30
0.0
 11
164.7097454798589
 21
963.60352144098965
 31
0.0
  0
ARC
  5
C9F7
  8
0
  6
CONTINUOUS
 10
220.68017147985881
 20
960.06930344098964
 30
0.0
 40
0.6
 50
0.0
 51
86.999938999978056
  0
LINE
  5
C9F8
  8
0
  6
CONTINUOUS
 10
153.34203747985831
 20
988.00863444098923
 30
0.0
 11
158.2990524798582
 21
968.84126944098955
 31
0.0
  0
ARC
  5
C9F9
  8
0
  6
CONTINUOUS
 10
147.53319947985921
 20
986.50619244098959
 30
0.0
 40
6.0
 50
14.49978599999838
 51
88.114990000022914
  0
ARC
  5
C9FA
  8
0
  6
CONTINUOUS
 10
147.78026947985859
 20
994.01327244098968
 30
0.0
 40
1.5
 50
180.0
 51
268.1150359999794
  0
LINE
  5
C9FB
  8
0
  6
CONTINUOUS
 10
291.2802694798587
 20
1241.6389024409891
 30
0.0
 11
291.2802694798587
 21
1235.6389024409891
 31
0.0
  0
LINE
  5
C9FC
  8
0
  6
CONTINUOUS
 10
279.2802694798587
 20
1235.63890844099
 30
0.0
 11
291.2802694798587
 21
1235.6389024409891
 31
0.0
  0
LINE
  5
C9FD
  8
0
  6
CONTINUOUS
 10
279.28026847985842
 20
1241.63890844099
 30
0.0
 11
291.2802694798587
 21
1241.6389024409891
 31
0.0
  0
LINE
  5
C9FE
  8
0
  6
CONTINUOUS
 10
279.2802694798587
 20
1241.638883440989
 30
0.0
 11
279.2802694798587
 21
1231.6389944409891
 31
0.0
  0
LINE
  5
C9FF
  8
0
  6
CONTINUOUS
 10
267.2802694798587
 20
1241.638913440989
 30
0.0
 11
279.2802694798587
 21
1241.63890844099
 31
0.0
  0
LINE
  5
CA00
  8
0
  6
CONTINUOUS
 10
267.2802694798587
 20
1241.638883440989
 30
0.0
 11
267.2802694798587
 21
1231.6389704409901
 31
0.0
  0
LINE
  5
CA01
  8
0
  6
CONTINUOUS
 10
175.3815284798587
 20
1235.6389254409889
 30
0.0
 11
267.2802694798587
 21
1235.638883440989
 31
0.0
  0
LINE
  5
CA02
  8
0
  6
CONTINUOUS
 10
174.78027047985901
 20
1241.6389264409891
 30
0.0
 11
267.2802694798587
 21
1241.638883440989
 31
0.0
  0
LINE
  5
CA03
  8
0
  6
CONTINUOUS
 10
175.3815284798587
 20
1235.6389254409889
 30
0.0
 11
174.25929847985881
 21
1235.4118254409891
 31
0.0
  0
LINE
  5
CA04
  8
0
  6
CONTINUOUS
 10
174.25929847985881
 20
1235.4118254409891
 30
0.0
 11
173.0820714798586
 21
1234.693483440989
 31
0.0
  0
LINE
  5
CA05
  8
0
  6
CONTINUOUS
 10
173.0820714798586
 20
1234.693483440989
 30
0.0
 11
171.28750947985861
 21
1232.849504440989
 31
0.0
  0
LINE
  5
CA06
  8
0
  6
CONTINUOUS
 10
171.28750947985861
 20
1232.849504440989
 30
0.0
 11
169.16167347985839
 21
1229.742839440989
 31
0.0
  0
LINE
  5
CA07
  8
0
  6
CONTINUOUS
 10
169.16167347985839
 20
1229.742839440989
 30
0.0
 11
167.1079074798584
 21
1225.799923440989
 31
0.0
  0
LINE
  5
CA08
  8
0
  6
CONTINUOUS
 10
140.76269147985869
 20
1090.138883440989
 30
0.0
 11
140.76269147985869
 21
1099.138883440989
 31
0.0
  0
LINE
  5
CA09
  8
0
  6
CONTINUOUS
 10
140.76269147985869
 20
1099.138883440989
 30
0.0
 11
143.3226594798592
 21
1099.138883440989
 31
0.0
  0
LINE
  5
CA0A
  8
0
  6
CONTINUOUS
 10
140.76269147985869
 20
1090.138883440989
 30
0.0
 11
143.3226594798592
 21
1090.138883440989
 31
0.0
  0
LINE
  5
CA0B
  8
0
  6
CONTINUOUS
 10
326.2802694798587
 20
1009.157559440989
 30
0.0
 11
545.08532347985874
 21
1009.157559440989
 31
0.0
  0
LINE
  5
CA0C
  8
0
  6
CONTINUOUS
 10
326.2802694798587
 20
1023.708097440989
 30
0.0
 11
545.08562847985866
 21
1023.708097440989
 31
0.0
  0
LINE
  5
CA0D
  8
0
  6
CONTINUOUS
 10
326.2802694798587
 20
1041.866788440989
 30
0.0
 11
545.08575047985903
 21
1041.866788440989
 31
0.0
  0
LINE
  5
CA0E
  8
0
  6
CONTINUOUS
 10
326.2802694798587
 20
1058.5152754409889
 30
0.0
 11
545.08550647985919
 21
1058.5160804409891
 31
0.0
  0
LINE
  5
CA0F
  8
0
  6
CONTINUOUS
 10
326.2802694798587
 20
1076.2286044409891
 30
0.0
 11
545.08623847985871
 21
1076.2286044409891
 31
0.0
  0
ARC
  5
CA10
  8
0
  6
CONTINUOUS
 10
430.7802694798587
 20
1094.638950440989
 30
0.0
 40
11.5
 50
20.35443300000496
 51
159.64561999997829
  0
LINE
  5
CA11
  8
0
  6
CONTINUOUS
 10
414.28026747985888
 20
1098.638942440989
 30
0.0
 11
447.28026747985888
 21
1098.638958440989
 31
0.0
  0
LINE
  5
CA12
  8
0
  6
CONTINUOUS
 10
414.28027147985841
 20
1090.638942440989
 30
0.0
 11
447.28027147985841
 21
1090.638958440989
 31
0.0
  0
ARC
  5
CA13
  8
0
  6
CONTINUOUS
 10
414.2802694798587
 20
1094.638942440989
 30
0.0
 40
4.0
 50
90.000027000018335
 51
270.0
  0
ARC
  5
CA14
  8
0
  6
CONTINUOUS
 10
447.2802694798587
 20
1094.638958440989
 30
0.0
 40
4.0
 50
270.0
 51
90.0
  0
ARC
  5
CA15
  8
0
  6
CONTINUOUS
 10
430.7802694798587
 20
1094.638950440989
 30
0.0
 40
11.5
 50
200.35443300000489
 51
339.64561999997829
  0
LINE
  5
CA16
  8
0
  6
CONTINUOUS
 10
145.47997647985841
 20
1176.139005440989
 30
0.0
 11
146.28002547985881
 21
1176.139005440989
 31
0.0
  0
ARC
  5
CA17
  8
0
  6
CONTINUOUS
 10
165.0760864798589
 20
1218.6838374409899
 30
0.0
 40
7.0
 50
92.999915000003085
 51
165.50000500001161
  0
ARC
  5
CA18
  8
0
  6
CONTINUOUS
 10
220.69092547985869
 20
960.0552314409897
 30
0.0
 40
0.6
 50
0.0
 51
86.999938999978056
  0
LINE
  5
CA19
  8
0
  6
CONTINUOUS
 10
174.78052647985839
 20
947.63884044098972
 30
0.0
 11
172.0348634798587
 21
948.19446644098957
 31
0.0
  0
LINE
  5
CA1A
  8
0
  6
CONTINUOUS
 10
172.0348634798587
 20
948.19446644098957
 30
0.0
 11
169.31035147985889
 21
949.85696044098972
 31
0.0
  0
LINE
  5
CA1B
  8
0
  6
CONTINUOUS
 10
169.31035147985889
 20
949.85696044098972
 30
0.0
 11
166.6274694798588
 21
952.61372144098982
 31
0.0
  0
LINE
  5
CA1C
  8
0
  6
CONTINUOUS
 10
166.6274694798588
 20
952.61372144098982
 30
0.0
 11
164.0066354798586
 21
956.44376944098985
 31
0.0
  0
LINE
  5
CA1D
  8
0
  6
CONTINUOUS
 10
164.0066354798586
 20
956.44376944098985
 30
0.0
 11
161.46779447985901
 21
961.31795544098964
 31
0.0
  0
LINE
  5
CA1E
  8
0
  6
CONTINUOUS
 10
279.2802694798587
 20
953.63885844098968
 30
0.0
 11
291.2802694798587
 21
953.63886344098967
 31
0.0
  0
LINE
  5
CA1F
  8
0
  6
CONTINUOUS
 10
279.2802694798587
 20
947.63888844098983
 30
0.0
 11
279.2802694798587
 21
957.63877144098967
 31
0.0
  0
LINE
  5
CA20
  8
0
  6
CONTINUOUS
 10
267.2802694798587
 20
947.63888344098973
 30
0.0
 11
267.2802694798587
 21
957.63879544098972
 31
0.0
  0
LINE
  5
CA21
  8
0
  6
CONTINUOUS
 10
175.3815284798587
 20
953.63884044098984
 30
0.0
 11
267.2802694798587
 21
953.63888344098939
 31
0.0
  0
LINE
  5
CA22
  8
0
  6
CONTINUOUS
 10
174.78027047985901
 20
947.63884044098972
 30
0.0
 11
291.2802694798587
 21
947.6388934409897
 31
0.0
  0
LINE
  5
CA23
  8
0
  6
CONTINUOUS
 10
175.3815284798587
 20
953.63884044098984
 30
0.0
 11
174.25929847985881
 21
953.86594044098956
 31
0.0
  0
LINE
  5
CA24
  8
0
  6
CONTINUOUS
 10
174.25929847985881
 20
953.86594044098956
 30
0.0
 11
173.0820714798586
 21
954.58428244098968
 31
0.0
  0
LINE
  5
CA25
  8
0
  6
CONTINUOUS
 10
173.0820714798586
 20
954.58428244098968
 30
0.0
 11
171.28750947985861
 21
956.42826144098967
 31
0.0
  0
LINE
  5
CA26
  8
0
  6
CONTINUOUS
 10
171.28750947985861
 20
956.42826144098967
 30
0.0
 11
169.16167347985839
 21
959.53492744098958
 31
0.0
  0
LINE
  5
CA27
  8
0
  6
CONTINUOUS
 10
169.16167347985839
 20
959.53492744098958
 30
0.0
 11
167.1079074798584
 21
963.47784244098955
 31
0.0
  0
LINE
  5
CA28
  8
0
  6
CONTINUOUS
 10
161.46779447985901
 20
961.31795544098964
 30
0.0
 11
159.19986947985879
 21
966.78997344098957
 31
0.0
  0
ARC
  5
CA29
  8
0
  6
CONTINUOUS
 10
165.0760864798589
 20
970.59392944098965
 30
0.0
 40
7.0
 50
194.49999499998839
 51
267.00008499999689
  0
LINE
  5
CA2A
  8
0
  6
CONTINUOUS
 10
316.28045247985881
 20
961.13900344098965
 30
0.0
 11
476.7802694798587
 21
961.13900344098965
 31
0.0
  0
LINE
  5
CA2B
  8
0
  6
CONTINUOUS
 10
314.78045247985881
 20
955.84671444098967
 30
0.0
 11
476.78045247985858
 21
955.84671444098967
 31
0.0
  0
LINE
  5
CA2C
  8
0
  6
CONTINUOUS
 10
314.78045247985881
 20
949.35710544098936
 30
0.0
 11
476.78045247985858
 21
949.35710544098936
 31
0.0
  0
LINE
  5
CA2D
  8
0
  6
CONTINUOUS
 10
315.28045247985881
 20
943.27812844098958
 30
0.0
 11
476.28045247985858
 21
943.27812844098958
 31
0.0
  0
LINE
  5
CA2E
  8
0
  6
CONTINUOUS
 10
315.28045247985881
 20
896.09000044098946
 30
0.0
 11
475.2804524798587
 21
896.09000044098946
 31
0.0
  0
LINE
  5
CA2F
  8
0
  6
CONTINUOUS
 10
314.78045247985881
 20
894.34158844098965
 30
0.0
 11
476.78045247985858
 21
894.34158844098965
 31
0.0
  0
LINE
  5
CA30
  8
0
  6
CONTINUOUS
 10
489.28045247985858
 20
906.84158844098965
 30
0.0
 11
489.28045247985858
 21
912.51514644098972
 31
0.0
  0
LINE
  5
CA31
  8
0
  6
CONTINUOUS
 10
492.28045247985858
 20
923.58551244098942
 30
0.0
 11
497.78980647985861
 21
923.58551244098942
 31
0.0
  0
LINE
  5
CA32
  8
0
  6
CONTINUOUS
 10
492.26438847985833
 20
915.51510344098972
 30
0.0
 11
497.78980647985861
 21
915.51510344098972
 31
0.0
  0
ARC
  5
CA33
  8
0
  6
CONTINUOUS
 10
490.0351294798586
 20
919.5503084409894
 30
0.0
 40
8.7417320000000007
 50
332.50944499999753
 51
27.49055500000247
  0
LINE
  5
CA34
  8
0
  6
CONTINUOUS
 10
482.2804524798587
 20
903.09000044098968
 30
0.0
 11
482.2804524798587
 21
937.27812844098958
 31
0.0
  0
ARC
  5
CA35
  8
0
  6
CONTINUOUS
 10
492.28045247985858
 20
926.58551244098953
 30
0.0
 40
3.0
 50
180.0
 51
270.0
  0
ARC
  5
CA36
  8
0
  6
CONTINUOUS
 10
476.78045247985858
 20
943.34671444098967
 30
0.0
 40
12.5
 50
0.0
 51
90.0
  0
ARC
  5
CA37
  8
0
  6
CONTINUOUS
 10
476.78045247985858
 20
936.85710544098936
 30
0.0
 40
12.5
 50
0.0
 51
90.0
  0
ARC
  5
CA38
  8
0
  6
CONTINUOUS
 10
476.28045247985858
 20
937.27812844098958
 30
0.0
 40
6.0
 50
0.0
 51
90.0
  0
ARC
  5
CA39
  8
0
  6
CONTINUOUS
 10
476.78045247985858
 20
906.84158844098965
 30
0.0
 40
12.5
 50
270.0
 51
0.0
  0
ARC
  5
CA3A
  8
0
  6
CONTINUOUS
 10
492.28045247985858
 20
912.51514644098972
 30
0.0
 40
3.0
 50
90.0
 51
180.0
  0
LINE
  5
CA3B
  8
0
  6
CONTINUOUS
 10
489.28045247985858
 20
926.58551244098953
 30
0.0
 11
489.28045247985858
 21
943.34671444098967
 31
0.0
  0
LINE
  5
CA3C
  8
0
  6
CENTER
 10
488.78045247985858
 20
917.02026844098975
 30
0.0
 11
488.78045247985858
 21
922.41707344098972
 31
0.0
  0
LINE
  5
CA3D
  8
0
  6
CENTER
 10
486.05631747985842
 20
919.55032944098969
 30
0.0
 11
492.12772247985902
 21
919.55032944098969
 31
0.0
  0
ARC
  5
CA3E
  8
0
  6
CONTINUOUS
 10
314.78045247985881
 20
906.84158844098965
 30
0.0
 40
12.5
 50
180.0
 51
270.0
  0
ARC
  5
CA3F
  8
0
  6
CONTINUOUS
 10
301.52577547985891
 20
919.5503084409894
 30
0.0
 40
8.7417320000000007
 50
152.5094449999975
 51
207.4905550000025
  0
ARC
  5
CA40
  8
0
  6
CONTINUOUS
 10
314.78045247985881
 20
936.85710544098936
 30
0.0
 40
12.5
 50
90.0
 51
180.0
  0
ARC
  5
CA41
  8
0
  6
CONTINUOUS
 10
314.78045247985881
 20
943.34671444098967
 30
0.0
 40
12.5
 50
90.0
 51
180.0
  0
ARC
  5
CA42
  8
0
  6
CONTINUOUS
 10
315.28045247985881
 20
937.27812844098958
 30
0.0
 40
6.0
 50
90.0
 51
180.0
  0
LINE
  5
CA43
  8
0
  6
CONTINUOUS
 10
302.28045247985881
 20
926.58551244098953
 30
0.0
 11
302.28045247985881
 21
943.34671444098967
 31
0.0
  0
LINE
  5
CA44
  8
0
  6
CENTER
 10
302.78045247985881
 20
917.02026844098975
 30
0.0
 11
302.78045247985881
 21
922.41707344098972
 31
0.0
  0
LINE
  5
CA45
  8
0
  6
CENTER
 10
305.5045874798584
 20
919.55032944098969
 30
0.0
 11
299.4331824798586
 21
919.55032944098969
 31
0.0
  0
ARC
  5
CA46
  8
0
  6
CONTINUOUS
 10
299.28045247985881
 20
926.58551244098953
 30
0.0
 40
3.0
 50
270.0
 51
0.0
  0
LINE
  5
CA47
  8
0
  6
CONTINUOUS
 10
299.28045247985881
 20
923.58551244098942
 30
0.0
 11
293.77109947985838
 21
923.58551244098942
 31
0.0
  0
LINE
  5
CA48
  8
0
  6
CONTINUOUS
 10
299.29651747985861
 20
915.51510344098972
 30
0.0
 11
293.77109947985838
 21
915.51510344098972
 31
0.0
  0
ARC
  5
CA49
  8
0
  6
CONTINUOUS
 10
299.28045247985881
 20
912.51514644098972
 30
0.0
 40
3.0
 50
0.0
 51
90.0
  0
LINE
  5
CA4A
  8
0
  6
CONTINUOUS
 10
302.28045247985881
 20
906.84158844098965
 30
0.0
 11
302.28045247985881
 21
912.51514644098972
 31
0.0
  0
LINE
  5
CA4B
  8
0
  6
CONTINUOUS
 10
309.28045247985881
 20
902.09000044098968
 30
0.0
 11
309.28045247985881
 21
937.27812844098958
 31
0.0
  0
ARC
  5
CA4C
  8
0
  6
CONTINUOUS
 10
492.28045247985858
 20
933.07553444098937
 30
0.0
 40
3.0
 50
180.0
 51
270.0
  0
LINE
  5
CA4D
  8
0
  6
CONTINUOUS
 10
492.28045247985858
 20
930.07553444098926
 30
0.0
 11
497.78980647985861
 21
930.07553444098926
 31
0.0
  0
ARC
  5
CA4E
  8
0
  6
CONTINUOUS
 10
490.0351294798586
 20
926.04032944098969
 30
0.0
 40
8.7417320000000007
 50
355.30207200000473
 51
27.49055500000247
  0
LINE
  5
CA4F
  8
0
  6
CONTINUOUS
 10
498.74749247985829
 20
918.83433844098965
 30
0.0
 11
498.74749247985829
 21
926.75629944098955
 31
0.0
  0
LINE
  5
CA50
  8
0
  6
CONTINUOUS
 10
299.28045247985881
 20
930.07553444098926
 30
0.0
 11
293.77109947985838
 21
930.07553444098926
 31
0.0
  0
ARC
  5
CA51
  8
0
  6
CONTINUOUS
 10
301.52577547985891
 20
926.04032944098969
 30
0.0
 40
8.7417320000000007
 50
152.5094449999975
 51
184.6979279999953
  0
LINE
  5
CA52
  8
0
  6
CONTINUOUS
 10
292.8134124798583
 20
918.83433844098965
 30
0.0
 11
292.8134124798583
 21
926.75629944098955
 31
0.0
  0
ARC
  5
CA53
  8
0
  6
CONTINUOUS
 10
299.28045247985881
 20
933.07553444098937
 30
0.0
 40
3.0
 50
270.0
 51
0.0
  0
ARC
  5
CA54
  8
0
  6
CONTINUOUS
 10
475.2804524798587
 20
954.13900344098965
 30
0.0
 40
7.0
 50
3.5992130000037932
 51
90.0
  0
ARC
  5
CA55
  8
0
  6
CONTINUOUS
 10
475.2804524798587
 20
903.09000044098968
 30
0.0
 40
7.0
 50
270.0
 51
0.0
  0
ARC
  5
CA56
  8
0
  6
CONTINUOUS
 10
316.28045247985881
 20
954.13900344098965
 30
0.0
 40
7.0
 50
90.0
 51
176.40078699999609
  0
ARC
  5
CA57
  8
0
  6
CONTINUOUS
 10
316.28045247985881
 20
903.09000044098968
 30
0.0
 40
7.0
 50
180.0
 51
270.0
  0
LINE
  5
CA58
  8
0
  6
CONTINUOUS
 10
326.2802694798587
 20
992.59872744098959
 30
0.0
 11
545.08556747985881
 21
992.59847744098954
 31
0.0
  0
LINE
  5
CA59
  8
0
  6
CONTINUOUS
 10
476.7802694798587
 20
962.63901844098973
 30
0.0
 11
476.7802694798587
 21
961.13900344098965
 31
0.0
  0
LINE
  5
CA5A
  8
0
  6
CONTINUOUS
 10
384.7802694798587
 20
962.63901844098973
 30
0.0
 11
384.7802694798587
 21
961.13900344098965
 31
0.0
  0
LINE
  5
CA5B
  8
0
  6
CONTINUOUS
 10
561.28033047985843
 20
1193.841153440989
 30
0.0
 11
561.28033047985843
 21
1217.7089504409889
 31
0.0
  0
LINE
  5
CA5C
  8
0
  6
CONTINUOUS
 10
561.28045247985881
 20
1177.088956440989
 30
0.0
 11
563.28026947985882
 21
1177.088956440989
 31
0.0
  0
LINE
  5
CA5D
  8
0
  6
CONTINUOUS
 10
561.28033047985843
 20
1141.0918864409889
 30
0.0
 11
561.28039147985817
 21
1144.4053624409901
 31
0.0
  0
LINE
  5
CA5E
  8
0
  6
CONTINUOUS
 10
561.28039147985817
 20
1155.8329744409889
 30
0.0
 11
561.28033047985843
 21
1160.3404214409891
 31
0.0
  0
LINE
  5
CA5F
  8
0
  6
CONTINUOUS
 10
561.28033047985843
 20
1129.0320714409891
 30
0.0
 11
561.28033047985843
 21
1126.1109294409889
 31
0.0
  0
LINE
  5
CA60
  8
0
  6
CONTINUOUS
 10
561.28033047985843
 20
1111.8182044409889
 30
0.0
 11
561.28033047985843
 21
1110.8162514409889
 31
0.0
  0
LINE
  5
CA61
  8
0
  6
CONTINUOUS
 10
561.28045247985881
 20
1012.189054440989
 30
0.0
 11
563.28026947985882
 21
1012.189054440989
 31
0.0
  0
LINE
  5
CA62
  8
0
  6
CONTINUOUS
 10
561.28039147985817
 20
1033.4450354409889
 30
0.0
 11
561.28033047985843
 21
1028.9375894409891
 31
0.0
  0
LINE
  5
CA63
  8
0
  6
CONTINUOUS
 10
561.28033047985843
 20
1048.186124440989
 30
0.0
 11
561.28039147985817
 21
1044.8726474409891
 31
0.0
  0
LINE
  5
CA64
  8
0
  6
CONTINUOUS
 10
561.28033047985843
 20
1060.245938440989
 30
0.0
 11
561.28033047985843
 21
1063.167081440989
 31
0.0
  0
LINE
  5
CA65
  8
0
  6
CONTINUOUS
 10
561.28033047985843
 20
1077.459806440989
 30
0.0
 11
561.28033047985843
 21
1078.461759440989
 31
0.0
  0
LINE
  5
CA66
  8
0
  6
CONTINUOUS
 10
384.78029447985898
 20
962.63900344098965
 30
0.0
 11
476.78023347985828
 21
962.63900344098965
 31
0.0
  0
LINE
  5
CA67
  8
0
  6
CONTINUOUS
 10
561.28033047985843
 20
990.60091544098975
 30
0.0
 11
545.08556747985881
 21
981.74886544098968
 31
0.0
  0
LINE
  5
CA68
  8
0
  6
CONTINUOUS
 10
326.28020847985903
 20
981.74886544098968
 30
0.0
 11
545.08562847985866
 21
981.74886544098968
 31
0.0
  0
LINE
  5
CA69
  8
0
  6
CONTINUOUS
 10
561.28033047985843
 20
995.43685644098969
 30
0.0
 11
561.28033047985843
 21
982.48885544098971
 31
0.0
  0
LINE
  5
CA6A
  8
0
  6
CONTINUOUS
 10
561.28033047985843
 20
982.48885544098971
 30
0.0
 11
545.08556747985881
 21
973.00643344098967
 31
0.0
  0
LINE
  5
CA6B
  8
0
  6
CONTINUOUS
 10
316.47508247985883
 20
973.00643344098967
 30
0.0
 11
545.08562847985866
 21
973.00643344098967
 31
0.0
  0
LINE
  5
CA6C
  8
0
  6
CONTINUOUS
 10
307.16721247985822
 20
978.45641444098965
 30
0.0
 11
316.47508247985883
 21
973.00643344098967
 31
0.0
  0
LINE
  5
CA6D
  8
0
  6
CONTINUOUS
 10
563.28026947985882
 20
1209.6390164409891
 30
0.0
 11
563.28026947985882
 21
979.63900344098954
 31
0.0
  0
LINE
  5
CD03
  8
0
  6
CONTINUOUS
 62
     7
 10
660.28026947985882
 20
1253.58601344099
 30
0.0
 11
660.28026947985882
 21
1099.6389834409899
 31
0.0
  0
LINE
  5
CD04
  8
0
  6
CENTER
 62
     7
 10
642.28026947985882
 20
1077.5041034409901
 30
0.0
 11
642.28026947985882
 21
1110.55231344099
 31
0.0
  0
LINE
  5
CD05
  8
0
  6
CONTINUOUS
 62
     7
 10
622.28026947985882
 20
1089.6389834409899
 30
0.0
 11
662.28026947985836
 21
1089.6389834409899
 31
0.0
  0
LINE
  5
CD06
  8
0
  6
CONTINUOUS
 62
     7
 10
622.28026947985882
 20
1099.6389834409899
 30
0.0
 11
662.28026947985836
 21
1099.6389834409899
 31
0.0
  0
LINE
  5
CD07
  8
0
  6
CONTINUOUS
 62
     7
 10
660.28026947985882
 20
935.6920234409896
 30
0.0
 11
645.10570947985843
 21
936.22193344099003
 31
0.0
  0
LINE
  5
CD08
  8
0
  6
CONTINUOUS
 62
     7
 10
660.28026947985882
 20
1253.58601344099
 30
0.0
 11
645.10570947985843
 21
1253.0561134409891
 31
0.0
  0
LINE
  5
CD09
  8
0
  6
CONTINUOUS
 62
     7
 10
576.28020947985851
 20
1007.96412344099
 30
0.0
 11
620.28020947985851
 21
1007.96412344099
 31
0.0
  0
LINE
  5
CD0A
  8
0
  6
CONTINUOUS
 62
     7
 10
576.28020947985851
 20
1023.706183440989
 30
0.0
 11
620.28020947985851
 21
1023.706183440989
 31
0.0
  0
LINE
  5
CD0B
  8
0
  6
CONTINUOUS
 62
     7
 10
576.28020947985851
 20
1165.5717134409899
 30
0.0
 11
620.28020947985851
 21
1165.5717134409899
 31
0.0
  0
LINE
  5
CD0C
  8
0
  6
CONTINUOUS
 62
     7
 10
576.28020947985851
 20
1181.3138134409901
 30
0.0
 11
620.28020947985851
 21
1181.3138134409901
 31
0.0
  0
LINE
  5
CD0D
  8
0
  6
CONTINUOUS
 62
     7
 10
576.28020947985851
 20
1212.6390134409901
 30
0.0
 11
576.28020947985851
 21
976.6389834409897
 31
0.0
  0
LINE
  5
CD0E
  8
0
  6
CONTINUOUS
 62
     7
 10
578.28026947985848
 20
982.63898344098959
 30
0.0
 11
615.28020947985851
 21
982.63898344098959
 31
0.0
  0
LINE
  5
CD0F
  8
0
  6
CONTINUOUS
 62
     7
 10
578.28026947985848
 20
1206.6390134409901
 30
0.0
 11
615.28020947985851
 21
1206.6390134409901
 31
0.0
  0
LINE
  5
CD10
  8
0
  6
CONTINUOUS
 62
     7
 10
640.28020947985874
 20
941.21882344098958
 30
0.0
 11
640.28020947985874
 21
1075.90400344099
 31
0.0
  0
LINE
  5
CD11
  8
0
  6
CONTINUOUS
 62
     7
 10
620.28020947985851
 20
969.70759344098997
 30
0.0
 11
620.28020947985851
 21
1090.0564034409899
 31
0.0
  0
LINE
  5
CD12
  8
0
  6
CONTINUOUS
 62
     7
 10
624.9462294798584
 20
964.71876344098985
 30
0.0
 11
635.61424947985881
 21
964.00440344099025
 31
0.0
  0
LINE
  5
CD13
  8
0
  6
CONTINUOUS
 62
     7
 10
624.94615947985824
 20
1224.559113440989
 30
0.0
 11
635.61424947985881
 21
1225.27351344099
 31
0.0
  0
LINE
  5
CD14
  8
0
  6
CONTINUOUS
 62
     7
 10
660.28026947985882
 20
1089.6389834409899
 30
0.0
 11
660.28026947985882
 21
935.69196344098998
 31
0.0
  0
LINE
  5
CD15
  8
0
  6
CONTINUOUS
 62
     7
 10
640.28020947985874
 20
1113.3739734409901
 30
0.0
 11
640.28020947985874
 21
1248.0591134409899
 31
0.0
  0
LINE
  5
CD16
  8
0
  6
CONTINUOUS
 62
     7
 10
620.28020947985851
 20
1099.221563440989
 30
0.0
 11
620.28020947985851
 21
1219.57041344099
 31
0.0
  0
LINE
  5
CD17
  8
0
  6
CONTINUOUS
 62
     7
 10
771.4125294798589
 20
1235.351513440989
 30
0.0
 11
715.14806947985858
 21
1200.5131134409901
 31
0.0
  0
LINE
  5
CD18
  8
0
  6
CONTINUOUS
 62
     7
 10
771.41240947985852
 20
1223.386213440989
 30
0.0
 11
716.47539947985854
 21
1189.3697134409881
 31
0.0
  0
LINE
  5
CD19
  8
0
  6
CONTINUOUS
 62
     7
 10
712.7802694798587
 20
1196.262113440989
 30
0.0
 11
712.7802694798587
 21
1192.0816134409899
 31
0.0
  0
LINE
  5
CD1A
  8
0
  6
CONTINUOUS
 62
     7
 10
773.78032947985855
 20
1204.5457134409901
 30
0.0
 11
751.6024794798584
 21
1188.068213440989
 31
0.0
  0
LINE
  5
CD1B
  8
0
  6
CONTINUOUS
 62
     7
 10
913.7802694798587
 20
1124.6389834409899
 30
0.0
 11
913.7802694798587
 21
1064.6389834409899
 31
0.0
  0
LINE
  5
CD1C
  8
0
  6
CONTINUOUS
 62
     7
 10
717.7802694798587
 20
1187.081613440989
 30
0.0
 11
748.62053947985839
 21
1187.081613440989
 31
0.0
  0
LINE
  5
CD1D
  8
0
  6
CONTINUOUS
 62
     7
 10
808.78026947985859
 20
1127.1389834409899
 30
0.0
 11
808.78026947985859
 21
1062.1389834409899
 31
0.0
  0
LINE
  5
CD1E
  8
0
  6
CONTINUOUS
 62
     7
 10
808.78026947985859
 20
1124.6389834409899
 30
0.0
 11
913.7802694798587
 21
1124.6389834409899
 31
0.0
  0
LINE
  5
CD1F
  8
0
  6
CONTINUOUS
 62
     7
 10
775.7802694798587
 20
1243.1978134409881
 30
0.0
 11
780.7802694798587
 21
1243.1978134409881
 31
0.0
  0
LINE
  5
CD20
  8
0
  6
CONTINUOUS
 62
     7
 10
832.78026947985825
 20
1103.6389834409899
 30
0.0
 11
832.78026947985825
 21
1085.6389834409899
 31
0.0
  0
LINE
  5
CD21
  8
0
  6
CONTINUOUS
 62
     7
 10
773.78026947985859
 20
1180.91031344099
 30
0.0
 11
780.7802694798587
 21
1180.91031344099
 31
0.0
  0
LINE
  5
CD22
  8
0
  6
CONTINUOUS
 62
     7
 10
776.7802694798587
 20
1279.6390134409901
 30
0.0
 11
798.78026947985859
 21
1279.6390134409901
 31
0.0
  0
LINE
  5
CD23
  8
0
  6
CONTINUOUS
 62
     7
 10
798.78026947985859
 20
1279.6390134409901
 30
0.0
 11
798.78026947985859
 21
909.6389834409897
 31
0.0
  0
LINE
  5
CD24
  8
0
  6
CONTINUOUS
 62
     7
 10
768.95470947985859
 20
931.89692344098955
 30
0.0
 11
660.28026947985882
 21
935.69196344098998
 31
0.0
  0
LINE
  5
CD25
  8
0
  6
CONTINUOUS
 62
     7
 10
782.78026947985848
 20
1241.1978134409881
 30
0.0
 11
782.78026947985848
 21
948.06904344098984
 31
0.0
  0
LINE
  5
CD26
  8
0
  6
CONTINUOUS
 62
     7
 10
798.78026947985859
 20
1249.6390134409901
 30
0.0
 11
803.7802694798587
 21
1249.6390134409901
 31
0.0
  0
LINE
  5
CD27
  8
0
  6
CONTINUOUS
 62
     7
 10
768.95470947985859
 20
1257.3809134409901
 30
0.0
 11
660.28026947985882
 21
1253.58601344099
 31
0.0
  0
LINE
  5
CD28
  8
0
  6
CONTINUOUS
 62
     7
 10
773.78026947985859
 20
1276.6390134409901
 30
0.0
 11
773.78026947985859
 21
912.63898344099005
 31
0.0
  0
LINE
  5
CD29
  8
0
  6
CONTINUOUS
 62
     7
 10
803.7802694798587
 20
939.63898344098959
 30
0.0
 11
803.7802694798587
 21
1249.6390134409901
 31
0.0
  0
LINE
  5
CD2A
  8
0
  6
CONTINUOUS
 62
     7
 10
771.41246947985871
 20
953.92640344098959
 30
0.0
 11
715.14806947985858
 21
988.76478344098973
 31
0.0
  0
LINE
  5
CD2B
  8
0
  6
CONTINUOUS
 62
     7
 10
771.41240947985852
 20
965.8919134409897
 30
0.0
 11
716.47539947985854
 21
999.90833344098974
 31
0.0
  0
LINE
  5
CD2C
  8
0
  6
CONTINUOUS
 62
     7
 10
712.7802694798587
 20
993.01581344098997
 30
0.0
 11
712.7802694798587
 21
997.19636344099013
 31
0.0
  0
LINE
  5
CD2D
  8
0
  6
CONTINUOUS
 62
     7
 10
773.78026947985859
 20
984.73218344098962
 30
0.0
 11
751.60253947985871
 21
1001.20978344099
 31
0.0
  0
LINE
  5
CD2E
  8
0
  6
CONTINUOUS
 62
     7
 10
717.7802694798587
 20
1002.19636344099
 30
0.0
 11
748.62053947985839
 21
1002.19636344099
 31
0.0
  0
LINE
  5
CD2F
  8
0
  6
CONTINUOUS
 62
     7
 10
775.7802694798587
 20
946.0800834409896
 30
0.0
 11
780.7802694798587
 21
946.0800834409896
 31
0.0
  0
LINE
  5
CD30
  8
0
  6
CONTINUOUS
 62
     7
 10
773.78026947985859
 20
1008.36762344099
 30
0.0
 11
780.7802694798587
 21
1008.36762344099
 31
0.0
  0
LINE
  5
CD31
  8
0
  6
CONTINUOUS
 62
     7
 10
776.7802694798587
 20
909.63892344098986
 30
0.0
 11
798.78026947985859
 21
909.63892344098986
 31
0.0
  0
LINE
  5
CD32
  8
0
  6
CONTINUOUS
 62
     7
 10
798.78026947985859
 20
939.63898344098959
 30
0.0
 11
803.7802694798587
 21
939.63898344098959
 31
0.0
  0
LINE
  5
CD33
  8
0
  6
CONTINUOUS
 62
     7
 10
832.78026947985825
 20
1085.6389834409899
 30
0.0
 11
913.7802694798587
 21
1085.6389834409899
 31
0.0
  0
LINE
  5
CD34
  8
0
  6
CONTINUOUS
 62
     7
 10
832.78026947985825
 20
1103.6389834409899
 30
0.0
 11
913.7802694798587
 21
1103.6389834409899
 31
0.0
  0
LINE
  5
CD35
  8
0
  6
CONTINUOUS
 62
     7
 10
808.78026947985859
 20
1064.6389834409899
 30
0.0
 11
913.7802694798587
 21
1064.6389834409899
 31
0.0
  0
LINE
  5
CD36
  8
0
  6
CONTINUOUS
 62
     7
 10
803.7802694798587
 20
1127.1389834409899
 30
0.0
 11
808.78026947985859
 21
1127.1389834409899
 31
0.0
  0
LINE
  5
CD37
  8
0
  6
CONTINUOUS
 62
     7
 10
803.7802694798587
 20
1062.1389834409899
 30
0.0
 11
808.78026947985859
 21
1062.1389834409899
 31
0.0
  0
ARC
  5
CD38
  8
0
  6
CONTINUOUS
 62
     7
 10
662.28026947985836
 20
1094.6389834409899
 30
0.0
 40
5.0
 50
270.0
 51
90.00000299999769
  0
ARC
  5
CD39
  8
0
  6
CONTINUOUS
 62
     7
 10
622.28026947985882
 20
1094.6389834409899
 30
0.0
 40
5.0
 50
90.00000299999769
 51
270.0
  0
ARC
  5
CD3A
  8
0
  6
CONTINUOUS
 62
     7
 10
642.28026947985882
 20
1094.6389834409899
 30
0.0
 40
12.5
 50
23.578179999997541
 51
156.42182000000241
  0
ARC
  5
CD3B
  8
0
  6
CONTINUOUS
 62
     7
 10
642.28026947985882
 20
1094.6389834409899
 30
0.0
 40
12.5
 50
203.5781799999975
 51
336.42182999999483
  0
ARC
  5
CD3C
  8
0
  6
CONTINUOUS
 62
     7
 10
574.28026947985848
 20
1212.6390134409901
 30
0.0
 40
2.0
 50
0.0
 51
90.00000299999769
  0
ARC
  5
CD3D
  8
0
  6
CONTINUOUS
 62
     7
 10
574.28026947985848
 20
976.6389834409897
 30
0.0
 40
2.0
 50
270.0
 51
0.0
  0
ARC
  5
CD3E
  8
0
  6
CONTINUOUS
 62
     7
 10
615.28020947985851
 20
977.6389834409897
 30
0.0
 40
5.0
 50
0.0
 51
90.00000299999769
  0
ARC
  5
CD3F
  8
0
  6
CONTINUOUS
 62
     7
 10
578.28026947985848
 20
1208.6390134409901
 30
0.0
 40
2.0
 50
179.999989999999
 51
270.0
  0
ARC
  5
CD40
  8
0
  6
CONTINUOUS
 62
     7
 10
615.28020947985851
 20
1211.6390134409901
 30
0.0
 40
5.0
 50
270.0
 51
0.0
  0
ARC
  5
CD41
  8
0
  6
CONTINUOUS
 62
     7
 10
578.28026947985848
 20
980.63898344098959
 30
0.0
 40
2.0
 50
90.00000299999769
 51
180.000010000001
  0
ARC
  5
CD42
  8
0
  6
CONTINUOUS
 62
     7
 10
625.2802094798584
 20
969.70759344098997
 30
0.0
 40
5.0
 50
180.000010000001
 51
266.1691599999977
  0
ARC
  5
CD43
  8
0
  6
CONTINUOUS
 62
     7
 10
635.28020947985851
 20
959.01557344098967
 30
0.0
 40
5.0
 50
0.0
 51
86.16916099999878
  0
ARC
  5
CD44
  8
0
  6
CONTINUOUS
 62
     7
 10
645.2802094798584
 20
941.21882344098958
 30
0.0
 40
5.0
 50
180.000010000001
 51
268.00000999999878
  0
ARC
  5
CD45
  8
0
  6
CONTINUOUS
 62
     7
 10
645.2802094798584
 20
1248.0591134409899
 30
0.0
 40
5.0
 50
91.999998000000787
 51
180.000010000001
  0
ARC
  5
CD46
  8
0
  6
CONTINUOUS
 62
     7
 10
625.2802094798584
 20
1219.57041344099
 30
0.0
 40
5.0
 50
93.830836999998056
 51
180.000010000001
  0
ARC
  5
CD47
  8
0
  6
CONTINUOUS
 62
     7
 10
635.28020947985851
 20
1230.26241344099
 30
0.0
 40
5.0
 50
273.83084000000241
 51
0.0
  0
ARC
  5
CD48
  8
0
  6
CONTINUOUS
 62
     7
 10
642.28026947985882
 20
1094.6389834409899
 30
0.0
 40
15.0
 50
110.4873699999977
 51
160.5287699999993
  0
ARC
  5
CD49
  8
0
  6
CONTINUOUS
 62
     7
 10
635.28020947985851
 20
1075.90400344099
 30
0.0
 40
5.0
 50
0.0
 51
69.512624999999204
  0
ARC
  5
CD4A
  8
0
  6
CONTINUOUS
 62
     7
 10
635.28020947985851
 20
1113.3739734409901
 30
0.0
 40
5.0
 50
290.4873799999977
 51
0.0
  0
ARC
  5
CD4B
  8
0
  6
CONTINUOUS
 62
     7
 10
642.28026947985882
 20
1094.6389834409899
 30
0.0
 40
15.0
 50
199.4712300000007
 51
249.51263000000219
  0
ARC
  5
CD4C
  8
0
  6
CONTINUOUS
 62
     7
 10
717.7802694798587
 20
1192.0816134409899
 30
0.0
 40
5.0
 50
179.999989999999
 51
270.0
  0
ARC
  5
CD4D
  8
0
  6
CONTINUOUS
 62
     7
 10
768.7802694798587
 20
1239.602613440989
 30
0.0
 40
5.0
 50
301.76536999999581
 51
0.0
  0
ARC
  5
CD4E
  8
0
  6
CONTINUOUS
 62
     7
 10
776.7802694798587
 20
1276.6390134409901
 30
0.0
 40
3.0
 50
90.00000299999769
 51
180.000010000001
  0
ARC
  5
CD4F
  8
0
  6
CONTINUOUS
 62
     7
 10
780.7802694798587
 20
1178.91031344099
 30
0.0
 40
2.0
 50
0.0
 51
90.00000299999769
  0
ARC
  5
CD50
  8
0
  6
CONTINUOUS
 62
     7
 10
832.78026947985825
 20
1094.6389834409899
 30
0.0
 40
9.0
 50
90.00000299999769
 51
270.0
  0
ARC
  5
CD51
  8
0
  6
CONTINUOUS
 62
     7
 10
717.7802694798587
 20
993.01581344098997
 30
0.0
 40
5.0
 50
179.999989999999
 51
238.23464999999629
  0
ARC
  5
CD52
  8
0
  6
CONTINUOUS
 62
     7
 10
717.7802694798587
 20
1196.262113440989
 30
0.0
 40
5.0
 50
121.76535999999901
 51
180.000010000001
  0
ARC
  5
CD53
  8
0
  6
CONTINUOUS
 62
     7
 10
768.7802694798587
 20
926.90003344099
 30
0.0
 40
5.0
 50
0.0
 51
88.000000000002998
  0
ARC
  5
CD54
  8
0
  6
CONTINUOUS
 62
     7
 10
748.62053947985839
 20
1192.0816134409899
 30
0.0
 40
5.0
 50
270.0
 51
306.61150000000521
  0
ARC
  5
CD55
  8
0
  6
CONTINUOUS
 62
     7
 10
780.7802694798587
 20
1241.1978134409881
 30
0.0
 40
2.0
 50
0.0
 51
90.00000299999769
  0
ARC
  5
CD56
  8
0
  6
CONTINUOUS
 62
     7
 10
775.7802694798587
 20
1245.197813440989
 30
0.0
 40
2.0
 50
179.999989999999
 51
270.0
  0
ARC
  5
CD57
  8
0
  6
CONTINUOUS
 62
     7
 10
717.7802694798587
 20
997.19636344099013
 30
0.0
 40
5.0
 50
90.00000299999769
 51
180.000010000001
  0
ARC
  5
CD58
  8
0
  6
CONTINUOUS
 62
     7
 10
768.7802694798587
 20
949.67536344098971
 30
0.0
 40
5.0
 50
0.0
 51
58.234630000004231
  0
ARC
  5
CD59
  8
0
  6
CONTINUOUS
 62
     7
 10
768.7802694798587
 20
1262.378013440989
 30
0.0
 40
5.0
 50
271.99999999999699
 51
0.0
  0
ARC
  5
CD5A
  8
0
  6
CONTINUOUS
 62
     7
 10
776.7802694798587
 20
912.63898344099005
 30
0.0
 40
3.0
 50
179.999989999999
 51
270.0
  0
ARC
  5
CD5B
  8
0
  6
CONTINUOUS
 62
     7
 10
780.7802694798587
 20
1010.36762344099
 30
0.0
 40
2.0
 50
270.0
 51
0.0
  0
ARC
  5
CD5C
  8
0
  6
CONTINUOUS
 62
     7
 10
780.7802694798587
 20
948.08008344098971
 30
0.0
 40
2.0
 50
270.0
 51
0.0
  0
ARC
  5
CD5D
  8
0
  6
CONTINUOUS
 62
     7
 10
775.7802694798587
 20
944.08008344098971
 30
0.0
 40
2.0
 50
90.00000299999769
 51
180.000010000001
  0
ARC
  5
CD5E
  8
0
  6
CONTINUOUS
 62
     7
 10
748.62053947985839
 20
997.19636344099013
 30
0.0
 40
5.0
 50
53.388504999994019
 51
90.00000299999769
  0
LINE
  5
CDD7
  8
0
  6
CONTINUOUS
 62
     7
 10
639.1543594798585
 20
451.04834006933203
 30
0.0
 11
624.57878947985876
 21
462.7088000693322
 31
0.0
  0
LINE
  5
CDD8
  8
0
  6
CONTINUOUS
 62
     7
 10
808.78026947985859
 20
621.0235800693323
 30
0.0
 11
913.7802694798587
 21
621.0235800693323
 31
0.0
  0
LINE
  5
CDD9
  8
0
  6
CONTINUOUS
 62
     7
 10
913.7802694798587
 20
685.02358006933207
 30
0.0
 11
913.7802694798587
 21
621.0235800693323
 31
0.0
  0
LINE
  5
CDDA
  8
0
  6
CONTINUOUS
 62
     7
 10
808.78026947985859
 20
681.02358006933207
 30
0.0
 11
913.7802694798587
 21
681.02358006933207
 31
0.0
  0
LINE
  5
CDDB
  8
0
  6
CONTINUOUS
 62
     7
 10
832.78026947985825
 20
685.02358006933207
 30
0.0
 11
832.78026947985825
 21
681.02358006933207
 31
0.0
  0
LINE
  5
CDDC
  8
0
  6
CONTINUOUS
 62
     7
 10
832.78026947985825
 20
685.02358006933207
 30
0.0
 11
913.7802694798587
 21
685.02358006933207
 31
0.0
  0
LINE
  5
CDDD
  8
0
  6
CONTINUOUS
 62
     7
 10
639.15441947985835
 20
751.12285006933212
 30
0.0
 11
624.03331947985839
 21
739.02602006933216
 31
0.0
  0
LINE
  5
CDDE
  8
0
  6
CONTINUOUS
 62
     7
 10
578.28032947985844
 20
715.0235800693323
 30
0.0
 11
615.28026947985859
 21
715.0235800693323
 31
0.0
  0
LINE
  5
CDDF
  8
0
  6
CONTINUOUS
 62
     7
 10
576.28026947985859
 20
721.02358006933241
 30
0.0
 11
576.28026947985859
 21
485.02358006933213
 31
0.0
  0
LINE
  5
CDE0
  8
0
  6
CONTINUOUS
 62
     7
 10
578.28032947985844
 20
491.02358006933213
 30
0.0
 11
615.28026947985859
 21
491.02358006933213
 31
0.0
  0
LINE
  5
CDE1
  8
0
  6
CONTINUOUS
 62
     7
 10
629.28026947985882
 20
783.0235800693323
 30
0.0
 11
659.98027947985815
 21
783.0235800693323
 31
0.0
  0
LINE
  5
CDE2
  8
0
  6
CONTINUOUS
 62
     7
 10
620.28026947985848
 20
731.21733006933232
 30
0.0
 11
620.28026947985848
 21
470.9241800693319
 31
0.0
  0
LINE
  5
CDE3
  8
0
  6
CONTINUOUS
 62
     7
 10
640.28026947985859
 20
780.40425006933231
 30
0.0
 11
640.28026947985859
 21
431.65337006933208
 31
0.0
  0
LINE
  5
CDE4
  8
0
  6
CONTINUOUS
 62
     7
 10
627.28032947985844
 20
781.02358006933207
 30
0.0
 11
627.28032947985844
 21
744.02669006933218
 31
0.0
  0
LINE
  5
CDE5
  8
0
  6
CONTINUOUS
 62
     7
 10
642.2103894798588
 20
782.40303006933232
 30
0.0
 11
659.98027947985815
 21
783.0235800693323
 31
0.0
  0
LINE
  5
CDE6
  8
0
  6
CONTINUOUS
 62
     7
 10
632.48625947985852
 20
792.02358006933241
 30
0.0
 11
652.07433947985874
 21
792.02358006933241
 31
0.0
  0
LINE
  5
CDE7
  8
0
  6
CONTINUOUS
 62
     7
 10
629.78026947985825
 20
783.02364006933226
 30
0.0
 11
632.0307594798586
 21
791.42250006933205
 31
0.0
  0
LINE
  5
CDE8
  8
0
  6
CONTINUOUS
 62
     7
 10
654.78026947985882
 20
783.0235800693323
 30
0.0
 11
652.52977947985869
 21
791.42250006933205
 31
0.0
  0
LINE
  5
CDE9
  8
0
  6
CONTINUOUS
 62
     7
 10
632.8022394798586
 20
792.14461006933232
 30
0.0
 11
642.28026947985882
 21
794.02364006933215
 31
0.0
  0
LINE
  5
CDEA
  8
0
  6
CONTINUOUS
 62
     7
 10
642.28026947985882
 20
794.02358006933196
 30
0.0
 11
651.75835947985843
 21
792.14455006933224
 31
0.0
  0
LINE
  5
CDEB
  8
0
  6
CONTINUOUS
 62
     7
 10
576.28026947985859
 20
689.69847006933196
 30
0.0
 11
620.28026947985848
 21
689.69847006933196
 31
0.0
  0
LINE
  5
CDEC
  8
0
  6
CONTINUOUS
 62
     7
 10
576.28026947985859
 20
673.95638006933223
 30
0.0
 11
620.28026947985848
 21
673.95638006933223
 31
0.0
  0
LINE
  5
CDED
  8
0
  6
CONTINUOUS
 62
     7
 10
576.28026947985859
 20
532.09078006933169
 30
0.0
 11
620.28026947985848
 21
532.09078006933169
 31
0.0
  0
LINE
  5
CDEE
  8
0
  6
CONTINUOUS
 62
     7
 10
576.28026947985859
 20
516.34871006933224
 30
0.0
 11
620.28026947985848
 21
516.34871006933224
 31
0.0
  0
LINE
  5
CDEF
  8
0
  6
CONTINUOUS
 62
     7
 10
659.98027947985815
 20
783.0235800693323
 30
0.0
 11
660.28026947985882
 21
783.0235800693323
 31
0.0
  0
LINE
  5
CDF0
  8
0
  6
CONTINUOUS
 62
     7
 10
642.2105094798585
 20
429.6545900693323
 30
0.0
 11
660.28032947985844
 21
429.02358006933179
 31
0.0
  0
LINE
  5
CDF1
  8
0
  6
CONTINUOUS
 62
     7
 10
660.28026947985882
 20
783.0235800693323
 30
0.0
 11
660.28026947985882
 21
429.02358006933179
 31
0.0
  0
LINE
  5
CDF2
  8
0
  6
CONTINUOUS
 62
     7
 10
750.27465947985854
 20
743.46617006933229
 30
0.0
 11
773.51781947985853
 21
593.48045006933216
 31
0.0
  0
LINE
  5
CDF3
  8
0
  6
CONTINUOUS
 62
     7
 10
803.7802694798587
 20
496.02358006933179
 30
0.0
 11
803.7802694798587
 21
806.02358006933196
 31
0.0
  0
LINE
  5
CDF4
  8
0
  6
CONTINUOUS
 62
     7
 10
693.7802694798587
 20
507.46034006933189
 30
0.0
 11
693.7802694798587
 21
493.81033006933222
 31
0.0
  0
LINE
  5
CDF5
  8
0
  6
CONTINUOUS
 62
     7
 10
773.78026947985859
 20
833.02358006933207
 30
0.0
 11
773.78026947985859
 21
593.08656006933211
 31
0.0
  0
LINE
  5
CDF6
  8
0
  6
CONTINUOUS
 62
     7
 10
660.28032947985844
 20
783.0235800693323
 30
0.0
 11
738.95671947985852
 21
785.08376006933213
 31
0.0
  0
LINE
  5
CDF7
  8
0
  6
CONTINUOUS
 62
     7
 10
743.69310947985855
 20
785.93648006933176
 30
0.0
 11
745.29991947985854
 21
775.56764006933236
 31
0.0
  0
LINE
  5
CDF8
  8
0
  6
CONTINUOUS
 62
     7
 10
798.78026947985859
 20
496.02358006933179
 30
0.0
 11
803.7802694798587
 21
496.02358006933179
 31
0.0
  0
LINE
  5
CDF9
  8
0
  6
CONTINUOUS
 62
     7
 10
723.8128594798585
 20
427.35993006933222
 30
0.0
 11
790.78026947985848
 21
466.02359006933199
 31
0.0
  0
LINE
  5
CDFA
  8
0
  6
CONTINUOUS
 62
     7
 10
775.7802694798587
 20
502.46471006933211
 30
0.0
 11
780.7802694798587
 21
502.46471006933211
 31
0.0
  0
LINE
  5
CDFB
  8
0
  6
CONTINUOUS
 62
     7
 10
775.49419947985871
 20
591.7867600693321
 30
0.0
 11
780.7802694798587
 21
591.7867600693321
 31
0.0
  0
LINE
  5
CDFC
  8
0
  6
CONTINUOUS
 62
     7
 10
798.78026947985859
 20
806.02358006933196
 30
0.0
 11
803.7802694798587
 21
806.02358006933196
 31
0.0
  0
LINE
  5
CDFD
  8
0
  6
CONTINUOUS
 62
     7
 10
782.78026947985848
 20
797.58247006933232
 30
0.0
 11
782.78026947985848
 21
504.46471006933211
 31
0.0
  0
LINE
  5
CDFE
  8
0
  6
CONTINUOUS
 62
     7
 10
798.78026947985859
 20
836.02364006933215
 30
0.0
 11
798.78026947985859
 21
466.02358006933213
 31
0.0
  0
LINE
  5
CDFF
  8
0
  6
CONTINUOUS
 62
     7
 10
773.78026947985859
 20
539.24031006933205
 30
0.0
 11
773.78026947985859
 21
469.02358006933201
 31
0.0
  0
LINE
  5
CE00
  8
0
  6
CONTINUOUS
 62
     7
 10
775.7802694798587
 20
540.42967006933202
 30
0.0
 11
780.7802694798587
 21
540.42967006933202
 31
0.0
  0
LINE
  5
CE01
  8
0
  6
CONTINUOUS
 62
     7
 10
745.76604947985845
 20
788.00929006933211
 30
0.0
 11
772.31584947985846
 21
814.55910006933198
 31
0.0
  0
LINE
  5
CE02
  8
0
  6
CONTINUOUS
 62
     7
 10
776.7802694798587
 20
836.02364006933215
 30
0.0
 11
798.78026947985859
 21
836.02364006933215
 31
0.0
  0
LINE
  5
CE03
  8
0
  6
CONTINUOUS
 62
     7
 10
773.78026947985859
 20
737.29494006933237
 30
0.0
 11
780.7802694798587
 21
737.29494006933237
 31
0.0
  0
LINE
  5
CE04
  8
0
  6
CONTINUOUS
 62
     7
 10
775.7802694798587
 20
799.58247006933198
 30
0.0
 11
780.7802694798587
 21
799.58247006933198
 31
0.0
  0
LINE
  5
CE05
  8
0
  6
CONTINUOUS
 62
     7
 10
727.16014947985855
 20
521.3790800693323
 30
0.0
 11
773.78026947985859
 21
521.3790800693323
 31
0.0
  0
LINE
  5
CE06
  8
0
  6
CONTINUOUS
 62
     7
 10
798.78026947985859
 20
466.02358006933213
 30
0.0
 11
776.7802694798587
 21
466.02358006933213
 31
0.0
  0
LINE
  5
CE07
  8
0
  6
CONTINUOUS
 62
     7
 10
727.16014947985855
 20
480.75404006933212
 30
0.0
 11
773.78026947985859
 21
480.75404006933212
 31
0.0
  0
LINE
  5
CE08
  8
0
  6
CONTINUOUS
 62
     7
 10
690.6993994798587
 20
509.04524006933218
 30
0.0
 11
708.48027947985838
 21
509.04524006933218
 31
0.0
  0
LINE
  5
CE09
  8
0
  6
CONTINUOUS
 62
     7
 10
690.6993994798587
 20
491.92455006933221
 30
0.0
 11
709.02117947985857
 21
491.92455006933221
 31
0.0
  0
LINE
  5
CE0A
  8
0
  6
CONTINUOUS
 62
     7
 10
728.78026947985848
 20
519.22032006933205
 30
0.0
 11
728.78026947985848
 21
483.10031006933218
 31
0.0
  0
LINE
  5
CE0B
  8
0
  6
CONTINUOUS
 62
     7
 10
660.28026947985882
 20
429.02359006933222
 30
0.0
 11
723.8128594798585
 21
427.35993006933222
 31
0.0
  0
LINE
  5
CE0C
  8
0
  6
CONTINUOUS
 62
     7
 10
717.7802694798587
 20
743.46620006933233
 30
0.0
 11
748.62053947985839
 21
743.46620006933233
 31
0.0
  0
LINE
  5
CE0D
  8
0
  6
CONTINUOUS
 62
     7
 10
773.78032947985855
 20
760.93038006933216
 30
0.0
 11
751.6024794798584
 21
744.45274006933209
 31
0.0
  0
LINE
  5
CE0E
  8
0
  6
CONTINUOUS
 62
     7
 10
712.7802694798587
 20
752.64678006933241
 30
0.0
 11
712.7802694798587
 21
748.4662000693321
 31
0.0
  0
LINE
  5
CE0F
  8
0
  6
CONTINUOUS
 62
     7
 10
771.4125294798589
 20
779.77065006933231
 30
0.0
 11
716.47545947985839
 21
745.75417006933208
 31
0.0
  0
LINE
  5
CE10
  8
0
  6
CONTINUOUS
 62
     7
 10
771.4125294798589
 20
791.7361600693323
 30
0.0
 11
715.14812947985854
 21
756.89781006933231
 31
0.0
  0
LINE
  5
CE11
  8
0
  6
CONTINUOUS
 62
     7
 10
808.78026947985859
 20
683.5235800693323
 30
0.0
 11
808.78026947985859
 21
618.52358006933218
 31
0.0
  0
LINE
  5
CE12
  8
0
  6
CONTINUOUS
 62
     7
 10
803.7802694798587
 20
618.52358006933218
 30
0.0
 11
808.78026947985859
 21
618.52358006933218
 31
0.0
  0
LINE
  5
CE13
  8
0
  6
CONTINUOUS
 62
     7
 10
803.7802694798587
 20
683.5235800693323
 30
0.0
 11
808.78026947985859
 21
683.5235800693323
 31
0.0
  0
ARC
  5
CE14
  8
0
  6
CONTINUOUS
 62
     7
 10
637.28032947985844
 20
448.70570006933212
 30
0.0
 40
3.0
 50
0.0
 51
51.340192999995487
  0
ARC
  5
CE15
  8
0
  6
CONTINUOUS
 62
     7
 10
642.28032947985844
 20
431.65337006933208
 30
0.0
 40
2.0
 50
179.999989999999
 51
268.00000999999861
  0
ARC
  5
CE16
  8
0
  6
CONTINUOUS
 62
     7
 10
642.28032947985844
 20
780.40425006933231
 30
0.0
 40
2.0
 50
91.999998000000545
 51
180.000010000001
  0
ARC
  5
CE17
  8
0
  6
CONTINUOUS
 62
     7
 10
578.28032947985844
 20
717.02355006933226
 30
0.0
 40
2.0
 50
179.999989999999
 51
270.0
  0
ARC
  5
CE18
  8
0
  6
CONTINUOUS
 62
     7
 10
578.28032947985844
 20
489.02358006933213
 30
0.0
 40
2.0
 50
90.00000299999769
 51
180.000010000001
  0
ARC
  5
CE19
  8
0
  6
CONTINUOUS
 62
     7
 10
630.28026947985882
 20
470.9241800693319
 30
0.0
 40
10.0
 50
179.999989999999
 51
235.2394999999984
  0
ARC
  5
CE1A
  8
0
  6
CONTINUOUS
 62
     7
 10
615.28026947985859
 20
720.0235800693323
 30
0.0
 40
5.0
 50
270.0
 51
0.0
  0
ARC
  5
CE1B
  8
0
  6
CONTINUOUS
 62
     7
 10
615.28026947985859
 20
486.0235800693319
 30
0.0
 40
5.0
 50
0.0
 51
90.00000299999769
  0
ARC
  5
CE1C
  8
0
  6
CONTINUOUS
 62
     7
 10
622.28032947985844
 20
744.02669006933218
 30
0.0
 40
5.0
 50
308.65987999999749
 51
0.0
  0
ARC
  5
CE1D
  8
0
  6
CONTINUOUS
 62
     7
 10
574.28026947985848
 20
485.02358006933213
 30
0.0
 40
2.0
 50
270.0
 51
0.0
  0
ARC
  5
CE1E
  8
0
  6
CONTINUOUS
 62
     7
 10
574.28026947985848
 20
721.02358006933241
 30
0.0
 40
2.0
 50
0.0
 51
90.00000299999769
  0
ARC
  5
CE1F
  8
0
  6
CONTINUOUS
 62
     7
 10
637.28032947985844
 20
753.46544006933232
 30
0.0
 40
3.0
 50
308.65980999999641
 51
0.0
  0
ARC
  5
CE20
  8
0
  6
CONTINUOUS
 62
     7
 10
629.28026947985882
 20
781.02358006933207
 30
0.0
 40
2.0
 50
90.00000299999769
 51
180.000010000001
  0
ARC
  5
CE21
  8
0
  6
CONTINUOUS
 62
     7
 10
630.28026947985882
 20
731.21733006933232
 30
0.0
 40
10.0
 50
128.65980999999641
 51
180.000010000001
  0
CIRCLE
  5
CE22
  8
0
  6
CONTINUOUS
 62
     7
 10
642.28032947985844
 20
809.02358006933207
 30
0.0
 40
15.0
  0
ARC
  5
CE23
  8
0
  6
CONTINUOUS
 62
     7
 10
642.28032947985844
 20
809.02358006933207
 30
0.0
 40
25.0
 50
306.46672000000018
 51
233.53329000000349
  0
ARC
  5
CE24
  8
0
  6
CONTINUOUS
 62
     7
 10
632.99669947985842
 20
791.16371006933207
 30
0.0
 40
1.0
 50
101.21328999999881
 51
164.999990000005
  0
ARC
  5
CE25
  8
0
  6
CONTINUOUS
 62
     7
 10
651.56383947985864
 20
791.16371006933207
 30
0.0
 40
1.0
 50
15.000000000000741
 51
78.786710000001207
  0
ARC
  5
CE26
  8
0
  6
CONTINUOUS
 62
     7
 10
623.8552794798585
 20
784.09328006933197
 30
0.0
 40
6.0
 50
349.72994999999878
 51
53.533291000004859
  0
ARC
  5
CE27
  8
0
  6
CONTINUOUS
 62
     7
 10
660.70531947985864
 20
784.09328006933197
 30
0.0
 40
6.0
 50
126.46669999999671
 51
190.27005999999921
  0
ARC
  5
CE28
  8
0
  6
CONTINUOUS
 62
     7
 10
780.7802694798587
 20
504.46471006933211
 30
0.0
 40
2.0
 50
270.0
 51
0.0
  0
ARC
  5
CE29
  8
0
  6
CONTINUOUS
 62
     7
 10
780.7802694798587
 20
589.78679006933226
 30
0.0
 40
2.0
 50
0.0
 51
90.00000299999769
  0
ARC
  5
CE2A
  8
0
  6
CONTINUOUS
 62
     7
 10
775.7802694798587
 20
801.58247006933243
 30
0.0
 40
2.0
 50
179.999989999999
 51
270.0
  0
ARC
  5
CE2B
  8
0
  6
CONTINUOUS
 62
     7
 10
780.7802694798587
 20
797.58247006933232
 30
0.0
 40
2.0
 50
0.0
 51
90.00000299999769
  0
ARC
  5
CE2C
  8
0
  6
CONTINUOUS
 62
     7
 10
775.7802694798587
 20
500.46471006933223
 30
0.0
 40
2.0
 50
90.00000299999769
 51
180.000010000001
  0
ARC
  5
CE2D
  8
0
  6
CONTINUOUS
 62
     7
 10
775.49419947985871
 20
593.78676006933233
 30
0.0
 40
2.0
 50
188.80900000000449
 51
270.0
  0
ARC
  5
CE2E
  8
0
  6
CONTINUOUS
 62
     7
 10
774.78032947985855
 20
593.08656006933211
 30
0.0
 40
1.0
 50
179.999989999999
 51
224.44400000000431
  0
ARC
  5
CE2F
  8
0
  6
CONTINUOUS
 62
     7
 10
768.7802694798587
 20
818.09462006933222
 30
0.0
 40
5.0
 50
315.0
 51
0.0
  0
ARC
  5
CE30
  8
0
  6
CONTINUOUS
 62
     7
 10
780.7802694798587
 20
542.42967006933213
 30
0.0
 40
2.0
 50
270.0
 51
0.0
  0
ARC
  5
CE31
  8
0
  6
CONTINUOUS
 62
     7
 10
780.7802694798587
 20
735.29494006933226
 30
0.0
 40
2.0
 50
0.0
 51
90.00000299999769
  0
ARC
  5
CE32
  8
0
  6
CONTINUOUS
 62
     7
 10
776.7802694798587
 20
833.02358006933207
 30
0.0
 40
3.0
 50
90.00000299999769
 51
180.000010000001
  0
ARC
  5
CE33
  8
0
  6
CONTINUOUS
 62
     7
 10
776.7802694798587
 20
469.02358006933201
 30
0.0
 40
3.0
 50
179.999989999999
 51
270.0
  0
ARC
  5
CE34
  8
0
  6
CONTINUOUS
 62
     7
 10
738.6949394798587
 20
795.08034006933224
 30
0.0
 40
10.0
 50
271.50000000000267
 51
315.0
  0
ARC
  5
CE35
  8
0
  6
CONTINUOUS
 62
     7
 10
727.16014947985855
 20
501.06654006933212
 30
0.0
 40
20.312494000000001
 50
90.00000299999769
 51
270.0
  0
ARC
  5
CE36
  8
0
  6
CONTINUOUS
 62
     7
 10
690.6993994798587
 20
500.48491006933227
 30
0.0
 40
8.5603476000000001
 50
90.00000299999769
 51
270.0
  0
ARC
  5
CE37
  8
0
  6
CONTINUOUS
 62
     7
 10
768.7802694798587
 20
795.9872000693324
 30
0.0
 40
5.0
 50
301.76536999999581
 51
0.0
  0
ARC
  5
CE38
  8
0
  6
CONTINUOUS
 62
     7
 10
717.7802694798587
 20
748.4662000693321
 30
0.0
 40
5.0
 50
179.999989999999
 51
270.0
  0
ARC
  5
CE39
  8
0
  6
CONTINUOUS
 62
     7
 10
748.62053947985839
 20
748.4662000693321
 30
0.0
 40
5.0
 50
270.0
 51
306.61150000000129
  0
ARC
  5
CE3A
  8
0
  6
CONTINUOUS
 62
     7
 10
717.7802694798587
 20
752.64678006933241
 30
0.0
 40
5.0
 50
121.7653600000025
 51
180.000010000001
  0
ARC
  5
CEC7
  8
0
  6
CONTINUOUS
 62
     7
 10
1271.411977799539
 20
651.02358006933218
 30
0.0
 40
155.0
 50
90.000002999984659
 51
270.0
  0
ARC
  5
CEC8
  8
0
  6
CONTINUOUS
 62
     7
 10
1271.411977799539
 20
651.02358006933218
 30
0.0
 40
65.0
 50
270.0
 51
90.000002999984659
  0
ARC
  5
CEC9
  8
0
  6
CONTINUOUS
 62
     7
 10
1271.411977799539
 20
651.02358006933218
 30
0.0
 40
155.0
 50
270.0
 51
90.000002999984659
  0
ARC
  5
CECA
  8
0
  6
CONTINUOUS
 62
     7
 10
1271.411977799539
 20
651.02358006933218
 30
0.0
 40
65.0
 50
90.000002999984659
 51
270.0
  0
ARC
  5
CECB
  8
0
  6
CONTINUOUS
 62
     7
 10
1271.411977799539
 20
651.02358006933218
 30
0.0
 40
146.0
 50
90.000002999984659
 51
270.0
  0
ARC
  5
CECC
  8
0
  6
CONTINUOUS
 62
     7
 10
1271.411977799539
 20
651.02358006933218
 30
0.0
 40
146.0
 50
270.0
 51
90.000002999984659
  0
ARC
  5
CECD
  8
0
  6
CONTINUOUS
 62
     7
 10
1271.411977799539
 20
651.02358006933218
 30
0.0
 40
82.0
 50
0.0
 51
35.405932000002593
  0
ARC
  5
CECE
  8
0
  6
CONTINUOUS
 62
     7
 10
1294.206992799539
 20
658.5248000693324
 30
0.0
 40
112.0
 50
9.9999996999963017
 51
46.951683000003783
  0
ARC
  5
CECF
  8
0
  6
CONTINUOUS
 62
     7
 10
1248.616932799539
 20
658.5248000693324
 30
0.0
 40
112.0
 50
133.0483100000267
 51
169.99998999999769
  0
ARC
  5
CED0
  8
0
  6
CONTINUOUS
 62
     7
 10
1271.411977799539
 20
651.02358006933218
 30
0.0
 40
82.0
 50
144.59406999998339
 51
180.000010000001
  0
LINE
  5
CED1
  8
0
  6
AM_ISO08W050
 10
1271.411977799539
 20
845.28946285446943
 30
0.0
 11
1271.411977799539
 21
422.11485506933229
 31
0.0
  0
LINE
  5
CED2
  8
0
  6
CONTINUOUS
 62
     7
 10
1456.4119577995391
 20
811.02360006933225
 30
0.0
 11
1456.4119577995391
 21
491.02357506933208
 31
0.0
  0
LINE
  5
CED3
  8
0
  6
CONTINUOUS
 62
     7
 10
1086.411977799539
 20
491.02357506933208
 30
0.0
 11
1086.411977799539
 21
811.02360006933225
 31
0.0
  0
ARC
  5
CED4
  8
0
  6
CONTINUOUS
 62
     7
 10
1363.4119477995389
 20
641.0235800693323
 30
0.0
 40
10.0
 50
179.999989999999
 51
270.0
  0
LINE
  5
CED5
  8
0
  6
CONTINUOUS
 62
     7
 10
1431.4119677995391
 20
466.02357506933208
 30
0.0
 11
1111.411977799539
 21
466.02357506933208
 31
0.0
  0
LINE
  5
CED6
  8
0
  6
CONTINUOUS
 62
     7
 10
1342.143347799539
 20
429.58430506933217
 30
0.0
 11
1377.7680727995389
 21
455.21884506933208
 31
0.0
  0
ARC
  5
CED7
  8
0
  6
CONTINUOUS
 62
     7
 10
1111.411977799539
 20
491.02357506933208
 30
0.0
 40
25.000000499999999
 50
179.999989999999
 51
270.0
  0
LINE
  5
CED8
  8
0
  6
CONTINUOUS
 62
     7
 10
1208.911977799539
 20
426.93059006933208
 30
0.0
 11
1333.911962799539
 21
426.93059006933208
 31
0.0
  0
LINE
  5
CED9
  8
0
  6
CONTINUOUS
 62
     7
 10
1200.6805627995379
 20
429.58429006933221
 30
0.0
 11
1165.0558677995391
 21
455.21881006933228
 31
0.0
  0
ARC
  5
CEDA
  8
0
  6
CONTINUOUS
 62
     7
 10
1208.911977799539
 20
441.02357506933208
 30
0.0
 40
14.092999499999999
 50
234.26227999999779
 51
270.0
  0
ARC
  5
CEDB
  8
0
  6
CONTINUOUS
 62
     7
 10
1271.411977799539
 20
603.0235800693323
 30
0.0
 40
182.09298999999999
 50
228.795469999983
 51
234.26227999999779
  0
ARC
  5
CEDC
  8
0
  6
CONTINUOUS
 62
     7
 10
1271.411977799539
 20
651.02358006933218
 30
0.0
 40
225.00000499999999
 50
219.5229800000163
 51
230.477020000002
  0
CIRCLE
  5
CEDD
  8
0
  6
CONTINUOUS
 62
     7
 10
1112.312917799539
 20
491.92454506933223
 30
0.0
 40
12.0
  0
LINE
  5
CEDE
  8
0
  6
CONTINUOUS
 62
     7
 10
1097.110127799539
 20
476.72175506933229
 30
0.0
 11
1127.515737799539
 21
507.1273650693322
 31
0.0
  0
ARC
  5
CEDF
  8
0
  6
CONTINUOUS
 62
     7
 10
1333.911962799539
 20
441.02357506933208
 30
0.0
 40
14.092999499999999
 50
270.0
 51
305.73772000000218
  0
LINE
  5
CEE0
  8
0
  6
CONTINUOUS
 62
     7
 10
1131.2121177995391
 20
631.02358006933218
 30
0.0
 11
1179.4119477995389
 21
631.02358006933218
 31
0.0
  0
LINE
  5
CEE1
  8
0
  6
CONTINUOUS
 62
     7
 10
1130.0635277995391
 20
631.15730506933232
 30
0.0
 11
1138.318472799539
 21
677.97344006933224
 31
0.0
  0
ARC
  5
CEE2
  8
0
  6
CONTINUOUS
 62
     7
 10
1131.2121177995391
 20
636.0235800693323
 30
0.0
 40
5.0
 50
186.1068500000045
 51
270.0
  0
LINE
  5
CEE3
  8
0
  6
CONTINUOUS
 62
     7
 10
1189.4119477995389
 20
651.02358006933218
 30
0.0
 11
1189.4119477995389
 21
641.0235800693323
 31
0.0
  0
ARC
  5
CEE4
  8
0
  6
CONTINUOUS
 62
     7
 10
1179.4119477995389
 20
641.0235800693323
 30
0.0
 40
10.0
 50
270.0
 51
0.0
  0
ARC
  5
CEE5
  8
0
  6
CONTINUOUS
 62
     7
 10
1271.411977799539
 20
651.02358006933218
 30
0.0
 40
30.000000499999999
 50
107.4576000000072
 51
72.542383999991728
  0
CIRCLE
  5
CEE6
  8
0
  6
CONTINUOUS
 62
     7
 10
1271.411977799539
 20
651.02358006933218
 30
0.0
 40
6.0
  0
CIRCLE
  5
CEE7
  8
0
  6
CONTINUOUS
 62
     7
 10
1271.411977799539
 20
651.02358006933218
 30
0.0
 40
4.500000049999997
  0
LINE
  5
CEE8
  8
0
  6
CONTINUOUS
 62
     7
 10
1262.4119477995389
 20
674.0235800693323
 30
0.0
 11
1280.411977799539
 21
674.0235800693323
 31
0.0
  0
LINE
  5
CEE9
  8
0
  6
CONTINUOUS
 62
     7
 10
1262.4119477995389
 20
685.02361006933222
 30
0.0
 11
1280.411977799539
 21
685.02361006933222
 31
0.0
  0
LINE
  5
CEEA
  8
0
  6
CONTINUOUS
 62
     7
 10
1262.4119477995389
 20
685.02361006933222
 30
0.0
 11
1262.4119477995389
 21
674.0235800693323
 31
0.0
  0
LINE
  5
CEEB
  8
0
  6
CONTINUOUS
 62
     7
 10
1280.411977799539
 20
685.02361006933222
 30
0.0
 11
1280.411977799539
 21
674.0235800693323
 31
0.0
  0
LINE
  5
CEEC
  8
0
  6
CONTINUOUS
 62
     7
 10
1353.411947799538
 20
651.02358006933218
 30
0.0
 11
1353.411947799538
 21
641.0235800693323
 31
0.0
  0
ARC
  5
CEED
  8
0
  6
CONTINUOUS
 62
     7
 10
1271.411977799549
 20
651.02358006932275
 30
0.0
 40
225.00000499998609
 50
306.07817067245929
 51
320.85125000000869
  0
CIRCLE
  5
CEEE
  8
0
  6
CONTINUOUS
 62
     7
 10
1430.5109927995391
 20
491.92454506933223
 30
0.0
 40
12.0
  0
LINE
  5
CEEF
  8
0
  6
CONTINUOUS
 62
     7
 10
1445.7137927995379
 20
476.72175506933229
 30
0.0
 11
1415.3082077995391
 21
507.12733506933222
 31
0.0
  0
ARC
  5
CEF0
  8
0
  6
CONTINUOUS
 62
     7
 10
1271.411977799539
 20
603.0235800693323
 30
0.0
 40
182.09298999999999
 50
305.73772000000218
 51
311.20453000001697
  0
ARC
  5
CEF1
  8
0
  6
CONTINUOUS
 62
     7
 10
1431.4119677995391
 20
491.02357506933208
 30
0.0
 40
25.000000499999999
 50
270.0
 51
0.0
  0
LINE
  5
CEF2
  8
0
  6
CONTINUOUS
 62
     7
 10
1412.7603977995391
 20
631.15730506933232
 30
0.0
 11
1404.505457799539
 21
677.97338006933205
 31
0.0
  0
LINE
  5
CEF3
  8
0
  6
CONTINUOUS
 62
     7
 10
1411.6118227995389
 20
631.02358006933218
 30
0.0
 11
1363.4119477995389
 21
631.02358006933218
 31
0.0
  0
ARC
  5
CEF4
  8
0
  6
CONTINUOUS
 62
     7
 10
1411.6118227995389
 20
636.0235800693323
 30
0.0
 40
5.0
 50
270.0
 51
353.8931499999955
  0
LINE
  5
CEF5
  8
0
  6
CONTINUOUS
 62
     7
 10
1329.2116927995389
 20
718.72285006933225
 30
0.0
 11
1363.4647727995391
 21
752.97590006933228
 31
0.0
  0
LINE
  5
CEF6
  8
0
  6
CONTINUOUS
 62
     7
 10
1111.411977799539
 20
836.02365006933212
 30
0.0
 11
1431.4119677995391
 21
836.02365006933212
 31
0.0
  0
LINE
  5
CEF7
  8
0
  6
CONTINUOUS
 62
     7
 10
1339.111197799539
 20
708.82332506933233
 30
0.0
 11
1373.3642827995379
 21
743.07640006933241
 31
0.0
  0
ARC
  5
CEF8
  8
0
  6
CONTINUOUS
 62
     7
 10
1111.411977799539
 20
811.02360006933225
 30
0.0
 40
25.000000499999999
 50
90.000002999984659
 51
180.000010000001
  0
ARC
  5
CEF9
  8
0
  6
CONTINUOUS
 62
     7
 10
1219.2690627995389
 20
724.37970006933233
 30
0.0
 40
8.0
 50
224.99999999999079
 51
305.4059299999841
  0
LINE
  5
CEFA
  8
0
  6
CONTINUOUS
 62
     7
 10
1213.6121727995389
 20
718.72285006933225
 30
0.0
 11
1179.3591227995389
 21
752.97590006933228
 31
0.0
  0
LINE
  5
CEFB
  8
0
  6
CONTINUOUS
 62
     7
 10
1203.712697799539
 20
708.82335506933225
 30
0.0
 11
1169.4596427995391
 21
743.07645006933228
 31
0.0
  0
ARC
  5
CEFC
  8
0
  6
CONTINUOUS
 62
     7
 10
1198.0558677995391
 20
703.16649506933231
 30
0.0
 40
8.0
 50
324.5940699999835
 51
45.000000999994569
  0
ARC
  5
CEFD
  8
0
  6
CONTINUOUS
 62
     7
 10
1185.015982799539
 20
758.63275006933225
 30
0.0
 40
8.0
 50
128.7598699999908
 51
224.99999999999079
  0
ARC
  5
CEFE
  8
0
  6
CONTINUOUS
 62
     7
 10
1163.802782799539
 20
737.41960006933243
 30
0.0
 40
8.0
 50
45.000000999994569
 51
141.24013000000909
  0
CIRCLE
  5
CEFF
  8
0
  6
CONTINUOUS
 62
     7
 10
1112.312917799539
 20
810.12265006933228
 30
0.0
 40
12.0
  0
ARC
  5
CF00
  8
0
  6
CONTINUOUS
 62
     7
 10
1271.411977799532
 20
651.02358006933707
 30
0.0
 40
225.0000049999918
 50
126.218621600164
 51
141.14739999998849
  0
LINE
  5
CF01
  8
0
  6
CONTINUOUS
 62
     7
 10
1097.1101577995389
 20
825.3254000693322
 30
0.0
 11
1129.1164166514029
 21
793.31915954870112
 31
0.0
  0
ARC
  5
CF02
  8
0
  6
CONTINUOUS
 62
     7
 10
1271.411977799539
 20
651.02358006933218
 30
0.0
 40
82.0
 50
54.5940669999991
 51
125.405929999984
  0
ARC
  5
CF03
  8
0
  6
CONTINUOUS
 62
     7
 10
1323.5548477995389
 20
724.37970006933233
 30
0.0
 40
8.0
 50
234.59407000001599
 51
315.00000000000921
  0
ARC
  5
CF04
  8
0
  6
CONTINUOUS
 62
     7
 10
1344.7680577995391
 20
703.16649506933231
 30
0.0
 40
8.0
 50
135.00000000000921
 51
215.40593000001661
  0
ARC
  5
CF05
  8
0
  6
CONTINUOUS
 62
     7
 10
1357.8079277995389
 20
758.63275006933225
 30
0.0
 40
8.0
 50
315.00000000000921
 51
51.240130000009138
  0
ARC
  5
CF06
  8
0
  6
CONTINUOUS
 62
     7
 10
1379.0211427995389
 20
737.41960006933243
 30
0.0
 40
8.0
 50
38.759869000004251
 51
135.00000000000921
  0
CIRCLE
  5
CF07
  8
0
  6
CONTINUOUS
 62
     7
 10
1430.5109927995391
 20
810.12265006933228
 30
0.0
 40
12.0
  0
ARC
  5
CF08
  8
0
  6
CONTINUOUS
 62
     7
 10
1271.411977799539
 20
651.02358006933218
 30
0.0
 40
225.00000499999999
 50
38.696153000009573
 51
50.477013999992401
  0
LINE
  5
CF09
  8
0
  6
CONTINUOUS
 62
     7
 10
1445.7137827995391
 20
825.3254000693322
 30
0.0
 11
1413.0775390086601
 21
792.68918340980838
 31
0.0
  0
ARC
  5
CF0A
  8
0
  6
CONTINUOUS
 62
     7
 10
1431.4119677995391
 20
811.02360006933225
 30
0.0
 40
25.000000499999999
 50
0.0
 51
90.000002999984659
  0
ARC
  5
CF0B
  8
0
  6
CONTINUOUS
 62
     7
 10
1271.411977799539
 20
603.02358006933275
 30
0.0
 40
172.00000499999999
 50
58.770287999977377
 51
121.229710000004
  0
LINE
  5
CF0C
  8
0
  6
CONTINUOUS
 62
     7
 10
1086.411977799539
 20
578.49142884647404
 30
0.0
 11
1071.455745799539
 21
541.47350556933191
 31
0.0
  0
LINE
  5
CF0D
  8
0
  6
CONTINUOUS
 62
     7
 10
1072.863459799539
 20
652.7281445693319
 30
0.0
 11
1072.863459799539
 21
545.34618656933185
 31
0.0
  0
ARC
  5
CF0E
  8
0
  6
CONTINUOUS
 62
     7
 10
1082.863459799539
 20
652.72826656933159
 30
0.0
 40
10.0
 50
89.999961999998746
 51
180.0000459999994
  0
LINE
  5
CF0F
  8
0
  6
CONTINUOUS
 62
     7
 10
1086.411977799539
 20
662.72826656933194
 30
0.0
 11
1082.863459799539
 21
662.72826656933171
 31
0.0
  0
LINE
  5
CF10
  8
0
  6
CONTINUOUS
 62
     7
 10
1086.411977799539
 20
541.53820256933159
 30
0.0
 11
1081.4591637995379
 21
541.53820256933159
 31
0.0
  0
ARC
  5
CF11
  8
0
  6
CONTINUOUS
 62
     7
 10
1076.091731799539
 20
539.60045856933175
 30
0.0
 40
5.0
 50
157.99999999999679
 51
248.00000000000529
  0
LINE
  5
CF12
  8
0
  6
CONTINUOUS
 62
     7
 10
1077.927424799539
 20
533.46605956933195
 30
0.0
 11
1074.2186847995381
 21
534.96447256933175
 31
0.0
  0
ARC
  5
CF13
  8
0
  6
CONTINUOUS
 62
     7
 10
1070.863459799539
 20
545.34618656933185
 30
0.0
 40
2.0
 50
337.99999999999682
 51
359.99979600000029
  0
ARC
  5
CF14
  8
0
  6
CONTINUOUS
 62
     7
 10
1081.4591637995379
 20
539.53820256933182
 30
0.0
 40
2.0
 50
89.999992000001797
 51
97.999847000002404
  0
LINE
  5
CF15
  8
0
  6
CONTINUOUS
 62
     7
 10
1077.931559799538
 20
533.46438856933185
 30
0.0
 11
1086.411977799539
 21
554.45608303826111
 31
0.0
  0
LINE
  5
CF16
  8
0
  6
AM_ISO08W050
 10
1064.7953738343981
 20
651.02358006933218
 30
0.0
 11
1467.9075459282101
 21
651.02358006933218
 31
0.0
1001
GENIUS_GENODEF_13
1002
{
1000
HIER
1070
     0
1002
}
1002
{
1000
MANEDIT
1070
     0
1002
}
1002
{
1000
NOSEL
1070
     0
1002
}
1002
{
1000
BEHIND
1070
     0
1002
}
1002
{
1000
OTHER
1070
     0
1002
}
1002
{
1000
REACTOR
1002
}
1001
GENIUS_GENOBJ-N-CEN_13
1002
{
1000
OWNER
1000
GEN
1002
}
1001
GENIUS_GENCEN_19
1002
{
1040
2.7939999999999978
1002
}
  0
LINE
  5
D270
  8
0
  6
CONTINUOUS
 62
     7
 10
773.78026947985859
 20
1259.6390134409901
 30
0.0
 11
763.95362947985859
 21
1230.73341344099
 31
0.0
  0
ARC
  5
D271
  8
0
  6
CONTINUOUS
 62
     7
 10
1206.403923531371
 20
1091.9278477259461
 30
0.0
 40
463.56660623142437
 50
167.88379426311229
 51
175.73762656843579
  0
ARC
  5
D272
  8
0
  6
CONTINUOUS
 62
     7
 10
1182.4232693368999
 20
1094.270924305901
 30
0.0
 40
439.47848178282339
 50
175.80988687106009
 51
192.37991849143441
  0
ARC
  5
D273
  8
0
  6
CONTINUOUS
 62
     7
 10
1246.2892248792409
 20
1106.4526551387639
 30
0.0
 40
504.50415842958932
 50
197.04813163530881
 51
198.2040774543344
  0
ARC
  5
D274
  8
0
  6
CONTINUOUS
 62
     7
 10
1249.46737252257
 20
1107.497045754403
 30
0.0
 40
507.84950948036408
 50
198.2039936669874
 51
199.35232433598571
  0
ARC
  5
D275
  8
0
  6
CONTINUOUS
 62
     7
 10
1252.106515764187
 20
1108.4229896658439
 30
0.0
 40
510.64637349761381
 50
199.35222085539931
 51
200.49423553287221
  0
TEXT
  5
D429
  8
0
  6
CONTINUOUS
 62
     0
 10
1098.240038541775
 20
1069.4815656349181
 30
0.0
 40
20.0
  1
VX75-025EBF~VX75-030EBF
  0
ENDSEC
  0
EOF
