  0
SECTION
  2
HEADER
  9
$ACADVER
  1
AC1009
  9
$INSBASE
 10
0.0
 20
0.0
 30
0.0
  9
$EXTMIN
 10
181.65874263091291
 20
503.32932756160972
 30
-0.000000000000013
  9
$EXTMAX
 10
1737.5181171237591
 20
1550.2959534718309
 30
0.0000000000000023
  9
$LIMMIN
 10
0.0000005999945643
 20
-0.0000005963913736
  9
$LIMMAX
 10
1991.5000005999941
 20
1294.9999994036091
  9
$ORTHOMODE
 70
     0
  9
$REGENMODE
 70
     1
  9
$FILLMODE
 70
     1
  9
$QTEXTMODE
 70
     0
  9
$MIRRTEXT
 70
     0
  9
$DRAGMODE
 70
     2
  9
$LTSCALE
 40
1.0
  9
$OSMODE
 70
   551
  9
$ATTMODE
 70
     1
  9
$TEXTSIZE
 40
2.5
  9
$TRACEWID
 40
1.0
  9
$TEXTSTYLE
  7
STANDARD
  9
$CLAYER
  8
DEFPOINTS
  9
$CELTYPE
  6
BYLAYER
  9
$CECOLOR
 62
   256
  9
$DIMSCALE
 40
1.0
  9
$DIMASZ
 40
2.0
  9
$DIMEXO
 40
1.0
  9
$DIMDLI
 40
8.0
  9
$DIMRND
 40
0.0
  9
$DIMDLE
 40
0.0
  9
$DIMEXE
 40
1.0
  9
$DIMTP
 40
-0.025
  9
$DIMTM
 40
0.043
  9
$DIMTXT
 40
2.5
  9
$DIMCEN
 40
0.0
  9
$DIMTSZ
 40
0.0
  9
$DIMTOL
 70
     0
  9
$DIMLIM
 70
     0
  9
$DIMTIH
 70
     0
  9
$DIMTOH
 70
     0
  9
$DIMSE1
 70
     0
  9
$DIMSE2
 70
     0
  9
$DIMTAD
 70
     3
  9
$DIMZIN
 70
     8
  9
$DIMBLK
  1

  9
$DIMASO
 70
     1
  9
$DIMSHO
 70
     1
  9
$DIMPOST
  1

  9
$DIMAPOST
  1
"
  9
$DIMALT
 70
     0
  9
$DIMALTD
 70
     2
  9
$DIMALTF
 40
0.0393701
  9
$DIMLFAC
 40
1.0
  9
$DIMTOFL
 70
     1
  9
$DIMTVP
 40
0.0
  9
$DIMTIX
 70
     0
  9
$DIMSOXD
 70
     0
  9
$DIMSAH
 70
     0
  9
$DIMBLK1
  1

  9
$DIMBLK2
  1

  9
$DIMSTYLE
  2
AM_JIS
  9
$DIMCLRD
 70
     2
  9
$DIMCLRE
 70
     2
  9
$DIMCLRT
 70
     4
  9
$DIMTFAC
 40
0.71
  9
$DIMGAP
 40
1.5
  9
$LUNITS
 70
     2
  9
$LUPREC
 70
     2
  9
$SKETCHINC
 40
1.0
  9
$FILLETRAD
 40
0.0
  9
$AUNITS
 70
     0
  9
$AUPREC
 70
     0
  9
$MENU
  1
.
  9
$ELEVATION
 40
0.0
  9
$PELEVATION
 40
0.0
  9
$THICKNESS
 40
0.0
  9
$LIMCHECK
 70
     0
  9
$BLIPMODE
 70
     0
  9
$CHAMFERA
 40
3.5
  9
$CHAMFERB
 40
3.5
  9
$SKPOLY
 70
     0
  9
$TDCREATE
 40
2456829.3841110538
  9
$TDUPDATE
 40
2458541.3963587731
  9
$TDINDWG
 40
0.6530781481
  9
$TDUSRTIMER
 40
0.653077581
  9
$USRTIMER
 70
     1
  9
$ANGBASE
 50
0.0
  9
$ANGDIR
 70
     0
  9
$PDMODE
 70
     0
  9
$PDSIZE
 40
0.0
  9
$PLINEWID
 40
0.0
  9
$COORDS
 70
     1
  9
$SPLFRAME
 70
     0
  9
$SPLINETYPE
 70
     6
  9
$SPLINESEGS
 70
     8
  9
$ATTDIA
 70
     1
  9
$ATTREQ
 70
     1
  9
$HANDLING
 70
     1
  9
$HANDSEED
  5
E2FA
  9
$SURFTAB1
 70
     6
  9
$SURFTAB2
 70
     6
  9
$SURFTYPE
 70
     6
  9
$SURFU
 70
     6
  9
$SURFV
 70
     6
  9
$UCSNAME
  2

  9
$UCSORG
 10
0.0
 20
0.0
 30
0.0
  9
$UCSXDIR
 10
1.0
 20
0.0
 30
0.0
  9
$UCSYDIR
 10
0.0
 20
1.0
 30
0.0
  9
$PUCSNAME
  2

  9
$PUCSORG
 10
0.0
 20
0.0
 30
0.0
  9
$PUCSXDIR
 10
1.0
 20
0.0
 30
0.0
  9
$PUCSYDIR
 10
0.0
 20
1.0
 30
0.0
  9
$USERI1
 70
     0
  9
$USERI2
 70
     0
  9
$USERI3
 70
     0
  9
$USERI4
 70
     0
  9
$USERI5
 70
     0
  9
$USERR1
 40
0.0
  9
$USERR2
 40
0.0
  9
$USERR3
 40
0.0
  9
$USERR4
 40
0.0
  9
$USERR5
 40
0.0
  9
$WORLDVIEW
 70
     1
  9
$SHADEDGE
 70
     3
  9
$SHADEDIF
 70
    70
  9
$TILEMODE
 70
     1
  9
$MAXACTVP
 70
    64
  9
$PLIMCHECK
 70
     0
  9
$PEXTMIN
 10
1.0000000000000000E+020
 20
1.0000000000000000E+020
 30
1.0000000000000000E+020
  9
$PEXTMAX
 10
-1.0000000000000000E+020
 20
-1.0000000000000000E+020
 30
-1.0000000000000000E+020
  9
$PLIMMIN
 10
0.0
 20
0.0
  9
$PLIMMAX
 10
420.0
 20
297.0
  9
$UNITMODE
 70
     0
  9
$VISRETAIN
 70
     1
  9
$PLINEGEN
 70
     0
  9
$PSLTSCALE
 70
     1
  0
ENDSEC
  0
SECTION
  2
TABLES
  0
TABLE
  2
VPORT
 70
     1
  0
VPORT
  2
*ACTIVE
 70
     0
 10
0.0
 20
0.0
 11
1.0
 21
1.0
 12
959.5884298773359
 22
1026.8126405167211
 13
0.0
 23
0.0
 14
17.5
 24
17.5
 15
70.0
 25
70.0
 16
0.0
 26
0.0
 36
1.0
 17
0.0
 27
0.0
 37
0.0
 40
1054.1540398180721
 41
1.7571592210767459
 42
50.0
 43
0.0
 44
0.0
 50
0.0
 51
0.0
 71
     0
 72
  1000
 73
     1
 74
     3
 75
     0
 76
     0
 77
     0
 78
     0
  0
ENDTAB
  0
TABLE
  2
LTYPE
 70
    24
  0
LTYPE
  2
CONTINUOUS
 70
     0
  3
Solid line
 72
    65
 73
     0
 40
0.0
  0
LTYPE
  2
AM_ISO02W050
 70
     0
  3
__ __ __ __ __ __ __ __ __ __ __ __ __ __ __
 72
    65
 73
     2
 40
7.5
 49
6.0
 49
-1.5
  0
LTYPE
  2
AM_ISO08W050
 70
     0
  3
____ . ____ . ____ . ____ . ____ . ____ . ____
 72
    65
 73
     4
 40
18.0
 49
12.0
 49
-1.5
 49
3.0
 49
-1.5
  0
LTYPE
  2
AM_ISO09W050
 70
     0
  3
_____ . . _____ . . _____ . . ____ .. ____
 72
    65
 73
     6
 40
22.5
 49
12.0
 49
-1.5
 49
3.0
 49
-1.5
 49
3.0
 49
-1.5
  0
LTYPE
  2
AMCONSTR
 70
     0
  3
_______________________
 72
    65
 73
     2
 40
9999.0
 49
9999.0
 49
0.0
  0
LTYPE
  2
AM_ISO08W050X2
 70
     0
  3
__ . __ . __ . __ . __ . __
 72
    65
 73
     4
 40
9.0
 49
6.0
 49
-0.75
 49
1.5
 49
-0.75
  0
LTYPE
  2
AM_ISO02W050X2
 70
     0
  3
 _ _ _ _ _ _ _ _ _ _ _ _
 72
    65
 73
     2
 40
3.75
 49
3.0
 49
-0.75
  0
LTYPE
  2
AMZIGZAG
 70
     0
  3
/\/-/\/-/\/-/\/-/\/-/\/
 72
    65
 73
     2
 40
11.0001
 49
0.0001
 49
-11.0
  0
LTYPE
  2
ACANSTGBM
 70
     0
  3
__ . . __ . .
 72
    65
 73
     6
 40
9.0
 49
4.0
 49
-1.0
 49
1.0
 49
-1.0
 49
1.0
 49
-1.0
  0
LTYPE
  2
ACANSTGLM
 70
     0
  3
_ _ _ _ _
 72
    65
 73
     2
 40
3.0
 49
2.0
 49
-1.0
  0
LTYPE
  2
ACISOWELD
 70
     0
  3
_ _ _ _ _
 72
    65
 73
     2
 40
2.0
 49
2.0
 49
-1.0
  0
LTYPE
  2
ACISOTGB
 70
     0
  3
__ . . __ . .
 72
    65
 73
     6
 40
9.0
 49
4.0
 49
-1.0
 49
1.0
 49
-1.0
 49
1.0
 49
-1.0
  0
LTYPE
  2
ACISOTGL
 70
     0
  3
_ _ _ _ _
 72
    65
 73
     2
 40
3.0
 49
2.0
 49
-1.0
  0
LTYPE
  2
ACJISTGB
 70
     0
  3
__ . . __ . .
 72
    65
 73
     6
 40
9.0
 49
4.0
 49
-1.0
 49
1.0
 49
-1.0
 49
1.0
 49
-1.0
  0
LTYPE
  2
ACJISTGL
 70
     0
  3
_ _ _ _ _
 72
    65
 73
     2
 40
3.0
 49
2.0
 49
-1.0
  0
LTYPE
  2
CENTER
 70
     0
  3
Center ____ _ ____ _ ____ _ ____ _ ____ _ ____
 72
    65
 73
     4
 40
50.799999999999997
 49
31.75
 49
-6.3499999999999979
 49
6.3499999999999979
 49
-6.3499999999999979
  0
LTYPE
  2
HIDDEN
 70
     0
  3
Hidden __ __ __ __ __ __ __ __ __ __ __ __ __ _
 72
    65
 73
     2
 40
9.5249999999999968
 49
6.349999999999997
 49
-3.174999999999998
  0
LTYPE
  2
PHANTOM2
 70
     0
  3
Phantom (.5x) ___ _ _ ___ _ _ ___ _ _ ___ _ _
 72
    65
 73
     6
 40
31.75
 49
15.875
 49
-3.174999999999998
 49
3.174999999999998
 49
-3.174999999999998
 49
3.174999999999998
 49
-3.174999999999998
  0
LTYPE
  2
CENTER2
 70
     0
  3
Center (.5x) ___ _ ___ _ ___ _ ___ _ ___ _ ___
 72
    65
 73
     4
 40
1.125
 49
0.75
 49
-0.125
 49
0.125
 49
-0.125
  0
LTYPE
  2
HIDDEN2
 70
     0
  3
Hidden (.5x) _ _ _ _ _ _ _ _ _ _ _ _ _ _ _ _ _
 72
    65
 73
     2
 40
0.1875
 49
0.125
 49
-0.0625
  0
LTYPE
  2
AMZIGZAG2
 70
     0
  3
/\/-/\/-/\/-/\/-/\/-/\/
 72
    65
 73
     2
 40
0.4401
 49
0.0001
 49
-0.4400000000000002
  0
LTYPE
  2
ACANSTGB
 70
     0
  3
__ . . __ . .
 72
    65
 73
     6
 40
0.35433070866
 49
0.15748031496
 49
-0.03937007874
 49
0.03937007874
 49
-0.03937007874
 49
0.03937007874
 49
-0.03937007874
  0
LTYPE
  2
ACANSTGL
 70
     0
  3
_ _ _ _ _
 72
    65
 73
     2
 40
0.11811023622
 49
0.07874015748
 49
-0.03937007874
  0
ENDTAB
  0
TABLE
  2
LAYER
 70
     5
  0
LAYER
  2
0
 70
     0
 62
     7
  6
CONTINUOUS
  0
LAYER
  2
DEFPOINTS
 70
     0
 62
     7
  6
CONTINUOUS
  0
LAYER
  2
AM_5
 70
     0
 62
     2
  6
CONTINUOUS
  0
LAYER
  2
AM_CL
 70
     0
 62
     1
  6
AMCONSTR
  0
LAYER
  2
AM_0
 70
     0
 62
     7
  6
CONTINUOUS
  0
ENDTAB
  0
TABLE
  2
STYLE
 70
     8
  0
STYLE
  2
STANDARD
 70
     0
 40
0.0
 41
0.7400000000000003
 50
0.0
 71
     0
 42
2.5
  3
txt.shx
  4
bigfont.shx
  0
STYLE
  2

 70
     1
 40
0.0
 41
1.0
 50
0.0
 71
     0
 42
2.5
  3
ltypeshp.shx
  4

  0
STYLE
  2
ACANSTS
 70
     0
 40
1.0
 41
1.0
 50
0.0
 71
     0
 42
2.5
  3
romans.shx
  4
bigfont.shx
  0
STYLE
  2
ACANSGDT
 70
     0
 40
0.0
 41
1.0
 50
0.0
 71
     0
 42
2.5
  3
amgdtans.shx
  4

  0
STYLE
  2
ACISOTS
 70
     0
 40
1.0
 41
1.0
 50
0.0
 71
     0
 42
2.5
  3
isocp.shx
  4
extfont.shx
  0
STYLE
  2
ACISOGDT
 70
     0
 40
0.0
 41
1.0
 50
0.0
 71
     0
 42
2.5
  3
amgdt.shx
  4

  0
STYLE
  2
ACJISGDT
 70
     0
 40
0.0
 41
1.0
 50
0.0
 71
     0
 42
2.5
  3
amgdt.shx
  4

  0
STYLE
  2
ACJISTS
 70
     0
 40
1.0
 41
1.0
 50
0.0
 71
     0
 42
2.5
  3
isocp.shx
  4
extfont.shx
  0
ENDTAB
  0
TABLE
  2
VIEW
 70
     6
  0
VIEW
  2
AM_VIEW1
 70
     0
 40
647.50000000000011
 10
684.36832800212994
 20
971.24999940360885
 41
1368.7366548042701
 11
0.0
 21
0.0
 31
1.0
 12
0.0
 22
0.0
 32
0.0
 42
50.0
 43
0.0
 44
0.0
 50
0.0
 71
     0
  0
VIEW
  2
AM_VIEW2
 70
     0
 40
647.50000000000011
 10
1307.1316731978591
 20
971.24999940360885
 41
1368.7366548042701
 11
0.0
 21
0.0
 31
1.0
 12
0.0
 22
0.0
 32
0.0
 42
50.0
 43
0.0
 44
0.0
 50
0.0
 71
     0
  0
VIEW
  2
AM_VIEW3
 70
     0
 40
647.50000000000011
 10
684.36832800212994
 20
323.74999940360868
 41
1368.7366548042701
 11
0.0
 21
0.0
 31
1.0
 12
0.0
 22
0.0
 32
0.0
 42
50.0
 43
0.0
 44
0.0
 50
0.0
 71
     0
  0
VIEW
  2
AM_VIEW4
 70
     0
 40
647.50000000000011
 10
1307.1316731978591
 20
323.74999940360868
 41
1368.7366548042701
 11
0.0
 21
0.0
 31
1.0
 12
0.0
 22
0.0
 32
0.0
 42
50.0
 43
0.0
 44
0.0
 50
0.0
 71
     0
  0
VIEW
  2
AM_VIEW5
 70
     0
 40
647.50000000000023
 10
995.75000059999434
 20
647.49999940360874
 41
1368.736654804271
 11
0.0
 21
0.0
 31
1.0
 12
0.0
 22
0.0
 32
0.0
 42
50.0
 43
0.0
 44
0.0
 50
0.0
 71
     0
  0
VIEW
  2
AM_VIEW6
 70
     0
 40
1294.98705
 10
995.75000059999434
 20
647.49999940360863
 41
2737.4459348754458
 11
0.0
 21
0.0
 31
1.0
 12
0.0
 22
0.0
 32
0.0
 42
50.0
 43
0.0
 44
0.0
 50
0.0
 71
     0
  0
ENDTAB
  0
TABLE
  2
UCS
 70
     0
  0
ENDTAB
  0
TABLE
  2
APPID
 70
   157
  0
APPID
  2
ACAD
 70
     0
  0
APPID
  2
ACADANNOTATIVE
 70
     0
  0
APPID
  2
ACAD_MLEADERVER
 70
     0
  0
APPID
  2
MCAD_NO_VIS
 70
     0
  0
APPID
  2
ACAD_TEMP_GRAPHIC
 70
     0
  0
APPID
  2
AD_DRAW
 70
     0
  0
APPID
  2
ACATTRIBSERVICES
 70
     0
  0
APPID
  2
DESIGNERASSEMBLIES
 70
     0
  0
APPID
  2
ACADM_DIM_EDIT
 70
     0
  0
APPID
  2
AMDT_DM_ADJ
 70
     0
  0
APPID
  2
GENIUS_GENDIMSH_14
 70
     0
  0
APPID
  2
GEVID1057795304
 70
     0
  0
APPID
  2
GEVDC
 70
     0
  0
APPID
  2
GEVCON
 70
     0
  0
APPID
  2
GENIUS_GENBH_13
 70
     0
  0
APPID
  2
GENIUS_GENOENT_13
 70
     0
  0
APPID
  2
GENIUS_GENOBJ-NBEHI-BHF_13
 70
     0
  0
APPID
  2
GENIUS_GENOLIS_13
 70
     0
  0
APPID
  2
GENIUS_GENODEF_13
 70
     0
  0
APPID
  2
GENIUS_GENOREF_13
 70
     0
  0
APPID
  2
GENIUS_GENOBJ-NBEHI-BHB_13
 70
     0
  0
APPID
  2
GENIUS_GENOBJ-F-SCPASSM_13
 70
     0
  0
APPID
  2
GENIUS_GENDTOL_13
 70
     0
  0
APPID
  2
GENIUS_GENTRA_14
 70
     0
  0
APPID
  2
ASURF_PCURVE_APPNAME
 70
     0
  0
APPID
  2
GENIUS_GENCFG_13
 70
     0
  0
APPID
  2
GENIUS_GE3CFG0_13
 70
     0
  0
APPID
  2
GENIUS_GENCFG0_13
 70
     0
  0
APPID
  2
GENIUS_GENCFG1_13
 70
     0
  0
APPID
  2
GENIUS_GENCFG2_13
 70
     0
  0
APPID
  2
GENIUS_GENCFG3_13
 70
     0
  0
APPID
  2
GENIUS_GENCFG4_13
 70
     0
  0
APPID
  2
GENIUS_GEVCFG0_13
 70
     0
  0
APPID
  2
GENIUS_GENOBJ-N-TIT_13
 70
     0
  0
APPID
  2
GENIUS_GENTITLE_13
 70
     0
  0
APPID
  2
GENIUS_GENSCREG_15
 70
     0
  0
APPID
  2
GENIUS_GENOBJ-N-SDF_13
 70
     0
  0
APPID
  2
GENIUS_GENFIL_13
 70
     0
  0
APPID
  2
GENIUS_GENOBJ-N-CHA_13
 70
     0
  0
APPID
  2
GENIUS_GEFSH_13
 70
     0
  0
APPID
  2
GENIUS_GENOBJ-F-SHS_13
 70
     0
  0
APPID
  2
GENIUS_GENOBJ-N-CEN_13
 70
     0
  0
APPID
  2
GENIUS_GENREC_14
 70
     0
  0
APPID
  2
GENIUS_GENOBJ-N-REC_13
 70
     0
  0
APPID
  2
GENIUS_GENOBJ-N-HTC_13
 70
     0
  0
APPID
  2
GENIUS_GENHATCH_13
 70
     0
  0
APPID
  2
ACAD_PSEXT
 70
     0
  0
APPID
  2
ACAD_EXEMPT_FROM_CAD_STANDARDS
 70
     0
  0
APPID
  2
ACAECLAYERSTANDARD
 70
     0
  0
APPID
  2
GENIUS_GENCEN_19
 70
     0
  0
APPID
  2
ACAD_DSTYLE_DIMINSPECT
 70
     0
  0
APPID
  2
ACAD_DSTYLE_DIMANGULAR_EXT
 70
     0
  0
APPID
  2
ACADANNOPO
 70
     0
  0
APPID
  2
ACAD_NAV_VCDISPLAY
 70
     0
  0
APPID
  2
GENIUS_GENOBJ-N-FIL_13
 70
     0
  0
APPID
  2
ACAD_DSTYLE_DIMBREAK
 70
     0
  0
APPID
  2
ACAD_DSTYLE_DIMJAG
 70
     0
  0
APPID
  2
ACAD_DSTYLE_DIMRADIAL_EXTENSION
 70
     0
  0
APPID
  2
GENIUS_GENHINW_13
 70
     0
  0
APPID
  2
GENIUS_FIRSTVISTXT_14
 70
     0
  0
APPID
  2
GENIUS_GENOBJ-N-LEADER_13
 70
     0
  0
APPID
  2
GENIUS_DUMCFG0_13
 70
     0
  0
APPID
  2
ACAD_DSTYLE_DIMTEXT_FILL
 70
     0
  0
APPID
  2
AMG_2DHIDE
 70
     0
  0
APPID
  2
GENIUS_GEFSHEP_13
 70
     0
  0
APPID
  2
GENIUS_GENOBJ-F-SHE_13
 70
     0
  0
APPID
  2
GENIUS_GEFSHE_13
 70
     0
  0
APPID
  2
ACAD_DIMASSOC_DIMLFAC
 70
     0
  0
APPID
  2
ACAD_DIMASSOC_CALC_DIMLFAC
 70
     0
  0
APPID
  2
ACAD_DIMASSOC_OVERRIDDEN_D
 70
     0
  0
APPID
  2
GENIUS_GENOBJ-F-SHSV_13
 70
     0
  0
APPID
  2
GENIUS_GEFWELD_13
 70
     0
  0
APPID
  2
GENIUS_GENOBJ-N-CRS_13
 70
     0
  0
APPID
  2
GENIUS_GENOBJ-N-RSBK_13
 70
     0
  0
APPID
  2
GENIUS_GENOBJ-N-LIB_13
 70
     0
  0
APPID
  2
GENIUS_GENSCALE_13
 70
     0
  0
APPID
  2
GENIUS_GENDREL_13
 70
     0
  0
APPID
  2
GEVPT
 70
     0
  0
APPID
  2
GEVIT
 70
     0
  0
APPID
  2
VCC
 70
     0
  0
APPID
  2
GENBH
 70
     0
  0
APPID
  2
GEVMK
 70
     0
  0
APPID
  2
GENIUS_GENOBJ-F-DESC_13
 70
     0
  0
APPID
  2
GENIUS_GEFDESC_14
 70
     0
  0
APPID
  2
GENIUS_GENOBJ-F-FEAT_13
 70
     0
  0
APPID
  2
GENIUS_GEFFEAT_14
 70
     0
  0
APPID
  2
GENIUS_GEFPARTINS_13
 70
     0
  0
APPID
  2
GENIUS_GENSCREG_13
 70
     0
  0
APPID
  2
GENIUS_GEFSHP_13
 70
     0
  0
APPID
  2
GEVID1025574798
 70
     0
  0
APPID
  2
GEVID1025574769
 70
     0
  0
APPID
  2
GEVID1025757451
 70
     0
  0
APPID
  2
GEVID1240528327
 70
     0
  0
APPID
  2
AMG_2DSTRUCT_BTR
 70
     0
  0
APPID
  2
ACADM_2DVIEW_IGN_NOTIFY
 70
     0
  0
APPID
  2
GEVID1240528328
 70
     0
  0
APPID
  2
GEVID1240528329
 70
     0
  0
APPID
  2
GEVRADREF
 70
     0
  0
APPID
  2
GEVID1240528330
 70
     0
  0
APPID
  2
GEVID1240528331
 70
     0
  0
APPID
  2
GEVID1240528332
 70
     0
  0
APPID
  2
GEVID1240791080
 70
     0
  0
APPID
  2
GEVID1240791081
 70
     0
  0
APPID
  2
GEVID1240791082
 70
     0
  0
APPID
  2
GEVID1240791083
 70
     0
  0
APPID
  2
GEVID1240791084
 70
     0
  0
APPID
  2
GEVID1240791085
 70
     0
  0
APPID
  2
GEVID1240791086
 70
     0
  0
APPID
  2
GEVID1240791087
 70
     0
  0
APPID
  2
GEVID1240791088
 70
     0
  0
APPID
  2
GEVID1240791089
 70
     0
  0
APPID
  2
GEVID1240791090
 70
     0
  0
APPID
  2
GEVID1240791091
 70
     0
  0
APPID
  2
GEVID1240791092
 70
     0
  0
APPID
  2
GEVID1240791093
 70
     0
  0
APPID
  2
GEVID1240791094
 70
     0
  0
APPID
  2
GEVID1240791095
 70
     0
  0
APPID
  2
GEVID1240791096
 70
     0
  0
APPID
  2
GEVID1240791097
 70
     0
  0
APPID
  2
GEVID1240791098
 70
     0
  0
APPID
  2
GEVID1240791099
 70
     0
  0
APPID
  2
GEVID1240791100
 70
     0
  0
APPID
  2
GEVID1240791101
 70
     0
  0
APPID
  2
GEVID1240791102
 70
     0
  0
APPID
  2
GEVID1240791103
 70
     0
  0
APPID
  2
GEVID1240791104
 70
     0
  0
APPID
  2
GEVID1240791105
 70
     0
  0
APPID
  2
GEVID1240875381
 70
     0
  0
APPID
  2
GEVID1240875382
 70
     0
  0
APPID
  2
GEVID1240875383
 70
     0
  0
APPID
  2
GEVID1240875384
 70
     0
  0
APPID
  2
GEVID1240875385
 70
     0
  0
APPID
  2
GEVID1240875386
 70
     0
  0
APPID
  2
GEVID1240875387
 70
     0
  0
APPID
  2
GEVID1240875388
 70
     0
  0
APPID
  2
GEVID1240875389
 70
     0
  0
APPID
  2
GEVID1240875390
 70
     0
  0
APPID
  2
GEVID1240875391
 70
     0
  0
APPID
  2
GEVID1240875392
 70
     0
  0
APPID
  2
GEVID1240875393
 70
     0
  0
APPID
  2
GEVID1240875394
 70
     0
  0
APPID
  2
GEVID1240875395
 70
     0
  0
APPID
  2
GEVID1240875396
 70
     0
  0
APPID
  2
GEVID1240875397
 70
     0
  0
APPID
  2
GEVID1240875398
 70
     0
  0
APPID
  2
GEVID1240875399
 70
     0
  0
APPID
  2
GEVID1240908996
 70
     0
  0
APPID
  2
GEVID1240908997
 70
     0
  0
APPID
  2
GEVID1240908998
 70
     0
  0
APPID
  2
GEVID1240908999
 70
     0
  0
APPID
  2
GEVID1240909000
 70
     0
  0
APPID
  2
GENIUS_GENOBJ-N-ZOO_13
 70
     0
  0
APPID
  2
GENIUS_GENZOO_17
 70
     0
  0
APPID
  2
GENIUS_GE3SECT_13
 70
     0
  0
APPID
  2
GEV_VCCNULL_SWITCH_OFF
 70
     0
  0
APPID
  2
ACAD_DSTYLE_DIMTALN
 70
     0
  0
APPID
  2
DCO15
 70
     0
  0
ENDTAB
  0
TABLE
  2
DIMSTYLE
 70
    21
  0
DIMSTYLE
  2
AM_ANSI
 70
     0
  3

  4
"
  5

  6

  7

 40
1.0
 41
2.5
 42
1.0
 43
10.0
 44
1.0
 45
0.0
 46
0.0
 47
0.1
 48
0.1
140
3.5
141
0.0
142
0.0
143
0.0393701
144
1.0
145
0.0
146
0.71
147
1.5
 71
     0
 72
     0
 73
     1
 74
     1
 75
     0
 76
     0
 77
     0
 78
     8
170
     0
171
     2
172
     0
173
     0
174
     0
175
     0
176
     2
177
     2
178
     4
  0
DIMSTYLE
  2
AM_ANSI$3
 70
     0
  3

  4
"
  5

  6

  7

 40
1.0
 41
2.5
 42
1.0
 43
10.0
 44
1.0
 45
0.0
 46
0.0
 47
0.1
 48
0.1
140
3.5
141
0.0
142
0.0
143
0.0393701
144
1.0
145
0.0
146
0.71
147
1.5
 71
     0
 72
     0
 73
     1
 74
     1
 75
     0
 76
     0
 77
     0
 78
     8
170
     0
171
     2
172
     0
173
     0
174
     0
175
     0
176
     2
177
     2
178
     4
  0
DIMSTYLE
  2
AM_ANSI$4
 70
     0
  3

  4
"
  5

  6

  7

 40
1.0
 41
2.5
 42
1.0
 43
10.0
 44
1.0
 45
0.0
 46
0.0
 47
0.1
 48
0.1
140
3.5
141
0.0
142
0.0
143
0.0393701
144
1.0
145
0.0
146
0.71
147
1.5
 71
     0
 72
     0
 73
     1
 74
     1
 75
     0
 76
     0
 77
     0
 78
     8
170
     0
171
     2
172
     0
173
     0
174
     0
175
     0
176
     2
177
     2
178
     4
  0
DIMSTYLE
  2
AM_ANSI$7
 70
     0
  3

  4
"
  5

  6

  7

 40
1.0
 41
2.5
 42
1.0
 43
10.0
 44
1.0
 45
0.0
 46
0.0
 47
0.1
 48
0.1
140
5.0
141
0.0
142
0.0
143
0.0393701
144
1.0
145
0.0
146
0.71
147
1.5
 71
     0
 72
     0
 73
     1
 74
     1
 75
     0
 76
     0
 77
     0
 78
     8
170
     0
171
     2
172
     0
173
     0
174
     0
175
     0
176
     2
177
     2
178
     4
  0
DIMSTYLE
  2
AM_ANSI$SF
 70
     0
  3

  4
"
  5

  6

  7

 40
1.0
 41
2.5
 42
1.0
 43
10.0
 44
1.0
 45
0.0
 46
0.0
 47
0.1
 48
0.1
140
3.5
141
0.0
142
0.0
143
0.0393701
144
1.0
145
0.0
146
0.71
147
1.5
 71
     0
 72
     0
 73
     1
 74
     1
 75
     1
 76
     1
 77
     0
 78
     8
170
     0
171
     2
172
     0
173
     0
174
     0
175
     0
176
     2
177
     2
178
     4
  0
DIMSTYLE
  2
AM_ANSI$SH
 70
     0
  3

  4
"
  5

  6
GENAXEH
  7

 40
1.0
 41
2.5
 42
1.0
 43
10.0
 44
1.0
 45
0.0
 46
0.0
 47
0.1
 48
0.1
140
3.5
141
0.0
142
0.0
143
0.0393701
144
1.0
145
0.0
146
0.71
147
1.5
 71
     0
 72
     0
 73
     1
 74
     1
 75
     1
 76
     1
 77
     0
 78
     8
170
     0
171
     2
172
     0
173
     1
174
     0
175
     0
176
     2
177
     2
178
     4
  0
DIMSTYLE
  2
AM_ISO
 70
     0
  3

  4
"
  5

  6

  7

 40
1.0
 41
2.5
 42
1.0
 43
10.0
 44
1.0
 45
0.0
 46
0.0
 47
0.1
 48
0.1
140
3.5
141
0.0
142
0.0
143
0.0393701
144
1.0
145
0.0
146
0.71
147
1.5
 71
     0
 72
     0
 73
     0
 74
     0
 75
     0
 76
     0
 77
     1
 78
     8
170
     0
171
     2
172
     1
173
     0
174
     0
175
     0
176
   256
177
   256
178
     2
  0
DIMSTYLE
  2
AM_ISO$3
 70
     0
  3

  4
"
  5

  6

  7

 40
1.0
 41
2.5
 42
1.0
 43
10.0
 44
1.0
 45
0.0
 46
0.0
 47
0.1
 48
0.1
140
3.5
141
0.0
142
0.0
143
0.0393701
144
1.0
145
0.0
146
0.71
147
1.5
 71
     0
 72
     0
 73
     0
 74
     1
 75
     0
 76
     0
 77
     1
 78
     8
170
     0
171
     2
172
     0
173
     0
174
     0
175
     0
176
   256
177
   256
178
     2
  0
DIMSTYLE
  2
AM_ISO$4
 70
     0
  3

  4
"
  5

  6

  7

 40
1.0
 41
2.5
 42
1.0
 43
10.0
 44
1.0
 45
0.0
 46
0.0
 47
0.1
 48
0.1
140
3.5
141
0.0
142
0.0
143
0.0393701
144
1.0
145
0.0
146
0.71
147
1.5
 71
     0
 72
     0
 73
     0
 74
     1
 75
     0
 76
     0
 77
     1
 78
     8
170
     0
171
     2
172
     0
173
     0
174
     0
175
     0
176
   256
177
   256
178
     2
  0
DIMSTYLE
  2
AM_ISO$6
 70
     0
  3

  4
"
  5

  6

  7

 40
1.0
 41
2.5
 42
1.0
 43
10.0
 44
1.0
 45
0.0
 46
0.0
 47
0.1
 48
0.1
140
3.5
141
0.0
142
0.0
143
0.0393701
144
1.0
145
0.0
146
0.71
147
1.5
 71
     0
 72
     0
 73
     0
 74
     0
 75
     0
 76
     0
 77
     0
 78
     8
170
     0
171
     2
172
     1
173
     0
174
     0
175
     0
176
   256
177
   256
178
     2
  0
DIMSTYLE
  2
AM_ISO$7
 70
     0
  3

  4
"
  5

  6

  7

 40
1.0
 41
2.5
 42
1.0
 43
10.0
 44
1.0
 45
0.0
 46
0.0
 47
0.1
 48
0.1
140
5.0
141
0.0
142
0.0
143
0.0393701
144
1.0
145
0.0
146
0.71
147
1.5
 71
     0
 72
     0
 73
     0
 74
     0
 75
     0
 76
     0
 77
     1
 78
     8
170
     0
171
     2
172
     1
173
     0
174
     0
175
     0
176
   256
177
   256
178
     2
  0
DIMSTYLE
  2
AM_ISO$SF
 70
     0
  3

  4
"
  5

  6

  7

 40
1.0
 41
2.5
 42
1.0
 43
10.0
 44
1.0
 45
0.0
 46
0.0
 47
0.1
 48
0.1
140
3.5
141
0.0
142
0.0
143
0.0393701
144
1.0
145
0.0
146
0.71
147
1.5
 71
     0
 72
     0
 73
     0
 74
     0
 75
     1
 76
     1
 77
     1
 78
     8
170
     0
171
     2
172
     1
173
     0
174
     0
175
     0
176
   256
177
   256
178
     2
  0
DIMSTYLE
  2
AM_ISO$SH
 70
     0
  3

  4
"
  5

  6
GENAXEH
  7

 40
1.0
 41
2.5
 42
1.0
 43
10.0
 44
1.0
 45
0.0
 46
0.0
 47
0.1
 48
0.1
140
3.5
141
0.0
142
0.0
143
0.0393701
144
2.0
145
0.0
146
0.71
147
1.5
 71
     0
 72
     0
 73
     0
 74
     0
 75
     1
 76
     1
 77
     1
 78
     8
170
     0
171
     2
172
     1
173
     1
174
     0
175
     0
176
   256
177
   256
178
     2
  0
DIMSTYLE
  2
AM_JIS
 70
     0
  3

  4
"
  5

  6

  7

 40
1.0
 41
2.0
 42
1.0
 43
8.0
 44
1.0
 45
0.0
 46
0.0
 47
0.1
 48
0.1
140
2.5
141
0.0
142
0.0
143
0.0393701
144
1.0
145
0.0
146
0.71
147
1.5
 71
     0
 72
     0
 73
     0
 74
     0
 75
     0
 76
     0
 77
     3
 78
     8
170
     0
171
     2
172
     1
173
     0
174
     0
175
     0
176
     2
177
     2
178
     4
  0
DIMSTYLE
  2
AM_JIS$3
 70
     0
  3

  4
"
  5

  6

  7

 40
1.0
 41
2.0
 42
1.0
 43
10.0
 44
1.0
 45
0.0
 46
0.0
 47
0.1
 48
0.1
140
2.5
141
0.0
142
0.0
143
0.0393701
144
1.0
145
0.0
146
0.71
147
1.5
 71
     0
 72
     0
 73
     0
 74
     1
 75
     0
 76
     0
 77
     3
 78
     8
170
     0
171
     2
172
     0
173
     0
174
     0
175
     0
176
     2
177
     2
178
     4
  0
DIMSTYLE
  2
AM_JIS$4
 70
     0
  3

  4
"
  5

  6

  7

 40
1.0
 41
2.0
 42
1.0
 43
10.0
 44
1.0
 45
0.0
 46
0.0
 47
0.1
 48
0.1
140
2.5
141
0.0
142
0.0
143
0.0393701
144
1.0
145
0.0
146
0.71
147
1.5
 71
     0
 72
     0
 73
     0
 74
     0
 75
     0
 76
     0
 77
     3
 78
     8
170
     0
171
     2
172
     0
173
     0
174
     0
175
     0
176
     2
177
     2
178
     4
  0
DIMSTYLE
  2
AM_JIS$6
 70
     0
  3

  4
"
  5

  6

  7

 40
1.0
 41
2.0
 42
1.0
 43
10.0
 44
1.0
 45
0.0
 46
0.0
 47
0.1
 48
0.1
140
2.5
141
0.0
142
0.0
143
0.0393701
144
1.0
145
0.0
146
0.71
147
1.5
 71
     0
 72
     0
 73
     0
 74
     0
 75
     0
 76
     0
 77
     0
 78
     8
170
     0
171
     2
172
     1
173
     0
174
     0
175
     0
176
     2
177
     2
178
     4
  0
DIMSTYLE
  2
AM_JIS$7
 70
     0
  3

  4
"
  5

  6
OPEN30
  7
OPEN30
 40
1.0
 41
2.0
 42
1.0
 43
10.0
 44
1.0
 45
0.0
 46
0.0
 47
0.1
 48
0.1
140
2.5
141
0.0
142
0.0
143
0.0393701
144
1.0
145
0.0
146
0.71
147
1.5
 71
     0
 72
     0
 73
     0
 74
     0
 75
     0
 76
     0
 77
     3
 78
     8
170
     0
171
     2
172
     1
173
     0
174
     0
175
     0
176
     2
177
     2
178
     4
  0
DIMSTYLE
  2
AM_JIS$SF
 70
     0
  3

  4
"
  5

  6

  7

 40
1.0
 41
2.0
 42
1.0
 43
10.0
 44
1.0
 45
0.0
 46
0.0
 47
0.1
 48
0.1
140
2.5
141
0.0
142
0.0
143
0.0393701
144
1.0
145
0.0
146
0.71
147
1.5
 71
     0
 72
     0
 73
     0
 74
     0
 75
     1
 76
     1
 77
     3
 78
     8
170
     0
171
     2
172
     1
173
     0
174
     0
175
     0
176
     2
177
     2
178
     4
  0
DIMSTYLE
  2
AM_JIS$SH
 70
     0
  3

  4
"
  5

  6
GENAXEH
  7

 40
1.0
 41
2.0
 42
1.0
 43
10.0
 44
1.0
 45
0.0
 46
0.0
 47
0.1
 48
0.1
140
2.5
141
0.0
142
0.0
143
0.0393701
144
2.0
145
0.0
146
0.71
147
1.5
 71
     0
 72
     0
 73
     0
 74
     0
 75
     1
 76
     1
 77
     3
 78
     8
170
     0
171
     2
172
     1
173
     1
174
     0
175
     0
176
     2
177
     2
178
     4
  0
DIMSTYLE
  2
STANDARD
 70
     0
  3

  4

  5

  6

  7

 40
1.0
 41
0.18
 42
0.0625
 43
0.38
 44
0.18
 45
0.0
 46
0.0
 47
0.0
 48
0.0
140
0.18
141
0.09
142
0.0
143
25.399999999999999
144
1.0
145
0.0
146
1.0
147
0.09
 71
     0
 72
     0
 73
     1
 74
     1
 75
     0
 76
     0
 77
     0
 78
     0
170
     0
171
     2
172
     0
173
     0
174
     0
175
     0
176
     0
177
     0
178
     0
  0
ENDTAB
  0
ENDSEC
  0
SECTION
  2
BLOCKS
  0
BLOCK
  8
0
  2
$MODEL_SPACE
 70
     0
 10
0.0
 20
0.0
 30
0.0
  3
$MODEL_SPACE
  1

  0
ENDBLK
  5
77
  8
0
  0
BLOCK
 67
     1
  8
0
  2
$PAPER_SPACE
 70
     0
 10
0.0
 20
0.0
 30
0.0
  3
$PAPER_SPACE
  1

  0
ENDBLK
  5
73
 67
     1
  8
0
  0
BLOCK
  8
0
  2
GENAXEH
 70
     0
 10
0.0
 20
0.0
 30
0.0
  3
GENAXEH
  1

  0
LINE
  5
E14D
  8
0
 10
-1.0
 20
0.0
 30
0.0
 11
1.0
 21
0.0
 31
0.0
  0
ENDBLK
  5
E14E
  8
0
  0
BLOCK
  8
0
  2
_OPEN30
 70
     0
 10
0.0
 20
0.0
 30
0.0
  3
_OPEN30
  1

  0
LINE
  5
E194
  8
0
  6
BYBLOCK
 62
     0
 10
-1.0
 20
0.26794919
 30
0.0
 11
0.0
 21
0.0
 31
0.0
  0
LINE
  5
E195
  8
0
  6
BYBLOCK
 62
     0
 10
0.0
 20
0.0
 30
0.0
 11
-1.0
 21
-0.26794919
 31
0.0
  0
LINE
  5
E196
  8
0
  6
BYBLOCK
 62
     0
 10
0.0
 20
0.0
 30
0.0
 11
-1.0
 21
0.0
 31
0.0
  0
ENDBLK
  5
E197
  8
0
  0
BLOCK
  8
0
  2
_ACMFILLEDHALF
 70
     0
 10
0.0
 20
0.0
 30
0.0
  3
_ACMFILLEDHALF
  1

  0
TRACE
  5
E25B
  8
AM_0
 62
     0
 10
-0.8
 20
0.0
 30
0.0
 11
-1.0
 21
0.166666666
 31
0.0
 12
0.0
 22
0.0
 32
0.0
 13
0.0
 23
0.0
 33
0.0
  0
LINE
  5
E25C
  8
AM_0
 62
     0
 10
-1.0
 20
0.0
 30
0.0
 11
-0.8
 21
0.0
 31
0.0
  0
ENDBLK
  5
E25D
  8
0
  0
ENDSEC
  0
SECTION
  2
ENTITIES
  0
LINE
  5
B098
  8
DEFPOINTS
 10
623.24181758028863
 20
597.93420890438244
 30
0.0
 11
635.74181758028863
 21
597.93420890438244
 31
0.0
  0
LINE
  5
B09B
  8
DEFPOINTS
 10
623.24181758028863
 20
616.20697390438283
 30
0.0
 11
634.74186758028873
 21
616.20697390438283
 31
0.0
  0
LINE
  5
B0A1
  8
DEFPOINTS
 10
624.72071758028881
 20
641.49725890438265
 30
0.0
 11
635.74961758028849
 21
641.49725890438265
 31
0.0
  0
LINE
  5
B0A2
  8
DEFPOINTS
 10
623.24181758028863
 20
631.76330890438282
 30
0.0
 11
634.74186758028873
 21
631.76330890438282
 31
0.0
  0
LINE
  5
B0C1
  8
DEFPOINTS
 10
623.24181758028863
 20
800.1049939043827
 30
0.0
 11
634.74186758028873
 21
800.1049939043827
 31
0.0
  0
LINE
  5
B0C2
  8
DEFPOINTS
 10
624.72071758028881
 20
790.37114390438273
 30
0.0
 11
635.74961758028849
 21
790.37114390438273
 31
0.0
  0
LINE
  5
B0C4
  8
DEFPOINTS
 10
623.24181758028863
 20
815.66139390438275
 30
0.0
 11
634.74186758028873
 21
815.66139390438275
 31
0.0
  0
LINE
  5
B0C8
  8
DEFPOINTS
 10
623.24181758028863
 20
833.93419390438248
 30
0.0
 11
635.74181758028863
 21
833.93419390438248
 31
0.0
  0
LINE
  5
B119
  8
DEFPOINTS
  6
AM_ISO08W050
 10
710.33851758028823
 20
778.28388573153995
 30
0.0
 11
1050.2418175802879
 21
778.28388573153995
 31
0.0
  0
LINE
  5
B11B
  8
DEFPOINTS
  6
AM_ISO08W050
 10
192.3052403750707
 20
715.68386573154021
 30
0.0
 11
741.20945806625548
 21
715.68386573154021
 31
0.0
  0
LINE
  5
C729
  8
DEFPOINTS
 10
350.24181758028863
 20
712.40099861186627
 30
0.0
 11
350.24181758028863
 21
675.34619661186628
 31
0.0
  0
ARC
  5
C72A
  8
DEFPOINTS
 10
362.24181758028863
 20
763.86474361186617
 30
0.0
 40
2.0
 50
103.914597
 51
180.00000899999949
  0
ARC
  5
C72B
  8
DEFPOINTS
 10
379.11449858028863
 20
776.09078761186629
 30
0.0
 40
10.0
 50
90.00000299999769
 51
107.64566599999679
  0
ARC
  5
C72C
  8
DEFPOINTS
 10
362.24181758028863
 20
779.11861961186662
 30
0.0
 40
2.0
 50
107.6456559999986
 51
180.00000899999949
  0
LINE
  5
C72D
  8
DEFPOINTS
 10
362.24175058028868
 20
765.92518461186648
 30
0.0
 11
361.76088058028859
 21
765.80605161186645
 31
0.0
  0
LINE
  5
C72E
  8
DEFPOINTS
 10
360.24181758028863
 20
759.79098261186618
 30
0.0
 11
360.24181758028863
 21
763.86474361186617
 31
0.0
  0
LINE
  5
C72F
  8
DEFPOINTS
 10
376.08320758028867
 20
785.62026861186632
 30
0.0
 11
361.63553258028873
 21
781.02451861186626
 31
0.0
  0
LINE
  5
C730
  8
DEFPOINTS
 10
360.24181758028863
 20
774.24410761186618
 30
0.0
 11
360.24181758028863
 21
779.11861961186662
 31
0.0
  0
LINE
  5
C731
  8
DEFPOINTS
 10
358.24181758028863
 20
703.56216061186649
 30
0.0
 11
358.24181758028863
 21
675.34619661186628
 31
0.0
  0
LINE
  5
C732
  8
DEFPOINTS
 10
358.24181758028863
 20
788.00112061186633
 30
0.0
 11
358.24181758028863
 21
726.97262461186631
 31
0.0
  0
LINE
  5
C733
  8
DEFPOINTS
 10
350.24181758028863
 20
675.34619661186628
 30
0.0
 11
362.24175058028868
 21
675.34619661186628
 31
0.0
  0
LINE
  5
C734
  8
DEFPOINTS
 10
386.24186758028861
 20
587.85093861186624
 30
0.0
 11
364.24186758028861
 21
587.85093861186624
 31
0.0
  0
LINE
  5
C735
  8
DEFPOINTS
 10
386.24181758028863
 20
788.00112061186633
 30
0.0
 11
350.24181758028863
 21
788.00112061186633
 31
0.0
  0
LINE
  5
C736
  8
DEFPOINTS
 10
380.34471158028862
 20
583.15081461186651
 30
0.0
 11
601.13890158028823
 21
583.15081461186651
 31
0.0
  0
LINE
  5
C737
  8
DEFPOINTS
 10
385.2418055802886
 20
581.85111661186625
 30
0.0
 11
596.24180558028866
 21
581.85111661186625
 31
0.0
  0
ARC
  5
C738
  8
DEFPOINTS
 10
385.2418055802886
 20
583.85111661186647
 30
0.0
 40
2.0
 50
200.49660000000111
 51
269.99999700000228
  0
ARC
  5
C739
  8
DEFPOINTS
 10
380.34471158028862
 20
593.15081461186651
 30
0.0
 40
10.0
 50
238.9024929999994
 51
269.99999700000228
  0
LINE
  5
C73A
  8
DEFPOINTS
 10
623.24181758028863
 20
830.4011346118665
 30
0.0
 11
621.24184558028855
 21
830.41513261186674
 31
0.0
  0
LINE
  5
C73B
  8
DEFPOINTS
 10
621.24181758028863
 20
836.07478061186646
 30
0.0
 11
621.24181758028863
 21
819.95548861186649
 31
0.0
  0
LINE
  5
C73C
  8
DEFPOINTS
 10
605.40049558028863
 20
785.62028861186661
 30
0.0
 11
619.8481415802886
 21
781.02454861186618
 31
0.0
  0
LINE
  5
C73D
  8
DEFPOINTS
 10
605.10578158028864
 20
769.42736461186632
 30
0.0
 11
619.7227815802886
 21
765.80607261186663
 31
0.0
  0
LINE
  5
C73E
  8
DEFPOINTS
 10
604.74342958028865
 20
752.07441661186647
 30
0.0
 11
619.57295558028864
 21
749.5846586118663
 31
0.0
  0
LINE
  5
C73F
  8
DEFPOINTS
 10
604.34288358028857
 20
733.95192061186617
 30
0.0
 11
619.41072558028861
 21
732.67458861186662
 31
0.0
  0
LINE
  5
C740
  8
DEFPOINTS
 10
549.24175058028868
 20
752.2124606118665
 30
0.0
 11
603.08764358028861
 21
752.2124606118665
 31
0.0
  0
LINE
  5
C741
  8
DEFPOINTS
 10
621.24181758028863
 20
774.24410861186618
 30
0.0
 11
621.24181758028863
 21
779.11861861186651
 31
0.0
  0
LINE
  5
C742
  8
DEFPOINTS
 10
621.24181758028863
 20
759.79098261186618
 30
0.0
 11
621.24181758028863
 21
763.86474461186617
 31
0.0
  0
LINE
  5
C743
  8
DEFPOINTS
 10
621.24181758028863
 20
744.47384461186664
 30
0.0
 11
621.24181758028863
 21
747.61227261186662
 31
0.0
  0
LINE
  5
C744
  8
DEFPOINTS
 10
549.24175058028868
 20
744.47384461186664
 30
0.0
 11
618.24181758028863
 21
744.47384461186664
 31
0.0
  0
LINE
  5
C745
  8
DEFPOINTS
 10
549.24175058028868
 20
759.79098261186618
 30
0.0
 11
618.24181758028863
 21
759.79098261186618
 31
0.0
  0
LINE
  5
C746
  8
DEFPOINTS
 10
548.64922858028865
 20
774.24410861186618
 30
0.0
 11
618.24181758028863
 21
774.24410861186618
 31
0.0
  0
LINE
  5
C747
  8
DEFPOINTS
 10
551.93778758028861
 20
728.59081861186633
 30
0.0
 11
618.24181758028863
 21
728.59081861186633
 31
0.0
  0
LINE
  5
C748
  8
DEFPOINTS
 10
603.92133158028844
 20
717.46789261186632
 30
0.0
 11
619.79661958028851
 21
716.90013461186629
 31
0.0
  0
LINE
  5
C749
  8
DEFPOINTS
 10
603.92126158028861
 20
717.46793261186633
 30
0.0
 11
558.46475358028852
 21
718.13674461186633
 31
0.0
  0
LINE
  5
C74A
  8
DEFPOINTS
 10
621.24181758028863
 20
728.59081861186633
 30
0.0
 11
621.24181758028863
 21
730.68176061186648
 31
0.0
  0
LINE
  5
C74B
  8
DEFPOINTS
 10
549.58333958028834
 20
733.9876686118663
 30
0.0
 11
603.49816558028863
 21
733.9876686118663
 31
0.0
  0
LINE
  5
C74C
  8
DEFPOINTS
 10
505.74181758028863
 20
802.24538861186647
 30
0.0
 11
505.74181758028863
 21
816.70635661186645
 31
0.0
  0
LINE
  5
C74D
  8
DEFPOINTS
 10
358.24181758028863
 20
787.55190861186634
 30
0.0
 11
623.24181758028863
 21
787.55190861186634
 31
0.0
  0
LINE
  5
C74E
  8
DEFPOINTS
 10
386.24181758028863
 20
801.24538861186647
 30
0.0
 11
602.03350558028865
 21
801.24538861186647
 31
0.0
  0
LINE
  5
C74F
  8
DEFPOINTS
 10
613.12249558028861
 20
797.64291061186657
 30
0.0
 11
623.24181758028863
 21
797.64291061186657
 31
0.0
  0
LINE
  5
C750
  8
DEFPOINTS
 10
613.12244558028863
 20
797.64291061186657
 30
0.0
 11
605.67925758028855
 21
800.55710861186651
 31
0.0
  0
LINE
  5
C751
  8
DEFPOINTS
 10
386.24181758028863
 20
817.70635661186645
 30
0.0
 11
601.70312158028855
 21
817.70635661186645
 31
0.0
  0
LINE
  5
C752
  8
DEFPOINTS
 10
613.12248358028864
 20
813.41310861186651
 30
0.0
 11
605.93152358028863
 21
816.76842661186618
 31
0.0
  0
LINE
  5
C753
  8
DEFPOINTS
 10
506.74181758028863
 20
813.4130986118663
 30
0.0
 11
623.24181758028863
 21
813.4130986118663
 31
0.0
  0
LINE
  5
C754
  8
DEFPOINTS
 10
386.24181758028863
 20
828.65792661186617
 30
0.0
 11
601.49114758028861
 21
828.65792661186617
 31
0.0
  0
LINE
  5
C755
  8
DEFPOINTS
 10
620.15968358028863
 20
820.2699706118666
 30
0.0
 11
606.08050158028823
 21
827.54258861186634
 31
0.0
  0
LINE
  5
C756
  8
DEFPOINTS
 10
621.24181758028863
 20
818.49305461186657
 30
0.0
 11
621.24181758028863
 21
813.4130986118663
 31
0.0
  0
LINE
  5
C757
  8
DEFPOINTS
 10
386.24181758028863
 20
837.40513461186617
 30
0.0
 11
601.32647358028862
 21
837.40513461186617
 31
0.0
  0
LINE
  5
C758
  8
DEFPOINTS
 10
606.18883958028857
 20
836.14335661186658
 30
0.0
 11
620.21427158028825
 21
828.33894061186675
 31
0.0
  0
LINE
  5
C759
  8
DEFPOINTS
 10
386.24181758028863
 20
843.77763061186636
 30
0.0
 11
601.20916358028865
 21
843.77763061186636
 31
0.0
  0
LINE
  5
C75A
  8
DEFPOINTS
 10
620.25232758028824
 20
834.21563061186635
 30
0.0
 11
606.26183358028879
 21
842.4072186118666
 31
0.0
  0
LINE
  5
C75B
  8
DEFPOINTS
 10
386.24181758028863
 20
847.65142661186621
 30
0.0
 11
601.13891358028854
 21
847.65142661186621
 31
0.0
  0
LINE
  5
C75C
  8
DEFPOINTS
 10
620.27480358028856
 20
837.7873886118665
 30
0.0
 11
606.30388758028846
 21
846.21435461186616
 31
0.0
  0
LINE
  5
C75D
  8
DEFPOINTS
 10
386.24181758028863
 20
848.95112461186648
 30
0.0
 11
596.24181758028863
 21
848.95112461186648
 31
0.0
  0
LINE
  5
C75E
  8
DEFPOINTS
 10
474.74181758028863
 20
813.4130986118663
 30
0.0
 11
386.24181758028863
 21
813.4130986118663
 31
0.0
  0
LINE
  5
C75F
  8
DEFPOINTS
 10
475.74181758028863
 20
802.24538861186647
 30
0.0
 11
475.74181758028863
 21
816.70635661186645
 31
0.0
  0
LINE
  5
C760
  8
DEFPOINTS
 10
479.24181758028863
 20
852.40112061186653
 30
0.0
 11
502.24181758028863
 21
852.40112061186653
 31
0.0
  0
LINE
  5
C761
  8
DEFPOINTS
 10
479.24181758028863
 20
852.40112061186653
 30
0.0
 11
479.24181758028863
 21
848.95112461186648
 31
0.0
  0
LINE
  5
C762
  8
DEFPOINTS
 10
502.24181758028863
 20
852.40112061186653
 30
0.0
 11
502.24181758028863
 21
848.95112461186648
 31
0.0
  0
ARC
  5
C763
  8
DEFPOINTS
 10
619.24181758028863
 20
730.68176061186648
 30
0.0
 40
2.0
 50
0.0
 51
85.154495999998673
  0
ARC
  5
C764
  8
DEFPOINTS
 10
619.24181758028863
 20
747.61227261186662
 30
0.0
 40
2.0
 50
0.0
 51
80.469389000002735
  0
ARC
  5
C765
  8
DEFPOINTS
 10
619.24181758028863
 20
763.86474461186617
 30
0.0
 40
2.0
 50
0.0
 51
76.08541100000015
  0
ARC
  5
C766
  8
DEFPOINTS
 10
619.24181758028863
 20
779.11861861186651
 30
0.0
 40
2.0
 50
0.0
 51
72.354331999996162
  0
ARC
  5
C767
  8
DEFPOINTS
 10
602.36913758028857
 20
776.09078661186629
 30
0.0
 40
10.0
 50
72.354331999996162
 51
90.00000299999769
  0
ARC
  5
C768
  8
DEFPOINTS
 10
602.70104758028845
 20
759.72079261186661
 30
0.0
 40
10.0
 50
76.08541100000015
 51
90.00000299999769
  0
ARC
  5
C769
  8
DEFPOINTS
 10
603.08764358028861
 20
742.21246061186616
 30
0.0
 40
10.0
 50
80.469389000002735
 51
90.00000299999769
  0
ARC
  5
C76A
  8
DEFPOINTS
 10
603.49816558028863
 20
723.98766861186618
 30
0.0
 40
10.0
 50
85.154495999998673
 51
90.00000299999769
  0
ARC
  5
C76B
  8
DEFPOINTS
 10
619.74303958028861
 20
715.39993061186658
 30
0.0
 40
1.498794
 50
0.04549800000434
 51
90.00000299999769
  0
ARC
  5
C76C
  8
DEFPOINTS
 10
602.03350558028865
 20
791.24538861186625
 30
0.0
 40
10.0
 50
68.618382000003351
 51
90.00000299999769
  0
ARC
  5
C76D
  8
DEFPOINTS
 10
601.70312158028855
 20
807.70635661186634
 30
0.0
 40
10.0
 50
64.986142000000967
 51
90.00000299999769
  0
ARC
  5
C76E
  8
DEFPOINTS
 10
601.49114758028861
 20
818.65792661186629
 30
0.0
 40
10.0
 50
62.681328999998293
 51
90.00000299999769
  0
ARC
  5
C76F
  8
DEFPOINTS
 10
619.24181758028863
 20
818.49305461186657
 30
0.0
 40
2.0
 50
0.0
 51
62.681328999998293
  0
ARC
  5
C770
  8
DEFPOINTS
 10
601.32647358028862
 20
827.40513461186663
 30
0.0
 40
10.0
 50
60.90636099999832
 51
90.00000299999769
  0
ARC
  5
C771
  8
DEFPOINTS
 10
619.24181758028863
 20
826.59130661186646
 30
0.0
 40
2.0
 50
0.0
 51
60.90636099999832
  0
ARC
  5
C772
  8
DEFPOINTS
 10
601.20916358028865
 20
833.77763061186658
 30
0.0
 40
10.0
 50
59.65056199999929
 51
90.00000299999769
  0
ARC
  5
C773
  8
DEFPOINTS
 10
619.24181758028863
 20
832.48972861186655
 30
0.0
 40
2.0
 50
0.0
 51
59.65056199999929
  0
ARC
  5
C774
  8
DEFPOINTS
 10
619.24181758028863
 20
836.07478061186646
 30
0.0
 40
2.0
 50
0.0
 51
58.902492999999467
  0
ARC
  5
C775
  8
DEFPOINTS
 10
601.13891358028854
 20
837.65142661186655
 30
0.0
 40
10.0
 50
58.902492999999467
 51
90.00000299999769
  0
ARC
  5
C776
  8
DEFPOINTS
 10
596.24181758028863
 20
846.95112461186648
 30
0.0
 40
2.0
 50
20.496598999999161
 51
90.00000299999769
  0
ARC
  5
C777
  8
DEFPOINTS
 10
506.74181758028863
 20
802.24538861186647
 30
0.0
 40
1.0
 50
179.9999949999995
 51
269.99999700000228
  0
ARC
  5
C778
  8
DEFPOINTS
 10
474.74181758028863
 20
802.24538861186647
 30
0.0
 40
1.0
 50
269.99999700000228
 51
0.0
  0
ARC
  5
C779
  8
DEFPOINTS
 10
506.74181758028863
 20
812.41309861186653
 30
0.0
 40
1.0
 50
89.999998999998596
 51
180.00000899999949
  0
ARC
  5
C77A
  8
DEFPOINTS
 10
474.74181758028863
 20
812.41309861186653
 30
0.0
 40
1.0
 50
0.0
 51
90.00000299999769
  0
ARC
  5
C77B
  8
DEFPOINTS
 10
506.74181758028863
 20
816.70635661186645
 30
0.0
 40
1.0
 50
89.999998999998596
 51
180.00000899999949
  0
ARC
  5
C77C
  8
DEFPOINTS
 10
474.74181758028863
 20
816.70635661186645
 30
0.0
 40
1.0
 50
0.0
 51
90.00000299999769
  0
LINE
  5
C77D
  8
DEFPOINTS
 10
549.24175058028868
 20
769.7207926118665
 30
0.0
 11
602.70104758028845
 21
769.7207926118665
 31
0.0
  0
LINE
  5
C77E
  8
DEFPOINTS
 10
379.09732358028862
 20
786.09077261186633
 30
0.0
 11
602.36913758028857
 21
786.09077261186633
 31
0.0
  0
LINE
  5
C77F
  8
DEFPOINTS
 10
623.24181758028863
 20
600.40110661186623
 30
0.0
 11
621.24184558028855
 21
600.38710861186655
 31
0.0
  0
LINE
  5
C780
  8
DEFPOINTS
 10
621.24181758028863
 20
594.72746061186615
 30
0.0
 11
621.24181758028863
 21
610.84675261186658
 31
0.0
  0
LINE
  5
C781
  8
DEFPOINTS
 10
386.24186758028861
 20
644.71146861186651
 30
0.0
 11
602.36913758028857
 21
644.71146861186651
 31
0.0
  0
LINE
  5
C782
  8
DEFPOINTS
 10
605.40049558028863
 20
645.18195261186611
 30
0.0
 11
619.8481415802886
 21
649.77769261186654
 31
0.0
  0
LINE
  5
C783
  8
DEFPOINTS
 10
605.10578158028864
 20
661.37487661186663
 30
0.0
 11
619.7227815802886
 21
664.99616861186621
 31
0.0
  0
LINE
  5
C784
  8
DEFPOINTS
 10
604.74342958028865
 20
678.72782461186659
 30
0.0
 11
619.57295558028864
 21
681.21758261186653
 31
0.0
  0
LINE
  5
C785
  8
DEFPOINTS
 10
604.34288358028857
 20
696.85032061186632
 30
0.0
 11
619.41072558028861
 21
698.12765261186632
 31
0.0
  0
LINE
  5
C786
  8
DEFPOINTS
 10
549.24175058028868
 20
678.58978061186644
 30
0.0
 11
603.08764358028861
 21
678.58978061186644
 31
0.0
  0
LINE
  5
C787
  8
DEFPOINTS
 10
621.24181758028863
 20
656.55813261186654
 30
0.0
 11
621.24181758028863
 21
651.68362261186655
 31
0.0
  0
LINE
  5
C788
  8
DEFPOINTS
 10
621.24181758028863
 20
671.01125861186654
 30
0.0
 11
621.24181758028863
 21
666.93749661186655
 31
0.0
  0
LINE
  5
C789
  8
DEFPOINTS
 10
621.24181758028863
 20
686.32839661186654
 30
0.0
 11
621.24181758028863
 21
683.18996861186622
 31
0.0
  0
LINE
  5
C78A
  8
DEFPOINTS
 10
549.24175058028868
 20
686.32839661186654
 30
0.0
 11
618.24181758028863
 21
686.32839661186654
 31
0.0
  0
LINE
  5
C78B
  8
DEFPOINTS
 10
549.24175058028868
 20
671.01125861186654
 30
0.0
 11
618.24181758028863
 21
671.01125861186654
 31
0.0
  0
LINE
  5
C78C
  8
DEFPOINTS
 10
552.30915158028824
 20
702.21142261186662
 30
0.0
 11
618.24181758028863
 21
702.21142261186662
 31
0.0
  0
LINE
  5
C78D
  8
DEFPOINTS
 10
603.92133158028844
 20
713.33434861186663
 30
0.0
 11
619.79661958028851
 21
713.90210661186632
 31
0.0
  0
LINE
  5
C78E
  8
DEFPOINTS
 10
603.92126158028861
 20
713.3343086118665
 30
0.0
 11
558.51449358028844
 21
712.66622761186647
 31
0.0
  0
LINE
  5
C78F
  8
DEFPOINTS
 10
621.24181758028863
 20
702.21142261186662
 30
0.0
 11
621.24181758028863
 21
700.12048061186636
 31
0.0
  0
LINE
  5
C790
  8
DEFPOINTS
 10
549.6439805802886
 20
696.81457261186631
 30
0.0
 11
603.49816558028863
 21
696.81457261186631
 31
0.0
  0
LINE
  5
C791
  8
DEFPOINTS
 10
505.74181758028863
 20
628.55685261186625
 30
0.0
 11
505.74181758028863
 21
614.0958846118665
 31
0.0
  0
LINE
  5
C792
  8
DEFPOINTS
 10
386.24186758028861
 20
643.2503326118665
 30
0.0
 11
623.24181758028863
 21
643.2503326118665
 31
0.0
  0
LINE
  5
C793
  8
DEFPOINTS
 10
386.24186758028861
 20
629.55685261186625
 30
0.0
 11
602.03350558028865
 21
629.55685261186625
 31
0.0
  0
LINE
  5
C794
  8
DEFPOINTS
 10
613.12249558028861
 20
633.15933061186649
 30
0.0
 11
623.24181758028863
 21
633.15933061186649
 31
0.0
  0
LINE
  5
C795
  8
DEFPOINTS
 10
613.12244558028863
 20
633.15933061186649
 30
0.0
 11
605.67925758028855
 21
630.24513261186655
 31
0.0
  0
LINE
  5
C796
  8
DEFPOINTS
 10
386.24186758028861
 20
613.0958846118665
 30
0.0
 11
601.70312158028855
 21
613.0958846118665
 31
0.0
  0
LINE
  5
C797
  8
DEFPOINTS
 10
613.12248358028864
 20
617.38913261186622
 30
0.0
 11
605.93152358028863
 21
614.03381461186655
 31
0.0
  0
LINE
  5
C798
  8
DEFPOINTS
 10
506.74181758028863
 20
617.38914261186653
 30
0.0
 11
623.24181758028863
 21
617.38914261186653
 31
0.0
  0
LINE
  5
C799
  8
DEFPOINTS
 10
386.24186758028861
 20
602.14431461186655
 30
0.0
 11
601.49114758028861
 21
602.14431461186655
 31
0.0
  0
LINE
  5
C79A
  8
DEFPOINTS
 10
620.15968358028863
 20
610.53227061186647
 30
0.0
 11
606.08050158028823
 21
603.25965261186661
 31
0.0
  0
LINE
  5
C79B
  8
DEFPOINTS
 10
621.24181758028863
 20
612.30918661186661
 30
0.0
 11
621.24181758028863
 21
617.38914261186653
 31
0.0
  0
LINE
  5
C79C
  8
DEFPOINTS
 10
386.24186758028861
 20
593.39710661186655
 30
0.0
 11
601.32647358028862
 21
593.39710661186655
 31
0.0
  0
LINE
  5
C79D
  8
DEFPOINTS
 10
606.18883958028857
 20
594.6588846118666
 30
0.0
 11
620.21427158028825
 21
602.46330061186654
 31
0.0
  0
LINE
  5
C79E
  8
DEFPOINTS
 10
380.27445958028858
 20
587.02461061186625
 30
0.0
 11
601.20916358028865
 21
587.02461061186625
 31
0.0
  0
LINE
  5
C79F
  8
DEFPOINTS
 10
620.25232758028824
 20
596.58661061186649
 30
0.0
 11
606.26183358028879
 21
588.39502261186647
 31
0.0
  0
LINE
  5
C7A0
  8
DEFPOINTS
 10
620.27480358028856
 20
593.01485261186622
 30
0.0
 11
606.30388758028846
 21
584.58788661186622
 31
0.0
  0
LINE
  5
C7A1
  8
DEFPOINTS
 10
474.74181758028863
 20
617.38914261186653
 30
0.0
 11
386.24186758028861
 21
617.38914261186653
 31
0.0
  0
LINE
  5
C7A2
  8
DEFPOINTS
 10
475.74181758028863
 20
628.55685261186625
 30
0.0
 11
475.74181758028863
 21
614.0958846118665
 31
0.0
  0
LINE
  5
C7A3
  8
DEFPOINTS
 10
479.24181758028863
 20
578.40112061186653
 30
0.0
 11
502.24181758028863
 21
578.40112061186653
 31
0.0
  0
LINE
  5
C7A4
  8
DEFPOINTS
 10
479.24181758028863
 20
578.40112061186653
 30
0.0
 11
479.24181758028863
 21
581.85111661186625
 31
0.0
  0
LINE
  5
C7A5
  8
DEFPOINTS
 10
502.24181758028863
 20
578.40112061186653
 30
0.0
 11
502.24181758028863
 21
581.85111661186625
 31
0.0
  0
ARC
  5
C7A6
  8
DEFPOINTS
 10
619.24181758028863
 20
700.12048061186636
 30
0.0
 40
2.0
 50
274.84550400000131
 51
0.0
  0
ARC
  5
C7A7
  8
DEFPOINTS
 10
619.24181758028863
 20
683.18996861186622
 30
0.0
 40
2.0
 50
279.53061099999741
 51
0.0
  0
ARC
  5
C7A8
  8
DEFPOINTS
 10
619.24181758028863
 20
666.93749661186655
 30
0.0
 40
2.0
 50
283.91458899999992
 51
0.0
  0
ARC
  5
C7A9
  8
DEFPOINTS
 10
619.24181758028863
 20
651.68362261186655
 30
0.0
 40
2.0
 50
287.64566800000381
 51
0.0
  0
ARC
  5
C7AA
  8
DEFPOINTS
 10
602.36913758028857
 20
654.71145461186654
 30
0.0
 40
10.0
 50
269.99999700000228
 51
287.64566800000381
  0
ARC
  5
C7AB
  8
DEFPOINTS
 10
602.70104758028845
 20
671.08144861186622
 30
0.0
 40
10.0
 50
269.99999700000228
 51
283.91458899999992
  0
ARC
  5
C7AC
  8
DEFPOINTS
 10
603.08764358028861
 20
688.58978061186633
 30
0.0
 40
10.0
 50
269.99999700000228
 51
279.53061099999741
  0
ARC
  5
C7AD
  8
DEFPOINTS
 10
603.49816558028863
 20
706.81457261186631
 30
0.0
 40
10.0
 50
269.99999700000228
 51
274.84550400000131
  0
ARC
  5
C7AE
  8
DEFPOINTS
 10
619.74303958028861
 20
715.40231061186626
 30
0.0
 40
1.498794
 50
272.04545800000011
 51
359.95450199999573
  0
ARC
  5
C7AF
  8
DEFPOINTS
 10
602.03350558028865
 20
639.55685261186636
 30
0.0
 40
10.0
 50
269.99999700000228
 51
291.38161799999671
  0
ARC
  5
C7B0
  8
DEFPOINTS
 10
601.70312158028855
 20
623.0958846118665
 30
0.0
 40
10.0
 50
269.99999700000228
 51
295.013857999999
  0
ARC
  5
C7B1
  8
DEFPOINTS
 10
601.49114758028861
 20
612.14431461186655
 30
0.0
 40
10.0
 50
269.99999700000228
 51
297.3186710000017
  0
ARC
  5
C7B2
  8
DEFPOINTS
 10
619.24181758028863
 20
612.30918661186661
 30
0.0
 40
2.0
 50
297.3186710000017
 51
0.0
  0
ARC
  5
C7B3
  8
DEFPOINTS
 10
601.32647358028862
 20
603.39710661186655
 30
0.0
 40
10.0
 50
269.99999700000228
 51
299.09363900000159
  0
ARC
  5
C7B4
  8
DEFPOINTS
 10
619.24181758028863
 20
604.21093461186661
 30
0.0
 40
2.0
 50
299.09363900000159
 51
0.0
  0
ARC
  5
C7B5
  8
DEFPOINTS
 10
601.20916358028865
 20
597.02461061186659
 30
0.0
 40
10.0
 50
269.99999700000228
 51
300.34943800000059
  0
ARC
  5
C7B6
  8
DEFPOINTS
 10
619.24181758028863
 20
598.31251261186651
 30
0.0
 40
2.0
 50
300.34943800000059
 51
0.0
  0
ARC
  5
C7B7
  8
DEFPOINTS
 10
619.24181758028863
 20
594.72746061186615
 30
0.0
 40
2.0
 50
301.09750700000058
 51
0.0
  0
ARC
  5
C7B8
  8
DEFPOINTS
 10
601.13891358028854
 20
593.15081461186651
 30
0.0
 40
10.0
 50
269.99999700000228
 51
301.09750700000058
  0
ARC
  5
C7B9
  8
DEFPOINTS
 10
596.24181758028863
 20
583.85111661186647
 30
0.0
 40
2.0
 50
269.99999700000228
 51
339.50340100000091
  0
ARC
  5
C7BA
  8
DEFPOINTS
 10
506.74181758028863
 20
628.55685261186625
 30
0.0
 40
1.0
 50
90.00000299999769
 51
180.0000050000005
  0
ARC
  5
C7BB
  8
DEFPOINTS
 10
474.74181758028863
 20
628.55685261186625
 30
0.0
 40
1.0
 50
0.0
 51
90.00000299999769
  0
ARC
  5
C7BC
  8
DEFPOINTS
 10
506.74181758028863
 20
618.38914261186653
 30
0.0
 40
1.0
 50
179.99999100000039
 51
270.00000100000142
  0
ARC
  5
C7BD
  8
DEFPOINTS
 10
474.74181758028863
 20
618.38914261186653
 30
0.0
 40
1.0
 50
269.99999700000228
 51
0.0
  0
ARC
  5
C7BE
  8
DEFPOINTS
 10
506.74181758028863
 20
614.0958846118665
 30
0.0
 40
1.0
 50
179.99999100000039
 51
270.00000100000142
  0
ARC
  5
C7BF
  8
DEFPOINTS
 10
474.74181758028863
 20
614.0958846118665
 30
0.0
 40
1.0
 50
269.99999700000228
 51
0.0
  0
LINE
  5
C7C0
  8
DEFPOINTS
 10
549.24175058028868
 20
661.08144861186622
 30
0.0
 11
602.70104758028845
 21
661.08144861186622
 31
0.0
  0
LINE
  5
C7C1
  8
DEFPOINTS
 10
549.13213658028872
 20
656.55813261186654
 30
0.0
 11
618.24181758028863
 21
656.55813261186654
 31
0.0
  0
LINE
  5
C7C2
  8
DEFPOINTS
  6
AM_ISO08W050
 10
490.74181158028858
 20
666.52853361186624
 30
0.0
 11
490.74181158028858
 21
639.36609861186651
 31
0.0
  0
LINE
  5
C7C3
  8
DEFPOINTS
 10
623.24181758028863
 20
833.9341939043826
 30
0.0
 11
623.24181758028863
 21
597.93420890438244
 31
0.0
  0
LINE
  5
C7C4
  8
DEFPOINTS
 10
283.24181758028863
 20
852.26730961186661
 30
0.0
 11
386.24181758028863
 21
852.26751461186655
 31
0.0
  0
LINE
  5
C7C5
  8
DEFPOINTS
 10
212.2418175802886
 20
639.05250661186653
 30
0.0
 11
212.2418175802886
 21
814.02300761186643
 31
0.0
  0
LINE
  5
C7C6
  8
DEFPOINTS
 10
206.2418175802886
 20
617.89537361186615
 30
0.0
 11
206.2418175802886
 21
815.89288061186619
 31
0.0
  0
LINE
  5
C7C7
  8
DEFPOINTS
 10
224.47008858028869
 20
835.81402361186622
 30
0.0
 11
224.47008858028869
 21
686.01631461186651
 31
0.0
  0
LINE
  5
C7C8
  8
DEFPOINTS
 10
283.24181758028863
 20
718.40113161186662
 30
0.0
 11
283.24181758028863
 21
852.26730961186661
 31
0.0
  0
ARC
  5
C7C9
  8
DEFPOINTS
 10
280.64171958028862
 20
849.83685061186623
 30
0.0
 40
0.6
 50
273.00006100000229
 51
0.0
  0
ARC
  5
C7CA
  8
DEFPOINTS
 10
282.84191558028863
 20
849.6674166118662
 30
0.0
 40
1.6000000000000001
 50
75.526099999997555
 51
180.0
  0
LINE
  5
C7CB
  8
DEFPOINTS
 10
213.30358558028851
 20
821.8975196118663
 30
0.0
 11
218.07702258028871
 21
840.35503861186646
 31
0.0
  0
ARC
  5
C7CC
  8
DEFPOINTS
 10
225.82213958028871
 20
838.35186561186629
 30
0.0
 40
8.0
 50
93.000053000002623
 51
165.4999080000008
  0
ARC
  5
C7CD
  8
DEFPOINTS
 10
207.7418175802886
 20
815.89288061186619
 30
0.0
 40
1.5
 50
91.884964000000878
 51
180.0
  0
ARC
  5
C7CE
  8
DEFPOINTS
 10
207.4947475802887
 20
823.3999606118665
 30
0.0
 40
6.0
 50
271.88500999999661
 51
345.50021400000162
  0
LINE
  5
C7CF
  8
DEFPOINTS
 10
280.67321358028869
 20
849.2374856118663
 30
0.0
 11
225.40343858028871
 21
846.34100061186621
 31
0.0
  0
LINE
  5
C7D0
  8
DEFPOINTS
 10
283.24181758028863
 20
585.26735161186662
 30
0.0
 11
364.24186758028861
 21
585.26743561186652
 31
0.0
  0
LINE
  5
C7D1
  8
DEFPOINTS
 10
283.24181758028863
 20
585.26733161186621
 30
0.0
 11
283.24181758028863
 21
712.40110961186633
 31
0.0
  0
LINE
  5
C7D2
  8
DEFPOINTS
 10
224.47008858028869
 20
663.02143361186643
 30
0.0
 11
224.47008858028869
 21
597.76098361186655
 31
0.0
  0
LINE
  5
C7D3
  8
DEFPOINTS
 10
213.30358558028851
 20
608.63708261186662
 30
0.0
 11
216.2418175802886
 21
597.27587661186658
 31
0.0
  0
ARC
  5
C7D4
  8
DEFPOINTS
 10
282.84191558028863
 20
587.86742961186656
 30
0.0
 40
1.6000000000000001
 50
180.0
 51
284.47390000000252
  0
ARC
  5
C7D5
  8
DEFPOINTS
 10
280.64171958028862
 20
587.69799561186653
 30
0.0
 40
0.6
 50
0.0
 51
86.999924000002295
  0
ARC
  5
C7D6
  8
DEFPOINTS
 10
223.98693458028851
 20
599.27892861186638
 30
0.0
 40
8.0
 50
194.50007599999711
 51
267.00003099999998
  0
LINE
  5
C7D7
  8
DEFPOINTS
 10
280.67321358028869
 20
588.29711661186639
 30
0.0
 11
223.56823358028859
 21
591.28991461186649
 31
0.0
  0
LINE
  5
C7D8
  8
DEFPOINTS
 10
386.24181758028863
 20
852.26751461186655
 30
0.0
 11
386.24181758028863
 21
788.00112061186633
 31
0.0
  0
LINE
  5
C7D9
  8
DEFPOINTS
 10
386.24186758028861
 20
645.7098976118665
 30
0.0
 11
386.24186758028861
 21
587.85093861186624
 31
0.0
  0
LINE
  5
C7DA
  8
DEFPOINTS
 10
350.24181758028863
 20
788.00112061186633
 30
0.0
 11
350.24181758028863
 21
718.40099861186661
 31
0.0
  0
LINE
  5
C7DB
  8
DEFPOINTS
 10
205.44152458028859
 20
614.93348961186643
 30
0.0
 11
205.44152458028859
 21
633.76714861186622
 31
0.0
  0
LINE
  5
C7DC
  8
DEFPOINTS
 10
205.44152458028859
 20
633.76714861186622
 30
0.0
 11
206.2415735802887
 21
633.76714861186622
 31
0.0
  0
LINE
  5
C7DD
  8
DEFPOINTS
 10
362.24175058028868
 20
737.17059061186626
 30
0.0
 11
362.24175058028868
 21
770.44122061186636
 31
0.0
  0
LINE
  5
C7DE
  8
DEFPOINTS
 10
374.74175058028868
 20
782.94122061186636
 30
0.0
 11
536.74175058028868
 21
782.94122061186636
 31
0.0
  0
LINE
  5
C7DF
  8
DEFPOINTS
 10
533.74175058028857
 20
774.97210461186648
 30
0.0
 11
377.74175058028868
 21
774.97210461186648
 31
0.0
  0
LINE
  5
C7E0
  8
DEFPOINTS
 10
369.24175058028868
 20
766.47210461186614
 30
0.0
 11
369.24175058028868
 21
665.3407566118666
 31
0.0
  0
ARC
  5
C7E1
  8
DEFPOINTS
 10
377.74175058028868
 20
766.47210461186614
 30
0.0
 40
8.5
 50
90.0
 51
180.0
  0
ARC
  5
C7E2
  8
DEFPOINTS
 10
374.74175058028868
 20
770.44122061186636
 30
0.0
 40
12.5
 50
90.0
 51
180.0
  0
ARC
  5
C7E3
  8
DEFPOINTS
 10
350.24175058028868
 20
744.4177836118663
 30
0.0
 40
19.0
 50
300.97779499999803
 51
0.0
  0
LINE
  5
C7E4
  8
DEFPOINTS
  6
AM_ISO08W050
 10
362.74175058028868
 20
703.21172861186631
 30
0.0
 11
362.74175058028868
 21
725.43499561186661
 31
0.0
  0
ARC
  5
C7E5
  8
DEFPOINTS
 10
367.74175058028868
 20
715.26739261186617
 30
0.0
 40
15.0
 50
120.9777979999981
 51
239.0222020000019
  0
ARC
  5
C7E6
  8
DEFPOINTS
 10
347.24175058028868
 20
737.17059061186626
 30
0.0
 40
15.0
 50
313.10466000000002
 51
0.0
  0
LINE
  5
C7E7
  8
DEFPOINTS
 10
362.24175058028868
 20
693.36419461186631
 30
0.0
 11
362.24175058028868
 21
658.2098976118665
 31
0.0
  0
ARC
  5
C7E8
  8
DEFPOINTS
 10
347.24175058028868
 20
693.36419461186631
 30
0.0
 40
15.0
 50
0.0
 51
46.895329000001787
  0
ARC
  5
C7E9
  8
DEFPOINTS
 10
350.24175058028868
 20
686.11687961186624
 30
0.0
 40
19.0
 50
0.0
 51
59.022189999997721
  0
LINE
  5
C7EA
  8
DEFPOINTS
 10
374.74175058028868
 20
645.7098976118665
 30
0.0
 11
536.74175058028868
 21
645.7098976118665
 31
0.0
  0
LINE
  5
C7EB
  8
DEFPOINTS
 10
377.74175058028868
 20
656.8407566118666
 30
0.0
 11
533.74175058028857
 21
656.8407566118666
 31
0.0
  0
ARC
  5
C7EC
  8
DEFPOINTS
 10
377.74175058028868
 20
665.3407566118666
 30
0.0
 40
8.5
 50
180.0
 51
270.0
  0
ARC
  5
C7ED
  8
DEFPOINTS
 10
374.74175058028868
 20
658.2098976118665
 30
0.0
 40
12.5
 50
180.0
 51
270.0
  0
LINE
  5
C7EE
  8
DEFPOINTS
 10
549.24175058028868
 20
737.17059061186626
 30
0.0
 11
549.24175058028868
 21
770.44122061186636
 31
0.0
  0
LINE
  5
C7EF
  8
DEFPOINTS
 10
542.24175058028857
 20
766.47210461186614
 30
0.0
 11
542.24175058028857
 21
665.3407566118666
 31
0.0
  0
LINE
  5
C7F0
  8
DEFPOINTS
 10
549.24175058028868
 20
693.36419461186631
 30
0.0
 11
549.24175058028868
 21
658.2098976118665
 31
0.0
  0
ARC
  5
C7F1
  8
DEFPOINTS
 10
564.24175058028823
 20
737.17059061186626
 30
0.0
 40
15.0
 50
180.0
 51
226.89534
  0
ARC
  5
C7F2
  8
DEFPOINTS
 10
561.24175058028868
 20
744.4177836118663
 30
0.0
 40
19.0
 50
180.0
 51
239.02224699999539
  0
ARC
  5
C7F3
  8
DEFPOINTS
 10
564.24175058028823
 20
693.36419461186631
 30
0.0
 40
15.0
 50
133.1046750000001
 51
180.0
  0
ARC
  5
C7F4
  8
DEFPOINTS
 10
561.24175058028868
 20
686.11687961186624
 30
0.0
 40
19.0
 50
120.9777450000004
 51
180.0
  0
LINE
  5
C7F5
  8
DEFPOINTS
  6
AM_ISO08W050
 10
548.74175058028868
 20
706.96770961186633
 30
0.0
 11
548.74175058028868
 21
724.80889661186632
 31
0.0
  0
ARC
  5
C7F6
  8
DEFPOINTS
 10
543.74175058028834
 20
715.26739261186617
 30
0.0
 40
15.0
 50
300.97784399999699
 51
59.022129000001307
  0
ARC
  5
C7F7
  8
DEFPOINTS
 10
536.74175058028868
 20
770.44122061186636
 30
0.0
 40
12.5
 50
0.0
 51
90.0
  0
ARC
  5
C7F8
  8
DEFPOINTS
 10
533.74175058028857
 20
766.47210461186614
 30
0.0
 40
8.5
 50
0.0
 51
90.0
  0
ARC
  5
C7F9
  8
DEFPOINTS
 10
536.74175058028868
 20
658.2098976118665
 30
0.0
 40
12.5
 50
270.0
 51
0.0
  0
ARC
  5
C7FA
  8
DEFPOINTS
 10
533.74175058028857
 20
665.3407566118666
 30
0.0
 40
8.5
 50
270.0
 51
0.0
  0
LINE
  5
C7FB
  8
DEFPOINTS
 10
364.24186758028861
 20
587.85093861186624
 30
0.0
 11
364.24186758028861
 21
585.26743561186652
 31
0.0
  0
LINE
  5
C7FC
  8
DEFPOINTS
 10
369.7696615802887
 20
587.85113061186621
 30
0.0
 11
375.17973558028859
 21
584.58788661186622
 31
0.0
  0
ARC
  5
C7FD
  8
DEFPOINTS
 10
380.27445958028858
 20
597.02461061186659
 30
0.0
 40
10.0
 50
246.54140899999609
 51
270.00000299999761
  0
ARC
  5
C7FE
  8
DEFPOINTS
 10
484.74181158028858
 20
855.70612861186646
 30
0.0
 40
3.999994999999998
 50
112.5229880000021
 51
179.999977999995
  0
ARC
  5
C7FF
  8
DEFPOINTS
 10
496.74181158028858
 20
855.70612861186646
 30
0.0
 40
4.0
 50
0.0
 51
67.469796999999573
  0
ARC
  5
C800
  8
DEFPOINTS
 10
490.74181158028858
 20
841.23713461186617
 30
0.0
 40
19.663599000000001
 50
67.47536399999602
 51
112.5249969999977
  0
ARC
  5
C801
  8
DEFPOINTS
 10
490.74181158028858
 20
873.40113561186649
 30
0.0
 40
20.5
 50
303.58634299999812
 51
236.41396600000081
  0
ARC
  5
C802
  8
DEFPOINTS
 10
477.7418265802886
 20
853.82412461186664
 30
0.0
 40
3.0
 50
0.0
 51
56.413954000002249
  0
ARC
  5
C803
  8
DEFPOINTS
 10
503.74181158028858
 20
853.82412461186664
 30
0.0
 40
3.000011999999999
 50
123.586167000001
 51
179.999977999995
  0
CIRCLE
  5
C804
  8
DEFPOINTS
 10
490.74181158028858
 20
873.40113561186649
 30
0.0
 40
12.5
  0
LINE
  5
C805
  8
DEFPOINTS
 10
480.7418265802886
 20
855.70612861186646
 30
0.0
 11
480.7418265802886
 21
852.40112061186653
 31
0.0
  0
LINE
  5
C806
  8
DEFPOINTS
 10
500.74181158028858
 20
855.70612861186646
 30
0.0
 11
500.74181158028858
 21
852.40112061186653
 31
0.0
  0
LINE
  5
C807
  8
DEFPOINTS
 10
498.27483158028861
 20
859.4011206118663
 30
0.0
 11
483.20982958028861
 21
859.4011206118663
 31
0.0
  0
ARC
  5
C808
  8
DEFPOINTS
 10
333.24181758028863
 20
715.40100961186624
 30
0.0
 40
6.5
 50
202.6198650000033
 51
337.3801349999967
  0
ARC
  5
C809
  8
DEFPOINTS
 10
333.24181758028863
 20
715.40100961186624
 30
0.0
 40
11.0
 50
193.1365589999983
 51
346.86344099999542
  0
ARC
  5
C80A
  8
DEFPOINTS
 10
333.24181758028863
 20
715.4009876118663
 30
0.0
 40
6.5
 50
22.619865000003291
 51
157.3801349999967
  0
ARC
  5
C80B
  8
DEFPOINTS
 10
333.24181758028863
 20
715.4009876118663
 30
0.0
 40
11.0
 50
13.1365589999983
 51
166.86344100000159
  0
LINE
  5
C80C
  8
DEFPOINTS
 10
317.74181758028863
 20
717.90098761186619
 30
0.0
 11
348.72336558028871
 21
717.90098761186619
 31
0.0
  0
LINE
  5
C80D
  8
DEFPOINTS
 10
317.74181758028863
 20
712.90100961186647
 30
0.0
 11
348.72336558028871
 21
712.90100961186647
 31
0.0
  0
LINE
  5
C80E
  8
DEFPOINTS
  6
AM_ISO08W050
 10
333.24181758028863
 20
701.14738261186619
 30
0.0
 11
333.24181758028863
 21
729.65461461186635
 31
0.0
  0
LINE
  5
C80F
  8
DEFPOINTS
 10
236.6183685802886
 20
707.96662561186633
 30
0.0
 11
209.11946758028861
 21
606.22848361186641
 31
0.0
  0
ARC
  5
C810
  8
DEFPOINTS
 10
242.4105185802886
 20
706.40105961186657
 30
0.0
 40
12.0
 50
90.0
 51
164.8748879999994
  0
ARC
  5
C811
  8
DEFPOINTS
 10
242.4105185802886
 20
706.40105961186657
 30
0.0
 40
6.0
 50
90.0
 51
164.8748879999994
  0
LINE
  5
C812
  8
DEFPOINTS
 10
317.24180658028871
 20
718.40099861186661
 30
0.0
 11
242.37224558028859
 21
718.40099861186661
 31
0.0
  0
LINE
  5
C813
  8
DEFPOINTS
 10
317.74181758028863
 20
717.90098761186619
 30
0.0
 11
317.24180658028871
 21
718.40099861186661
 31
0.0
  0
LINE
  5
C814
  8
DEFPOINTS
 10
317.24180658028871
 20
712.40099861186627
 30
0.0
 11
242.38345558028871
 21
712.40099861186627
 31
0.0
  0
LINE
  5
C815
  8
DEFPOINTS
 10
317.74181758028863
 20
712.90100961186647
 30
0.0
 11
317.24180658028871
 21
712.40099861186627
 31
0.0
  0
LINE
  5
C816
  8
DEFPOINTS
 10
230.82621758028861
 20
709.53219161186632
 30
0.0
 11
203.32731758028859
 21
607.79404961186651
 31
0.0
  0
LINE
  5
C817
  8
DEFPOINTS
 10
201.3391335802886
 20
608.78721861186659
 30
0.0
 11
200.68190658028871
 21
608.3310896118661
 31
0.0
  0
LINE
  5
C818
  8
DEFPOINTS
 10
200.68190658028871
 20
608.3310896118661
 30
0.0
 11
203.10156858028861
 21
604.84465361186653
 31
0.0
  0
LINE
  5
C819
  8
DEFPOINTS
 10
201.3391335802886
 20
608.78721861186659
 30
0.0
 11
203.75879458028859
 21
605.30078261186645
 31
0.0
  0
ARC
  5
C81A
  8
DEFPOINTS
 10
206.22339258028859
 20
607.01126661186652
 30
0.0
 40
3.799999999999998
 50
216.32635399999859
 51
22.738533999998019
  0
ARC
  5
C81B
  8
DEFPOINTS
 10
206.22339258028859
 20
607.01126661186652
 30
0.0
 40
3.0
 50
164.8748879999994
 51
344.87488799999937
  0
ARC
  5
C81C
  8
DEFPOINTS
 10
207.4947475802887
 20
607.26849161186658
 30
0.0
 40
6.0
 50
14.500403999999291
 51
56.120364000000599
  0
LINE
  5
C81D
  8
DEFPOINTS
 10
351.22337658028857
 20
718.40099861186661
 30
0.0
 11
351.22337658028857
 21
712.40099861186627
 31
0.0
  0
LINE
  5
C81E
  8
DEFPOINTS
 10
349.22337658028869
 20
718.40099861186661
 30
0.0
 11
351.22337658028857
 21
718.40099861186661
 31
0.0
  0
LINE
  5
C81F
  8
DEFPOINTS
 10
349.22337658028869
 20
712.40099861186627
 30
0.0
 11
351.22337658028857
 21
712.40099861186627
 31
0.0
  0
LINE
  5
C820
  8
DEFPOINTS
 10
348.72336558028871
 20
717.90098761186619
 30
0.0
 11
349.22337658028869
 21
718.40099861186661
 31
0.0
  0
LINE
  5
C821
  8
DEFPOINTS
 10
348.72336558028871
 20
712.90100961186647
 30
0.0
 11
349.22337658028869
 21
712.40099861186627
 31
0.0
  0
LINE
  5
D6B7
  8
DEFPOINTS
  6
AM_ISO08W050
 10
1049.949097580288
 20
1320.195425059479
 30
0.0
 11
181.6695438250656
 21
1320.195425059479
 31
0.0
  0
LINE
  5
D712
  8
DEFPOINTS
  6
CONTINUOUS
 10
623.74180758028979
 20
1220.46825505948
 30
0.0
 11
634.74180758028911
 21
1220.46825505948
 31
0.0
  0
LINE
  5
D713
  8
DEFPOINTS
  6
CONTINUOUS
 10
623.74180758028979
 20
1236.0245850594799
 30
0.0
 11
634.74180758028911
 21
1236.0245850594799
 31
0.0
  0
LINE
  5
D714
  8
DEFPOINTS
  6
CONTINUOUS
 10
624.72070758028815
 20
1245.758475059481
 30
0.0
 11
635.7496075802876
 21
1245.758475059481
 31
0.0
  0
LINE
  5
D717
  8
DEFPOINTS
  6
CONTINUOUS
 10
624.72070758028815
 20
1394.6324250594801
 30
0.0
 11
635.7496075802876
 21
1394.6324250594801
 31
0.0
  0
LINE
  5
D718
  8
DEFPOINTS
  6
CONTINUOUS
 10
623.74180758028979
 20
1404.36632505948
 30
0.0
 11
634.74180758028911
 21
1404.36632505948
 31
0.0
  0
LINE
  5
D719
  8
DEFPOINTS
  6
CONTINUOUS
 10
623.74180758028979
 20
1419.9227250594799
 30
0.0
 11
634.74180758028911
 21
1419.9227250594799
 31
0.0
  0
LINE
  5
D71A
  8
DEFPOINTS
  6
CONTINUOUS
 10
624.24187758028756
 20
1202.1954250594799
 30
0.0
 11
635.7418075802882
 21
1202.1954250594799
 31
0.0
  0
LINE
  5
D71F
  8
DEFPOINTS
  6
CONTINUOUS
 10
624.2418175802876
 20
1438.1954250594799
 30
0.0
 11
635.7418075802882
 21
1438.1954250594799
 31
0.0
  0
LINE
  5
D720
  8
DEFPOINTS
  6
CONTINUOUS
 10
623.24181758028863
 20
1203.19548505948
 30
0.0
 11
624.24187758028756
 21
1202.1954250594799
 31
0.0
  0
LINE
  5
D721
  8
DEFPOINTS
  6
CONTINUOUS
 10
623.24181758028863
 20
1437.195425059479
 30
0.0
 11
624.2418175802876
 21
1438.1954250594799
 31
0.0
  0
LINE
  5
D775
  8
DEFPOINTS
 10
623.24181758028863
 20
1435.1954380594791
 30
0.0
 11
623.24181758028863
 21
1205.195425059479
 31
0.0
  0
ARC
  5
D776
  8
DEFPOINTS
  6
CONTINUOUS
 10
619.24181758028874
 20
1202.0313200594801
 30
0.0
 40
2.0
 50
299.99999800001649
 51
0.0
  0
LINE
  5
D777
  8
DEFPOINTS
  6
CONTINUOUS
 10
620.24181858028908
 20
1200.2992940594791
 30
0.0
 11
614.90210458028844
 21
1197.2164080594789
 31
0.0
  0
ARC
  5
D778
  8
DEFPOINTS
  6
CONTINUOUS
 10
609.90209558028903
 20
1205.8766570594789
 30
0.0
 40
10.0
 50
269.99999700001541
 51
299.99999800001649
  0
LINE
  5
D779
  8
DEFPOINTS
  6
CONTINUOUS
 10
538.80003258028876
 20
1195.8766570594789
 30
0.0
 11
609.90209558028903
 21
1195.8766570594789
 31
0.0
  0
LINE
  5
D77A
  8
DEFPOINTS
  6
CONTINUOUS
 10
623.24179658028891
 20
1435.1954380594791
 30
0.0
 11
621.24187858028858
 21
1435.209438059479
 31
0.0
  0
LINE
  5
D77B
  8
DEFPOINTS
  6
CONTINUOUS
 10
621.24187858028858
 20
1443.265372059479
 30
0.0
 11
605.04711558028885
 21
1453.195425059479
 31
0.0
  0
LINE
  5
D77C
  8
DEFPOINTS
  6
CONTINUOUS
 10
386.2418175802888
 20
1453.195425059479
 30
0.0
 11
605.04699358028859
 21
1453.195425059479
 31
0.0
  0
LINE
  5
D77D
  8
DEFPOINTS
  6
CENTER
 10
490.7418175802888
 20
1178.583655059479
 30
0.0
 11
490.7418175802888
 21
1193.0286870594789
 31
0.0
  0
LINE
  5
D77E
  8
DEFPOINTS
  6
CONTINUOUS
 10
623.24179658028891
 20
1205.1954120594789
 30
0.0
 11
616.29158358028883
 21
1205.146760059479
 31
0.0
  0
ARC
  5
D77F
  8
DEFPOINTS
  6
CONTINUOUS
 10
609.90209558028903
 20
1202.195425059479
 30
0.0
 40
10.0
 50
269.99999700001541
 51
299.99999800001649
  0
ARC
  5
D780
  8
DEFPOINTS
  6
CONTINUOUS
 10
622.74181758028863
 20
1203.6918850594791
 30
0.0
 40
1.5
 50
90.401064000021776
 51
180.0000050000005
  0
ARC
  5
D781
  8
DEFPOINTS
  6
CONTINUOUS
 10
619.24181758028874
 20
1198.350088059479
 30
0.0
 40
2.0
 50
299.99999800001649
 51
0.0
  0
LINE
  5
D782
  8
DEFPOINTS
  6
CONTINUOUS
 10
620.24181858028908
 20
1196.6180620594789
 30
0.0
 11
614.90210458028844
 21
1193.535176059479
 31
0.0
  0
LINE
  5
D783
  8
DEFPOINTS
  6
CONTINUOUS
 10
621.24181758028874
 20
1198.350088059479
 30
0.0
 11
621.24181758028874
 21
1203.6918850594791
 31
0.0
  0
LINE
  5
D784
  8
DEFPOINTS
  6
CONTINUOUS
 10
537.81359458028885
 20
1192.195425059479
 30
0.0
 11
609.90209558028903
 21
1192.195425059479
 31
0.0
  0
LINE
  5
D785
  8
DEFPOINTS
  6
CONTINUOUS
 10
536.74185158028843
 20
1188.195423059479
 30
0.0
 11
539.51979658028915
 21
1198.562855059479
 31
0.0
  0
ARC
  5
D786
  8
DEFPOINTS
  6
CONTINUOUS
 10
440.96612158028898
 20
1190.695425059479
 30
0.0
 40
3.0
 50
14.999999999994451
 51
90.000002999984659
  0
ARC
  5
D787
  8
DEFPOINTS
  6
CONTINUOUS
 10
394.5001185802887
 20
1198.695425059479
 30
0.0
 40
5.0
 50
239.99999700002189
 51
269.99999700001541
  0
LINE
  5
D788
  8
DEFPOINTS
  6
CONTINUOUS
 10
444.74180658028848
 20
1188.1954730594789
 30
0.0
 11
443.86388458028898
 21
1191.471921059479
 31
0.0
  0
LINE
  5
D789
  8
DEFPOINTS
  6
CONTINUOUS
 10
394.5001185802887
 20
1193.695425059479
 30
0.0
 11
440.96612158028898
 21
1193.695425059479
 31
0.0
  0
LINE
  5
D78A
  8
DEFPOINTS
  6
CONTINUOUS
 10
384.72978458028882
 20
1198.562855059479
 30
0.0
 11
392.00015958028922
 21
1194.3653020594791
 31
0.0
  0
LINE
  5
D78B
  8
DEFPOINTS
  6
CONTINUOUS
 10
350.24181758028891
 20
1204.012836059479
 30
0.0
 11
350.24181758028891
 21
1183.195316059479
 31
0.0
  0
LINE
  5
D78C
  8
DEFPOINTS
  6
CONTINUOUS
 10
350.24181758028891
 20
1204.012836059479
 30
0.0
 11
386.2418175802888
 21
1204.012836059479
 31
0.0
  0
LINE
  5
D78D
  8
DEFPOINTS
  6
CONTINUOUS
 10
351.2418175802888
 20
1173.1953150594791
 30
0.0
 11
351.2418175802888
 21
1179.1955260594791
 31
0.0
  0
LINE
  5
D78F
  8
DEFPOINTS
  6
CONTINUOUS
 10
609.20330458028923
 20
1250.6065600594791
 30
0.0
 11
623.24181758028863
 21
1250.6065600594791
 31
0.0
  0
LINE
  5
D790
  8
DEFPOINTS
  6
CONTINUOUS
 10
621.24187858028858
 20
1220.9932780594791
 30
0.0
 11
605.04711558028885
 21
1218.154899059479
 31
0.0
  0
LINE
  5
D791
  8
DEFPOINTS
  6
CONTINUOUS
 10
605.04717658028846
 20
1234.713981059479
 30
0.0
 11
621.24187858028858
 21
1237.745231059479
 31
0.0
  0
LINE
  5
D792
  8
DEFPOINTS
  6
CONTINUOUS
 10
621.24187858028858
 20
1254.4940110594789
 30
0.0
 11
605.04711558028885
 21
1249.264519059479
 31
0.0
  0
LINE
  5
D793
  8
DEFPOINTS
  6
CONTINUOUS
 10
621.24187858028858
 20
1270.4290690594789
 30
0.0
 11
605.04711558028885
 21
1267.4230880594789
 31
0.0
  0
LINE
  5
D794
  8
DEFPOINTS
  6
CONTINUOUS
 10
621.24187858028858
 20
1285.802360059479
 30
0.0
 11
605.04711558028885
 21
1284.0725020594789
 31
0.0
  0
LINE
  5
D795
  8
DEFPOINTS
  6
CONTINUOUS
 10
621.24187858028858
 20
1303.0162280594791
 30
0.0
 11
605.04711558028885
 21
1301.7850260594789
 31
0.0
  0
LINE
  5
D796
  8
DEFPOINTS
  6
CONTINUOUS
 10
609.20330458028923
 20
1389.7842940594801
 30
0.0
 11
623.24181758028863
 21
1389.7842940594801
 31
0.0
  0
LINE
  5
D797
  8
DEFPOINTS
  6
CONTINUOUS
 10
621.24187858028858
 20
1337.3746260594789
 30
0.0
 11
605.04711558028885
 21
1338.605827059479
 31
0.0
  0
LINE
  5
D798
  8
DEFPOINTS
  6
CONTINUOUS
 10
621.24187858028858
 20
1354.5884930594791
 30
0.0
 11
605.04711558028885
 21
1356.3183520594789
 31
0.0
  0
LINE
  5
D799
  8
DEFPOINTS
  6
CONTINUOUS
 10
621.24187858028858
 20
1369.961784059479
 30
0.0
 11
605.04711558028885
 21
1372.9677660594789
 31
0.0
  0
LINE
  5
D79A
  8
DEFPOINTS
  6
CONTINUOUS
 10
621.24187858028858
 20
1385.89684305948
 30
0.0
 11
605.04711558028885
 21
1391.1263350594791
 31
0.0
  0
LINE
  5
D79B
  8
DEFPOINTS
  6
CONTINUOUS
 10
605.04717658028846
 20
1405.6768720594789
 30
0.0
 11
621.24187858028858
 21
1402.6456220594789
 31
0.0
  0
LINE
  5
D79C
  8
DEFPOINTS
  6
CONTINUOUS
 10
621.24187858028858
 20
1419.3975750594791
 30
0.0
 11
605.04711558028885
 21
1422.2359540594789
 31
0.0
  0
LINE
  5
D79D
  8
DEFPOINTS
  6
CONTINUOUS
 10
621.24187858028858
 20
1424.233513059479
 30
0.0
 11
605.04711558028885
 21
1433.085563059479
 31
0.0
  0
LINE
  5
D79E
  8
DEFPOINTS
  6
CONTINUOUS
 10
621.24187858028858
 20
1432.345573059479
 30
0.0
 11
605.04711558028885
 21
1441.827995059479
 31
0.0
  0
LINE
  5
D79F
  8
DEFPOINTS
  6
CONTINUOUS
 10
621.24187858028858
 20
1438.3997720594789
 30
0.0
 11
605.04711558028885
 21
1448.040764059479
 31
0.0
  0
LINE
  5
D7A0
  8
DEFPOINTS
  6
CONTINUOUS
 10
621.24187858028858
 20
1441.971062059479
 30
0.0
 11
605.04711558028885
 21
1451.901115059479
 31
0.0
  0
LINE
  5
D7A1
  8
DEFPOINTS
  6
CONTINUOUS
 10
386.2418175802888
 20
1451.901115059479
 30
0.0
 11
605.04699358028859
 21
1451.901115059479
 31
0.0
  0
LINE
  5
D7A2
  8
DEFPOINTS
  6
CONTINUOUS
 10
386.2418175802888
 20
1448.040764059479
 30
0.0
 11
605.04711558028885
 21
1448.040764059479
 31
0.0
  0
LINE
  5
D7A3
  8
DEFPOINTS
  6
CONTINUOUS
 10
386.2418175802888
 20
1441.827995059479
 30
0.0
 11
605.04717658028846
 21
1441.827995059479
 31
0.0
  0
LINE
  5
D7A4
  8
DEFPOINTS
  6
CONTINUOUS
 10
386.24175658028918
 20
1433.085563059479
 30
0.0
 11
605.04717658028846
 21
1433.085563059479
 31
0.0
  0
LINE
  5
D7A5
  8
DEFPOINTS
  6
CONTINUOUS
 10
386.2418175802888
 20
1422.2357040594791
 30
0.0
 11
605.04662758028826
 21
1422.2359540594789
 31
0.0
  0
LINE
  5
D7A6
  8
DEFPOINTS
  6
CONTINUOUS
 10
386.2418175802888
 20
1405.6768720594789
 30
0.0
 11
605.04687158028923
 21
1405.6768720594789
 31
0.0
  0
LINE
  5
D7A7
  8
DEFPOINTS
  6
CONTINUOUS
 10
386.2418175802888
 20
1391.1263350594791
 30
0.0
 11
605.04717658028846
 21
1391.1263350594791
 31
0.0
  0
LINE
  5
D7A8
  8
DEFPOINTS
  6
CONTINUOUS
 10
386.2418175802888
 20
1372.967644059479
 30
0.0
 11
605.04729858028895
 21
1372.967644059479
 31
0.0
  0
LINE
  5
D7A9
  8
DEFPOINTS
  6
CONTINUOUS
 10
386.2418175802888
 20
1356.319157059479
 30
0.0
 11
605.04705458028923
 21
1356.3183520594789
 31
0.0
  0
LINE
  5
D7AA
  8
DEFPOINTS
  6
CONTINUOUS
 10
386.2418175802888
 20
1338.605827059479
 30
0.0
 11
605.04778658028863
 21
1338.605827059479
 31
0.0
  0
LINE
  5
D7AC
  8
DEFPOINTS
  6
CONTINUOUS
 10
386.2418175802888
 20
1204.012836059479
 30
0.0
 11
386.2418175802888
 21
1457.1955490594789
 31
0.0
  0
LINE
  5
D7AD
  8
DEFPOINTS
  6
CONTINUOUS
 10
206.2418175802888
 20
1222.823407059479
 30
0.0
 11
206.2418175802888
 21
1420.8209150594789
 31
0.0
  0
LINE
  5
D7AE
  8
DEFPOINTS
  6
CONTINUOUS
 10
283.24181758028891
 20
1457.1953050594791
 30
0.0
 11
386.2418175802888
 21
1457.1955100594789
 31
0.0
  0
LINE
  5
D7AF
  8
DEFPOINTS
  6
CONTINUOUS
 10
283.24181758028891
 20
1183.1952750594789
 30
0.0
 11
283.24181758028891
 21
1457.1953050594791
 31
0.0
  0
LINE
  5
D7B0
  8
DEFPOINTS
  6
CONTINUOUS
 10
212.2418175802888
 20
1221.2070680594791
 30
0.0
 11
212.2418175802888
 21
1418.9510420594791
 31
0.0
  0
ARC
  5
D7B1
  8
DEFPOINTS
  6
CONTINUOUS
 10
280.65247358028881
 20
1454.7789570594789
 30
0.0
 40
0.6
 50
273.00006100002201
 51
0.0
  0
ARC
  5
D7B2
  8
DEFPOINTS
  6
CONTINUOUS
 10
282.84191558028868
 20
1454.595451059479
 30
0.0
 40
1.6000000000000001
 50
75.526100000002202
 51
180.0
  0
LINE
  5
D7B3
  8
DEFPOINTS
  6
CONTINUOUS
 10
280.67321458028908
 20
1454.1655200594789
 30
0.0
 11
224.6712935802891
 21
1451.2306660594791
 31
0.0
  0
LINE
  5
D7B4
  8
DEFPOINTS
  6
CONTINUOUS
 10
213.30358558028851
 20
1426.8255540594789
 30
0.0
 11
218.2606005802883
 21
1445.9929180594791
 31
0.0
  0
LINE
  5
D7B5
  8
DEFPOINTS
  6
CONTINUOUS
 10
224.47008958028911
 20
1440.7420580594789
 30
0.0
 11
224.47008958028911
 21
1200.4333450594791
 31
0.0
  0
LINE
  5
D7B6
  8
DEFPOINTS
  6
CONTINUOUS
 10
205.4415245802887
 20
1238.6951830594789
 30
0.0
 11
206.24157358028901
 21
1238.6951830594789
 31
0.0
  0
LINE
  5
D7B7
  8
DEFPOINTS
  6
CONTINUOUS
 10
206.24157358028901
 20
1219.5696940594789
 30
0.0
 11
206.24157358028901
 21
1238.6951830594789
 31
0.0
  0
LINE
  5
D7B8
  8
DEFPOINTS
  6
CONTINUOUS
 10
205.4415245802887
 20
1401.695427059479
 30
0.0
 11
205.4415245802887
 21
1238.6951830594789
 31
0.0
  0
ARC
  5
D7B9
  8
DEFPOINTS
  6
CONTINUOUS
 10
207.49474758028941
 20
1428.327995059479
 30
0.0
 40
6.0
 50
271.88500999997711
 51
345.50021400000162
  0
ARC
  5
D7BA
  8
DEFPOINTS
  6
CONTINUOUS
 10
207.7418175802888
 20
1420.8209150594789
 30
0.0
 40
1.5
 50
91.884964000020602
 51
180.0
  0
LINE
  5
D7BB
  8
DEFPOINTS
  6
CONTINUOUS
 10
283.24181758028891
 20
1183.1952750594789
 30
0.0
 11
350.24181758028891
 21
1183.1953070594791
 31
0.0
  0
LINE
  5
D7BC
  8
DEFPOINTS
  6
CONTINUOUS
 10
234.74207458028849
 20
1467.1953480594791
 30
0.0
 11
231.99641158028879
 21
1466.639722059479
 31
0.0
  0
LINE
  5
D7BD
  8
DEFPOINTS
  6
CONTINUOUS
 10
231.99641158028879
 20
1466.639722059479
 30
0.0
 11
229.27189958028899
 21
1464.9772280594791
 31
0.0
  0
LINE
  5
D7BE
  8
DEFPOINTS
  6
CONTINUOUS
 10
229.27189958028899
 20
1464.9772280594791
 30
0.0
 11
226.58901758028901
 21
1462.2204660594789
 31
0.0
  0
LINE
  5
D7BF
  8
DEFPOINTS
  6
CONTINUOUS
 10
226.58901758028901
 20
1462.2204660594789
 30
0.0
 11
223.9681835802887
 21
1458.3904180594791
 31
0.0
  0
LINE
  5
D7C0
  8
DEFPOINTS
  6
CONTINUOUS
 10
223.9681835802887
 20
1458.3904180594791
 30
0.0
 11
221.4293425802891
 21
1453.516233059479
 31
0.0
  0
LINE
  5
D7C1
  8
DEFPOINTS
  6
CONTINUOUS
 10
221.4293425802891
 20
1453.516233059479
 30
0.0
 11
219.161417580289
 21
1448.0442140594789
 31
0.0
  0
LINE
  5
D7C2
  8
DEFPOINTS
  6
CONTINUOUS
 10
205.4415245802887
 20
1373.4874270594789
 30
0.0
 11
205.14149958028901
 21
1370.1302460594791
 31
0.0
  0
LINE
  5
D7C3
  8
DEFPOINTS
  6
CONTINUOUS
 10
205.14149958028901
 20
1370.1302460594791
 30
0.0
 11
204.31515458028861
 21
1357.982885059479
 31
0.0
  0
LINE
  5
D7C4
  8
DEFPOINTS
  6
CONTINUOUS
 10
204.31515458028861
 20
1357.982885059479
 30
0.0
 11
203.72037358028879
 21
1345.5479390594789
 31
0.0
  0
LINE
  5
D7C5
  8
DEFPOINTS
  6
CONTINUOUS
 10
203.72037358028879
 20
1345.5479390594789
 30
0.0
 11
203.36168458028919
 21
1332.920043059479
 31
0.0
  0
LINE
  5
D7C6
  8
DEFPOINTS
  6
CONTINUOUS
 10
203.36168458028919
 20
1332.920043059479
 30
0.0
 11
203.2418175802888
 21
1320.1953050594791
 31
0.0
  0
LINE
  5
D7C7
  8
DEFPOINTS
  6
CONTINUOUS
 10
203.2418175802888
 20
1320.1953050594791
 30
0.0
 11
203.36168458028919
 21
1307.4705660594791
 31
0.0
  0
LINE
  5
D7C8
  8
DEFPOINTS
  6
CONTINUOUS
 10
203.36168458028919
 20
1307.4705660594791
 30
0.0
 11
203.72037358028879
 21
1294.842671059479
 31
0.0
  0
LINE
  5
D7C9
  8
DEFPOINTS
  6
CONTINUOUS
 10
203.72037358028879
 20
1294.842671059479
 30
0.0
 11
204.31515458028861
 21
1282.4077240594791
 31
0.0
  0
LINE
  5
D7CA
  8
DEFPOINTS
  6
CONTINUOUS
 10
204.31515458028861
 20
1282.4077240594791
 30
0.0
 11
205.14149958028901
 21
1270.2603640594789
 31
0.0
  0
LINE
  5
D7CB
  8
DEFPOINTS
  6
CONTINUOUS
 10
205.14149958028901
 20
1270.2603640594789
 30
0.0
 11
205.4415245802887
 21
1266.9031820594789
 31
0.0
  0
ARC
  5
D7CC
  8
DEFPOINTS
  6
CONTINUOUS
 10
282.84191558028868
 20
1185.795158059479
 30
0.0
 40
1.6000000000000001
 50
180.0
 51
284.4738999999978
  0
LINE
  5
D7CD
  8
DEFPOINTS
  6
CONTINUOUS
 10
280.67321458028908
 20
1186.225090059479
 30
0.0
 11
224.6712935802891
 21
1189.159943059479
 31
0.0
  0
ARC
  5
D7CE
  8
DEFPOINTS
  6
CONTINUOUS
 10
280.64171958028902
 20
1185.625725059479
 30
0.0
 40
0.6
 50
0.0
 51
86.999938999978056
  0
LINE
  5
D7CF
  8
DEFPOINTS
  6
CONTINUOUS
 10
213.30358558028851
 20
1213.565056059479
 30
0.0
 11
218.2606005802883
 21
1194.397691059479
 31
0.0
  0
ARC
  5
D7D0
  8
DEFPOINTS
  6
CONTINUOUS
 10
207.49474758028941
 20
1212.0626140594791
 30
0.0
 40
6.0
 50
14.49978599999838
 51
88.114990000022914
  0
ARC
  5
D7D1
  8
DEFPOINTS
  6
CONTINUOUS
 10
207.7418175802888
 20
1219.5696940594789
 30
0.0
 40
1.5
 50
180.0
 51
268.1150359999794
  0
LINE
  5
D7D2
  8
DEFPOINTS
  6
CONTINUOUS
 10
351.2418175802888
 20
1467.1953240594789
 30
0.0
 11
351.2418175802888
 21
1461.1953240594789
 31
0.0
  0
LINE
  5
D7D3
  8
DEFPOINTS
  6
CONTINUOUS
 10
339.2418175802888
 20
1461.1953300594801
 30
0.0
 11
351.2418175802888
 21
1461.1953240594789
 31
0.0
  0
LINE
  5
D7D4
  8
DEFPOINTS
  6
CONTINUOUS
 10
339.24181658028851
 20
1467.1953300594789
 30
0.0
 11
351.2418175802888
 21
1467.1953240594789
 31
0.0
  0
LINE
  5
D7D5
  8
DEFPOINTS
  6
CONTINUOUS
 10
339.2418175802888
 20
1467.1953050594791
 30
0.0
 11
339.2418175802888
 21
1457.1954160594789
 31
0.0
  0
LINE
  5
D7D6
  8
DEFPOINTS
  6
CONTINUOUS
 10
327.24181758028891
 20
1467.195335059479
 30
0.0
 11
339.2418175802888
 21
1467.1953300594789
 31
0.0
  0
LINE
  5
D7D7
  8
DEFPOINTS
  6
CONTINUOUS
 10
327.24181758028891
 20
1467.1953050594791
 30
0.0
 11
327.24181758028891
 21
1457.195392059479
 31
0.0
  0
LINE
  5
D7D8
  8
DEFPOINTS
  6
CONTINUOUS
 10
235.34307658028891
 20
1461.195347059479
 30
0.0
 11
327.24181758028891
 21
1461.1953050594791
 31
0.0
  0
LINE
  5
D7D9
  8
DEFPOINTS
  6
CONTINUOUS
 10
234.74181858028919
 20
1467.1953480594791
 30
0.0
 11
327.24181758028891
 21
1467.1953050594791
 31
0.0
  0
LINE
  5
D7DA
  8
DEFPOINTS
  6
CONTINUOUS
 10
235.34307658028891
 20
1461.195347059479
 30
0.0
 11
234.22084658028891
 21
1460.9682470594789
 31
0.0
  0
LINE
  5
D7DB
  8
DEFPOINTS
  6
CONTINUOUS
 10
234.22084658028891
 20
1460.9682470594789
 30
0.0
 11
233.04361958028881
 21
1460.249905059479
 31
0.0
  0
LINE
  5
D7DC
  8
DEFPOINTS
  6
CONTINUOUS
 10
233.04361958028881
 20
1460.249905059479
 30
0.0
 11
231.24905758028871
 21
1458.405926059479
 31
0.0
  0
LINE
  5
D7DD
  8
DEFPOINTS
  6
CONTINUOUS
 10
231.24905758028871
 20
1458.405926059479
 30
0.0
 11
229.1232215802886
 21
1455.299261059479
 31
0.0
  0
LINE
  5
D7DE
  8
DEFPOINTS
  6
CONTINUOUS
 10
229.1232215802886
 20
1455.299261059479
 30
0.0
 11
227.06945558028869
 21
1451.3563450594791
 31
0.0
  0
LINE
  5
D7DF
  8
DEFPOINTS
  6
CONTINUOUS
 10
200.72423958028881
 20
1315.6953050594791
 30
0.0
 11
200.72423958028881
 21
1324.6953050594791
 31
0.0
  0
LINE
  5
D7E0
  8
DEFPOINTS
  6
CONTINUOUS
 10
200.72423958028881
 20
1324.6953050594791
 30
0.0
 11
203.28420758028929
 21
1324.6953050594791
 31
0.0
  0
LINE
  5
D7E1
  8
DEFPOINTS
  6
CONTINUOUS
 10
200.72423958028881
 20
1315.6953050594791
 30
0.0
 11
203.28420758028929
 21
1315.6953050594791
 31
0.0
  0
LINE
  5
D7E2
  8
DEFPOINTS
  6
CONTINUOUS
 10
386.2418175802888
 20
1234.713981059479
 30
0.0
 11
605.04687158028923
 21
1234.713981059479
 31
0.0
  0
LINE
  5
D7E3
  8
DEFPOINTS
  6
CONTINUOUS
 10
386.2418175802888
 20
1249.264519059479
 30
0.0
 11
605.04717658028846
 21
1249.264519059479
 31
0.0
  0
LINE
  5
D7E4
  8
DEFPOINTS
  6
CONTINUOUS
 10
386.2418175802888
 20
1267.4232100594791
 30
0.0
 11
605.04729858028895
 21
1267.4232100594791
 31
0.0
  0
LINE
  5
D7E5
  8
DEFPOINTS
  6
CONTINUOUS
 10
386.2418175802888
 20
1284.071697059479
 30
0.0
 11
605.04705458028923
 21
1284.0725020594789
 31
0.0
  0
LINE
  5
D7E6
  8
DEFPOINTS
  6
CONTINUOUS
 10
386.2418175802888
 20
1301.7850260594789
 30
0.0
 11
605.04778658028863
 21
1301.7850260594789
 31
0.0
  0
ARC
  5
D7E7
  8
DEFPOINTS
  6
CONTINUOUS
 10
490.7418175802888
 20
1320.195372059479
 30
0.0
 40
11.5
 50
20.35443300000269
 51
159.64561999997611
  0
LINE
  5
D7E8
  8
DEFPOINTS
  6
CONTINUOUS
 10
474.24181558028909
 20
1324.1953640594791
 30
0.0
 11
507.24181558028909
 21
1324.195380059479
 31
0.0
  0
LINE
  5
D7E9
  8
DEFPOINTS
  6
CONTINUOUS
 10
474.24181958028828
 20
1316.1953640594791
 30
0.0
 11
507.24181958028839
 21
1316.195380059479
 31
0.0
  0
ARC
  5
D7EA
  8
DEFPOINTS
  6
CONTINUOUS
 10
474.2418175802888
 20
1320.1953640594791
 30
0.0
 40
4.0
 50
90.000027000018335
 51
270.0
  0
ARC
  5
D7EB
  8
DEFPOINTS
  6
CONTINUOUS
 10
507.2418175802888
 20
1320.195380059479
 30
0.0
 40
4.0
 50
270.0
 51
90.0
  0
ARC
  5
D7EC
  8
DEFPOINTS
  6
CONTINUOUS
 10
490.7418175802888
 20
1320.195372059479
 30
0.0
 40
11.5
 50
200.3544330000027
 51
339.64561999997608
  0
LINE
  5
D7ED
  8
DEFPOINTS
  6
CONTINUOUS
 10
205.4415245802887
 20
1401.695427059479
 30
0.0
 11
206.24157358028901
 21
1401.695427059479
 31
0.0
  0
ARC
  5
D7EE
  8
DEFPOINTS
  6
CONTINUOUS
 10
225.03763458028899
 20
1444.2402590594791
 30
0.0
 40
7.0
 50
92.999915000003085
 51
165.50000500001161
  0
ARC
  5
D7EF
  8
DEFPOINTS
  6
CONTINUOUS
 10
280.65247358028881
 20
1185.6116530594791
 30
0.0
 40
0.6
 50
0.0
 51
86.999938999978056
  0
LINE
  5
D7F0
  8
DEFPOINTS
  6
CONTINUOUS
 10
234.74207458028849
 20
1173.1952620594791
 30
0.0
 11
231.99641158028879
 21
1173.7508880594789
 31
0.0
  0
LINE
  5
D7F1
  8
DEFPOINTS
  6
CONTINUOUS
 10
231.99641158028879
 20
1173.7508880594789
 30
0.0
 11
229.27189958028899
 21
1175.4133820594791
 31
0.0
  0
LINE
  5
D7F2
  8
DEFPOINTS
  6
CONTINUOUS
 10
229.27189958028899
 20
1175.4133820594791
 30
0.0
 11
226.58901758028901
 21
1178.170143059479
 31
0.0
  0
LINE
  5
D7F3
  8
DEFPOINTS
  6
CONTINUOUS
 10
226.58901758028901
 20
1178.170143059479
 30
0.0
 11
223.9681835802887
 21
1182.000191059479
 31
0.0
  0
LINE
  5
D7F4
  8
DEFPOINTS
  6
CONTINUOUS
 10
223.9681835802887
 20
1182.000191059479
 30
0.0
 11
221.4293425802891
 21
1186.874377059479
 31
0.0
  0
LINE
  5
D7F5
  8
DEFPOINTS
  6
CONTINUOUS
 10
339.2418175802888
 20
1179.195280059479
 30
0.0
 11
351.2418175802888
 21
1179.1952850594789
 31
0.0
  0
LINE
  5
D7F6
  8
DEFPOINTS
  6
CONTINUOUS
 10
339.2418175802888
 20
1173.195310059479
 30
0.0
 11
339.2418175802888
 21
1183.1951930594789
 31
0.0
  0
LINE
  5
D7F7
  8
DEFPOINTS
  6
CONTINUOUS
 10
327.24181758028891
 20
1173.1953050594791
 30
0.0
 11
327.24181758028891
 21
1183.1952170594791
 31
0.0
  0
LINE
  5
D7F8
  8
DEFPOINTS
  6
CONTINUOUS
 10
235.34307658028891
 20
1179.1952620594791
 30
0.0
 11
327.24181758028891
 21
1179.1953050594791
 31
0.0
  0
LINE
  5
D7F9
  8
DEFPOINTS
  6
CONTINUOUS
 10
234.74181858028919
 20
1173.1952620594791
 30
0.0
 11
351.2418175802888
 21
1173.1953150594791
 31
0.0
  0
LINE
  5
D7FA
  8
DEFPOINTS
  6
CONTINUOUS
 10
235.34307658028891
 20
1179.1952620594791
 30
0.0
 11
234.22084658028891
 21
1179.4223620594789
 31
0.0
  0
LINE
  5
D7FB
  8
DEFPOINTS
  6
CONTINUOUS
 10
234.22084658028891
 20
1179.4223620594789
 30
0.0
 11
233.04361958028881
 21
1180.140704059479
 31
0.0
  0
LINE
  5
D7FC
  8
DEFPOINTS
  6
CONTINUOUS
 10
233.04361958028881
 20
1180.140704059479
 30
0.0
 11
231.24905758028871
 21
1181.984683059479
 31
0.0
  0
LINE
  5
D7FD
  8
DEFPOINTS
  6
CONTINUOUS
 10
231.24905758028871
 20
1181.984683059479
 30
0.0
 11
229.1232215802886
 21
1185.0913490594789
 31
0.0
  0
LINE
  5
D7FE
  8
DEFPOINTS
  6
CONTINUOUS
 10
229.1232215802886
 20
1185.0913490594789
 30
0.0
 11
227.06945558028869
 21
1189.034264059479
 31
0.0
  0
LINE
  5
D7FF
  8
DEFPOINTS
  6
CONTINUOUS
 10
221.4293425802891
 20
1186.874377059479
 30
0.0
 11
219.161417580289
 21
1192.3463950594789
 31
0.0
  0
ARC
  5
D800
  8
DEFPOINTS
  6
CONTINUOUS
 10
225.03763458028899
 20
1196.1503510594789
 30
0.0
 40
7.0
 50
194.49999499998839
 51
267.00008499999689
  0
LINE
  5
D801
  8
DEFPOINTS
  6
CONTINUOUS
 10
376.24200058028902
 20
1186.695425059479
 30
0.0
 11
536.74181758028885
 21
1186.695425059479
 31
0.0
  0
LINE
  5
D802
  8
DEFPOINTS
  6
CONTINUOUS
 10
374.74200058028902
 20
1181.403136059479
 30
0.0
 11
536.74200058028885
 21
1181.403136059479
 31
0.0
  0
LINE
  5
D803
  8
DEFPOINTS
  6
CONTINUOUS
 10
374.74200058028902
 20
1174.9135270594791
 30
0.0
 11
536.74200058028885
 21
1174.9135270594791
 31
0.0
  0
LINE
  5
D804
  8
DEFPOINTS
  6
CONTINUOUS
 10
375.24200058028902
 20
1168.8345500594789
 30
0.0
 11
536.24200058028885
 21
1168.8345500594789
 31
0.0
  0
LINE
  5
D805
  8
DEFPOINTS
  6
CONTINUOUS
 10
375.24200058028902
 20
1121.6464220594789
 30
0.0
 11
535.24200058028896
 21
1121.6464220594789
 31
0.0
  0
LINE
  5
D806
  8
DEFPOINTS
  6
CONTINUOUS
 10
374.74200058028902
 20
1119.898010059479
 30
0.0
 11
536.74200058028885
 21
1119.898010059479
 31
0.0
  0
LINE
  5
D807
  8
DEFPOINTS
  6
CONTINUOUS
 10
549.24200058028885
 20
1132.398010059479
 30
0.0
 11
549.24200058028885
 21
1138.071568059479
 31
0.0
  0
LINE
  5
D808
  8
DEFPOINTS
  6
CONTINUOUS
 10
552.24200058028896
 20
1149.1419340594789
 30
0.0
 11
557.75135458028865
 21
1149.1419340594789
 31
0.0
  0
LINE
  5
D809
  8
DEFPOINTS
  6
CONTINUOUS
 10
552.22593658028836
 20
1141.071525059479
 30
0.0
 11
557.75135458028865
 21
1141.071525059479
 31
0.0
  0
ARC
  5
D80A
  8
DEFPOINTS
  6
CONTINUOUS
 10
549.99667758028875
 20
1145.1067300594791
 30
0.0
 40
8.7417320000000007
 50
332.50944499999451
 51
27.490555000005479
  0
LINE
  5
D80B
  8
DEFPOINTS
  6
CONTINUOUS
 10
542.24200058028885
 20
1128.6464220594789
 30
0.0
 11
542.24200058028885
 21
1162.8345500594789
 31
0.0
  0
ARC
  5
D80C
  8
DEFPOINTS
  6
CONTINUOUS
 10
552.24200058028896
 20
1152.1419340594789
 30
0.0
 40
3.0
 50
180.0
 51
270.0
  0
ARC
  5
D80D
  8
DEFPOINTS
  6
CONTINUOUS
 10
536.74200058028885
 20
1168.903136059479
 30
0.0
 40
12.5
 50
0.0
 51
90.0
  0
ARC
  5
D80E
  8
DEFPOINTS
  6
CONTINUOUS
 10
536.74200058028885
 20
1162.4135270594791
 30
0.0
 40
12.5
 50
0.0
 51
90.0
  0
ARC
  5
D80F
  8
DEFPOINTS
  6
CONTINUOUS
 10
536.24200058028885
 20
1162.8345500594789
 30
0.0
 40
6.0
 50
0.0
 51
90.0
  0
ARC
  5
D810
  8
DEFPOINTS
  6
CONTINUOUS
 10
536.74200058028885
 20
1132.398010059479
 30
0.0
 40
12.5
 50
270.0
 51
0.0
  0
ARC
  5
D811
  8
DEFPOINTS
  6
CONTINUOUS
 10
552.24200058028896
 20
1138.071568059479
 30
0.0
 40
3.0
 50
90.0
 51
180.0
  0
LINE
  5
D812
  8
DEFPOINTS
  6
CONTINUOUS
 10
549.24200058028885
 20
1152.1419340594789
 30
0.0
 11
549.24200058028885
 21
1168.903136059479
 31
0.0
  0
LINE
  5
D813
  8
DEFPOINTS
  6
CENTER
 10
548.74200058028885
 20
1142.576690059479
 30
0.0
 11
548.74200058028885
 21
1147.9734950594791
 31
0.0
  0
LINE
  5
D814
  8
DEFPOINTS
  6
CENTER
 10
546.01786558028834
 20
1145.1067510594789
 30
0.0
 11
552.08927058028905
 21
1145.1067510594789
 31
0.0
  0
ARC
  5
D815
  8
DEFPOINTS
  6
CONTINUOUS
 10
374.74200058028902
 20
1132.398010059479
 30
0.0
 40
12.5
 50
180.0
 51
270.0
  0
ARC
  5
D816
  8
DEFPOINTS
  6
CONTINUOUS
 10
361.48732358028923
 20
1145.1067300594791
 30
0.0
 40
8.7417320000000007
 50
152.50944499999451
 51
207.49055500000549
  0
ARC
  5
D817
  8
DEFPOINTS
  6
CONTINUOUS
 10
374.74200058028902
 20
1162.4135270594791
 30
0.0
 40
12.5
 50
90.0
 51
180.0
  0
ARC
  5
D818
  8
DEFPOINTS
  6
CONTINUOUS
 10
374.74200058028902
 20
1168.903136059479
 30
0.0
 40
12.5
 50
90.0
 51
180.0
  0
ARC
  5
D819
  8
DEFPOINTS
  6
CONTINUOUS
 10
375.24200058028902
 20
1162.8345500594789
 30
0.0
 40
6.0
 50
90.0
 51
180.0
  0
LINE
  5
D81A
  8
DEFPOINTS
  6
CONTINUOUS
 10
362.24200058028902
 20
1152.1419340594789
 30
0.0
 11
362.24200058028902
 21
1168.903136059479
 31
0.0
  0
LINE
  5
D81B
  8
DEFPOINTS
  6
CENTER
 10
362.74200058028902
 20
1142.576690059479
 30
0.0
 11
362.74200058028902
 21
1147.9734950594791
 31
0.0
  0
LINE
  5
D81C
  8
DEFPOINTS
  6
CENTER
 10
365.46613558028838
 20
1145.1067510594789
 30
0.0
 11
359.39473058028869
 21
1145.1067510594789
 31
0.0
  0
ARC
  5
D81D
  8
DEFPOINTS
  6
CONTINUOUS
 10
359.2420005802889
 20
1152.1419340594789
 30
0.0
 40
3.0
 50
270.0
 51
0.0
  0
LINE
  5
D81E
  8
DEFPOINTS
  6
CONTINUOUS
 10
359.2420005802889
 20
1149.1419340594789
 30
0.0
 11
353.73264758028853
 21
1149.1419340594789
 31
0.0
  0
LINE
  5
D81F
  8
DEFPOINTS
  6
CONTINUOUS
 10
359.2580655802887
 20
1141.071525059479
 30
0.0
 11
353.73264758028853
 21
1141.071525059479
 31
0.0
  0
ARC
  5
D820
  8
DEFPOINTS
  6
CONTINUOUS
 10
359.2420005802889
 20
1138.071568059479
 30
0.0
 40
3.0
 50
0.0
 51
90.0
  0
LINE
  5
D821
  8
DEFPOINTS
  6
CONTINUOUS
 10
362.24200058028902
 20
1132.398010059479
 30
0.0
 11
362.24200058028902
 21
1138.071568059479
 31
0.0
  0
LINE
  5
D822
  8
DEFPOINTS
  6
CONTINUOUS
 10
369.2420005802889
 20
1127.6464220594789
 30
0.0
 11
369.2420005802889
 21
1162.8345500594789
 31
0.0
  0
ARC
  5
D823
  8
DEFPOINTS
  6
CONTINUOUS
 10
552.24200058028896
 20
1158.6319560594791
 30
0.0
 40
3.0
 50
180.0
 51
270.0
  0
LINE
  5
D824
  8
DEFPOINTS
  6
CONTINUOUS
 10
552.24200058028896
 20
1155.6319560594791
 30
0.0
 11
557.75135458028865
 21
1155.6319560594791
 31
0.0
  0
ARC
  5
D825
  8
DEFPOINTS
  6
CONTINUOUS
 10
549.99667758028875
 20
1151.5967510594789
 30
0.0
 40
8.7417320000000007
 50
355.3020720000041
 51
27.490555000005479
  0
LINE
  5
D826
  8
DEFPOINTS
  6
CONTINUOUS
 10
558.7090405802885
 20
1144.3907600594789
 30
0.0
 11
558.7090405802885
 21
1152.3127210594789
 31
0.0
  0
LINE
  5
D827
  8
DEFPOINTS
  6
CONTINUOUS
 10
359.2420005802889
 20
1155.6319560594791
 30
0.0
 11
353.73264758028853
 21
1155.6319560594791
 31
0.0
  0
ARC
  5
D828
  8
DEFPOINTS
  6
CONTINUOUS
 10
361.48732358028923
 20
1151.5967510594789
 30
0.0
 40
8.7417320000000007
 50
152.50944499999451
 51
184.69792799999581
  0
LINE
  5
D829
  8
DEFPOINTS
  6
CONTINUOUS
 10
352.77496058028851
 20
1144.3907600594789
 30
0.0
 11
352.77496058028851
 21
1152.3127210594789
 31
0.0
  0
ARC
  5
D82A
  8
DEFPOINTS
  6
CONTINUOUS
 10
359.2420005802889
 20
1158.6319560594791
 30
0.0
 40
3.0
 50
270.0
 51
0.0
  0
ARC
  5
D82B
  8
DEFPOINTS
  6
CONTINUOUS
 10
535.24200058028896
 20
1179.695425059479
 30
0.0
 40
7.0
 50
3.5992130000033842
 51
90.0
  0
ARC
  5
D82C
  8
DEFPOINTS
  6
CONTINUOUS
 10
535.24200058028896
 20
1128.6464220594789
 30
0.0
 40
7.0
 50
270.0
 51
0.0
  0
ARC
  5
D82D
  8
DEFPOINTS
  6
CONTINUOUS
 10
376.24200058028902
 20
1179.695425059479
 30
0.0
 40
7.0
 50
90.0
 51
176.4007869999966
  0
ARC
  5
D82E
  8
DEFPOINTS
  6
CONTINUOUS
 10
376.24200058028902
 20
1128.6464220594789
 30
0.0
 40
7.0
 50
180.0
 51
270.0
  0
LINE
  5
D82F
  8
DEFPOINTS
  6
CONTINUOUS
 10
386.2418175802888
 20
1218.1551490594791
 30
0.0
 11
605.04711558028885
 21
1218.154899059479
 31
0.0
  0
LINE
  5
D830
  8
DEFPOINTS
  6
CONTINUOUS
 10
536.74181758028885
 20
1188.1954400594791
 30
0.0
 11
536.74181758028885
 21
1186.695425059479
 31
0.0
  0
LINE
  5
D831
  8
DEFPOINTS
  6
CONTINUOUS
 10
444.7418175802888
 20
1188.1954400594791
 30
0.0
 11
444.7418175802888
 21
1186.695425059479
 31
0.0
  0
LINE
  5
D832
  8
DEFPOINTS
  6
CONTINUOUS
 10
621.24187858028858
 20
1419.3975750594791
 30
0.0
 11
621.24187858028858
 21
1443.265372059479
 31
0.0
  0
LINE
  5
D833
  8
DEFPOINTS
  6
CONTINUOUS
 10
621.24200058028885
 20
1402.6453780594791
 30
0.0
 11
623.24181758028863
 21
1402.6453780594791
 31
0.0
  0
LINE
  5
D834
  8
DEFPOINTS
  6
CONTINUOUS
 10
621.24187858028858
 20
1366.6483080594789
 30
0.0
 11
621.24193958028786
 21
1369.961784059479
 31
0.0
  0
LINE
  5
D835
  8
DEFPOINTS
  6
CONTINUOUS
 10
621.24193958028786
 20
1381.3893960594801
 30
0.0
 11
621.24187858028858
 21
1385.89684305948
 31
0.0
  0
LINE
  5
D836
  8
DEFPOINTS
  6
CONTINUOUS
 10
621.24187858028858
 20
1354.5884930594791
 30
0.0
 11
621.24187858028858
 21
1351.667351059479
 31
0.0
  0
LINE
  5
D837
  8
DEFPOINTS
  6
CONTINUOUS
 10
621.24187858028858
 20
1337.3746260594789
 30
0.0
 11
621.24187858028858
 21
1336.372673059479
 31
0.0
  0
LINE
  5
D838
  8
DEFPOINTS
  6
CONTINUOUS
 10
621.24200058028885
 20
1237.745476059479
 30
0.0
 11
623.24181758028863
 21
1237.745476059479
 31
0.0
  0
LINE
  5
D839
  8
DEFPOINTS
  6
CONTINUOUS
 10
621.24193958028786
 20
1259.001457059479
 30
0.0
 11
621.24187858028858
 21
1254.4940110594789
 31
0.0
  0
LINE
  5
D83A
  8
DEFPOINTS
  6
CONTINUOUS
 10
621.24187858028858
 20
1273.74254605948
 30
0.0
 11
621.24193958028786
 21
1270.4290690594789
 31
0.0
  0
LINE
  5
D83B
  8
DEFPOINTS
  6
CONTINUOUS
 10
621.24187858028858
 20
1285.802360059479
 30
0.0
 11
621.24187858028858
 21
1288.7235030594791
 31
0.0
  0
LINE
  5
D83C
  8
DEFPOINTS
  6
CONTINUOUS
 10
621.24187858028858
 20
1303.0162280594791
 30
0.0
 11
621.24187858028858
 21
1304.018181059479
 31
0.0
  0
LINE
  5
D83D
  8
DEFPOINTS
  6
CONTINUOUS
 10
444.74184258028902
 20
1188.195425059479
 30
0.0
 11
536.74178158028849
 21
1188.195425059479
 31
0.0
  0
LINE
  5
D83E
  8
DEFPOINTS
  6
CONTINUOUS
 10
621.24187858028858
 20
1216.157337059479
 30
0.0
 11
605.04711558028885
 21
1207.305287059479
 31
0.0
  0
LINE
  5
D83F
  8
DEFPOINTS
  6
CONTINUOUS
 10
386.24175658028918
 20
1207.305287059479
 30
0.0
 11
605.04717658028846
 21
1207.305287059479
 31
0.0
  0
LINE
  5
D840
  8
DEFPOINTS
  6
CONTINUOUS
 10
621.24187858028858
 20
1220.9932780594791
 30
0.0
 11
621.24187858028858
 21
1208.0452770594791
 31
0.0
  0
LINE
  5
D841
  8
DEFPOINTS
  6
CONTINUOUS
 10
621.24187858028858
 20
1208.0452770594791
 30
0.0
 11
605.04711558028885
 21
1198.562855059479
 31
0.0
  0
LINE
  5
D842
  8
DEFPOINTS
  6
CONTINUOUS
 10
376.43663058028898
 20
1198.562855059479
 30
0.0
 11
605.04717658028846
 21
1198.562855059479
 31
0.0
  0
LINE
  5
D843
  8
DEFPOINTS
  6
CONTINUOUS
 10
367.12876058028837
 20
1204.012836059479
 30
0.0
 11
376.43663058028898
 21
1198.562855059479
 31
0.0
  0
LINE
  5
D844
  8
DEFPOINTS
  6
CONTINUOUS
 10
623.24181758028863
 20
1437.195425059479
 30
0.0
 11
623.24181758028863
 21
1203.19548505948
 31
0.0
  0
LINE
  5
DB1C
  8
DEFPOINTS
  6
CONTINUOUS
 62
     7
 10
728.24180758028774
 20
1455.195425059479
 30
0.0
 11
691.74180758028797
 21
1455.195425059479
 31
0.0
  0
LINE
  5
DB1D
  8
DEFPOINTS
  6
CONTINUOUS
 62
     7
 10
691.74180758028797
 20
1185.1954250594799
 30
0.0
 11
728.24180758028774
 21
1185.1954250594799
 31
0.0
  0
LINE
  5
DB1E
  8
DEFPOINTS
  6
CONTINUOUS
 62
     7
 10
681.74180758028774
 20
1445.195425059479
 30
0.0
 11
681.74180758028774
 21
1195.1954250594799
 31
0.0
  0
LINE
  5
DB1F
  8
DEFPOINTS
  6
CONTINUOUS
 62
     7
 10
735.24180758028774
 20
1472.62622505948
 30
0.0
 11
748.24181758028794
 21
1472.62622505948
 31
0.0
  0
LINE
  5
DB20
  8
DEFPOINTS
  6
AM_ISO08W050
 10
726.24180758028774
 20
1341.7544250594799
 30
0.0
 11
726.24180758028774
 21
1298.9670250594791
 31
0.0
  0
LINE
  5
DB21
  8
DEFPOINTS
  6
CONTINUOUS
 62
     7
 10
702.49180758028865
 20
1313.9454250594799
 30
0.0
 11
749.99181758028794
 21
1313.9454250594799
 31
0.0
  0
LINE
  5
DB22
  8
DEFPOINTS
  6
CONTINUOUS
 62
     7
 10
702.49180758028865
 20
1326.4454250594799
 30
0.0
 11
749.99181758028794
 21
1326.4454250594799
 31
0.0
  0
LINE
  5
DB23
  8
DEFPOINTS
  6
CONTINUOUS
 62
     7
 10
748.24181758028794
 20
1509.1954250594799
 30
0.0
 11
748.24181758028794
 21
1326.4454250594799
 31
0.0
  0
LINE
  5
DB24
  8
DEFPOINTS
  6
CONTINUOUS
 62
     7
 10
732.24180758028774
 20
1405.195425059479
 30
0.0
 11
748.24181758028794
 21
1405.195425059479
 31
0.0
  0
LINE
  5
DB25
  8
DEFPOINTS
  6
CONTINUOUS
 62
     7
 10
748.24181758028794
 20
1376.88342505948
 30
0.0
 11
732.24180758028774
 21
1376.88342505948
 31
0.0
  0
LINE
  5
DB26
  8
DEFPOINTS
  6
CONTINUOUS
 62
     7
 10
735.24180758028774
 20
1487.1954250594799
 30
0.0
 11
748.24181758028794
 21
1487.1954250594799
 31
0.0
  0
LINE
  5
DB27
  8
DEFPOINTS
  6
CONTINUOUS
 62
     7
 10
732.24180758028774
 20
1292.266925059479
 30
0.0
 11
732.24180758028774
 21
1134.42278505948
 31
0.0
  0
LINE
  5
DB28
  8
DEFPOINTS
  6
CONTINUOUS
 62
     7
 10
735.24180758028774
 20
1167.7646950594799
 30
0.0
 11
748.24181758028794
 21
1167.7646950594799
 31
0.0
  0
LINE
  5
DB29
  8
DEFPOINTS
  6
CONTINUOUS
 62
     7
 10
748.24181758028794
 20
1263.50755505948
 30
0.0
 11
732.24180758028774
 21
1263.50755505948
 31
0.0
  0
LINE
  5
DB2A
  8
DEFPOINTS
  6
CONTINUOUS
 62
     7
 10
732.24180758028774
 20
1235.1954250594799
 30
0.0
 11
748.24181758028794
 21
1235.1954250594799
 31
0.0
  0
LINE
  5
DB2B
  8
DEFPOINTS
  6
CONTINUOUS
 62
     7
 10
748.24181758028794
 20
1131.1954250594799
 30
0.0
 11
748.24181758028794
 21
1313.9454250594799
 31
0.0
  0
LINE
  5
DB2C
  8
DEFPOINTS
  6
CONTINUOUS
 62
     7
 10
735.24180758028774
 20
1153.1954250594799
 30
0.0
 11
748.24181758028794
 21
1153.1954250594799
 31
0.0
  0
LINE
  5
DB2D
  8
DEFPOINTS
  6
CONTINUOUS
 62
     7
 10
732.24180758028774
 20
1505.968025059479
 30
0.0
 11
732.24180758028774
 21
1348.123925059479
 31
0.0
  0
LINE
  5
DB2E
  8
DEFPOINTS
  6
CONTINUOUS
 62
     7
 10
636.74180758028888
 20
1229.1124750594799
 30
0.0
 11
681.74180758028774
 21
1229.1124750594799
 31
0.0
  0
LINE
  5
DB2F
  8
DEFPOINTS
  6
CONTINUOUS
 62
     7
 10
636.74180758028888
 20
1248.3630250594799
 30
0.0
 11
681.74180758028774
 21
1248.3630250594799
 31
0.0
  0
LINE
  5
DB30
  8
DEFPOINTS
  6
CONTINUOUS
 62
     7
 10
636.74180758028888
 20
1392.0278250594779
 30
0.0
 11
681.74180758028774
 21
1392.0278250594779
 31
0.0
  0
LINE
  5
DB31
  8
DEFPOINTS
  6
CONTINUOUS
 62
     7
 10
636.74180758028888
 20
1411.2784250594791
 30
0.0
 11
681.74180758028774
 21
1411.2784250594791
 31
0.0
  0
LINE
  5
DB32
  8
DEFPOINTS
  6
CONTINUOUS
 62
     7
 10
636.74180758028888
 20
1203.1954250594799
 30
0.0
 11
636.74180758028888
 21
1320.195425059479
 31
0.0
  0
LINE
  5
DB33
  8
DEFPOINTS
  6
CONTINUOUS
 62
     7
 10
637.25060758028781
 20
1204.18657505948
 30
0.0
 11
677.81160758028773
 21
1203.4785650594799
 31
0.0
  0
LINE
  5
DB34
  8
DEFPOINTS
  6
CONTINUOUS
 62
     7
 10
637.25060758028781
 20
1436.2043250594791
 30
0.0
 11
676.82910758028788
 21
1436.8951250594801
 31
0.0
  0
LINE
  5
DB35
  8
DEFPOINTS
  6
CONTINUOUS
 62
     7
 10
636.74180758028888
 20
1437.195425059479
 30
0.0
 11
636.74180758028888
 21
1320.195425059479
 31
0.0
  0
LINE
  5
DB36
  8
DEFPOINTS
  6
CONTINUOUS
 62
     7
 10
681.74180758028774
 20
1436.94952505948
 30
0.0
 11
681.74180758028774
 21
1206.0099950594799
 31
0.0
  0
LINE
  5
DB37
  8
DEFPOINTS
  6
CONTINUOUS
 62
     7
 10
929.24181758028794
 20
1282.6954250594799
 30
0.0
 11
935.24181758028794
 21
1282.6954250594799
 31
0.0
  0
LINE
  5
DB38
  8
DEFPOINTS
  6
CONTINUOUS
 62
     7
 10
929.24181758028794
 20
1357.6954250594799
 30
0.0
 11
935.24181758028794
 21
1357.6954250594799
 31
0.0
  0
LINE
  5
DB39
  8
DEFPOINTS
  6
CONTINUOUS
 62
     7
 10
935.24181758028794
 20
1355.1954250594781
 30
0.0
 11
1045.2418175802879
 21
1355.1954250594781
 31
0.0
  0
LINE
  5
DB3A
  8
DEFPOINTS
  6
CONTINUOUS
 62
     7
 10
1045.2418175802879
 20
1355.1954250594781
 30
0.0
 11
1045.2418175802879
 21
1285.1954250594799
 31
0.0
  0
LINE
  5
DB3B
  8
DEFPOINTS
  6
CONTINUOUS
 62
     7
 10
1045.2418175802879
 20
1285.1954250594799
 30
0.0
 11
935.24181758028794
 21
1285.1954250594799
 31
0.0
  0
LINE
  5
DB3C
  8
DEFPOINTS
  6
CONTINUOUS
 62
     7
 10
935.24181758028794
 20
1357.6954250594799
 30
0.0
 11
935.24181758028794
 21
1282.6954250594799
 31
0.0
  0
LINE
  5
DB3D
  8
DEFPOINTS
  6
CONTINUOUS
 62
     7
 10
775.35503758028824
 20
1325.1954250594781
 30
0.0
 11
772.46831758028793
 21
1320.195425059479
 31
0.0
  0
LINE
  5
DB3E
  8
DEFPOINTS
  6
CONTINUOUS
 62
     7
 10
772.46831758028793
 20
1320.195425059479
 30
0.0
 11
775.35503758028824
 21
1315.1954250594781
 31
0.0
  0
LINE
  5
DB3F
  8
DEFPOINTS
  6
CONTINUOUS
 62
     7
 10
775.35503758028824
 20
1315.1954250594781
 30
0.0
 11
781.12859758028799
 21
1315.1954250594781
 31
0.0
  0
LINE
  5
DB40
  8
DEFPOINTS
  6
CONTINUOUS
 62
     7
 10
781.1285375802878
 20
1315.1954250594781
 30
0.0
 11
784.01531758028773
 21
1320.195425059479
 31
0.0
  0
LINE
  5
DB41
  8
DEFPOINTS
  6
CONTINUOUS
 62
     7
 10
784.01531758028773
 20
1320.195425059479
 30
0.0
 11
781.12859758028799
 21
1325.1954250594781
 31
0.0
  0
LINE
  5
DB42
  8
DEFPOINTS
  6
CONTINUOUS
 62
     7
 10
781.12859758028799
 20
1325.1954250594781
 30
0.0
 11
775.35503758028824
 21
1325.1954250594781
 31
0.0
  0
LINE
  5
DB43
  8
DEFPOINTS
  6
AM_ISO08W050
 10
778.24181758028794
 20
1306.553225059479
 30
0.0
 11
778.24181758028794
 21
1333.37982505948
 31
0.0
  0
LINE
  5
DB44
  8
DEFPOINTS
  6
CONTINUOUS
 62
     7
 10
1045.2418175802879
 20
1330.195425059479
 30
0.0
 11
960.24181758028794
 21
1330.195425059479
 31
0.0
  0
LINE
  5
DB45
  8
DEFPOINTS
  6
CONTINUOUS
 62
     7
 10
960.24181758028794
 20
1330.195425059479
 30
0.0
 11
960.24181758028794
 21
1310.195425059479
 31
0.0
  0
LINE
  5
DB46
  8
DEFPOINTS
  6
CONTINUOUS
 62
     7
 10
960.24181758028794
 20
1310.195425059479
 30
0.0
 11
1045.2418175802879
 21
1310.195425059479
 31
0.0
  0
LINE
  5
DB47
  8
DEFPOINTS
  6
CONTINUOUS
 62
     7
 10
923.24181758028783
 20
1550.195425059479
 30
0.0
 11
923.24181758028783
 21
1090.1954250594799
 31
0.0
  0
LINE
  5
DB48
  8
DEFPOINTS
  6
CONTINUOUS
 62
     7
 10
923.24181758028783
 20
1090.1954250594799
 30
0.0
 11
903.24181758028794
 21
1090.1954250594799
 31
0.0
  0
LINE
  5
DB49
  8
DEFPOINTS
  6
CONTINUOUS
 62
     7
 10
891.24181758028794
 20
1153.5690250594801
 30
0.0
 11
898.24181758028783
 21
1153.5690250594801
 31
0.0
  0
LINE
  5
DB4A
  8
DEFPOINTS
  6
CONTINUOUS
 62
     7
 10
891.24181758028794
 20
1214.97160505948
 30
0.0
 11
898.24181758028783
 21
1214.97160505948
 31
0.0
  0
LINE
  5
DB4B
  8
DEFPOINTS
  6
CONTINUOUS
 62
     7
 10
901.24181758028794
 20
1092.73808505948
 30
0.0
 11
896.24181758028806
 21
1092.73808505948
 31
0.0
  0
LINE
  5
DB4C
  8
DEFPOINTS
  6
CONTINUOUS
 62
     7
 10
902.24181758028794
 20
1091.1954250594799
 30
0.0
 11
902.24181758028794
 21
1091.73808505948
 31
0.0
  0
LINE
  5
DB4D
  8
DEFPOINTS
  6
CONTINUOUS
 62
     7
 10
902.24181758028794
 20
1482.8217250594801
 30
0.0
 11
902.24181758028794
 21
1157.5690250594801
 31
0.0
  0
LINE
  5
DB4E
  8
DEFPOINTS
  6
CONTINUOUS
 62
     7
 10
902.24181758028794
 20
1549.1954250594799
 30
0.0
 11
902.24181758028794
 21
1548.6528250594779
 31
0.0
  0
LINE
  5
DB4F
  8
DEFPOINTS
  6
CONTINUOUS
 62
     7
 10
901.24181758028794
 20
1547.652825059479
 30
0.0
 11
896.24181758028806
 21
1547.652825059479
 31
0.0
  0
LINE
  5
DB50
  8
DEFPOINTS
  6
CONTINUOUS
 62
     7
 10
891.24181758028794
 20
1425.4193250594799
 30
0.0
 11
898.24181758028783
 21
1425.4193250594799
 31
0.0
  0
LINE
  5
DB51
  8
DEFPOINTS
  6
CONTINUOUS
 62
     7
 10
891.24181758028794
 20
1486.8217250594801
 30
0.0
 11
898.24181758028783
 21
1486.8217250594801
 31
0.0
  0
LINE
  5
DB52
  8
DEFPOINTS
  6
CONTINUOUS
 62
     7
 10
923.24181758028783
 20
1550.195425059479
 30
0.0
 11
903.24181758028794
 21
1550.195425059479
 31
0.0
  0
LINE
  5
DB53
  8
DEFPOINTS
  6
CONTINUOUS
 62
     7
 10
929.24181758028794
 20
1515.1954250594799
 30
0.0
 11
923.24181758028783
 21
1515.1954250594799
 31
0.0
  0
LINE
  5
DB54
  8
DEFPOINTS
  6
CONTINUOUS
 62
     7
 10
929.24181758028794
 20
1125.1954250594799
 30
0.0
 11
929.24181758028794
 21
1515.1954250594799
 31
0.0
  0
LINE
  5
DB55
  8
DEFPOINTS
  6
CONTINUOUS
 62
     7
 10
923.24181758028783
 20
1125.1954250594799
 30
0.0
 11
929.24181758028794
 21
1125.1954250594799
 31
0.0
  0
LINE
  5
DB56
  8
DEFPOINTS
  6
CONTINUOUS
 62
     7
 10
735.16320758028792
 20
1144.3006450594801
 30
0.0
 11
886.37267758028815
 21
1140.34111505948
 31
0.0
  0
LINE
  5
DB57
  8
DEFPOINTS
  6
CONTINUOUS
 62
     7
 10
748.24181758028794
 20
1167.7646950594799
 30
0.0
 11
866.51903758028789
 21
1164.66747505948
 31
0.0
  0
LINE
  5
DB58
  8
DEFPOINTS
  6
CONTINUOUS
 62
     7
 10
748.24181758028794
 20
1234.7178850594801
 30
0.0
 11
879.45122758028776
 21
1232.4276050594799
 31
0.0
  0
LINE
  5
DB59
  8
DEFPOINTS
  6
CONTINUOUS
 62
     7
 10
748.24181758028794
 20
1263.5074950594801
 30
0.0
 11
879.45122758028776
 21
1265.79778505948
 31
0.0
  0
LINE
  5
DB5A
  8
DEFPOINTS
  6
CONTINUOUS
 62
     7
 10
891.24181758028794
 20
1542.6528250594799
 30
0.0
 11
891.24181758028794
 21
1097.73808505948
 31
0.0
  0
LINE
  5
DB5B
  8
DEFPOINTS
  6
CONTINUOUS
 62
     7
 10
735.18950758028791
 20
1131.4232650594799
 30
0.0
 11
879.45129758028816
 21
1128.9052050594801
 31
0.0
  0
LINE
  5
DB5C
  8
DEFPOINTS
  6
CONTINUOUS
 62
     7
 10
748.24181758028794
 20
1153.1954250594799
 30
0.0
 11
883.4442775802878
 21
1150.8355050594801
 31
0.0
  0
LINE
  5
DB5D
  8
DEFPOINTS
  6
CONTINUOUS
 62
     7
 10
748.24181758028794
 20
1487.1954250594799
 30
0.0
 11
883.44433758028765
 21
1489.5553250594801
 31
0.0
  0
LINE
  5
DB5E
  8
DEFPOINTS
  6
CONTINUOUS
 62
     7
 10
735.18940758028873
 20
1508.96762505948
 30
0.0
 11
879.45122758028776
 21
1511.48572505948
 31
0.0
  0
LINE
  5
DB5F
  8
DEFPOINTS
  6
CONTINUOUS
 62
     7
 10
891.24181758028794
 20
1097.73808505948
 30
0.0
 11
891.24181758028794
 21
1542.6528250594799
 31
0.0
  0
LINE
  5
DB60
  8
DEFPOINTS
  6
CONTINUOUS
 62
     7
 10
748.24181758028794
 20
1472.62622505948
 30
0.0
 11
866.51903758028789
 21
1475.72342505948
 31
0.0
  0
LINE
  5
DB61
  8
DEFPOINTS
  6
CONTINUOUS
 62
     7
 10
735.16330758028789
 20
1496.09012505948
 30
0.0
 11
886.37267758028815
 21
1500.0496250594799
 31
0.0
  0
LINE
  5
DB62
  8
DEFPOINTS
  6
CONTINUOUS
 62
     7
 10
891.24181758028794
 20
1486.8217250594801
 30
0.0
 11
898.24181758028783
 21
1486.8217250594801
 31
0.0
  0
LINE
  5
DB63
  8
DEFPOINTS
  6
CONTINUOUS
 62
     7
 10
748.24181758028794
 20
1376.883325059478
 30
0.0
 11
879.45129758028816
 21
1374.5930250594799
 31
0.0
  0
LINE
  5
DB64
  8
DEFPOINTS
  6
CONTINUOUS
 62
     7
 10
748.24181758028794
 20
1405.6729250594799
 30
0.0
 11
879.45122758028776
 21
1407.96322505948
 31
0.0
  0
LINE
  5
DB65
  8
DEFPOINTS
  6
CONTINUOUS
 62
     7
 10
845.79638758028796
 20
1189.25664505948
 30
0.0
 11
891.24181758028794
 21
1151.46306505948
 31
0.0
  0
LINE
  5
DB66
  8
DEFPOINTS
  6
CONTINUOUS
 62
     7
 10
845.79638758028796
 20
1181.60289505948
 30
0.0
 11
891.24181758028794
 21
1144.46306505948
 31
0.0
  0
LINE
  5
DB67
  8
DEFPOINTS
  6
CONTINUOUS
 62
     7
 10
849.45592758028806
 20
1189.25664505948
 30
0.0
 11
883.50793758028783
 21
1189.25664505948
 31
0.0
  0
LINE
  5
DB68
  8
DEFPOINTS
  6
CONTINUOUS
 62
     7
 10
848.79638758028807
 20
1313.1954250594799
 30
0.0
 11
891.24181758028794
 21
1313.1954250594799
 31
0.0
  0
LINE
  5
DB69
  8
DEFPOINTS
  6
CONTINUOUS
 62
     7
 10
848.79638758028807
 20
1327.1954250594799
 30
0.0
 11
891.24181758028794
 21
1327.1954250594799
 31
0.0
  0
LINE
  5
DB6A
  8
DEFPOINTS
  6
CONTINUOUS
 62
     7
 10
849.45592758028806
 20
1451.134225059478
 30
0.0
 11
883.50793758028783
 21
1451.134225059478
 31
0.0
  0
LINE
  5
DB6B
  8
DEFPOINTS
  6
CONTINUOUS
 62
     7
 10
845.79638758028796
 20
1458.7879250594799
 30
0.0
 11
891.24181758028794
 21
1495.92782505948
 31
0.0
  0
LINE
  5
DB6C
  8
DEFPOINTS
  6
CONTINUOUS
 62
     7
 10
845.79632758028777
 20
1451.134225059478
 30
0.0
 11
891.24175758028764
 21
1488.92782505948
 31
0.0
  0
ARC
  5
DB6D
  8
DEFPOINTS
  6
CONTINUOUS
 62
     7
 10
728.24180758028774
 20
1181.1954250594799
 30
0.0
 40
4.0
 50
0.0
 51
90.00000299999769
  0
ARC
  5
DB6E
  8
DEFPOINTS
  6
CONTINUOUS
 62
     7
 10
728.24180758028774
 20
1459.195425059479
 30
0.0
 40
4.0
 50
270.0
 51
0.0
  0
ARC
  5
DB6F
  8
DEFPOINTS
  6
CONTINUOUS
 62
     7
 10
691.74180758028797
 20
1445.195425059479
 30
0.0
 40
10.0
 50
90.00000299999769
 51
180.000010000001
  0
ARC
  5
DB70
  8
DEFPOINTS
  6
CONTINUOUS
 62
     7
 10
691.74180758028797
 20
1195.1954250594799
 30
0.0
 40
10.0
 50
179.999989999999
 51
270.0
  0
ARC
  5
DB71
  8
DEFPOINTS
  6
CONTINUOUS
 62
     7
 10
735.24180758028774
 20
1469.62622505948
 30
0.0
 40
3.0
 50
90.00000299999769
 51
180.000010000001
  0
ARC
  5
DB72
  8
DEFPOINTS
  6
CONTINUOUS
 62
     7
 10
726.24180758028774
 20
1320.195425059479
 30
0.0
 40
20.0
 50
18.209957000000301
 51
161.7900400000014
  0
ARC
  5
DB73
  8
DEFPOINTS
  6
CONTINUOUS
 62
     7
 10
726.24180758028774
 20
1320.195425059479
 30
0.0
 40
15.0
 50
24.624318000003381
 51
155.37568000000249
  0
ARC
  5
DB74
  8
DEFPOINTS
  6
CONTINUOUS
 62
     7
 10
749.99181758028794
 20
1320.195425059479
 30
0.0
 40
6.25
 50
270.0
 51
90.00000299999769
  0
ARC
  5
DB75
  8
DEFPOINTS
  6
CONTINUOUS
 62
     7
 10
702.49180758028865
 20
1320.195425059479
 30
0.0
 40
6.25
 50
90.00000299999769
 51
270.0
  0
ARC
  5
DB76
  8
DEFPOINTS
  6
CONTINUOUS
 62
     7
 10
726.24180758028774
 20
1320.195425059479
 30
0.0
 40
15.0
 50
204.6243199999974
 51
335.37568000000249
  0
ARC
  5
DB77
  8
DEFPOINTS
  6
CONTINUOUS
 62
     7
 10
726.24180758028774
 20
1320.195425059479
 30
0.0
 40
20.0
 50
198.2099599999986
 51
341.7900400000014
  0
ARC
  5
DB78
  8
DEFPOINTS
  6
CONTINUOUS
 62
     7
 10
724.24180758028774
 20
1292.266925059479
 30
0.0
 40
8.0
 50
0.0
 51
85.903958999993151
  0
ARC
  5
DB79
  8
DEFPOINTS
  6
CONTINUOUS
 62
     7
 10
724.24180758028774
 20
1348.123925059479
 30
0.0
 40
8.0
 50
274.09603999999803
 51
0.0
  0
ARC
  5
DB7A
  8
DEFPOINTS
  6
CONTINUOUS
 62
     7
 10
735.24180758028774
 20
1484.1954250594799
 30
0.0
 40
3.0
 50
90.00000299999769
 51
180.000010000001
  0
ARC
  5
DB7B
  8
DEFPOINTS
  6
CONTINUOUS
 62
     7
 10
735.24180758028774
 20
1170.764695059479
 30
0.0
 40
3.0
 50
179.999989999999
 51
270.0
  0
ARC
  5
DB7C
  8
DEFPOINTS
  6
CONTINUOUS
 62
     7
 10
735.24180758028774
 20
1156.1954250594799
 30
0.0
 40
3.0
 50
179.999989999999
 51
270.0
  0
ARC
  5
DB7D
  8
DEFPOINTS
  6
CONTINUOUS
 62
     7
 10
634.74180758028865
 20
1222.46825505948
 30
0.0
 40
2.0
 50
270.0
 51
0.0
  0
ARC
  5
DB7E
  8
DEFPOINTS
  6
CONTINUOUS
 62
     7
 10
634.74180758028865
 20
1238.0245850594799
 30
0.0
 40
2.0
 50
270.0
 51
0.0
  0
ARC
  5
DB7F
  8
DEFPOINTS
  6
CONTINUOUS
 62
     7
 10
634.74180758028865
 20
1402.36632505948
 30
0.0
 40
2.0
 50
0.0
 51
90.00000299999769
  0
ARC
  5
DB80
  8
DEFPOINTS
  6
CONTINUOUS
 62
     7
 10
634.74180758028865
 20
1417.9227250594799
 30
0.0
 40
2.0
 50
0.0
 51
90.00000299999769
  0
ARC
  5
DB81
  8
DEFPOINTS
  6
CONTINUOUS
 62
     7
 10
635.74180758028774
 20
1203.1954250594799
 30
0.0
 40
1.0
 50
270.0
 51
0.0
  0
ARC
  5
DB82
  8
DEFPOINTS
  6
CONTINUOUS
 62
     7
 10
637.24180758028876
 20
1203.6866350594801
 30
0.0
 40
0.5
 50
89.000001000002214
 51
180.000010000001
  0
ARC
  5
DB83
  8
DEFPOINTS
  6
CONTINUOUS
 62
     7
 10
637.24180758028876
 20
1436.70422505948
 30
0.0
 40
0.5
 50
179.999989999999
 51
271.00000000000182
  0
ARC
  5
DB84
  8
DEFPOINTS
  6
CONTINUOUS
 62
     7
 10
635.74180758028774
 20
1437.195425059479
 30
0.0
 40
1.0
 50
0.0
 51
90.00000299999769
  0
ARC
  5
DB85
  8
DEFPOINTS
  6
CONTINUOUS
 62
     7
 10
676.74180758028865
 20
1441.8944250594791
 30
0.0
 40
5.0
 50
271.00000000000182
 51
0.0
  0
ARC
  5
DB86
  8
DEFPOINTS
  6
CONTINUOUS
 62
     7
 10
677.74180758028774
 20
1199.47917505948
 30
0.0
 40
4.0
 50
0.0
 51
89.000001000002214
  0
CIRCLE
  5
DB87
  8
DEFPOINTS
  6
CONTINUOUS
 62
     7
 10
778.24181758028794
 20
1320.195425059479
 30
0.0
 40
10.0
  0
ARC
  5
DB88
  8
DEFPOINTS
  6
CONTINUOUS
 62
     7
 10
960.24181758028794
 20
1320.195425059479
 30
0.0
 40
10.0
 50
90.00000299999769
 51
270.0
  0
ARC
  5
DB89
  8
DEFPOINTS
  6
CONTINUOUS
 62
     7
 10
901.24181758028794
 20
1091.73808505948
 30
0.0
 40
1.0
 50
0.0
 51
90.00000299999769
  0
ARC
  5
DB8A
  8
DEFPOINTS
  6
CONTINUOUS
 62
     7
 10
903.24181758028794
 20
1091.1954250594799
 30
0.0
 40
1.0
 50
179.999989999999
 51
270.0
  0
ARC
  5
DB8B
  8
DEFPOINTS
  6
CONTINUOUS
 62
     7
 10
896.24181758028806
 20
1097.73808505948
 30
0.0
 40
5.0
 50
179.999989999999
 51
270.0
  0
ARC
  5
DB8C
  8
DEFPOINTS
  6
CONTINUOUS
 62
     7
 10
898.24181758028783
 20
1157.5690250594801
 30
0.0
 40
4.0
 50
270.0
 51
0.0
  0
ARC
  5
DB8D
  8
DEFPOINTS
  6
CONTINUOUS
 62
     7
 10
898.24181758028783
 20
1482.8217250594801
 30
0.0
 40
4.0
 50
0.0
 51
90.00000299999769
  0
ARC
  5
DB8E
  8
DEFPOINTS
  6
CONTINUOUS
 62
     7
 10
896.24181758028806
 20
1542.6528250594799
 30
0.0
 40
5.0
 50
90.00000299999769
 51
180.000010000001
  0
ARC
  5
DB8F
  8
DEFPOINTS
  6
CONTINUOUS
 62
     7
 10
903.24181758028794
 20
1549.1954250594799
 30
0.0
 40
1.0
 50
90.00000299999769
 51
180.000010000001
  0
ARC
  5
DB90
  8
DEFPOINTS
  6
CONTINUOUS
 62
     7
 10
901.24181758028794
 20
1548.6528250594779
 30
0.0
 40
1.0
 50
270.0
 51
0.0
  0
ARC
  5
DB91
  8
DEFPOINTS
  6
CONTINUOUS
 62
     7
 10
879.24181758028806
 20
1220.4294350594801
 30
0.0
 40
12.0
 50
0.0
 51
89.000001000002214
  0
ARC
  5
DB92
  8
DEFPOINTS
  6
CONTINUOUS
 62
     7
 10
879.24181758028806
 20
1277.7959250594799
 30
0.0
 40
12.0
 50
271.00000000000182
 51
0.0
  0
ARC
  5
DB93
  8
DEFPOINTS
  6
CONTINUOUS
 62
     7
 10
879.24181758028806
 20
1116.9069750594799
 30
0.0
 40
12.0
 50
0.0
 51
89.000001000002214
  0
ARC
  5
DB94
  8
DEFPOINTS
  6
CONTINUOUS
 62
     7
 10
886.24181758028806
 20
1135.3428250594791
 30
0.0
 40
5.0
 50
0.0
 51
88.499997000000647
  0
ARC
  5
DB95
  8
DEFPOINTS
  6
CONTINUOUS
 62
     7
 10
886.24181758028806
 20
1505.0479250594799
 30
0.0
 40
5.0
 50
271.50000000000279
 51
0.0
  0
ARC
  5
DB96
  8
DEFPOINTS
  6
CONTINUOUS
 62
     7
 10
879.24181758028806
 20
1523.48392505948
 30
0.0
 40
12.0
 50
271.00000000000182
 51
0.0
  0
ARC
  5
DB97
  8
DEFPOINTS
  6
CONTINUOUS
 62
     7
 10
896.24181758028806
 20
1542.6528250594799
 30
0.0
 40
5.0
 50
90.00000299999769
 51
180.000010000001
  0
ARC
  5
DB98
  8
DEFPOINTS
  6
CONTINUOUS
 62
     7
 10
879.24181758028806
 20
1362.5948250594799
 30
0.0
 40
12.0
 50
0.0
 51
89.000001000002214
  0
ARC
  5
DB99
  8
DEFPOINTS
  6
CONTINUOUS
 62
     7
 10
879.24181758028806
 20
1419.9614250594791
 30
0.0
 40
12.0
 50
271.00000000000182
 51
0.0
  0
ARC
  5
DB9A
  8
DEFPOINTS
  6
CONTINUOUS
 62
     7
 10
886.24181758028806
 20
1184.25664505948
 30
0.0
 40
5.0
 50
0.0
 51
90.00000299999769
  0
ARC
  5
DB9B
  8
DEFPOINTS
  6
CONTINUOUS
 62
     7
 10
848.79638758028807
 20
1310.195425059479
 30
0.0
 40
3.0
 50
90.00000299999769
 51
180.000010000001
  0
ARC
  5
DB9C
  8
DEFPOINTS
  6
CONTINUOUS
 62
     7
 10
848.79638758028807
 20
1330.195425059479
 30
0.0
 40
3.0
 50
179.999989999999
 51
270.0
  0
ARC
  5
DB9D
  8
DEFPOINTS
  6
CONTINUOUS
 62
     7
 10
886.24181758028806
 20
1456.1342250594801
 30
0.0
 40
5.0
 50
270.0
 51
0.0
  0
ARC
  5
DB9E
  8
DEFPOINTS
  6
CONTINUOUS
 62
     7
 10
735.24180758028774
 20
1493.0912250594799
 30
0.0
 40
3.0
 50
91.500001000001546
 51
180.000010000001
  0
ARC
  5
DB9F
  8
DEFPOINTS
  6
CONTINUOUS
 62
     7
 10
735.24180758028774
 20
1505.968025059479
 30
0.0
 40
3.0
 50
90.999997000003077
 51
180.000010000001
  0
ARC
  5
DBA0
  8
DEFPOINTS
  6
CONTINUOUS
 62
     7
 10
735.24180758028774
 20
1147.29967505948
 30
0.0
 40
3.0
 50
179.999989999999
 51
268.50000999999878
  0
ARC
  5
DBA1
  8
DEFPOINTS
  6
CONTINUOUS
 62
     7
 10
735.24180758028774
 20
1134.42278505948
 30
0.0
 40
3.0
 50
179.999989999999
 51
269.00000999999793
  0
LINE
  5
DC27
  8
DEFPOINTS
  6
CONTINUOUS
 62
     7
 10
712.46786758028793
 20
937.02454573154023
 30
0.0
 11
711.24186758028895
 21
929.28388573153995
 31
0.0
  0
LINE
  5
DC28
  8
DEFPOINTS
  6
CONTINUOUS
 62
     7
 10
741.24186758028793
 20
929.28388573153995
 30
0.0
 11
740.01586758028793
 21
937.02448573154015
 31
0.0
  0
LINE
  5
DC29
  8
DEFPOINTS
  6
CONTINUOUS
 62
     7
 10
736.22066758028905
 20
940.65485573154012
 30
0.0
 11
726.24186758028793
 21
941.78388573153995
 31
0.0
  0
LINE
  5
DC2A
  8
DEFPOINTS
  6
CONTINUOUS
 62
     7
 10
726.24186758028793
 20
941.78388573153995
 30
0.0
 11
716.26316758028793
 21
940.65491573153975
 31
0.0
  0
LINE
  5
DC2B
  8
DEFPOINTS
  6
CONTINUOUS
 62
     7
 10
737.33086758028799
 20
940.28388573154029
 30
0.0
 11
715.15286758028799
 21
940.28388573154029
 31
0.0
  0
LINE
  5
DC2C
  8
DEFPOINTS
  6
CONTINUOUS
 62
     7
 10
1045.2418175802879
 20
817.78388573153995
 30
0.0
 11
1045.2418175802879
 21
813.28388573153995
 31
0.0
  0
LINE
  5
DC2D
  8
DEFPOINTS
  6
CONTINUOUS
 62
     7
 10
960.24181758028794
 20
817.78388573153995
 30
0.0
 11
1045.2418175802879
 21
817.78388573153995
 31
0.0
  0
LINE
  5
DC2E
  8
DEFPOINTS
  6
CONTINUOUS
 62
     7
 10
960.24181758028794
 20
813.28388573153995
 30
0.0
 11
960.24181758028794
 21
817.78388573153995
 31
0.0
  0
LINE
  5
DC2F
  8
DEFPOINTS
  6
CONTINUOUS
 62
     7
 10
1045.2418175802879
 20
743.28388573154007
 30
0.0
 11
935.24181758028794
 21
743.28388573154007
 31
0.0
  0
LINE
  5
DC30
  8
DEFPOINTS
  6
CONTINUOUS
 62
     7
 10
1045.2418175802879
 20
813.28388573153995
 30
0.0
 11
1045.2418175802879
 21
743.28388573154007
 31
0.0
  0
LINE
  5
DC31
  8
DEFPOINTS
  6
CONTINUOUS
 62
     7
 10
935.24181758028794
 20
813.28388573153995
 30
0.0
 11
1045.2418175802879
 21
813.28388573153995
 31
0.0
  0
LINE
  5
DC32
  8
DEFPOINTS
  6
CONTINUOUS
 62
     7
 10
681.74186758028804
 20
832.43805573153975
 30
0.0
 11
681.74186758028804
 21
601.49838573154
 31
0.0
  0
LINE
  5
DC33
  8
DEFPOINTS
  6
CONTINUOUS
 62
     7
 10
706.24186758028793
 20
929.28388573153995
 30
0.0
 11
706.24186758028793
 21
884.62424573153976
 31
0.0
  0
LINE
  5
DC34
  8
DEFPOINTS
  6
CONTINUOUS
 62
     7
 10
681.74186758028804
 20
594.96761573154004
 30
0.0
 11
681.74186758028804
 21
578.93810573153996
 31
0.0
  0
LINE
  5
DC35
  8
DEFPOINTS
  6
CONTINUOUS
 62
     7
 10
681.74186758028804
 20
858.44776573154002
 30
0.0
 11
681.74186758028804
 21
837.3828457315401
 31
0.0
  0
LINE
  5
DC36
  8
DEFPOINTS
  6
CONTINUOUS
 62
     7
 10
730.72556758028793
 20
902.08270573154005
 30
0.0
 11
685.53286758028798
 21
866.28659573154005
 31
0.0
  0
LINE
  5
DC37
  8
DEFPOINTS
  6
CONTINUOUS
 62
     7
 10
732.24186758028793
 20
925.28388573154007
 30
0.0
 11
732.24186758028793
 21
511.32143573153979
 31
0.0
  0
LINE
  5
DC38
  8
DEFPOINTS
  6
CONTINUOUS
 62
     7
 10
636.74186758028873
 20
832.68387573153996
 30
0.0
 11
636.74186758028873
 21
715.68387573154007
 31
0.0
  0
LINE
  5
DC39
  8
DEFPOINTS
  6
CONTINUOUS
 62
     7
 10
637.25066758028777
 20
831.69275573154005
 30
0.0
 11
676.82906758028776
 21
832.38358573153994
 31
0.0
  0
LINE
  5
DC3A
  8
DEFPOINTS
  6
CONTINUOUS
 62
     7
 10
637.25066758028777
 20
599.67500573153995
 30
0.0
 11
677.81166758028803
 21
598.96701573153996
 31
0.0
  0
LINE
  5
DC3B
  8
DEFPOINTS
  6
CONTINUOUS
 62
     7
 10
636.74186758028873
 20
598.68387573153973
 30
0.0
 11
636.74186758028873
 21
715.68387573154007
 31
0.0
  0
LINE
  5
DC3C
  8
DEFPOINTS
  6
CONTINUOUS
 62
     7
 10
636.74186758028873
 20
806.76682573154005
 30
0.0
 11
681.74186758028804
 21
806.76682573154005
 31
0.0
  0
LINE
  5
DC3D
  8
DEFPOINTS
  6
CONTINUOUS
 62
     7
 10
636.74186758028873
 20
787.51627573153974
 30
0.0
 11
681.74186758028804
 21
787.51627573153974
 31
0.0
  0
LINE
  5
DC3E
  8
DEFPOINTS
  6
CONTINUOUS
 62
     7
 10
636.74186758028873
 20
643.85147573153972
 30
0.0
 11
681.74186758028804
 21
643.85147573153972
 31
0.0
  0
LINE
  5
DC3F
  8
DEFPOINTS
  6
CONTINUOUS
 62
     7
 10
636.74186758028873
 20
624.60092573153997
 30
0.0
 11
681.74186758028804
 21
624.60092573153997
 31
0.0
  0
LINE
  5
DC40
  8
DEFPOINTS
  6
CONTINUOUS
 62
     7
 10
748.24187758028768
 20
929.28388573153995
 30
0.0
 11
748.24187758028768
 21
509.32143573154002
 31
0.0
  0
LINE
  5
DC41
  8
DEFPOINTS
  6
CONTINUOUS
 62
     7
 10
748.24187758028768
 20
929.28388573153995
 30
0.0
 11
706.24186758028793
 21
929.28388573153995
 31
0.0
  0
LINE
  5
DC42
  8
DEFPOINTS
  6
CONTINUOUS
 62
     7
 10
748.24187758028768
 20
899.56976573154009
 30
0.0
 11
732.24186758028793
 21
899.56976573154009
 31
0.0
  0
LINE
  5
DC43
  8
DEFPOINTS
  6
CONTINUOUS
 62
     7
 10
732.24186758028793
 20
923.28388573153995
 30
0.0
 11
748.24187758028768
 21
923.28388573153995
 31
0.0
  0
LINE
  5
DC44
  8
DEFPOINTS
  6
CONTINUOUS
 62
     7
 10
748.24187758028768
 20
819.97058573154004
 30
0.0
 11
732.24186758028793
 21
819.97058573154004
 31
0.0
  0
LINE
  5
DC45
  8
DEFPOINTS
  6
CONTINUOUS
 62
     7
 10
748.24187758028768
 20
787.37814573154003
 30
0.0
 11
732.24186758028793
 21
787.37814573154003
 31
0.0
  0
LINE
  5
DC46
  8
DEFPOINTS
  6
CONTINUOUS
 62
     7
 10
732.24186758028793
 20
662.28385573154014
 30
0.0
 11
748.24187758028768
 21
662.28385573154014
 31
0.0
  0
LINE
  5
DC47
  8
DEFPOINTS
  6
CONTINUOUS
 62
     7
 10
732.24186758028793
 20
628.28388573153995
 30
0.0
 11
748.24187758028768
 21
628.28388573153995
 31
0.0
  0
LINE
  5
DC48
  8
DEFPOINTS
  6
CONTINUOUS
 62
     7
 10
730.30386758028794
 20
544.06978573154004
 30
0.0
 11
686.58686758028807
 21
570.36920573153998
 31
0.0
  0
LINE
  5
DC4A
  8
DEFPOINTS
  6
CONTINUOUS
 62
     7
 10
748.24187758028768
 20
929.28388573153995
 30
0.0
 11
879.55596758028787
 21
932.72247573154004
 31
0.0
  0
LINE
  5
DC4B
  8
DEFPOINTS
  6
CONTINUOUS
 62
     7
 10
923.24187758028825
 20
1008.28388573154
 30
0.0
 11
923.24187758028825
 21
548.28388573153984
 31
0.0
  0
LINE
  5
DC4C
  8
DEFPOINTS
  6
CONTINUOUS
 62
     7
 10
903.24187758028791
 20
1008.28388573154
 30
0.0
 11
923.24187758028825
 21
1008.28388573154
 31
0.0
  0
LINE
  5
DC4D
  8
DEFPOINTS
  6
CONTINUOUS
 62
     7
 10
923.24187758028825
 20
583.28388573153973
 30
0.0
 11
929.24187758028791
 21
583.28388573153973
 31
0.0
  0
LINE
  5
DC4E
  8
DEFPOINTS
  6
CONTINUOUS
 62
     7
 10
929.24187758028791
 20
583.28388573153973
 30
0.0
 11
929.24187758028791
 21
973.28388573154029
 31
0.0
  0
LINE
  5
DC4F
  8
DEFPOINTS
  6
CONTINUOUS
 62
     7
 10
923.24187758028825
 20
973.28388573154029
 30
0.0
 11
929.24187758028791
 21
973.28388573154029
 31
0.0
  0
LINE
  5
DC50
  8
DEFPOINTS
  6
CONTINUOUS
 62
     7
 10
889.38549758028807
 20
547.21210573153985
 30
0.0
 11
861.56737758028783
 21
531.15131573153985
 31
0.0
  0
LINE
  5
DC51
  8
DEFPOINTS
  6
CONTINUOUS
 62
     7
 10
902.24187758028791
 20
550.10837573153981
 30
0.0
 11
902.24187758028791
 21
549.28386573154012
 31
0.0
  0
LINE
  5
DC52
  8
DEFPOINTS
  6
CONTINUOUS
 62
     7
 10
891.24181758028794
 20
883.50769573154014
 30
0.0
 11
899.24187758028825
 21
883.50769573154014
 31
0.0
  0
LINE
  5
DC53
  8
DEFPOINTS
  6
CONTINUOUS
 62
     7
 10
902.24187758028791
 20
941.91022573154009
 30
0.0
 11
902.24187758028791
 21
617.78118573154006
 31
0.0
  0
LINE
  5
DC54
  8
DEFPOINTS
  6
CONTINUOUS
 62
     7
 10
902.24187758028791
 20
550.58855573154005
 30
0.0
 11
902.24187758028791
 21
550.28386573154
 31
0.0
  0
LINE
  5
DC55
  8
DEFPOINTS
  6
CONTINUOUS
 62
     7
 10
894.24187758028813
 20
614.78116573154011
 30
0.0
 11
899.24187758028825
 21
614.78116573154011
 31
0.0
  0
LINE
  5
DC56
  8
DEFPOINTS
  6
CONTINUOUS
 62
     7
 10
891.24181758028794
 20
554.10837573154004
 30
0.0
 11
891.24181758028794
 21
1002.74121573154
 31
0.0
  0
LINE
  5
DC57
  8
DEFPOINTS
  6
CONTINUOUS
 62
     7
 10
856.88396758028784
 20
937.62323573154003
 30
0.0
 11
888.31286758028807
 21
969.05213573153981
 31
0.0
  0
LINE
  5
DC58
  8
DEFPOINTS
  6
CONTINUOUS
 62
     7
 10
852.44231758028798
 20
850.95099573153993
 30
0.0
 11
888.84911758028795
 21
873.19968573154006
 31
0.0
  0
LINE
  5
DC59
  8
DEFPOINTS
  6
CONTINUOUS
 62
     7
 10
852.45293758028765
 20
862.71582573153978
 30
0.0
 11
888.87829758028818
 21
885.31949573153997
 31
0.0
  0
LINE
  5
DC5A
  8
DEFPOINTS
  6
CONTINUOUS
 62
     7
 10
855.37853758028814
 20
850.21738573153993
 30
0.0
 11
886.24181758028772
 21
850.21738573153993
 31
0.0
  0
LINE
  5
DC5B
  8
DEFPOINTS
  6
CONTINUOUS
 62
     7
 10
893.38543758028777
 20
548.28388573153984
 30
0.0
 11
923.24187758028825
 21
548.28388573153984
 31
0.0
  0
LINE
  5
DC5C
  8
DEFPOINTS
  6
CONTINUOUS
 62
     7
 10
734.24186758028793
 20
509.32143573154002
 30
0.0
 11
748.24187758028768
 21
509.32143573154002
 31
0.0
  0
LINE
  5
DC5D
  8
DEFPOINTS
  6
CONTINUOUS
 62
     7
 10
748.24187758028768
 20
923.28388573153995
 30
0.0
 11
879.55602758028817
 21
926.72241573153997
 31
0.0
  0
LINE
  5
DC5E
  8
DEFPOINTS
  6
CONTINUOUS
 62
     7
 10
748.24181758028794
 20
899.56976573154009
 30
0.0
 11
881.41637758028799
 21
897.24518573154023
 31
0.0
  0
LINE
  5
DC5F
  8
DEFPOINTS
  6
CONTINUOUS
 62
     7
 10
748.24187758028768
 20
819.97055573154
 30
0.0
 11
881.50365758028829
 21
823.46015573153966
 31
0.0
  0
LINE
  5
DC60
  8
DEFPOINTS
  6
CONTINUOUS
 62
     7
 10
748.24187758028768
 20
787.37814573154003
 30
0.0
 11
881.50359758028821
 21
783.88858573153993
 31
0.0
  0
LINE
  5
DC61
  8
DEFPOINTS
  6
CONTINUOUS
 62
     7
 10
748.24187758028768
 20
662.28388573153995
 30
0.0
 11
881.50365758028829
 21
665.77344573153971
 31
0.0
  0
LINE
  5
DC62
  8
DEFPOINTS
  6
CONTINUOUS
 62
     7
 10
748.24187758028768
 20
628.28388573153995
 30
0.0
 11
881.50365758028829
 21
624.79430573154002
 31
0.0
  0
LINE
  5
DC63
  8
DEFPOINTS
  6
CONTINUOUS
 62
     7
 10
841.32836758028805
 20
518.84632573153976
 30
0.0
 11
732.24186758028793
 21
521.70284573154004
 31
0.0
  0
LINE
  5
DC64
  8
DEFPOINTS
  6
CONTINUOUS
 62
     7
 10
935.24181758028794
 20
740.78388573153995
 30
0.0
 11
935.24181758028794
 21
815.78388573153995
 31
0.0
  0
LINE
  5
DC65
  8
DEFPOINTS
  6
CONTINUOUS
 62
     7
 10
929.24187758028791
 20
815.78388573153995
 30
0.0
 11
935.24181758028794
 21
815.78388573153995
 31
0.0
  0
LINE
  5
DC66
  8
DEFPOINTS
  6
CONTINUOUS
 62
     7
 10
929.24187758028791
 20
740.78388573153995
 30
0.0
 11
935.24181758028794
 21
740.78388573153995
 31
0.0
  0
LINE
  5
DC67
  8
DEFPOINTS
  6
CONTINUOUS
 62
     7
 10
894.24187758028813
 20
1005.74121573154
 30
0.0
 11
901.24181758028794
 21
1005.74121573154
 31
0.0
  0
LINE
  5
DC68
  8
DEFPOINTS
  6
CONTINUOUS
 62
     7
 10
894.24187758028813
 20
944.91022573153998
 30
0.0
 11
899.24187758028825
 21
944.91022573153998
 31
0.0
  0
LINE
  5
DC69
  8
DEFPOINTS
  6
CONTINUOUS
 62
     7
 10
894.24187758028813
 20
551.10837573154004
 30
0.0
 11
901.24181758028794
 21
551.10837573154004
 31
0.0
  0
LINE
  5
DC6A
  8
DEFPOINTS
  6
CONTINUOUS
 62
     7
 10
902.24187758028791
 20
1006.74121573154
 30
0.0
 11
902.24187758028791
 21
1007.28388573154
 31
0.0
  0
LINE
  5
DC6B
  8
DEFPOINTS
  6
CONTINUOUS
 62
     7
 10
891.24181758028794
 20
643.00018573153977
 30
0.0
 11
899.24187758028825
 21
643.00018573153977
 31
0.0
  0
LINE
  5
DC6C
  8
DEFPOINTS
  6
CONTINUOUS
 62
     7
 10
841.32842758028812
 20
506.88387573154012
 30
0.0
 11
841.32842758028812
 21
518.84632573153976
 31
0.0
  0
LINE
  5
DC6D
  8
DEFPOINTS
  6
CONTINUOUS
 62
     7
 10
732.24186758028793
 20
546.44159573154002
 30
0.0
 11
865.32836758028805
 21
542.95659573154012
 31
0.0
  0
LINE
  5
DC6E
  8
DEFPOINTS
  6
CONTINUOUS
 62
     7
 10
841.32842758028812
 20
521.7465457315401
 30
0.0
 11
841.32842758028812
 21
539.31355573153996
 31
0.0
  0
LINE
  5
DC6F
  8
DEFPOINTS
  6
CONTINUOUS
 62
     7
 10
748.24187758028768
 20
509.32143573154002
 30
0.0
 11
841.32836758028805
 21
506.88388573154009
 31
0.0
  0
ARC
  5
DC70
  8
DEFPOINTS
  6
CONTINUOUS
 62
     7
 10
735.21786758028793
 20
935.80750573154012
 30
0.0
 40
4.9499997999999961
 50
14.232567999999221
 51
78.312367000002808
  0
ARC
  5
DC71
  8
DEFPOINTS
  6
CONTINUOUS
 62
     7
 10
717.26596758028768
 20
935.80750573154012
 30
0.0
 40
4.9499997999999961
 50
101.68762999999259
 51
165.76742999999979
  0
ARC
  5
DC72
  8
DEFPOINTS
  6
CONTINUOUS
 62
     7
 10
726.24186758028793
 20
959.28388573154007
 30
0.0
 40
30.0
 50
304.59870999999788
 51
235.40129000000209
  0
CIRCLE
  5
DC73
  8
DEFPOINTS
  6
CONTINUOUS
 62
     7
 10
726.24186758028793
 20
959.28388573154007
 30
0.0
 40
17.5
  0
ARC
  5
DC74
  8
DEFPOINTS
  6
CONTINUOUS
 62
     7
 10
706.36796758028788
 20
930.47363573153996
 30
0.0
 40
5.0
 50
351.00000000000227
 51
55.401290000002128
  0
ARC
  5
DC75
  8
DEFPOINTS
  6
CONTINUOUS
 62
     7
 10
746.11571758028811
 20
930.47363573153996
 30
0.0
 40
5.0
 50
124.59872000000399
 51
188.9999999999977
  0
ARC
  5
DC76
  8
DEFPOINTS
  6
CONTINUOUS
 62
     7
 10
702.24186758028986
 20
884.62424573153976
 30
0.0
 40
4.0
 50
308.3820099999968
 51
0.0
  0
ARC
  5
DC77
  8
DEFPOINTS
  6
CONTINUOUS
 62
     7
 10
677.74186758028804
 20
594.96761573154004
 30
0.0
 40
4.0
 50
0.0
 51
89.000001000002115
  0
ARC
  5
DC78
  8
DEFPOINTS
  6
CONTINUOUS
 62
     7
 10
728.24186758028793
 20
905.21832573153995
 30
0.0
 40
4.0
 50
308.3820099999968
 51
0.0
  0
ARC
  5
DC79
  8
DEFPOINTS
  6
CONTINUOUS
 62
     7
 10
736.24186758028793
 20
925.28388573154007
 30
0.0
 40
4.0
 50
90.00000299999769
 51
180.000010000001
  0
ARC
  5
DC7A
  8
DEFPOINTS
  6
CONTINUOUS
 62
     7
 10
676.74186758028873
 20
837.3828457315401
 30
0.0
 40
5.0
 50
271.00000000000182
 51
0.0
  0
ARC
  5
DC7B
  8
DEFPOINTS
  6
CONTINUOUS
 62
     7
 10
691.74186758028793
 20
858.44776573154002
 30
0.0
 40
10.0
 50
128.38200999999691
 51
180.000010000001
  0
ARC
  5
DC7C
  8
DEFPOINTS
  6
CONTINUOUS
 62
     7
 10
635.74186758028804
 20
832.68387573153996
 30
0.0
 40
1.0
 50
0.0
 51
90.00000299999769
  0
ARC
  5
DC7D
  8
DEFPOINTS
  6
CONTINUOUS
 62
     7
 10
637.24186758028873
 20
832.19269573154008
 30
0.0
 40
0.5
 50
179.999989999999
 51
271.00000000000182
  0
ARC
  5
DC7E
  8
DEFPOINTS
  6
CONTINUOUS
 62
     7
 10
637.24186758028873
 20
599.17507573153989
 30
0.0
 40
0.5
 50
89.000001000002115
 51
180.000010000001
  0
ARC
  5
DC7F
  8
DEFPOINTS
  6
CONTINUOUS
 62
     7
 10
635.74186758028804
 20
598.68387573153973
 30
0.0
 40
1.0
 50
270.0
 51
0.0
  0
ARC
  5
DC80
  8
DEFPOINTS
  6
CONTINUOUS
 62
     7
 10
634.74186758028873
 20
813.41110573153992
 30
0.0
 40
2.0
 50
0.0
 51
90.00000299999769
  0
ARC
  5
DC81
  8
DEFPOINTS
  6
CONTINUOUS
 62
     7
 10
634.74186758028873
 20
797.85471573153973
 30
0.0
 40
2.0
 50
0.0
 51
90.00000299999769
  0
ARC
  5
DC82
  8
DEFPOINTS
  6
CONTINUOUS
 62
     7
 10
634.74186758028873
 20
633.51300573154003
 30
0.0
 40
2.0
 50
270.0
 51
0.0
  0
ARC
  5
DC83
  8
DEFPOINTS
  6
CONTINUOUS
 62
     7
 10
634.74186758028873
 20
617.9566557315402
 30
0.0
 40
2.0
 50
270.0
 51
0.0
  0
ARC
  5
DC84
  8
DEFPOINTS
  6
CONTINUOUS
 62
     7
 10
691.74186758028793
 20
578.93810573153996
 30
0.0
 40
10.0
 50
179.999989999999
 51
238.96954999999619
  0
ARC
  5
DC85
  8
DEFPOINTS
  6
CONTINUOUS
 62
     7
 10
728.24186758028793
 20
540.64218573154005
 30
0.0
 40
4.0
 50
0.0
 51
58.969551999996732
  0
ARC
  5
DC86
  8
DEFPOINTS
  6
CONTINUOUS
 62
     7
 10
899.24187758028825
 20
880.50769573153991
 30
0.0
 40
3.0
 50
0.0
 51
90.00000299999769
  0
ARC
  5
DC87
  8
DEFPOINTS
  6
CONTINUOUS
 62
     7
 10
899.24187758028825
 20
617.78118573154006
 30
0.0
 40
3.0
 50
270.0
 51
0.0
  0
ARC
  5
DC88
  8
DEFPOINTS
  6
CONTINUOUS
 62
     7
 10
894.24187758028813
 20
611.78118573153995
 30
0.0
 40
3.0
 50
90.00000299999769
 51
180.000010000001
  0
ARC
  5
DC89
  8
DEFPOINTS
  6
CONTINUOUS
 62
     7
 10
842.74181758028794
 20
951.76526573154024
 30
0.0
 40
20.0
 50
271.50000000000267
 51
314.9999999999954
  0
ARC
  5
DC8A
  8
DEFPOINTS
  6
CONTINUOUS
 62
     7
 10
881.24181758028794
 20
976.12317573153996
 30
0.0
 40
10.0
 50
314.9999999999954
 51
0.0
  0
ARC
  5
DC8B
  8
DEFPOINTS
  6
CONTINUOUS
 62
     7
 10
849.81658758028766
 20
866.96433573154013
 30
0.0
 40
5.0
 50
270.0
 51
301.82161000000019
  0
ARC
  5
DC8C
  8
DEFPOINTS
  6
CONTINUOUS
 62
     7
 10
849.83501758028797
 20
855.21738573153982
 30
0.0
 40
5.0
 50
270.0
 51
301.4296299999998
  0
ARC
  5
DC8D
  8
DEFPOINTS
  6
CONTINUOUS
 62
     7
 10
886.24181758028772
 20
889.5679957315399
 30
0.0
 40
5.0
 50
301.82161000000019
 51
0.0
  0
ARC
  5
DC8E
  8
DEFPOINTS
  6
CONTINUOUS
 62
     7
 10
886.24181758028772
 20
877.4660757315396
 30
0.0
 40
5.0
 50
301.4296299999998
 51
0.0
  0
ARC
  5
DC8F
  8
DEFPOINTS
  6
CONTINUOUS
 62
     7
 10
886.24181758028772
 20
855.21738573153982
 30
0.0
 40
5.0
 50
270.0
 51
337.66197000000301
  0
ARC
  5
DC90
  8
DEFPOINTS
  6
CONTINUOUS
 62
     7
 10
881.24181758028794
 20
675.77002573154004
 30
0.0
 40
10.0
 50
271.50000000000267
 51
0.0
  0
ARC
  5
DC91
  8
DEFPOINTS
  6
CONTINUOUS
 62
     7
 10
881.24181758028794
 20
614.79772573154003
 30
0.0
 40
10.0
 50
0.0
 51
88.499997000000647
  0
ARC
  5
DC92
  8
DEFPOINTS
  6
CONTINUOUS
 62
     7
 10
881.24181758028794
 20
833.45673573154011
 30
0.0
 40
10.0
 50
271.50000000000267
 51
0.0
  0
ARC
  5
DC93
  8
DEFPOINTS
  6
CONTINUOUS
 62
     7
 10
881.24181758028794
 20
773.89203573153975
 30
0.0
 40
10.0
 50
0.0
 51
88.499997000000647
  0
ARC
  5
DC94
  8
DEFPOINTS
  6
CONTINUOUS
 62
     7
 10
881.24181758028794
 20
887.24671573154012
 30
0.0
 40
10.0
 50
7.8228146000024212
 51
89.000001000002115
  0
ARC
  5
DC95
  8
DEFPOINTS
  6
CONTINUOUS
 62
     7
 10
879.24187758028813
 20
944.71832573153995
 30
0.0
 40
12.0
 50
271.50000000000267
 51
0.0
  0
ARC
  5
DC96
  8
DEFPOINTS
  6
CONTINUOUS
 62
     7
 10
879.24187758028813
 20
938.71832573154006
 30
0.0
 40
12.0
 50
271.50000000000267
 51
0.0
  0
ARC
  5
DC97
  8
DEFPOINTS
  6
CONTINUOUS
 62
     7
 10
894.24187758028813
 20
1002.74121573154
 30
0.0
 40
3.0
 50
90.00000299999769
 51
180.000010000001
  0
ARC
  5
DC98
  8
DEFPOINTS
  6
CONTINUOUS
 62
     7
 10
903.24187758028791
 20
1007.28388573154
 30
0.0
 40
1.0
 50
90.00000299999769
 51
180.000010000001
  0
ARC
  5
DC99
  8
DEFPOINTS
  6
CONTINUOUS
 62
     7
 10
901.24181758028794
 20
1006.74121573154
 30
0.0
 40
1.0
 50
270.0
 51
0.0
  0
ARC
  5
DC9A
  8
DEFPOINTS
  6
CONTINUOUS
 62
     7
 10
894.24187758028813
 20
947.91028573153994
 30
0.0
 40
3.0
 50
179.999989999999
 51
270.0
  0
ARC
  5
DC9B
  8
DEFPOINTS
  6
CONTINUOUS
 62
     7
 10
899.24187758028825
 20
941.91022573154009
 30
0.0
 40
3.0
 50
0.0
 51
90.00000299999769
  0
ARC
  5
DC9C
  8
DEFPOINTS
  6
CONTINUOUS
 62
     7
 10
899.24187758028825
 20
646.00022573154001
 30
0.0
 40
3.0
 50
270.0
 51
0.0
  0
ARC
  5
DC9D
  8
DEFPOINTS
  6
CONTINUOUS
 62
     7
 10
894.24187758028813
 20
554.10837573154004
 30
0.0
 40
3.0
 50
179.999989999999
 51
270.0
  0
ARC
  5
DC9E
  8
DEFPOINTS
  6
CONTINUOUS
 62
     7
 10
901.24181758028794
 20
550.10837573153981
 30
0.0
 40
1.0
 50
0.0
 51
90.00000299999769
  0
ARC
  5
DC9F
  8
DEFPOINTS
  6
CONTINUOUS
 62
     7
 10
903.24187758028791
 20
549.28386573154012
 30
0.0
 40
1.0
 50
179.999989999999
 51
270.0
  0
ARC
  5
DCA0
  8
DEFPOINTS
  6
CONTINUOUS
 62
     7
 10
893.38543758028777
 20
540.28386573154012
 30
0.0
 40
8.0
 50
90.00000299999769
 51
120.0000000000005
  0
ARC
  5
DCA1
  8
DEFPOINTS
  6
CONTINUOUS
 62
     7
 10
839.47515758028817
 20
544.69129573154009
 30
0.0
 40
25.911341
 50
274.10136000000199
 51
343.00889000000069
  0
ARC
  5
DCA2
  8
DEFPOINTS
  6
CONTINUOUS
 62
     7
 10
871.90624758028844
 20
534.78160573153946
 30
0.0
 40
8.0
 50
88.499997000000647
 51
163.00888000000089
  0
ARC
  5
DCA3
  8
DEFPOINTS
  6
CONTINUOUS
 62
     7
 10
842.88482758028795
 20
535.36057573153983
 30
0.0
 40
28.519185999999991
 50
266.87149999999917
 51
354.92326999999642
  0
ARC
  5
DCA4
  8
DEFPOINTS
  6
CONTINUOUS
 62
     7
 10
879.26079758028777
 20
532.12898573153984
 30
0.0
 40
8.0
 50
120.0000000000005
 51
174.92325999999881
  0
ARC
  5
DCA5
  8
DEFPOINTS
  6
CONTINUOUS
 62
     7
 10
734.24186758028793
 20
511.32143573153979
 30
0.0
 40
2.0
 50
179.999989999999
 51
270.0
  0
LINE
  5
DD02
  8
DEFPOINTS
  6
CONTINUOUS
 62
     7
 10
1533.552291033624
 20
822.71475573153987
 30
0.0
 11
1609.5000810336239
 21
708.99634573154003
 31
0.0
  0
LINE
  5
DD03
  8
DEFPOINTS
  6
CONTINUOUS
 62
     7
 10
1291.6624010336241
 20
953.64636573154007
 30
0.0
 11
1260.5497010336239
 21
984.75903573154017
 31
0.0
  0
LINE
  5
DD04
  8
DEFPOINTS
  6
AM_ISO08W050
 10
1698.732145033624
 20
778.28388573153995
 30
0.0
 11
1232.024891033624
 21
778.28388573153995
 31
0.0
  0
LINE
  5
DD05
  8
DEFPOINTS
  6
CONTINUOUS
 62
     7
 10
1403.183581033624
 20
833.63986573154011
 30
0.0
 11
1335.7409210336241
 21
901.08258573153955
 31
0.0
  0
LINE
  5
DD06
  8
DEFPOINTS
  6
CONTINUOUS
 62
     7
 10
1411.6688710336241
 20
842.12515573153973
 30
0.0
 11
1344.226181033624
 21
909.56781573154012
 31
0.0
  0
LINE
  5
DD07
  8
DEFPOINTS
  6
CONTINUOUS
 62
     7
 10
1400.497451033624
 20
822.71475573153987
 30
0.0
 11
1324.549671033624
 21
708.99634573154003
 31
0.0
  0
LINE
  5
DD08
  8
DEFPOINTS
  6
AM_ISO08W050
 10
1467.024891033624
 20
1013.28388573154
 30
0.0
 11
1467.024891033624
 21
503.35588573153962
 31
0.0
  0
LINE
  5
DD09
  8
DEFPOINTS
  6
CONTINUOUS
 62
     7
 10
1477.024891033624
 20
817.78388573153995
 30
0.0
 11
1457.024891033624
 21
817.78388573153995
 31
0.0
  0
LINE
  5
DD0A
  8
DEFPOINTS
  6
CONTINUOUS
 62
     7
 10
1477.024891033624
 20
805.78388573154007
 30
0.0
 11
1477.024891033624
 21
817.78388573153995
 31
0.0
  0
LINE
  5
DD0B
  8
DEFPOINTS
  6
CONTINUOUS
 62
     7
 10
1457.024891033624
 20
805.78388573154007
 30
0.0
 11
1477.024891033624
 21
805.78388573154007
 31
0.0
  0
LINE
  5
DD0C
  8
DEFPOINTS
  6
CONTINUOUS
 62
     7
 10
1457.024891033624
 20
817.78388573153995
 30
0.0
 11
1457.024891033624
 21
805.78388573154007
 31
0.0
  0
LINE
  5
DD0E
  8
DEFPOINTS
  6
CONTINUOUS
 62
     7
 10
1367.024891033624
 20
1008.28388573154
 30
0.0
 11
1567.024891033624
 21
1008.28388573154
 31
0.0
  0
LINE
  5
DD0F
  8
DEFPOINTS
  6
CONTINUOUS
 62
     7
 10
1262.2103110336241
 20
1004.28394573154
 30
0.0
 11
1367.024891033624
 21
1008.28394573154
 31
0.0
  0
LINE
  5
DD10
  8
DEFPOINTS
  6
CONTINUOUS
 62
     7
 10
1567.024891033624
 20
1008.28382573154
 30
0.0
 11
1671.839426033624
 21
1004.28382573154
 31
0.0
  0
LINE
  5
DD11
  8
DEFPOINTS
  6
CONTINUOUS
 62
     7
 10
1241.024891033624
 20
573.46932573154004
 30
0.0
 11
1237.024891033624
 21
678.28388573153995
 31
0.0
  0
LINE
  5
DD12
  8
DEFPOINTS
  6
CONTINUOUS
 62
     7
 10
1237.024891033624
 20
678.28388573153995
 30
0.0
 11
1237.024891033624
 21
878.28388573153995
 31
0.0
  0
LINE
  5
DD13
  8
DEFPOINTS
  6
CONTINUOUS
 62
     7
 10
1237.024921033624
 20
878.28385573154003
 30
0.0
 11
1241.024921033624
 21
983.09839573154011
 31
0.0
  0
LINE
  5
DD14
  8
DEFPOINTS
  6
CONTINUOUS
 62
     7
 10
1671.8394330336239
 20
552.28386573154012
 30
0.0
 11
1567.0248710336241
 21
548.28386573154012
 31
0.0
  0
LINE
  5
DD15
  8
DEFPOINTS
  6
CONTINUOUS
 62
     7
 10
1567.024891033624
 20
548.28388573153984
 30
0.0
 11
1367.024891033624
 21
548.28388573153984
 31
0.0
  0
LINE
  5
DD16
  8
DEFPOINTS
  6
CONTINUOUS
 62
     7
 10
1367.0248610336239
 20
548.28388573153984
 30
0.0
 11
1262.210341033624
 21
552.28388573153984
 31
0.0
  0
LINE
  5
DD17
  8
DEFPOINTS
  6
CONTINUOUS
 62
     7
 10
1693.0248770336229
 20
983.09845573154007
 30
0.0
 11
1697.0248810336241
 21
878.28388573153995
 31
0.0
  0
LINE
  5
DD18
  8
DEFPOINTS
  6
CONTINUOUS
 62
     7
 10
1697.0248810336241
 20
878.28388573153995
 30
0.0
 11
1697.0248810336241
 21
678.28388573153995
 31
0.0
  0
LINE
  5
DD19
  8
DEFPOINTS
  6
CONTINUOUS
 62
     7
 10
1697.0248810336241
 20
678.28388573153995
 30
0.0
 11
1693.0248810336241
 21
573.46933573153967
 31
0.0
  0
LINE
  5
DD1A
  8
DEFPOINTS
  6
CONTINUOUS
 62
     7
 10
1291.6624010336241
 20
602.92140573153995
 30
0.0
 11
1260.5497010336239
 21
571.80870573154004
 31
0.0
  0
LINE
  5
DD1B
  8
DEFPOINTS
  6
CONTINUOUS
 62
     7
 10
1642.387346033624
 20
602.92139573153975
 30
0.0
 11
1673.500055033624
 21
571.80869573153996
 31
0.0
  0
LINE
  5
DD1C
  8
DEFPOINTS
  6
CONTINUOUS
 62
     7
 10
1642.387377033624
 20
953.64636573154007
 30
0.0
 11
1673.5000700336241
 21
984.75903573154017
 31
0.0
  0
LINE
  5
DD1D
  8
DEFPOINTS
  6
CONTINUOUS
 62
     7
 10
1522.380891033624
 20
842.12515573153973
 30
0.0
 11
1589.8235810336239
 21
909.56787573153997
 31
0.0
  0
LINE
  5
DD1E
  8
DEFPOINTS
  6
CONTINUOUS
 62
     7
 10
1530.866151033624
 20
833.63989573154015
 30
0.0
 11
1598.3088210336241
 21
901.08258573153955
 31
0.0
  0
LINE
  5
DD1F
  8
DEFPOINTS
  6
CONTINUOUS
 62
     7
 10
1416.0248610336239
 20
519.46633573153997
 30
0.0
 11
1447.965901033624
 21
519.46633573153997
 31
0.0
  0
LINE
  5
DD20
  8
DEFPOINTS
  6
CONTINUOUS
 62
     7
 10
1337.587331033624
 20
538.28388573153984
 30
0.0
 11
1337.587331033624
 21
542.33988573153977
 31
0.0
  0
LINE
  5
DD21
  8
DEFPOINTS
  6
CONTINUOUS
 62
     7
 10
1596.4624310336239
 20
538.28388573153984
 30
0.0
 11
1596.4624310336239
 21
542.33988573153977
 31
0.0
  0
LINE
  5
DD22
  8
DEFPOINTS
  6
CONTINUOUS
 62
     7
 10
1447.587331033624
 20
523.28388573153984
 30
0.0
 11
1447.587331033624
 21
528.80924573154005
 31
0.0
  0
LINE
  5
DD23
  8
DEFPOINTS
  6
CONTINUOUS
 62
     7
 10
1486.4624310336239
 20
523.28388573153984
 30
0.0
 11
1486.4624310336239
 21
528.80924573154005
 31
0.0
  0
LINE
  5
DD24
  8
DEFPOINTS
  6
CONTINUOUS
 62
     7
 10
1486.0838610336241
 20
519.46633573153997
 30
0.0
 11
1518.0248710336241
 21
519.46633573153997
 31
0.0
  0
LINE
  5
DD25
  8
DEFPOINTS
  6
CONTINUOUS
 62
     7
 10
1456.591361033624
 20
506.88387573154012
 30
0.0
 11
1477.4584210336241
 21
506.88387573154012
 31
0.0
  0
ARC
  5
DD26
  8
DEFPOINTS
  6
CONTINUOUS
 62
     7
 10
1467.024891033624
 20
778.28388573153995
 30
0.0
 40
305.0
 50
312.1847300000025
 51
317.81526999999801
  0
ARC
  5
DD27
  8
DEFPOINTS
  6
CONTINUOUS
 62
     7
 10
1467.024891033624
 20
778.28388573153995
 30
0.0
 40
305.0
 50
222.18473000000199
 51
227.8152699999975
  0
ARC
  5
DD28
  8
DEFPOINTS
  6
CONTINUOUS
 62
     7
 10
1467.024891033624
 20
778.28388573153995
 30
0.0
 40
305.0
 50
42.184730000002013
 51
47.815272000001251
  0
ARC
  5
DD29
  8
DEFPOINTS
  6
CONTINUOUS
 62
     7
 10
1467.024891033624
 20
778.28388573153995
 30
0.0
 40
305.0
 50
132.1847300000025
 51
137.81526999999801
  0
CIRCLE
  5
DD2A
  8
DEFPOINTS
  6
CONTINUOUS
 62
     7
 10
1467.024891033624
 20
778.28388573153995
 30
0.0
 40
195.0
  0
CIRCLE
  5
DD2B
  8
DEFPOINTS
  6
CONTINUOUS
 62
     7
 10
1467.024891033624
 20
778.28388573153995
 30
0.0
 40
185.0
  0
CIRCLE
  5
DD2C
  8
DEFPOINTS
  6
CONTINUOUS
 62
     7
 10
1467.024891033624
 20
778.28388573153995
 30
0.0
 40
60.0
  0
ARC
  5
DD2D
  8
DEFPOINTS
  6
CONTINUOUS
 62
     7
 10
1518.0248710336241
 20
647.90387573153976
 30
0.0
 40
110.0
 50
19.265640999997451
 51
33.737306000000757
  0
ARC
  5
DD2E
  8
DEFPOINTS
  6
CONTINUOUS
 62
     7
 10
1467.024891033624
 20
768.28388573154007
 30
0.0
 40
144.0
 50
343.5045499999992
 51
45.028278000005457
  0
ARC
  5
DD2F
  8
DEFPOINTS
  6
CONTINUOUS
 62
     7
 10
1601.2628010336241
 20
728.53241573154003
 30
0.0
 40
4.0
 50
269.3273499999965
 51
343.5045499999992
  0
ARC
  5
DD30
  8
DEFPOINTS
  6
CONTINUOUS
 62
     7
 10
1612.424781033624
 20
680.89871573154005
 30
0.0
 40
10.0
 50
347.78888000000222
 51
19.265640999997451
  0
ARC
  5
DD31
  8
DEFPOINTS
  6
CONTINUOUS
 62
     7
 10
1467.024891033624
 20
778.28388573153995
 30
0.0
 40
270.0
 50
130.04274000000291
 51
139.6698400000017
  0
CIRCLE
  5
DD32
  8
DEFPOINTS
  6
CONTINUOUS
 62
     7
 10
1276.106031033624
 20
969.20270573153994
 30
0.0
 40
12.0
  0
ARC
  5
DD33
  8
DEFPOINTS
  6
CONTINUOUS
 62
     7
 10
1321.6249910336239
 20
680.89871573154005
 30
0.0
 40
10.0
 50
160.73435999999981
 51
192.21112999999951
  0
ARC
  5
DD34
  8
DEFPOINTS
  6
CONTINUOUS
 62
     7
 10
1332.7869410336241
 20
728.53241573154003
 30
0.0
 40
4.0
 50
196.49545000000069
 51
270.67264000000381
  0
ARC
  5
DD35
  8
DEFPOINTS
  6
CONTINUOUS
 62
     7
 10
1467.024891033624
 20
768.28388573154007
 30
0.0
 40
144.0
 50
50.607648000002797
 51
129.39235000000389
  0
ARC
  5
DD36
  8
DEFPOINTS
  6
CONTINUOUS
 62
     7
 10
1467.024891033624
 20
768.28388573154007
 30
0.0
 40
144.0
 50
134.97172000000049
 51
196.49544000000139
  0
ARC
  5
DD37
  8
DEFPOINTS
  6
CONTINUOUS
 62
     7
 10
1416.0248610336239
 20
647.90387573153976
 30
0.0
 40
110.0
 50
146.26269999999701
 51
160.73435999999981
  0
ARC
  5
DD38
  8
DEFPOINTS
  6
CONTINUOUS
 62
     7
 10
1467.024891033624
 20
778.28388573153995
 30
0.0
 40
80.0
 50
33.737306000000757
 51
146.26269999999701
  0
CIRCLE
  5
DD39
  8
DEFPOINTS
  6
CONTINUOUS
 62
     7
 10
1467.024891033624
 20
778.28388573153995
 30
0.0
 40
5.0
  0
CIRCLE
  5
DD3A
  8
DEFPOINTS
  6
CONTINUOUS
 62
     7
 10
1467.024891033624
 20
778.28388573153995
 30
0.0
 40
6.0
  0
ARC
  5
DD3B
  8
DEFPOINTS
  6
CONTINUOUS
 62
     7
 10
1467.024891033624
 20
778.28388573153995
 30
0.0
 40
35.0
 50
106.60155000000501
 51
73.398452000004042
  0
CIRCLE
  5
DD3C
  8
DEFPOINTS
  6
CONTINUOUS
 62
     7
 10
1276.106031033624
 20
587.36504573154002
 30
0.0
 40
12.0
  0
ARC
  5
DD3D
  8
DEFPOINTS
  6
CONTINUOUS
 62
     7
 10
1467.024891033624
 20
778.28388573153995
 30
0.0
 40
270.0
 50
220.3301599999981
 51
229.66983999999681
  0
CIRCLE
  5
DD3E
  8
DEFPOINTS
  6
CONTINUOUS
 62
     7
 10
1657.943712033624
 20
587.36504573154002
 30
0.0
 40
12.0
  0
ARC
  5
DD3F
  8
DEFPOINTS
  6
CONTINUOUS
 62
     7
 10
1467.024891033624
 20
778.28388573153995
 30
0.0
 40
270.0
 50
309.72138000000268
 51
319.66984000000178
  0
CIRCLE
  5
DD40
  8
DEFPOINTS
  6
CONTINUOUS
 62
     7
 10
1657.943712033624
 20
969.20270573153994
 30
0.0
 40
12.0
  0
ARC
  5
DD41
  8
DEFPOINTS
  6
CONTINUOUS
 62
     7
 10
1467.024891033624
 20
778.28388573153995
 30
0.0
 40
270.0
 50
40.330163000001342
 51
49.669836000000679
  0
ARC
  5
DD42
  8
DEFPOINTS
  6
CONTINUOUS
 62
     7
 10
1347.7617310336241
 20
913.10333573154003
 30
0.0
 40
5.0
 50
168.84116000000421
 51
225.0000000000046
  0
ARC
  5
DD43
  8
DEFPOINTS
  6
CONTINUOUS
 62
     7
 10
1332.205371033624
 20
897.54700573154003
 30
0.0
 40
5.0
 50
45.000000999994569
 51
101.1588400000022
  0
ARC
  5
DD44
  8
DEFPOINTS
  6
CONTINUOUS
 62
     7
 10
1399.6480610336239
 20
830.10437573153956
 30
0.0
 40
5.0
 50
358.28216000000077
 51
45.000000999994569
  0
ARC
  5
DD45
  8
DEFPOINTS
  6
CONTINUOUS
 62
     7
 10
1415.204391033624
 20
845.66071573153988
 30
0.0
 40
5.0
 50
225.0000000000046
 51
271.71783999999269
  0
ARC
  5
DD46
  8
DEFPOINTS
  6
CONTINUOUS
 62
     7
 10
1518.845351033624
 20
845.66071573153988
 30
0.0
 40
5.0
 50
268.2821600000072
 51
314.9999999999954
  0
ARC
  5
DD47
  8
DEFPOINTS
  6
CONTINUOUS
 62
     7
 10
1534.401701033624
 20
830.10437573153956
 30
0.0
 40
5.0
 50
134.9999999999954
 51
181.71783999999909
  0
ARC
  5
DD48
  8
DEFPOINTS
  6
CONTINUOUS
 62
     7
 10
1601.8443910336241
 20
897.54700573154003
 30
0.0
 40
5.0
 50
78.841153999999761
 51
134.9999999999954
  0
ARC
  5
DD49
  8
DEFPOINTS
  6
CONTINUOUS
 62
     7
 10
1586.288041033624
 20
913.10333573154003
 30
0.0
 40
5.0
 50
314.9999999999954
 51
11.15884700000438
  0
ARC
  5
DD4A
  8
DEFPOINTS
  6
CONTINUOUS
 62
     7
 10
1416.0248610336239
 20
647.90387573153976
 30
0.0
 40
128.43755999999991
 50
229.96398999999809
 51
230.68880999999459
  0
ARC
  5
DD4B
  8
DEFPOINTS
  6
CONTINUOUS
 62
     7
 10
1357.024891033624
 20
538.28388573153984
 30
0.0
 40
19.437557000000002
 50
179.999989999999
 51
0.0000100179138904
  0
ARC
  5
DD4C
  8
DEFPOINTS
  6
CONTINUOUS
 62
     7
 10
1329.587331033624
 20
542.33988573153977
 30
0.0
 40
8.0
 50
0.0
 51
50.688810999995432
  0
ARC
  5
DD4D
  8
DEFPOINTS
  6
CONTINUOUS
 62
     7
 10
1384.4624510336239
 20
538.28388573153984
 30
0.0
 40
8.0
 50
141.82987999999949
 51
180.000010000001
  0
ARC
  5
DD4E
  8
DEFPOINTS
  6
CONTINUOUS
 62
     7
 10
1416.0248610336239
 20
647.90387573153976
 30
0.0
 40
128.43755999999991
 50
250.34187000000659
 51
270.0
  0
ARC
  5
DD4F
  8
DEFPOINTS
  6
CONTINUOUS
 62
     7
 10
1549.587331033624
 20
538.28388573153984
 30
0.0
 40
8.0
 50
0.0
 51
38.170126000000899
  0
ARC
  5
DD50
  8
DEFPOINTS
  6
CONTINUOUS
 62
     7
 10
1604.4624310336239
 20
542.33988573153977
 30
0.0
 40
8.0
 50
129.31119000000541
 51
180.000010000001
  0
ARC
  5
DD51
  8
DEFPOINTS
  6
CONTINUOUS
 62
     7
 10
1577.024891033624
 20
538.28388573153984
 30
0.0
 40
19.437557000000002
 50
179.999989999999
 51
0.0000100179138904
  0
ARC
  5
DD52
  8
DEFPOINTS
  6
CONTINUOUS
 62
     7
 10
1518.0248710336241
 20
647.90387573153976
 30
0.0
 40
128.43755999999991
 50
309.3111900000053
 51
310.03601000000191
  0
ARC
  5
DD53
  8
DEFPOINTS
  6
CONTINUOUS
 62
     7
 10
1518.0248710336241
 20
647.90387573153976
 30
0.0
 40
128.43755999999991
 50
270.0
 51
289.65811999999801
  0
ARC
  5
DD54
  8
DEFPOINTS
  6
CONTINUOUS
 62
     7
 10
1467.024891033624
 20
523.28388573153984
 30
0.0
 40
19.437557000000002
 50
179.999989999999
 51
237.5358399999985
  0
ARC
  5
DD55
  8
DEFPOINTS
  6
CONTINUOUS
 62
     7
 10
1467.024891033624
 20
523.28388573153984
 30
0.0
 40
19.437557000000002
 50
302.46414999999712
 51
0.0
  0
ARC
  5
DD56
  8
DEFPOINTS
  6
CONTINUOUS
 62
     7
 10
1439.587331033624
 20
528.80924573154005
 30
0.0
 40
8.0
 50
0.0
 51
90.00000299999769
  0
ARC
  5
DD57
  8
DEFPOINTS
  6
CONTINUOUS
 62
     7
 10
1494.4624310336239
 20
528.80924573154005
 30
0.0
 40
8.0
 50
90.00000299999769
 51
180.000010000001
  0
TEXT
  5
E294
  8
0
  6
CONTINUOUS
 62
     0
 10
1284.173992962136
 20
1311.327306653096
 30
0.0
 40
20.0
  1
VX75-040EBF~VX75-080EBF
  0
ENDSEC
  0
EOF
