  0
SECTION
  2
HEADER
  9
$ACADVER
  1
AC1009
  9
$INSBASE
 10
0.0
 20
0.0
 30
0.0
  9
$EXTMIN
 10
123.5006811470964
 20
156.21233337238621
 30
-500.85211713798338
  9
$EXTMAX
 10
727.91558259052181
 20
583.28588115309765
 30
8206837.6815586779
  9
$LIMMIN
 10
0.0
 20
0.0
  9
$LIMMAX
 10
853.5
 20
555.00000000000011
  9
$ORTHOMODE
 70
     0
  9
$REGENMODE
 70
     1
  9
$FILLMODE
 70
     1
  9
$QTEXTMODE
 70
     0
  9
$MIRRTEXT
 70
     1
  9
$DRAGMODE
 70
     2
  9
$LTSCALE
 40
3.0
  9
$OSMODE
 70
   551
  9
$ATTMODE
 70
     1
  9
$TEXTSIZE
 40
2.5
  9
$TRACEWID
 40
1.0
  9
$TEXTSTYLE
  7
STANDARD
  9
$CLAYER
  8
AM_0
  9
$CELTYPE
  6
BYLAYER
  9
$CECOLOR
 62
   256
  9
$DIMSCALE
 40
3.0
  9
$DIMASZ
 40
2.5
  9
$DIMEXO
 40
1.0
  9
$DIMDLI
 40
8.0
  9
$DIMRND
 40
0.0
  9
$DIMDLE
 40
0.0
  9
$DIMEXE
 40
0.6
  9
$DIMTP
 40
0.1
  9
$DIMTM
 40
0.1
  9
$DIMTXT
 40
2.5
  9
$DIMCEN
 40
0.0
  9
$DIMTSZ
 40
0.0
  9
$DIMTOL
 70
     0
  9
$DIMLIM
 70
     0
  9
$DIMTIH
 70
     0
  9
$DIMTOH
 70
     0
  9
$DIMSE1
 70
     0
  9
$DIMSE2
 70
     0
  9
$DIMTAD
 70
     1
  9
$DIMZIN
 70
     8
  9
$DIMBLK
  1

  9
$DIMASO
 70
     1
  9
$DIMSHO
 70
     1
  9
$DIMPOST
  1

  9
$DIMAPOST
  1
"
  9
$DIMALT
 70
     0
  9
$DIMALTD
 70
     2
  9
$DIMALTF
 40
0.0393701
  9
$DIMLFAC
 40
1.0
  9
$DIMTOFL
 70
     1
  9
$DIMTVP
 40
0.0
  9
$DIMTIX
 70
     0
  9
$DIMSOXD
 70
     0
  9
$DIMSAH
 70
     0
  9
$DIMBLK1
  1

  9
$DIMBLK2
  1

  9
$DIMSTYLE
  2
AM_ISO
  9
$DIMCLRD
 70
   256
  9
$DIMCLRE
 70
   256
  9
$DIMCLRT
 70
     4
  9
$DIMTFAC
 40
0.71
  9
$DIMGAP
 40
0.8
  9
$LUNITS
 70
     2
  9
$LUPREC
 70
     2
  9
$SKETCHINC
 40
1.0
  9
$FILLETRAD
 40
20.0
  9
$AUNITS
 70
     0
  9
$AUPREC
 70
     0
  9
$MENU
  1
.
  9
$ELEVATION
 40
0.0
  9
$PELEVATION
 40
0.0
  9
$THICKNESS
 40
0.0
  9
$LIMCHECK
 70
     0
  9
$BLIPMODE
 70
     0
  9
$CHAMFERA
 40
6.0
  9
$CHAMFERB
 40
3.0
  9
$SKPOLY
 70
     0
  9
$TDCREATE
 40
2452065.6056192131
  9
$TDUPDATE
 40
2458541.6129645598
  9
$TDINDWG
 40
0.5643893403
  9
$TDUSRTIMER
 40
0.5643889699
  9
$USRTIMER
 70
     1
  9
$ANGBASE
 50
0.0
  9
$ANGDIR
 70
     0
  9
$PDMODE
 70
     0
  9
$PDSIZE
 40
0.0
  9
$PLINEWID
 40
0.0
  9
$COORDS
 70
     1
  9
$SPLFRAME
 70
     0
  9
$SPLINETYPE
 70
     6
  9
$SPLINESEGS
 70
     8
  9
$ATTDIA
 70
     1
  9
$ATTREQ
 70
     1
  9
$HANDLING
 70
     1
  9
$HANDSEED
  5
5CEF
  9
$SURFTAB1
 70
     6
  9
$SURFTAB2
 70
     6
  9
$SURFTYPE
 70
     6
  9
$SURFU
 70
     6
  9
$SURFV
 70
     6
  9
$UCSNAME
  2

  9
$UCSORG
 10
0.0
 20
0.0
 30
0.0
  9
$UCSXDIR
 10
1.0
 20
0.0
 30
0.0
  9
$UCSYDIR
 10
0.0
 20
1.0
 30
0.0
  9
$PUCSNAME
  2

  9
$PUCSORG
 10
0.0
 20
0.0
 30
0.0
  9
$PUCSXDIR
 10
1.0
 20
0.0
 30
0.0
  9
$PUCSYDIR
 10
0.0
 20
1.0
 30
0.0
  9
$USERI1
 70
     0
  9
$USERI2
 70
     0
  9
$USERI3
 70
     0
  9
$USERI4
 70
     0
  9
$USERI5
 70
     0
  9
$USERR1
 40
0.0
  9
$USERR2
 40
0.0
  9
$USERR3
 40
0.0
  9
$USERR4
 40
0.0
  9
$USERR5
 40
0.0
  9
$WORLDVIEW
 70
     1
  9
$SHADEDGE
 70
     3
  9
$SHADEDIF
 70
    70
  9
$TILEMODE
 70
     1
  9
$MAXACTVP
 70
    64
  9
$PLIMCHECK
 70
     0
  9
$PEXTMIN
 10
1.0000000000000000E+020
 20
1.0000000000000000E+020
 30
1.0000000000000000E+020
  9
$PEXTMAX
 10
-1.0000000000000000E+020
 20
-1.0000000000000000E+020
 30
-1.0000000000000000E+020
  9
$PLIMMIN
 10
0.0
 20
0.0
  9
$PLIMMAX
 10
420.0
 20
297.0
  9
$UNITMODE
 70
     0
  9
$VISRETAIN
 70
     1
  9
$PLINEGEN
 70
     0
  9
$PSLTSCALE
 70
     1
  0
ENDSEC
  0
SECTION
  2
TABLES
  0
TABLE
  2
VPORT
 70
     1
  0
VPORT
  2
*ACTIVE
 70
     0
 10
0.0
 20
0.0
 11
1.0
 21
1.0
 12
425.70813186880912
 22
369.74910726274197
 13
0.0
 23
0.0
 14
7.5
 24
7.5
 15
30.0
 25
30.0
 16
0.0
 26
0.0
 36
1.0
 17
0.0
 27
0.0
 37
0.0
 40
430.00540279980117
 41
1.7571592210767459
 42
50.0
 43
0.0
 44
0.0
 50
0.0
 51
0.0
 71
     0
 72
   100
 73
     1
 74
     3
 75
     0
 76
     0
 77
     0
 78
     0
  0
ENDTAB
  0
TABLE
  2
LTYPE
 70
    26
  0
LTYPE
  2
CONTINUOUS
 70
     0
  3
Solid line
 72
    65
 73
     0
 40
0.0
  0
LTYPE
  2
AM_ISO02W050
 70
     0
  3
__ __ __ __ __ __ __ __ __ __ __ __ __ __ __
 72
    65
 73
     2
 40
7.5
 49
6.0
 49
-1.5
  0
LTYPE
  2
AM_ISO08W050
 70
     0
  3
____ . ____ . ____ . ____ . ____ . ____ . ____
 72
    65
 73
     4
 40
18.0
 49
12.0
 49
-1.5
 49
3.0
 49
-1.5
  0
LTYPE
  2
AM_ISO09W050
 70
     0
  3
_____ . . _____ . . _____ . . ____ .. ____
 72
    65
 73
     6
 40
22.5
 49
12.0
 49
-1.5
 49
3.0
 49
-1.5
 49
3.0
 49
-1.5
  0
LTYPE
  2
AMCONSTR
 70
     0
  3
_______________________
 72
    65
 73
     2
 40
9999.0
 49
9999.0
 49
0.0
  0
LTYPE
  2
AM_ISO08W050X2
 70
     0
  3
__ . __ . __ . __ . __ . __
 72
    65
 73
     4
 40
9.0
 49
6.0
 49
-0.75
 49
1.5
 49
-0.75
  0
LTYPE
  2
AM_ISO02W050X2
 70
     0
  3
 _ _ _ _ _ _ _ _ _ _ _ _
 72
    65
 73
     2
 40
3.75
 49
3.0
 49
-0.75
  0
LTYPE
  2
AMZIGZAG
 70
     0
  3
/\/-/\/-/\/-/\/-/\/-/\/
 72
    65
 73
     2
 40
11.0001
 49
0.0001
 49
-11.0
  0
LTYPE
  2
ACISOWELD
 70
     0
  3
_ _ _ _ _
 72
    65
 73
     2
 40
2.0
 49
2.0
 49
-1.0
  0
LTYPE
  2
ACISOTGB
 70
     0
  3
__ . . __ . .
 72
    65
 73
     6
 40
9.0
 49
4.0
 49
-1.0
 49
1.0
 49
-1.0
 49
1.0
 49
-1.0
  0
LTYPE
  2
ACISOTGL
 70
     0
  3
_ _ _ _ _
 72
    65
 73
     2
 40
3.0
 49
2.0
 49
-1.0
  0
LTYPE
  2
CENTER
 70
     0
  3
__ . __
 72
    65
 73
     4
 40
7.0
 49
4.0
 49
-1.0
 49
1.0
 49
-1.0
  0
LTYPE
  2
HIDDEN
 70
     0
  3
Hidden __ __ __ __ __ __ __ __ __ __ __ __ __ _
 72
    65
 73
     2
 40
9.5249999999999986
 49
6.349999999999997
 49
-3.174999999999998
  0
LTYPE
  2
PHANTOM2
 70
     0
  3
Phantom (.5x) ___ _ _ ___ _ _ ___ _ _ ___ _ _
 72
    65
 73
     6
 40
31.75
 49
15.875
 49
-3.174999999999998
 49
3.174999999999998
 49
-3.174999999999998
 49
3.174999999999998
 49
-3.174999999999998
  0
LTYPE
  2
ACANSTGBM
 70
     0
  3
__ . . __ . .
 72
    65
 73
     6
 40
9.0
 49
4.0
 49
-1.0
 49
1.0
 49
-1.0
 49
1.0
 49
-1.0
  0
LTYPE
  2
ACANSTGLM
 70
     0
  3
_ _ _ _ _
 72
    65
 73
     2
 40
3.0
 49
2.0
 49
-1.0
  0
LTYPE
  2
GEN7A
 70
     0
  3
__ . __ . __
 72
    65
 73
     4
 40
7.375
 49
4.75
 49
-0.875
 49
0.875
 49
-0.875
  0
LTYPE
  2
ACJISTGB
 70
     0
  3
__ . . __ . .
 72
    65
 73
     6
 40
9.0
 49
4.0
 49
-1.0
 49
1.0
 49
-1.0
 49
1.0
 49
-1.0
  0
LTYPE
  2
ACJISTGL
 70
     0
  3
_ _ _ _ _
 72
    65
 73
     2
 40
3.0
 49
2.0
 49
-1.0
  0
LTYPE
  2
GEN7
 70
     0
  3
____ . ____ . ____ . ____ . ____ . ____ . ____
 72
    65
 73
     4
 40
14.25
 49
9.75
 49
-1.5
 49
1.5
 49
-1.5
  0
LTYPE
  2
CENTER2
 70
     0
  3
Center (.5x) ___ _ ___ _ ___ _ ___ _ ___ _ ___
 72
    65
 73
     4
 40
1.125
 49
0.75
 49
-0.125
 49
0.125
 49
-0.125
  0
LTYPE
  2
HIDDEN2
 70
     0
  3
Hidden (.5x) _ _ _ _ _ _ _ _ _ _ _ _ _ _ _ _ _
 72
    65
 73
     2
 40
0.1875
 49
0.125
 49
-0.0625
  0
LTYPE
  2
AMZIGZAG2
 70
     0
  3
/\/-/\/-/\/-/\/-/\/-/\/
 72
    65
 73
     2
 40
0.4401
 49
0.0001
 49
-0.4400000000000001
  0
LTYPE
  2
ACANSTGB
 70
     0
  3
__ . . __ . .
 72
    65
 73
     6
 40
0.35433070866
 49
0.15748031496
 49
-0.03937007874
 49
0.03937007874
 49
-0.03937007874
 49
0.03937007874
 49
-0.03937007874
  0
LTYPE
  2
ACANSTGL
 70
     0
  3
_ _ _ _ _
 72
    65
 73
     2
 40
0.11811023622
 49
0.07874015748
 49
-0.03937007874
  0
ENDTAB
  0
TABLE
  2
LAYER
 70
     7
  0
LAYER
  2
0
 70
     0
 62
     7
  6
CONTINUOUS
  0
LAYER
  2
AM_0
 70
     0
 62
     7
  6
CONTINUOUS
  0
LAYER
  2
AM_5
 70
     0
 62
     2
  6
CONTINUOUS
  0
LAYER
  2
DEFPOINTS
 70
     0
 62
     7
  6
CONTINUOUS
  0
LAYER
  2
ﾁｭｳｼﾝｾﾝ1
 70
     0
 62
     1
  6
GEN7A
  0
LAYER
  2
AM_0N
 70
     0
 62
     7
  6
CONTINUOUS
  0
LAYER
  2
ﾁｭｳｼﾝｾﾝ
 70
     0
 62
     1
  6
GEN7
  0
ENDTAB
  0
TABLE
  2
STYLE
 70
    10
  0
STYLE
  2
STANDARD
 70
     0
 40
0.0
 41
0.8299999999999999
 50
0.0
 71
     0
 42
2.5
  3
txt.shx
  4
bigfont.shx
  0
STYLE
  2
ANNOTATIVE
 70
     0
 40
0.0
 41
1.0
 50
0.0
 71
     0
 42
0.2
  3
txt
  4

  0
STYLE
  2

 70
     1
 40
0.0
 41
1.0
 50
0.0
 71
     0
 42
2.5
  3
ltypeshp.shx
  4

  0
STYLE
  2
ACISOTS
 70
     0
 40
1.0
 41
1.0
 50
0.0
 71
     0
 42
2.5
  3
isocp.shx
  4
extfont.shx
  0
STYLE
  2
ACISOGDT
 70
     0
 40
0.0
 41
1.0
 50
0.0
 71
     0
 42
2.5
  3
amgdt.shx
  4

  0
STYLE
  2
ACANSTS
 70
     0
 40
1.0
 41
1.0
 50
0.0
 71
     0
 42
2.5
  3
romans.shx
  4
bigfont.shx
  0
STYLE
  2
ACANSGDT
 70
     0
 40
0.0
 41
1.0
 50
0.0
 71
     0
 42
2.5
  3
amgdt.shx
  4

  0
STYLE
  2
ACJISTS
 70
     0
 40
1.0
 41
1.0
 50
0.0
 71
     0
 42
2.5
  3
isocp.shx
  4
bigfont.shx
  0
STYLE
  2
ACJISGDT
 70
     0
 40
0.0
 41
1.0
 50
0.0
 71
     0
 42
2.5
  3
amgdt.shx
  4

  0
STYLE
  2

 70
     1
 40
0.0
 41
1.0
 50
0.0
 71
     0
 42
2.5
  3
genltshp.shx
  4

  0
ENDTAB
  0
TABLE
  2
VIEW
 70
     6
  0
VIEW
  2
AM_VIEW1
 70
     0
 40
277.50000000000011
 10
249.64779005524869
 20
416.24999999999989
 41
499.2955801104971
 11
0.0
 21
0.0
 31
1.0
 12
0.0
 22
0.0
 32
0.0
 42
50.0
 43
0.0
 44
0.0
 50
0.0
 71
     0
  0
VIEW
  2
AM_VIEW2
 70
     0
 40
277.50000000000011
 10
603.85220994475117
 20
416.24999999999989
 41
499.2955801104971
 11
0.0
 21
0.0
 31
1.0
 12
0.0
 22
0.0
 32
0.0
 42
50.0
 43
0.0
 44
0.0
 50
0.0
 71
     0
  0
VIEW
  2
AM_VIEW3
 70
     0
 40
277.50000000000011
 10
249.64779005524869
 20
138.75
 41
499.2955801104971
 11
0.0
 21
0.0
 31
1.0
 12
0.0
 22
0.0
 32
0.0
 42
50.0
 43
0.0
 44
0.0
 50
0.0
 71
     0
  0
VIEW
  2
AM_VIEW4
 70
     0
 40
277.50000000000011
 10
603.85220994475117
 20
138.75
 41
499.2955801104971
 11
0.0
 21
0.0
 31
1.0
 12
0.0
 22
0.0
 32
0.0
 42
50.0
 43
0.0
 44
0.0
 50
0.0
 71
     0
  0
VIEW
  2
AM_VIEW5
 70
     0
 40
277.50000000000011
 10
426.75
 20
277.50000000000011
 41
499.2955801104971
 11
0.0
 21
0.0
 31
1.0
 12
0.0
 22
0.0
 32
0.0
 42
50.0
 43
0.0
 44
0.0
 50
0.0
 71
     0
  0
VIEW
  2
AM_VIEW6
 70
     0
 40
554.99445000000014
 10
426.75
 20
277.5
 41
998.5811743093924
 11
0.0
 21
0.0
 31
1.0
 12
0.0
 22
0.0
 32
0.0
 42
50.0
 43
0.0
 44
0.0
 50
0.0
 71
     0
  0
ENDTAB
  0
TABLE
  2
UCS
 70
     0
  0
ENDTAB
  0
TABLE
  2
APPID
 70
   101
  0
APPID
  2
ACAD
 70
     0
  0
APPID
  2
ACADANNOTATIVE
 70
     0
  0
APPID
  2
MCAD_NO_VIS
 70
     0
  0
APPID
  2
ACAD_TEMP_GRAPHIC
 70
     0
  0
APPID
  2
ACATTRIBSERVICES
 70
     0
  0
APPID
  2
GENIUS_GENREC_14
 70
     0
  0
APPID
  2
GENIUS_GENOBJ-N-REC_13
 70
     0
  0
APPID
  2
GENIUS_GENODEF_13
 70
     0
  0
APPID
  2
GENIUS_GENOLIS_13
 70
     0
  0
APPID
  2
GENIUS_GENOBJ-N-TIT_13
 70
     0
  0
APPID
  2
GENIUS_GENOENT_13
 70
     0
  0
APPID
  2
GENIUS_GENTITLE_13
 70
     0
  0
APPID
  2
GENIUS_GENOREF_13
 70
     0
  0
APPID
  2
GENIUS_GENSCREG_15
 70
     0
  0
APPID
  2
GENIUS_GENOBJ-N-SDF_13
 70
     0
  0
APPID
  2
GENIUS_GENFIL_13
 70
     0
  0
APPID
  2
GENIUS_GENOBJ-N-CHA_13
 70
     0
  0
APPID
  2
GENIUS_GENDTOL_13
 70
     0
  0
APPID
  2
GENIUS_GENOBJ-N-FIL_13
 70
     0
  0
APPID
  2
AD_DRAW
 70
     0
  0
APPID
  2
DESIGNERASSEMBLIES
 70
     0
  0
APPID
  2
ASURF_PCURVE_APPNAME
 70
     0
  0
APPID
  2
GENIUS_GE3SECT_13
 70
     0
  0
APPID
  2
GENIUS_GENCFG_13
 70
     0
  0
APPID
  2
GENIUS_GE3CFG0_13
 70
     0
  0
APPID
  2
GENIUS_GENCFG0_13
 70
     0
  0
APPID
  2
GENIUS_GENCFG1_13
 70
     0
  0
APPID
  2
GENIUS_GENCFG2_13
 70
     0
  0
APPID
  2
GENIUS_GENCFG3_13
 70
     0
  0
APPID
  2
GENIUS_GENCFG4_13
 70
     0
  0
APPID
  2
GENIUS_GEVCFG0_13
 70
     0
  0
APPID
  2
GENIUS_GENHINW_13
 70
     0
  0
APPID
  2
GENIUS_FIRSTVISTXT_14
 70
     0
  0
APPID
  2
GENIUS_GENOBJ-N-LEADER_13
 70
     0
  0
APPID
  2
GEV_VCCNULL_SWITCH_OFF
 70
     0
  0
APPID
  2
GENIUS_GEFCFG0_13
 70
     0
  0
APPID
  2
GENIUS_GENZVEED_13
 70
     0
  0
APPID
  2
GENIUS_GENSCREG_13
 70
     0
  0
APPID
  2
GENIUS_DUMCFG0_13
 70
     0
  0
APPID
  2
GEVID936201362
 70
     0
  0
APPID
  2
GEVDC
 70
     0
  0
APPID
  2
GEVCON
 70
     0
  0
APPID
  2
VCC
 70
     0
  0
APPID
  2
GEVPT
 70
     0
  0
APPID
  2
GEVIT
 70
     0
  0
APPID
  2
GENBH
 70
     0
  0
APPID
  2
GEVMK
 70
     0
  0
APPID
  2
GENIUS_GENBH_13
 70
     0
  0
APPID
  2
GENIUS_GENOBJ-NBEHI-BHF_13
 70
     0
  0
APPID
  2
GENIUS_GENOBJ-NBEHI-BHB_13
 70
     0
  0
APPID
  2
GENIUS_GENOBJ-F-DESC_13
 70
     0
  0
APPID
  2
GENIUS_GEFDESC_14
 70
     0
  0
APPID
  2
GENIUS_GENOBJ-F-PART_13
 70
     0
  0
APPID
  2
GENIUS_GEFSTDP_13
 70
     0
  0
APPID
  2
GENIUS_GEFPARTINS_13
 70
     0
  0
APPID
  2
GENIUS_GENTRA_14
 70
     0
  0
APPID
  2
GENIUS_GENINF13_13
 70
     0
  0
APPID
  2
GENIUS_GENOBJ-N-INFOPT_13
 70
     0
  0
APPID
  2
GENIUS_GENOBJ-N-RSSYM_13
 70
     0
  0
APPID
  2
GENIUS_GENSYMENT_13
 70
     0
  0
APPID
  2
GENIUS_GENSCSYM_13
 70
     0
  0
APPID
  2
GENIUS_GEFINFNAM_13
 70
     0
  0
APPID
  2
GENIUS_GENOBJ-N-CEN_13
 70
     0
  0
APPID
  2
GENIUS_GENOBJ-N-CRS_13
 70
     0
  0
APPID
  2
GENIUS_GENOBJ-N-CRC_13
 70
     0
  0
APPID
  2
GENIUS_GENCRC_14
 70
     0
  0
APPID
  2
GEVID942827039
 70
     0
  0
APPID
  2
GEVID942827040
 70
     0
  0
APPID
  2
GEVID942827041
 70
     0
  0
APPID
  2
GENIUS_GENOBJ-F-SCPASSM_13
 70
     0
  0
APPID
  2
GENIUS_GENDIMSH_14
 70
     0
  0
APPID
  2
GEVID942827042
 70
     0
  0
APPID
  2
GEVID946020473
 70
     0
  0
APPID
  2
GEVID946020474
 70
     0
  0
APPID
  2
GEVID946020475
 70
     0
  0
APPID
  2
GENIUS_GENOBJ-N-HTC_13
 70
     0
  0
APPID
  2
GENIUS_GENHATCH_13
 70
     0
  0
APPID
  2
GEVID948854295
 70
     0
  0
APPID
  2
GEVID939402019
 70
     0
  0
APPID
  2
GEVID952919491
 70
     0
  0
APPID
  2
GEVID952919492
 70
     0
  0
APPID
  2
GENIUS_GEFWELD_13
 70
     0
  0
APPID
  2
GENIUS_GENOBJ-F-WELS_13
 70
     0
  0
APPID
  2
GEVID952919493
 70
     0
  0
APPID
  2
GENIUS_GENOBJ-N-RSBK_13
 70
     0
  0
APPID
  2
GENIUS_GENOBJ-N-LIB_13
 70
     0
  0
APPID
  2
GENIUS_GENSCALE_13
 70
     0
  0
APPID
  2
GEVID986376691
 70
     0
  0
APPID
  2
DCO15
 70
     0
  0
APPID
  2
GEVID988070561
 70
     0
  0
APPID
  2
GEVID988070562
 70
     0
  0
APPID
  2
GEVID988070563
 70
     0
  0
APPID
  2
ACADM_DIM_EDIT
 70
     0
  0
APPID
  2
AMDT_DM_ADJ
 70
     0
  0
APPID
  2
ACAD_PSEXT
 70
     0
  0
APPID
  2
ACAD_DSTYLE_DIMJAG
 70
     0
  0
APPID
  2
ACAD_DSTYLE_DIMBREAK
 70
     0
  0
APPID
  2
ACAD_NAV_VCDISPLAY
 70
     0
  0
APPID
  2
ACADANNOPO
 70
     0
  0
APPID
  2
ACAD_EXEMPT_FROM_CAD_STANDARDS
 70
     0
  0
APPID
  2
ACAD_MLEADERVER
 70
     0
  0
ENDTAB
  0
TABLE
  2
DIMSTYLE
 70
    24
  0
DIMSTYLE
  2
STANDARD
 70
     0
  3

  4

  5

  6

  7

 40
1.0
 41
0.18
 42
0.0625
 43
0.38
 44
0.18
 45
0.0
 46
0.0
 47
0.0
 48
0.0
140
0.18
141
0.09
142
0.0
143
25.399999999999999
144
1.0
145
0.0
146
1.0
147
0.09
 71
     0
 72
     0
 73
     1
 74
     1
 75
     0
 76
     0
 77
     0
 78
     0
170
     0
171
     2
172
     0
173
     0
174
     0
175
     0
176
     0
177
     0
178
     0
  0
DIMSTYLE
  2
ANNOTATIVE
 70
     0
  3

  4

  5

  6

  7

 40
1.0
 41
0.18
 42
0.0625
 43
0.38
 44
0.18
 45
0.0
 46
0.0
 47
0.0
 48
0.0
140
0.18
141
0.09
142
0.0
143
25.399999999999999
144
1.0
145
0.0
146
1.0
147
0.09
 71
     0
 72
     0
 73
     1
 74
     1
 75
     0
 76
     0
 77
     0
 78
     0
170
     0
171
     2
172
     0
173
     0
174
     0
175
     0
176
     0
177
     0
178
     0
  0
DIMSTYLE
  2
AM_ISO
 70
     0
  3

  4
"
  5

  6

  7

 40
1.0
 41
2.5
 42
1.0
 43
8.0
 44
0.6
 45
0.0
 46
0.0
 47
0.1
 48
0.1
140
2.5
141
0.0
142
0.0
143
0.0393701
144
1.0
145
0.0
146
0.71
147
0.8
 71
     0
 72
     0
 73
     0
 74
     0
 75
     0
 76
     0
 77
     1
 78
     8
170
     0
171
     2
172
     1
173
     0
174
     0
175
     0
176
   256
177
   256
178
     4
  0
DIMSTYLE
  2
AM_ISO$3
 70
     0
  3

  4
"
  5

  6

  7

 40
1.0
 41
2.5
 42
1.0
 43
8.0
 44
0.6
 45
0.0
 46
0.0
 47
0.1
 48
0.1
140
2.5
141
0.0
142
0.0
143
0.0393701
144
1.0
145
0.0
146
0.71
147
0.8
 71
     0
 72
     0
 73
     0
 74
     1
 75
     0
 76
     0
 77
     1
 78
     8
170
     0
171
     2
172
     0
173
     0
174
     0
175
     0
176
   256
177
   256
178
     4
  0
DIMSTYLE
  2
AM_ISO$4
 70
     0
  3

  4
"
  5

  6

  7

 40
1.0
 41
2.5
 42
1.0
 43
8.0
 44
0.6
 45
0.0
 46
0.0
 47
0.1
 48
0.1
140
2.5
141
0.0
142
0.0
143
0.0393701
144
1.0
145
0.0
146
0.71
147
0.8
 71
     0
 72
     0
 73
     0
 74
     1
 75
     0
 76
     0
 77
     1
 78
     8
170
     0
171
     2
172
     0
173
     0
174
     0
175
     0
176
   256
177
   256
178
     4
  0
DIMSTYLE
  2
AM_ISO$6
 70
     0
  3

  4
"
  5

  6

  7

 40
1.0
 41
2.5
 42
1.0
 43
8.0
 44
0.6
 45
0.0
 46
0.0
 47
0.1
 48
0.1
140
2.5
141
0.0
142
0.0
143
0.0393701
144
1.0
145
0.0
146
0.71
147
0.8
 71
     0
 72
     0
 73
     0
 74
     0
 75
     0
 76
     0
 77
     0
 78
     8
170
     0
171
     2
172
     1
173
     0
174
     0
175
     0
176
   256
177
   256
178
     4
  0
DIMSTYLE
  2
AM_ISO$7
 70
     0
  3

  4
"
  5

  6

  7

 40
1.0
 41
2.5
 42
1.0
 43
8.0
 44
0.6
 45
0.0
 46
0.0
 47
0.1
 48
0.1
140
2.5
141
0.0
142
0.0
143
0.0393701
144
1.0
145
0.0
146
0.71
147
0.8
 71
     0
 72
     0
 73
     0
 74
     0
 75
     0
 76
     0
 77
     1
 78
     8
170
     0
171
     2
172
     1
173
     0
174
     0
175
     0
176
   256
177
   256
178
     4
  0
DIMSTYLE
  2
AM_ISO$SF
 70
     0
  3

  4
"
  5

  6

  7

 40
1.0
 41
2.5
 42
1.0
 43
10.0
 44
1.0
 45
0.0
 46
0.0
 47
0.1
 48
0.1
140
3.5
141
0.0
142
0.0
143
0.0393701
144
1.0
145
0.0
146
0.71
147
1.5
 71
     0
 72
     0
 73
     0
 74
     0
 75
     1
 76
     1
 77
     1
 78
     8
170
     0
171
     2
172
     1
173
     0
174
     0
175
     0
176
   256
177
   256
178
     2
  0
DIMSTYLE
  2
AM_ISO$SH
 70
     0
  3

  4
"
  5

  6

  7

 40
1.0
 41
2.5
 42
1.0
 43
10.0
 44
1.0
 45
0.0
 46
0.0
 47
0.1
 48
0.1
140
3.5
141
0.0
142
0.0
143
0.0393701
144
2.0
145
0.0
146
0.71
147
1.5
 71
     0
 72
     0
 73
     0
 74
     0
 75
     1
 76
     1
 77
     1
 78
     8
170
     0
171
     2
172
     1
173
     1
174
     0
175
     0
176
   256
177
   256
178
     2
  0
DIMSTYLE
  2
AM_JIS
 70
     0
  3

  4
"
  5

  6

  7

 40
1.0
 41
2.5
 42
1.0
 43
7.0
 44
1.0
 45
0.0
 46
0.0
 47
0.1
 48
0.1000000001
140
2.5
141
0.0
142
0.0
143
0.0393701
144
1.0
145
0.0
146
0.71
147
1.0
 71
     0
 72
     0
 73
     0
 74
     0
 75
     0
 76
     0
 77
     3
 78
     8
170
     0
171
     2
172
     1
173
     0
174
     0
175
     0
176
   256
177
   256
178
     4
  0
DIMSTYLE
  2
AM_JIS$3
 70
     0
  3

  4
"
  5

  6

  7

 40
1.0
 41
2.5
 42
1.0
 43
7.0
 44
1.0
 45
0.0
 46
0.0
 47
0.1
 48
0.1000000001
140
2.5
141
0.0
142
0.0
143
0.0393701
144
1.0
145
0.0
146
0.71
147
1.0
 71
     0
 72
     0
 73
     0
 74
     1
 75
     0
 76
     0
 77
     3
 78
     8
170
     0
171
     2
172
     0
173
     0
174
     0
175
     0
176
   256
177
   256
178
     4
  0
DIMSTYLE
  2
AM_JIS$4
 70
     0
  3

  4
"
  5

  6

  7

 40
1.0
 41
2.5
 42
1.0
 43
7.0
 44
1.0
 45
0.0
 46
0.0
 47
0.1
 48
0.1000000001
140
2.5
141
0.0
142
0.0
143
0.0393701
144
1.0
145
0.0
146
0.71
147
1.0
 71
     0
 72
     0
 73
     0
 74
     0
 75
     0
 76
     0
 77
     3
 78
     8
170
     0
171
     2
172
     0
173
     0
174
     0
175
     0
176
   256
177
   256
178
     4
  0
DIMSTYLE
  2
AM_JIS$6
 70
     0
  3

  4
"
  5

  6

  7

 40
1.0
 41
2.5
 42
1.0
 43
7.0
 44
1.0
 45
0.0
 46
0.0
 47
0.1
 48
0.1000000001
140
2.5
141
0.0
142
0.0
143
0.0393701
144
1.0
145
0.0
146
0.71
147
1.0
 71
     0
 72
     0
 73
     0
 74
     0
 75
     0
 76
     0
 77
     0
 78
     8
170
     0
171
     2
172
     1
173
     0
174
     0
175
     0
176
   256
177
   256
178
     4
  0
DIMSTYLE
  2
AM_JIS$7
 70
     0
  3

  4
"
  5

  6

  7

 40
1.0
 41
2.5
 42
1.0
 43
7.0
 44
1.0
 45
0.0
 46
0.0
 47
0.1
 48
0.1000000001
140
2.5
141
0.0
142
0.0
143
0.0393701
144
1.0
145
0.0
146
0.71
147
1.0
 71
     0
 72
     0
 73
     0
 74
     0
 75
     0
 76
     0
 77
     3
 78
     8
170
     0
171
     2
172
     1
173
     0
174
     0
175
     0
176
   256
177
   256
178
     4
  0
DIMSTYLE
  2
AM_JIS$SF
 70
     0
  3

  4
"
  5

  6

  7

 40
1.0
 41
2.5
 42
1.0
 43
10.0
 44
1.0
 45
0.0
 46
0.0
 47
0.1
 48
0.1
140
3.5
141
0.0
142
0.0
143
0.0393701
144
1.0
145
0.0
146
0.71
147
1.5
 71
     0
 72
     0
 73
     0
 74
     0
 75
     1
 76
     1
 77
     3
 78
     8
170
     0
171
     2
172
     1
173
     0
174
     0
175
     0
176
   256
177
   256
178
     4
  0
DIMSTYLE
  2
AM_JIS$SH
 70
     0
  3

  4
"
  5

  6

  7

 40
1.0
 41
2.5
 42
1.0
 43
10.0
 44
1.0
 45
0.0
 46
0.0
 47
0.1
 48
0.1
140
3.5
141
0.0
142
0.0
143
0.0393701
144
1.0
145
0.0
146
0.71
147
1.5
 71
     0
 72
     0
 73
     0
 74
     0
 75
     1
 76
     0
 77
     3
 78
     8
170
     0
171
     2
172
     1
173
     1
174
     0
175
     0
176
   256
177
   256
178
     4
  0
DIMSTYLE
  2
AM_ISO$0
 70
     0
  3

  4
"
  5

  6

  7

 40
1.0
 41
2.5
 42
1.0
 43
8.0
 44
0.6
 45
0.0
 46
0.0
 47
0.1
 48
0.1
140
2.5
141
0.0
142
0.0
143
0.0393701
144
1.0
145
0.0
146
0.71
147
0.8
 71
     0
 72
     0
 73
     0
 74
     0
 75
     0
 76
     0
 77
     1
 78
     8
170
     0
171
     2
172
     1
173
     0
174
     0
175
     0
176
   256
177
   256
178
     4
  0
DIMSTYLE
  2
AM_ISO$2
 70
     0
  3

  4
"
  5

  6

  7

 40
1.0
 41
2.5
 42
1.0
 43
8.0
 44
0.6
 45
0.0
 46
0.0
 47
0.1
 48
0.1
140
2.5
141
0.0
142
0.0
143
0.0393701
144
1.0
145
0.0
146
0.71
147
0.8
 71
     0
 72
     0
 73
     0
 74
     0
 75
     0
 76
     0
 77
     1
 78
     8
170
     0
171
     2
172
     1
173
     0
174
     0
175
     0
176
   256
177
   256
178
     4
  0
DIMSTYLE
  2
AM_ANSI
 70
     0
  3

  4
mm
  5

  6

  7

 40
1.0
 41
0.12
 42
0.05
 43
0.5
 44
0.1
 45
0.0
 46
0.0
 47
0.1
 48
0.1
140
0.12
141
0.0
142
0.0
143
25.399999999999999
144
1.0
145
0.0
146
0.71
147
0.06
 71
     0
 72
     0
 73
     1
 74
     1
 75
     0
 76
     0
 77
     0
 78
     7
170
     0
171
     2
172
     0
173
     0
174
     0
175
     0
176
   256
177
   256
178
     2
  0
DIMSTYLE
  2
AM_ANSI$3
 70
     0
  3

  4
mm
  5

  6

  7

 40
1.0
 41
0.12
 42
0.05
 43
0.5
 44
0.1
 45
0.0
 46
0.0
 47
0.1
 48
0.1
140
0.12
141
0.0
142
0.0
143
25.399999999999999
144
1.0
145
0.0
146
0.71
147
0.06
 71
     0
 72
     0
 73
     1
 74
     1
 75
     0
 76
     0
 77
     0
 78
     7
170
     0
171
     2
172
     0
173
     0
174
     0
175
     0
176
   256
177
   256
178
     2
  0
DIMSTYLE
  2
AM_ANSI$4
 70
     0
  3

  4
mm
  5

  6

  7

 40
1.0
 41
0.12
 42
0.05
 43
0.5
 44
0.1
 45
0.0
 46
0.0
 47
0.1
 48
0.1
140
0.12
141
0.0
142
0.0
143
25.399999999999999
144
1.0
145
0.0
146
0.71
147
0.06
 71
     0
 72
     0
 73
     1
 74
     1
 75
     0
 76
     0
 77
     0
 78
     7
170
     0
171
     2
172
     0
173
     0
174
     0
175
     0
176
   256
177
   256
178
     2
  0
DIMSTYLE
  2
AM_ANSI$7
 70
     0
  3

  4
mm
  5

  6

  7

 40
1.0
 41
0.12
 42
0.05
 43
0.5
 44
0.1
 45
0.0
 46
0.0
 47
0.1
 48
0.1
140
0.12
141
0.0
142
0.0
143
25.399999999999999
144
1.0
145
0.0
146
0.71
147
0.06
 71
     0
 72
     0
 73
     1
 74
     1
 75
     0
 76
     0
 77
     0
 78
     7
170
     0
171
     2
172
     0
173
     0
174
     0
175
     0
176
   256
177
   256
178
     2
  0
DIMSTYLE
  2
AM_ANSI$SF
 70
     0
  3

  4
mm
  5

  6

  7

 40
1.0
 41
0.12
 42
0.05
 43
0.5
 44
0.1
 45
0.0
 46
0.0
 47
0.1
 48
0.1
140
0.12
141
0.0
142
0.0
143
25.399999999999999
144
1.0
145
0.0
146
0.71
147
0.06
 71
     0
 72
     0
 73
     1
 74
     1
 75
     1
 76
     1
 77
     0
 78
     7
170
     0
171
     2
172
     0
173
     0
174
     0
175
     0
176
   256
177
   256
178
     2
  0
DIMSTYLE
  2
AM_ANSI$SH
 70
     0
  3

  4
mm
  5

  6
GENAXEH
  7

 40
1.0
 41
0.12
 42
0.05
 43
0.5
 44
0.1
 45
0.0
 46
0.0
 47
0.1
 48
0.1
140
0.12
141
0.0
142
0.0
143
25.399999999999999
144
1.0
145
0.0
146
0.71
147
0.06
 71
     0
 72
     0
 73
     1
 74
     1
 75
     1
 76
     1
 77
     0
 78
     7
170
     0
171
     2
172
     0
173
     1
174
     0
175
     0
176
   256
177
   256
178
     2
  0
ENDTAB
  0
ENDSEC
  0
SECTION
  2
BLOCKS
  0
BLOCK
  8
0
  2
$MODEL_SPACE
 70
     0
 10
0.0
 20
0.0
 30
0.0
  3
$MODEL_SPACE
  1

  0
ENDBLK
  5
5B68
  8
0
  0
BLOCK
 67
     1
  8
0
  2
$PAPER_SPACE
 70
     0
 10
0.0
 20
0.0
 30
0.0
  3
$PAPER_SPACE
  1

  0
ENDBLK
  5
5B64
 67
     1
  8
0
  0
BLOCK
  8
0
  2
GENAXEH
 70
     0
 10
0.0
 20
0.0
 30
0.0
  3
GENAXEH
  1

  0
LINE
  5
73
  8
0
 10
-1.0
 20
0.0
 30
0.0
 11
1.0
 21
0.0
 31
0.0
  0
ENDBLK
  5
75
  8
0
  0
BLOCK
  8
0
  2
_OPEN30
 70
     0
 10
0.0
 20
0.0
 30
0.0
  3
_OPEN30
  1

  0
LINE
  5
31A
  8
0
 62
     0
 10
-1.0
 20
0.26794919
 30
0.0
 11
0.0
 21
0.0
 31
0.0
  0
LINE
  5
31B
  8
0
 62
     0
 10
0.0
 20
0.0
 30
0.0
 11
-1.0
 21
-0.26794919
 31
0.0
  0
LINE
  5
31C
  8
0
 62
     0
 10
0.0
 20
0.0
 30
0.0
 11
-1.0
 21
0.0
 31
0.0
  0
ENDBLK
  5
31E
  8
0
  0
BLOCK
  8
0
  2
_NONE
 70
     0
 10
0.0
 20
0.0
 30
0.0
  3
_NONE
  1

  0
ENDBLK
  5
579
  8
0
  0
BLOCK
  8
0
  2
*U5
 70
     1
 10
0.0
 20
0.0
 30
0.0
  3
*U5
  1

  0
TEXT
  5
5933
  8
AM_0
 10
554.75434858977906
 20
501.84671335037831
 30
0.0
 40
10.0
  1
ＶＸ０１－００５～０５０ＢＦＷ
 41
0.8299999999999999
  0
ENDBLK
  5
5935
  8
0
  0
BLOCK
  8
0
  2
_ACMFILLEDHALF
 70
     0
 10
0.0
 20
0.0
 30
0.0
  3
_ACMFILLEDHALF
  1

  0
TRACE
  5
5C6B
  8
AM_0
 62
     0
 10
-0.8
 20
0.0
 30
0.0
 11
-1.0
 21
0.166666666
 31
0.0
 12
0.0
 22
0.0
 32
0.0
 13
0.0
 23
0.0
 33
0.0
  0
LINE
  5
5C6C
  8
AM_0
 62
     0
 10
-1.0
 20
0.0
 30
0.0
 11
-0.8
 21
0.0
 31
0.0
  0
ENDBLK
  5
5C6A
  8
0
  0
ENDSEC
  0
SECTION
  2
ENTITIES
  0
LINE
  5
1AB5
  8
AM_0
 10
301.2182904668968
 20
187.6858193604084
 30
0.0
 11
304.21829046689658
 21
187.6858193604084
 31
0.0
  0
LINE
  5
1AB7
  8
AM_0
 10
301.21829046689658
 20
264.13191836040852
 30
0.0
 11
304.21829046689658
 21
264.13191836040852
 31
0.0
  0
LINE
  5
1ABA
  8
AM_0
 10
199.4247204668965
 20
169.62565136040851
 30
0.0
 11
296.34446046689658
 21
169.62565136040851
 31
0.0
  0
LINE
  5
1ABB
  8
AM_0
 10
197.89622046689661
 20
189.1858193604084
 30
0.0
 11
205.21829046689669
 21
189.1858193604084
 31
0.0
  0
LINE
  5
1ABC
  8
AM_0
 10
205.21829046689669
 20
191.90890136040841
 30
0.0
 11
198.58370046689649
 21
191.90890136040841
 31
0.0
  0
LINE
  5
1ABD
  8
AM_0
 10
205.21829046689669
 20
189.9089033604084
 30
0.0
 11
198.58370046689649
 21
189.9089033604084
 31
0.0
  0
LINE
  5
1ABE
  8
AM_0
 10
205.21829046689669
 20
261.90891836040851
 30
0.0
 11
198.58370046689649
 21
261.90891836040851
 31
0.0
  0
LINE
  5
1ABF
  8
AM_0
 10
205.21829046689669
 20
259.90890536040848
 30
0.0
 11
198.58370046689649
 21
259.90890536040848
 31
0.0
  0
LINE
  5
1AC0
  8
AM_0
 10
197.89559046689661
 20
262.63191836040852
 30
0.0
 11
205.21829046689669
 21
262.63191836040852
 31
0.0
  0
LINE
  5
1AC1
  8
AM_0
 10
199.4247204668965
 20
282.19215836040848
 30
0.0
 11
296.34446046689658
 21
282.19215836040848
 31
0.0
  0
ARC
  5
1AC3
  8
AM_0
 10
197.89559046689661
 20
260.95400936040852
 30
0.0
 40
1.6779127499999991
 50
90.000003000000945
 51
270.0
  0
ARC
  5
1AC4
  8
AM_0
 10
198.7676604668965
 20
260.9089043604086
 30
0.0
 40
1.0000000199999981
 50
90.000003000000945
 51
270.0
  0
LINE
  5
1ACA
  8
AM_0
 10
196.2182904668966
 20
278.90889836040861
 30
0.0
 11
196.2182904668966
 21
212.5089033604084
 31
0.0
  0
LINE
  5
1ACC
  8
AM_0
 10
201.58376046689671
 20
189.25762736040861
 30
0.0
 11
196.21835046689651
 21
177.81315236040859
 31
0.0
  0
ARC
  5
1ACF
  8
AM_0
 10
233.2182804668966
 20
168.7792613604085
 30
0.0
 40
2.00000007
 50
270.0
 51
0.0
  0
ARC
  5
1AD0
  8
AM_0
 10
233.2182804668966
 20
166.0209623604085
 30
0.0
 40
2.00000007
 50
270.0
 51
0.0
  0
LINE
  5
1AD1
  8
AM_0
 10
235.2182904668966
 20
166.0209623604085
 30
0.0
 11
235.2182904668966
 21
169.62565136040851
 31
0.0
  0
ARC
  5
1AD2
  8
AM_0
 10
233.2182804668966
 20
166.93148336040841
 30
0.0
 40
2.00000007
 50
270.0
 51
0.0
  0
LINE
  5
1AD3
  8
AM_0
 10
196.2182904668966
 20
177.8131223604085
 30
0.0
 11
197.45951046689649
 21
171.25376636040841
 31
0.0
  0
LINE
  5
1AD4
  8
AM_0
 10
196.2182904668966
 20
176.46859436040859
 30
0.0
 11
197.49839046689661
 21
168.46342136040849
 31
0.0
  0
LINE
  5
1AD5
  8
AM_0
 10
196.21823046689639
 20
175.12406636040851
 30
0.0
 11
197.50931046689661
 21
166.6309463604085
 31
0.0
  0
ARC
  5
1AD6
  8
AM_0
 10
199.4247204668965
 20
171.62563736040849
 30
0.0
 40
2.00000007
 50
190.71569
 51
270.0
  0
ARC
  5
1AD7
  8
AM_0
 10
199.47329046689671
 20
168.7792613604085
 30
0.0
 40
2.00000007
 50
189.0849700000002
 51
270.0
  0
LINE
  5
1ADB
  8
AM_0
 10
188.71830046689641
 20
172.90891736040851
 30
0.0
 11
196.2182904668966
 21
172.90891736040851
 31
0.0
  0
ARC
  5
1ADC
  8
AM_0
 10
199.50797046689661
 20
166.0209623604085
 30
0.0
 40
2.00000007
 50
187.94404
 51
270.0
  0
LINE
  5
1ADD
  8
AM_0
 10
196.21823046689639
 20
175.12402136040851
 30
0.0
 11
197.52713046689661
 21
165.74457836040841
 31
0.0
  0
ARC
  5
1ADE
  8
AM_0
 10
199.4866704668967
 20
166.93148336040841
 30
0.0
 40
2.00000007
 50
188.6433899999999
 51
270.0
  0
LINE
  5
1AEA
  8
AM_0
 10
199.47329046689671
 20
166.77927836040851
 30
0.0
 11
233.2182804668966
 21
166.77927836040851
 31
0.0
  0
LINE
  5
1AEB
  8
AM_0
 10
199.4866704668967
 20
164.93148536040849
 30
0.0
 11
233.2182804668966
 21
164.93148536040849
 31
0.0
  0
LINE
  5
1AEC
  8
AM_0
 10
199.50797046689661
 20
164.0209763604085
 30
0.0
 11
233.2182804668966
 21
164.0209763604085
 31
0.0
  0
LINE
  5
1B0F
  8
AM_0
 10
197.89559046689661
 20
259.2760913604086
 30
0.0
 11
205.21829046689669
 21
259.2760913604086
 31
0.0
  0
ARC
  5
1B75
  8
AM_0
 10
197.89622046689661
 20
190.86373736040841
 30
0.0
 40
1.6779175200000001
 50
90.000003000000945
 51
270.0
  0
ARC
  5
1B76
  8
AM_0
 10
198.7676604668965
 20
190.90891736040851
 30
0.0
 40
1.0000000199999981
 50
90.000003000000945
 51
270.0
  0
LINE
  5
1B7D
  8
AM_0
 10
188.91641046689659
 20
182.71743536040839
 30
0.0
 11
195.14621046689669
 21
182.71743536040839
 31
0.0
  0
LINE
  5
1B80
  8
AM_0
 10
197.89622046689661
 20
192.54167036040849
 30
0.0
 11
205.21829046689669
 21
192.5416703604086
 31
0.0
  0
ARC
  5
1BA8
  8
AM_0
 10
233.2182804668966
 20
283.03854836040853
 30
0.0
 40
2.00000007
 50
0.0
 51
90.000003000000945
  0
ARC
  5
1BA9
  8
AM_0
 10
233.2182804668966
 20
284.88624836040862
 30
0.0
 40
2.00000007
 50
0.0
 51
90.000003000000945
  0
ARC
  5
1BAA
  8
AM_0
 10
233.2182804668966
 20
285.7967783604085
 30
0.0
 40
2.00000007
 50
0.0
 51
90.000003000000945
  0
LINE
  5
1BAB
  8
AM_0
 10
235.2182904668966
 20
285.7967783604085
 30
0.0
 11
235.2182904668966
 21
282.19215836040848
 31
0.0
  0
ARC
  5
1BAC
  8
AM_0
 10
199.4247204668965
 20
280.1921783604086
 30
0.0
 40
2.00000007
 50
90.000003000000945
 51
169.28430999999981
  0
ARC
  5
1BAD
  8
AM_0
 10
199.47329046689671
 20
283.03854836040853
 30
0.0
 40
2.00000007
 50
90.000003000000945
 51
170.91502999999969
  0
ARC
  5
1BAE
  8
AM_0
 10
199.4866704668967
 20
284.88624836040862
 30
0.0
 40
2.00000007
 50
90.000003000000945
 51
171.35660999999999
  0
ARC
  5
1BAF
  8
AM_0
 10
199.50797046689661
 20
285.7967783604085
 30
0.0
 40
2.00000007
 50
90.000003000000945
 51
172.05596
  0
LINE
  5
1BB0
  8
AM_0
 10
196.2182904668966
 20
275.34915836040841
 30
0.0
 11
197.4983304668965
 21
283.35429836040862
 31
0.0
  0
LINE
  5
1BB1
  8
AM_0
 10
196.2182904668966
 20
276.69375836040848
 30
0.0
 11
197.50931046689661
 21
285.18681836040861
 31
0.0
  0
LINE
  5
1BB2
  8
AM_0
 10
196.2182904668966
 20
276.69375836040848
 30
0.0
 11
197.52713046689661
 21
286.0731683604086
 31
0.0
  0
LINE
  5
1BB3
  8
AM_0
 10
196.2182904668966
 20
274.00461836040847
 30
0.0
 11
197.45957046689671
 21
280.56402836040837
 31
0.0
  0
LINE
  5
1BB7
  8
AM_0
 10
188.71830046689641
 20
278.90889836040861
 30
0.0
 11
196.2182904668966
 21
278.90889836040861
 31
0.0
  0
LINE
  5
1BCB
  8
AM_0
 10
188.91641046689659
 20
269.10030836040852
 30
0.0
 11
195.14621046689669
 21
269.10030836040852
 31
0.0
  0
LINE
  5
1BD9
  8
AM_0
 10
201.58370046689649
 20
262.56009836040857
 30
0.0
 11
196.2182904668966
 21
274.0045883604086
 31
0.0
  0
LINE
  5
1BDC
  8
AM_0
 10
199.47329046689671
 20
285.03855836040862
 30
0.0
 11
233.2182804668966
 21
285.03855836040862
 31
0.0
  0
LINE
  5
1BDD
  8
AM_0
 10
199.4866704668967
 20
286.88625836040848
 30
0.0
 11
233.2182804668966
 21
286.88625836040848
 31
0.0
  0
LINE
  5
1BDE
  8
AM_0
 10
199.50797046689661
 20
287.79678836040853
 30
0.0
 11
233.2182804668966
 21
287.79678836040853
 31
0.0
  0
ARC
  5
1BE6
  8
AM_0
 10
301.04039046689661
 20
260.95400936040852
 30
0.0
 40
1.6779127499999991
 50
276.08620038401921
 51
83.913799615980722
  0
LINE
  5
1BE8
  8
ﾁｭｳｼﾝｾﾝ
 10
253.21829046689669
 20
276.90890336040849
 30
0.0
 11
253.21829046689669
 21
174.9089033604084
 31
0.0
  0
LINE
  5
1BEB
  8
AM_0
 10
304.21829046689658
 20
281.9088983604085
 30
0.0
 11
304.21829046689658
 21
169.90891736040851
 31
0.0
  0
LINE
  5
1BF8
  8
AM_0
 10
302.71829046689658
 20
187.6858643604084
 30
0.0
 11
298.27628046689648
 21
171.10799936040851
 31
0.0
  0
LINE
  5
1BF9
  8
AM_0
 10
304.21829046689658
 20
169.90891736040851
 30
0.0
 11
312.21830046689649
 21
169.90891736040851
 31
0.0
  0
LINE
  5
1BFA
  8
AM_0
 10
298.75883046689648
 20
172.90891736040851
 30
0.0
 11
304.21829046689658
 21
172.90891736040851
 31
0.0
  0
ARC
  5
1BFB
  8
AM_0
 10
296.34446046689658
 20
171.62563736040849
 30
0.0
 40
2.00000007
 50
270.0
 51
345.0000000000004
  0
LINE
  5
1C09
  8
AM_0
 10
304.21829046689658
 20
257.84634236040853
 30
0.0
 11
312.21830046689649
 21
257.84634236040853
 31
0.0
  0
LINE
  5
1C0A
  8
AM_0
 10
304.21829046689658
 20
193.9714643604085
 30
0.0
 11
312.21830046689649
 21
193.9714643604085
 31
0.0
  0
LINE
  5
1C0B
  8
AM_0
 10
304.21829046689658
 20
179.90890136040841
 30
0.0
 11
312.21830046689649
 21
179.90890136040841
 31
0.0
  0
ARC
  5
1C15
  8
AM_0
 10
301.04039046689661
 20
190.86373736040841
 30
0.0
 40
1.6779127499999991
 50
276.08620038402319
 51
83.913799615976757
  0
LINE
  5
1C4A
  8
AM_0
 10
304.21829046689658
 20
281.9088983604085
 30
0.0
 11
312.21830046689649
 21
281.9088983604085
 31
0.0
  0
LINE
  5
1C4B
  8
AM_0
 10
304.21829046689658
 20
271.90890836040847
 30
0.0
 11
312.21830046689649
 21
271.90890836040847
 31
0.0
  0
LINE
  5
1C4C
  8
AM_0
 10
298.75883046689648
 20
278.90889836040861
 30
0.0
 11
304.21829046689658
 21
278.90889836040861
 31
0.0
  0
ARC
  5
1C4D
  8
AM_0
 10
296.34446046689658
 20
280.1921783604086
 30
0.0
 40
2.00000007
 50
14.999999999999609
 51
90.000003000000945
  0
ARC
  5
1C4E
  8
AM_0
 10
303.86930046689668
 20
265.63191836040852
 30
0.0
 40
1.500000029999998
 50
195.0000100000002
 51
270.0
  0
LINE
  5
1C4F
  8
AM_0
 10
302.42045046689663
 20
265.24371836040848
 30
0.0
 11
298.27628046689648
 21
280.70979836040851
 31
0.0
  0
LINE
  5
2376
  8
AM_0
 10
297.21829046689669
 20
179.9089033604084
 30
0.0
 11
209.2182904668966
 21
179.9089033604084
 31
0.0
  0
ARC
  5
2377
  8
AM_0
 10
227.28935827876211
 20
184.9089033604084
 30
0.0
 40
5.0
 50
225.0
 51
270.0
1001
GENIUS_GENOBJ-N-FIL_13
1002
{
1000
OWNER
1000
GEN
1002
}
1001
GENIUS_GENODEF_13
1002
{
1000
HIER
1070
     0
1002
}
1002
{
1000
MANEDIT
1070
     0
1002
}
1002
{
1000
NOSEL
1070
     0
1002
}
1002
{
1000
BEHIND
1070
     0
1002
}
1002
{
1000
OTHER
1070
     0
1002
}
1002
{
1000
REACTOR
1002
}
  0
LINE
  5
2378
  8
AM_0
 10
278.4903684055389
 20
184.9089033604084
 30
0.0
 11
227.94621252825431
 21
184.9089033604084
 31
0.0
  0
ARC
  5
2379
  8
AM_0
 10
278.4903684055389
 20
189.9089033604084
 30
0.0
 40
5.0
 50
270.0
 51
315.0
1001
GENIUS_GENOBJ-N-FIL_13
1002
{
1000
OWNER
1000
GEN
1002
}
1001
GENIUS_GENODEF_13
1002
{
1000
HIER
1070
     0
1002
}
1002
{
1000
MANEDIT
1070
     0
1002
}
1002
{
1000
NOSEL
1070
     0
1002
}
1002
{
1000
BEHIND
1070
     0
1002
}
1002
{
1000
OTHER
1070
     0
1002
}
1002
{
1000
REACTOR
1002
}
  0
ARC
  5
237A
  8
AM_0
 10
297.21829046689669
 20
183.9089033604084
 30
0.0
 40
4.0
 50
270.0
 51
0.0
1001
GENIUS_GENOBJ-N-FIL_13
1002
{
1000
OWNER
1000
GEN
1002
}
1001
GENIUS_GENODEF_13
1002
{
1000
HIER
1070
     0
1002
}
1002
{
1000
MANEDIT
1070
     0
1002
}
1002
{
1000
NOSEL
1070
     0
1002
}
1002
{
1000
BEHIND
1070
     0
1002
}
1002
{
1000
OTHER
1070
     0
1002
}
1002
{
1000
REACTOR
1002
}
  0
LINE
  5
237B
  8
AM_0
 10
297.21829046689652
 20
271.9089033604086
 30
0.0
 11
209.2182904668966
 21
271.9089033604086
 31
0.0
  0
ARC
  5
237C
  8
AM_0
 10
279.1472226550311
 20
266.90890336040871
 30
0.0
 40
5.0
 50
45.0
 51
90.0
1001
GENIUS_GENOBJ-N-FIL_13
1002
{
1000
OWNER
1000
GEN
1002
}
1001
GENIUS_GENODEF_13
1002
{
1000
HIER
1070
     0
1002
}
1002
{
1000
MANEDIT
1070
     0
1002
}
1002
{
1000
NOSEL
1070
     0
1002
}
1002
{
1000
BEHIND
1070
     0
1002
}
1002
{
1000
OTHER
1070
     0
1002
}
1002
{
1000
REACTOR
1002
}
  0
ARC
  5
237D
  8
AM_0
 10
227.28935827876231
 20
266.90890336040871
 30
0.0
 40
5.0
 50
90.0
 51
135.0
1001
GENIUS_GENODEF_13
1002
{
1000
HIER
1070
     0
1002
}
1002
{
1000
MANEDIT
1070
     0
1002
}
1002
{
1000
NOSEL
1070
     0
1002
}
1002
{
1000
BEHIND
1070
     0
1002
}
1002
{
1000
OTHER
1070
     0
1002
}
1002
{
1000
REACTOR
1002
}
1001
GENIUS_GENOBJ-N-FIL_13
1002
{
1000
OWNER
1000
GEN
1002
}
  0
LINE
  5
237E
  8
AM_0
 10
278.49036840553867
 20
266.90890336040871
 30
0.0
 11
227.94621252825451
 21
266.90890336040871
 31
0.0
  0
ARC
  5
237F
  8
AM_0
 10
227.94621252825451
 20
261.90890336040871
 30
0.0
 40
5.0
 50
90.0
 51
135.0
1001
GENIUS_GENODEF_13
1002
{
1000
HIER
1070
     0
1002
}
1002
{
1000
MANEDIT
1070
     0
1002
}
1002
{
1000
NOSEL
1070
     0
1002
}
1002
{
1000
BEHIND
1070
     0
1002
}
1002
{
1000
OTHER
1070
     0
1002
}
1002
{
1000
REACTOR
1002
}
1001
GENIUS_GENOBJ-N-FIL_13
1002
{
1000
OWNER
1000
GEN
1002
}
  0
ARC
  5
2380
  8
AM_0
 10
209.2182904668966
 20
267.9089033604086
 30
0.0
 40
4.0
 50
90.0
 51
180.0
1001
GENIUS_GENODEF_13
1002
{
1000
HIER
1070
     0
1002
}
1002
{
1000
MANEDIT
1070
     0
1002
}
1002
{
1000
NOSEL
1070
     0
1002
}
1002
{
1000
BEHIND
1070
     0
1002
}
1002
{
1000
OTHER
1070
     0
1002
}
1002
{
1000
REACTOR
1002
}
1001
GENIUS_GENOBJ-N-FIL_13
1002
{
1000
OWNER
1000
GEN
1002
}
  0
LINE
  5
2382
  8
AM_0
 10
205.21829046689669
 20
267.9089033604086
 30
0.0
 11
205.21829046689669
 21
183.9089033604084
 31
0.0
  0
ARC
  5
2383
  8
AM_0
 10
210.2182904668966
 20
201.97997117227371
 30
0.0
 40
5.0
 50
180.0
 51
225.0
1001
GENIUS_GENOBJ-N-FIL_13
1002
{
1000
OWNER
1000
GEN
1002
}
1001
GENIUS_GENODEF_13
1002
{
1000
HIER
1070
     0
1002
}
1002
{
1000
MANEDIT
1070
     0
1002
}
1002
{
1000
NOSEL
1070
     0
1002
}
1002
{
1000
BEHIND
1070
     0
1002
}
1002
{
1000
OTHER
1070
     0
1002
}
1002
{
1000
REACTOR
1002
}
  0
ARC
  5
2384
  8
AM_0
 10
210.2182904668966
 20
249.83783554854341
 30
0.0
 40
5.0
 50
135.0
 51
180.0
1001
GENIUS_GENOBJ-N-FIL_13
1002
{
1000
OWNER
1000
GEN
1002
}
1001
GENIUS_GENODEF_13
1002
{
1000
HIER
1070
     0
1002
}
1002
{
1000
MANEDIT
1070
     0
1002
}
1002
{
1000
NOSEL
1070
     0
1002
}
1002
{
1000
BEHIND
1070
     0
1002
}
1002
{
1000
OTHER
1070
     0
1002
}
1002
{
1000
REACTOR
1002
}
  0
LINE
  5
2385
  8
AM_0
 10
210.2182904668966
 20
249.1809812990507
 30
0.0
 11
210.2182904668966
 21
202.63682542176619
 31
0.0
  0
ARC
  5
2386
  8
AM_0
 10
215.2182904668966
 20
202.63682542176619
 30
0.0
 40
5.0
 50
180.0
 51
225.0
1001
GENIUS_GENOBJ-N-FIL_13
1002
{
1000
OWNER
1000
GEN
1002
}
1001
GENIUS_GENODEF_13
1002
{
1000
HIER
1070
     0
1002
}
1002
{
1000
MANEDIT
1070
     0
1002
}
1002
{
1000
NOSEL
1070
     0
1002
}
1002
{
1000
BEHIND
1070
     0
1002
}
1002
{
1000
OTHER
1070
     0
1002
}
1002
{
1000
REACTOR
1002
}
  0
ARC
  5
2387
  8
AM_0
 10
209.2182904668966
 20
183.9089033604084
 30
0.0
 40
4.0
 50
180.0
 51
270.0
1001
GENIUS_GENODEF_13
1002
{
1000
HIER
1070
     0
1002
}
1002
{
1000
MANEDIT
1070
     0
1002
}
1002
{
1000
NOSEL
1070
     0
1002
}
1002
{
1000
BEHIND
1070
     0
1002
}
1002
{
1000
OTHER
1070
     0
1002
}
1002
{
1000
REACTOR
1002
}
1001
GENIUS_GENOBJ-N-FIL_13
1002
{
1000
OWNER
1000
GEN
1002
}
  0
LINE
  5
2388
  8
AM_0
 10
301.21829046689658
 20
267.9089033604086
 30
0.0
 11
301.2182904668968
 21
183.9089033604084
 31
0.0
  0
ARC
  5
2389
  8
AM_0
 10
296.21829046689669
 20
249.8378355485431
 30
0.0
 40
5.0
 50
0.0
 51
45.0
1001
GENIUS_GENOBJ-N-FIL_13
1002
{
1000
OWNER
1000
GEN
1002
}
1001
GENIUS_GENODEF_13
1002
{
1000
HIER
1070
     0
1002
}
1002
{
1000
MANEDIT
1070
     0
1002
}
1002
{
1000
NOSEL
1070
     0
1002
}
1002
{
1000
BEHIND
1070
     0
1002
}
1002
{
1000
OTHER
1070
     0
1002
}
1002
{
1000
REACTOR
1002
}
  0
ARC
  5
238A
  8
AM_0
 10
296.21829046689669
 20
201.97997117227399
 30
0.0
 40
5.0
 50
315.0
 51
0.0
1001
GENIUS_GENOBJ-N-FIL_13
1002
{
1000
OWNER
1000
GEN
1002
}
1001
GENIUS_GENODEF_13
1002
{
1000
HIER
1070
     0
1002
}
1002
{
1000
MANEDIT
1070
     0
1002
}
1002
{
1000
NOSEL
1070
     0
1002
}
1002
{
1000
BEHIND
1070
     0
1002
}
1002
{
1000
OTHER
1070
     0
1002
}
1002
{
1000
REACTOR
1002
}
  0
LINE
  5
238B
  8
AM_0
 10
282.68275656096381
 20
270.44443726634131
 30
0.0
 11
299.7538243728294
 21
253.37336945447589
 31
0.0
  0
LINE
  5
238C
  8
AM_0
 10
282.0259023114715
 20
265.44443726634131
 30
0.0
 11
294.75382437282917
 21
252.71651520498369
 31
0.0
  0
ARC
  5
238D
  8
AM_0
 10
278.49036840553867
 20
261.90890336040871
 30
0.0
 40
5.0
 50
45.0
 51
90.0
1001
GENIUS_GENOBJ-N-FIL_13
1002
{
1000
OWNER
1000
GEN
1002
}
1001
GENIUS_GENODEF_13
1002
{
1000
HIER
1070
     0
1002
}
1002
{
1000
MANEDIT
1070
     0
1002
}
1002
{
1000
NOSEL
1070
     0
1002
}
1002
{
1000
BEHIND
1070
     0
1002
}
1002
{
1000
OTHER
1070
     0
1002
}
1002
{
1000
REACTOR
1002
}
  0
LINE
  5
238E
  8
AM_0
 10
296.21829046689652
 20
249.1809812990509
 30
0.0
 11
296.21829046689669
 21
202.63682542176619
 31
0.0
  0
ARC
  5
238F
  8
AM_0
 10
291.21829046689652
 20
249.1809812990509
 30
0.0
 40
5.0
 50
0.0
 51
45.0
1001
GENIUS_GENODEF_13
1002
{
1000
HIER
1070
     0
1002
}
1002
{
1000
MANEDIT
1070
     0
1002
}
1002
{
1000
NOSEL
1070
     0
1002
}
1002
{
1000
BEHIND
1070
     0
1002
}
1002
{
1000
OTHER
1070
     0
1002
}
1002
{
1000
REACTOR
1002
}
1001
GENIUS_GENOBJ-N-FIL_13
1002
{
1000
OWNER
1000
GEN
1002
}
  0
ARC
  5
2390
  8
AM_0
 10
297.21829046689652
 20
267.9089033604086
 30
0.0
 40
4.0
 50
0.0
 51
90.0
1001
GENIUS_GENODEF_13
1002
{
1000
HIER
1070
     0
1002
}
1002
{
1000
MANEDIT
1070
     0
1002
}
1002
{
1000
NOSEL
1070
     0
1002
}
1002
{
1000
BEHIND
1070
     0
1002
}
1002
{
1000
OTHER
1070
     0
1002
}
1002
{
1000
REACTOR
1002
}
1001
GENIUS_GENOBJ-N-FIL_13
1002
{
1000
OWNER
1000
GEN
1002
}
  0
LINE
  5
2392
  8
ﾁｭｳｼﾝｾﾝ1
 10
296.218290466898
 20
260.9089033604082
 30
0.0
 11
296.21829046689879
 21
272.90890336040809
 31
0.0
  0
LINE
  5
2393
  8
ﾁｭｳｼﾝｾﾝ1
 10
302.2182904668984
 20
266.90890336040798
 30
0.0
 11
290.2182904668984
 21
266.90890336040871
 31
0.0
  0
LINE
  5
2398
  8
AM_0
 10
201.7182904668966
 20
254.40890336040869
 30
0.0
 11
204.21829046689649
 21
254.4089033604088
 31
0.0
  0
LINE
  5
2399
  8
AM_0
 10
204.2182904668966
 20
227.40890336040869
 30
0.0
 11
201.7182904668966
 21
227.40890336040869
 31
0.0
  0
LINE
  5
239A
  8
AM_0
 10
190.81961937055061
 20
230.4089033604086
 30
0.0
 11
190.81961937055061
 21
251.4089033604086
 31
0.0
  0
LINE
  5
239B
  8
AM_0
 10
175.81961937055061
 20
248.9405284144236
 30
0.0
 11
175.81961937055061
 21
232.8772783063927
 31
0.0
  0
LINE
  5
239C
  8
AM_0
 10
188.8196193705505
 20
228.90890336040869
 30
0.0
 11
188.8196193705505
 21
252.9089033604086
 31
0.0
  0
LINE
  5
239D
  8
AM_0
 10
179.31961937055061
 20
240.9089033604086
 30
0.0
 11
179.8196193705505
 21
240.4089033604086
 31
0.0
  0
LINE
  5
239E
  8
AM_0
 10
186.31961937055061
 20
252.6089033604085
 30
0.0
 11
186.31961937055061
 21
229.20890336040861
 31
0.0
  0
LINE
  5
239F
  8
AM_0
 10
196.2182904668966
 20
252.40890336040869
 30
0.0
 11
196.2182904668966
 21
229.40890336040869
 31
0.0
  0
LINE
  5
23A0
  8
AM_0
 10
190.31961937055061
 20
240.20890336040671
 30
0.0
 11
190.31961937055061
 21
241.60890336040961
 31
0.0
  0
LINE
  5
23A1
  8
AM_0
 10
192.41925509712161
 20
231.80890336040861
 30
0.0
 11
191.6692550971226
 21
250.00890336040871
 31
0.0
  0
LINE
  5
23A2
  8
AM_0
 10
191.4682904668966
 20
231.80890336040861
 30
0.0
 11
190.81961937055061
 21
247.54998863172469
 31
0.0
  0
LINE
  5
23A3
  8
AM_0
 10
192.21698305746861
 20
231.0932446480447
 30
0.0
 11
191.46972301406061
 21
250.7212751215757
 31
0.0
  0
LINE
  5
23A4
  8
AM_0
 10
191.6678225499586
 20
231.09653159924051
 30
0.0
 11
190.9192550971226
 21
250.7589033604086
 31
0.0
  0
LINE
  5
23A5
  8
AM_0
 10
188.8196193705505
 20
252.9089033604086
 30
0.0
 11
186.6196193705504
 21
252.9089033604086
 31
0.0
  0
ARC
  5
23A6
  8
AM_0
 10
200.71829046689669
 20
253.4089033604086
 30
0.0
 40
0.5
 50
269.99999999998693
 51
0.0
  0
ARC
  5
23A7
  8
AM_0
 10
201.71829046689669
 20
253.90890336040869
 30
0.0
 40
0.5
 50
90.0
 51
180.0
  0
LINE
  5
23A8
  8
AM_0
 10
201.2182904668966
 20
253.4089033604086
 30
0.0
 11
201.2182904668966
 21
253.90890336040869
 31
0.0
  0
LINE
  5
23A9
  8
AM_0
 10
192.2182904668966
 20
250.00890336040871
 30
0.0
 11
195.7182904668966
 21
250.0089033604086
 31
0.0
  0
LINE
  5
23AA
  8
AM_0
 10
201.2182904668966
 20
251.7649746818156
 30
0.0
 11
201.2182904668966
 21
242.05283203900061
 31
0.0
  0
LINE
  5
23AB
  8
AM_0
 10
196.7182904668966
 20
252.9089033604086
 30
0.0
 11
200.71829046689649
 21
252.9089033604086
 31
0.0
  0
LINE
  5
23AC
  8
AM_0
 10
200.7182904668966
 20
252.2649746818156
 30
0.0
 11
196.2182904668966
 21
252.2649746818156
 31
0.0
  0
ARC
  5
23AD
  8
AM_0
 10
200.71829046689669
 20
251.7649746818156
 30
0.0
 40
0.5
 50
0.0
 51
90.0
  0
ARC
  5
23AE
  8
AM_0
 10
195.7182904668966
 20
250.5089033604086
 30
0.0
 40
0.5
 50
270.0
 51
0.0
  0
ARC
  5
23AF
  8
AM_0
 10
196.7182904668966
 20
252.40890336040869
 30
0.0
 40
0.5
 50
90.0
 51
180.0
  0
LINE
  5
23B0
  8
AM_0
 10
200.7182904668966
 20
241.55283203900061
 30
0.0
 11
196.2182904668966
 21
241.55283203900061
 31
0.0
  0
ARC
  5
23B1
  8
AM_0
 10
200.7182904668966
 20
242.05283203900061
 30
0.0
 40
0.5
 50
270.0
 51
0.0
  0
LINE
  5
23B2
  8
AM_0
 10
190.31961937055061
 20
247.05407411270059
 30
0.0
 11
190.31961937055061
 21
245.88183092626761
 31
0.0
  0
LINE
  5
23B3
  8
AM_0
 10
191.7459875255476
 20
250.00890336040871
 30
0.0
 11
192.2182904668966
 21
250.00890336040871
 31
0.0
  0
LINE
  5
23B4
  8
AM_0
 10
191.6493950310084
 20
250.0830211271452
 30
0.0
 11
191.6692550971226
 21
250.00890336040871
 31
0.0
  0
ARC
  5
23B5
  8
AM_0
 10
191.7459875255476
 20
250.10890336040859
 30
0.0
 40
0.1000000000000346
 50
195.00019500644461
 51
270.0
  0
ARC
  5
23B6
  8
AM_0
 10
190.01961937055071
 20
250.1957363409166
 30
0.0
 40
0.3000000000000043
 50
270.0
 51
0.0
  0
LINE
  5
23B7
  8
AM_0
 10
188.8196193705505
 20
252.30890336040861
 30
0.0
 11
190.03957507370771
 21
252.22757298019769
 31
0.0
  0
LINE
  5
23B8
  8
AM_0
 10
188.8196193705505
 20
251.15265132456861
 30
0.0
 11
190.0196193705506
 21
251.15265132456861
 31
0.0
  0
LINE
  5
23B9
  8
AM_0
 10
190.31961937055061
 20
251.90890336040869
 30
0.0
 11
188.8196193705505
 21
251.90890336040869
 31
0.0
  0
ARC
  5
23BA
  8
AM_0
 10
190.31961937055061
 20
251.4089033604086
 30
0.0
 40
0.5
 50
0.0
 51
90.0
  0
LINE
  5
23BB
  8
AM_0
 10
190.31961937055061
 20
251.9282374328406
 30
0.0
 11
190.31961937055061
 21
251.90890336040869
 31
0.0
  0
ARC
  5
23BE
  8
AM_0
 10
190.01961937055071
 20
251.9282374328406
 30
0.0
 40
0.3000000000000007
 50
0.0
 51
86.185925165715304
  0
LINE
  5
23BF
  8
AM_0
 10
191.3915580384716
 20
250.7589033604086
 30
0.0
 11
191.46829046689751
 21
250.7589033604086
 31
0.0
  0
LINE
  5
23C0
  8
AM_0
 10
191.46829046689751
 20
250.7589033604086
 30
0.0
 11
191.48815053301061
 21
250.6847855936721
 31
0.0
  0
LINE
  5
23C1
  8
AM_0
 10
190.8993950310084
 20
250.6847855936721
 30
0.0
 11
190.9192550971226
 21
250.7589033604086
 31
0.0
  0
LINE
  5
23C2
  8
AM_0
 10
190.9192550971226
 20
250.7589033604086
 30
0.0
 11
190.9959875255476
 21
250.7589033604086
 31
0.0
  0
LINE
  5
23C3
  8
AM_0
 10
191.48815053301061
 20
250.6847855936721
 30
0.0
 11
191.6493950310084
 21
250.0830211271452
 31
0.0
  0
LINE
  5
23C4
  8
AM_0
 10
190.9959875255476
 20
250.7589033604086
 30
0.0
 11
191.3915580384716
 21
250.7589033604086
 31
0.0
  0
LINE
  5
23C5
  8
AM_0
 10
190.81961937055161
 20
250.38706282884769
 30
0.0
 11
190.8993950310084
 21
250.6847855936721
 31
0.0
  0
ARC
  5
23C6
  8
AM_0
 10
191.3915580384716
 20
250.65890336040869
 30
0.0
 40
0.0999999999999866
 50
15.00019500656942
 51
90.0
  0
ARC
  5
23C7
  8
AM_0
 10
190.9959875255476
 20
250.65890336040869
 30
0.0
 40
0.1000000000000014
 50
90.0
 51
164.99980499343059
  0
LINE
  5
23C8
  8
AM_0
 10
190.31961937055061
 20
250.8526513245686
 30
0.0
 11
190.31961937055061
 21
250.1957363409166
 31
0.0
  0
ARC
  5
23C9
  8
AM_0
 10
190.01961937055071
 20
250.8526513245686
 30
0.0
 40
0.3000000000000007
 50
0.0
 51
90.0
  0
LINE
  5
23CA
  8
AM_0
 10
188.8196193705505
 20
247.35407411270069
 30
0.0
 11
190.0196193705506
 21
247.35407411270069
 31
0.0
  0
LINE
  5
23CB
  8
AM_0
 10
190.0196193705506
 20
249.8957363409167
 30
0.0
 11
188.8196193705505
 21
249.8957363409167
 31
0.0
  0
LINE
  5
23CC
  8
AM_0
 10
191.6692550971226
 20
250.00890336040871
 30
0.0
 11
191.7459875255476
 21
250.00890336040871
 31
0.0
  0
ARC
  5
23CD
  8
AM_0
 10
190.0196193705506
 20
247.05407411270059
 30
0.0
 40
0.3000000000000007
 50
0.0
 51
90.0
  0
LINE
  5
23CE
  8
AM_0
 10
190.0196193705506
 20
245.58183092626771
 30
0.0
 11
188.8196193705505
 21
245.58183092626771
 31
0.0
  0
ARC
  5
23CF
  8
AM_0
 10
190.0196193705506
 20
245.88183092626761
 30
0.0
 40
0.3000000000000043
 50
270.0
 51
0.0
  0
LINE
  5
23D0
  8
AM_0
 10
190.0196193705506
 20
241.90890336040971
 30
0.0
 11
188.8196193705505
 21
241.90890336040971
 31
0.0
  0
ARC
  5
23D1
  8
AM_0
 10
190.0196193705506
 20
241.60890336040961
 30
0.0
 40
0.3000000000000007
 50
0.0
 51
90.0
  0
LINE
  5
23D2
  8
AM_0
 10
179.8196193705505
 20
251.04218318905561
 30
0.0
 11
186.31961937055061
 21
251.04218318905561
 31
0.0
  0
LINE
  5
23D3
  8
AM_0
 10
179.8196193705505
 20
251.54218318905549
 30
0.0
 11
186.31961937055061
 21
251.54218318905549
 31
0.0
  0
LINE
  5
23D4
  8
AM_0
 10
186.31961937055061
 20
241.40890336040869
 30
0.0
 11
179.8196193705505
 21
241.40890336040869
 31
0.0
  0
LINE
  5
23D5
  8
AM_0
 10
179.31961937055061
 20
241.90890336040869
 30
0.0
 11
186.31961937055061
 21
241.90890336040869
 31
0.0
  0
LINE
  5
23D6
  8
AM_0
 10
186.0196193705506
 20
251.90890336040869
 30
0.0
 11
179.18166930573261
 21
251.90890336040869
 31
0.0
  0
LINE
  5
23D7
  8
AM_0
 10
186.31961937055061
 20
242.2555914289496
 30
0.0
 11
179.8196193705505
 21
242.2555914289496
 31
0.0
  0
LINE
  5
23D8
  8
AM_0
 10
186.31961937055061
 20
250.56221529186769
 30
0.0
 11
179.8196193705505
 21
250.56221529186769
 31
0.0
  0
ARC
  5
23D9
  8
AM_0
 10
186.6196193705504
 20
252.6089033604085
 30
0.0
 40
0.2999999999999971
 50
90.0
 51
180.0
  0
ARC
  5
23DA
  8
AM_0
 10
186.01961937055071
 20
252.20890336040861
 30
0.0
 40
0.2999999999999971
 50
270.0
 51
0.0
  0
ARC
  5
23DB
  8
AM_0
 10
187.94461937055061
 20
246.40890336040869
 30
0.0
 40
9.124999999999984
 50
152.92493329272219
 51
207.07506670727781
  0
LINE
  5
23DC
  8
AM_0
 10
178.54148490606821
 20
251.6771246400061
 30
0.0
 11
176.17943497088609
 21
249.70874969402109
 31
0.0
  0
LINE
  5
23DD
  8
AM_0
 10
179.31961937055061
 20
251.3304707769006
 30
0.0
 11
179.8196193705505
 21
251.90890336040869
 31
0.0
  0
ARC
  5
23DE
  8
AM_0
 10
179.18166930573261
 20
250.9089033604086
 30
0.0
 40
1.0
 50
90.0
 51
129.805571092256
  0
LINE
  5
23DF
  8
AM_0
 10
179.8196193705505
 20
251.54218318905549
 30
0.0
 11
179.31961937055061
 21
251.3304707769006
 31
0.0
  0
LINE
  5
23E0
  8
AM_0
 10
179.31961937055061
 20
250.86819550392971
 30
0.0
 11
179.8196193705505
 21
251.54218318905549
 31
0.0
  0
LINE
  5
23E1
  8
AM_0
 10
179.8196193705505
 20
251.04218318905561
 30
0.0
 11
179.31961937055061
 21
250.86819550392971
 31
0.0
  0
LINE
  5
23E2
  8
AM_0
 10
179.31961937055061
 20
250.3304707769006
 30
0.0
 11
179.8196193705505
 21
251.04218318905561
 31
0.0
  0
LINE
  5
23E3
  8
AM_0
 10
179.8196193705505
 20
250.56221529186769
 30
0.0
 11
179.31961937055061
 21
250.3304707769006
 31
0.0
  0
ARC
  5
23E4
  8
AM_0
 10
176.81961937055061
 20
248.9405284144236
 30
0.0
 40
1.0000000000000291
 50
129.80557109226311
 51
180.0
  0
LINE
  5
23E5
  8
AM_0
 10
179.8196193705505
 20
241.40890336040869
 30
0.0
 11
179.31961937055061
 21
240.9089033604086
 31
0.0
  0
LINE
  5
23E6
  8
AM_0
 10
179.31961937055061
 20
241.90890336040869
 30
0.0
 11
179.8196193705505
 21
241.40890336040869
 31
0.0
  0
LINE
  5
23E7
  8
AM_0
 10
179.8196193705505
 20
242.2555914289496
 30
0.0
 11
179.31961937055061
 21
241.90890336040869
 31
0.0
  0
LINE
  5
23E8
  8
AM_0
 10
186.6196193705504
 20
228.90890336040869
 30
0.0
 11
188.8196193705505
 21
228.90890336040869
 31
0.0
  0
ARC
  5
23E9
  8
AM_0
 10
200.7182904668966
 20
228.4089033604086
 30
0.0
 40
0.5
 50
0.0
 51
90.000000000009777
  0
LINE
  5
23EA
  8
AM_0
 10
195.7182904668966
 20
231.80890336040861
 30
0.0
 11
192.4959875255476
 21
231.80890336040861
 31
0.0
  0
LINE
  5
23EB
  8
AM_0
 10
201.2182904668966
 20
239.7649746818156
 30
0.0
 11
201.2182904668966
 21
230.05283203900061
 31
0.0
  0
LINE
  5
23EC
  8
AM_0
 10
196.2182904668966
 20
240.2649746818156
 30
0.0
 11
200.7182904668966
 21
240.2649746818156
 31
0.0
  0
ARC
  5
23ED
  8
AM_0
 10
200.7182904668966
 20
239.7649746818156
 30
0.0
 40
0.5
 50
0.0
 51
90.0
  0
LINE
  5
23EE
  8
AM_0
 10
196.2182904668966
 20
229.55283203900061
 30
0.0
 11
200.7182904668966
 21
229.55283203900061
 31
0.0
  0
LINE
  5
23EF
  8
AM_0
 10
200.71829046689649
 20
228.90890336040869
 30
0.0
 11
196.7182904668966
 21
228.90890336040869
 31
0.0
  0
ARC
  5
23F0
  8
AM_0
 10
200.7182904668966
 20
230.05283203900061
 30
0.0
 40
0.5
 50
270.0
 51
0.0
  0
ARC
  5
23F1
  8
AM_0
 10
195.7182904668966
 20
231.30890336040861
 30
0.0
 40
0.5
 50
0.0
 51
90.0
  0
ARC
  5
23F2
  8
AM_0
 10
196.7182904668966
 20
229.40890336040869
 30
0.0
 40
0.5
 50
180.0
 51
270.0
  0
ARC
  5
23F3
  8
AM_0
 10
190.0196193705506
 20
234.76373260811661
 30
0.0
 40
0.3000000000000114
 50
270.0
 51
0.0
  0
LINE
  5
23F4
  8
AM_0
 10
188.8196193705505
 20
239.90890336040661
 30
0.0
 11
190.0196193705506
 21
239.90890336040661
 31
0.0
  0
ARC
  5
23F5
  8
AM_0
 10
190.0196193705506
 20
240.20890336040659
 30
0.0
 40
0.2999999999999971
 50
270.0
 51
0.0
  0
LINE
  5
23F6
  8
AM_0
 10
188.8196193705505
 20
236.2359757945496
 30
0.0
 11
190.0196193705506
 21
236.2359757945496
 31
0.0
  0
ARC
  5
23F7
  8
AM_0
 10
190.0196193705506
 20
235.93597579454959
 30
0.0
 40
0.3000000000000007
 50
0.0
 51
90.0
  0
LINE
  5
23F8
  8
AM_0
 10
190.31961937055061
 20
235.93597579454971
 30
0.0
 11
190.31961937055061
 21
234.7637326081167
 31
0.0
  0
LINE
  5
23F9
  8
AM_0
 10
191.7459875255476
 20
231.05890336040861
 30
0.0
 11
192.1415580384716
 21
231.05890336040861
 31
0.0
  0
LINE
  5
23FA
  8
AM_0
 10
191.7459875255476
 20
231.05890336040861
 30
0.0
 11
192.1415580384716
 21
231.05890336040861
 31
0.0
  0
LINE
  5
23FB
  8
AM_0
 10
192.2381505330107
 20
231.13302112714521
 30
0.0
 11
192.3993950310084
 21
231.7347855936722
 31
0.0
  0
LINE
  5
23FC
  8
AM_0
 10
192.2381505330107
 20
231.13302112714521
 30
0.0
 11
192.3993950310084
 21
231.7347855936722
 31
0.0
  0
ARC
  5
23FD
  8
AM_0
 10
192.4959875255476
 20
231.70890336040861
 30
0.0
 40
0.0999999999999943
 50
90.0
 51
164.9998049934847
  0
ARC
  5
23FE
  8
AM_0
 10
192.1415580384716
 20
231.15890336040869
 30
0.0
 40
0.0999999999999943
 50
270.0
 51
344.99980499349448
  0
LINE
  5
23FF
  8
AM_0
 10
190.8187727820094
 20
231.43390336040841
 30
0.0
 11
190.8993950310084
 21
231.7347855936722
 31
0.0
  0
LINE
  5
2400
  8
AM_0
 10
191.4710011191026
 20
231.7696388273105
 30
0.0
 11
191.6493950310084
 21
231.13302112714521
 31
0.0
  0
LINE
  5
2401
  8
AM_0
 10
191.48815053301061
 20
231.7347855936722
 30
0.0
 11
191.6493950310084
 21
231.13302112714521
 31
0.0
  0
LINE
  5
2402
  8
AM_0
 10
190.31961937055061
 20
231.6220703798997
 30
0.0
 11
190.31961937055061
 21
230.9651553962486
 31
0.0
  0
LINE
  5
2403
  8
AM_0
 10
190.81961937055061
 20
231.43706282884651
 30
0.0
 11
190.8993950310084
 21
231.7347855936722
 31
0.0
  0
LINE
  5
2404
  8
AM_0
 10
188.8196193705505
 20
231.92207037989959
 30
0.0
 11
190.0196193705506
 21
231.92207037989959
 31
0.0
  0
LINE
  5
2405
  8
AM_0
 10
190.0196193705506
 20
234.4637326081166
 30
0.0
 11
188.8196193705505
 21
234.46373260811561
 31
0.0
  0
LINE
  5
2406
  8
AM_0
 10
191.42419030398639
 20
231.80890336040861
 30
0.0
 11
191.4710011191026
 21
231.7696388273105
 31
0.0
  0
LINE
  5
2407
  8
AM_0
 10
190.9959875255476
 20
231.80890336040861
 30
0.0
 11
191.42419030398639
 21
231.80890336040861
 31
0.0
  0
LINE
  5
2408
  8
AM_0
 10
190.9959875255476
 20
231.80890336040861
 30
0.0
 11
191.3915580384716
 21
231.80890336040861
 31
0.0
  0
ARC
  5
2409
  8
AM_0
 10
190.9959875255476
 20
231.70890336040861
 30
0.0
 40
0.0999999999999943
 50
90.0
 51
164.9998049934847
  0
ARC
  5
240A
  8
AM_0
 10
191.3915580384716
 20
231.70890336040861
 30
0.0
 40
0.0999999999999608
 50
15.00019500651571
 51
90.0
  0
ARC
  5
240B
  8
AM_0
 10
190.0196193705506
 20
231.62207037989961
 30
0.0
 40
0.3000000000000007
 50
0.0
 51
90.0
  0
LINE
  5
240C
  8
AM_0
 10
188.8196193705505
 20
229.90890336040869
 30
0.0
 11
190.31961937055061
 21
229.90890336040869
 31
0.0
  0
LINE
  5
240D
  8
AM_0
 10
190.0196193705506
 20
230.66515539624871
 30
0.0
 11
188.8196193705505
 21
230.66515539624871
 31
0.0
  0
LINE
  5
240E
  8
AM_0
 10
190.03957507370771
 20
229.5902337406186
 30
0.0
 11
188.8196193705505
 21
229.50890336040871
 31
0.0
  0
ARC
  5
240F
  8
AM_0
 10
190.31961937055061
 20
230.4089033604086
 30
0.0
 40
0.5
 50
270.0
 51
0.0
  0
ARC
  5
2410
  8
AM_0
 10
191.7459875255476
 20
231.15890336040869
 30
0.0
 40
0.0999999999999606
 50
195.00019500650541
 51
270.0
  0
ARC
  5
2411
  8
AM_0
 10
190.0196193705506
 20
230.9651553962486
 30
0.0
 40
0.2999999999999971
 50
270.0
 51
0.0
  0
LINE
  5
2412
  8
AM_0
 10
190.31961937055061
 20
229.90890336040869
 30
0.0
 11
190.31961937055061
 21
229.88956928797569
 31
0.0
  0
ARC
  5
2413
  8
AM_0
 10
190.0196193705506
 20
229.88956928797569
 30
0.0
 40
0.3000000000000043
 50
273.81407483428472
 51
0.0
  0
ARC
  5
2414
  8
AM_0
 10
201.7182904668966
 20
227.9089033604086
 30
0.0
 40
0.5
 50
180.0
 51
270.0
  0
LINE
  5
2415
  8
AM_0
 10
201.2182904668966
 20
227.9089033604086
 30
0.0
 11
201.2182904668966
 21
228.4089033604086
 31
0.0
  0
LINE
  5
2416
  8
AM_0
 10
179.8196193705505
 20
231.2555914289496
 30
0.0
 11
186.31961937055061
 21
231.2555914289496
 31
0.0
  0
LINE
  5
2417
  8
AM_0
 10
179.8196193705505
 20
239.56221529186769
 30
0.0
 11
186.31961937055061
 21
239.56221529186769
 31
0.0
  0
LINE
  5
2418
  8
AM_0
 10
179.18166930573261
 20
229.90890336040869
 30
0.0
 11
186.0196193705506
 21
229.90890336040869
 31
0.0
  0
LINE
  5
2419
  8
AM_0
 10
186.31961937055061
 20
239.90890336040869
 30
0.0
 11
179.31961937055061
 21
239.90890336040869
 31
0.0
  0
LINE
  5
241A
  8
AM_0
 10
179.8196193705505
 20
240.4089033604086
 30
0.0
 11
186.31961937055061
 21
240.4089033604086
 31
0.0
  0
LINE
  5
241B
  8
AM_0
 10
186.31961937055061
 20
230.2756235317606
 30
0.0
 11
179.8196193705505
 21
230.2756235317606
 31
0.0
  0
LINE
  5
241C
  8
AM_0
 10
186.31961937055061
 20
230.7756235317606
 30
0.0
 11
179.8196193705505
 21
230.7756235317606
 31
0.0
  0
ARC
  5
241D
  8
AM_0
 10
186.0196193705506
 20
229.60890336040859
 30
0.0
 40
0.3000000000000043
 50
0.0
 51
90.0
  0
ARC
  5
241E
  8
AM_0
 10
186.6196193705504
 20
229.20890336040861
 30
0.0
 40
0.2999999999999971
 50
180.0
 51
270.0
  0
ARC
  5
241F
  8
AM_0
 10
187.94461937055061
 20
235.40890336040869
 30
0.0
 40
9.124999999999984
 50
152.92493329272219
 51
207.07506670727781
  0
LINE
  5
2420
  8
AM_0
 10
179.31961937055061
 20
239.90890336040869
 30
0.0
 11
179.8196193705505
 21
239.56221529186769
 31
0.0
  0
LINE
  5
2421
  8
AM_0
 10
179.8196193705505
 20
240.4089033604086
 30
0.0
 11
179.31961937055061
 21
239.90890336040869
 31
0.0
  0
LINE
  5
2422
  8
AM_0
 10
176.17943497088609
 20
232.1090570267952
 30
0.0
 11
178.54148490606821
 21
230.14068208081119
 31
0.0
  0
LINE
  5
2423
  8
AM_0
 10
179.8196193705505
 20
229.90890336040869
 30
0.0
 11
179.31961937055061
 21
230.4873359439157
 31
0.0
  0
ARC
  5
2424
  8
AM_0
 10
179.18166930573261
 20
230.90890336040869
 30
0.0
 40
1.0000000000000411
 50
230.19442890774391
 51
270.0
  0
LINE
  5
2425
  8
AM_0
 10
179.31961937055061
 20
231.4873359439157
 30
0.0
 11
179.8196193705505
 21
231.2555914289496
 31
0.0
  0
LINE
  5
2426
  8
AM_0
 10
179.8196193705505
 20
230.7756235317606
 30
0.0
 11
179.31961937055061
 21
231.4873359439157
 31
0.0
  0
LINE
  5
2427
  8
AM_0
 10
179.31961937055061
 20
230.94961121688769
 30
0.0
 11
179.8196193705505
 21
230.7756235317606
 31
0.0
  0
LINE
  5
2428
  8
AM_0
 10
179.8196193705505
 20
230.2756235317606
 30
0.0
 11
179.31961937055061
 21
230.94961121688769
 31
0.0
  0
LINE
  5
2429
  8
AM_0
 10
179.31961937055061
 20
230.4873359439157
 30
0.0
 11
179.8196193705505
 21
230.2756235317606
 31
0.0
  0
ARC
  5
242A
  8
AM_0
 10
176.81961937055061
 20
232.8772783063925
 30
0.0
 40
1.0
 50
180.0
 51
230.19442890773689
  0
CIRCLE
  5
242B
  8
AM_0
 10
210.2182904668949
 20
266.90890336040809
 30
0.0
 40
4.0
  0
LINE
  5
242C
  8
AM_0
 10
209.90679046689499
 20
264.6300949546839
 30
0.0
 11
210.52979046689501
 21
264.6300949546839
 31
0.0
  0
LINE
  5
242D
  8
AM_0
 10
209.90679046689499
 20
269.18771176613268
 30
0.0
 11
210.52979046689501
 21
269.18771176613268
 31
0.0
  0
LINE
  5
242E
  8
AM_0
 10
209.90679046689499
 20
264.6300949546839
 30
0.0
 11
209.90679046689499
 21
266.59740336040829
 31
0.0
  0
LINE
  5
242F
  8
AM_0
 10
209.90679046689499
 20
267.22040336040823
 30
0.0
 11
209.90679046689499
 21
269.18771176613268
 31
0.0
  0
LINE
  5
2430
  8
AM_0
 10
209.90679046689499
 20
267.22040336040823
 30
0.0
 11
207.93948206117059
 21
267.22040336040823
 31
0.0
  0
LINE
  5
2431
  8
AM_0
 10
209.90679046689499
 20
266.59740336040829
 30
0.0
 11
207.93948206117059
 21
266.59740336040829
 31
0.0
  0
LINE
  5
2432
  8
AM_0
 10
207.93948206117059
 20
267.22040336040823
 30
0.0
 11
207.93948206117059
 21
266.59740336040829
 31
0.0
  0
LINE
  5
2433
  8
AM_0
 10
210.52979046689501
 20
264.6300949546839
 30
0.0
 11
210.52979046689501
 21
266.59740336040829
 31
0.0
  0
LINE
  5
2434
  8
AM_0
 10
210.52979046689501
 20
267.22040336040823
 30
0.0
 11
210.52979046689501
 21
269.18771176613268
 31
0.0
  0
LINE
  5
2435
  8
AM_0
 10
212.49709887261929
 20
266.59740336040829
 30
0.0
 11
210.52979046689501
 21
266.59740336040829
 31
0.0
  0
LINE
  5
2436
  8
AM_0
 10
212.49709887261929
 20
267.22040336040823
 30
0.0
 11
210.52979046689501
 21
267.22040336040823
 31
0.0
  0
LINE
  5
2437
  8
AM_0
 10
212.49709887261929
 20
267.22040336040823
 30
0.0
 11
212.49709887261929
 21
266.59740336040829
 31
0.0
  0
CIRCLE
  5
2438
  8
AM_0
 10
296.21829046689851
 20
266.90890336040809
 30
0.0
 40
4.0
  0
LINE
  5
2439
  8
AM_0
 10
295.90679046689849
 20
264.6300949546839
 30
0.0
 11
296.52979046689848
 21
264.6300949546839
 31
0.0
  0
LINE
  5
243A
  8
AM_0
 10
295.90679046689849
 20
269.18771176613262
 30
0.0
 11
296.52979046689848
 21
269.18771176613262
 31
0.0
  0
LINE
  5
243B
  8
AM_0
 10
295.90679046689849
 20
264.6300949546839
 30
0.0
 11
295.90679046689849
 21
266.59740336040818
 31
0.0
  0
LINE
  5
243C
  8
AM_0
 10
295.90679046689849
 20
267.22040336040823
 30
0.0
 11
295.90679046689849
 21
269.18771176613262
 31
0.0
  0
LINE
  5
243D
  8
AM_0
 10
295.90679046689849
 20
267.22040336040823
 30
0.0
 11
293.93948206117398
 21
267.22040336040823
 31
0.0
  0
LINE
  5
243E
  8
AM_0
 10
295.90679046689849
 20
266.59740336040818
 30
0.0
 11
293.93948206117398
 21
266.59740336040818
 31
0.0
  0
LINE
  5
243F
  8
AM_0
 10
293.93948206117398
 20
267.22040336040823
 30
0.0
 11
293.93948206117398
 21
266.59740336040818
 31
0.0
  0
LINE
  5
2440
  8
AM_0
 10
296.52979046689848
 20
264.6300949546839
 30
0.0
 11
296.52979046689848
 21
266.59740336040818
 31
0.0
  0
LINE
  5
2441
  8
AM_0
 10
296.52979046689848
 20
267.22040336040823
 30
0.0
 11
296.52979046689848
 21
269.18771176613262
 31
0.0
  0
LINE
  5
2442
  8
AM_0
 10
298.49709887262281
 20
266.59740336040818
 30
0.0
 11
296.52979046689848
 21
266.59740336040818
 31
0.0
  0
LINE
  5
2443
  8
AM_0
 10
298.49709887262281
 20
267.22040336040823
 30
0.0
 11
296.52979046689848
 21
267.22040336040823
 31
0.0
  0
LINE
  5
2444
  8
AM_0
 10
298.49709887262281
 20
267.22040336040823
 30
0.0
 11
298.49709887262281
 21
266.59740336040818
 31
0.0
  0
LINE
  5
2445
  8
AM_0
 10
223.7538243728296
 20
270.44443726634142
 30
0.0
 11
206.6827565609639
 21
253.37336945447609
 31
0.0
  0
LINE
  5
2446
  8
AM_0
 10
224.4106786223218
 20
265.44443726634131
 30
0.0
 11
211.6827565609639
 21
252.71651520498361
 31
0.0
  0
ARC
  5
2447
  8
AM_0
 10
215.2182904668966
 20
249.1809812990507
 30
0.0
 40
5.0
 50
135.0
 51
180.0
1001
GENIUS_GENOBJ-N-FIL_13
1002
{
1000
OWNER
1000
GEN
1002
}
1001
GENIUS_GENODEF_13
1002
{
1000
HIER
1070
     0
1002
}
1002
{
1000
MANEDIT
1070
     0
1002
}
1002
{
1000
NOSEL
1070
     0
1002
}
1002
{
1000
BEHIND
1070
     0
1002
}
1002
{
1000
OTHER
1070
     0
1002
}
1002
{
1000
REACTOR
1002
}
  0
LINE
  5
2448
  8
AM_0
 10
282.68275656096392
 20
181.37336945447561
 30
0.0
 11
299.7538243728294
 21
198.44443726634111
 31
0.0
  0
ARC
  5
2449
  8
AM_0
 10
279.14722265503121
 20
184.9089033604084
 30
0.0
 40
5.0
 50
270.0
 51
315.0
1001
GENIUS_GENODEF_13
1002
{
1000
HIER
1070
     0
1002
}
1002
{
1000
MANEDIT
1070
     0
1002
}
1002
{
1000
NOSEL
1070
     0
1002
}
1002
{
1000
BEHIND
1070
     0
1002
}
1002
{
1000
OTHER
1070
     0
1002
}
1002
{
1000
REACTOR
1002
}
1001
GENIUS_GENOBJ-N-FIL_13
1002
{
1000
OWNER
1000
GEN
1002
}
  0
LINE
  5
244A
  8
AM_0
 10
282.02590231147161
 20
186.37336945447561
 30
0.0
 11
294.75382437282951
 21
199.1012915158334
 31
0.0
  0
ARC
  5
244B
  8
AM_0
 10
291.21829046689669
 20
202.63682542176619
 30
0.0
 40
5.0
 50
315.0
 51
0.0
1001
GENIUS_GENOBJ-N-FIL_13
1002
{
1000
OWNER
1000
GEN
1002
}
1001
GENIUS_GENODEF_13
1002
{
1000
HIER
1070
     0
1002
}
1002
{
1000
MANEDIT
1070
     0
1002
}
1002
{
1000
NOSEL
1070
     0
1002
}
1002
{
1000
BEHIND
1070
     0
1002
}
1002
{
1000
OTHER
1070
     0
1002
}
1002
{
1000
REACTOR
1002
}
  0
LINE
  5
244C
  8
AM_0
 10
223.75382437282931
 20
181.37336945447561
 30
0.0
 11
206.6827565609639
 21
198.444437266341
 31
0.0
  0
LINE
  5
244D
  8
AM_0
 10
224.41067862232171
 20
186.37336945447561
 30
0.0
 11
211.6827565609639
 21
199.1012915158334
 31
0.0
  0
ARC
  5
244E
  8
AM_0
 10
227.94621252825431
 20
189.9089033604084
 30
0.0
 40
5.0
 50
225.0
 51
270.0
1001
GENIUS_GENOBJ-N-FIL_13
1002
{
1000
OWNER
1000
GEN
1002
}
1001
GENIUS_GENODEF_13
1002
{
1000
HIER
1070
     0
1002
}
1002
{
1000
MANEDIT
1070
     0
1002
}
1002
{
1000
NOSEL
1070
     0
1002
}
1002
{
1000
BEHIND
1070
     0
1002
}
1002
{
1000
OTHER
1070
     0
1002
}
1002
{
1000
REACTOR
1002
}
  0
CIRCLE
  5
244F
  8
AM_0
 10
210.21829046689481
 20
184.9089033604088
 30
0.0
 40
4.0
  0
LINE
  5
2450
  8
AM_0
 10
209.90679046689479
 20
187.18771176613319
 30
0.0
 11
210.52979046689481
 21
187.18771176613319
 31
0.0
  0
LINE
  5
2451
  8
AM_0
 10
209.90679046689479
 20
182.63009495468449
 30
0.0
 11
210.52979046689481
 21
182.63009495468449
 31
0.0
  0
LINE
  5
2452
  8
AM_0
 10
209.90679046689479
 20
187.18771176613319
 30
0.0
 11
209.90679046689479
 21
185.2204033604088
 31
0.0
  0
LINE
  5
2453
  8
AM_0
 10
209.90679046689479
 20
184.5974033604088
 30
0.0
 11
209.90679046689479
 21
182.63009495468449
 31
0.0
  0
LINE
  5
2454
  8
AM_0
 10
209.90679046689479
 20
184.5974033604088
 30
0.0
 11
207.93948206117039
 21
184.5974033604088
 31
0.0
  0
LINE
  5
2455
  8
AM_0
 10
209.90679046689479
 20
185.2204033604088
 30
0.0
 11
207.93948206117039
 21
185.2204033604088
 31
0.0
  0
LINE
  5
2456
  8
AM_0
 10
207.93948206117039
 20
184.5974033604088
 30
0.0
 11
207.93948206117039
 21
185.2204033604088
 31
0.0
  0
LINE
  5
2457
  8
AM_0
 10
210.52979046689481
 20
187.18771176613319
 30
0.0
 11
210.52979046689481
 21
185.2204033604088
 31
0.0
  0
LINE
  5
2458
  8
AM_0
 10
210.52979046689481
 20
184.5974033604088
 30
0.0
 11
210.52979046689481
 21
182.63009495468449
 31
0.0
  0
LINE
  5
2459
  8
AM_0
 10
212.4970988726192
 20
185.2204033604088
 30
0.0
 11
210.52979046689481
 21
185.2204033604088
 31
0.0
  0
LINE
  5
245A
  8
AM_0
 10
212.4970988726192
 20
184.5974033604088
 30
0.0
 11
210.52979046689481
 21
184.5974033604088
 31
0.0
  0
LINE
  5
245B
  8
AM_0
 10
212.4970988726192
 20
184.5974033604088
 30
0.0
 11
212.4970988726192
 21
185.2204033604088
 31
0.0
  0
CIRCLE
  5
245C
  8
AM_0
 10
296.21829046689822
 20
184.9089033604086
 30
0.0
 40
4.0
  0
LINE
  5
245D
  8
AM_0
 10
295.90679046689843
 20
187.18771176613311
 30
0.0
 11
296.52979046689842
 21
187.18771176613311
 31
0.0
  0
LINE
  5
245E
  8
AM_0
 10
295.90679046689843
 20
182.63009495468441
 30
0.0
 11
296.52979046689842
 21
182.63009495468441
 31
0.0
  0
LINE
  5
245F
  8
AM_0
 10
295.90679046689843
 20
187.18771176613311
 30
0.0
 11
295.90679046689843
 21
185.22040336040871
 31
0.0
  0
LINE
  5
2460
  8
AM_0
 10
295.90679046689843
 20
184.59740336040861
 30
0.0
 11
295.90679046689843
 21
182.63009495468441
 31
0.0
  0
LINE
  5
2461
  8
AM_0
 10
295.90679046689843
 20
184.59740336040861
 30
0.0
 11
293.93948206117398
 21
184.59740336040861
 31
0.0
  0
LINE
  5
2462
  8
AM_0
 10
295.90679046689843
 20
185.22040336040871
 30
0.0
 11
293.93948206117398
 21
185.22040336040871
 31
0.0
  0
LINE
  5
2463
  8
AM_0
 10
293.93948206117398
 20
184.59740336040861
 30
0.0
 11
293.93948206117398
 21
185.22040336040871
 31
0.0
  0
LINE
  5
2464
  8
AM_0
 10
296.52979046689842
 20
187.18771176613311
 30
0.0
 11
296.52979046689842
 21
185.22040336040871
 31
0.0
  0
LINE
  5
2465
  8
AM_0
 10
296.52979046689842
 20
184.59740336040861
 30
0.0
 11
296.52979046689842
 21
182.63009495468441
 31
0.0
  0
LINE
  5
2466
  8
AM_0
 10
298.4970988726227
 20
185.22040336040871
 30
0.0
 11
296.52979046689842
 21
185.22040336040871
 31
0.0
  0
LINE
  5
2467
  8
AM_0
 10
298.4970988726227
 20
184.59740336040861
 30
0.0
 11
296.52979046689842
 21
184.59740336040861
 31
0.0
  0
LINE
  5
2468
  8
AM_0
 10
298.4970988726227
 20
184.59740336040861
 30
0.0
 11
298.4970988726227
 21
185.22040336040871
 31
0.0
  0
LINE
  5
2469
  8
AM_0
 10
205.21829046689669
 20
194.90890336040849
 30
0.0
 11
204.2182904668966
 21
194.90890336040849
 31
0.0
  0
LINE
  5
246A
  8
AM_0
 10
205.21829046689669
 20
256.90890336040871
 30
0.0
 11
204.2182904668966
 21
256.9089033604086
 31
0.0
  0
LINE
  5
246B
  8
AM_0
 10
204.2182904668966
 20
194.90890336040849
 30
0.0
 11
204.2182904668966
 21
256.9089033604086
 31
0.0
  0
LINE
  5
2A93
  8
ﾁｭｳｼﾝｾﾝ1
 10
210.2182904668945
 20
260.9089033604082
 30
0.0
 11
210.21829046689521
 21
272.90890336040809
 31
0.0
  0
LINE
  5
2A94
  8
ﾁｭｳｼﾝｾﾝ1
 10
216.2182904668949
 20
266.90890336040798
 30
0.0
 11
204.2182904668949
 21
266.90890336040871
 31
0.0
  0
LINE
  5
2A95
  8
ﾁｭｳｼﾝｾﾝ1
 10
210.2182904668945
 20
178.90890336040891
 30
0.0
 11
210.2182904668951
 21
190.9089033604088
 31
0.0
  0
LINE
  5
2A96
  8
ﾁｭｳｼﾝｾﾝ1
 10
216.21829046689481
 20
184.9089033604086
 30
0.0
 11
204.21829046689481
 21
184.9089033604092
 31
0.0
  0
LINE
  5
2A97
  8
ﾁｭｳｼﾝｾﾝ1
 10
296.218290466898
 20
178.9089033604086
 30
0.0
 11
296.21829046689862
 21
190.9089033604086
 31
0.0
  0
LINE
  5
2A98
  8
ﾁｭｳｼﾝｾﾝ1
 10
302.2182904668984
 20
184.9089033604084
 30
0.0
 11
290.21829046689822
 21
184.90890336040911
 31
0.0
  0
POLYLINE
  5
2E59
  8
AM_0
 66
     1
 10
0.0
 20
0.0
 30
0.0
  0
VERTEX
  5
2E5A
  8
AM_0
 10
200.1521294409049
 20
252.9089033604086
 30
0.0
  0
VERTEX
  5
2E5B
  8
AM_0
 10
201.04100046689669
 20
259.27747436040852
 30
0.0
 42
-1.0
  0
SEQEND
  5
2E5C
  8
AM_0
  0
LINE
  5
2EB5
  8
AM_0
 10
188.71830046689641
 20
278.90889836040861
 30
0.0
 11
188.71830046689641
 21
252.9089033604086
 31
0.0
  0
LINE
  5
2EB6
  8
AM_0
 10
188.71830046689641
 20
228.90890336040869
 30
0.0
 11
188.71830046689641
 21
214.40890336040999
 31
0.0
  0
LINE
  5
2F6E
  8
AM_0
 10
194.0932904668976
 20
199.5188493042844
 30
0.0
 11
194.1040000714427
 21
199.30890336040841
 31
0.0
  0
LINE
  5
2F6F
  8
AM_0
 10
194.1040000714427
 20
199.30890336040841
 30
0.0
 11
194.14030545864361
 21
198.59718998652141
 31
0.0
  0
LINE
  5
2F70
  8
AM_0
 10
194.0932904668976
 20
203.2761808519254
 30
0.0
 11
194.3393166895776
 21
199.30890336040841
 31
0.0
  0
LINE
  5
2F71
  8
AM_0
 10
194.8116196309266
 20
199.30890336040841
 30
0.0
 11
194.4160491180026
 21
199.30890336040841
 31
0.0
  0
LINE
  5
2F72
  8
AM_0
 10
194.31945662346351
 20
199.234785593673
 30
0.0
 11
194.1582121254657
 21
198.6330211271449
 31
0.0
  0
LINE
  5
2F73
  8
AM_0
 10
194.3393166895776
 20
199.30890336040841
 30
0.0
 11
194.31945662346351
 21
199.234785593673
 31
0.0
  0
LINE
  5
2F74
  8
AM_0
 10
192.59329046689751
 20
196.9089033604084
 30
0.0
 11
192.59329046689751
 21
197.20890336040941
 31
0.0
  0
LINE
  5
2F75
  8
AM_0
 10
182.0932904668966
 20
200.4089033604084
 30
0.0
 11
182.0932904668966
 21
200.57648841954449
 31
0.0
  0
LINE
  5
2F76
  8
AM_0
 10
182.0932904668966
 20
205.9089033604084
 30
0.0
 11
182.0932904668966
 21
200.58992832799939
 31
0.0
  0
LINE
  5
2F77
  8
AM_0
 10
184.82747793988651
 20
197.40890336040641
 30
0.0
 11
184.59329046689351
 21
197.40890336040641
 31
0.0
  0
LINE
  5
2F78
  8
AM_0
 10
184.4433673000874
 20
197.58881116057481
 30
0.0
 11
184.59329046689351
 21
197.40890336040641
 31
0.0
  0
LINE
  5
2F79
  8
AM_0
 10
182.0932904668966
 20
200.4089033604084
 30
0.0
 11
182.2091798270977
 21
200.2698361281675
 31
0.0
  0
LINE
  5
2F7A
  8
AM_0
 10
192.59329046689751
 20
197.4089033604094
 30
0.0
 11
193.8932904668975
 21
197.4089033604094
 31
0.0
  0
LINE
  5
2F7B
  8
AM_0
 10
193.5932904668966
 20
197.3803996290435
 30
0.0
 11
193.59329046689751
 21
197.4089033604094
 31
0.0
  0
LINE
  5
2F7C
  8
AM_0
 10
184.5932904668945
 20
198.3767121522724
 30
0.0
 11
190.59329046689751
 21
198.3767121522724
 31
0.0
  0
LINE
  5
2F7D
  8
AM_0
 10
190.59329046689751
 20
197.8767121522724
 30
0.0
 11
184.59329046689351
 21
197.8767121522724
 31
0.0
  0
LINE
  5
2F7E
  8
AM_0
 10
184.59329046689351
 20
197.8767121522724
 30
0.0
 11
185.09329046689371
 21
197.4089033604084
 31
0.0
  0
LINE
  5
2F7F
  8
AM_0
 10
185.09329046689371
 20
197.8767121522724
 30
0.0
 11
184.5932904668945
 21
198.3767121522724
 31
0.0
  0
LINE
  5
2F80
  8
AM_0
 10
184.5932904668945
 20
199.0476874282414
 30
0.0
 11
185.09329046689371
 21
198.3767121522724
 31
0.0
  0
LINE
  5
2F81
  8
AM_0
 10
185.09329046689371
 20
199.09716566891839
 30
0.0
 11
184.5932904668945
 21
199.0476874282414
 31
0.0
  0
LINE
  5
2F82
  8
AM_0
 10
190.59329046689751
 20
204.81870952535041
 30
0.0
 11
190.59329046689751
 21
205.9089033604084
 31
0.0
  0
LINE
  5
2F83
  8
AM_0
 10
184.59329046689351
 20
204.9089033604084
 30
0.0
 11
190.59329046689751
 21
204.9089033604084
 31
0.0
  0
LINE
  5
2F84
  8
AM_0
 10
185.09329046689371
 20
204.22064105189841
 30
0.0
 11
184.59329046689351
 21
204.9089033604084
 31
0.0
  0
LINE
  5
2F85
  8
AM_0
 10
184.59329046689351
 20
204.9089033604084
 30
0.0
 11
185.0932904668945
 21
205.4089033604084
 31
0.0
  0
LINE
  5
2F86
  8
AM_0
 10
184.5932904668945
 20
205.9089033604084
 30
0.0
 11
185.0932904668945
 21
205.4089033604084
 31
0.0
  0
LINE
  5
2F87
  8
AM_0
 10
185.0932904668945
 20
205.4089033604084
 30
0.0
 11
190.59329046689751
 21
205.4089033604084
 31
0.0
  0
LINE
  5
2F88
  8
AM_0
 10
185.09329046689371
 20
204.22064105189841
 30
0.0
 11
190.59329046689751
 21
204.22064105189841
 31
0.0
  0
LINE
  5
2F89
  8
AM_0
 10
185.09329046689371
 20
199.09716566891839
 30
0.0
 11
190.59329046689751
 21
199.0971656689193
 31
0.0
  0
LINE
  5
2F8A
  8
AM_0
 10
193.5932904668966
 20
205.45890336040949
 30
0.0
 11
193.59329046689751
 21
205.9089033604084
 31
0.0
  0
LINE
  5
2F8B
  8
AM_0
 10
192.59329046689751
 20
197.20890336040941
 30
0.0
 11
192.59329046689751
 21
205.90890336041051
 31
0.0
  0
LINE
  5
2F8C
  8
AM_0
 10
193.29329046689651
 20
198.9513986723764
 30
0.0
 11
192.59329046689751
 21
198.9513986723764
 31
0.0
  0
LINE
  5
2F8D
  8
AM_0
 10
193.5932904668966
 20
198.2462878150865
 30
0.0
 11
193.5932904668966
 21
198.65139867237639
 31
0.0
  0
LINE
  5
2F8E
  8
AM_0
 10
192.59329046689751
 20
197.94628781508641
 30
0.0
 11
193.29329046689651
 21
197.94628781508641
 31
0.0
  0
LINE
  5
2F8F
  8
AM_0
 10
193.29329046689651
 20
202.3249988577775
 30
0.0
 11
192.59329046689751
 21
202.3249988577775
 31
0.0
  0
LINE
  5
2F90
  8
AM_0
 10
193.5932904668966
 20
201.22508259148549
 30
0.0
 11
193.5932904668966
 21
202.02499885777749
 31
0.0
  0
LINE
  5
2F91
  8
AM_0
 10
192.59329046689751
 20
200.92508259148551
 30
0.0
 11
193.29329046689651
 21
200.92508259148551
 31
0.0
  0
LINE
  5
2F92
  8
AM_0
 10
192.59329046689751
 20
205.1589033604084
 30
0.0
 11
193.29329046689651
 21
205.1589033604084
 31
0.0
  0
LINE
  5
2F93
  8
AM_0
 10
194.0932904668976
 20
205.9089033604084
 30
0.0
 11
194.0932904668976
 21
197.60890336040941
 31
0.0
  0
LINE
  5
2F94
  8
AM_0
 10
190.79329046689651
 20
196.9089033604084
 30
0.0
 11
192.59329046689751
 21
196.9089033604084
 31
0.0
  0
LINE
  5
2F95
  8
AM_0
 10
182.2091798270977
 20
200.2698361281675
 30
0.0
 11
184.4433673000874
 21
197.58881116057481
 31
0.0
  0
LINE
  5
2F96
  8
AM_0
 10
193.3231415826032
 20
197.08188847198039
 30
0.0
 11
192.59329046689751
 21
197.00890336040951
 31
0.0
  0
LINE
  5
2F99
  8
AM_0
 10
190.39329046689761
 20
197.4089033604084
 30
0.0
 11
184.82747793988651
 21
197.40890336040641
 31
0.0
  0
LINE
  5
2F9A
  8
AM_0
 10
190.59329046689751
 20
204.81870952535041
 30
0.0
 11
190.59329046689751
 21
197.20890336040841
 31
0.0
  0
LINE
  5
2F9B
  8
AM_0
 10
190.59329046689751
 20
197.20890336040841
 30
0.0
 11
190.5932904668966
 21
197.10890336040839
 31
0.0
  0
LINE
  5
2F9C
  8
AM_0
 10
198.2182904668966
 20
197.6089033604085
 30
0.0
 11
198.2182904668966
 21
204.22064105189841
 31
0.0
  0
LINE
  5
2F9D
  8
AM_0
 10
194.71829046689751
 20
205.9089033604084
 30
0.0
 11
195.09104432490761
 21
198.59276501288841
 31
0.0
  0
LINE
  5
2F9E
  8
AM_0
 10
195.2673258366726
 20
205.9089033604084
 30
0.0
 11
195.64030545864361
 21
198.59718998652141
 31
0.0
  0
LINE
  5
2F9F
  8
AM_0
 10
194.9082121254657
 20
199.23478559367189
 30
0.0
 11
194.8883520593526
 21
199.30890336040841
 31
0.0
  0
LINE
  5
2FA0
  8
AM_0
 10
195.8393166895776
 20
199.30890336040841
 30
0.0
 11
195.81945662346351
 21
199.234785593673
 31
0.0
  0
LINE
  5
2FA1
  8
AM_0
 10
195.5616196309266
 20
198.55890336040841
 30
0.0
 11
195.16604911800241
 21
198.55890336040841
 31
0.0
  0
LINE
  5
2FA2
  8
AM_0
 10
195.0694566234634
 20
198.6330211271449
 30
0.0
 11
194.9082121254657
 21
199.23478559367189
 31
0.0
  0
LINE
  5
2FA3
  8
AM_0
 10
195.81945662346351
 20
199.234785593673
 30
0.0
 11
195.6582121254657
 21
198.6330211271449
 31
0.0
  0
LINE
  5
2FA4
  8
AM_0
 10
194.47906053054959
 20
205.9089033604084
 30
0.0
 11
194.8883520593526
 21
199.30890336040841
 31
0.0
  0
LINE
  5
2FA5
  8
AM_0
 10
195.4300251607747
 20
205.9089033604084
 30
0.0
 11
195.8393166895776
 21
199.30890336040841
 31
0.0
  0
LINE
  5
2FA6
  8
AM_0
 10
195.9160491180026
 20
199.30890336040841
 30
0.0
 11
197.7182904668966
 21
199.30890336040841
 31
0.0
  0
LINE
  5
2FA7
  8
AM_0
 10
198.2182904668966
 20
204.22064105189841
 30
0.0
 11
198.2182904668966
 21
205.90890336040951
 31
0.0
  0
LINE
  5
2FA8
  8
AM_0
 10
198.41829046689651
 20
197.4089033604084
 30
0.0
 11
202.01829046689659
 21
197.4089033604084
 31
0.0
  0
LINE
  5
2FA9
  8
AM_0
 10
202.01829046689659
 20
204.22064105189841
 30
0.0
 11
198.2182904668966
 21
204.22064105189841
 31
0.0
  0
LINE
  5
2FAA
  8
AM_0
 10
198.2182904668966
 20
199.0971656689193
 30
0.0
 11
202.01829046689659
 21
199.0971656689193
 31
0.0
  0
LINE
  5
2FAB
  8
AM_0
 10
177.2182904668966
 20
205.9089033604084
 30
0.0
 11
177.2182904668966
 21
201.6589033604084
 31
0.0
  0
LINE
  5
2FAC
  8
AM_0
 10
182.0932904668966
 20
201.6077669967724
 30
0.0
 11
177.2182904668966
 21
201.6589033604084
 31
0.0
  0
LINE
  5
2FAD
  8
AM_0
 10
177.21829046689669
 20
210.1589033604084
 30
0.0
 11
182.09329046689669
 21
210.21003972404549
 31
0.0
  0
LINE
  5
2FAE
  8
AM_0
 10
177.21829046689669
 20
210.1589033604084
 30
0.0
 11
177.2182904668966
 21
205.9089033604084
 31
0.0
  0
LINE
  5
2FAF
  8
AM_0
 10
202.01829046689659
 20
212.72064105189841
 30
0.0
 11
198.21829046689669
 21
212.72064105189841
 31
0.0
  0
LINE
  5
2FB0
  8
AM_0
 10
198.2182904668966
 20
207.59716566891939
 30
0.0
 11
202.01829046689659
 21
207.59716566891939
 31
0.0
  0
LINE
  5
2FB1
  8
AM_0
 10
202.01829046689659
 20
214.4089033604084
 30
0.0
 11
198.41829046689651
 21
214.4089033604084
 31
0.0
  0
LINE
  5
2FB2
  8
AM_0
 10
198.2182904668966
 20
205.90890336040951
 30
0.0
 11
198.2182904668966
 21
207.59716566891939
 31
0.0
  0
LINE
  5
2FB3
  8
AM_0
 10
197.71829046689669
 20
212.5089033604084
 30
0.0
 11
195.17002289532269
 21
212.5089033604084
 31
0.0
  0
LINE
  5
2FB4
  8
AM_0
 10
195.09329046689669
 20
212.5089033604084
 30
0.0
 11
195.4300251607747
 21
205.9089033604084
 31
0.0
  0
LINE
  5
2FB5
  8
AM_0
 10
194.1423258366716
 20
212.5089033604084
 30
0.0
 11
194.47906053054959
 21
205.9089033604084
 31
0.0
  0
LINE
  5
2FB6
  8
AM_0
 10
194.91218590278581
 20
213.1847855936719
 30
0.0
 11
195.07343040078359
 21
212.583021127145
 31
0.0
  0
LINE
  5
2FB7
  8
AM_0
 10
194.16218590278581
 20
212.583021127145
 30
0.0
 11
194.32343040078351
 21
213.1847855936719
 31
0.0
  0
LINE
  5
2FB8
  8
AM_0
 10
194.42002289532269
 20
213.25890336040851
 30
0.0
 11
194.81559340824671
 21
213.25890336040851
 31
0.0
  0
LINE
  5
2FB9
  8
AM_0
 10
195.07343040078359
 20
212.583021127145
 30
0.0
 11
195.09329046689669
 21
212.5089033604084
 31
0.0
  0
LINE
  5
2FBA
  8
AM_0
 10
194.1423258366716
 20
212.5089033604084
 30
0.0
 11
194.16218590278581
 21
212.583021127145
 31
0.0
  0
LINE
  5
2FBB
  8
AM_0
 10
194.89427923596369
 20
213.22061673429539
 30
0.0
 11
195.2673258366726
 21
205.9089033604084
 31
0.0
  0
LINE
  5
2FBC
  8
AM_0
 10
194.34501810222761
 20
213.22504170792951
 30
0.0
 11
194.71829046689751
 21
205.9089033604084
 31
0.0
  0
LINE
  5
2FBD
  8
AM_0
 10
198.2182904668966
 20
207.59716566891939
 30
0.0
 11
198.21829046689669
 21
214.20890336040929
 31
0.0
  0
LINE
  5
2FBE
  8
AM_0
 10
190.59329046689669
 20
214.70890336040949
 30
0.0
 11
190.59329046689751
 21
214.60890336040961
 31
0.0
  0
LINE
  5
2FBF
  8
AM_0
 10
190.59329046689751
 20
214.60890336040961
 30
0.0
 11
190.59329046689751
 21
206.9990971954675
 31
0.0
  0
LINE
  5
2FC0
  8
AM_0
 10
184.82747793988651
 20
214.40890336041139
 30
0.0
 11
190.3932904668977
 21
214.4089033604096
 31
0.0
  0
LINE
  5
2FC3
  8
AM_0
 10
192.59329046689751
 20
214.80890336040841
 30
0.0
 11
193.3231415826032
 21
214.73591824883741
 31
0.0
  0
LINE
  5
2FC4
  8
AM_0
 10
184.4433673000874
 20
214.22899556024319
 30
0.0
 11
182.20917982709781
 21
211.5479705926505
 31
0.0
  0
LINE
  5
2FC5
  8
AM_0
 10
192.59329046689751
 20
214.9089033604084
 30
0.0
 11
190.79329046689671
 21
214.9089033604084
 31
0.0
  0
LINE
  5
2FC6
  8
AM_0
 10
194.0932904668976
 20
214.20890336040841
 30
0.0
 11
194.0932904668976
 21
205.9089033604084
 31
0.0
  0
LINE
  5
2FC7
  8
AM_0
 10
193.29329046689651
 20
206.6589033604084
 30
0.0
 11
192.59329046689751
 21
206.6589033604084
 31
0.0
  0
LINE
  5
2FC8
  8
AM_0
 10
193.29329046689651
 20
210.89272412933249
 30
0.0
 11
192.59329046689751
 21
210.89272412933249
 31
0.0
  0
LINE
  5
2FC9
  8
AM_0
 10
193.5932904668966
 20
209.79280786304051
 30
0.0
 11
193.5932904668966
 21
210.59272412933251
 31
0.0
  0
LINE
  5
2FCA
  8
AM_0
 10
192.59329046689751
 20
209.4928078630405
 30
0.0
 11
193.29329046689651
 21
209.4928078630405
 31
0.0
  0
LINE
  5
2FCB
  8
AM_0
 10
193.29329046689651
 20
213.87151890573151
 30
0.0
 11
192.59329046689751
 21
213.87151890573151
 31
0.0
  0
LINE
  5
2FCC
  8
AM_0
 10
193.5932904668966
 20
213.16640804844141
 30
0.0
 11
193.5932904668966
 21
213.57151890573141
 31
0.0
  0
LINE
  5
2FCD
  8
AM_0
 10
192.59329046689751
 20
212.86640804844151
 30
0.0
 11
193.29329046689651
 21
212.86640804844151
 31
0.0
  0
LINE
  5
2FCE
  8
AM_0
 10
192.59329046689751
 20
205.90890336041051
 30
0.0
 11
192.59329046689751
 21
214.6089033604085
 31
0.0
  0
LINE
  5
2FCF
  8
AM_0
 10
193.59329046689751
 20
205.9089033604084
 30
0.0
 11
193.5932904668966
 21
206.3589033604085
 31
0.0
  0
LINE
  5
2FD0
  8
AM_0
 10
190.59329046689751
 20
212.72064105189841
 30
0.0
 11
185.09329046689371
 21
212.72064105189841
 31
0.0
  0
LINE
  5
2FD1
  8
AM_0
 10
190.59329046689751
 20
207.59716566891939
 30
0.0
 11
185.09329046689371
 21
207.59716566891839
 31
0.0
  0
LINE
  5
2FD2
  8
AM_0
 10
190.59329046689751
 20
206.4089033604084
 30
0.0
 11
185.0932904668945
 21
206.4089033604084
 31
0.0
  0
LINE
  5
2FD3
  8
AM_0
 10
185.0932904668945
 20
206.4089033604084
 30
0.0
 11
184.5932904668945
 21
205.9089033604084
 31
0.0
  0
LINE
  5
2FD4
  8
AM_0
 10
185.0932904668945
 20
206.4089033604084
 30
0.0
 11
184.59329046689351
 21
206.9089033604084
 31
0.0
  0
LINE
  5
2FD5
  8
AM_0
 10
184.59329046689351
 20
206.9089033604084
 30
0.0
 11
185.09329046689371
 21
207.59716566891839
 31
0.0
  0
LINE
  5
2FD6
  8
AM_0
 10
190.59329046689751
 20
206.9089033604084
 30
0.0
 11
184.59329046689351
 21
206.9089033604084
 31
0.0
  0
LINE
  5
2FD7
  8
AM_0
 10
190.59329046689751
 20
205.9089033604084
 30
0.0
 11
190.59329046689751
 21
206.9990971954675
 31
0.0
  0
LINE
  5
2FD8
  8
AM_0
 10
184.5932904668947
 20
212.77011929257651
 30
0.0
 11
185.09329046689371
 21
212.72064105189841
 31
0.0
  0
LINE
  5
2FD9
  8
AM_0
 10
185.09329046689371
 20
213.4410945685454
 30
0.0
 11
184.5932904668947
 21
212.77011929257651
 31
0.0
  0
LINE
  5
2FDA
  8
AM_0
 10
184.5932904668947
 20
213.4410945685454
 30
0.0
 11
185.09329046689371
 21
213.9410945685454
 31
0.0
  0
LINE
  5
2FDB
  8
AM_0
 10
185.09329046689371
 20
214.4089033604084
 30
0.0
 11
184.59329046689351
 21
213.9410945685454
 31
0.0
  0
LINE
  5
2FDC
  8
AM_0
 10
184.59329046689351
 20
213.9410945685454
 30
0.0
 11
190.59329046689751
 21
213.9410945685454
 31
0.0
  0
LINE
  5
2FDD
  8
AM_0
 10
190.59329046689751
 20
213.4410945685454
 30
0.0
 11
184.5932904668947
 21
213.4410945685454
 31
0.0
  0
LINE
  5
2FDE
  8
AM_0
 10
193.59329046689751
 20
214.4089033604084
 30
0.0
 11
193.5932904668966
 21
214.4374070917745
 31
0.0
  0
LINE
  5
2FDF
  8
AM_0
 10
193.8932904668977
 20
214.4089033604084
 30
0.0
 11
192.59329046689751
 21
214.4089033604084
 31
0.0
  0
LINE
  5
2FE0
  8
AM_0
 10
182.20917982709781
 20
211.5479705926505
 30
0.0
 11
182.09329046689669
 21
211.4089033604084
 31
0.0
  0
LINE
  5
2FE1
  8
AM_0
 10
184.59329046689351
 20
214.40890336041139
 30
0.0
 11
184.4433673000874
 21
214.22899556024319
 31
0.0
  0
LINE
  5
2FE2
  8
AM_0
 10
184.59329046689351
 20
214.40890336041139
 30
0.0
 11
184.82747793988651
 21
214.40890336041139
 31
0.0
  0
LINE
  5
2FE3
  8
AM_0
 10
182.09329046689669
 20
211.22787839281861
 30
0.0
 11
182.0932904668966
 21
205.9089033604084
 31
0.0
  0
LINE
  5
2FE4
  8
AM_0
 10
182.09329046689669
 20
211.24131830127251
 30
0.0
 11
182.09329046689669
 21
211.4089033604084
 31
0.0
  0
LINE
  5
2FE5
  8
AM_0
 10
192.59329046689751
 20
214.6089033604085
 30
0.0
 11
192.59329046689751
 21
214.9089033604084
 31
0.0
  0
ARC
  5
2FE6
  8
AM_0
 10
194.8116196309266
 20
199.2089033604085
 30
0.0
 40
0.0999999999999643
 50
15.00019500651214
 51
90.0
  0
ARC
  5
2FE7
  8
AM_0
 10
191.40579046689351
 20
201.6589033604084
 30
0.0
 40
6.8125000000000382
 50
157.91171016505771
 51
202.08828983494229
  0
ARC
  5
2FE8
  8
AM_0
 10
202.01829046689659
 20
197.20890336040841
 30
0.0
 40
0.1999999999999993
 50
0.0
 51
90.0
  0
ARC
  5
2FE9
  8
AM_0
 10
202.01829046689659
 20
214.6089033604085
 30
0.0
 40
0.2000000000000028
 50
270.0
 51
0.0
  0
ARC
  5
2FEA
  8
AM_0
 10
191.40579046689351
 20
210.1589033604084
 30
0.0
 40
6.8125000000000382
 50
157.91171016505771
 51
202.08828983494229
  0
ARC
  5
2FEB
  8
AM_0
 10
194.0616196309266
 20
198.6589033604084
 30
0.0
 40
0.1000000000000547
 50
288.4639767573006
 51
344.99980499348783
  0
ARC
  5
2FEC
  8
AM_0
 10
194.4160491180026
 20
199.20890336040941
 30
0.0
 40
0.1000000000000014
 50
90.0
 51
164.9998049934847
  0
ARC
  5
2FED
  8
AM_0
 10
184.82747793988651
 20
197.9089033604065
 30
0.0
 40
0.499999999999975
 50
219.80557109218771
 51
270.0
  0
ARC
  5
2FEE
  8
AM_0
 10
182.5932904668966
 20
200.5899283279995
 30
0.0
 40
0.5
 50
180.00000000000969
 51
219.8055710922296
  0
ARC
  5
2FEF
  8
AM_0
 10
193.29329046689651
 20
198.65139867237639
 30
0.0
 40
0.3000000000000007
 50
0.0
 51
90.0
  0
ARC
  5
2FF0
  8
AM_0
 10
193.29329046689651
 20
198.2462878150865
 30
0.0
 40
0.3000000000000043
 50
270.0
 51
0.0
  0
ARC
  5
2FF1
  8
AM_0
 10
193.29329046689651
 20
202.02499885777749
 30
0.0
 40
0.3000000000000007
 50
0.0
 51
90.0
  0
ARC
  5
2FF2
  8
AM_0
 10
193.29329046689651
 20
201.22508259148549
 30
0.0
 40
0.2999999999999971
 50
270.0
 51
0.0
  0
ARC
  5
2FF3
  8
AM_0
 10
193.29329046689651
 20
205.45890336040949
 30
0.0
 40
0.2999999999999971
 50
270.0
 51
0.0
  0
ARC
  5
2FF4
  8
AM_0
 10
193.29329046689651
 20
197.3803996290435
 30
0.0
 40
0.3000000000000302
 50
275.71059313755637
 51
0.0
  0
ARC
  5
2FF5
  8
AM_0
 10
190.79329046689651
 20
197.10890336040839
 30
0.0
 40
0.1999999999999993
 50
180.0
 51
270.0
  0
ARC
  5
2FF6
  8
AM_0
 10
193.8932904668975
 20
197.6089033604095
 30
0.0
 40
0.1999999999999957
 50
270.0
 51
0.0
  0
ARC
  5
2FF7
  8
AM_0
 10
190.39329046689761
 20
197.2089033604085
 30
0.0
 40
0.1999999999999993
 50
359.99999999997061
 51
90.0
  0
ARC
  5
2FF8
  8
AM_0
 10
195.9160491180026
 20
199.20890336040941
 30
0.0
 40
0.1000000000000014
 50
90.0
 51
164.9998049934847
  0
ARC
  5
2FF9
  8
AM_0
 10
195.5616196309266
 20
198.6589033604084
 30
0.0
 40
0.1000000000000014
 50
270.0
 51
344.99980499348783
  0
ARC
  5
2FFA
  8
AM_0
 10
195.16604911800241
 20
198.6589033604084
 30
0.0
 40
0.1000000000000311
 50
195.00019500644461
 51
270.0
  0
ARC
  5
2FFB
  8
AM_0
 10
197.7182904668966
 20
198.80890336040841
 30
0.0
 40
0.5
 50
359.99999999997721
 51
90.0
  0
ARC
  5
2FFC
  8
AM_0
 10
202.01829046689659
 20
204.02064105189839
 30
0.0
 40
0.1999999999999993
 50
0.0
 51
90.0
  0
ARC
  5
2FFD
  8
AM_0
 10
202.01829046689659
 20
199.2971656689194
 30
0.0
 40
0.2000000000000028
 50
270.0
 51
0.0
  0
ARC
  5
2FFE
  8
AM_0
 10
198.41829046689651
 20
197.6089033604085
 30
0.0
 40
0.1999999999999993
 50
179.99999999994131
 51
270.0
  0
ARC
  5
2FFF
  8
AM_0
 10
198.41829046689651
 20
214.20890336040941
 30
0.0
 40
0.2000000000000028
 50
90.0
 51
180.00000000005531
  0
ARC
  5
3000
  8
AM_0
 10
202.01829046689659
 20
212.52064105189839
 30
0.0
 40
0.1999999999999993
 50
0.0
 51
90.0
  0
ARC
  5
3001
  8
AM_0
 10
202.01829046689659
 20
207.79716566891841
 30
0.0
 40
0.2000000000000028
 50
270.0
 51
0.0
  0
ARC
  5
3002
  8
AM_0
 10
197.7182904668966
 20
213.00890336040851
 30
0.0
 40
0.5
 50
270.0
 51
0.0000000000227982
  0
ARC
  5
3003
  8
AM_0
 10
194.4200228953226
 20
213.1589033604084
 30
0.0
 40
0.1000000000000014
 50
90.0
 51
164.99980499355539
  0
ARC
  5
3004
  8
AM_0
 10
194.8155934082466
 20
213.1589033604084
 30
0.0
 40
0.0999999999999608
 50
15.000195006515289
 51
90.0
  0
ARC
  5
3005
  8
AM_0
 10
195.1700228953226
 20
212.6089033604085
 30
0.0
 40
0.0999999999999608
 50
195.0001950065153
 51
270.0
  0
ARC
  5
3006
  8
AM_0
 10
194.0655934082466
 20
212.6089033604085
 30
0.0
 40
0.0999999999999803
 50
286.07948273872381
 51
344.99980499348482
  0
ARC
  5
3007
  8
AM_0
 10
190.39329046689761
 20
214.6089033604095
 30
0.0
 40
0.1999999999999957
 50
270.0
 51
0.000000000029312
  0
ARC
  5
3008
  8
AM_0
 10
193.8932904668975
 20
214.2089033604085
 30
0.0
 40
0.1999999999999993
 50
0.0
 51
90.0
  0
ARC
  5
3009
  8
AM_0
 10
190.79329046689651
 20
214.70890336040949
 30
0.0
 40
0.2000000000000028
 50
90.0
 51
180.0
  0
ARC
  5
300A
  8
AM_0
 10
193.29329046689651
 20
214.4374070917745
 30
0.0
 40
0.3000000000000007
 50
0.0
 51
84.289406862443656
  0
ARC
  5
300B
  8
AM_0
 10
193.29329046689651
 20
206.3589033604085
 30
0.0
 40
0.3000000000000007
 50
0.0
 51
90.0
  0
ARC
  5
300C
  8
AM_0
 10
193.29329046689651
 20
210.59272412933251
 30
0.0
 40
0.3000000000000007
 50
0.0
 51
90.0
  0
ARC
  5
300D
  8
AM_0
 10
193.29329046689651
 20
209.79280786304051
 30
0.0
 40
0.2999999999999971
 50
270.0
 51
0.0
  0
ARC
  5
300E
  8
AM_0
 10
193.29329046689651
 20
213.57151890573141
 30
0.0
 40
0.3000000000000007
 50
0.0
 51
90.0
  0
ARC
  5
300F
  8
AM_0
 10
193.29329046689651
 20
213.1664080484415
 30
0.0
 40
0.3000000000000043
 50
270.0
 51
0.0
  0
ARC
  5
3010
  8
AM_0
 10
182.5932904668966
 20
211.22787839281841
 30
0.0
 40
0.5000000000000059
 50
140.1944289077704
 51
179.99999999998701
  0
ARC
  5
3011
  8
AM_0
 10
184.82747793988651
 20
213.9089033604115
 30
0.0
 40
0.5
 50
90.0
 51
140.1944289078121
  0
LINE
  5
3012
  8
AM_0
 10
202.41829046689671
 20
196.9089033604084
 30
0.0
 11
204.2182904668966
 21
196.9089033604084
 31
0.0
  0
LINE
  5
3013
  8
AM_0
 10
202.2182904668966
 20
197.10890336040839
 30
0.0
 11
202.2182904668966
 21
214.70890336040941
 31
0.0
  0
LINE
  5
3014
  8
AM_0
 10
204.21829046689669
 20
214.9089033604084
 30
0.0
 11
202.41829046689671
 21
214.9089033604084
 31
0.0
  0
ARC
  5
3015
  8
AM_0
 10
202.41829046689671
 20
197.10890336040839
 30
0.0
 40
0.1999999999999993
 50
180.0
 51
270.0
  0
ARC
  5
3016
  8
AM_0
 10
202.41829046689671
 20
214.70890336040941
 30
0.0
 40
0.2000000000000028
 50
90.0
 51
180.0
  0
POLYLINE
  5
3017
  8
AM_0
 66
     1
 10
0.0
 20
0.0
 30
0.0
  0
VERTEX
  5
3018
  8
AM_0
 10
200.36148171063221
 20
197.4089033604084
 30
0.0
  0
VERTEX
  5
3019
  8
AM_0
 10
201.04100046689669
 20
192.5403263604085
 30
0.0
 42
-1.0
  0
SEQEND
  5
301A
  8
AM_0
  0
LINE
  5
301B
  8
ﾁｭｳｼﾝｾﾝ1
 10
174.2182904668966
 20
240.9089033604084
 30
0.0
 11
207.51623660538701
 21
240.9089033604084
 31
0.0
  0
LINE
  5
301C
  8
AM_0
 10
196.2182904668966
 20
199.30890336040849
 30
0.0
 11
196.2182904668966
 21
176.46866936040851
 31
0.0
  0
LINE
  5
301D
  8
AM_0
 10
188.71830046689641
 20
197.40890336040781
 30
0.0
 11
188.71830046689641
 21
172.90891736040851
 31
0.0
  0
POLYLINE
  5
3045
  8
AM_0
 66
     1
 10
0.0
 20
0.0
 30
0.0
  0
VERTEX
  5
3046
  8
AM_0
  6
CONTINUOUS
 10
198.58153621358929
 20
228.90890336040849
 30
0.0
  0
VERTEX
  5
3047
  8
AM_0
  6
CONTINUOUS
 10
198.58646046689671
 20
222.1764263604085
 30
0.0
 42
-1.0
  0
SEQEND
  5
3048
  8
AM_0
  0
LINE
  5
3049
  8
AM_0
 10
204.2182904668966
 20
221.90890436040851
 30
0.0
 11
198.58370046689649
 21
221.90890436040851
 31
0.0
  0
LINE
  5
304A
  8
AM_0
 10
204.2182904668966
 20
219.9089033604084
 30
0.0
 11
198.58370046689649
 21
219.9089033604086
 31
0.0
  0
ARC
  5
304C
  8
AM_0
 10
197.4872004668965
 20
220.90499636040849
 30
0.0
 40
1.26892095
 50
90.000003000000945
 51
270.0
  0
ARC
  5
304E
  8
AM_0
 10
198.7676604668965
 20
220.90890236040849
 30
0.0
 40
1.0000000199999981
 50
90.000003000000945
 51
270.0
  0
LINE
  5
304F
  8
AM_0
 10
197.4872004668965
 20
222.17391836040861
 30
0.0
 11
204.2182904668966
 21
222.17391836040861
 31
0.0
  0
LINE
  5
3050
  8
AM_0
 10
197.4872004668965
 20
219.63607436040849
 30
0.0
 11
204.2182904668966
 21
219.63607436040849
 31
0.0
  0
POLYLINE
  5
305C
  8
AM_0
 66
     1
 10
0.0
 20
0.0
 30
0.0
  0
VERTEX
  5
305D
  8
AM_0
 10
198.62705046689641
 20
219.63957236040861
 30
0.0
  0
VERTEX
  5
305E
  8
AM_0
 10
198.8378215118035
 20
214.4089033604084
 30
0.0
 42
-1.0
  0
SEQEND
  5
305F
  8
AM_0
  0
LINE
  5
3084
  8
AM_0
 10
180.7183004668974
 20
277.97030686918038
 30
0.0
 11
180.7183004668972
 21
251.90890336040869
 31
0.0
  0
LINE
  5
3085
  8
AM_0
 10
171.71830046689641
 20
279.90890336040837
 30
0.0
 11
171.71830046689641
 21
208.9089033604084
 31
0.0
  0
LINE
  5
3086
  8
AM_0
 10
171.71830046689641
 20
279.90890336040837
 30
0.0
 11
188.71830046689641
 21
278.90890336040837
 31
0.0
  0
LINE
  5
3087
  8
AM_0
 10
171.71830046689641
 20
171.9089033604084
 30
0.0
 11
188.71830046689641
 21
172.9089033604084
 31
0.0
  0
LINE
  5
3088
  8
AM_0
 10
180.71830046689729
 20
269.50280655850003
 30
0.0
 11
188.71830046689641
 21
269.5028065584998
 31
0.0
  0
LINE
  5
3089
  8
AM_0
 10
180.7183004668974
 20
277.97030686918038
 30
0.0
 11
188.71830046689641
 21
277.97030686918038
 31
0.0
  0
LINE
  5
308B
  8
AM_0
 10
177.21830046689729
 20
260.54977632566852
 30
0.0
 11
180.71830046689729
 21
260.54977632566852
 31
0.0
  0
LINE
  5
308C
  8
AM_0
 10
177.21830046689729
 20
269.04977632566852
 30
0.0
 11
180.71830046689729
 21
269.04977632566852
 31
0.0
  0
LINE
  5
308D
  8
AM_0
 10
176.71830046689729
 20
268.54977632566852
 30
0.0
 11
176.71830046689729
 21
261.04977632566852
 31
0.0
  0
ARC
  5
308E
  8
AM_0
 10
177.21830046689729
 20
268.54977632566852
 30
0.0
 40
0.5
 50
90.0
 51
180.0
  0
ARC
  5
308F
  8
AM_0
 10
177.21830046689729
 20
261.04977632566852
 30
0.0
 40
0.5
 50
180.0
 51
270.0
  0
LINE
  5
3090
  8
AM_0
 10
171.71830046689641
 20
268.18109785354852
 30
0.0
 11
176.71830046689729
 21
268.18109785354852
 31
0.0
  0
LINE
  5
3091
  8
AM_0
 10
171.71830046689641
 20
258.44601535525271
 30
0.0
 11
180.7183004668972
 21
258.4460153552526
 31
0.0
  0
LINE
  5
3092
  8
AM_0
 10
180.7183004668974
 20
173.8474998516364
 30
0.0
 11
180.7183004668972
 21
201.62218996880031
 31
0.0
  0
LINE
  5
3093
  8
AM_0
 10
180.71830046689729
 20
182.31500016231689
 30
0.0
 11
188.71830046689641
 21
182.31500016231701
 31
0.0
  0
LINE
  5
3094
  8
AM_0
 10
180.7183004668974
 20
173.8474998516364
 30
0.0
 11
188.71830046689641
 21
173.8474998516364
 31
0.0
  0
LINE
  5
3096
  8
AM_0
 10
177.21830046689729
 20
191.2680303951482
 30
0.0
 11
180.71830046689729
 21
191.2680303951482
 31
0.0
  0
LINE
  5
3097
  8
AM_0
 10
177.21830046689729
 20
182.76803039514829
 30
0.0
 11
180.71830046689729
 21
182.76803039514829
 31
0.0
  0
LINE
  5
3098
  8
AM_0
 10
176.71830046689729
 20
183.26803039514829
 30
0.0
 11
176.71830046689729
 21
190.76803039514829
 31
0.0
  0
ARC
  5
3099
  8
AM_0
 10
177.21830046689729
 20
183.26803039514829
 30
0.0
 40
0.5
 50
180.0
 51
270.0
  0
ARC
  5
309A
  8
AM_0
 10
177.21830046689729
 20
190.76803039514829
 30
0.0
 40
0.5
 50
90.0
 51
180.0
  0
LINE
  5
309B
  8
AM_0
 10
171.71830046689641
 20
183.63670886726811
 30
0.0
 11
176.71830046689729
 21
183.63670886726811
 31
0.0
  0
LINE
  5
309C
  8
AM_0
 10
171.71830046689641
 20
193.37179136556409
 30
0.0
 11
180.7183004668972
 21
193.37179136556421
 31
0.0
  0
LINE
  5
320D
  8
AM_0
 10
136.80771571556079
 20
261.89931420533458
 30
0.0
 11
136.80771571556079
 21
255.38770930637571
 31
0.0
  0
LINE
  5
320E
  8
AM_0
 10
133.7183004668963
 20
214.9089033604084
 30
0.0
 11
133.7183004668963
 21
209.4089033604084
 31
0.0
  0
LINE
  5
320F
  8
AM_0
 10
139.2183004668963
 20
222.4089033604084
 30
0.0
 11
139.2183004668963
 21
229.4089033604082
 31
0.0
  0
LINE
  5
3210
  8
AM_0
 10
150.9183004668964
 20
209.4089033604084
 30
0.0
 11
133.7183004668963
 21
209.4089033604084
 31
0.0
  0
LINE
  5
3211
  8
AM_0
 10
165.7183004668963
 20
171.9089033604084
 30
0.0
 11
165.7183004668963
 21
202.61724064259579
 31
0.0
  0
LINE
  5
3212
  8
AM_0
 10
133.7183004668963
 20
224.4089033604084
 30
0.0
 11
134.6183004668963
 21
224.4089033604084
 31
0.0
  0
LINE
  5
3213
  8
AM_0
 10
151.2183004668963
 20
217.4089033604084
 30
0.0
 11
151.2183004668963
 21
219.9934130450124
 31
0.0
  0
LINE
  5
3215
  8
AM_0
 10
131.51830046689599
 20
227.4089033604084
 30
0.0
 11
131.51830046689599
 21
224.4089033604084
 31
0.0
  0
LINE
  5
3216
  8
AM_0
 10
134.6183004668963
 20
224.13655162582481
 30
0.0
 11
134.6183004668963
 21
227.68125509499211
 31
0.0
  0
LINE
  5
3217
  8
AM_0
 10
131.21830046689621
 20
227.1089033604085
 30
0.0
 11
134.61830046689639
 21
227.1089033604085
 31
0.0
  0
LINE
  5
3218
  8
AM_0
 10
138.6183004668963
 20
223.5273335000013
 30
0.0
 11
138.6183004668963
 21
222.4089033604084
 31
0.0
  0
LINE
  5
3219
  8
AM_0
 10
138.6183004668963
 20
224.4089033604084
 30
0.0
 11
138.6183004668963
 21
224.30890336040841
 31
0.0
  0
LINE
  5
321A
  8
AM_0
 10
138.6183004668963
 20
224.30890336040841
 30
0.0
 11
138.6183004668963
 21
223.5273335000013
 31
0.0
  0
LINE
  5
321B
  8
AM_0
 10
133.7183004668963
 20
209.4089033604084
 30
0.0
 11
133.7183004668963
 21
201.17136935098611
 31
0.0
  0
LINE
  5
321C
  8
AM_0
 10
151.0718538574896
 20
220.34696643560571
 30
0.0
 11
150.7167867313014
 21
220.702033561794
 31
0.0
  0
LINE
  5
321D
  8
AM_0
 10
133.7183004668963
 20
227.4089033604084
 30
0.0
 11
133.7183004668963
 21
250.64643736983069
 31
0.0
  0
LINE
  5
321E
  8
AM_0
 10
165.7183004668963
 20
270.90890336040849
 30
0.0
 11
141.94829176626371
 21
270.90890336040837
 31
0.0
  0
LINE
  5
321F
  8
AM_0
 10
133.7183004668963
 20
215.83530653612959
 30
0.0
 11
133.7183004668963
 21
224.4089033604084
 31
0.0
  0
LINE
  5
3220
  8
AM_0
 10
171.71830046689641
 20
279.90890336040837
 30
0.0
 11
165.7183004668963
 21
279.90890336040837
 31
0.0
  0
LINE
  5
3221
  8
AM_0
 10
165.7183004668963
 20
171.9089033604084
 30
0.0
 11
171.7183004668963
 21
171.9089033604084
 31
0.0
  0
LINE
  5
3223
  8
AM_0
 10
165.7183004668963
 20
180.9089033604084
 30
0.0
 11
156.2183004668963
 21
180.9089033604084
 31
0.0
  0
LINE
  5
3224
  8
AM_0
 10
133.76387720785971
 20
251.16738190283141
 30
0.0
 11
136.33332065552199
 21
265.73941981409519
 31
0.0
  0
LINE
  5
3225
  8
AM_0
 10
133.7183004668963
 20
215.83530653612959
 30
0.0
 11
133.7183004668963
 21
214.9089033604084
 31
0.0
  0
LINE
  5
3226
  8
AM_0
 10
156.2183004668963
 20
180.9775258107943
 30
0.0
 11
153.65551316799929
 21
180.9775258107943
 31
0.0
  0
LINE
  5
3227
  8
AM_0
 10
139.76213897459741
 20
180.9089033604084
 30
0.0
 11
140.7183004668963
 21
180.9089033604084
 31
0.0
  0
LINE
  5
3228
  8
AM_0
 10
133.76387720785971
 20
200.6504248179854
 30
0.0
 11
136.80771571556079
 21
183.3879588274076
 31
0.0
  0
LINE
  5
3229
  8
AM_0
 10
133.7183004668963
 20
200.9089033604084
 30
0.0
 11
133.76387720785971
 21
200.6504248179854
 31
0.0
  0
LINE
  5
322A
  8
AM_0
 10
133.7183004668963
 20
201.17136935098611
 30
0.0
 11
133.7183004668963
 21
200.9089033604084
 31
0.0
  0
LINE
  5
322B
  8
AM_0
 10
144.76830046689639
 20
196.90784697203631
 30
0.0
 11
149.66830046689631
 21
196.90784697203631
 31
0.0
  0
LINE
  5
322C
  8
AM_0
 10
144.76830046689639
 20
195.69482665360371
 30
0.0
 11
149.66830046689631
 21
195.69482665360371
 31
0.0
  0
LINE
  5
322D
  8
AM_0
 10
143.9683004668963
 20
196.10784697203641
 30
0.0
 11
143.9683004668963
 21
190.46671555158991
 31
0.0
  0
LINE
  5
322E
  8
AM_0
 10
143.9683004668963
 20
188.63530968265729
 30
0.0
 11
143.9683004668963
 21
190.46671555158991
 31
0.0
  0
LINE
  5
322F
  8
AM_0
 10
140.1183004668963
 20
181.94561302273431
 30
0.0
 11
140.1183004668963
 21
188.5681774008612
 31
0.0
  0
LINE
  5
3231
  8
AM_0
 10
150.4683004668963
 20
196.10784697203641
 30
0.0
 11
150.4683004668963
 21
194.3424713660348
 31
0.0
  0
LINE
  5
3232
  8
AM_0
 10
154.31830046689629
 20
188.5681774008612
 30
0.0
 11
154.31830046689629
 21
181.94561302273431
 31
0.0
  0
LINE
  5
3233
  8
AM_0
 10
145.85346506567009
 20
186.34934198254351
 30
0.0
 11
140.7183004668963
 21
184.5593267273191
 31
0.0
  0
LINE
  5
3234
  8
AM_0
 10
153.7183004668963
 20
184.5593267273191
 30
0.0
 11
152.0782642407504
 21
185.13101042069519
 31
0.0
  0
LINE
  5
3235
  8
AM_0
 10
144.70792706152329
 20
184.3652119573602
 30
0.0
 11
140.7183004668963
 21
182.97450824579141
 31
0.0
  0
LINE
  5
3236
  8
AM_0
 10
153.7183004668963
 20
182.97450824579141
 30
0.0
 11
151.3165632517269
 21
183.81170560753131
 31
0.0
  0
LINE
  5
3237
  8
AM_0
 10
153.7183004668963
 20
184.5593267273191
 30
0.0
 11
153.7183004668963
 21
181.6901855784742
 31
0.0
  0
LINE
  5
3238
  8
AM_0
 10
153.7183004668963
 20
181.6901855784742
 30
0.0
 11
153.7183004668963
 21
179.67094296035361
 31
0.0
  0
LINE
  5
3239
  8
AM_0
 10
147.21825820507021
 20
177.4051587611379
 30
0.0
 11
153.7183004668963
 21
179.67094296035361
 31
0.0
  0
LINE
  5
323A
  8
AM_0
 10
140.7183004668963
 20
179.67094296035361
 30
0.0
 11
140.7183004668963
 21
181.6901855784742
 31
0.0
  0
LINE
  5
323B
  8
AM_0
 10
140.7183004668963
 20
179.67094296035361
 30
0.0
 11
147.21825820507021
 21
177.40518822438571
 31
0.0
  0
LINE
  5
323C
  8
AM_0
 10
140.7183004668963
 20
181.6901855784742
 30
0.0
 11
140.7183004668963
 21
184.5593267273191
 31
0.0
  0
LINE
  5
3241
  8
AM_0
 10
133.21826179888939
 20
279.40890336040837
 30
0.0
 11
133.21823934649069
 21
306.40890336040837
 31
0.0
  0
LINE
  5
3242
  8
AM_0
 10
133.21823934649069
 20
306.40890336040837
 30
0.0
 11
141.21823934649339
 21
306.40890336040837
 31
0.0
  0
LINE
  5
3243
  8
AM_0
 10
141.21823934649339
 20
306.40890336040837
 30
0.0
 11
142.71823469131431
 21
312.00696219839688
 31
0.0
  0
LINE
  5
3244
  8
AM_0
 10
142.71823469131431
 20
312.00696219839688
 30
0.0
 11
142.7182199279539
 21
329.7605544782873
 31
0.0
  0
LINE
  5
3245
  8
AM_0
 10
133.21823934649069
 20
306.40890336040837
 30
0.0
 11
131.71823469128171
 21
312.00699694523831
 31
0.0
  0
LINE
  5
3246
  8
AM_0
 10
131.71823469128171
 20
312.00699694523831
 30
0.0
 11
131.7182199279577
 21
329.76054533101387
 31
0.0
  0
LINE
  5
3247
  8
AM_0
 10
137.21826179889069
 20
329.76054533101387
 30
0.0
 11
137.21826179889069
 21
312.00699694523831
 31
0.0
  0
LINE
  5
3249
  8
AM_0
 10
141.21823934649339
 20
306.40890336040837
 30
0.0
 11
141.2182617988922
 21
279.40890336040837
 31
0.0
  0
LINE
  5
324A
  8
AM_0
 10
151.21830046689641
 20
255.38770930637571
 30
0.0
 11
151.2183004668963
 21
209.70890336040841
 31
0.0
  0
LINE
  5
324B
  8
AM_0
 10
139.2183004668963
 20
219.9934130450124
 30
0.0
 11
139.2183004668963
 21
217.4089033604084
 31
0.0
  0
LINE
  5
324C
  8
AM_0
 10
139.71981420249131
 20
220.702033561794
 30
0.0
 11
139.3647470763031
 21
220.34696643560571
 31
0.0
  0
LINE
  5
324D
  8
AM_0
 10
150.7183004668963
 20
216.9089033604084
 30
0.0
 11
139.7183004668963
 21
216.9089033604084
 31
0.0
  0
LINE
  5
324E
  8
AM_0
 10
130.7182626303954
 20
278.40889795520138
 30
0.0
 11
130.71828965643081
 21
273.40889795520138
 31
0.0
  0
LINE
  5
324F
  8
AM_0
 10
143.71826263052691
 20
278.40890876561548
 30
0.0
 11
143.71828855834659
 21
273.61208611224481
 31
0.0
  0
LINE
  5
3250
  8
AM_0
 10
134.3388037189772
 20
271.40890336040837
 30
0.0
 11
133.7672418176119
 21
272.0654871824687
 31
0.0
  0
LINE
  5
3251
  8
AM_0
 10
131.71828965641629
 20
272.40890336040837
 30
0.0
 11
142.71828855834659
 21
272.40890336040837
 31
0.0
  0
LINE
  5
3252
  8
AM_0
 10
143.71828855834659
 20
273.61208611224481
 30
0.0
 11
143.71828855834659
 21
273.40890336040837
 31
0.0
  0
LINE
  5
3253
  8
AM_0
 10
143.71828855834659
 20
273.61208611224481
 30
0.0
 11
143.71828965656229
 21
273.40890876561548
 31
0.0
  0
LINE
  5
3254
  8
AM_0
 10
131.71826263038079
 20
279.40890336040837
 30
0.0
 11
142.7182626305414
 21
279.40890336040837
 31
0.0
  0
LINE
  5
3255
  8
AM_0
 10
141.72573642905849
 20
271.43949043069381
 30
0.0
 11
148.848536162404
 21
254.45825111194711
 31
0.0
  0
LINE
  5
3256
  8
AM_0
 10
134.3388037189772
 20
271.40890336040837
 30
0.0
 11
140.91551879428741
 21
252.71436273000609
 31
0.0
  0
LINE
  5
3257
  8
AM_0
 10
138.6183004668963
 20
224.4089033604084
 30
0.0
 11
138.6183004668963
 21
224.30890336040841
 31
0.0
  0
LINE
  5
3258
  8
AM_0
 10
138.6183004668963
 20
224.30890336040841
 30
0.0
 11
138.6183004668963
 21
223.5273335000013
 31
0.0
  0
LINE
  5
3259
  8
AM_0
 10
138.6183004668963
 20
222.4089033604084
 30
0.0
 11
139.2183004668963
 21
222.4089033604084
 31
0.0
  0
LINE
  5
325A
  8
AM_0
 10
135.91830046689631
 20
223.5273335000013
 30
0.0
 11
135.91830046689631
 21
228.29047322081561
 31
0.0
  0
LINE
  5
325B
  8
AM_0
 10
135.75725623763881
 20
223.2406418716582
 30
0.0
 11
134.82470318813159
 21
223.77905162582491
 31
0.0
  0
LINE
  5
325C
  8
AM_0
 10
138.6183004668963
 20
229.4089033604082
 30
0.0
 11
138.6183004668963
 21
224.4089033604084
 31
0.0
  0
LINE
  5
325D
  8
AM_0
 10
136.1907520589269
 20
222.73347687986549
 30
0.0
 11
138.34584887486571
 21
222.73347687986549
 31
0.0
  0
LINE
  5
325E
  8
AM_0
 10
136.1907520589269
 20
224.321190120137
 30
0.0
 11
138.34584887486571
 21
224.32119012013709
 31
0.0
  0
LINE
  5
325F
  8
AM_0
 10
134.61830046689639
 20
227.4089033604084
 30
0.0
 11
131.51830046689599
 21
227.4089033604084
 31
0.0
  0
LINE
  5
3260
  8
AM_0
 10
131.51830046689599
 20
227.4089033604084
 30
0.0
 11
131.21830046689621
 21
227.1089033604085
 31
0.0
  0
LINE
  5
3261
  8
AM_0
 10
131.21830046689621
 20
227.1089033604085
 30
0.0
 11
131.21830046689621
 21
224.70890336040841
 31
0.0
  0
LINE
  5
3262
  8
AM_0
 10
131.51830046689599
 20
224.4089033604084
 30
0.0
 11
133.7183004668963
 21
224.4089033604084
 31
0.0
  0
LINE
  5
3263
  8
AM_0
 10
131.21830046689621
 20
224.70890336040841
 30
0.0
 11
131.51830046689599
 21
224.4089033604084
 31
0.0
  0
LINE
  5
3264
  8
AM_0
 10
134.6183004668963
 20
224.70890336040841
 30
0.0
 11
131.21830046689621
 21
224.70890336040841
 31
0.0
  0
ARC
  5
3265
  8
AM_0
 10
133.2183004668963
 20
225.9089033604084
 30
0.0
 40
18.000000000000082
 50
344.7909603598892
 51
15.20903964010752
  0
ARC
  5
3266
  8
AM_0
 10
137.3255236508698
 20
223.5273335000013
 30
0.0
 40
1.292776816026465
 50
322.11555894630447
 51
0.0
  0
ARC
  5
3267
  8
AM_0
 10
157.2183004668963
 20
225.9089033604084
 30
0.0
 40
17.999999999999918
 50
164.790960359889
 51
195.20903964011049
  0
ARC
  5
3268
  8
AM_0
 10
144.52211331796479
 20
182.659315454074
 30
0.0
 40
6.001601094213977
 50
95.294644622325137
 51
137.2036378052702
  0
ARC
  5
3269
  8
AM_0
 10
144.52211331796479
 20
184.49072132300671
 30
0.0
 40
6.0016010942139619
 50
95.294644622325137
 51
137.2036378052702
  0
ARC
  5
326A
  8
AM_0
 10
140.9880321520935
 20
183.156201111158
 30
0.0
 40
1.4906229315522701
 50
234.3051223779006
 51
259.57476505017542
  0
ARC
  5
326B
  8
AM_0
 10
149.91448761582791
 20
184.49072132300671
 30
0.0
 40
6.0016010942138749
 50
42.796362194729817
 51
44.995924864880571
  0
ARC
  5
326C
  8
AM_0
 10
149.91448761582791
 20
182.659315454074
 30
0.0
 40
6.0016010942138749
 50
42.796362194729817
 51
53.89727831640235
  0
ARC
  5
326D
  8
AM_0
 10
153.44856878169921
 20
183.156201111158
 30
0.0
 40
1.490622931552253
 50
280.42523494982129
 51
305.69487762209508
  0
ARC
  5
326E
  8
AM_0
 10
137.21822687293721
 20
321.40890336040837
 30
0.0
 40
10.0
 50
56.63303467623782
 51
123.3670606147022
  0
ARC
  5
326F
  8
AM_0
 10
134.4682408634242
 20
325.32789697140799
 30
0.0
 40
5.2164151124522951
 50
58.18448044842868
 51
121.8155195515713
  0
ARC
  5
3270
  8
AM_0
 10
139.96824823705879
 20
325.32702208064791
 30
0.0
 40
5.2171403873810611
 50
58.190058295973543
 51
121.81013228735971
  0
ARC
  5
3271
  8
AM_0
 10
134.46824824508619
 20
313.37495095958121
 30
0.0
 40
3.0714610092699122
 50
206.44737672421789
 51
333.55262327578203
  0
ARC
  5
3272
  8
AM_0
 10
139.9682568764575
 20
313.3732107548858
 30
0.0
 40
3.070669812974502
 50
206.41845794673111
 51
333.58081810520679
  0
ARC
  5
3273
  8
AM_0
 10
140.680730342956
 20
225.9089033604084
 30
0.0
 40
4.762429876059711
 50
160.52575999458659
 51
199.47424000541341
  0
ARC
  5
3274
  8
AM_0
 10
137.21107728292279
 20
223.5273335000013
 30
0.0
 40
1.2927768160265549
 50
142.11555894629771
 51
217.88444105369541
  0
ARC
  5
3275
  8
AM_0
 10
133.85587059083679
 20
225.9089033604084
 30
0.0
 40
4.762429876059584
 50
340.52575999458662
 51
19.474240005410071
  0
ARC
  5
3276
  8
AM_0
 10
137.3255236508698
 20
223.5273335000013
 30
0.0
 40
1.2927768160265021
 50
0.0
 51
37.884441053702282
  0
ARC
  5
3277
  8
AM_0
 10
146.9508486241927
 20
190.98400853499501
 30
8206336.7530117426
 40
12.9134744604336
 50
271.18655406403798
 51
287.92670513354841
  0
LINE
  5
3278
  8
AM_0
 10
150.92561755359131
 20
178.6974697791795
 30
8206336.7530117426
 11
151.3381983207924
 21
178.8507114645721
 31
8206336.7530117426
  0
LINE
  5
3279
  8
AM_0
 10
151.3381983207924
 20
178.8507114645721
 30
8206336.7530117426
 11
151.74069006504899
 21
179.02968082727779
 31
8206336.7530117426
  0
ARC
  5
327A
  8
AM_0
 10
149.2369284242931
 20
184.3144813910003
 30
8206336.7530117426
 40
5.8479004225482907
 50
295.35002817212489
 51
303.5670510400584
  0
LINE
  5
327B
  8
AM_0
 10
152.470305500303
 20
179.4417806987378
 30
8206336.7530117426
 11
152.78484837955421
 21
179.6740541539084
 31
8206336.7530117426
  0
LINE
  5
327C
  8
AM_0
 10
152.78484837955421
 20
179.6740541539084
 30
8206336.7530117426
 11
153.0740375277517
 21
179.93692502994699
 31
8206336.7530117426
  0
ARC
  5
327D
  8
AM_0
 10
151.19515456437341
 20
181.8026094201544
 30
8206336.7530117426
 40
2.6478254160605781
 50
315.2019510761055
 51
327.66908745373593
  0
LINE
  5
327E
  8
AM_0
 10
153.43249664421921
 20
180.38653037868551
 30
8206336.7530117426
 11
153.56141260049861
 21
180.62606214392159
 31
8206336.7530117426
  0
LINE
  5
327F
  8
AM_0
 10
153.56141260049861
 20
180.62606214392159
 30
8206336.7530117426
 11
153.65551316799929
 21
180.88072113240599
 31
8206336.7530117426
  0
ARC
  5
3280
  8
AM_0
 10
152.05669292905031
 20
181.3358097970092
 30
8206336.7530117426
 40
1.6623272388802151
 50
344.1115111941516
 51
352.55958186686098
  0
LINE
  5
3281
  8
AM_0
 10
153.7050234713783
 20
181.1205465341144
 30
8206336.7530117426
 11
153.71492813581929
 21
181.22141228783519
 31
8206336.7530117426
  0
LINE
  5
3282
  8
AM_0
 10
153.71492813581929
 20
181.22141228783519
 30
8206336.7530117426
 11
153.7183004668963
 21
181.32271100157411
 31
8206336.7530117426
  0
ARC
  5
3283
  8
AM_0
 10
152.1232070482269
 20
181.3197348500758
 30
8206336.7530117426
 40
1.5950961951431459
 50
0.1069032823798393
 51
11.47976002760983
  0
LINE
  5
3284
  8
AM_0
 10
153.68639345728531
 20
181.6371937014174
 30
8206336.7530117426
 11
153.64576154710011
 21
181.79776757694191
 31
8206336.7530117426
  0
LINE
  5
3285
  8
AM_0
 10
153.64576154710011
 20
181.79776757694191
 30
8206336.7530117426
 11
153.5901214825665
 21
181.9537358703646
 31
8206336.7530117426
  0
ARC
  5
3286
  8
AM_0
 10
151.71464718891281
 20
181.17835308897969
 30
8206336.7530117426
 40
2.029438908620818
 50
22.461811304460841
 51
32.14428943578929
  0
LINE
  5
3287
  8
AM_0
 10
153.4329952319095
 20
182.2581226416869
 30
8206336.7530117426
 11
153.31070648537499
 21
182.43543323440869
 31
8206336.7530117426
  0
LINE
  5
3288
  8
AM_0
 10
153.31070648537499
 20
182.43543323440869
 30
8206336.7530117426
 11
153.17385288503681
 21
182.60181515679821
 31
8206336.7530117426
  0
ARC
  5
3289
  8
AM_0
 10
150.6756948988529
 20
180.35880347098541
 30
8206336.7530117426
 40
3.357364255874967
 50
41.919595935557027
 51
50.918621528346122
  0
LINE
  5
328A
  8
AM_0
 10
152.79225640386031
 20
182.9649619738681
 30
8206336.7530117426
 11
152.3731177864602
 21
183.2676584514937
 31
8206336.7530117426
  0
LINE
  5
328B
  8
AM_0
 10
152.3731177864602
 20
183.2676584514937
 30
8206336.7530117426
 11
151.92396410656261
 21
183.52501015274839
 31
8206336.7530117426
  0
ARC
  5
328C
  8
AM_0
 10
148.59273842353511
 20
176.9973998584789
 30
8206336.7530117426
 40
7.3284896605723491
 50
62.963482965306312
 51
68.223671679105394
  0
ARC
  5
3293
  8
AM_0
 10
147.48575230961561
 20
190.9840085350481
 30
8206336.7530117426
 40
12.91347446048893
 50
252.0732948664546
 51
268.81307083254632
  0
LINE
  5
3294
  8
AM_0
 10
143.5109833802014
 20
178.6974697791795
 30
8206336.7530117426
 11
143.09840261300019
 21
178.8507114645721
 31
8206336.7530117426
  0
LINE
  5
3295
  8
AM_0
 10
143.09840261300019
 20
178.8507114645721
 30
8206336.7530117426
 11
142.6959108687436
 21
179.02968082727779
 31
8206336.7530117426
  0
ARC
  5
3296
  8
AM_0
 10
145.1996725095045
 20
184.31448139100891
 30
8206336.7530117426
 40
5.8479004225582409
 50
236.43294895995061
 51
244.649971827868
  0
LINE
  5
3297
  8
AM_0
 10
141.96629543348959
 20
179.4417806987378
 30
8206336.7530117426
 11
141.6517525542385
 21
179.6740541539084
 31
8206336.7530117426
  0
LINE
  5
3298
  8
AM_0
 10
141.6517525542385
 20
179.6740541539084
 30
8206336.7530117426
 11
141.36256340604101
 21
179.93692502994699
 31
8206336.7530117426
  0
ARC
  5
3299
  8
AM_0
 10
143.2414463694189
 20
181.80260942015391
 30
8206336.7530117426
 40
2.6478254160599781
 50
212.33091254625589
 51
224.79804892389001
  0
LINE
  5
329A
  8
AM_0
 10
141.00410428957341
 20
180.38653037868551
 30
8206336.7530117426
 11
140.87518833329409
 21
180.62606214392159
 31
8206336.7530117426
  0
LINE
  5
329B
  8
AM_0
 10
140.87518833329409
 20
180.62606214392159
 30
8206336.7530117426
 11
140.7810877657933
 21
180.88072113240599
 31
8206336.7530117426
  0
ARC
  5
329C
  8
AM_0
 10
142.37990800477201
 20
181.3358097970158
 30
8206336.7530117426
 40
1.6623272389105701
 50
187.44041813322769
 51
195.88848880578729
  0
LINE
  5
329D
  8
AM_0
 10
140.73157746241429
 20
181.1205465341144
 30
8206336.7530117426
 11
140.72167279797341
 21
181.22141228783519
 31
8206336.7530117426
  0
LINE
  5
329E
  8
AM_0
 10
140.72167279797341
 20
181.22141228783519
 30
8206336.7530117426
 11
140.7183004668963
 21
181.32271100157411
 31
8206336.7530117426
  0
ARC
  5
329F
  8
AM_0
 10
142.3133938855629
 20
181.3197348500758
 30
8206336.7530117426
 40
1.5950961951403351
 50
168.52023997237021
 51
179.8930967176201
  0
LINE
  5
32A0
  8
AM_0
 10
140.75020747650731
 20
181.6371937014174
 30
8206336.7530117426
 11
140.7908393866926
 21
181.79776757694191
 31
8206336.7530117426
  0
LINE
  5
32A1
  8
AM_0
 10
140.7908393866926
 20
181.79776757694191
 30
8206336.7530117426
 11
140.846479451226
 21
181.9537358703646
 31
8206336.7530117426
  0
ARC
  5
32A2
  8
AM_0
 10
142.7219537448895
 20
181.17835308897381
 30
8206336.7530117426
 40
2.02943890863216
 50
147.8557105642179
 51
157.53818869548999
  0
LINE
  5
32A3
  8
AM_0
 10
141.00360570188309
 20
182.2581226416869
 30
8206336.7530117426
 11
141.12589444841771
 21
182.43543323440869
 31
8206336.7530117426
  0
LINE
  5
32A4
  8
AM_0
 10
141.12589444841771
 20
182.43543323440869
 30
8206336.7530117426
 11
141.2627480487559
 21
182.60181515679821
 31
8206336.7530117426
  0
ARC
  5
32A5
  8
AM_0
 10
143.7609060349485
 20
180.35880347097699
 30
8206336.7530117426
 40
3.3573642558870951
 50
129.08137847167899
 51
138.08040406443371
  0
LINE
  5
32A6
  8
AM_0
 10
141.64434452993231
 20
182.9649619738681
 30
8206336.7530117426
 11
142.06348314733239
 21
183.2676584514937
 31
8206336.7530117426
  0
LINE
  5
32A7
  8
AM_0
 10
142.06348314733239
 20
183.2676584514937
 30
8206336.7530117426
 11
142.5126368272301
 21
183.52501015274839
 31
8206336.7530117426
  0
ARC
  5
32A8
  8
AM_0
 10
145.84386251025651
 20
176.99739985848291
 30
8206336.7530117426
 40
7.3284896605682359
 50
109.0382363849769
 51
117.03651703470091
  0
LINE
  5
32A9
  8
AM_0
 10
143.45331596547879
 20
183.92502917321301
 30
8206336.7530117426
 11
144.12981386004611
 21
184.13190902283131
 31
8206336.7530117426
  0
LINE
  5
32AA
  8
AM_0
 10
144.12981386004611
 20
184.13190902283131
 30
8206336.7530117426
 11
144.67660323778139
 21
184.25701034438339
 31
8206336.7530117426
  0
ARC
  5
32D7
  8
AM_0
 10
150.9183004668964
 20
209.70890336040841
 30
0.0
 40
0.2999999999999972
 50
270.0
 51
0.0
  0
ARC
  5
32D8
  8
AM_0
 10
151.07034012189459
 20
221.0555869523873
 30
0.0
 40
0.4999999999998723
 50
164.79096035989909
 51
225.00000000001879
  0
ARC
  5
32D9
  8
AM_0
 10
136.7183004668963
 20
201.17136935098611
 30
0.0
 40
3.0
 50
180.0
 51
190.00000000000171
  0
ARC
  5
32DA
  8
AM_0
 10
136.7183004668963
 20
250.64643736983069
 30
0.0
 40
2.9999999999999911
 50
169.9999999999981
 51
180.0
  0
ARC
  5
32DB
  8
AM_0
 10
139.76213897459741
 20
183.9089033604084
 30
0.0
 40
2.9999999999999631
 50
190.00000000000171
 51
270.0
  0
ARC
  5
32DC
  8
AM_0
 10
144.76830046689639
 20
196.10784697203641
 30
0.0
 40
0.7999999999998977
 50
90.0
 51
180.0
  0
ARC
  5
32DD
  8
AM_0
 10
144.76830046689639
 20
194.8948266536037
 30
0.0
 40
0.7999999999999972
 50
90.0
 51
180.0
  0
ARC
  5
32DE
  8
AM_0
 10
149.66830046689631
 20
196.10784697203641
 30
0.0
 40
0.8000000000000112
 50
0.0
 51
90.0
  0
ARC
  5
32DF
  8
AM_0
 10
149.66830046689631
 20
194.8948266536037
 30
0.0
 40
0.8000000000000112
 50
0.0
 51
90.0
  0
ARC
  5
32E0
  8
AM_0
 10
139.7183004668963
 20
217.4089033604084
 30
0.0
 40
0.5
 50
180.0
 51
270.0
  0
ARC
  5
32E1
  8
AM_0
 10
150.7183004668963
 20
217.4089033604084
 30
0.0
 40
0.5
 50
270.0
 51
0.0
  0
ARC
  5
32E2
  8
AM_0
 10
150.7183004668963
 20
219.9934130450124
 30
0.0
 40
0.5
 50
0.0
 51
45.000000000000291
  0
ARC
  5
32E3
  8
AM_0
 10
139.366260811898
 20
221.0555869523873
 30
0.0
 40
0.5000000000001048
 50
314.99999999998619
 51
15.20903964010069
  0
ARC
  5
32E4
  8
AM_0
 10
139.7183004668963
 20
219.9934130450124
 30
0.0
 40
0.499999999999984
 50
134.99999999999079
 51
180.0
  0
ARC
  5
32E5
  8
AM_0
 10
131.71826263038079
 20
278.40890336040837
 30
0.0
 40
1.0
 50
90.0
 51
180.00030969555451
  0
ARC
  5
32E6
  8
AM_0
 10
142.7182626305414
 20
278.40890336040837
 30
0.0
 40
0.9999999999999992
 50
0.0003096955479991
 51
90.0
  0
ARC
  5
32E7
  8
AM_0
 10
131.71828965641629
 20
273.40890336040837
 30
0.0
 40
0.9999999999999992
 50
180.00030969555451
 51
270.0
  0
ARC
  5
32E8
  8
AM_0
 10
142.71828855834659
 20
273.40890336040837
 30
0.0
 40
1.0
 50
270.0
 51
0.0
  0
ARC
  5
32E9
  8
AM_0
 10
142.19853034543181
 20
271.80890336040841
 30
0.0
 40
0.5999999999999944
 50
90.0
 51
218.00194433773029
  0
ARC
  5
32EA
  8
AM_0
 10
133.01298875357531
 20
271.40890336040837
 30
0.0
 40
0.9999999999999468
 50
41.03985310957956
 51
90.0
  0
ARC
  5
32EB
  8
AM_0
 10
135.03110590936689
 20
224.13655162582481
 30
0.0
 40
0.4128054424705855
 50
180.0
 51
239.99999999999949
  0
ARC
  5
32EC
  8
AM_0
 10
135.3444507951682
 20
222.52564187165831
 30
0.0
 40
0.8256108849411369
 50
28.21742459417548
 51
59.999999999996653
  0
LINE
  5
32ED
  8
AM_0
 10
134.5080347965278
 20
255.38770930637571
 30
0.0
 11
139.97503894629671
 21
255.38770930637571
 31
0.0
  0
LINE
  5
32EE
  8
AM_0
 10
148.4586738882104
 20
255.38770930637571
 30
0.0
 11
151.2183004668963
 21
255.38770930637571
 31
0.0
  0
LINE
  5
32EF
  8
AM_0
 10
138.61830046689661
 20
229.40890336040829
 30
0.0
 11
139.21830046689661
 21
229.4089033604082
 31
0.0
  0
LINE
  5
32F0
  8
AM_0
 10
135.7572562376391
 20
228.57716484915861
 30
0.0
 11
134.82470318813179
 21
228.03875509499221
 31
0.0
  0
LINE
  5
32F1
  8
AM_0
 10
136.19075205892719
 20
229.08432984095151
 30
0.0
 11
138.34584887486599
 21
229.0843298409512
 31
0.0
  0
LINE
  5
32F2
  8
AM_0
 10
136.19075205892699
 20
227.49661660068
 30
0.0
 11
138.34584887486591
 21
227.4966166006798
 31
0.0
  0
ARC
  5
32F3
  8
AM_0
 10
137.32552365087
 20
228.29047322081561
 30
0.0
 40
1.292776816026465
 50
359.99999999999352
 51
37.884441053691312
  0
ARC
  5
32F4
  8
AM_0
 10
137.21107728292299
 20
228.29047322081561
 30
0.0
 40
1.2927768160265549
 50
142.11555894629771
 51
217.88444105369541
  0
ARC
  5
32F5
  8
AM_0
 10
137.32552365087
 20
228.29047322081561
 30
0.0
 40
1.2927768160265021
 50
322.11555894629339
 51
359.99999999999352
  0
ARC
  5
32F6
  8
AM_0
 10
135.031105909367
 20
227.68125509499211
 30
0.0
 40
0.4128054424705855
 50
119.99999999999331
 51
179.99999999999341
  0
ARC
  5
32F7
  8
AM_0
 10
135.34445079516851
 20
229.2921648491587
 30
0.0
 40
0.8256108849411369
 50
300.00000000000028
 51
331.7825754058203
  0
LINE
  5
32F8
  8
AM_0
 10
151.21830046689681
 20
234.40890336040781
 30
0.0
 11
151.21830046689669
 21
231.8243936758038
 31
0.0
  0
LINE
  5
32F9
  8
AM_0
 10
151.07185385749
 20
231.4708402852105
 30
0.0
 11
150.71678673130171
 21
231.11577315902241
 31
0.0
  0
LINE
  5
32FA
  8
AM_0
 10
139.21830046689669
 20
231.82439367580471
 30
0.0
 11
139.21830046689681
 21
234.4089033604086
 31
0.0
  0
LINE
  5
32FB
  8
AM_0
 10
139.7198142024917
 20
231.11577315902309
 30
0.0
 11
139.3647470763035
 21
231.4708402852113
 31
0.0
  0
LINE
  5
32FC
  8
AM_0
 10
150.71830046689681
 20
234.90890336040789
 30
0.0
 11
150.23772258104941
 21
234.908903360408
 31
0.0
  0
LINE
  5
32FD
  8
AM_0
 10
140.1988783527442
 20
234.90890336040869
 30
0.0
 11
139.71830046689681
 21
234.90890336040869
 31
0.0
  0
ARC
  5
32FE
  8
AM_0
 10
151.0703401218949
 20
230.76221976842899
 30
0.0
 40
0.4999999999998723
 50
134.99999999997701
 51
195.20903964009739
  0
ARC
  5
32FF
  8
AM_0
 10
139.71830046689681
 20
234.4089033604086
 30
0.0
 40
0.5
 50
89.999999999996732
 51
179.99999999999659
  0
ARC
  5
3300
  8
AM_0
 10
150.71830046689681
 20
234.40890336040781
 30
0.0
 40
0.5
 50
359.99999999999682
 51
89.999999999996732
  0
ARC
  5
3301
  8
AM_0
 10
150.71830046689669
 20
231.8243936758038
 30
0.0
 40
0.5
 50
314.9999999999954
 51
359.99999999999682
  0
ARC
  5
3302
  8
AM_0
 10
139.36626081189829
 20
230.76221976842979
 30
0.0
 40
0.5000000000001048
 50
344.79096035989602
 51
45.000000000009209
  0
ARC
  5
3303
  8
AM_0
 10
139.71830046689669
 20
231.82439367580471
 30
0.0
 40
0.499999999999984
 50
179.99999999999659
 51
225.0000000000046
  0
LINE
  5
3304
  8
AM_0
 10
141.19887835274429
 20
251.0550547582302
 30
0.0
 11
141.1988783527442
 21
235.90890336040869
 31
0.0
  0
ARC
  5
3305
  8
AM_0
 10
140.1988783527442
 20
235.90890336040869
 30
0.0
 40
1.0
 50
269.99999999999682
 51
0.0
1001
GENIUS_GENODEF_13
1002
{
1000
HIER
1070
     0
1002
}
1002
{
1000
MANEDIT
1070
     0
1002
}
1002
{
1000
NOSEL
1070
     0
1002
}
1002
{
1000
BEHIND
1070
     0
1002
}
1002
{
1000
OTHER
1070
     0
1002
}
1002
{
1000
REACTOR
1002
}
1001
GENIUS_GENOBJ-N-FIL_13
1002
{
1000
OWNER
1000
GEN
1002
}
  0
ARC
  5
3306
  8
AM_0
 10
136.19887835274429
 20
251.0550547582302
 30
0.0
 40
5.0
 50
0.0
 51
19.381805699020301
1001
GENIUS_GENOBJ-N-FIL_13
1002
{
1000
OWNER
1000
GEN
1002
}
1001
GENIUS_GENODEF_13
1002
{
1000
HIER
1070
     0
1002
}
1002
{
1000
MANEDIT
1070
     0
1002
}
1002
{
1000
NOSEL
1070
     0
1002
}
1002
{
1000
BEHIND
1070
     0
1002
}
1002
{
1000
OTHER
1070
     0
1002
}
1002
{
1000
REACTOR
1002
}
  0
LINE
  5
3307
  8
AM_0
 10
149.23772258104961
 20
252.5242402231469
 30
0.0
 11
149.23772258104961
 21
235.908903360408
 31
0.0
  0
ARC
  5
3308
  8
AM_0
 10
150.23772258104961
 20
235.908903360408
 30
0.0
 40
1.0
 50
180.0
 51
269.99999999999352
1001
GENIUS_GENOBJ-N-FIL_13
1002
{
1000
OWNER
1000
GEN
1002
}
1001
GENIUS_GENODEF_13
1002
{
1000
HIER
1070
     0
1002
}
1002
{
1000
MANEDIT
1070
     0
1002
}
1002
{
1000
NOSEL
1070
     0
1002
}
1002
{
1000
BEHIND
1070
     0
1002
}
1002
{
1000
OTHER
1070
     0
1002
}
1002
{
1000
REACTOR
1002
}
  0
ARC
  5
3309
  8
AM_0
 10
144.23772258104961
 20
252.5242402231469
 30
0.0
 40
5.0
 50
0.0
 51
22.755667319207308
1001
GENIUS_GENODEF_13
1002
{
1000
HIER
1070
     0
1002
}
1002
{
1000
MANEDIT
1070
     0
1002
}
1002
{
1000
NOSEL
1070
     0
1002
}
1002
{
1000
BEHIND
1070
     0
1002
}
1002
{
1000
OTHER
1070
     0
1002
}
1002
{
1000
REACTOR
1002
}
1001
GENIUS_GENOBJ-N-FIL_13
1002
{
1000
OWNER
1000
GEN
1002
}
  0
LINE
  5
330A
  8
AM_0
 10
139.94483931355441
 20
230.89074804796039
 30
0.0
 11
150.4917616202396
 21
230.89074804796039
 31
0.0
  0
LINE
  5
330B
  8
AM_0
 10
139.9448393135541
 20
220.9270586728567
 30
0.0
 11
150.49176162023861
 21
220.9270586728567
 31
0.0
  0
LINE
  5
330C
  8
AM_0
 10
136.80771571556079
 20
189.91849251548231
 30
0.0
 11
136.80771571556079
 21
209.4089033604084
 31
0.0
  0
LINE
  5
330D
  8
AM_0
 10
139.76213897459741
 20
180.9089033604084
 30
0.0
 11
139.76213897459741
 21
209.4089033604084
 31
0.0
  0
LINE
  5
335B
  8
AM_0
 10
170.42523928377281
 20
208.9089033604084
 30
0.0
 11
177.2182904668966
 21
208.9089033604084
 31
0.0
  0
LINE
  5
3361
  8
AM_0
 10
168.11583820701421
 20
202.9089033604084
 30
0.0
 11
177.2182904668966
 21
202.9089033604084
 31
0.0
  0
LINE
  5
3362
  8
AM_0
 10
150.09659855450539
 20
181.69866476850319
 30
0.0
 11
159.4555841691699
 21
197.9089033604084
 31
0.0
  0
LINE
  5
3363
  8
AM_0
 10
144.90044613179879
 20
184.69866476850319
 30
0.0
 11
153.10473120808399
 21
198.9089033604084
 31
0.0
  0
POLYLINE
  5
3374
  8
AM_0
 66
     1
 10
0.0
 20
0.0
 30
0.0
 70
     8
  0
VERTEX
  5
5936
  8
AM_0
 10
144.90000000000001
 20
184.69900000000001
 30
0.0
 70
    32
  0
VERTEX
  5
5937
  8
AM_0
 10
144.85599999999999
 20
184.62
 30
0.0
 70
    32
  0
VERTEX
  5
5938
  8
AM_0
 10
144.81299999999999
 20
184.53999999999999
 30
0.0
 70
    32
  0
VERTEX
  5
5939
  8
AM_0
 10
144.77199999999999
 20
184.459
 30
0.0
 70
    32
  0
VERTEX
  5
593A
  8
AM_0
 10
144.732
 20
184.37799999999999
 30
0.0
 70
    32
  0
VERTEX
  5
593B
  8
AM_0
 10
144.69399999999999
 20
184.29599999999999
 30
0.0
 70
    32
  0
VERTEX
  5
593C
  8
AM_0
 10
144.65700000000001
 20
184.21299999999999
 30
0.0
 70
    32
  0
VERTEX
  5
593D
  8
AM_0
 10
144.62299999999999
 20
184.12899999999999
 30
0.0
 70
    32
  0
VERTEX
  5
593E
  8
AM_0
 10
144.59
 20
184.04599999999999
 30
0.0
 70
    32
  0
VERTEX
  5
593F
  8
AM_0
 10
144.559
 20
183.96100000000001
 30
0.0
 70
    32
  0
VERTEX
  5
5940
  8
AM_0
 10
144.529
 20
183.87599999999989
 30
0.0
 70
    32
  0
VERTEX
  5
5941
  8
AM_0
 10
144.50200000000001
 20
183.791
 30
0.0
 70
    32
  0
VERTEX
  5
5942
  8
AM_0
 10
144.476
 20
183.70500000000001
 30
0.0
 70
    32
  0
VERTEX
  5
5943
  8
AM_0
 10
144.452
 20
183.619
 30
0.0
 70
    32
  0
VERTEX
  5
5944
  8
AM_0
 10
144.43000000000001
 20
183.53299999999999
 30
0.0
 70
    32
  0
VERTEX
  5
5945
  8
AM_0
 10
144.41
 20
183.446
 30
0.0
 70
    32
  0
VERTEX
  5
5946
  8
AM_0
 10
144.39099999999999
 20
183.36000000000001
 30
0.0
 70
    32
  0
VERTEX
  5
5947
  8
AM_0
 10
144.375
 20
183.273
 30
0.0
 70
    32
  0
VERTEX
  5
5948
  8
AM_0
 10
144.36000000000001
 20
183.18599999999989
 30
0.0
 70
    32
  0
VERTEX
  5
5949
  8
AM_0
 10
144.34700000000001
 20
183.09999999999999
 30
0.0
 70
    32
  0
VERTEX
  5
594A
  8
AM_0
 10
144.33600000000001
 20
183.01300000000001
 30
0.0
 70
    32
  0
VERTEX
  5
594B
  8
AM_0
 10
144.327
 20
182.92599999999999
 30
0.0
 70
    32
  0
VERTEX
  5
594C
  8
AM_0
 10
144.31999999999999
 20
182.84
 30
0.0
 70
    32
  0
VERTEX
  5
594D
  8
AM_0
 10
144.315
 20
182.75399999999999
 30
0.0
 70
    32
  0
VERTEX
  5
594E
  8
AM_0
 10
144.31200000000001
 20
182.66800000000001
 30
0.0
 70
    32
  0
VERTEX
  5
594F
  8
AM_0
 10
144.31100000000001
 20
182.58199999999999
 30
0.0
 70
    32
  0
VERTEX
  5
5950
  8
AM_0
 10
144.31100000000001
 20
182.49700000000001
 30
0.0
 70
    32
  0
VERTEX
  5
5951
  8
AM_0
 10
144.31399999999999
 20
182.41200000000001
 30
0.0
 70
    32
  0
VERTEX
  5
5952
  8
AM_0
 10
144.31800000000001
 20
182.328
 30
0.0
 70
    32
  0
VERTEX
  5
5953
  8
AM_0
 10
144.32400000000001
 20
182.244
 30
0.0
 70
    32
  0
VERTEX
  5
5954
  8
AM_0
 10
144.333
 20
182.16099999999989
 30
0.0
 70
    32
  0
VERTEX
  5
5955
  8
AM_0
 10
144.34299999999999
 20
182.078
 30
0.0
 70
    32
  0
VERTEX
  5
5956
  8
AM_0
 10
144.35499999999999
 20
181.99600000000001
 30
0.0
 70
    32
  0
VERTEX
  5
5957
  8
AM_0
 10
144.369
 20
181.91499999999999
 30
0.0
 70
    32
  0
VERTEX
  5
5958
  8
AM_0
 10
144.38499999999999
 20
181.83500000000001
 30
0.0
 70
    32
  0
VERTEX
  5
5959
  8
AM_0
 10
144.40299999999999
 20
181.755
 30
0.0
 70
    32
  0
VERTEX
  5
595A
  8
AM_0
 10
144.422
 20
181.67699999999999
 30
0.0
 70
    32
  0
VERTEX
  5
595B
  8
AM_0
 10
144.44399999999999
 20
181.59899999999999
 30
0.0
 70
    32
  0
VERTEX
  5
595C
  8
AM_0
 10
144.46700000000001
 20
181.52199999999999
 30
0.0
 70
    32
  0
VERTEX
  5
595D
  8
AM_0
 10
144.49199999999999
 20
181.446
 30
0.0
 70
    32
  0
VERTEX
  5
595E
  8
AM_0
 10
144.51900000000001
 20
181.37100000000001
 30
0.0
 70
    32
  0
VERTEX
  5
595F
  8
AM_0
 10
144.548
 20
181.298
 30
0.0
 70
    32
  0
VERTEX
  5
5960
  8
AM_0
 10
144.578
 20
181.22499999999999
 30
0.0
 70
    32
  0
VERTEX
  5
5961
  8
AM_0
 10
144.61000000000001
 20
181.154
 30
0.0
 70
    32
  0
VERTEX
  5
5962
  8
AM_0
 10
144.64400000000001
 20
181.083
 30
0.0
 70
    32
  0
VERTEX
  5
5963
  8
AM_0
 10
144.68000000000001
 20
181.01499999999999
 30
0.0
 70
    32
  0
VERTEX
  5
5964
  8
AM_0
 10
144.71700000000001
 20
180.947
 30
0.0
 70
    32
  0
VERTEX
  5
5965
  8
AM_0
 10
144.75700000000001
 20
180.881
 30
0.0
 70
    32
  0
VERTEX
  5
5966
  8
AM_0
 10
144.797
 20
180.81599999999989
 30
0.0
 70
    32
  0
VERTEX
  5
5967
  8
AM_0
 10
144.84
 20
180.75299999999999
 30
0.0
 70
    32
  0
VERTEX
  5
5968
  8
AM_0
 10
144.88399999999999
 20
180.691
 30
0.0
 70
    32
  0
VERTEX
  5
5969
  8
AM_0
 10
144.929
 20
180.631
 30
0.0
 70
    32
  0
VERTEX
  5
596A
  8
AM_0
 10
144.976
 20
180.572
 30
0.0
 70
    32
  0
VERTEX
  5
596B
  8
AM_0
 10
145.02500000000001
 20
180.51499999999999
 30
0.0
 70
    32
  0
VERTEX
  5
596C
  8
AM_0
 10
145.07499999999999
 20
180.459
 30
0.0
 70
    32
  0
VERTEX
  5
596D
  8
AM_0
 10
145.12700000000001
 20
180.405
 30
0.0
 70
    32
  0
VERTEX
  5
596E
  8
AM_0
 10
145.18000000000001
 20
180.35300000000001
 30
0.0
 70
    32
  0
VERTEX
  5
596F
  8
AM_0
 10
145.23400000000001
 20
180.30199999999999
 30
0.0
 70
    32
  0
VERTEX
  5
5970
  8
AM_0
 10
145.28999999999999
 20
180.25299999999999
 30
0.0
 70
    32
  0
VERTEX
  5
5971
  8
AM_0
 10
145.34700000000001
 20
180.20599999999999
 30
0.0
 70
    32
  0
VERTEX
  5
5972
  8
AM_0
 10
145.405
 20
180.16099999999989
 30
0.0
 70
    32
  0
VERTEX
  5
5973
  8
AM_0
 10
145.465
 20
180.11799999999999
 30
0.0
 70
    32
  0
VERTEX
  5
5974
  8
AM_0
 10
145.52600000000001
 20
180.07599999999999
 30
0.0
 70
    32
  0
VERTEX
  5
5975
  8
AM_0
 10
145.58799999999999
 20
180.03599999999989
 30
0.0
 70
    32
  0
VERTEX
  5
5976
  8
AM_0
 10
145.65100000000001
 20
179.999
 30
0.0
 70
    32
  0
VERTEX
  5
5977
  8
AM_0
 10
145.715
 20
179.96299999999999
 30
0.0
 70
    32
  0
VERTEX
  5
5978
  8
AM_0
 10
145.78100000000001
 20
179.929
 30
0.0
 70
    32
  0
VERTEX
  5
5979
  8
AM_0
 10
145.84700000000001
 20
179.89699999999999
 30
0.0
 70
    32
  0
VERTEX
  5
597A
  8
AM_0
 10
145.91399999999999
 20
179.86699999999999
 30
0.0
 70
    32
  0
VERTEX
  5
597B
  8
AM_0
 10
145.983
 20
179.839
 30
0.0
 70
    32
  0
VERTEX
  5
597C
  8
AM_0
 10
146.05199999999999
 20
179.81299999999999
 30
0.0
 70
    32
  0
VERTEX
  5
597D
  8
AM_0
 10
146.12200000000001
 20
179.78899999999999
 30
0.0
 70
    32
  0
VERTEX
  5
597E
  8
AM_0
 10
146.19300000000001
 20
179.767
 30
0.0
 70
    32
  0
VERTEX
  5
597F
  8
AM_0
 10
146.26499999999999
 20
179.74799999999999
 30
0.0
 70
    32
  0
VERTEX
  5
5980
  8
AM_0
 10
146.33799999999999
 20
179.72999999999999
 30
0.0
 70
    32
  0
VERTEX
  5
5981
  8
AM_0
 10
146.411
 20
179.714
 30
0.0
 70
    32
  0
VERTEX
  5
5982
  8
AM_0
 10
146.48500000000001
 20
179.70099999999999
 30
0.0
 70
    32
  0
VERTEX
  5
5983
  8
AM_0
 10
146.559
 20
179.69
 30
0.0
 70
    32
  0
VERTEX
  5
5984
  8
AM_0
 10
146.63399999999999
 20
179.68000000000001
 30
0.0
 70
    32
  0
VERTEX
  5
5985
  8
AM_0
 10
146.71000000000001
 20
179.673
 30
0.0
 70
    32
  0
VERTEX
  5
5986
  8
AM_0
 10
146.786
 20
179.66800000000001
 30
0.0
 70
    32
  0
VERTEX
  5
5987
  8
AM_0
 10
146.86199999999999
 20
179.66499999999999
 30
0.0
 70
    32
  0
VERTEX
  5
5988
  8
AM_0
 10
146.93899999999999
 20
179.66399999999999
 30
0.0
 70
    32
  0
VERTEX
  5
5989
  8
AM_0
 10
147.01599999999999
 20
179.666
 30
0.0
 70
    32
  0
VERTEX
  5
598A
  8
AM_0
 10
147.09399999999999
 20
179.66900000000001
 30
0.0
 70
    32
  0
VERTEX
  5
598B
  8
AM_0
 10
147.172
 20
179.67500000000001
 30
0.0
 70
    32
  0
VERTEX
  5
598C
  8
AM_0
 10
147.249
 20
179.68299999999999
 30
0.0
 70
    32
  0
VERTEX
  5
598D
  8
AM_0
 10
147.328
 20
179.69300000000001
 30
0.0
 70
    32
  0
VERTEX
  5
598E
  8
AM_0
 10
147.40600000000001
 20
179.70400000000001
 30
0.0
 70
    32
  0
VERTEX
  5
598F
  8
AM_0
 10
147.48400000000001
 20
179.71899999999999
 30
0.0
 70
    32
  0
VERTEX
  5
5990
  8
AM_0
 10
147.56200000000001
 20
179.73500000000001
 30
0.0
 70
    32
  0
VERTEX
  5
5991
  8
AM_0
 10
147.63999999999999
 20
179.75299999999999
 30
0.0
 70
    32
  0
VERTEX
  5
5992
  8
AM_0
 10
147.71899999999999
 20
179.773
 30
0.0
 70
    32
  0
VERTEX
  5
5993
  8
AM_0
 10
147.79599999999999
 20
179.79599999999999
 30
0.0
 70
    32
  0
VERTEX
  5
5994
  8
AM_0
 10
147.874
 20
179.81999999999999
 30
0.0
 70
    32
  0
VERTEX
  5
5995
  8
AM_0
 10
147.952
 20
179.84700000000001
 30
0.0
 70
    32
  0
VERTEX
  5
5996
  8
AM_0
 10
148.029
 20
179.875
 30
0.0
 70
    32
  0
VERTEX
  5
5997
  8
AM_0
 10
148.10599999999999
 20
179.90600000000001
 30
0.0
 70
    32
  0
VERTEX
  5
5998
  8
AM_0
 10
148.18299999999999
 20
179.93799999999999
 30
0.0
 70
    32
  0
VERTEX
  5
5999
  8
AM_0
 10
148.25899999999999
 20
179.97300000000001
 30
0.0
 70
    32
  0
VERTEX
  5
599A
  8
AM_0
 10
148.33500000000001
 20
180.00899999999999
 30
0.0
 70
    32
  0
VERTEX
  5
599B
  8
AM_0
 10
148.41
 20
180.047
 30
0.0
 70
    32
  0
VERTEX
  5
599C
  8
AM_0
 10
148.48500000000001
 20
180.08799999999999
 30
0.0
 70
    32
  0
VERTEX
  5
599D
  8
AM_0
 10
148.559
 20
180.13
 30
0.0
 70
    32
  0
VERTEX
  5
599E
  8
AM_0
 10
148.63200000000001
 20
180.17400000000001
 30
0.0
 70
    32
  0
VERTEX
  5
599F
  8
AM_0
 10
148.70500000000001
 20
180.21899999999999
 30
0.0
 70
    32
  0
VERTEX
  5
59A0
  8
AM_0
 10
148.77699999999999
 20
180.267
 30
0.0
 70
    32
  0
VERTEX
  5
59A1
  8
AM_0
 10
148.84800000000001
 20
180.316
 30
0.0
 70
    32
  0
VERTEX
  5
59A2
  8
AM_0
 10
148.9189999999999
 20
180.36699999999999
 30
0.0
 70
    32
  0
VERTEX
  5
59A3
  8
AM_0
 10
148.988
 20
180.4199999999999
 30
0.0
 70
    32
  0
VERTEX
  5
59A4
  8
AM_0
 10
149.05699999999999
 20
180.47399999999999
 30
0.0
 70
    32
  0
VERTEX
  5
59A5
  8
AM_0
 10
149.125
 20
180.53100000000001
 30
0.0
 70
    32
  0
VERTEX
  5
59A6
  8
AM_0
 10
149.19200000000001
 20
180.58799999999999
 30
0.0
 70
    32
  0
VERTEX
  5
59A7
  8
AM_0
 10
149.25800000000001
 20
180.64699999999999
 30
0.0
 70
    32
  0
VERTEX
  5
59A8
  8
AM_0
 10
149.322
 20
180.708
 30
0.0
 70
    32
  0
VERTEX
  5
59A9
  8
AM_0
 10
149.386
 20
180.77099999999999
 30
0.0
 70
    32
  0
VERTEX
  5
59AA
  8
AM_0
 10
149.44800000000001
 20
180.834
 30
0.0
 70
    32
  0
VERTEX
  5
59AB
  8
AM_0
 10
149.50999999999999
 20
180.899
 30
0.0
 70
    32
  0
VERTEX
  5
59AC
  8
AM_0
 10
149.56999999999999
 20
180.96600000000001
 30
0.0
 70
    32
  0
VERTEX
  5
59AD
  8
AM_0
 10
149.62899999999999
 20
181.03399999999999
 30
0.0
 70
    32
  0
VERTEX
  5
59AE
  8
AM_0
 10
149.68600000000001
 20
181.10300000000001
 30
0.0
 70
    32
  0
VERTEX
  5
59AF
  8
AM_0
 10
149.74199999999999
 20
181.17400000000001
 30
0.0
 70
    32
  0
VERTEX
  5
59B0
  8
AM_0
 10
149.797
 20
181.245
 30
0.0
 70
    32
  0
VERTEX
  5
59B1
  8
AM_0
 10
149.851
 20
181.31800000000001
 30
0.0
 70
    32
  0
VERTEX
  5
59B2
  8
AM_0
 10
149.90299999999999
 20
181.392
 30
0.0
 70
    32
  0
VERTEX
  5
59B3
  8
AM_0
 10
149.95400000000001
 20
181.46700000000001
 30
0.0
 70
    32
  0
VERTEX
  5
59B4
  8
AM_0
 10
150.00299999999999
 20
181.54300000000001
 30
0.0
 70
    32
  0
VERTEX
  5
59B5
  8
AM_0
 10
150.05000000000001
 20
181.62100000000001
 30
0.0
 70
    32
  0
VERTEX
  5
59B6
  8
AM_0
 10
150.09700000000001
 20
181.69900000000001
 30
0.0
 70
    32
  0
SEQEND
  5
59B7
  8
AM_0
  0
ARC
  5
3377
  8
AM_0
 10
168.11583820701421
 20
192.9089033604084
 30
0.0
 40
10.0
 50
90.0
 51
150.0
1001
GENIUS_GENOBJ-N-FIL_13
1002
{
1000
OWNER
1000
GEN
1002
}
1001
GENIUS_GENODEF_13
1002
{
1000
HIER
1070
     0
1002
}
1002
{
1000
MANEDIT
1070
     0
1002
}
1002
{
1000
NOSEL
1070
     0
1002
}
1002
{
1000
BEHIND
1070
     0
1002
}
1002
{
1000
OTHER
1070
     0
1002
}
1002
{
1000
REACTOR
1002
}
  0
ARC
  5
3379
  8
AM_0
 10
170.42523928377281
 20
188.9089033604084
 30
0.0
 40
20.0
 50
89.999999999999915
 51
149.9999999999998
1001
GENIUS_GENODEF_13
1002
{
1000
HIER
1070
     0
1002
}
1002
{
1000
MANEDIT
1070
     0
1002
}
1002
{
1000
NOSEL
1070
     0
1002
}
1002
{
1000
BEHIND
1070
     0
1002
}
1002
{
1000
OTHER
1070
     0
1002
}
1002
{
1000
REACTOR
1002
}
1001
GENIUS_GENOBJ-N-FIL_13
1002
{
1000
OWNER
1000
GEN
1002
}
  0
LINE
  5
337A
  8
AM_0
 10
165.7183004668963
 20
208.34713185413131
 30
0.0
 11
165.7183004668963
 21
279.90890336040837
 31
0.0
  0
LINE
  5
337B
  8
AM_0
 10
171.71830046689641
 20
202.9089033604084
 30
0.0
 11
171.71830046689641
 21
171.9089033604084
 31
0.0
  0
LINE
  5
3B0C
  8
AM_0
 10
641.0603240873271
 20
317.9088983604085
 30
0.0
 11
641.0603240873271
 21
329.09265244532799
 31
0.0
  0
LINE
  5
3B0D
  8
AM_0
 10
634.66032408732724
 20
317.9088983604085
 30
0.0
 11
634.66032408732724
 21
329.09265244532799
 31
0.0
  0
LINE
  5
3B11
  8
AM_0
 10
644.26032408732715
 20
317.9088983604085
 30
0.0
 11
644.26032408732715
 21
329.09265244532799
 31
0.0
  0
LINE
  5
3B12
  8
AM_0
 10
631.46032408732731
 20
329.09265244532799
 30
0.0
 11
631.46032408732731
 21
317.9088983604085
 31
0.0
  0
ARC
  5
3B15
  8
AM_0
 10
637.86032408732729
 20
321.40890336040877
 30
0.0
 40
9.9999999999999964
 50
50.208180500442623
 51
90.0
  0
ARC
  5
3B19
  8
AM_0
 10
637.86032408732729
 20
318.87767155044497
 30
0.0
 40
10.704477319459491
 50
72.606031891266454
 51
107.3939681087335
  0
ARC
  5
3B1A
  8
AM_0
 10
633.0603240873271
 20
326.72288704885369
 30
0.0
 40
2.8593334947723461
 50
55.973867765119778
 51
124.02613223488019
  0
ARC
  5
3B1B
  8
AM_0
 10
642.66032408732724
 20
326.725953970256
 30
0.0
 40
2.856792199637066
 50
55.939448481710848
 51
124.060551518289
  0
ARC
  5
3B1C
  8
AM_0
 10
637.86032408732729
 20
321.40890336040877
 30
0.0
 40
10.0
 50
90.0
 51
129.79181949955731
  0
LINE
  5
40F1
  8
AM_0
 10
164.7183004668963
 20
279.70890336040839
 30
0.0
 11
164.7183004668963
 21
272.10890336040848
 31
0.0
1001
GENIUS_GENOREF_13
1005
0
  0
LINE
  5
40F2
  8
AM_0
 10
164.7183004668963
 20
272.10890336040848
 30
0.0
 11
165.7183004668963
 21
272.10890336040848
 31
0.0
1001
GENIUS_GENOREF_13
1005
0
  0
LINE
  5
40F3
  8
AM_0
 10
165.7183004668963
 20
275.70890336040839
 30
0.0
 11
164.7183004668963
 21
275.34493312614222
 31
0.0
1001
GENIUS_GENOREF_13
1005
0
  0
LINE
  5
40F4
  8
AM_0
 10
165.7183004668963
 20
276.10890336040848
 30
0.0
 11
164.7183004668963
 21
275.7449331261422
 31
0.0
1001
GENIUS_GENOREF_13
1005
0
  0
LINE
  5
40F5
  8
AM_0
 10
165.7183004668963
 20
279.70890336040839
 30
0.0
 11
164.7183004668963
 21
279.70890336040839
 31
0.0
1001
GENIUS_GENOREF_13
1005
0
  0
LINE
  5
40F6
  8
AM_0N
 10
163.65936295476851
 20
272.00154838810192
 30
0.0
 11
164.7183004668963
 21
271.90890336040837
 31
0.0
  0
LINE
  5
40F7
  8
AM_0N
 10
163.65936295476851
 20
279.81625833271488
 30
0.0
 11
164.7183004668963
 21
279.90890336040837
 31
0.0
  0
ARC
  5
40F8
  8
AM_0N
 10
168.1183004668963
 20
275.90890336040837
 30
0.0
 40
6.5
 50
151.82726586813561
 51
208.17273413186439
  0
ARC
  5
40F9
  8
AM_0N
 10
163.7988121431647
 20
278.22234681576811
 30
0.0
 40
1.6000000000000001
 50
94.99999999999973
 51
151.82726586813561
  0
ARC
  5
40FA
  8
AM_0N
 10
163.7988121431647
 20
273.5954599050487
 30
0.0
 40
1.6000000000000001
 50
208.17273413186439
 51
265.00000000000028
  0
LINE
  5
40FB
  8
AM_0N
 10
164.7183004668963
 20
279.90890336040837
 30
0.0
 11
164.7183004668963
 21
271.90890336040837
 31
0.0
  0
LINE
  5
410E
  8
AM_0
 10
164.71830046689641
 20
202.3140475541183
 30
0.0
 11
164.71830046689641
 21
196.8464033604084
 31
0.0
1001
GENIUS_GENOREF_13
1005
0
  0
LINE
  5
410F
  8
AM_0
 10
164.71830046689641
 20
197.04640336040839
 30
0.0
 11
165.7183004668963
 21
197.04640336040839
 31
0.0
1001
GENIUS_GENOREF_13
1005
0
  0
LINE
  5
4110
  8
AM_0
 10
165.7183004668963
 20
200.6464033604085
 30
0.0
 11
164.71830046689641
 21
200.28243312614239
 31
0.0
1001
GENIUS_GENOREF_13
1005
0
  0
LINE
  5
4111
  8
AM_0
 10
165.7183004668963
 20
201.0464033604085
 30
0.0
 11
164.71830046689641
 21
200.68243312614231
 31
0.0
1001
GENIUS_GENOREF_13
1005
0
  0
LINE
  5
4113
  8
AM_0N
 10
163.65936295476851
 20
196.93904838810201
 30
0.0
 11
164.71830046689641
 21
196.84640336040849
 31
0.0
  0
ARC
  5
4115
  8
AM_0N
 10
168.1183004668963
 20
200.84640336040849
 30
0.0
 40
6.5
 50
182.9007699890924
 51
208.17273413186439
  0
ARC
  5
4117
  8
AM_0N
 10
163.79881214316481
 20
198.53295990504881
 30
0.0
 40
1.6000000000000001
 50
208.17273413186439
 51
265.00000000000028
  0
LINE
  5
4A59
  8
AM_0
 10
530.86032408732694
 20
179.90890336040849
 30
0.0
 11
566.513415262595
 21
181.15393673900809
 31
0.0
  0
LINE
  5
4A5A
  8
AM_0
 10
563.54785505085079
 20
270.76742962637712
 30
0.0
 11
530.86032408732729
 21
271.9089033604086
 31
0.0
  0
LINE
  5
4A5B
  8
AM_0
 10
530.86032408732729
 20
271.9089033604086
 30
0.0
 11
530.86032408732694
 21
179.90890336040829
 31
0.0
  0
LINE
  5
4A5C
  8
ﾁｭｳｼﾝｾﾝ1
 10
519.86032408732694
 20
184.9089033604092
 30
0.0
 11
535.68784709986392
 21
184.9089033604092
 31
0.0
  0
LINE
  5
4A5D
  8
AM_0
 10
526.86032408732729
 20
271.9089033604086
 30
0.0
 11
526.86032408732729
 21
251.09439846087619
 31
0.0
  0
LINE
  5
4A5E
  8
AM_0
 10
526.86032408732694
 20
200.7234082599409
 30
0.0
 11
526.86032408732694
 21
179.9089033604092
 31
0.0
  0
LINE
  5
4A5F
  8
AM_0
 10
522.86032408732717
 20
265.77312169124798
 30
0.0
 11
522.86032408732694
 21
186.04468502956919
 31
0.0
  0
LINE
  5
4A60
  8
AM_0
 10
524.80138657519922
 20
188.81625833271559
 30
0.0
 11
525.86032408732694
 21
188.90890336040911
 31
0.0
  0
LINE
  5
4A61
  8
AM_0
 10
524.80138657519922
 20
181.00154838810261
 30
0.0
 11
525.86032408732694
 21
180.9089033604092
 31
0.0
  0
ARC
  5
4A62
  8
AM_0
 10
529.26032408732726
 20
184.90890336040911
 30
0.0
 40
6.5
 50
151.82726586813479
 51
208.1727341318651
  0
ARC
  5
4A63
  8
AM_0
 10
524.9408357635956
 20
182.59545990504941
 30
0.0
 40
1.6000000000000001
 50
208.1727341318651
 51
265.00000000000028
  0
LINE
  5
4A64
  8
AM_0
 10
523.18085042589894
 20
187.20890336040901
 30
0.0
 11
525.47041010469457
 21
184.90890336040911
 31
0.0
  0
LINE
  5
4A65
  8
AM_0
 10
525.16032408732701
 20
185.22040336040911
 30
0.0
 11
525.16032408732701
 21
184.59740336040909
 31
0.0
  0
LINE
  5
4A66
  8
AM_0
 10
523.18085042589894
 20
182.6089033604091
 30
0.0
 11
525.47041010469457
 21
184.90890336040911
 31
0.0
  0
LINE
  5
4A67
  8
AM_0
 10
522.76779239699215
 20
185.22040336040911
 30
0.0
 11
525.16032408732701
 21
185.22040336040911
 31
0.0
  0
LINE
  5
4A68
  8
AM_0
 10
522.76779239699215
 20
184.59740336040909
 30
0.0
 11
525.16032408732701
 21
184.59740336040909
 31
0.0
  0
ARC
  5
4A69
  8
AM_0
 10
524.9408357635956
 20
187.22234681576879
 30
0.0
 40
1.6000000000000001
 50
94.999999999999758
 51
151.82726586813479
  0
LINE
  5
4A6A
  8
AM_0
 10
526.86032408732729
 20
271.9089033604086
 30
0.0
 11
530.86032408732729
 21
271.9089033604086
 31
0.0
  0
LINE
  5
4A6B
  8
AM_0
 10
525.86032408732694
 20
270.90890336040837
 30
0.0
 11
526.86032408732729
 21
271.9089033604086
 31
0.0
  0
LINE
  5
4A6C
  8
AM_0
 10
530.86032408732694
 20
179.90890336040829
 30
0.0
 11
526.86032408732694
 21
179.90890336040931
 31
0.0
  0
LINE
  5
4A6D
  8
AM_0N
 10
526.86032408732694
 20
188.7089033604091
 30
0.0
 11
525.86032408732694
 21
188.7089033604091
 31
0.0
  0
LINE
  5
4A6E
  8
AM_0N
 10
525.86032408732694
 20
185.1089033604091
 30
0.0
 11
526.86032408732694
 21
185.47287359467529
 31
0.0
  0
LINE
  5
4A6F
  8
AM_0N
 10
525.86032408732694
 20
184.70890336040921
 30
0.0
 11
526.86032408732694
 21
185.07287359467509
 31
0.0
  0
LINE
  5
4A70
  8
AM_0N
 10
525.86032408732694
 20
180.90890336040911
 30
0.0
 11
525.86032408732694
 21
188.90890336040911
 31
0.0
  0
LINE
  5
4A71
  8
AM_0N
 10
525.86032408732694
 20
181.1089033604091
 30
0.0
 11
526.86032408732694
 21
181.1089033604091
 31
0.0
  0
LINE
  5
4A72
  8
AM_0
 10
522.86032408732694
 20
200.72340825994081
 30
0.0
 11
526.86032408732694
 21
200.72340825994081
 31
0.0
  0
LINE
  5
4A73
  8
AM_0
 10
526.86032408732694
 20
199.06655401044841
 30
0.0
 11
522.86032408732694
 21
200.72340825994081
 31
0.0
  0
LINE
  5
4A74
  8
AM_0
 10
522.86032408732717
 20
251.09439846087619
 30
0.0
 11
526.86032408732729
 21
251.09439846087619
 31
0.0
  0
LINE
  5
4A75
  8
AM_0
 10
526.86032408732729
 20
252.7512527103687
 30
0.0
 11
522.86032408732717
 21
251.09439846087619
 31
0.0
  0
LINE
  5
4A76
  8
ﾁｭｳｼﾝｾﾝ1
 10
519.86032408732706
 20
266.90890336040792
 30
0.0
 11
535.68784709986392
 21
266.90890336040792
 31
0.0
  0
LINE
  5
4A77
  8
AM_0
 10
524.80138657519922
 20
263.00154838810158
 30
0.0
 11
525.86032408732694
 21
262.90890336040798
 31
0.0
  0
LINE
  5
4A78
  8
AM_0
 10
524.80138657519922
 20
270.81625833271448
 30
0.0
 11
525.86032408732694
 21
270.90890336040792
 31
0.0
  0
ARC
  5
4A79
  8
AM_0
 10
529.26032408732726
 20
266.90890336040798
 30
0.0
 40
6.5
 50
151.82726586813479
 51
208.1727341318651
  0
ARC
  5
4A7A
  8
AM_0
 10
524.9408357635956
 20
269.22234681576759
 30
0.0
 40
1.6000000000000001
 50
94.999999999999758
 51
151.82726586813479
  0
LINE
  5
4A7B
  8
AM_0
 10
523.18085042589894
 20
264.60890336040802
 30
0.0
 11
525.47041010469457
 21
266.90890336040798
 31
0.0
  0
LINE
  5
4A7C
  8
AM_0
 10
525.16032408732701
 20
266.5974033604079
 30
0.0
 11
525.16032408732701
 21
267.220403360408
 31
0.0
  0
LINE
  5
4A7D
  8
AM_0
 10
523.18085042589894
 20
269.20890336040787
 30
0.0
 11
525.47041010469457
 21
266.90890336040798
 31
0.0
  0
LINE
  5
4A7E
  8
AM_0
 10
522.76779239699215
 20
266.5974033604079
 30
0.0
 11
525.16032408732701
 21
266.5974033604079
 31
0.0
  0
LINE
  5
4A7F
  8
AM_0
 10
522.76779239699215
 20
267.220403360408
 30
0.0
 11
525.16032408732701
 21
267.220403360408
 31
0.0
  0
ARC
  5
4A80
  8
AM_0
 10
524.9408357635956
 20
264.5954599050483
 30
0.0
 40
1.6000000000000001
 50
208.1727341318651
 51
265.00000000000028
  0
LINE
  5
4A81
  8
AM_0N
 10
526.86032408732694
 20
263.10890336040791
 30
0.0
 11
525.86032408732694
 21
263.10890336040791
 31
0.0
  0
LINE
  5
4A82
  8
AM_0N
 10
525.86032408732694
 20
266.70890336040787
 30
0.0
 11
526.86032408732694
 21
266.34493312614183
 31
0.0
  0
LINE
  5
4A83
  8
AM_0N
 10
525.86032408732694
 20
267.10890336040791
 30
0.0
 11
526.86032408732694
 21
266.74493312614169
 31
0.0
  0
LINE
  5
4A84
  8
AM_0N
 10
525.86032408732694
 20
270.90890336040798
 30
0.0
 11
525.86032408732694
 21
262.90890336040798
 31
0.0
  0
LINE
  5
4A85
  8
AM_0N
 10
525.86032408732694
 20
270.70890336040787
 30
0.0
 11
526.86032408732694
 21
270.70890336040787
 31
0.0
  0
LINE
  5
4A86
  8
AM_0
 10
398.2182804668966
 20
267.40890136040872
 30
0.0
 11
402.21828046689649
 21
263.40890136040872
 31
0.0
  0
LINE
  5
4A87
  8
AM_0
 10
395.7182804668966
 20
267.40890136040872
 30
0.0
 11
398.2182804668966
 21
267.40890136040849
 31
0.0
  0
LINE
  5
4A88
  8
AM_0
 10
402.21828046689649
 20
263.40890136040872
 30
0.0
 11
402.21828046689711
 21
222.40890136040841
 31
0.0
  0
LINE
  5
4A89
  8
AM_0
 10
398.2182804668966
 20
218.40890136040861
 30
0.0
 11
402.21828046689649
 21
222.40890136040841
 31
0.0
  0
LINE
  5
4A8A
  8
AM_0
 10
395.7182804668966
 20
218.40890136040861
 30
0.0
 11
398.2182804668966
 21
218.40890136040861
 31
0.0
  0
LINE
  5
4A8B
  8
AM_0
 10
395.2182804668966
 20
266.90890136040872
 30
0.0
 11
395.7182804668966
 21
267.40890136040872
 31
0.0
1001
GENIUS_GENFIL_13
1070
     0
1040
0.5
1040
0.5
1040
20.0
1040
0.0
1002
{
1002
}
1001
GENIUS_GENOBJ-N-CHA_13
1002
{
1000
OWNER
1000
GEN
1002
}
1001
GENIUS_GENODEF_13
1002
{
1000
HIER
1070
     0
1002
}
1002
{
1000
MANEDIT
1070
     0
1002
}
1002
{
1000
NOSEL
1070
     0
1002
}
1002
{
1000
BEHIND
1070
     0
1002
}
1002
{
1000
OTHER
1070
     0
1002
}
1002
{
1000
REACTOR
1002
}
  0
LINE
  5
4A8C
  8
AM_0
 10
395.2182804668966
 20
218.90890136040869
 30
0.0
 11
395.7182804668966
 21
218.40890136040861
 31
0.0
1001
GENIUS_GENFIL_13
1070
     0
1040
0.5
1040
0.5
1040
20.0
1040
0.0
1002
{
1002
}
1001
GENIUS_GENODEF_13
1002
{
1000
HIER
1070
     0
1002
}
1002
{
1000
MANEDIT
1070
     0
1002
}
1002
{
1000
NOSEL
1070
     0
1002
}
1002
{
1000
BEHIND
1070
     0
1002
}
1002
{
1000
OTHER
1070
     0
1002
}
1002
{
1000
REACTOR
1002
}
1001
GENIUS_GENOBJ-N-CHA_13
1002
{
1000
OWNER
1000
GEN
1002
}
  0
CIRCLE
  5
4A8D
  8
AM_0
 10
637.86032408732729
 20
242.90890136040861
 30
0.0
 40
24.49999999999989
  0
CIRCLE
  5
4A8E
  8
AM_0
 10
637.86032408732729
 20
242.90890136040861
 30
0.0
 40
20.50000000000011
  0
LINE
  5
4A8F
  8
AM_0
 10
398.2182804668966
 20
267.40890136040849
 30
0.0
 11
398.2182804668966
 21
218.40890136040861
 31
0.0
  0
LINE
  5
4A99
  8
AM_0
 10
404.2182804668962
 20
254.90890336040849
 30
0.0
 11
426.21830046689649
 21
254.90890336040849
 31
0.0
  0
LINE
  5
4A9A
  8
ﾁｭｳｼﾝｾﾝ
 10
560.27609562406064
 20
242.90890136040861
 30
0.0
 11
715.44455255059393
 21
242.90890136040861
 31
0.0
  0
LINE
  5
4A9B
  8
ﾁｭｳｼﾝｾﾝ
 10
324.86888046689671
 20
242.90890136040861
 30
0.0
 11
432.53006804934978
 21
242.90890136040861
 31
0.0
  0
LINE
  5
4A9C
  8
AM_0
 10
426.21830046689649
 20
233.40890336040849
 30
0.0
 11
426.21830046689638
 21
254.90890336040849
 31
0.0
  0
LINE
  5
4A9D
  8
AM_0
 10
402.218280466897
 20
233.40890336040849
 30
0.0
 11
426.21830046689649
 21
233.40890336040849
 31
0.0
  0
LINE
  5
4A9E
  8
AM_0
 10
402.2182804668966
 20
252.4089023604086
 30
0.0
 11
426.21830046689649
 21
252.40890236040849
 31
0.0
  0
LINE
  5
4A9F
  8
AM_0
 10
640.86032408732717
 20
254.9089043604086
 30
0.0
 11
634.86032408732729
 21
254.9089043604086
 31
0.0
  0
LINE
  5
4AA0
  8
AM_0
 10
640.86032408732717
 20
248.9089043604086
 30
0.0
 11
640.86032408732717
 21
254.9089043604086
 31
0.0
  0
LINE
  5
4AA1
  8
AM_0
 10
634.86032408732729
 20
248.9089043604086
 30
0.0
 11
640.86032408732717
 21
248.9089043604086
 31
0.0
  0
LINE
  5
4AA2
  8
AM_0
 10
634.86032408732729
 20
254.9089043604086
 30
0.0
 11
634.86032408732729
 21
248.9089043604086
 31
0.0
  0
LINE
  5
4AA3
  8
AM_0
 10
336.21830046689649
 20
285.90890336040849
 30
0.0
 11
336.21830046689649
 21
161.0949803604085
 31
0.0
  0
LINE
  5
4AA4
  8
AM_0
 10
692.8415880873273
 20
261.3741143604085
 30
0.0
 11
692.8415880873273
 21
267.1476113604084
 31
0.0
  0
LINE
  5
4AA5
  8
AM_0
 10
687.84159008732729
 20
258.48736436040849
 30
0.0
 11
692.8415880873273
 21
261.37414436040859
 31
0.0
  0
LINE
  5
4AA6
  8
AM_0
 10
613.75125608732731
 20
161.93101136040849
 30
0.0
 11
618.75125408732731
 21
164.8177583604085
 31
0.0
  0
LINE
  5
4AA7
  8
AM_0
 10
618.75125408732731
 20
164.8177133604085
 30
0.0
 11
618.75125408732731
 21
170.5912433604085
 31
0.0
  0
LINE
  5
4AA8
  8
AM_0
 10
618.75125408732731
 20
170.59122836040851
 30
0.0
 11
613.75128608732723
 21
173.47797836040851
 31
0.0
  0
LINE
  5
4AA9
  8
AM_0
 10
613.75125608732731
 20
173.4779933604085
 30
0.0
 11
608.75125508732685
 21
170.5912433604085
 31
0.0
  0
LINE
  5
4AAA
  8
AM_0
 10
656.96939708732737
 20
164.8177133604085
 30
0.0
 11
661.96938008732729
 21
161.9309633604085
 31
0.0
  0
LINE
  5
4AAB
  8
AM_0
 10
661.96938008732729
 20
161.9309963604085
 30
0.0
 11
666.96938108732729
 21
164.81774336040851
 31
0.0
  0
LINE
  5
4AAC
  8
AM_0
 10
682.84157408732722
 20
267.1476113604084
 30
0.0
 11
682.84157408732722
 21
261.3741143604085
 31
0.0
  0
LINE
  5
4AAD
  8
AM_0
 10
682.84158908732695
 20
261.3741143604085
 30
0.0
 11
687.84157508732721
 21
258.48736436040849
 31
0.0
  0
LINE
  5
4AAE
  8
AM_0
 10
656.96936408732734
 20
170.5912433604085
 30
0.0
 11
656.96936408732734
 21
164.8177133604085
 31
0.0
  0
LINE
  5
4AAF
  8
AM_0
 10
666.96938108732729
 20
164.8177133604085
 30
0.0
 11
666.96938108732729
 21
170.5912433604085
 31
0.0
  0
LINE
  5
4AB0
  8
AM_0
 10
687.84157508732721
 20
270.03439136040862
 30
0.0
 11
682.84157408732722
 21
267.14764136040861
 31
0.0
  0
LINE
  5
4AB1
  8
AM_0
 10
582.87904808732731
 20
261.3741143604085
 30
0.0
 11
587.87905808732717
 21
258.48736436040849
 31
0.0
  0
LINE
  5
4AB2
  8
AM_0
 10
582.87904808732731
 20
267.1476113604084
 30
0.0
 11
582.87904808732731
 21
261.3741143604085
 31
0.0
  0
LINE
  5
4AB3
  8
AM_0
 10
587.87908808732732
 20
270.03436136040852
 30
0.0
 11
582.87904808732731
 21
267.1476113604084
 31
0.0
  0
LINE
  5
4AB4
  8
AM_0
 10
592.87906808732725
 20
267.1476113604084
 30
0.0
 11
587.87905808732717
 21
270.03436136040852
 31
0.0
  0
LINE
  5
4AB5
  8
AM_0
 10
592.87906808732725
 20
261.3741143604085
 30
0.0
 11
592.87906808732725
 21
267.1476113604084
 31
0.0
  0
LINE
  5
4AB6
  8
AM_0
 10
661.96938008732729
 20
173.4780083604085
 30
0.0
 11
656.96936408732734
 21
170.59125836040849
 31
0.0
  0
LINE
  5
4AB7
  8
AM_0
 10
587.87905808732717
 20
258.48736436040849
 30
0.0
 11
592.87906808732725
 21
261.3741143604085
 31
0.0
  0
LINE
  5
4AB8
  8
AM_0
 10
666.96938108732729
 20
170.59122836040851
 30
0.0
 11
661.96939508732714
 21
173.47797836040851
 31
0.0
  0
LINE
  5
4AB9
  8
AM_0
 10
608.75128508732723
 20
164.81772836040841
 30
0.0
 11
613.75128608732723
 21
161.93097836040849
 31
0.0
  0
LINE
  5
4ABA
  8
AM_0
 10
692.8415880873273
 20
267.1476113604084
 30
0.0
 11
687.84159008732729
 21
270.03436136040852
 31
0.0
  0
LINE
  5
4ABB
  8
AM_0
 10
608.75128508732723
 20
170.5912433604085
 30
0.0
 11
608.75128508732723
 21
164.8177133604085
 31
0.0
  0
LINE
  5
4ABC
  8
AM_0
 10
404.2182804668962
 20
252.40890236040849
 30
0.0
 11
404.21828046689632
 21
254.90890336040849
 31
0.0
  0
LINE
  5
4ABD
  8
AM_0
 10
324.21830046689649
 20
268.51574636040863
 30
0.0
 11
336.21830046689649
 21
268.51574636040863
 31
0.0
  0
LINE
  5
4ABE
  8
AM_0
 10
330.21830046689649
 20
265.78253036040849
 30
0.0
 11
330.21830046689649
 21
225.90890336040849
 31
0.0
  0
LINE
  5
4ABF
  8
AM_0
 10
324.21830046689649
 20
269.90890436040848
 30
0.0
 11
330.21830046689649
 21
269.90890436040848
 31
0.0
  0
LINE
  5
4AC0
  8
AM_0
 10
312.21824046689648
 20
169.90888436040851
 30
0.0
 11
322.75754046689639
 21
169.63291436040851
 31
0.0
  0
LINE
  5
4AC1
  8
AM_0
 10
324.21830046689649
 20
251.69161736040849
 30
0.0
 11
330.21830046689649
 21
251.69161736040849
 31
0.0
  0
LINE
  5
4AC2
  8
AM_0
 10
330.21830046689649
 20
175.11701636040851
 30
0.0
 11
330.21830046689649
 21
225.90890336040849
 31
0.0
  0
LINE
  5
4AC3
  8
AM_0
 10
331.6790604668966
 20
285.79006736040861
 30
0.0
 11
336.21830046689649
 21
285.90890336040849
 31
0.0
  0
LINE
  5
4AC4
  8
AM_0
 10
312.21830046689649
 20
281.90890436040848
 30
0.0
 11
328.75754046689639
 21
282.3420083604085
 31
0.0
  0
LINE
  5
4AC5
  8
AM_0
 10
312.21830046689649
 20
271.9089023604086
 30
0.0
 11
330.21830046689649
 21
271.9089023604086
 31
0.0
  0
LINE
  5
4AC6
  8
AM_0
 10
312.21830046689649
 20
193.97146136040851
 30
0.0
 11
330.21830046689649
 21
193.97146136040851
 31
0.0
  0
LINE
  5
4AC7
  8
AM_0
 10
312.21830046689649
 20
179.9088863604085
 30
0.0
 11
330.21830046689649
 21
179.9088863604085
 31
0.0
  0
LINE
  5
4AC8
  8
AM_0
 10
312.21830046689649
 20
281.90893436040858
 30
0.0
 11
312.21830046689649
 21
169.9088993604085
 31
0.0
  0
LINE
  5
4AC9
  8
AM_0
 10
312.21830046689649
 20
257.84634236040853
 30
0.0
 11
324.21830046689649
 21
257.84634236040853
 31
0.0
  0
LINE
  5
4ACA
  8
AM_0
 10
330.21830046689649
 20
284.29055636040857
 30
0.0
 11
330.21830046689649
 21
269.90890436040848
 31
0.0
  0
LINE
  5
4ACB
  8
ﾁｭｳｼﾝｾﾝ
 10
123.5294855945739
 20
225.9089033604084
 30
0.0
 11
334.1818704668965
 21
225.90890336040849
 31
0.0
  0
LINE
  5
4ACC
  8
ﾁｭｳｼﾝｾﾝ
 10
637.86032408732729
 20
156.23713136040851
 30
0.0
 11
637.86032408732729
 21
336.04854069209608
 31
0.0
  0
LINE
  5
4ACD
  8
ﾁｭｳｼﾝｾﾝ
 10
669.44780319670622
 20
225.90890336040849
 30
0.0
 11
606.27284497794835
 21
225.90890336040849
 31
0.0
  0
LINE
  5
4ACE
  8
AM_0
 10
383.14853046689637
 20
173.28687536040849
 30
0.0
 11
391.2182604668966
 21
173.00507636040851
 31
0.0
  0
LINE
  5
4ACF
  8
AM_0
 10
395.21831046689653
 20
242.90890136040861
 30
0.0
 11
395.21831046689653
 21
177.40888436040851
 31
0.0
  0
LINE
  5
4AD0
  8
AM_0
 10
386.21831046689653
 20
302.40891836040851
 30
0.0
 11
386.21831046689653
 21
188.2935893604085
 31
0.0
  0
LINE
  5
4AD1
  8
AM_0
 10
599.36139308732731
 20
171.9088853604085
 30
0.0
 11
602.53680608732725
 21
177.40888436040851
 31
0.0
  0
LINE
  5
4AD2
  8
AM_0
 10
391.2182604668966
 20
317.9088983604085
 30
0.0
 11
391.2182604668966
 21
173.00507636040851
 31
0.0
  0
LINE
  5
4AD3
  8
AM_0
 10
391.21829046689652
 20
177.30413336040851
 30
0.0
 11
395.21831046689653
 21
177.40888436040851
 31
0.0
  0
LINE
  5
4AD4
  8
AM_0
 10
381.21830046689649
 20
315.6283283604086
 30
0.0
 11
381.21830046689649
 21
283.34927336040852
 31
0.0
  0
LINE
  5
4AD5
  8
AM_0
 10
391.2182604668966
 20
312.90891836040851
 30
0.0
 11
395.21831046689653
 21
312.90891836040851
 31
0.0
  0
LINE
  5
4AD6
  8
AM_0
 10
373.04384046689648
 20
312.13698836040851
 30
0.0
 11
378.32300046689647
 21
312.3213383604085
 31
0.0
  0
LINE
  5
4AD7
  8
AM_0
 10
383.14850046689651
 20
317.62710836040861
 30
0.0
 11
391.21829046689652
 21
317.9088983604085
 31
0.0
  0
LINE
  5
4AD8
  8
AM_0
 10
372.21830046689649
 20
176.1076763604085
 30
0.0
 11
372.21830046689649
 21
159.9088853604085
 31
0.0
  0
LINE
  5
4AD9
  8
AM_0
 10
395.21831046689653
 20
312.90891836040851
 30
0.0
 11
395.21831046689653
 21
242.90890136040861
 31
0.0
  0
LINE
  5
4ADA
  8
AM_0
 10
336.21830046689649
 20
161.0949803604085
 30
0.0
 11
372.21833046689648
 21
159.83782436040849
 31
0.0
  0
LINE
  5
4ADB
  8
AM_0
 10
373.19210046689648
 20
176.83210436040841
 30
0.0
 11
381.21830046689649
 21
177.04227836040849
 31
0.0
  0
LINE
  5
4ADC
  8
AM_0
 10
336.21830046689649
 20
268.51574636040863
 30
0.0
 11
366.41432046689653
 21
268.51574636040863
 31
0.0
  0
LINE
  5
4ADD
  8
AM_0
 10
336.21830046689649
 20
173.12826236040851
 30
0.0
 11
372.21830046689649
 21
173.12826236040851
 31
0.0
  0
LINE
  5
4ADE
  8
AM_0
 10
373.21826046689648
 20
196.1736113604085
 30
0.0
 11
381.21830046689649
 21
196.1736113604085
 31
0.0
  0
LINE
  5
4ADF
  8
AM_0
 10
336.21830046689649
 20
285.90890336040849
 30
0.0
 11
365.29682046689629
 21
286.67034836040852
 31
0.0
  0
LINE
  5
4AE0
  8
AM_0
 10
368.21831046689653
 20
307.1400083604085
 30
0.0
 11
368.21831046689653
 21
201.1735943604086
 31
0.0
  0
LINE
  5
4AE1
  8
AM_0
 10
668.16832508732716
 20
190.0483973604085
 30
0.0
 11
669.16767008732734
 21
188.43092036040841
 31
0.0
  0
LINE
  5
4AE2
  8
AM_0
 10
671.5712340873273
 20
192.15083036040861
 30
0.0
 11
672.57057608732725
 21
190.53335336040851
 31
0.0
  0
LINE
  5
4AE3
  8
AM_0
 10
661.81340408732729
 20
181.4088863604085
 30
0.0
 11
613.90726208732735
 21
181.4088863604085
 31
0.0
  0
LINE
  5
4AE4
  8
AM_0
 10
679.20679208732724
 20
257.95776236040848
 30
0.0
 11
683.41972808732714
 21
246.38282636040859
 31
0.0
  0
LINE
  5
4AE5
  8
AM_0
 10
613.38098408732731
 20
221.25797636040849
 30
0.0
 11
592.03891808732715
 21
199.9158893604085
 31
0.0
  0
LINE
  5
4AE6
  8
ﾁｭｳｼﾝｾﾝ1
 10
585.53002808732708
 20
295.23915836040862
 30
0.0
 11
570.38185808732726
 21
310.3873583604086
 31
0.0
  0
LINE
  5
4AE7
  8
AM_0
 10
615.98856008732719
 20
218.20869236040849
 30
0.0
 11
594.86734808732729
 21
197.0874593604085
 31
0.0
  0
LINE
  5
4AE8
  8
AM_0
 10
616.2094140873271
 20
267.38824436040858
 30
0.0
 11
594.86734808732729
 21
288.73028336040858
 31
0.0
  0
LINE
  5
4AE9
  8
AM_0
 10
613.38098408732731
 20
264.55981436040861
 30
0.0
 11
592.03891808732715
 21
285.90185336040861
 31
0.0
  0
LINE
  5
4AEA
  8
AM_0
 10
662.33966708732714
 20
264.55981436040861
 30
0.0
 11
683.68175408732725
 21
285.90188636040853
 31
0.0
  0
LINE
  5
4AEB
  8
AM_0
 10
659.51123408732735
 20
267.38824436040858
 30
0.0
 11
680.85332408732722
 21
288.73031636040861
 31
0.0
  0
LINE
  5
4AEC
  8
AM_0
 10
608.16183908732728
 20
210.38197136040861
 30
0.0
 11
632.01361508732725
 21
186.5302073604085
 31
0.0
  0
LINE
  5
4AED
  8
AM_0
 10
602.53680608732725
 20
177.40888436040851
 30
0.0
 11
637.86032408732729
 21
177.40888436040851
 31
0.0
  0
LINE
  5
4AEE
  8
AM_0
 10
712.86032708732728
 20
242.90890136040861
 30
0.0
 11
712.86032708732728
 21
262.9088723604084
 31
0.0
  0
LINE
  5
4AEF
  8
AM_0
 10
673.18384208732709
 20
177.40888436040851
 30
0.0
 11
637.86032408732729
 21
177.40888436040851
 31
0.0
  0
LINE
  5
4AF0
  8
AM_0
 10
637.86032408732729
 20
317.9088983604085
 30
0.0
 11
657.86031008732732
 21
317.9088983604085
 31
0.0
  0
LINE
  5
4AF1
  8
AM_0
 10
686.69547008732718
 20
237.38282636040859
 30
0.0
 11
695.71967108732736
 21
212.58901736040849
 31
0.0
  0
LINE
  5
4AF2
  8
AM_0
 10
636.36032408732717
 20
305.74794836040849
 30
0.0
 11
636.36032408732717
 21
289.6929623604085
 31
0.0
  0
LINE
  5
4AF3
  8
AM_0
 10
639.36032408732729
 20
305.74794836040849
 30
0.0
 11
639.36032408732729
 21
289.6929623604085
 31
0.0
  0
LINE
  5
4AF4
  8
AM_0
 10
575.02123808732711
 20
241.40890136040861
 30
0.0
 11
591.07624808732714
 21
241.40890136040861
 31
0.0
  0
LINE
  5
4AF5
  8
AM_0
 10
575.02123808732711
 20
244.40890136040841
 30
0.0
 11
591.07624808732714
 21
244.40890136040841
 31
0.0
  0
LINE
  5
4AF6
  8
AM_0
 10
700.69939208732728
 20
244.40890136040841
 30
0.0
 11
686.23882208732732
 21
244.40890136040841
 31
0.0
  0
LINE
  5
4AF7
  8
AM_0
 10
700.69939208732728
 20
241.40890136040861
 30
0.0
 11
689.51453108732721
 21
241.40890136040861
 31
0.0
  0
LINE
  5
4AF8
  8
AM_0
 10
381.21830046689649
 20
175.28567036040849
 30
0.0
 11
381.21830046689649
 21
202.37389736040851
 31
0.0
  0
LINE
  5
4AF9
  8
AM_0
 10
645.47354708732735
 20
193.68433736040851
 30
0.0
 11
616.95514208732732
 21
221.3920703604085
 31
0.0
  0
LINE
  5
4AFA
  8
AM_0
 10
678.47495108732733
 20
214.07369636040849
 30
0.0
 11
666.45728108732726
 21
251.97610136040859
 31
0.0
  0
LINE
  5
4AFB
  8
AM_0
 10
676.35925808732725
 20
171.90887036040851
 30
0.0
 11
673.18382708732724
 21
177.40886936040849
 31
0.0
  0
LINE
  5
4AFC
  8
AM_0
 10
637.86032408732729
 20
317.9088983604085
 30
0.0
 11
617.86032608732728
 21
317.9088983604085
 31
0.0
  0
LINE
  5
4AFD
  8
AM_0
 10
657.86032508732706
 20
317.9088983604085
 30
0.0
 11
700.07649908732731
 21
314.21544836040857
 31
0.0
  0
LINE
  5
4AFE
  8
AM_0
 10
617.86032608732728
 20
317.90886836040852
 30
0.0
 11
575.64415808732736
 21
314.21544836040857
 31
0.0
  0
LINE
  5
4AFF
  8
AM_0
 10
562.86031808732707
 20
242.90890136040861
 30
0.0
 11
562.86031808732707
 21
262.9088723604084
 31
0.0
  0
LINE
  5
4B00
  8
AM_0
 10
712.86032708732728
 20
262.9088723604084
 30
0.0
 11
709.16689208732726
 21
305.1250583604085
 31
0.0
  0
LINE
  5
4B01
  8
AM_0
 10
676.35925808732725
 20
171.9088853604085
 30
0.0
 11
699.2350980873274
 21
171.9088853604085
 31
0.0
  0
LINE
  5
4B02
  8
AM_0
 10
562.86031808732707
 20
262.9088723604084
 30
0.0
 11
566.55376808732717
 21
305.1250583604085
 31
0.0
  0
LINE
  5
4B03
  8
AM_0
 10
562.86031808732707
 20
222.90887036040851
 30
0.0
 11
566.52361808732724
 21
181.03731836040851
 31
0.0
  0
LINE
  5
4B04
  8
AM_0
 10
712.86032708732728
 20
222.9088883604085
 30
0.0
 11
709.1970420873273
 21
181.0373333604085
 31
0.0
  0
LINE
  5
4B05
  8
AM_0
 10
562.86031808732707
 20
242.90890136040861
 30
0.0
 11
562.86031808732707
 21
222.9088883604085
 31
0.0
  0
LINE
  5
4B06
  8
AM_0
 10
599.36139308732731
 20
171.9088853604085
 30
0.0
 11
576.48553808732731
 21
171.9088853604085
 31
0.0
  0
LINE
  5
4B07
  8
AM_0
 10
712.86032708732728
 20
242.90890136040861
 30
0.0
 11
712.86032708732728
 21
222.9088883604085
 31
0.0
  0
LINE
  5
4B08
  8
AM_0
 10
613.75125608732731
 20
160.7044793604085
 30
0.0
 11
661.96938008732729
 21
160.7044793604085
 31
0.0
  0
LINE
  5
4B09
  8
ﾁｭｳｼﾝｾﾝ1
 10
585.53005808732723
 20
190.57859336040849
 30
0.0
 11
570.38185808732726
 21
175.4303993604085
 31
0.0
  0
LINE
  5
4B0A
  8
ﾁｭｳｼﾝｾﾝ1
 10
690.19062008732726
 20
190.57859336040849
 30
0.0
 11
705.3387960873273
 21
175.43041436040849
 31
0.0
  0
LINE
  5
4B0B
  8
ﾁｭｳｼﾝｾﾝ1
 10
690.19062008732726
 20
295.23915836040862
 30
0.0
 11
705.33881408732725
 21
310.3873583604086
 31
0.0
  0
LINE
  5
4B0C
  8
AM_0
 10
325.6790604668966
 20
161.37096836040851
 30
0.0
 11
336.21830046689649
 21
161.0949803604085
 31
0.0
  0
LINE
  5
4B0D
  8
AM_0
 10
324.21830046689649
 20
269.90890436040848
 30
0.0
 11
324.21830046689649
 21
251.69161736040849
 31
0.0
  0
LINE
  5
4B0E
  8
AM_0
 10
324.21830046689649
 20
173.5384793604085
 30
0.0
 11
324.21830046689649
 21
162.87044936040849
 31
0.0
  0
LINE
  5
4B0F
  8
AM_0
 10
330.21830046689649
 20
173.11701536040849
 30
0.0
 11
336.21830046689649
 21
173.11701536040849
 31
0.0
  0
LINE
  5
4B10
  8
AM_0
 10
324.21830046689649
 20
175.5384923604085
 30
0.0
 11
330.21830046689649
 21
175.5384923604085
 31
0.0
  0
LINE
  5
4B11
  8
AM_0
 10
376.21826046689648
 20
172.0169783604085
 30
0.0
 11
376.21826046689648
 21
163.39196336040851
 31
0.0
  0
LINE
  5
4B12
  8
AM_0
 10
375.77351046689648
 20
173.4544793604085
 30
0.0
 11
372.21830046689649
 21
173.4544793604085
 31
0.0
  0
LINE
  5
4B13
  8
AM_0
 10
375.77351046689648
 20
161.9544773604085
 30
0.0
 11
372.21830046689649
 21
161.9544773604085
 31
0.0
  0
LINE
  5
4B14
  8
AM_0
 10
375.77351046689648
 20
170.57949536040849
 30
0.0
 11
372.21830046689649
 21
170.57949536040849
 31
0.0
  0
LINE
  5
4B15
  8
AM_0
 10
375.77351046689648
 20
164.8294793604085
 30
0.0
 11
372.21830046689649
 21
164.8294793604085
 31
0.0
  0
CIRCLE
  5
4B16
  8
AM_0
 10
637.86032408732729
 20
242.90890136040861
 30
0.0
 40
2.4999998400000001
  0
CIRCLE
  5
4B17
  8
AM_5
 10
637.86032408732729
 20
242.90890136040861
 30
0.0
 40
3.0
  0
ARC
  5
4B18
  8
AM_0
 10
637.86032408732729
 20
242.90890136040861
 30
0.0
 40
9.5000003999999993
 50
108.4084799999997
 51
71.591512000000776
  0
CIRCLE
  5
4B19
  8
AM_0
 10
687.84157508732721
 20
264.26086136040863
 30
0.0
 40
4.9999998000000003
  0
CIRCLE
  5
4B1A
  8
AM_0
 10
613.75125608732731
 20
167.70449336040849
 30
0.0
 40
4.9999998000000003
  0
CIRCLE
  5
4B1B
  8
AM_0
 10
587.87905808732717
 20
264.26086136040863
 30
0.0
 40
4.9999998000000003
  0
CIRCLE
  5
4B1C
  8
AM_0
 10
661.96938008732729
 20
167.70449336040849
 30
0.0
 40
4.9999998000000003
  0
ARC
  5
4B1D
  8
AM_0
 10
331.71830046689649
 20
284.29055636040857
 30
0.0
 40
1.500000029999998
 50
91.500001000001546
 51
180.0000099999977
  0
ARC
  5
4B1E
  8
AM_0
 10
328.71830046689649
 20
283.84148936040862
 30
0.0
 40
1.500000029999998
 50
271.50000000000267
 51
0.0
  0
ARC
  5
4B1F
  8
AM_0
 10
373.21826046689648
 20
201.1735943604086
 30
0.0
 40
5.0000001000000003
 50
179.999989999999
 51
270.0
  0
ARC
  5
4B20
  8
AM_0
 10
373.21826046689648
 20
175.83246836040851
 30
0.0
 40
1.0000000199999981
 50
91.500001000001546
 51
180.0000099999977
  0
ARC
  5
4B21
  8
AM_0
 10
365.21831046689653
 20
289.66931036040847
 30
0.0
 40
3.0
 50
271.50000000000267
 51
0.0
  0
ARC
  5
4B22
  8
AM_0
 10
383.21831046689653
 20
302.40891836040851
 30
0.0
 40
3.0
 50
0.0
 51
90.00000299999769
  0
ARC
  5
4B23
  8
AM_0
 10
383.21831046689653
 20
315.6283283604086
 30
0.0
 40
2.00000007
 50
91.999998000000545
 51
180.0000099999977
  0
ARC
  5
4B24
  8
AM_0
 10
373.21826046689648
 20
307.1400083604085
 30
0.0
 40
5.0000001000000003
 50
91.999998000000545
 51
180.0000099999977
  0
ARC
  5
4B25
  8
AM_0
 10
383.21831046689653
 20
283.34927336040852
 30
0.0
 40
2.00000007
 50
179.999989999999
 51
271.51463999999908
  0
ARC
  5
4B26
  8
AM_0
 10
378.21830046689649
 20
315.31950836040858
 30
0.0
 40
3.0
 50
271.9999999999971
 51
0.0
  0
ARC
  5
4B27
  8
AM_0
 10
637.86032408732729
 20
242.90890136040861
 30
0.0
 40
44.000000999999983
 50
137.54731999999819
 51
174.50581000000039
  0
ARC
  5
4B28
  8
AM_0
 10
657.38991308732727
 20
269.50955036040853
 30
0.0
 40
3.0
 50
233.71475000000001
 51
315.0
  0
ARC
  5
4B29
  8
ﾁｭｳｼﾝｾﾝ1
 10
637.86032408732729
 20
242.90890136040861
 30
0.0
 40
85.000001999999981
 50
125.6955299999962
 51
144.1425800000026
  0
ARC
  5
4B2A
  8
AM_0
 10
611.25964808732715
 20
223.37930036040851
 30
0.0
 40
3.0
 50
315.0
 51
36.285256999998218
  0
ARC
  5
4B2B
  8
AM_0
 10
685.80306008732725
 20
283.7805473604086
 30
0.0
 40
3.0
 50
40.447928999996982
 51
135.0
  0
ARC
  5
4B2C
  8
AM_0
 10
633.36032408732729
 20
305.74794836040849
 30
0.0
 40
3.0
 50
0.0
 51
94.096045999998367
  0
ARC
  5
4B2D
  8
AM_0
 10
596.9886510873273
 20
194.96613836040851
 30
0.0
 40
3.0
 50
135.0
 51
229.5520800000011
  0
ARC
  5
4B2E
  8
AM_0
 10
596.9886510873273
 20
290.85162236040861
 30
0.0
 40
3.0
 50
130.4479300000001
 51
225.0
  0
ARC
  5
4B2F
  8
AM_0
 10
678.73200008732715
 20
290.85162236040861
 30
0.0
 40
3.0
 50
315.0
 51
49.552073000000021
  0
ARC
  5
4B30
  8
AM_0
 10
589.91761808732724
 20
283.7805473604086
 30
0.0
 40
3.0
 50
45.000001000003223
 51
139.55207999999709
  0
ARC
  5
4B31
  8
AM_0
 10
611.25964808732715
 20
262.4384753604084
 30
0.0
 40
3.0
 50
323.71473999999722
 51
45.000001000003223
  0
ARC
  5
4B32
  8
AM_0
 10
618.10989908732734
 20
216.0873833604085
 30
0.0
 40
3.0
 50
45.826030999997961
 51
135.0
  0
ARC
  5
4B33
  8
AM_0
 10
659.41032908732734
 20
208.02888236040849
 30
0.0
 40
20.000000700000001
 50
225.8260300000002
 51
17.592213999998648
  0
ARC
  5
4B34
  8
AM_0
 10
637.86032408732729
 20
242.90890136040861
 30
0.0
 40
66.000003000000007
 50
291.2799600000028
 51
248.72003000000129
  0
ARC
  5
4B35
  8
AM_0
 10
637.86032408732729
 20
242.90890136040861
 30
0.0
 40
70.000001999999995
 50
290.6561499999973
 51
249.34384000000179
  0
CIRCLE
  5
4B36
  8
AM_0
 10
577.75624808732732
 20
303.01296836040848
 30
0.0
 40
5.0000001000000003
  0
ARC
  5
4B37
  8
AM_0
 10
637.86032408732729
 20
225.90888836040861
 30
0.0
 40
60.000002999999992
 50
233.93341000000211
 51
236.89085000000259
  0
ARC
  5
4B38
  8
AM_0
 10
637.86032408732729
 20
225.90888836040861
 30
0.0
 40
60.000002999999992
 50
303.10914000000122
 51
304.41150999999837
  0
ARC
  5
4B39
  8
AM_0
 10
589.91761808732724
 20
202.0372133604086
 30
0.0
 40
3.0
 50
220.4479200000028
 51
315.0
  0
ARC
  5
4B3A
  8
AM_0
 10
675.12276308732714
 20
192.11015036040851
 30
0.0
 40
3.0
 50
211.70912000000229
 51
306.26119999999651
  0
ARC
  5
4B3B
  8
AM_0
 10
666.61548308732722
 20
186.85409036040849
 30
0.0
 40
3.0
 50
297.15705000000168
 51
31.709121999997731
  0
ARC
  5
4B3C
  8
AM_0
 10
637.86032408732729
 20
242.90890136040861
 30
0.0
 40
44.000000999999983
 50
19.99999900000476
 51
42.452681999998767
  0
ARC
  5
4B3D
  8
AM_0
 10
637.86032408732729
 20
242.90890136040861
 30
0.0
 40
44.000000999999983
 50
47.547317000001861
 51
84.50581900000067
  0
CIRCLE
  5
4B3E
  8
AM_0
 10
697.96439108732727
 20
182.8048043604085
 30
0.0
 40
5.0000001000000003
  0
ARC
  5
4B3F
  8
AM_0
 10
602.35501508732739
 20
171.46283936040851
 30
0.0
 40
5.0000001000000003
 50
341.74802000000159
 51
56.890858999997633
  0
ARC
  5
4B40
  8
AM_0
 10
673.36563608732729
 20
171.46283936040851
 30
0.0
 40
5.0000001000000003
 50
123.1091299999986
 51
198.25197999999841
  0
CIRCLE
  5
4B41
  8
AM_0
 10
577.75624808732732
 20
182.8048043604085
 30
0.0
 40
5.0000001000000003
  0
ARC
  5
4B42
  8
AM_0
 10
613.75125608732731
 20
167.70446336040851
 30
0.0
 40
7.0000007999999987
 50
161.74802000000159
 51
270.0
  0
CIRCLE
  5
4B43
  8
AM_0
 10
697.96439108732727
 20
303.01296836040848
 30
0.0
 40
5.0000001000000003
  0
ARC
  5
4B44
  8
AM_0
 10
642.36032708732728
 20
305.74794836040849
 30
0.0
 40
3.0
 50
85.903958999999986
 51
180.0000099999977
  0
ARC
  5
4B45
  8
AM_0
 10
575.02123808732711
 20
238.40890136040861
 30
0.0
 40
3.0
 50
90.00000299999769
 51
184.09603999999749
  0
ARC
  5
4B46
  8
AM_0
 10
637.86032408732729
 20
242.90890136040861
 30
0.0
 40
44.000000999999983
 50
185.49418999999949
 51
222.45268000000121
  0
ARC
  5
4B47
  8
AM_0
 10
633.36032408732729
 20
289.6929623604085
 30
0.0
 40
3.0
 50
275.49418000000247
 51
0.0
  0
ARC
  5
4B48
  8
AM_0
 10
642.36032708732728
 20
289.6929623604085
 30
0.0
 40
3.0
 50
179.999989999999
 51
264.50581999999741
  0
ARC
  5
4B49
  8
AM_0
 10
575.02123808732711
 20
247.40890436040851
 30
0.0
 40
3.0
 50
175.90395000000231
 51
270.0
  0
ARC
  5
4B4A
  8
AM_0
 10
591.07624808732714
 20
238.40890136040861
 30
0.0
 40
3.0
 50
5.4941789999992992
 51
90.00000299999769
  0
ARC
  5
4B4B
  8
AM_0
 10
591.07624808732714
 20
247.40890436040851
 30
0.0
 40
3.0
 50
270.0
 51
354.50582000000048
  0
ARC
  5
4B4C
  8
AM_0
 10
700.69939208732728
 20
247.40890436040851
 30
0.0
 40
3.0
 50
270.0
 51
4.096044000000556
  0
ARC
  5
4B4D
  8
AM_0
 10
700.69939208732728
 20
238.40890136040861
 30
0.0
 40
3.0
 50
355.90396000000248
 51
90.00000299999769
  0
ARC
  5
4B4E
  8
AM_0
 10
689.51453108732721
 20
238.40890136040861
 30
0.0
 40
3.0
 50
90.00000299999769
 51
200.00000000000219
  0
ARC
  5
4B4F
  8
AM_0
 10
686.23882208732732
 20
247.40890436040851
 30
0.0
 40
3.0
 50
200.00000000000219
 51
270.0
  0
ARC
  5
4B50
  8
AM_0
 10
383.21831046689653
 20
202.37389736040851
 30
0.0
 40
2.00000007
 50
90.00000299999769
 51
180.0000099999977
  0
ARC
  5
4B51
  8
AM_0
 10
383.21831046689653
 20
175.28567036040849
 30
0.0
 40
2.00000007
 50
179.999989999999
 51
268.00000999999872
  0
ARC
  5
4B52
  8
AM_0
 10
384.21830046689649
 20
188.2935893604085
 30
0.0
 40
2.00000007
 50
268.0000000000029
 51
0.0
  0
ARC
  5
4B53
  8
AM_0
 10
637.86032408732729
 20
242.90890136040861
 30
0.0
 40
30.0
 50
17.592213999998648
 51
225.8260300000002
  0
ARC
  5
4B54
  8
AM_0
 10
664.46098808732722
 20
262.4384753604084
 30
0.0
 40
3.0
 50
135.0
 51
216.28526000000289
  0
ARC
  5
4B55
  8
AM_0
 10
618.33072308732721
 20
269.50955036040853
 30
0.0
 40
3.0
 50
225.0
 51
306.28525999999772
  0
ARC
  5
4B56
  8
AM_0
 10
699.20493308732716
 20
304.25349836040863
 30
0.0
 40
10.000000200000001
 50
4.99999990000107
 51
84.999996999998729
  0
ARC
  5
4B57
  8
AM_0
 10
637.86032408732729
 20
225.90888836040861
 30
0.0
 40
60.000002999999992
 50
303.10914000000122
 51
306.06658999999792
  0
ARC
  5
4B58
  8
AM_0
 10
576.51571808732729
 20
304.25349836040863
 30
0.0
 40
10.000000200000001
 50
95.00000199999856
 51
175.0000100000004
  0
ARC
  5
4B59
  8
AM_0
 10
699.2350980873274
 20
181.90888436040851
 30
0.0
 40
10.000000200000001
 50
270.0
 51
354.99999999999977
  0
ARC
  5
4B5A
  8
AM_0
 10
576.48553808732731
 20
181.90888436040851
 30
0.0
 40
10.000000200000001
 50
184.99998999999951
 51
270.0
  0
ARC
  5
4B5B
  8
AM_0
 10
629.89227608732722
 20
184.40890136040841
 30
0.0
 40
3.0
 50
270.0
 51
45.000001000003223
  0
ARC
  5
4B5C
  8
AM_0
 10
661.96938008732729
 20
167.70446336040851
 30
0.0
 40
7.0000007999999987
 50
270.0
 51
18.251978000001721
  0
ARC
  5
4B5D
  8
ﾁｭｳｼﾝｾﾝ1
 10
637.86032408732729
 20
242.90890136040861
 30
0.0
 40
85.000001999999981
 50
215.69552999999689
 51
234.14257999999799
  0
ARC
  5
4B5E
  8
ﾁｭｳｼﾝｾﾝ1
 10
637.86032408732729
 20
242.90890136040861
 30
0.0
 40
85.000001999999981
 50
305.69552999999621
 51
324.14258000000262
  0
ARC
  5
4B5F
  8
ﾁｭｳｼﾝｾﾝ1
 10
637.86032408732729
 20
242.90890136040861
 30
0.0
 40
85.000001999999981
 50
35.69552799999677
 51
54.142581999996843
  0
ARC
  5
4B60
  8
AM_0
 10
322.71830046689649
 20
168.1334333604085
 30
0.0
 40
1.500000029999998
 50
0.0
 51
88.499997000000747
  0
ARC
  5
4B61
  8
AM_0
 10
325.71830046689649
 20
162.87044936040849
 30
0.0
 40
1.500000029999998
 50
179.999989999999
 51
268.50000999999878
  0
ARC
  5
4B62
  8
AM_0
 10
322.21829046689652
 20
173.5384793604085
 30
0.0
 40
2.00000007
 50
0.0
 51
90.00000299999769
  0
ARC
  5
4B63
  8
AM_0
 10
328.21829046689652
 20
175.11701636040851
 30
0.0
 40
2.00000007
 50
270.0
 51
0.0
  0
ARC
  5
4B64
  8
AM_0
 10
373.67288046689652
 20
163.39196336040851
 30
0.0
 40
2.5454064299999981
 50
325.61556999999817
 51
34.38443900000275
  0
ARC
  5
4B65
  8
AM_0
 10
373.67288046689652
 20
172.0169783604085
 30
0.0
 40
2.5454064299999981
 50
325.61556999999817
 51
34.38443900000275
  0
ARC
  5
4B66
  8
AM_0
 10
366.70379046689652
 20
167.7044783604085
 30
0.0
 40
9.5144921999999994
 50
342.41195999999752
 51
17.588032999999289
  0
ARC
  5
4B7C
  8
AM_0
 10
637.86032408732729
 20
242.90890136040869
 30
0.0
 40
44.000000999999983
 50
95.494178999999434
 51
132.4526799999984
  0
LINE
  5
54FE
  8
AM_0
 10
283.2444903159369
 20
442.27567335914972
 30
0.0
 11
283.49903958995969
 21
451.99564335914971
 31
0.0
  0
LINE
  5
54FF
  8
AM_0
 10
223.1920583206963
 20
442.27567335914972
 30
0.0
 11
222.93757627955759
 21
451.99564335914971
 31
0.0
  0
LINE
  5
5500
  8
AM_0
 10
219.71830046689641
 20
440.27567335914961
 30
0.0
 11
286.71830046689638
 21
440.27567335914961
 31
0.0
  0
LINE
  5
5501
  8
AM_0
 10
219.71830046689641
 20
439.27567335914978
 30
0.0
 11
219.71830046689641
 21
440.27567335914961
 31
0.0
  0
LINE
  5
5502
  8
AM_0
 10
286.71830046689638
 20
439.27567335914978
 30
0.0
 11
286.71830046689638
 21
440.27567335914961
 31
0.0
  0
LINE
  5
5503
  8
AM_0
 10
205.21830046689641
 20
401.27567335914978
 30
0.0
 11
206.47788560315871
 21
437.34547235255462
 31
0.0
  0
LINE
  5
5504
  8
AM_0
 10
208.47666725719691
 20
439.27567335914978
 30
0.0
 11
297.95993367659588
 21
439.27567335914978
 31
0.0
  0
ARC
  5
5505
  8
AM_0
 10
208.47666725719699
 20
437.27567335914972
 30
0.0
 40
2.0
 50
90.0
 51
178.0000000000029
1001
GENIUS_GENODEF_13
1002
{
1000
HIER
1070
     0
1002
}
1002
{
1000
MANEDIT
1070
     0
1002
}
1002
{
1000
NOSEL
1070
     0
1002
}
1002
{
1000
BEHIND
1070
     0
1002
}
1002
{
1000
OTHER
1070
     0
1002
}
1002
{
1000
REACTOR
1002
}
1001
GENIUS_GENOBJ-N-FIL_13
1002
{
1000
OWNER
1000
GEN
1002
}
  0
LINE
  5
5506
  8
AM_0
 10
299.95871533063422
 20
437.34547235255462
 30
0.0
 11
301.21830046689649
 21
401.27567335914978
 31
0.0
  0
ARC
  5
5507
  8
AM_0
 10
297.95993367659599
 20
437.27567335914972
 30
0.0
 40
2.0
 50
1.9999999999971021
 51
90.0
1001
GENIUS_GENOBJ-N-FIL_13
1002
{
1000
OWNER
1000
GEN
1002
}
1001
GENIUS_GENODEF_13
1002
{
1000
HIER
1070
     0
1002
}
1002
{
1000
MANEDIT
1070
     0
1002
}
1002
{
1000
NOSEL
1070
     0
1002
}
1002
{
1000
BEHIND
1070
     0
1002
}
1002
{
1000
OTHER
1070
     0
1002
}
1002
{
1000
REACTOR
1002
}
  0
LINE
  5
5508
  8
AM_0
 10
301.21830046689649
 20
401.27567335914978
 30
0.0
 11
205.2183004668961
 21
401.27567335914978
 31
0.0
  0
LINE
  5
5509
  8
AM_0
 10
205.3230627753716
 20
404.27567335914972
 30
0.0
 11
204.21830046689641
 21
404.27567335914972
 31
0.0
  0
LINE
  5
550A
  8
AM_0
 10
206.44052739910751
 20
436.27567335914961
 30
0.0
 11
204.2183004668963
 21
436.27567335914961
 31
0.0
  0
LINE
  5
550B
  8
ﾁｭｳｼﾝｾﾝ1
 10
210.21830046689709
 20
391.01096585914979
 30
0.0
 11
210.21830046689709
 21
404.01096585914968
 31
0.0
  0
LINE
  5
550C
  8
ﾁｭｳｼﾝｾﾝ
 10
253.21830046689641
 20
446.56770403237891
 30
0.0
 11
253.21830046689641
 21
388.82515071834052
 31
0.0
  0
LINE
  5
550D
  8
AM_0
 10
201.71830046689641
 20
406.77567335914972
 30
0.0
 11
204.2183004668963
 21
406.77567335914949
 31
0.0
  0
LINE
  5
550E
  8
AM_0
 10
204.2183004668963
 20
433.77567335914932
 30
0.0
 11
201.71830046689641
 21
433.77567335914972
 31
0.0
  0
LINE
  5
550F
  8
AM_0
 10
190.81962937055039
 20
430.77567335914972
 30
0.0
 11
190.81962937055039
 21
409.77567335914972
 31
0.0
  0
LINE
  5
5510
  8
AM_0
 10
175.81962937055039
 20
412.24404830513453
 30
0.0
 11
175.81962937055039
 21
428.30729841316548
 31
0.0
  0
LINE
  5
5511
  8
AM_0
 10
188.81962937055039
 20
432.27567335914961
 30
0.0
 11
188.81962937055039
 21
408.27567335914972
 31
0.0
  0
LINE
  5
5512
  8
AM_0
 10
179.31962937055039
 20
420.27567335914972
 30
0.0
 11
179.81962937055039
 21
420.77567335914972
 31
0.0
  0
LINE
  5
5513
  8
AM_0
 10
186.31962937055039
 20
408.57567335914939
 30
0.0
 11
186.31962937055039
 21
431.97567335914948
 31
0.0
  0
LINE
  5
5514
  8
AM_0
 10
196.21830046689641
 20
408.77567335914972
 30
0.0
 11
196.21830046689641
 21
431.77567335914972
 31
0.0
  0
LINE
  5
5515
  8
AM_0
 10
190.3196293705503
 20
420.97567335915159
 30
0.0
 11
190.3196293705503
 21
419.57567335914842
 31
0.0
  0
LINE
  5
5516
  8
AM_0
 10
192.4192650971213
 20
429.37567335914957
 30
0.0
 11
191.66926509712221
 21
411.17567335914941
 31
0.0
  0
LINE
  5
5517
  8
AM_0
 10
191.46830046689641
 20
429.37567335914957
 30
0.0
 11
190.81962937055039
 21
413.63458808783349
 31
0.0
  0
LINE
  5
5518
  8
AM_0
 10
192.2169930574683
 20
430.09133207151348
 30
0.0
 11
191.4697330140603
 21
410.46330159798248
 31
0.0
  0
LINE
  5
5519
  8
AM_0
 10
191.66783254995821
 20
430.08804512031759
 30
0.0
 11
190.91926509712221
 21
410.42567335914958
 31
0.0
  0
LINE
  5
551A
  8
AM_0
 10
188.81962937055039
 20
408.27567335914972
 30
0.0
 11
186.61962937055031
 21
408.27567335914972
 31
0.0
  0
ARC
  5
551B
  8
AM_0
 10
200.71830046689641
 20
407.77567335914972
 30
0.0
 40
0.5
 50
0.0
 51
90.000000000013017
  0
ARC
  5
551C
  8
AM_0
 10
201.71830046689641
 20
407.27567335914961
 30
0.0
 40
0.5
 50
180.0
 51
270.0
  0
LINE
  5
551D
  8
AM_0
 10
201.21830046689641
 20
407.77567335914972
 30
0.0
 11
201.21830046689641
 21
407.27567335914961
 31
0.0
  0
LINE
  5
551E
  8
AM_0
 10
192.21830046689641
 20
411.17567335914941
 30
0.0
 11
195.71830046689641
 21
411.17567335914941
 31
0.0
  0
LINE
  5
551F
  8
AM_0
 10
201.21830046689641
 20
409.41960203774272
 30
0.0
 11
201.21830046689641
 21
419.1317446805574
 31
0.0
  0
LINE
  5
5520
  8
AM_0
 10
196.71830046689641
 20
408.27567335914972
 30
0.0
 11
200.71830046689621
 21
408.27567335914972
 31
0.0
  0
LINE
  5
5521
  8
AM_0
 10
200.71830046689641
 20
408.91960203774278
 30
0.0
 11
196.21830046689641
 21
408.91960203774278
 31
0.0
  0
ARC
  5
5522
  8
AM_0
 10
200.71830046689641
 20
409.41960203774272
 30
0.0
 40
0.5
 50
270.0
 51
0.0
  0
ARC
  5
5523
  8
AM_0
 10
195.7183004668963
 20
410.67567335914958
 30
0.0
 40
0.5
 50
0.0
 51
90.0
  0
ARC
  5
5524
  8
AM_0
 10
196.7183004668963
 20
408.77567335914972
 30
0.0
 40
0.5
 50
180.0
 51
270.0
  0
LINE
  5
5525
  8
AM_0
 10
200.71830046689641
 20
419.63174468055757
 30
0.0
 11
196.21830046689641
 21
419.63174468055757
 31
0.0
  0
ARC
  5
5526
  8
AM_0
 10
200.7183004668963
 20
419.1317446805578
 30
0.0
 40
0.5
 50
0.0
 51
90.0
  0
LINE
  5
5527
  8
AM_0
 10
190.3196293705503
 20
414.13050260685748
 30
0.0
 11
190.3196293705503
 21
415.30274579329028
 31
0.0
  0
LINE
  5
5528
  8
AM_0
 10
191.7459975255473
 20
411.17567335914941
 30
0.0
 11
192.21830046689641
 21
411.17567335914941
 31
0.0
  0
LINE
  5
5529
  8
AM_0
 10
191.64940503100809
 20
411.10155559241292
 30
0.0
 11
191.66926509712221
 21
411.17567335914941
 31
0.0
  0
ARC
  5
552A
  8
AM_0
 10
191.7459975255473
 20
411.07567335914968
 30
0.0
 40
0.1000000000000346
 50
90.0
 51
164.99980499355539
  0
ARC
  5
552B
  8
AM_0
 10
190.01962937055021
 20
410.98884037864161
 30
0.0
 40
0.3000000000000043
 50
0.0
 51
90.0
  0
LINE
  5
552C
  8
AM_0
 10
188.81962937055039
 20
408.87567335914957
 30
0.0
 11
190.03958507370751
 21
408.9570037393604
 31
0.0
  0
LINE
  5
552D
  8
AM_0
 10
188.81962937055039
 20
410.03192539498963
 30
0.0
 11
190.01962937055021
 21
410.03192539498963
 31
0.0
  0
LINE
  5
552E
  8
AM_0
 10
190.3196293705503
 20
409.27567335914972
 30
0.0
 11
188.81962937055039
 21
409.27567335914972
 31
0.0
  0
ARC
  5
552F
  8
AM_0
 10
190.31962937055039
 20
409.77567335914972
 30
0.0
 40
0.5
 50
270.0
 51
0.0
  0
LINE
  5
5530
  8
AM_0
 10
190.3196293705503
 20
409.2563392867176
 30
0.0
 11
190.3196293705503
 21
409.27567335914972
 31
0.0
  0
LINE
  5
5531
  8
AM_0
 10
190.3196293705503
 20
408.97567335914982
 30
0.0
 11
190.3196293705503
 21
409.2563392867176
 31
0.0
  0
LINE
  5
5532
  8
AM_0
 10
190.03958507370751
 20
408.9570037393604
 30
0.0
 11
190.3196293705503
 21
408.97567335914982
 31
0.0
  0
ARC
  5
5533
  8
AM_0
 10
190.01962937055021
 20
409.2563392867176
 30
0.0
 40
0.3000000000000007
 50
273.8140748342816
 51
0.0
  0
LINE
  5
5534
  8
AM_0
 10
191.39156803847129
 20
410.42567335914958
 30
0.0
 11
191.46830046689729
 21
410.42567335914958
 31
0.0
  0
LINE
  5
5535
  8
AM_0
 10
191.46830046689729
 20
410.42567335914958
 30
0.0
 11
191.48816053301039
 21
410.49979112588602
 31
0.0
  0
LINE
  5
5536
  8
AM_0
 10
190.8994050310082
 20
410.49979112588602
 30
0.0
 11
190.91926509712221
 21
410.42567335914958
 31
0.0
  0
LINE
  5
5537
  8
AM_0
 10
190.91926509712221
 20
410.42567335914958
 30
0.0
 11
190.9959975255473
 21
410.42567335914958
 31
0.0
  0
LINE
  5
5538
  8
AM_0
 10
191.48816053301039
 20
410.49979112588602
 30
0.0
 11
191.64940503100809
 21
411.10155559241292
 31
0.0
  0
LINE
  5
5539
  8
AM_0
 10
190.9959975255473
 20
410.42567335914958
 30
0.0
 11
191.39156803847129
 21
410.42567335914958
 31
0.0
  0
LINE
  5
553A
  8
AM_0
 10
190.8196293705513
 20
410.79751389071049
 30
0.0
 11
190.8994050310082
 21
410.49979112588602
 31
0.0
  0
ARC
  5
553B
  8
AM_0
 10
191.39156803847129
 20
410.52567335914972
 30
0.0
 40
0.0999999999999866
 50
270.0
 51
344.99980499343371
  0
ARC
  5
553C
  8
AM_0
 10
190.9959975255473
 20
410.52567335914972
 30
0.0
 40
0.1000000000000014
 50
195.00019500656629
 51
270.0
  0
LINE
  5
553D
  8
AM_0
 10
190.3196293705503
 20
410.33192539498941
 30
0.0
 11
190.3196293705503
 21
410.98884037864161
 31
0.0
  0
ARC
  5
553E
  8
AM_0
 10
190.01962937055021
 20
410.33192539498958
 30
0.0
 40
0.3000000000000007
 50
270.0
 51
0.0
  0
LINE
  5
553F
  8
AM_0
 10
188.81962937055039
 20
413.83050260685752
 30
0.0
 11
190.01962937055021
 21
413.83050260685752
 31
0.0
  0
LINE
  5
5540
  8
AM_0
 10
190.01962937055021
 20
411.28884037864162
 30
0.0
 11
188.81962937055039
 21
411.28884037864162
 31
0.0
  0
LINE
  5
5541
  8
AM_0
 10
191.66926509712221
 20
411.17567335914941
 30
0.0
 11
191.7459975255473
 21
411.17567335914941
 31
0.0
  0
ARC
  5
5542
  8
AM_0
 10
190.01962937055021
 20
414.1305026068577
 30
0.0
 40
0.3000000000000007
 50
270.0
 51
0.0
  0
LINE
  5
5543
  8
AM_0
 10
190.01962937055021
 20
415.60274579329041
 30
0.0
 11
188.81962937055039
 21
415.60274579329041
 31
0.0
  0
ARC
  5
5544
  8
AM_0
 10
190.01962937055021
 20
415.30274579329051
 30
0.0
 40
0.3000000000000043
 50
0.0
 51
90.0
  0
LINE
  5
5545
  8
AM_0
 10
190.01962937055021
 20
419.27567335914841
 30
0.0
 11
188.81962937055039
 21
419.27567335914841
 31
0.0
  0
ARC
  5
5546
  8
AM_0
 10
190.01962937055021
 20
419.57567335914871
 30
0.0
 40
0.3000000000000007
 50
270.0
 51
0.0
  0
LINE
  5
5547
  8
AM_0
 10
179.81962937055039
 20
410.14239353050249
 30
0.0
 11
186.31962937055039
 21
410.14239353050249
 31
0.0
  0
LINE
  5
5548
  8
AM_0
 10
179.81962937055039
 20
409.6423935305026
 30
0.0
 11
186.31962937055039
 21
409.6423935305026
 31
0.0
  0
LINE
  5
5549
  8
AM_0
 10
186.31962937055039
 20
419.77567335914961
 30
0.0
 11
179.81962937055039
 21
419.77567335914961
 31
0.0
  0
LINE
  5
554A
  8
AM_0
 10
179.31962937055039
 20
419.27567335914972
 30
0.0
 11
186.31962937055039
 21
419.27567335914972
 31
0.0
  0
LINE
  5
554B
  8
AM_0
 10
186.01962937055021
 20
409.27567335914972
 30
0.0
 11
179.1816793057323
 21
409.27567335914972
 31
0.0
  0
LINE
  5
554C
  8
AM_0
 10
186.31962937055039
 20
418.92898529060841
 30
0.0
 11
179.81962937055039
 21
418.92898529060841
 31
0.0
  0
LINE
  5
554D
  8
AM_0
 10
186.31962937055039
 20
410.62236142769041
 30
0.0
 11
179.81962937055039
 21
410.62236142769041
 31
0.0
  0
ARC
  5
554E
  8
AM_0
 10
186.6196293705504
 20
408.57567335914939
 30
0.0
 40
0.2999999999999971
 50
180.0
 51
270.0
  0
ARC
  5
554F
  8
AM_0
 10
186.0196293705504
 20
408.97567335914982
 30
0.0
 40
0.2999999999999971
 50
0.0
 51
90.0
  0
ARC
  5
5550
  8
AM_0
 10
187.94462937055039
 20
414.77567335914972
 30
0.0
 40
9.124999999999984
 50
152.92493329271929
 51
207.07506670728071
  0
LINE
  5
5551
  8
AM_0
 10
178.5414949060679
 20
409.50745207955191
 30
0.0
 11
176.17944497088581
 21
411.47582702553711
 31
0.0
  0
LINE
  5
5552
  8
AM_0
 10
179.31962937055039
 20
409.85410594265761
 30
0.0
 11
179.81962937055039
 21
409.27567335914972
 31
0.0
  0
ARC
  5
5553
  8
AM_0
 10
179.1816793057323
 20
410.27567335914972
 30
0.0
 40
1.0
 50
230.19442890774391
 51
270.0
  0
LINE
  5
5554
  8
AM_0
 10
179.81962937055039
 20
409.6423935305026
 30
0.0
 11
179.31962937055039
 21
409.85410594265761
 31
0.0
  0
LINE
  5
5555
  8
AM_0
 10
179.31962937055039
 20
410.31638121562872
 30
0.0
 11
179.81962937055039
 21
409.6423935305026
 31
0.0
  0
LINE
  5
5556
  8
AM_0
 10
179.81962937055039
 20
410.14239353050249
 30
0.0
 11
179.31962937055039
 21
410.31638121562872
 31
0.0
  0
LINE
  5
5557
  8
AM_0
 10
179.31962937055039
 20
410.85410594265761
 30
0.0
 11
179.81962937055039
 21
410.14239353050249
 31
0.0
  0
LINE
  5
5558
  8
AM_0
 10
179.81962937055039
 20
410.62236142769041
 30
0.0
 11
179.31962937055039
 21
410.85410594265761
 31
0.0
  0
ARC
  5
5559
  8
AM_0
 10
176.81962937055039
 20
412.24404830513453
 30
0.0
 40
1.0000000000000291
 50
180.0
 51
230.19442890773581
  0
LINE
  5
555A
  8
AM_0
 10
179.81962937055039
 20
419.77567335914961
 30
0.0
 11
179.31962937055039
 21
420.27567335914972
 31
0.0
  0
LINE
  5
555B
  8
AM_0
 10
179.31962937055039
 20
419.27567335914972
 30
0.0
 11
179.81962937055039
 21
419.77567335914961
 31
0.0
  0
LINE
  5
555C
  8
AM_0
 10
179.81962937055039
 20
418.92898529060841
 30
0.0
 11
179.31962937055039
 21
419.27567335914972
 31
0.0
  0
LINE
  5
555D
  8
AM_0
 10
186.61962937055031
 20
432.27567335914961
 30
0.0
 11
188.81962937055039
 21
432.27567335914961
 31
0.0
  0
ARC
  5
555E
  8
AM_0
 10
200.7183004668963
 20
432.77567335914972
 30
0.0
 40
0.5
 50
269.99999999998693
 51
0.0
  0
LINE
  5
555F
  8
AM_0
 10
195.71830046689641
 20
429.37567335914957
 30
0.0
 11
192.4959975255473
 21
429.37567335914957
 31
0.0
  0
LINE
  5
5560
  8
AM_0
 10
201.21830046689641
 20
421.41960203774278
 30
0.0
 11
201.21830046689641
 21
431.1317446805578
 31
0.0
  0
LINE
  5
5561
  8
AM_0
 10
196.21830046689641
 20
420.91960203774278
 30
0.0
 11
200.71830046689641
 21
420.91960203774278
 31
0.0
  0
ARC
  5
5562
  8
AM_0
 10
200.7183004668963
 20
421.41960203774278
 30
0.0
 40
0.5
 50
270.0
 51
0.0
  0
LINE
  5
5563
  8
AM_0
 10
196.21830046689641
 20
431.6317446805578
 30
0.0
 11
200.71830046689641
 21
431.6317446805578
 31
0.0
  0
LINE
  5
5564
  8
AM_0
 10
200.71830046689621
 20
432.27567335914961
 30
0.0
 11
196.71830046689641
 21
432.27567335914961
 31
0.0
  0
ARC
  5
5565
  8
AM_0
 10
200.7183004668963
 20
431.1317446805578
 30
0.0
 40
0.5
 50
0.0
 51
90.0
  0
ARC
  5
5566
  8
AM_0
 10
195.7183004668963
 20
429.87567335914957
 30
0.0
 40
0.5
 50
270.0
 51
0.0
  0
ARC
  5
5567
  8
AM_0
 10
196.7183004668963
 20
431.77567335914972
 30
0.0
 40
0.5
 50
90.0
 51
180.0
  0
ARC
  5
5568
  8
AM_0
 10
190.01962937055021
 20
426.42084411144162
 30
0.0
 40
0.3000000000000114
 50
0.0
 51
90.0
  0
LINE
  5
5569
  8
AM_0
 10
188.81962937055039
 20
421.27567335915148
 30
0.0
 11
190.01962937055021
 21
421.27567335915148
 31
0.0
  0
ARC
  5
556A
  8
AM_0
 10
190.01962937055021
 20
420.97567335915159
 30
0.0
 40
0.2999999999999971
 50
0.0
 51
90.0
  0
LINE
  5
556B
  8
AM_0
 10
188.81962937055039
 20
424.94860092500841
 30
0.0
 11
190.01962937055021
 21
424.94860092500841
 31
0.0
  0
ARC
  5
556C
  8
AM_0
 10
190.01962937055021
 20
425.2486009250087
 30
0.0
 40
0.3000000000000007
 50
270.0
 51
0.0
  0
LINE
  5
556D
  8
AM_0
 10
190.3196293705503
 20
425.2486009250087
 30
0.0
 11
190.3196293705503
 21
426.42084411144162
 31
0.0
  0
LINE
  5
556E
  8
AM_0
 10
191.7459975255473
 20
430.12567335914957
 30
0.0
 11
192.14156803847129
 21
430.12567335914957
 31
0.0
  0
LINE
  5
556F
  8
AM_0
 10
191.7459975255473
 20
430.12567335914957
 30
0.0
 11
192.14156803847129
 21
430.12567335914957
 31
0.0
  0
LINE
  5
5570
  8
AM_0
 10
192.23816053301039
 20
430.05155559241319
 30
0.0
 11
192.3994050310082
 21
429.44979112588612
 31
0.0
  0
LINE
  5
5571
  8
AM_0
 10
192.23816053301039
 20
430.05155559241319
 30
0.0
 11
192.3994050310082
 21
429.44979112588612
 31
0.0
  0
ARC
  5
5572
  8
AM_0
 10
192.4959975255473
 20
429.47567335914971
 30
0.0
 40
0.0999999999999943
 50
195.00019500651879
 51
270.0
  0
ARC
  5
5573
  8
AM_0
 10
192.14156803847129
 20
430.02567335914961
 30
0.0
 40
0.0999999999999943
 50
15.000195006505431
 51
90.0
  0
LINE
  5
5574
  8
AM_0
 10
190.81878278200929
 20
429.7506733591498
 30
0.0
 11
190.8994050310082
 21
429.44979112588612
 31
0.0
  0
LINE
  5
5575
  8
AM_0
 10
191.47101111910229
 20
429.41493789224762
 30
0.0
 11
191.6494050310082
 21
430.05155559241319
 31
0.0
  0
LINE
  5
5576
  8
AM_0
 10
191.48816053301039
 20
429.44979112588612
 30
0.0
 11
191.6494050310082
 21
430.05155559241319
 31
0.0
  0
LINE
  5
5577
  8
AM_0
 10
190.3196293705503
 20
429.56250633965863
 30
0.0
 11
190.3196293705503
 21
430.21942132330958
 31
0.0
  0
LINE
  5
5578
  8
AM_0
 10
190.81962937055039
 20
429.7475138907115
 30
0.0
 11
190.8994050310082
 21
429.44979112588612
 31
0.0
  0
LINE
  5
5579
  8
AM_0
 10
188.81962937055039
 20
429.26250633965873
 30
0.0
 11
190.01962937055021
 21
429.26250633965873
 31
0.0
  0
LINE
  5
557A
  8
AM_0
 10
190.01962937055021
 20
426.72084411144158
 30
0.0
 11
188.81962937055039
 21
426.72084411144249
 31
0.0
  0
LINE
  5
557B
  8
AM_0
 10
191.42420030398631
 20
429.37567335914957
 30
0.0
 11
191.47101111910229
 21
429.41493789224762
 31
0.0
  0
LINE
  5
557C
  8
AM_0
 10
190.9959975255473
 20
429.37567335914957
 30
0.0
 11
191.42420030398631
 21
429.37567335914957
 31
0.0
  0
LINE
  5
557D
  8
AM_0
 10
190.9959975255473
 20
429.37567335914957
 30
0.0
 11
191.39156803847129
 21
429.37567335914957
 31
0.0
  0
ARC
  5
557E
  8
AM_0
 10
190.9959975255473
 20
429.47567335914971
 30
0.0
 40
0.0999999999999943
 50
195.00019500651879
 51
270.0
  0
ARC
  5
557F
  8
AM_0
 10
191.39156803847129
 20
429.47567335914971
 30
0.0
 40
0.0999999999999608
 50
270.0
 51
344.99980499348112
  0
ARC
  5
5580
  8
AM_0
 10
190.01962937055021
 20
429.56250633965863
 30
0.0
 40
0.3000000000000007
 50
270.0
 51
0.0
  0
LINE
  5
5581
  8
AM_0
 10
188.81962937055039
 20
431.27567335914972
 30
0.0
 11
190.3196293705503
 21
431.27567335914972
 31
0.0
  0
LINE
  5
5582
  8
AM_0
 10
190.01962937055021
 20
430.51942132330959
 30
0.0
 11
188.81962937055039
 21
430.51942132330959
 31
0.0
  0
LINE
  5
5583
  8
AM_0
 10
190.03958507370751
 20
431.59434297893938
 30
0.0
 11
188.81962937055039
 21
431.67567335914941
 31
0.0
  0
ARC
  5
5584
  8
AM_0
 10
190.31962937055039
 20
430.77567335914972
 30
0.0
 40
0.5
 50
0.0
 51
90.0
  0
ARC
  5
5585
  8
AM_0
 10
191.7459975255473
 20
430.02567335914961
 30
0.0
 40
0.0999999999999606
 50
90.0
 51
164.99980499349451
  0
ARC
  5
5586
  8
AM_0
 10
190.01962937055021
 20
430.21942132330958
 30
0.0
 40
0.2999999999999971
 50
0.0
 51
90.0
  0
LINE
  5
5587
  8
AM_0
 10
190.3196293705503
 20
431.27567335914972
 30
0.0
 11
190.3196293705503
 21
431.29500743158258
 31
0.0
  0
ARC
  5
5588
  8
AM_0
 10
190.01962937055021
 20
431.29500743158258
 30
0.0
 40
0.3000000000000043
 50
0.0
 51
86.18592516571853
  0
ARC
  5
5589
  8
AM_0
 10
201.7183004668963
 20
433.27567335914972
 30
0.0
 40
0.5
 50
90.0
 51
180.0
  0
LINE
  5
558A
  8
AM_0
 10
201.21830046689641
 20
433.27567335914972
 30
0.0
 11
201.21830046689641
 21
432.77567335914972
 31
0.0
  0
LINE
  5
558B
  8
AM_0
 10
179.81962937055039
 20
429.92898529060852
 30
0.0
 11
186.31962937055039
 21
429.92898529060852
 31
0.0
  0
LINE
  5
558C
  8
AM_0
 10
179.81962937055039
 20
421.62236142769058
 30
0.0
 11
186.31962937055039
 21
421.62236142769058
 31
0.0
  0
LINE
  5
558D
  8
AM_0
 10
179.1816793057323
 20
431.27567335914972
 30
0.0
 11
186.01962937055021
 21
431.27567335914972
 31
0.0
  0
LINE
  5
558E
  8
AM_0
 10
186.31962937055039
 20
421.27567335914972
 30
0.0
 11
179.31962937055039
 21
421.27567335914972
 31
0.0
  0
LINE
  5
558F
  8
AM_0
 10
179.81962937055039
 20
420.77567335914972
 30
0.0
 11
186.31962937055039
 21
420.77567335914972
 31
0.0
  0
LINE
  5
5590
  8
AM_0
 10
186.31962937055039
 20
430.90895318779741
 30
0.0
 11
179.81962937055039
 21
430.90895318779741
 31
0.0
  0
LINE
  5
5591
  8
AM_0
 10
186.31962937055039
 20
430.40895318779741
 30
0.0
 11
179.81962937055039
 21
430.40895318779741
 31
0.0
  0
ARC
  5
5592
  8
AM_0
 10
186.0196293705504
 20
431.57567335914968
 30
0.0
 40
0.3000000000000043
 50
270.0
 51
0.0
  0
ARC
  5
5593
  8
AM_0
 10
186.6196293705504
 20
431.9756733591496
 30
0.0
 40
0.2999999999999971
 50
90.0
 51
180.0
  0
ARC
  5
5594
  8
AM_0
 10
187.94462937055039
 20
425.77567335914972
 30
0.0
 40
9.124999999999984
 50
152.92493329271929
 51
207.07506670728071
  0
LINE
  5
5595
  8
AM_0
 10
179.31962937055039
 20
421.27567335914972
 30
0.0
 11
179.81962937055039
 21
421.62236142769058
 31
0.0
  0
LINE
  5
5596
  8
AM_0
 10
179.81962937055039
 20
420.77567335914972
 30
0.0
 11
179.31962937055039
 21
421.27567335914972
 31
0.0
  0
LINE
  5
5597
  8
AM_0
 10
176.17944497088581
 20
429.07551969276278
 30
0.0
 11
178.5414949060679
 21
431.04389463874708
 31
0.0
  0
LINE
  5
5598
  8
AM_0
 10
179.81962937055039
 20
431.27567335914972
 30
0.0
 11
179.31962937055039
 21
430.69724077564251
 31
0.0
  0
ARC
  5
5599
  8
AM_0
 10
179.1816793057323
 20
430.27567335914972
 30
0.0
 40
1.0000000000000411
 50
90.0
 51
129.805571092256
  0
LINE
  5
559A
  8
AM_0
 10
179.31962937055039
 20
429.69724077564263
 30
0.0
 11
179.81962937055039
 21
429.92898529060852
 31
0.0
  0
LINE
  5
559B
  8
AM_0
 10
179.81962937055039
 20
430.40895318779741
 30
0.0
 11
179.31962937055039
 21
429.69724077564263
 31
0.0
  0
LINE
  5
559C
  8
AM_0
 10
179.31962937055039
 20
430.23496550267072
 30
0.0
 11
179.81962937055039
 21
430.40895318779741
 31
0.0
  0
LINE
  5
559D
  8
AM_0
 10
179.81962937055039
 20
430.90895318779741
 30
0.0
 11
179.31962937055039
 21
430.23496550267072
 31
0.0
  0
LINE
  5
559E
  8
AM_0
 10
179.31962937055039
 20
430.69724077564251
 30
0.0
 11
179.81962937055039
 21
430.90895318779741
 31
0.0
  0
ARC
  5
559F
  8
AM_0
 10
176.81962937055039
 20
428.30729841316548
 30
0.0
 40
1.0
 50
129.80557109226521
 51
180.0
  0
LINE
  5
55A0
  8
AM_0
 10
301.21830046689638
 20
397.27567335914978
 30
0.0
 11
280.403795567364
 21
397.27567335914978
 31
0.0
  0
LINE
  5
55A1
  8
AM_0
 10
226.03280536642879
 20
397.27567335914978
 30
0.0
 11
205.21830046689709
 21
397.27567335914978
 31
0.0
  0
LINE
  5
55A2
  8
AM_0
 10
295.08251879773542
 20
393.27567335914978
 30
0.0
 11
211.35408213605729
 21
393.27567335914978
 31
0.0
  0
LINE
  5
55A3
  8
AM_0
 10
214.1256554392036
 20
395.21673584702211
 30
0.0
 11
214.21830046689681
 21
396.27567335915001
 31
0.0
  0
LINE
  5
55A4
  8
AM_0
 10
206.31094549459041
 20
395.21673584702211
 30
0.0
 11
206.21830046689709
 21
396.27567335915001
 31
0.0
  0
ARC
  5
55A5
  8
AM_0
 10
210.21830046689701
 20
399.67567335914993
 30
0.0
 40
6.5
 50
241.82726586813479
 51
298.17273413186518
  0
ARC
  5
55A6
  8
AM_0
 10
207.9048570115373
 20
395.35618503541838
 30
0.0
 40
1.6000000000000001
 50
184.99999999999969
 51
241.82726586813479
  0
LINE
  5
55A7
  8
AM_0
 10
212.5183004668969
 20
393.59619969772172
 30
0.0
 11
210.21830046689681
 21
395.88575937651711
 31
0.0
  0
LINE
  5
55A8
  8
AM_0
 10
210.52980046689689
 20
395.5756733591499
 30
0.0
 11
209.9068004668969
 21
395.5756733591499
 31
0.0
  0
LINE
  5
55A9
  8
AM_0
 10
207.91830046689699
 20
393.59619969772172
 30
0.0
 11
210.21830046689681
 21
395.88575937651711
 31
0.0
  0
LINE
  5
55AA
  8
AM_0
 10
210.52980046689689
 20
393.18314166881521
 30
0.0
 11
210.52980046689689
 21
395.5756733591499
 31
0.0
  0
LINE
  5
55AB
  8
AM_0
 10
209.9068004668969
 20
393.18314166881521
 30
0.0
 11
209.9068004668969
 21
395.5756733591499
 31
0.0
  0
ARC
  5
55AC
  8
AM_0
 10
212.53174392225671
 20
395.35618503541838
 30
0.0
 40
1.6000000000000001
 50
298.17273413186518
 51
355.00000000000023
  0
LINE
  5
55AD
  8
AM_0
 10
301.21830046689649
 20
397.27567335914978
 30
0.0
 11
301.21830046689649
 21
401.27567335914978
 31
0.0
  0
LINE
  5
55AE
  8
AM_0
 10
205.2183004668961
 20
401.27567335914978
 30
0.0
 11
205.2183004668972
 21
397.27567335914978
 31
0.0
  0
LINE
  5
55AF
  8
AM_0N
 10
214.01830046689699
 20
397.27567335914978
 30
0.0
 11
214.01830046689699
 21
396.27567335915001
 31
0.0
  0
LINE
  5
55B0
  8
AM_0N
 10
210.41830046689699
 20
396.27567335915001
 30
0.0
 11
210.7822707011631
 21
397.27567335914978
 31
0.0
  0
LINE
  5
55B1
  8
AM_0N
 10
210.01830046689699
 20
396.27567335915001
 30
0.0
 11
210.38227070116321
 21
397.27567335914978
 31
0.0
  0
LINE
  5
55B2
  8
AM_0N
 10
206.21830046689689
 20
396.27567335915001
 30
0.0
 11
214.21830046689681
 21
396.27567335915001
 31
0.0
  0
LINE
  5
55B3
  8
AM_0N
 10
206.41830046689691
 20
396.27567335915001
 30
0.0
 11
206.41830046689691
 21
397.27567335914978
 31
0.0
  0
LINE
  5
55B4
  8
AM_0
 10
226.0328053664287
 20
393.27567335914978
 30
0.0
 11
226.0328053664287
 21
397.27567335914978
 31
0.0
  0
LINE
  5
55B5
  8
AM_0
 10
224.37595111693611
 20
397.27567335914978
 30
0.0
 11
226.0328053664287
 21
393.27567335914978
 31
0.0
  0
LINE
  5
55B6
  8
AM_0
 10
280.403795567364
 20
393.27567335914978
 30
0.0
 11
280.403795567364
 21
397.27567335914978
 31
0.0
  0
LINE
  5
55B7
  8
AM_0
 10
282.06064981685648
 20
397.27567335914978
 30
0.0
 11
280.403795567364
 21
393.27567335914978
 31
0.0
  0
LINE
  5
55B8
  8
AM_0
 10
219.71830046689641
 20
442.27567335914972
 30
0.0
 11
286.71830046689638
 21
442.27567335914972
 31
0.0
  0
LINE
  5
55B9
  8
AM_0
 10
219.71830046689641
 20
442.27567335914972
 30
0.0
 11
219.71830046689641
 21
440.27567335914961
 31
0.0
  0
LINE
  5
55BA
  8
AM_0
 10
286.71830046689638
 20
442.27567335914972
 30
0.0
 11
286.71830046689638
 21
440.27567335914961
 31
0.0
  0
LINE
  5
55BB
  8
ﾁｭｳｼﾝｾﾝ1
 10
296.2183004668957
 20
391.01096585914979
 30
0.0
 11
296.2183004668957
 21
404.01096585914968
 31
0.0
  0
LINE
  5
55BC
  8
AM_0
 10
292.3109454945893
 20
395.21673584702211
 30
0.0
 11
292.21830046689581
 21
396.27567335915001
 31
0.0
  0
LINE
  5
55BD
  8
AM_0
 10
300.12565543920232
 20
395.21673584702211
 30
0.0
 11
300.2183004668957
 21
396.27567335915001
 31
0.0
  0
ARC
  5
55BE
  8
AM_0
 10
296.21830046689598
 20
399.67567335914981
 30
0.0
 40
6.5
 50
241.82726586813479
 51
298.17273413186518
  0
ARC
  5
55BF
  8
AM_0
 10
298.53174392225571
 20
395.35618503541832
 30
0.0
 40
1.6000000000000001
 50
298.17273413186518
 51
355.00000000000023
  0
LINE
  5
55C0
  8
AM_0
 10
293.9183004668958
 20
393.59619969772172
 30
0.0
 11
296.21830046689581
 21
395.88575937651711
 31
0.0
  0
LINE
  5
55C1
  8
AM_0
 10
295.90680046689567
 20
395.5756733591499
 30
0.0
 11
296.52980046689578
 21
395.5756733591499
 31
0.0
  0
LINE
  5
55C2
  8
AM_0
 10
298.51830046689582
 20
393.59619969772172
 30
0.0
 11
296.21830046689581
 21
395.88575937651711
 31
0.0
  0
LINE
  5
55C3
  8
AM_0
 10
295.90680046689567
 20
393.18314166881521
 30
0.0
 11
295.90680046689567
 21
395.5756733591499
 31
0.0
  0
LINE
  5
55C4
  8
AM_0
 10
296.52980046689578
 20
393.18314166881521
 30
0.0
 11
296.52980046689578
 21
395.5756733591499
 31
0.0
  0
ARC
  5
55C5
  8
AM_0
 10
293.90485701153631
 20
395.35618503541832
 30
0.0
 40
1.6000000000000001
 50
184.99999999999969
 51
241.82726586813479
  0
LINE
  5
55C6
  8
AM_0N
 10
292.41830046689569
 20
397.27567335914978
 30
0.0
 11
292.41830046689569
 21
396.27567335915001
 31
0.0
  0
LINE
  5
55C7
  8
AM_0N
 10
296.01830046689582
 20
396.27567335915001
 30
0.0
 11
295.6543302326296
 21
397.27567335914978
 31
0.0
  0
LINE
  5
55C8
  8
AM_0N
 10
296.41830046689569
 20
396.27567335915001
 30
0.0
 11
296.05433023262958
 21
397.27567335914978
 31
0.0
  0
LINE
  5
55C9
  8
AM_0N
 10
300.21830046689581
 20
396.27567335915001
 30
0.0
 11
292.21830046689581
 21
396.27567335915001
 31
0.0
  0
LINE
  5
55CA
  8
AM_0N
 10
300.01830046689582
 20
396.27567335915001
 30
0.0
 11
300.01830046689582
 21
397.27567335914978
 31
0.0
  0
LINE
  5
55CB
  8
AM_0
 10
204.21830046689641
 20
404.27567335914972
 30
0.0
 11
204.2183004668963
 21
436.27567335914961
 31
0.0
  0
LINE
  5
55CC
  8
ﾁｭｳｼﾝｾﾝ
 10
123.5294855945739
 20
508.27567335914972
 30
0.0
 11
431.58210046689652
 21
508.27567335914972
 31
0.0
  0
LINE
  5
560E
  8
AM_0
 10
312.21830046689649
 20
451.77567335914978
 30
0.0
 11
312.21830046689649
 21
564.7757033591497
 31
0.0
  0
LINE
  5
5617
  8
AM_0
 10
302.42405046689652
 20
553.20456335914992
 30
0.0
 11
298.27833046689659
 21
568.68567335914975
 31
0.0
  0
LINE
  5
5618
  8
AM_0
 10
302.42402046689659
 20
552.29456335915006
 30
0.0
 11
298.2783004668965
 21
567.77567335914989
 31
0.0
  0
LINE
  5
5619
  8
AM_0
 10
302.42402046689659
 20
550.44458335914999
 30
0.0
 11
298.2783004668965
 21
565.92572335914986
 31
0.0
  0
LINE
  5
561A
  8
AM_0
 10
304.21830046689649
 20
564.27567335914978
 30
0.0
 11
304.21830046689649
 21
452.27567335914972
 31
0.0
  0
LINE
  5
561B
  8
AM_0
 10
297.55833046689651
 20
544.27567335914966
 30
0.0
 11
198.5782904668965
 21
544.27567335914966
 31
0.0
  0
LINE
  5
561C
  8
AM_0
 10
297.55833046689651
 20
542.27567335914955
 30
0.0
 11
198.5782904668965
 21
542.27567335914955
 31
0.0
  0
LINE
  5
561D
  8
AM_0
 10
265.21830046689672
 20
534.27567335914978
 30
0.0
 11
198.5782904668965
 21
534.27567335914978
 31
0.0
  0
LINE
  5
561E
  8
AM_0
 10
297.55113046689672
 20
532.27567335914955
 30
0.0
 11
198.5782904668965
 21
532.27567335914955
 31
0.0
  0
LINE
  5
561F
  8
AM_0
 10
232.6570204668966
 20
524.27567335914955
 30
0.0
 11
198.5782904668965
 21
524.27567335914955
 31
0.0
  0
LINE
  5
5620
  8
AM_0
 10
232.6570204668966
 20
522.27567335914978
 30
0.0
 11
198.5782904668965
 21
522.27567335914978
 31
0.0
  0
LINE
  5
5621
  8
AM_0
 10
232.6570204668966
 20
514.27567335914978
 30
0.0
 11
198.5782904668965
 21
514.27567335914978
 31
0.0
  0
LINE
  5
5622
  8
AM_0
 10
232.6570204668966
 20
512.27567335914955
 30
0.0
 11
198.5782904668965
 21
512.27567335914955
 31
0.0
  0
LINE
  5
5623
  8
AM_0
 10
197.8982904668967
 20
544.99564335914977
 30
0.0
 11
301.03831046689652
 21
544.99564335914977
 31
0.0
  0
LINE
  5
5624
  8
AM_0
 10
197.8982904668967
 20
541.64566335914992
 30
0.0
 11
265.23832046689671
 21
541.64566335914992
 31
0.0
  0
LINE
  5
5625
  8
AM_0
 10
197.67832046689651
 20
534.76566335914981
 30
0.0
 11
265.21830046689672
 21
534.76566335914981
 31
0.0
  0
LINE
  5
5626
  8
AM_0
 10
197.67832046689651
 20
531.83572335914971
 30
0.0
 11
301.25254046689662
 21
531.83572335914971
 31
0.0
  0
LINE
  5
5627
  8
AM_0
 10
197.54832046689651
 20
524.61563335914991
 30
0.0
 11
233.87699046689659
 21
524.61563335914991
 31
0.0
  0
LINE
  5
5628
  8
AM_0
 10
197.54832046689651
 20
521.95572335914983
 30
0.0
 11
233.87699046689659
 21
521.95572335914983
 31
0.0
  0
LINE
  5
5629
  8
AM_0
 10
197.4883204668964
 20
514.54569335914982
 30
0.0
 11
233.9369904668965
 21
514.54569335914982
 31
0.0
  0
LINE
  5
562A
  8
AM_0
 10
197.4883204668964
 20
512.01566335914981
 30
0.0
 11
233.9369904668965
 21
512.01566335914981
 31
0.0
  0
LINE
  5
562B
  8
AM_0
 10
197.4883204668964
 20
504.54569335914982
 30
0.0
 11
233.9369904668965
 21
504.54569335914982
 31
0.0
  0
LINE
  5
562C
  8
AM_0
 10
232.6570204668966
 20
504.27567335914972
 30
0.0
 11
198.5782904668965
 21
504.27567335914972
 31
0.0
  0
LINE
  5
562D
  8
AM_0
 10
232.6570204668966
 20
502.27567335914972
 30
0.0
 11
198.5782904668965
 21
502.27567335914972
 31
0.0
  0
LINE
  5
562E
  8
AM_0
 10
197.4883204668964
 20
502.00565335914979
 30
0.0
 11
233.9369904668965
 21
502.00565335914979
 31
0.0
  0
LINE
  5
562F
  8
AM_0
 10
197.54832046689651
 20
494.59561335914998
 30
0.0
 11
233.87699046689659
 21
494.59561335914998
 31
0.0
  0
LINE
  5
5630
  8
AM_0
 10
232.6570204668966
 20
494.27567335914972
 30
0.0
 11
198.5782904668965
 21
494.27567335914972
 31
0.0
  0
LINE
  5
5631
  8
AM_0
 10
232.6570204668966
 20
492.27567335914972
 30
0.0
 11
198.5782904668965
 21
492.27567335914972
 31
0.0
  0
LINE
  5
5632
  8
AM_0
 10
197.54832046689651
 20
491.93570335914978
 30
0.0
 11
233.88957046689649
 21
491.93570335914978
 31
0.0
  0
LINE
  5
5633
  8
AM_0
 10
297.55113046689672
 20
484.27567335914978
 30
0.0
 11
198.5782904668965
 21
484.27567335914978
 31
0.0
  0
LINE
  5
5634
  8
AM_0
 10
197.67832046689651
 20
484.71561335914993
 30
0.0
 11
301.25254046689662
 21
484.71561335914993
 31
0.0
  0
LINE
  5
5635
  8
AM_0
 10
265.21830046689672
 20
482.27567335914961
 30
0.0
 11
198.5782904668965
 21
482.27567335914961
 31
0.0
  0
LINE
  5
5636
  8
AM_0
 10
197.67832046689651
 20
481.78568335914969
 30
0.0
 11
265.21830046689672
 21
481.78568335914969
 31
0.0
  0
LINE
  5
5637
  8
AM_0
 10
297.55833046689651
 20
474.27567335914972
 30
0.0
 11
253.21830046689649
 21
474.27567335914972
 31
0.0
  0
LINE
  5
5638
  8
AM_0
 10
297.55833046689651
 20
472.27567335914978
 30
0.0
 11
253.21830046689649
 21
472.27567335914978
 31
0.0
  0
LINE
  5
5639
  8
AM_0
 10
197.8982904668967
 20
471.55570335914967
 30
0.0
 11
253.21830046689649
 21
471.55570335914967
 31
0.0
  0
LINE
  5
563A
  8
AM_0
 10
301.03831046689652
 20
474.90567335914977
 30
0.0
 11
283.19834046689652
 21
474.90567335914977
 31
0.0
  0
LINE
  5
563B
  8
AM_0
 10
197.8982904668967
 20
474.90567335914977
 30
0.0
 11
265.23832046689671
 21
474.90567335914977
 31
0.0
  0
LINE
  5
563C
  8
AM_0
 10
253.21830046689649
 20
474.27567335914972
 30
0.0
 11
198.5782904668965
 21
474.27567335914972
 31
0.0
  0
LINE
  5
563D
  8
AM_0
 10
253.21830046689649
 20
472.27567335914978
 30
0.0
 11
198.5782904668965
 21
472.27567335914978
 31
0.0
  0
LINE
  5
563E
  8
AM_0
 10
253.21830046689649
 20
471.55570335914967
 30
0.0
 11
301.03831046689652
 21
471.55570335914967
 31
0.0
  0
LINE
  5
563F
  8
AM_0
 10
196.21830046689649
 20
561.27567335914955
 30
0.0
 11
196.21830046689649
 21
455.27567335914978
 31
0.0
  0
LINE
  5
5640
  8
AM_0
 10
304.21830046689649
 20
554.27567335914955
 30
0.0
 11
312.21830046689649
 21
554.27567335914955
 31
0.0
  0
LINE
  5
5641
  8
AM_0
 10
304.21830046689649
 20
540.21561335914976
 30
0.0
 11
312.21830046689649
 21
540.21561335914976
 31
0.0
  0
LINE
  5
5642
  8
AM_0
 10
304.21830046689649
 20
564.27567335914978
 30
0.0
 11
312.21830046689649
 21
564.27567335914978
 31
0.0
  0
LINE
  5
5643
  8
AM_0
 10
199.42832046689651
 20
564.55570335915002
 30
0.0
 11
296.34831046689652
 21
564.55570335915002
 31
0.0
  0
LINE
  5
5644
  8
AM_0
 10
196.21830046689649
 20
556.37573335914965
 30
0.0
 11
197.45829046689661
 21
562.93573335914982
 31
0.0
  0
LINE
  5
5645
  8
AM_0
 10
201.57835046689661
 20
544.92569335914982
 30
0.0
 11
196.21836046689651
 21
556.3756733591498
 31
0.0
  0
LINE
  5
5646
  8
AM_0
 10
201.57829046689659
 20
471.62564335914971
 30
0.0
 11
196.21836046689651
 21
460.18573335914971
 31
0.0
  0
LINE
  5
5647
  8
AM_0
 10
199.46830046689641
 20
567.40567335914966
 30
0.0
 11
296.34831046689652
 21
567.40567335914966
 31
0.0
  0
LINE
  5
5648
  8
AM_0
 10
199.48832046689651
 20
569.25565335914985
 30
0.0
 11
296.34831046689652
 21
569.25565335914985
 31
0.0
  0
LINE
  5
5649
  8
AM_0
 10
199.5083404668965
 20
570.16568335914985
 30
0.0
 11
296.3483704668966
 21
570.16568335914985
 31
0.0
  0
LINE
  5
564A
  8
AM_0
 10
196.21836046689651
 20
557.71570335914976
 30
0.0
 11
197.4983304668965
 21
565.72565335914999
 31
0.0
  0
LINE
  5
564B
  8
AM_0
 10
196.21836046689651
 20
559.06564335914959
 30
0.0
 11
197.50834046689661
 21
567.5557333591496
 31
0.0
  0
LINE
  5
564C
  8
AM_0
 10
196.21830046689649
 20
559.06567335914974
 30
0.0
 11
197.5283004668965
 21
568.44571335914975
 31
0.0
  0
LINE
  5
564D
  8
AM_0
 10
302.4183704668967
 20
547.6156333591498
 30
0.0
 11
298.27836046689652
 21
563.07565335914967
 31
0.0
  0
LINE
  5
564E
  8
AM_0
 10
298.75834046689653
 20
561.27567335914955
 30
0.0
 11
304.21830046689649
 21
561.27567335914955
 31
0.0
  0
LINE
  5
564F
  8
AM_0
 10
304.21830046689649
 20
462.27567335914972
 30
0.0
 11
312.21830046689649
 21
462.27567335914972
 31
0.0
  0
LINE
  5
5650
  8
AM_0
 10
304.21830046689649
 20
452.27567335914972
 30
0.0
 11
312.21830046689649
 21
452.27567335914972
 31
0.0
  0
LINE
  5
5651
  8
AM_0
 10
199.42832046689651
 20
451.99564335914971
 30
0.0
 11
296.34831046689652
 21
451.99564335914971
 31
0.0
  0
LINE
  5
5652
  8
AM_0
 10
196.21830046689649
 20
460.18564335914971
 30
0.0
 11
197.45835046689649
 21
453.62564335914959
 31
0.0
  0
LINE
  5
5653
  8
AM_0
 10
199.12455046689649
 20
449.14566335914992
 30
0.0
 11
221.6164304668965
 21
449.14566335914992
 31
0.0
  0
LINE
  5
5654
  8
AM_0
 10
196.21830046689649
 20
458.83563335914971
 30
0.0
 11
197.4983304668965
 21
450.83572335914971
 31
0.0
  0
LINE
  5
5655
  8
AM_0
 10
196.21830046689649
 20
457.49573335914971
 30
0.0
 11
197.22758046689651
 21
450.84555335914951
 31
0.0
  0
LINE
  5
5656
  8
AM_0
 10
196.21836046689651
 20
457.49570335914967
 30
0.0
 11
197.14378046689649
 21
450.86911335914959
 31
0.0
  0
LINE
  5
5657
  8
AM_0
 10
302.42402046689659
 20
468.95682335914972
 30
0.0
 11
298.2783004668965
 21
453.47568335914991
 31
0.0
  0
LINE
  5
5658
  8
AM_0
 10
298.76035046689651
 20
455.27567335914978
 30
0.0
 11
304.21830046689649
 21
455.27567335914978
 31
0.0
  0
LINE
  5
5659
  8
AM_0
 10
304.21830046689649
 20
476.33572335914982
 30
0.0
 11
312.21830046689649
 21
476.33572335914982
 31
0.0
  0
LINE
  5
565A
  8
AM_0
 10
303.21830046689649
 20
455.27567335914978
 30
0.0
 11
297.49256046689652
 21
446.45877335914992
 31
0.0
  0
LINE
  5
565B
  8
AM_0
 10
284.73191046689658
 20
445.77567335914972
 30
0.0
 11
296.23454046689648
 21
445.77567335914972
 31
0.0
  0
LINE
  5
565C
  8
AM_0
 10
282.19834046689652
 20
535.77567335914966
 30
0.0
 11
282.19834046689652
 21
540.63565335914973
 31
0.0
  0
LINE
  5
565D
  8
AM_0
 10
266.23832046689648
 20
535.77567335914966
 30
0.0
 11
266.23832046689648
 21
540.63565335914973
 31
0.0
  0
LINE
  5
565E
  8
AM_0
 10
281.71830046689672
 20
535.77567335914966
 30
0.0
 11
281.71830046689672
 21
540.77567335914955
 31
0.0
  0
LINE
  5
565F
  8
AM_0
 10
266.71830046689649
 20
535.77567335914966
 30
0.0
 11
266.71830046689649
 21
540.77567335914955
 31
0.0
  0
LINE
  5
5660
  8
AM_0
 10
238.21830046689661
 20
521.27567335914955
 30
0.0
 11
301.21830046689649
 21
521.27567335914955
 31
0.0
  0
LINE
  5
5661
  8
AM_0
 10
238.21830046689661
 20
487.77567335914972
 30
0.0
 11
301.21830046689649
 21
487.77567335914972
 31
0.0
  0
LINE
  5
5662
  8
AM_0
 10
238.21830046689661
 20
528.77567335914955
 30
0.0
 11
301.21830046689649
 21
528.77567335914955
 31
0.0
  0
LINE
  5
5663
  8
AM_0
 10
301.21830046689649
 20
528.77567335914955
 30
0.0
 11
301.21830046689649
 21
487.77567335914972
 31
0.0
  0
LINE
  5
5664
  8
AM_0
 10
238.21830046689661
 20
528.77567335914955
 30
0.0
 11
238.21830046689661
 21
487.77567335914972
 31
0.0
  0
LINE
  5
5665
  8
AM_0
 10
283.21830046689649
 20
534.76566335914981
 30
0.0
 11
301.26402046689651
 21
534.76566335914981
 31
0.0
  0
LINE
  5
5666
  8
AM_0
 10
283.21830046689649
 20
481.79569335914982
 30
0.0
 11
301.25254046689662
 21
481.79569335914982
 31
0.0
  0
LINE
  5
5667
  8
AM_0
 10
282.19834046689652
 20
480.77567335914978
 30
0.0
 11
282.19834046689652
 21
475.91568335914968
 31
0.0
  0
LINE
  5
5668
  8
AM_0
 10
266.23832046689648
 20
480.77567335914978
 30
0.0
 11
266.23832046689648
 21
475.91568335914968
 31
0.0
  0
LINE
  5
5669
  8
AM_0
 10
281.71830046689672
 20
480.77567335914978
 30
0.0
 11
281.71830046689672
 21
475.77567335914978
 31
0.0
  0
LINE
  5
566A
  8
AM_0
 10
266.71830046689649
 20
480.77567335914978
 30
0.0
 11
266.71830046689649
 21
475.77567335914978
 31
0.0
  0
LINE
  5
566B
  8
AM_0
 10
297.55113046689672
 20
482.27567335914961
 30
0.0
 11
283.21830046689649
 21
482.27567335914961
 31
0.0
  0
LINE
  5
566C
  8
AM_0
 10
297.56547046689673
 20
534.27567335914978
 30
0.0
 11
283.21830046689649
 21
534.27567335914978
 31
0.0
  0
LINE
  5
566D
  8
AM_0
 10
283.19834046689652
 20
541.63565335914973
 30
0.0
 11
301.03831046689652
 21
541.63565335914973
 31
0.0
  0
ARC
  5
56AB
  8
AM_0
 10
303.87150046689652
 20
553.6084333591499
 30
0.0
 40
1.502775999999999
 50
194.75642999999971
 51
269.87757999999872
  0
ARC
  5
56AC
  8
AM_0
 10
303.87150046689652
 20
552.69840335914978
 30
0.0
 40
1.502775999999999
 50
194.75642999999971
 51
269.87757999999872
  0
ARC
  5
56AD
  8
AM_0
 10
303.87150046689652
 20
550.84842335914993
 30
0.0
 40
1.502775999999999
 50
194.75642999999971
 51
269.87757999999872
  0
ARC
  5
56AE
  8
AM_0
 10
296.34348046689672
 20
568.16092335914959
 30
0.0
 40
2.0047290000000002
 50
15.173495999999471
 51
89.861678000000197
  0
ARC
  5
56AF
  8
AM_0
 10
296.34348046689672
 20
567.2508933591497
 30
0.0
 40
2.0047290000000002
 50
15.173495999999471
 51
89.861678000000197
  0
ARC
  5
56B0
  8
AM_0
 10
296.34348046689672
 20
565.40091335914985
 30
0.0
 40
2.0047290000000002
 50
15.173495999999471
 51
89.861678000000197
  0
ARC
  5
56B1
  8
AM_0
 10
303.87150046689652
 20
468.55289335914978
 30
0.0
 40
1.502775999999999
 50
90.122413000001615
 51
165.2435700000002
  0
ARC
  5
56B2
  8
AM_0
 10
198.7629204668965
 20
473.27567335914972
 30
0.0
 40
1.000013899999999
 50
89.691659999999231
 51
270.30834000000078
  0
ARC
  5
56B3
  8
AM_0
 10
301.03831046689652
 20
543.32071335914964
 30
0.0
 40
1.6750020000000001
 50
269.999989999999
 51
90.00000299999769
  0
ARC
  5
56B4
  8
AM_0
 10
297.55833046689651
 20
543.27567335914978
 30
0.0
 40
1.0
 50
269.999989999999
 51
90.00000299999769
  0
ARC
  5
56B5
  8
AM_0
 10
297.55833046689651
 20
473.27567335914972
 30
0.0
 40
1.0
 50
269.999989999999
 51
90.00000299999769
  0
ARC
  5
56B6
  8
AM_0
 10
301.03831046689652
 20
473.23062335914972
 30
0.0
 40
1.6750020000000001
 50
269.999989999999
 51
90.00000299999769
  0
ARC
  5
56B7
  8
AM_0
 10
197.89091046689671
 20
543.32071335914964
 30
0.0
 40
1.6750160000000001
 50
89.746145000004447
 51
270.25387000000092
  0
ARC
  5
56B8
  8
AM_0
 10
198.7629204668965
 20
543.27567335914978
 30
0.0
 40
1.000013899999999
 50
89.691659999999231
 51
270.30834000000078
  0
ARC
  5
56B9
  8
AM_0
 10
198.7629204668965
 20
533.27567335914955
 30
0.0
 40
1.000013899999999
 50
89.691659999999231
 51
270.30834000000078
  0
ARC
  5
56BA
  8
AM_0
 10
198.7629204668965
 20
523.27567335914966
 30
0.0
 40
1.000013899999999
 50
89.691659999999231
 51
270.30834000000078
  0
ARC
  5
56BB
  8
AM_0
 10
198.7629204668965
 20
513.27567335914978
 30
0.0
 40
1.000013899999999
 50
89.691659999999231
 51
270.30834000000078
  0
ARC
  5
56BC
  8
AM_0
 10
198.7629204668965
 20
503.27567335914961
 30
0.0
 40
1.000013899999999
 50
89.691659999999231
 51
270.30834000000078
  0
ARC
  5
56BD
  8
AM_0
 10
198.7629204668965
 20
493.27567335914978
 30
0.0
 40
1.000013899999999
 50
89.691659999999231
 51
270.30834000000078
  0
ARC
  5
56BE
  8
AM_0
 10
198.7629204668965
 20
483.27567335914972
 30
0.0
 40
1.000013899999999
 50
89.691659999999231
 51
270.30834000000078
  0
ARC
  5
56BF
  8
AM_0
 10
197.67832046689651
 20
533.30069335914982
 30
0.0
 40
1.465004
 50
90.00000299999769
 51
270.0
  0
ARC
  5
56C0
  8
AM_0
 10
197.54832046689651
 20
523.28568335914974
 30
0.0
 40
1.3300049999999981
 50
90.00000299999769
 51
270.0
  0
ARC
  5
56C1
  8
AM_0
 10
197.4824604668965
 20
513.28067335914977
 30
0.0
 40
1.2650129999999991
 50
89.735579000001735
 51
270.2644100000025
  0
ARC
  5
56C2
  8
AM_0
 10
197.4824604668965
 20
503.27567335914961
 30
0.0
 40
1.2700129999999981
 50
89.736617000001587
 51
270.26336999999921
  0
ARC
  5
56C3
  8
AM_0
 10
197.54832046689651
 20
493.26566335914981
 30
0.0
 40
1.3300049999999981
 50
90.00000299999769
 51
270.0
  0
ARC
  5
56C4
  8
AM_0
 10
197.67832046689651
 20
483.25064335914971
 30
0.0
 40
1.465004
 50
90.00000299999769
 51
270.0
  0
ARC
  5
56C5
  8
AM_0
 10
197.89146046689649
 20
473.23062335914972
 30
0.0
 40
1.675014
 50
89.766498999996756
 51
270.2335099999994
  0
ARC
  5
56C6
  8
AM_0
 10
199.41703046689639
 20
562.56155335914968
 30
0.0
 40
1.994108999999999
 50
89.675548000002749
 51
169.18776999999901
  0
ARC
  5
56C7
  8
AM_0
 10
199.46855046689649
 20
565.41043335914958
 30
0.0
 40
1.9952829999999959
 50
90.006203999996856
 51
170.90835000000069
  0
ARC
  5
56C8
  8
AM_0
 10
199.48289046689641
 20
567.25894335914961
 30
0.0
 40
1.9967330000000001
 50
89.843966999998912
 51
171.45388000000071
  0
ARC
  5
56C9
  8
AM_0
 10
199.50480046689651
 20
568.17007335914968
 30
0.0
 40
1.995633
 50
89.899707999995783
 51
172.06112999999939
  0
ARC
  5
56CA
  8
AM_0
 10
296.3484304668965
 20
562.55740335914993
 30
0.0
 40
1.9982919999999991
 50
15.03254799999914
 51
90.002632000001341
  0
ARC
  5
56CB
  8
AM_0
 10
303.87150046689652
 20
547.99844335914975
 30
0.0
 40
1.502775999999999
 50
194.75642999999971
 51
269.87757999999872
  0
ARC
  5
56CC
  8
AM_0
 10
296.34348046689672
 20
454.0004033591498
 30
0.0
 40
2.0047290000000002
 50
270.13832000000423
 51
344.82649999999882
  0
ARC
  5
56CD
  8
AM_0
 10
199.4232004668965
 20
453.99490335914959
 30
0.0
 40
1.9992490000000001
 50
190.643100000001
 51
270.14743000000129
  0
ARC
  5
56CE
  8
AM_0
 10
199.4745304668966
 20
451.14603335914973
 30
0.0
 40
2.000420099999999
 50
188.9268200000011
 51
269.82270999999599
  0
ARC
  5
56CF
  8
AM_0
 10
284.73191046689658
 20
444.27567335914972
 30
0.0
 40
1.5
 50
90.00000299999769
 51
178.50000000000051
  0
ARC
  5
56D0
  8
AM_0
 10
296.23454046689648
 20
447.27567335914972
 30
0.0
 40
1.5
 50
269.999989999999
 51
326.99999999999892
  0
ARC
  5
56D1
  8
AM_0
 10
199.20493046689651
 20
451.14566335914992
 30
0.0
 40
2.0
 50
188.6296200000007
 51
269.999989999999
  0
ARC
  5
56D2
  8
AM_0
 10
199.12455046689649
 20
451.14566335914992
 30
0.0
 40
2.0
 50
187.95043999999999
 51
269.999989999999
  0
ARC
  5
56D3
  8
AM_0
 10
221.6164304668965
 20
447.64566335914992
 30
0.0
 40
1.5
 50
1.5000026999989771
 51
90.00000299999769
  0
ARC
  5
56D4
  8
AM_0
 10
232.6570204668966
 20
523.27567335914966
 30
0.0
 40
1.0000056999999991
 50
269.999989999999
 51
90.00000299999769
  0
ARC
  5
56D5
  8
AM_0
 10
232.6570204668966
 20
513.27567335914978
 30
0.0
 40
1.0000056999999991
 50
269.999989999999
 51
90.00000299999769
  0
ARC
  5
56D6
  8
AM_0
 10
232.6570204668966
 20
503.27567335914961
 30
0.0
 40
1.0000056999999991
 50
269.999989999999
 51
90.00000299999769
  0
ARC
  5
56D7
  8
AM_0
 10
232.6570204668966
 20
493.27567335914978
 30
0.0
 40
1.0000056999999991
 50
269.999989999999
 51
90.00000299999769
  0
ARC
  5
56D8
  8
AM_0
 10
283.21830046689649
 20
475.77567335914978
 30
0.0
 40
1.5
 50
179.999989999999
 51
270.0
  0
ARC
  5
56D9
  8
AM_0
 10
265.21830046689672
 20
475.77567335914978
 30
0.0
 40
1.5
 50
269.999989999999
 51
0.0000006832462478
  0
ARC
  5
56DA
  8
AM_0
 10
265.23832046689671
 20
475.91568335914968
 30
0.0
 40
1.0
 50
269.999989999999
 51
0.0000006832462478
  0
ARC
  5
56DB
  8
AM_0
 10
283.19834046689652
 20
475.91568335914968
 30
0.0
 40
1.0
 50
179.999989999999
 51
270.0
  0
CIRCLE
  5
56DC
  8
AM_0
 10
271.71830046689649
 20
536.77567335914955
 30
0.0
 40
1.1000000000000001
  0
CIRCLE
  5
56DD
  8
AM_0
 10
271.71830046689649
 20
536.77567335914955
 30
0.0
 40
1.149999999999999
  0
CIRCLE
  5
56DE
  8
AM_0
 10
276.71830046689649
 20
536.77567335914955
 30
0.0
 40
1.0
  0
ARC
  5
56DF
  8
AM_0
 10
265.21830046689672
 20
535.77567335914966
 30
0.0
 40
1.02
 50
269.999989999999
 51
0.0000006832429909
  0
ARC
  5
56E0
  8
AM_0
 10
283.21830046689649
 20
535.77567335914966
 30
0.0
 40
1.02
 50
179.999989999999
 51
270.0
  0
ARC
  5
56E1
  8
AM_0
 10
265.21830046689672
 20
535.77567335914966
 30
0.0
 40
1.5
 50
269.999989999999
 51
0.0000006832462478
  0
ARC
  5
56E2
  8
AM_0
 10
283.21830046689649
 20
535.77567335914966
 30
0.0
 40
1.5
 50
179.999989999999
 51
270.0
  0
CIRCLE
  5
56E3
  8
AM_0
 10
276.71830046689649
 20
479.77567335914972
 30
0.0
 40
1.0
  0
CIRCLE
  5
56E4
  8
AM_0
 10
271.71830046689649
 20
479.77567335914972
 30
0.0
 40
1.149999999999999
  0
CIRCLE
  5
56E5
  8
AM_0
 10
271.71830046689649
 20
479.77567335914972
 30
0.0
 40
1.1000000000000001
  0
ARC
  5
56E6
  8
AM_0
 10
265.21830046689672
 20
480.77567335914978
 30
0.0
 40
1.02
 50
0.0
 51
90.00000299999769
  0
ARC
  5
56E7
  8
AM_0
 10
283.21830046689649
 20
480.77567335914978
 30
0.0
 40
1.02
 50
90.00000299999769
 51
180.00001000000091
  0
ARC
  5
56E8
  8
AM_0
 10
265.21830046689672
 20
480.77567335914978
 30
0.0
 40
1.5
 50
0.0
 51
90.00000299999769
  0
ARC
  5
56E9
  8
AM_0
 10
283.21830046689649
 20
480.77567335914978
 30
0.0
 40
1.5
 50
90.00000299999769
 51
180.00001000000091
  0
ARC
  5
56EA
  8
AM_0
 10
233.88328046689659
 20
493.26566335914981
 30
0.0
 40
1.3300148000000001
 50
269.7294199999987
 51
90.270567000000995
  0
ARC
  5
56EB
  8
AM_0
 10
233.9452304668965
 20
503.27567335914961
 30
0.0
 40
1.2700266
 50
269.62932000000001
 51
90.370669999998185
  0
ARC
  5
56EC
  8
AM_0
 10
233.9452304668965
 20
513.28568335914974
 30
0.0
 40
1.2700266
 50
269.62932000000001
 51
90.370669999998185
  0
ARC
  5
56ED
  8
AM_0
 10
233.88328046689659
 20
523.29068335914974
 30
0.0
 40
1.3350147999999991
 50
269.7304299999999
 51
90.269556000001316
  0
ARC
  5
56EE
  8
AM_0
 10
297.5582704668966
 20
533.27567335914955
 30
0.0
 40
1.0000255999999981
 50
269.5894700000033
 51
90.410530999997775
  0
ARC
  5
56EF
  8
AM_0
 10
301.25828046689651
 20
533.3057033591499
 30
0.0
 40
1.460011199999999
 50
269.77524999999667
 51
90.224750000003354
  0
ARC
  5
56F0
  8
AM_0
 10
297.5582704668966
 20
483.27567335914972
 30
0.0
 40
1.0000255999999981
 50
269.5894700000033
 51
90.410530999997775
  0
ARC
  5
56F1
  8
AM_0
 10
301.25828046689651
 20
483.24564335914971
 30
0.0
 40
1.460011199999999
 50
269.77524999999667
 51
90.224750000003354
  0
ARC
  5
56F2
  8
AM_0
 10
283.19834046689652
 20
540.63565335914973
 30
0.0
 40
1.0
 50
90.00000299999769
 51
180.00001000000091
  0
ARC
  5
56F3
  8
AM_0
 10
283.21830046689649
 20
540.77567335914955
 30
0.0
 40
1.5
 50
90.00000299999769
 51
180.00001000000091
  0
ARC
  5
56F4
  8
AM_0
 10
265.21830046689672
 20
540.77567335914955
 30
0.0
 40
1.5
 50
0.0
 51
90.00000299999769
  0
ARC
  5
56F5
  8
AM_0
 10
265.23832046689671
 20
540.63565335914973
 30
0.0
 40
1.0
 50
0.0
 51
90.00000299999769
  0
POLYLINE
  5
56F8
  8
AM_0
 66
     1
 10
0.0
 20
0.0
 30
0.0
  0
VERTEX
  5
56F9
  8
AM_0
 10
198.5782904668965
 20
508.27567335914972
 30
0.0
 42
0.00039106593
  0
VERTEX
  5
56FA
  8
AM_0
 10
198.57593046689649
 20
507.96453335914958
 30
0.0
 42
0.00040574899
  0
VERTEX
  5
56FB
  8
AM_0
 10
198.5740604668965
 20
507.6534233591496
 30
0.0
 42
0.0003534546
  0
VERTEX
  5
56FC
  8
AM_0
 10
198.5726704668966
 20
507.3423233591497
 30
0.0
 42
0.00034407327
  0
VERTEX
  5
56FD
  8
AM_0
 10
198.57169046689651
 20
507.03118335914979
 30
0.0
 42
0.00045699408
  0
VERTEX
  5
56FE
  8
AM_0
 10
198.57123046689651
 20
506.72007335914998
 30
0.0
 42
0.00035571853
  0
VERTEX
  5
56FF
  8
AM_0
 10
198.57127046689661
 20
506.40897335914963
 30
0.0
 42
0.00038547362
  0
VERTEX
  5
5700
  8
AM_0
 10
198.57176046689651
 20
506.09783335914972
 30
0.0
 42
0.00035501498
  0
VERTEX
  5
5701
  8
AM_0
 10
198.5727204668965
 20
505.78673335914971
 30
0.0
 42
0.00040118614
  0
VERTEX
  5
5702
  8
AM_0
 10
198.57414046689641
 20
505.47549335914971
 30
0.0
 42
0.00038319871
  0
VERTEX
  5
5703
  8
AM_0
 10
198.5760504668965
 20
505.1643633591496
 30
0.0
 42
0.00040742136
  0
VERTEX
  5
5704
  8
AM_0
 10
198.5784504668967
 20
504.85313335914981
 30
0.0
 42
0.0003578071
  0
VERTEX
  5
5705
  8
AM_0
 10
198.58134046689651
 20
504.54202335914982
 30
0.0
  0
SEQEND
  5
5706
  8
AM_0
  0
POLYLINE
  5
5707
  8
AM_0
 66
     1
 10
0.0
 20
0.0
 30
0.0
  0
VERTEX
  5
5708
  8
AM_0
 10
198.62235046689651
 20
502.00528335914993
 30
0.0
 42
0.00076695232
  0
VERTEX
  5
5709
  8
AM_0
 10
198.6371504668964
 20
501.38752335914972
 30
0.0
 42
0.00073263044
  0
VERTEX
  5
570A
  8
AM_0
 10
198.65379046689671
 20
500.76992335914957
 30
0.0
 42
0.0007652599
  0
VERTEX
  5
570B
  8
AM_0
 10
198.6722804668965
 20
500.1522533591496
 30
0.0
 42
0.00075144485
  0
VERTEX
  5
570C
  8
AM_0
 10
198.69265046689671
 20
499.53465335914967
 30
0.0
 42
0.00078594403
  0
VERTEX
  5
570D
  8
AM_0
 10
198.71490046689641
 20
498.91722335914977
 30
0.0
 42
0.00073349202
  0
VERTEX
  5
570E
  8
AM_0
 10
198.7390504668964
 20
498.29984335914969
 30
0.0
 42
0.0007358075
  0
VERTEX
  5
570F
  8
AM_0
 10
198.76499046689651
 20
497.68244335914972
 30
0.0
 42
0.00078592699
  0
VERTEX
  5
5710
  8
AM_0
 10
198.79282046689659
 20
497.06505335914977
 30
0.0
 42
0.00074823144
  0
VERTEX
  5
5711
  8
AM_0
 10
198.8225504668965
 20
496.4476633591496
 30
0.0
 42
0.00074896603
  0
VERTEX
  5
5712
  8
AM_0
 10
198.85411046689649
 20
495.83053335914963
 30
0.0
 42
0.00076039765
  0
VERTEX
  5
5713
  8
AM_0
 10
198.88753046689669
 20
495.21350335914963
 30
0.0
 42
0.00075616128
  0
VERTEX
  5
5714
  8
AM_0
 10
198.9228304668965
 20
494.59647335914963
 30
0.0
  0
SEQEND
  5
5715
  8
AM_0
  0
POLYLINE
  5
5716
  8
AM_0
 66
     1
 10
0.0
 20
0.0
 30
0.0
  0
VERTEX
  5
5717
  8
AM_0
 10
199.0965404668965
 20
491.93509335914968
 30
0.0
 42
0.00073721992
  0
VERTEX
  5
5718
  8
AM_0
 10
199.1406904668965
 20
491.3326833591496
 30
0.0
 42
0.00074398496
  0
VERTEX
  5
5719
  8
AM_0
 10
199.1866204668965
 20
490.73041335914951
 30
0.0
 42
0.00073322625
  0
VERTEX
  5
571A
  8
AM_0
 10
199.2343504668965
 20
490.12808335914968
 30
0.0
 42
0.00073594289
  0
VERTEX
  5
571B
  8
AM_0
 10
199.2838304668964
 20
489.52609335914991
 30
0.0
 42
0.00074742568
  0
VERTEX
  5
571C
  8
AM_0
 10
199.33510046689659
 20
488.92423335914992
 30
0.0
 42
0.00073216749
  0
VERTEX
  5
571D
  8
AM_0
 10
199.38816046689641
 20
488.3224233591497
 30
0.0
 42
0.00074184065
  0
VERTEX
  5
571E
  8
AM_0
 10
199.44298046689639
 20
487.72089335914973
 30
0.0
 42
0.00072077528
  0
VERTEX
  5
571F
  8
AM_0
 10
199.4995604668967
 20
487.11966335914991
 30
0.0
 42
0.00074978179
  0
VERTEX
  5
5720
  8
AM_0
 10
199.5579004668964
 20
486.51846335914951
 30
0.0
 42
0.00074288888
  0
VERTEX
  5
5721
  8
AM_0
 10
199.61805046689651
 20
485.91744335914967
 30
0.0
 42
0.00072503679
  0
VERTEX
  5
5722
  8
AM_0
 10
199.67996046689649
 20
485.31670335914959
 30
0.0
 42
0.00074640584
  0
VERTEX
  5
5723
  8
AM_0
 10
199.74363046689649
 20
484.71610335914971
 30
0.0
  0
SEQEND
  5
5724
  8
AM_0
  0
POLYLINE
  5
5725
  8
AM_0
 66
     1
 10
0.0
 20
0.0
 30
0.0
  0
VERTEX
  5
5726
  8
AM_0
 10
200.07920046689659
 20
481.7926333591497
 30
0.0
 42
0.0006890001
  0
VERTEX
  5
5727
  8
AM_0
 10
200.15008046689641
 20
481.21788335914971
 30
0.0
 42
0.00070644651
  0
VERTEX
  5
5728
  8
AM_0
 10
200.22258046689649
 20
480.64320335914971
 30
0.0
 42
0.0006924559
  0
VERTEX
  5
5729
  8
AM_0
 10
200.29667046689659
 20
480.06888335914982
 30
0.0
 42
0.00069587797
  0
VERTEX
  5
572A
  8
AM_0
 10
200.37235046689651
 20
479.49474335914971
 30
0.0
 42
0.00071687041
  0
VERTEX
  5
572B
  8
AM_0
 10
200.4496604668964
 20
478.9207433591497
 30
0.0
 42
0.00069759113
  0
VERTEX
  5
572C
  8
AM_0
 10
200.52860046689659
 20
478.34695335914978
 30
0.0
 42
0.00071003142
  0
VERTEX
  5
572D
  8
AM_0
 10
200.6091404668966
 20
477.7734833591494
 30
0.0
 42
0.00069954544
  0
VERTEX
  5
572E
  8
AM_0
 10
200.6912804668965
 20
477.20038335914961
 30
0.0
 42
0.0007188852
  0
VERTEX
  5
572F
  8
AM_0
 10
200.77506046689649
 20
476.62735335914982
 30
0.0
 42
0.00071266165
  0
VERTEX
  5
5730
  8
AM_0
 10
200.86049046689661
 20
476.05459335914969
 30
0.0
 42
0.00071614577
  0
VERTEX
  5
5731
  8
AM_0
 10
200.94752046689649
 20
475.48224335914972
 30
0.0
 42
0.00072290806
  0
VERTEX
  5
5732
  8
AM_0
 10
201.03623046689651
 20
474.90994335914968
 30
0.0
  0
SEQEND
  5
5733
  8
AM_0
  0
POLYLINE
  5
5734
  8
AM_0
 66
     1
 10
0.0
 20
0.0
 30
0.0
  0
VERTEX
  5
5735
  8
AM_0
 10
198.5782904668965
 20
508.27567335914972
 30
0.0
 42
-0.00039106653
  0
VERTEX
  5
5736
  8
AM_0
 10
198.57593046689649
 20
508.58680335914983
 30
0.0
 42
-0.00040574511
  0
VERTEX
  5
5737
  8
AM_0
 10
198.5740604668965
 20
508.89791335914992
 30
0.0
 42
-0.00035346331
  0
VERTEX
  5
5738
  8
AM_0
 10
198.5726704668966
 20
509.20902335914968
 30
0.0
 42
-0.00034406545
  0
VERTEX
  5
5739
  8
AM_0
 10
198.57169046689651
 20
509.52016335914959
 30
0.0
 42
-0.00045699059
  0
VERTEX
  5
573A
  8
AM_0
 10
198.57123046689651
 20
509.83126335914972
 30
0.0
 42
-0.00035573431
  0
VERTEX
  5
573B
  8
AM_0
 10
198.57127046689661
 20
510.14236335914973
 30
0.0
 42
-0.00038545888
  0
VERTEX
  5
573C
  8
AM_0
 10
198.57176046689651
 20
510.45350335914958
 30
0.0
 42
-0.00035501203
  0
VERTEX
  5
573D
  8
AM_0
 10
198.5727204668965
 20
510.76461335914962
 30
0.0
 42
-0.00040120778
  0
VERTEX
  5
573E
  8
AM_0
 10
198.57414046689641
 20
511.0758433591497
 30
0.0
 42
-0.00038317821
  0
VERTEX
  5
573F
  8
AM_0
 10
198.5760504668965
 20
511.38697335914969
 30
0.0
 42
-0.00040741862
  0
VERTEX
  5
5740
  8
AM_0
 10
198.5784504668967
 20
511.6982033591496
 30
0.0
 42
-0.00035783324
  0
VERTEX
  5
5741
  8
AM_0
 10
198.58134046689651
 20
512.00931335914993
 30
0.0
  0
SEQEND
  5
5742
  8
AM_0
  0
POLYLINE
  5
5743
  8
AM_0
 66
     1
 10
0.0
 20
0.0
 30
0.0
  0
VERTEX
  5
5744
  8
AM_0
 10
198.62235046689651
 20
514.54605335914982
 30
0.0
 42
-0.00076691987
  0
VERTEX
  5
5745
  8
AM_0
 10
198.6371504668964
 20
515.1638133591498
 30
0.0
 42
-0.00073262795
  0
VERTEX
  5
5746
  8
AM_0
 10
198.65379046689671
 20
515.78141335914972
 30
0.0
 42
-0.0007652954
  0
VERTEX
  5
5747
  8
AM_0
 10
198.6722804668965
 20
516.39908335914993
 30
0.0
 42
-0.00077334627
  0
VERTEX
  5
5748
  8
AM_0
 10
198.69269046689669
 20
517.01668335914974
 30
0.0
 42
-0.00073282897
  0
VERTEX
  5
5749
  8
AM_0
 10
198.71495046689651
 20
517.63410335914955
 30
0.0
 42
-0.0007571179
  0
VERTEX
  5
574A
  8
AM_0
 10
198.7390504668964
 20
518.25162335914956
 30
0.0
 42
-0.00073783152
  0
VERTEX
  5
574B
  8
AM_0
 10
198.76499046689651
 20
518.86901335914979
 30
0.0
 42
-0.0007835518
  0
VERTEX
  5
574C
  8
AM_0
 10
198.79282046689659
 20
519.48628335914975
 30
0.0
 42
-0.00074826133
  0
VERTEX
  5
574D
  8
AM_0
 10
198.8225504668965
 20
520.10367335914975
 30
0.0
 42
-0.00074893555
  0
VERTEX
  5
574E
  8
AM_0
 10
198.85411046689649
 20
520.72080335914973
 30
0.0
 42
-0.00076039841
  0
VERTEX
  5
574F
  8
AM_0
 10
198.88753046689669
 20
521.33783335914973
 30
0.0
 42
-0.00075618789
  0
VERTEX
  5
5750
  8
AM_0
 10
198.9228304668965
 20
521.95486335914973
 30
0.0
  0
SEQEND
  5
5751
  8
AM_0
  0
POLYLINE
  5
5752
  8
AM_0
 66
     1
 10
0.0
 20
0.0
 30
0.0
  0
VERTEX
  5
5753
  8
AM_0
 10
199.0965404668965
 20
524.61624335914973
 30
0.0
 42
-0.0007337051
  0
VERTEX
  5
5754
  8
AM_0
 10
199.1406804668967
 20
525.21865335914981
 30
0.0
 42
-0.00075211323
  0
VERTEX
  5
5755
  8
AM_0
 10
199.1866204668965
 20
525.82105335914991
 30
0.0
 42
-0.0007297491
  0
VERTEX
  5
5756
  8
AM_0
 10
199.2343504668965
 20
526.42325335914973
 30
0.0
 42
-0.00073593041
  0
VERTEX
  5
5757
  8
AM_0
 10
199.2838304668964
 20
527.02524335914973
 30
0.0
 42
-0.00074742739
  0
VERTEX
  5
5758
  8
AM_0
 10
199.33510046689659
 20
527.62710335914971
 30
0.0
 42
-0.00073217363
  0
VERTEX
  5
5759
  8
AM_0
 10
199.38816046689641
 20
528.22891335914994
 30
0.0
 42
-0.00073754168
  0
VERTEX
  5
575A
  8
AM_0
 10
199.44298046689639
 20
528.83045335914983
 30
0.0
 42
-0.00073075073
  0
VERTEX
  5
575B
  8
AM_0
 10
199.4995604668967
 20
529.43180335914974
 30
0.0
 42
-0.00074550816
  0
VERTEX
  5
575C
  8
AM_0
 10
199.5579004668964
 20
530.0328733591499
 30
0.0
 42
-0.00074288416
  0
VERTEX
  5
575D
  8
AM_0
 10
199.61805046689651
 20
530.63389335914974
 30
0.0
 42
-0.00072504001
  0
VERTEX
  5
575E
  8
AM_0
 10
199.67996046689649
 20
531.23463335914983
 30
0.0
 42
-0.00074640667
  0
VERTEX
  5
575F
  8
AM_0
 10
199.74363046689649
 20
531.83524335914956
 30
0.0
  0
SEQEND
  5
5760
  8
AM_0
  0
POLYLINE
  5
5761
  8
AM_0
 66
     1
 10
0.0
 20
0.0
 30
0.0
  0
VERTEX
  5
5762
  8
AM_0
 10
200.07920046689659
 20
534.75870335914999
 30
0.0
 42
-0.00068898283
  0
VERTEX
  5
5763
  8
AM_0
 10
200.15008046689641
 20
535.33345335914998
 30
0.0
 42
-0.00070644357
  0
VERTEX
  5
5764
  8
AM_0
 10
200.22258046689649
 20
535.9081433591499
 30
0.0
 42
-0.00069248074
  0
VERTEX
  5
5765
  8
AM_0
 10
200.29667046689659
 20
536.48245335914964
 30
0.0
 42
-0.0006958566
  0
VERTEX
  5
5766
  8
AM_0
 10
200.37235046689651
 20
537.05659335914993
 30
0.0
 42
-0.00071687219
  0
VERTEX
  5
5767
  8
AM_0
 10
200.4496604668964
 20
537.63059335914954
 30
0.0
 42
-0.00069760022
  0
VERTEX
  5
5768
  8
AM_0
 10
200.52860046689659
 20
538.20438335914992
 30
0.0
 42
-0.00071002302
  0
VERTEX
  5
5769
  8
AM_0
 10
200.6091404668966
 20
538.77785335914973
 30
0.0
 42
-0.00069954889
  0
VERTEX
  5
576A
  8
AM_0
 10
200.6912804668965
 20
539.35095335914968
 30
0.0
 42
-0.00071887947
  0
VERTEX
  5
576B
  8
AM_0
 10
200.77506046689649
 20
539.92398335914993
 30
0.0
 42
-0.00071266929
  0
VERTEX
  5
576C
  8
AM_0
 10
200.86049046689661
 20
540.49675335914969
 30
0.0
 42
-0.00071614429
  0
VERTEX
  5
576D
  8
AM_0
 10
200.94752046689649
 20
541.06909335914963
 30
0.0
 42
-0.00072288978
  0
VERTEX
  5
576E
  8
AM_0
 10
201.03623046689651
 20
541.64139335914956
 30
0.0
  0
SEQEND
  5
576F
  8
AM_0
  0
LINE
  5
5784
  8
AM_0
 10
188.71830046689661
 20
561.27567335915001
 30
0.0
 11
188.71830046689641
 21
455.27567335915001
 31
0.0
  0
LINE
  5
5785
  8
AM_0
 10
188.71830046689641
 20
455.27567335915001
 30
0.0
 11
196.21830046689649
 21
455.27567335915001
 31
0.0
  0
LINE
  5
5786
  8
AM_0
 10
188.9183104668964
 20
465.08573335915003
 30
0.0
 11
195.1482904668965
 21
465.08573335915003
 31
0.0
  0
LINE
  5
5787
  8
AM_0
 10
188.9183104668964
 20
551.46561335914998
 30
0.0
 11
195.1482904668965
 21
551.46561335914998
 31
0.0
  0
LINE
  5
5788
  8
AM_0
 10
188.71830046689661
 20
561.27567335915001
 30
0.0
 11
196.21830046689661
 21
561.27567335915001
 31
0.0
  0
LINE
  5
5789
  8
AM_0
 10
180.7183004668974
 20
456.214269850378
 30
0.0
 11
180.71830046689709
 21
493.93655676513532
 31
0.0
  0
LINE
  5
578A
  8
AM_0
 10
171.71830046689661
 20
454.27567335915012
 30
0.0
 11
171.71830046689661
 21
562.27567335915012
 31
0.0
  0
LINE
  5
578B
  8
AM_0
 10
171.71830046689661
 20
454.27567335915001
 30
0.0
 11
188.71830046689641
 21
455.27567335915001
 31
0.0
  0
LINE
  5
578C
  8
AM_0
 10
171.71830046689661
 20
562.27567335915001
 30
0.0
 11
188.71830046689641
 21
561.27567335915001
 31
0.0
  0
LINE
  5
578D
  8
AM_0
 10
180.71830046689729
 20
464.68177016105858
 30
0.0
 11
188.71830046689641
 21
464.68177016105858
 31
0.0
  0
LINE
  5
578E
  8
AM_0
 10
180.7183004668974
 20
456.214269850378
 30
0.0
 11
188.71830046689641
 21
456.214269850378
 31
0.0
  0
LINE
  5
578F
  8
AM_0
 10
177.21830046689729
 20
473.63480039388992
 30
0.0
 11
180.71830046689729
 21
473.63480039388992
 31
0.0
  0
LINE
  5
5790
  8
AM_0
 10
177.21830046689729
 20
465.13480039388992
 30
0.0
 11
180.7183004668974
 21
465.13480039388992
 31
0.0
  0
LINE
  5
5791
  8
AM_0
 10
176.71830046689729
 20
465.63480039388992
 30
0.0
 11
176.71830046689729
 21
473.13480039388992
 31
0.0
  0
ARC
  5
5792
  8
AM_0
 10
177.21830046689729
 20
465.63480039388992
 30
0.0
 40
0.5
 50
180.0
 51
270.0
  0
ARC
  5
5793
  8
AM_0
 10
177.21830046689729
 20
473.13480039388992
 30
0.0
 40
0.5
 50
90.0
 51
180.0
  0
LINE
  5
5794
  8
AM_0
 10
171.71830046689661
 20
466.00347886600991
 30
0.0
 11
176.71830046689729
 21
466.00347886600952
 31
0.0
  0
LINE
  5
5795
  8
AM_0
 10
171.71830046689661
 20
475.73856136430572
 30
0.0
 11
180.7183004668972
 21
475.73856136430572
 31
0.0
  0
LINE
  5
5796
  8
AM_0
 10
180.7183004668974
 20
560.33707686792195
 30
0.0
 11
180.71830046689709
 21
522.61478995316907
 31
0.0
  0
LINE
  5
5797
  8
AM_0
 10
180.71830046689729
 20
551.86957655724154
 30
0.0
 11
188.71830046689641
 21
551.86957655724154
 31
0.0
  0
LINE
  5
5798
  8
AM_0
 10
180.7183004668974
 20
560.33707686792195
 30
0.0
 11
188.71830046689641
 21
560.33707686792195
 31
0.0
  0
LINE
  5
5799
  8
AM_0
 10
177.21830046689729
 20
542.91654632441009
 30
0.0
 11
180.71830046689729
 21
542.91654632441009
 31
0.0
  0
LINE
  5
579A
  8
AM_0
 10
177.21830046689729
 20
551.41654632441009
 30
0.0
 11
180.7183004668974
 21
551.41654632441009
 31
0.0
  0
LINE
  5
579B
  8
AM_0
 10
176.71830046689729
 20
550.91654632441021
 30
0.0
 11
176.71830046689729
 21
543.41654632440998
 31
0.0
  0
ARC
  5
579C
  8
AM_0
 10
177.21830046689729
 20
550.91654632441009
 30
0.0
 40
0.5
 50
90.0
 51
180.0
  0
ARC
  5
579D
  8
AM_0
 10
177.21830046689729
 20
543.41654632440998
 30
0.0
 40
0.5
 50
180.0
 51
270.0
  0
LINE
  5
579E
  8
AM_0
 10
171.71830046689661
 20
550.5478678522901
 30
0.0
 11
176.71830046689729
 21
550.54786785229032
 31
0.0
  0
LINE
  5
579F
  8
AM_0
 10
171.71830046689661
 20
540.81278535399429
 30
0.0
 11
180.7183004668972
 21
540.81278535399429
 31
0.0
  0
LINE
  5
57A0
  8
AM_0
 10
165.71830046689641
 20
562.27567335915023
 30
0.0
 11
165.71830046689641
 21
454.27567335915001
 31
0.0
  0
LINE
  5
57A1
  8
AM_0
 10
171.71830046689661
 20
454.27567335915001
 30
0.0
 11
165.71830046689641
 21
454.27567335915001
 31
0.0
  0
LINE
  5
57A2
  8
AM_0
 10
165.71830046689641
 20
562.27567335915023
 30
0.0
 11
171.71830046689641
 21
562.27567335915023
 31
0.0
  0
LINE
  5
57A3
  8
AM_0
 10
164.71830046689641
 20
504.47567335914999
 30
0.0
 11
164.71830046689641
 21
512.07567335914973
 31
0.0
  0
LINE
  5
57A4
  8
AM_0
 10
164.71830046689641
 20
512.07567335914973
 30
0.0
 11
165.71830046689641
 21
512.07567335914973
 31
0.0
  0
LINE
  5
57A5
  8
AM_0
 10
165.71830046689641
 20
508.47567335914999
 30
0.0
 11
164.71830046689641
 21
508.83964359341621
 31
0.0
  0
LINE
  5
57A6
  8
AM_0
 10
165.71830046689641
 20
508.07567335914968
 30
0.0
 11
164.71830046689641
 21
508.43964359341618
 31
0.0
  0
LINE
  5
57A7
  8
AM_0
 10
165.71830046689641
 20
504.47567335914999
 30
0.0
 11
164.71830046689641
 21
504.47567335914999
 31
0.0
  0
LINE
  5
57A8
  8
AM_0
 10
163.6593629547684
 20
512.18302833145663
 30
0.0
 11
164.71830046689641
 21
512.27567335915001
 31
0.0
  0
LINE
  5
57A9
  8
AM_0
 10
163.6593629547684
 20
504.36831838684361
 30
0.0
 11
164.71830046689641
 21
504.27567335915001
 31
0.0
  0
ARC
  5
57AA
  8
AM_0
 10
168.1183004668965
 20
508.27567335915001
 30
0.0
 40
6.5
 50
151.82726586813479
 51
208.1727341318651
  0
ARC
  5
57AB
  8
AM_0
 10
163.79881214316509
 20
505.96222990379022
 30
0.0
 40
1.6000000000000001
 50
208.1727341318651
 51
265.00000000000028
  0
ARC
  5
57AC
  8
AM_0
 10
163.79881214316509
 20
510.58911681450962
 30
0.0
 40
1.6000000000000001
 50
94.99999999999973
 51
151.82726586813479
  0
LINE
  5
57AD
  8
AM_0
 10
164.71830046689641
 20
504.27567335915001
 30
0.0
 11
164.71830046689641
 21
512.27567335915001
 31
0.0
  0
LINE
  5
57AE
  8
AM_0
 10
188.71830046689641
 20
493.93655676513532
 30
0.0
 11
180.7183004668972
 21
493.93655676513532
 31
0.0
  0
LINE
  5
57AF
  8
AM_0
 10
188.71830046689641
 20
522.61478995316941
 30
0.0
 11
180.71830046689689
 21
522.61478995316941
 31
0.0
  0
LINE
  5
57B0
  8
AM_0
 10
151.21830046689601
 20
474.27567335915109
 30
0.0
 11
151.21830046689601
 21
463.27567335915001
 31
0.0
  0
LINE
  5
57B1
  8
AM_0
 10
165.71830046689601
 20
463.27567335915001
 30
0.0
 11
151.21830046689601
 21
463.27567335915001
 31
0.0
  0
LINE
  5
57B2
  8
AM_0
 10
139.21830046689641
 20
468.27567335915103
 30
0.0
 11
139.21830046689621
 21
465.27567335915109
 31
0.0
  0
LINE
  5
57B3
  8
AM_0
 10
139.21830046689621
 20
465.27567335915109
 30
0.0
 11
151.21830046689601
 21
465.27567335915109
 31
0.0
  0
LINE
  5
57B4
  8
AM_0
 10
139.21830046689601
 20
466.27567335915109
 30
0.0
 11
139.21830046689601
 21
468.45334176529781
 31
0.0
  0
LINE
  5
57B5
  8
AM_0
 10
133.71830046689601
 20
468.27567335915109
 30
0.0
 11
134.6183004668961
 21
468.27567335915109
 31
0.0
  0
LINE
  5
57B6
  8
AM_0
 10
133.51830046689571
 20
471.27567335915109
 30
0.0
 11
133.51830046689571
 21
468.27567335915109
 31
0.0
  0
LINE
  5
57B7
  8
AM_0
 10
134.6183004668961
 20
468.00332162456732
 30
0.0
 11
134.6183004668961
 21
471.54802509373491
 31
0.0
  0
LINE
  5
57B8
  8
AM_0
 10
133.21830046689601
 20
470.9756733591513
 30
0.0
 11
134.61830046689431
 21
470.9756733591513
 31
0.0
  0
LINE
  5
57B9
  8
AM_0
 10
138.6183004668961
 20
467.3941034987439
 30
0.0
 11
138.6183004668961
 21
466.27567335915109
 31
0.0
  0
LINE
  5
57BA
  8
AM_0
 10
138.6183004668961
 20
468.27567335915109
 30
0.0
 11
138.6183004668961
 21
468.17567335915118
 31
0.0
  0
LINE
  5
57BB
  8
AM_0
 10
138.6183004668961
 20
468.17567335915118
 30
0.0
 11
138.6183004668961
 21
467.3941034987439
 31
0.0
  0
LINE
  5
57BC
  8
AM_0
 10
138.6183004668961
 20
468.27567335915109
 30
0.0
 11
138.6183004668961
 21
468.17567335915118
 31
0.0
  0
LINE
  5
57BD
  8
AM_0
 10
138.6183004668961
 20
468.65943603548089
 30
0.0
 11
138.6183004668961
 21
467.3941034987439
 31
0.0
  0
LINE
  5
57BE
  8
AM_0
 10
138.6183004668961
 20
466.27567335915109
 30
0.0
 11
139.21830046689601
 21
466.27567335915109
 31
0.0
  0
LINE
  5
57BF
  8
AM_0
 10
135.91830046689631
 20
467.3941034987439
 30
0.0
 11
135.91830046689631
 21
470.82563469114439
 31
0.0
  0
LINE
  5
57C0
  8
AM_0
 10
135.7572562376387
 20
467.10741187040111
 30
0.0
 11
134.82470318813159
 21
467.64582162456759
 31
0.0
  0
LINE
  5
57C1
  8
AM_0
 10
136.19075205892671
 20
466.60024687860812
 30
0.0
 11
138.34584887486571
 21
466.60024687860812
 31
0.0
  0
LINE
  5
57C2
  8
AM_0
 10
136.19075205892671
 20
468.18796011887952
 30
0.0
 11
138.34584887486571
 21
468.18796011887991
 31
0.0
  0
LINE
  5
57C3
  8
AM_0
 10
134.61830046689471
 20
471.27567335915109
 30
0.0
 11
133.51830046689571
 21
471.27567335915109
 31
0.0
  0
LINE
  5
57C4
  8
AM_0
 10
133.51830046689571
 20
471.27567335915109
 30
0.0
 11
133.21830046689601
 21
470.9756733591513
 31
0.0
  0
LINE
  5
57C5
  8
AM_0
 10
133.21830046689601
 20
470.9756733591513
 30
0.0
 11
133.21830046689601
 21
468.5756733591511
 31
0.0
  0
LINE
  5
57C6
  8
AM_0
 10
133.51830046689571
 20
468.27567335915109
 30
0.0
 11
134.61830046689431
 21
468.27567335915109
 31
0.0
  0
LINE
  5
57C7
  8
AM_0
 10
133.21830046689601
 20
468.5756733591511
 30
0.0
 11
133.51830046689571
 21
468.27567335915109
 31
0.0
  0
LINE
  5
57C8
  8
AM_0
 10
134.61830046689431
 20
468.5756733591511
 30
0.0
 11
133.21830046689601
 21
468.5756733591511
 31
0.0
  0
ARC
  5
57C9
  8
AM_0
 10
137.32552365086951
 20
467.3941034987439
 30
0.0
 40
1.292776816026465
 50
322.11555894629771
 51
0.0
  0
ARC
  5
57CA
  8
AM_0
 10
140.68073034295591
 20
469.77567335915109
 30
0.0
 40
4.762429876059711
 50
168.45024695876941
 51
199.4742400054138
  0
ARC
  5
57CB
  8
AM_0
 10
137.2110772829227
 20
467.3941034987439
 30
0.0
 40
1.2927768160265549
 50
142.11555894629771
 51
217.8844410536997
  0
ARC
  5
57CC
  8
AM_0
 10
133.8558705908367
 20
469.77567335915109
 30
0.0
 40
4.762429876059584
 50
340.52575999458628
 51
347.08714779821958
  0
ARC
  5
57CD
  8
AM_0
 10
137.32552365086951
 20
467.3941034987439
 30
0.0
 40
1.2927768160265021
 50
0.0
 51
37.884441053702282
  0
ARC
  5
57CE
  8
AM_0
 10
135.0311059093666
 20
468.0033216245676
 30
0.0
 40
0.4128054424705855
 50
180.0
 51
239.99999999999949
  0
ARC
  5
57CF
  8
AM_0
 10
135.3444507951682
 20
466.39241187040091
 30
0.0
 40
0.8256108849411369
 50
28.217424594175291
 51
59.999999999999439
  0
LINE
  5
57D0
  8
AM_0
 10
134.83339299941929
 20
471.91054215862118
 30
0.0
 11
134.82470318813159
 21
471.90552509373498
 31
0.0
  0
ARC
  5
57D1
  8
AM_0
 10
135.03110590936689
 20
471.54802509373508
 30
0.0
 40
0.4128054424705855
 50
119.9999999999916
 51
179.99999999999341
  0
CIRCLE
  5
57D2
  8
AM_0
 10
137.2182617988903
 20
508.27567335915018
 30
0.0
 40
5.5
  0
LINE
  5
57D3
  8
AM_0
 10
131.71826179889021
 20
505.10024687860709
 30
0.0
 11
137.21826179889069
 21
501.92482039806441
 31
0.0
  0
LINE
  5
57D4
  8
AM_0
 10
137.21826179889069
 20
501.92482039806441
 30
0.0
 11
142.71826179889021
 21
505.10024687860721
 31
0.0
  0
LINE
  5
57D5
  8
AM_0
 10
142.71826179889021
 20
505.10024687860721
 30
0.0
 11
142.71826179889021
 21
511.4510998396932
 31
0.0
  0
LINE
  5
57D6
  8
AM_0
 10
142.71826179889021
 20
511.4510998396932
 30
0.0
 11
137.21826179889021
 21
514.62652632023605
 31
0.0
  0
LINE
  5
57D7
  8
AM_0
 10
137.21826179889021
 20
514.62652632023605
 30
0.0
 11
131.71826179889021
 21
511.4510998396928
 31
0.0
  0
LINE
  5
57D8
  8
AM_0
 10
131.71826179889021
 20
511.4510998396928
 30
0.0
 11
131.71826179889021
 21
505.10024687860709
 31
0.0
  0
CIRCLE
  5
57D9
  8
AM_0
 10
137.2182617988903
 20
508.27567335915018
 30
0.0
 40
6.4999856554771771
  0
LINE
  5
57DA
  8
AM_0
 10
148.28355402926141
 20
474.27567335915109
 30
0.0
 11
151.21830046689601
 21
474.27567335915109
 31
0.0
  0
LINE
  5
57DB
  8
AM_0
 10
149.2377225810493
 20
472.77567335915109
 30
0.0
 11
151.21830046689601
 21
472.77567335915109
 31
0.0
  0
LINE
  5
57DC
  8
AM_0
 10
140.53932961075509
 20
468.27567335915103
 30
0.0
 11
151.21830046689601
 21
468.27567335915103
 31
0.0
  0
ARC
  5
57DD
  8
AM_0
 10
140.53932961075481
 20
473.27567335915109
 30
0.0
 40
5.0
 50
225.0
 51
270.0
1001
GENIUS_GENODEF_13
1002
{
1000
HIER
1070
     0
1002
}
1002
{
1000
MANEDIT
1070
     0
1002
}
1002
{
1000
NOSEL
1070
     0
1002
}
1002
{
1000
BEHIND
1070
     0
1002
}
1002
{
1000
OTHER
1070
     0
1002
}
1002
{
1000
REACTOR
1002
}
1001
GENIUS_GENOBJ-N-FIL_13
1002
{
1000
OWNER
1000
GEN
1002
}
  0
LINE
  5
57DE
  8
AM_0
 10
149.2377225810491
 20
468.27567335915103
 30
0.0
 11
149.2377225810493
 21
472.77567335915109
 31
0.0
  0
LINE
  5
57DF
  8
AM_0
 10
135.71826179889021
 20
501.9511327812578
 30
0.0
 11
135.71826179889041
 21
481.06369850544161
 31
0.0
  0
LINE
  5
57E0
  8
AM_0
 10
138.71826179889021
 20
501.9511327812578
 30
0.0
 11
138.71826179889021
 21
481.06369850544161
 31
0.0
  0
LINE
  5
57E1
  8
AM_0
 10
133.46826179889021
 20
502.96650077564829
 30
0.0
 11
133.46826179889021
 21
475.34674117101582
 31
0.0
  0
ARC
  5
57E2
  8
AM_0
 10
138.4682617988903
 20
475.34674117101582
 30
0.0
 40
5.0
 50
180.0
 51
225.0
1001
GENIUS_GENOBJ-N-FIL_13
1002
{
1000
OWNER
1000
GEN
1002
}
1001
GENIUS_GENODEF_13
1002
{
1000
HIER
1070
     0
1002
}
1002
{
1000
MANEDIT
1070
     0
1002
}
1002
{
1000
NOSEL
1070
     0
1002
}
1002
{
1000
BEHIND
1070
     0
1002
}
1002
{
1000
OTHER
1070
     0
1002
}
1002
{
1000
REACTOR
1002
}
  0
LINE
  5
57E3
  8
AM_0
 10
140.96826179889021
 20
502.96650077564829
 30
0.0
 11
140.96826179889021
 21
478.80659170240261
 31
0.0
  0
ARC
  5
57E4
  8
AM_0
 10
145.9682617988903
 20
487.23119172847561
 30
0.0
 40
5.0
 50
180.0
 51
212.46094411514611
1001
GENIUS_GENODEF_13
1002
{
1000
HIER
1070
     0
1002
}
1002
{
1000
MANEDIT
1070
     0
1002
}
1002
{
1000
NOSEL
1070
     0
1002
}
1002
{
1000
BEHIND
1070
     0
1002
}
1002
{
1000
OTHER
1070
     0
1002
}
1002
{
1000
REACTOR
1002
}
1001
GENIUS_GENOBJ-N-FIL_13
1002
{
1000
OWNER
1000
GEN
1002
}
  0
ARC
  5
57E5
  8
AM_0
 10
145.9682617988903
 20
478.80659170240261
 30
0.0
 40
5.0
 50
180.0
 51
224.2123722808945
1001
GENIUS_GENOBJ-N-FIL_13
1002
{
1000
OWNER
1000
GEN
1002
}
1001
GENIUS_GENODEF_13
1002
{
1000
HIER
1070
     0
1002
}
1002
{
1000
MANEDIT
1070
     0
1002
}
1002
{
1000
NOSEL
1070
     0
1002
}
1002
{
1000
BEHIND
1070
     0
1002
}
1002
{
1000
OTHER
1070
     0
1002
}
1002
{
1000
REACTOR
1002
}
  0
LINE
  5
57E6
  8
AM_0
 10
149.2377225810491
 20
472.77567335915109
 30
0.0
 11
141.7494742881232
 21
484.54756881550992
 31
0.0
  0
LINE
  5
57E7
  8
AM_0
 10
149.2377225810491
 20
468.27567335915103
 30
0.0
 11
142.3844615630388
 21
475.31999223164161
 31
0.0
  0
LINE
  5
57E8
  8
AM_0
 10
134.93272789295759
 20
471.81120726508283
 30
0.0
 11
137.00379570482221
 21
469.74013945321832
 31
0.0
  0
ARC
  5
57E9
  8
AM_0
 10
137.2182617988903
 20
481.06369850544161
 30
0.0
 40
1.5
 50
180.0
 51
0.0
  0
LINE
  5
57EA
  8
AM_0
 10
151.21830046689641
 20
542.27567335914944
 30
0.0
 11
151.21830046689681
 21
553.27567335915035
 31
0.0
  0
LINE
  5
57EB
  8
AM_0
 10
165.71830046689681
 20
553.27567335915012
 30
0.0
 11
151.21830046689681
 21
553.27567335915035
 31
0.0
  0
LINE
  5
57EC
  8
AM_0
 10
139.2183004668972
 20
548.27567335914966
 30
0.0
 11
139.2183004668972
 21
551.27567335914955
 31
0.0
  0
LINE
  5
57ED
  8
AM_0
 10
139.2183004668972
 20
551.27567335914955
 30
0.0
 11
151.21830046689681
 21
551.27567335914944
 31
0.0
  0
LINE
  5
57EE
  8
AM_0
 10
139.21830046689681
 20
550.27567335914955
 30
0.0
 11
139.21830046689681
 21
548.09800495300306
 31
0.0
  0
LINE
  5
57EF
  8
AM_0
 10
133.71830046689681
 20
548.27567335914966
 30
0.0
 11
134.61830046689701
 21
548.27567335914966
 31
0.0
  0
LINE
  5
57F0
  8
AM_0
 10
133.51830046689659
 20
545.27567335914955
 30
0.0
 11
133.51830046689659
 21
548.27567335914966
 31
0.0
  0
LINE
  5
57F1
  8
AM_0
 10
134.61830046689701
 20
548.54802509373326
 30
0.0
 11
134.61830046689701
 21
545.00332162456596
 31
0.0
  0
LINE
  5
57F2
  8
AM_0
 10
133.21830046689681
 20
545.57567335914973
 30
0.0
 11
134.61830046689681
 21
545.57567335914962
 31
0.0
  0
LINE
  5
57F3
  8
AM_0
 10
138.61830046689701
 20
549.15724321955668
 30
0.0
 11
138.61830046689701
 21
550.27567335914955
 31
0.0
  0
LINE
  5
57F4
  8
AM_0
 10
138.61830046689701
 20
548.27567335914966
 30
0.0
 11
138.61830046689701
 21
548.37567335914935
 31
0.0
  0
LINE
  5
57F5
  8
AM_0
 10
138.61830046689701
 20
548.37567335914935
 30
0.0
 11
138.61830046689701
 21
549.15724321955668
 31
0.0
  0
LINE
  5
57F6
  8
AM_0
 10
138.61830046689701
 20
548.27567335914966
 30
0.0
 11
138.61830046689701
 21
548.37567335914935
 31
0.0
  0
LINE
  5
57F7
  8
AM_0
 10
138.61830046689701
 20
547.89191068281991
 30
0.0
 11
138.61830046689701
 21
549.15724321955668
 31
0.0
  0
LINE
  5
57F8
  8
AM_0
 10
138.61830046689701
 20
550.27567335914955
 30
0.0
 11
139.21830046689681
 21
550.27567335914955
 31
0.0
  0
LINE
  5
57F9
  8
AM_0
 10
135.91830046689719
 20
549.15724321955668
 30
0.0
 11
135.91830046689699
 21
545.72571202715642
 31
0.0
  0
LINE
  5
57FA
  8
AM_0
 10
135.75725623763961
 20
549.44393484789975
 30
0.0
 11
134.8247031881325
 21
548.90552509373322
 31
0.0
  0
LINE
  5
57FB
  8
AM_0
 10
136.19075205892759
 20
549.95109983969246
 30
0.0
 11
138.34584887486659
 21
549.95109983969246
 31
0.0
  0
LINE
  5
57FC
  8
AM_0
 10
136.19075205892759
 20
548.36338659942112
 30
0.0
 11
138.34584887486659
 21
548.36338659942078
 31
0.0
  0
LINE
  5
57FD
  8
AM_0
 10
134.61830046689701
 20
545.27567335914955
 30
0.0
 11
133.51830046689659
 21
545.27567335914955
 31
0.0
  0
LINE
  5
57FE
  8
AM_0
 10
133.51830046689659
 20
545.27567335914955
 30
0.0
 11
133.21830046689681
 21
545.57567335914973
 31
0.0
  0
LINE
  5
57FF
  8
AM_0
 10
133.21830046689681
 20
545.57567335914973
 30
0.0
 11
133.21830046689681
 21
547.97567335914982
 31
0.0
  0
LINE
  5
5800
  8
AM_0
 10
133.51830046689659
 20
548.27567335914966
 30
0.0
 11
134.61830046689701
 21
548.27567335914966
 31
0.0
  0
LINE
  5
5801
  8
AM_0
 10
133.21830046689681
 20
547.97567335914982
 30
0.0
 11
133.51830046689659
 21
548.27567335914966
 31
0.0
  0
LINE
  5
5802
  8
AM_0
 10
134.61830046689701
 20
547.9756733591496
 30
0.0
 11
133.21830046689681
 21
547.97567335914982
 31
0.0
  0
ARC
  5
5803
  8
AM_0
 10
137.32552365087039
 20
549.15724321955668
 30
0.0
 40
1.292776816026465
 50
0.0
 51
37.884441053702282
  0
ARC
  5
5804
  8
AM_0
 10
140.68073034295651
 20
546.77567335914955
 30
0.0
 40
4.762429876059711
 50
160.52575999458611
 51
191.54975304123039
  0
ARC
  5
5805
  8
AM_0
 10
137.21107728292361
 20
549.15724321955668
 30
0.0
 40
1.2927768160265549
 50
142.11555894629771
 51
217.88444105370229
  0
ARC
  5
5806
  8
AM_0
 10
133.8558705908373
 20
546.77567335914955
 30
0.0
 40
4.762429876059584
 50
12.912852201780369
 51
19.474240005413812
  0
ARC
  5
5807
  8
AM_0
 10
137.32552365087039
 20
549.15724321955668
 30
0.0
 40
1.2927768160265021
 50
322.11555894629771
 51
0.0
  0
ARC
  5
5808
  8
AM_0
 10
135.03110590936751
 20
548.54802509373326
 30
0.0
 40
0.4128054424705855
 50
120.0000000000005
 51
180.0
  0
ARC
  5
5809
  8
AM_0
 10
135.34445079516891
 20
550.15893484789956
 30
0.0
 40
0.8256108849411369
 50
299.99999999999972
 51
331.78257540582467
  0
LINE
  5
580A
  8
AM_0
 10
134.8333929994202
 20
544.64080455967974
 30
0.0
 11
134.8247031881325
 21
544.64582162456566
 31
0.0
  0
ARC
  5
580B
  8
AM_0
 10
135.03110590936751
 20
545.00332162456561
 30
0.0
 40
0.4128054424705855
 50
180.00000000000659
 51
240.00000000000759
  0
LINE
  5
580C
  8
AM_0
 10
148.28355402926221
 20
542.27567335914955
 30
0.0
 11
151.21830046689641
 21
542.27567335914944
 31
0.0
  0
LINE
  5
580D
  8
AM_0
 10
149.23772258105001
 20
543.77567335914966
 30
0.0
 11
151.21830046689669
 21
543.77567335914944
 31
0.0
  0
LINE
  5
580E
  8
AM_0
 10
140.539329610756
 20
548.27567335914966
 30
0.0
 11
151.21830046689669
 21
548.27567335914944
 31
0.0
  0
ARC
  5
580F
  8
AM_0
 10
140.5393296107556
 20
543.27567335914955
 30
0.0
 40
5.0
 50
90.0
 51
135.0
1001
GENIUS_GENODEF_13
1002
{
1000
HIER
1070
     0
1002
}
1002
{
1000
MANEDIT
1070
     0
1002
}
1002
{
1000
NOSEL
1070
     0
1002
}
1002
{
1000
BEHIND
1070
     0
1002
}
1002
{
1000
OTHER
1070
     0
1002
}
1002
{
1000
REACTOR
1002
}
1001
GENIUS_GENOBJ-N-FIL_13
1002
{
1000
OWNER
1000
GEN
1002
}
  0
LINE
  5
5810
  8
AM_0
 10
149.23772258105001
 20
548.27567335914966
 30
0.0
 11
149.23772258105001
 21
543.77567335914966
 31
0.0
  0
LINE
  5
5811
  8
AM_0
 10
135.71826179889069
 20
514.60021393704301
 30
0.0
 11
135.71826179889109
 21
535.4876482128592
 31
0.0
  0
LINE
  5
5812
  8
AM_0
 10
138.71826179889041
 20
514.60021393704301
 30
0.0
 11
138.71826179889109
 21
535.4876482128592
 31
0.0
  0
LINE
  5
5813
  8
AM_0
 10
133.46826179889069
 20
513.58484594265235
 30
0.0
 11
133.46826179889109
 21
541.20460554728515
 31
0.0
  0
ARC
  5
5814
  8
AM_0
 10
138.46826179889101
 20
541.20460554728481
 30
0.0
 40
5.0
 50
135.0
 51
180.0
1001
GENIUS_GENOBJ-N-FIL_13
1002
{
1000
OWNER
1000
GEN
1002
}
1001
GENIUS_GENODEF_13
1002
{
1000
HIER
1070
     0
1002
}
1002
{
1000
MANEDIT
1070
     0
1002
}
1002
{
1000
NOSEL
1070
     0
1002
}
1002
{
1000
BEHIND
1070
     0
1002
}
1002
{
1000
OTHER
1070
     0
1002
}
1002
{
1000
REACTOR
1002
}
  0
LINE
  5
5815
  8
AM_0
 10
140.96826179889069
 20
513.58484594265235
 30
0.0
 11
140.96826179889109
 21
537.74475501589802
 31
0.0
  0
ARC
  5
5816
  8
AM_0
 10
145.96826179889069
 20
529.32015498982491
 30
0.0
 40
5.0
 50
147.53905588485381
 51
180.0
1001
GENIUS_GENODEF_13
1002
{
1000
HIER
1070
     0
1002
}
1002
{
1000
MANEDIT
1070
     0
1002
}
1002
{
1000
NOSEL
1070
     0
1002
}
1002
{
1000
BEHIND
1070
     0
1002
}
1002
{
1000
OTHER
1070
     0
1002
}
1002
{
1000
REACTOR
1002
}
1001
GENIUS_GENOBJ-N-FIL_13
1002
{
1000
OWNER
1000
GEN
1002
}
  0
ARC
  5
5817
  8
AM_0
 10
145.96826179889081
 20
537.74475501589802
 30
0.0
 40
5.0
 50
135.7876277191055
 51
180.0
1001
GENIUS_GENOBJ-N-FIL_13
1002
{
1000
OWNER
1000
GEN
1002
}
1001
GENIUS_GENODEF_13
1002
{
1000
HIER
1070
     0
1002
}
1002
{
1000
MANEDIT
1070
     0
1002
}
1002
{
1000
NOSEL
1070
     0
1002
}
1002
{
1000
BEHIND
1070
     0
1002
}
1002
{
1000
OTHER
1070
     0
1002
}
1002
{
1000
REACTOR
1002
}
  0
LINE
  5
5818
  8
AM_0
 10
149.2377225810497
 20
543.77567335914966
 30
0.0
 11
141.74947428812371
 21
532.00377790279083
 31
0.0
  0
LINE
  5
5819
  8
AM_0
 10
149.23772258105001
 20
548.27567335914966
 30
0.0
 11
142.38446156303971
 21
541.23135448665914
 31
0.0
  0
LINE
  5
581A
  8
AM_0
 10
134.93272789295821
 20
544.74013945321792
 30
0.0
 11
137.00379570482301
 21
546.81120726508254
 31
0.0
  0
ARC
  5
581B
  8
AM_0
 10
137.21826179889101
 20
535.4876482128592
 30
0.0
 40
1.5
 50
0.0
 51
180.0
  0
ARC
  5
581C
  8
AM_0
 10
182.66909865375169
 20
437.27567335915001
 30
0.0
 40
20.0
 50
209.07393874564249
 51
249.9723572882591
1001
GENIUS_GENODEF_13
1002
{
1000
HIER
1070
     0
1002
}
1002
{
1000
MANEDIT
1070
     0
1002
}
1002
{
1000
NOSEL
1070
     0
1002
}
1002
{
1000
BEHIND
1070
     0
1002
}
1002
{
1000
OTHER
1070
     0
1002
}
1002
{
1000
REACTOR
1002
}
1001
GENIUS_GENOBJ-N-FIL_13
1002
{
1000
OWNER
1000
GEN
1002
}
  0
ARC
  5
581D
  8
AM_0
 10
183.2572748823973
 20
438.27567335915001
 30
0.0
 40
15.0
 50
209.07393874564249
 51
240.27464366407139
1001
GENIUS_GENODEF_13
1002
{
1000
HIER
1070
     0
1002
}
1002
{
1000
MANEDIT
1070
     0
1002
}
1002
{
1000
NOSEL
1070
     0
1002
}
1002
{
1000
BEHIND
1070
     0
1002
}
1002
{
1000
OTHER
1070
     0
1002
}
1002
{
1000
REACTOR
1002
}
1001
GENIUS_GENOBJ-N-FIL_13
1002
{
1000
OWNER
1000
GEN
1002
}
  0
LINE
  5
581E
  8
AM_0
 10
165.18923176233679
 20
427.55691554457218
 30
0.0
 11
144.21770637579891
 21
465.27567335915109
 31
0.0
  0
LINE
  5
581F
  8
AM_0
 10
170.14737471383609
 20
430.98660499821682
 30
0.0
 11
152.1947416985135
 21
463.27567335915001
 31
0.0
  0
LINE
  5
58B2
  8
AM_0
 10
404.21830046689649
 20
505.27567335914978
 30
0.0
 11
404.21830046689649
 21
511.27567335914961
 31
0.0
  0
LINE
  5
58B3
  8
AM_0
 10
402.218280466897
 20
498.77570335914959
 30
0.0
 11
426.21830046689649
 21
498.77570335914959
 31
0.0
  0
LINE
  5
58B4
  8
AM_0
 10
402.2182804668966
 20
517.7757033591497
 30
0.0
 11
426.21830046689649
 21
517.77570335914982
 31
0.0
  0
LINE
  5
58B5
  8
AM_0
 10
426.21830046689649
 20
498.77570335914959
 30
0.0
 11
426.21830046689649
 21
517.77570335914982
 31
0.0
  0
LINE
  5
58B6
  8
AM_0
 10
404.21830046689649
 20
505.27567335914978
 30
0.0
 11
426.21830046689649
 21
505.27567335914978
 31
0.0
  0
LINE
  5
58B7
  8
AM_0
 10
404.21830046689649
 20
511.27567335914961
 30
0.0
 11
426.21830046689649
 21
511.27567335914961
 31
0.0
  0
ARC
  5
58B8
  8
AM_0
 10
404.21830046689649
 20
508.27567335914972
 30
0.0
 40
3.0
 50
89.986013999999244
 51
131.8108273668521
  0
ARC
  5
58B9
  8
AM_0
 10
404.21830046689649
 20
508.27567335914972
 30
0.0
 40
3.0
 50
228.1891726331479
 51
270.01398999999998
  0
LINE
  5
58BA
  8
AM_0
 10
398.2182804668966
 20
532.77570335914982
 30
0.0
 11
402.21828046689649
 21
528.77570335915004
 31
0.0
  0
LINE
  5
58BB
  8
AM_0
 10
395.7182804668966
 20
532.77570335914982
 30
0.0
 11
398.2182804668966
 21
532.77570335914982
 31
0.0
  0
LINE
  5
58BC
  8
AM_0
 10
402.21828046689649
 20
528.77570335915004
 30
0.0
 11
402.21828046689711
 21
487.7757033591497
 31
0.0
  0
LINE
  5
58BD
  8
AM_0
 10
398.2182804668966
 20
483.7757033591497
 30
0.0
 11
402.21828046689649
 21
487.7757033591497
 31
0.0
  0
LINE
  5
58BE
  8
AM_0
 10
395.7182804668966
 20
483.7757033591497
 30
0.0
 11
398.2182804668966
 21
483.7757033591497
 31
0.0
  0
LINE
  5
58BF
  8
AM_0
 10
395.2182804668966
 20
532.27570335914982
 30
0.0
 11
395.7182804668966
 21
532.77570335914982
 31
0.0
1001
GENIUS_GENFIL_13
1070
     0
1040
0.5
1040
0.5
1040
20.0
1040
0.0
1002
{
1002
}
1001
GENIUS_GENOBJ-N-CHA_13
1002
{
1000
OWNER
1000
GEN
1002
}
1001
GENIUS_GENODEF_13
1002
{
1000
HIER
1070
     0
1002
}
1002
{
1000
MANEDIT
1070
     0
1002
}
1002
{
1000
NOSEL
1070
     0
1002
}
1002
{
1000
BEHIND
1070
     0
1002
}
1002
{
1000
OTHER
1070
     0
1002
}
1002
{
1000
REACTOR
1002
}
  0
LINE
  5
58C0
  8
AM_0
 10
395.2182804668966
 20
484.2757033591497
 30
0.0
 11
395.7182804668966
 21
483.7757033591497
 31
0.0
1001
GENIUS_GENFIL_13
1070
     0
1040
0.5
1040
0.5
1040
20.0
1040
0.0
1002
{
1002
}
1001
GENIUS_GENODEF_13
1002
{
1000
HIER
1070
     0
1002
}
1002
{
1000
MANEDIT
1070
     0
1002
}
1002
{
1000
NOSEL
1070
     0
1002
}
1002
{
1000
BEHIND
1070
     0
1002
}
1002
{
1000
OTHER
1070
     0
1002
}
1002
{
1000
REACTOR
1002
}
1001
GENIUS_GENOBJ-N-CHA_13
1002
{
1000
OWNER
1000
GEN
1002
}
  0
LINE
  5
58C1
  8
AM_0
 10
398.2182804668966
 20
532.77570335914982
 30
0.0
 11
398.2182804668966
 21
483.7757033591497
 31
0.0
  0
LINE
  5
58C2
  8
AM_0
 10
336.21830046689672
 20
448.27567335914972
 30
0.0
 11
336.21830046689672
 21
568.27570335915016
 31
0.0
  0
LINE
  5
58C3
  8
AM_0
 10
336.21830046689672
 20
563.80203335914985
 30
0.0
 11
368.2183304668967
 21
563.80203335914985
 31
0.0
  0
LINE
  5
58C4
  8
AM_0
 10
336.21830046689672
 20
452.74936335914992
 30
0.0
 11
368.2183304668967
 21
452.74936335914992
 31
0.0
  0
LINE
  5
58C5
  8
AM_0
 10
330.21830046689649
 20
450.38113335914983
 30
0.0
 11
330.21830046689649
 21
566.17026335915
 31
0.0
  0
LINE
  5
58C6
  8
AM_0
 10
368.2183304668967
 20
447.43771335914971
 30
0.0
 11
332.16599046689657
 21
448.3818133591497
 31
0.0
  0
LINE
  5
58C7
  8
AM_0
 10
332.16596046689648
 20
568.16959335914964
 30
0.0
 11
368.2183304668967
 21
569.11365335915002
 31
0.0
  0
LINE
  5
58C8
  8
AM_0
 10
312.21833046689648
 20
564.77570335915016
 30
0.0
 11
322.21266046689658
 21
565.03738335914989
 31
0.0
  0
LINE
  5
58C9
  8
AM_0
 10
321.21830046689649
 20
556.45999335914973
 30
0.0
 11
321.21830046689649
 21
563.30862335914946
 31
0.0
  0
LINE
  5
58CA
  8
AM_0
 10
323.16596046689659
 20
565.30795335915002
 30
0.0
 11
328.84699046689673
 21
565.45673335915001
 31
0.0
  0
LINE
  5
58CB
  8
AM_0
 10
312.21830046689649
 20
554.27600335914974
 30
0.0
 11
328.2706704668966
 21
554.6963233591498
 31
0.0
  0
LINE
  5
58CC
  8
AM_0
 10
323.16596046689659
 20
451.24344335914958
 30
0.0
 11
328.84696046689658
 21
451.09467335915002
 31
0.0
  0
LINE
  5
58CD
  8
AM_0
 10
312.21833046689648
 20
451.77570335914982
 30
0.0
 11
322.21266046689658
 21
451.51398335914962
 31
0.0
  0
LINE
  5
58CE
  8
AM_0
 10
321.21830046689649
 20
460.09140335914992
 30
0.0
 11
321.21830046689649
 21
453.24274335914959
 31
0.0
  0
LINE
  5
58CF
  8
AM_0
 10
312.21833046689648
 20
462.27539335914992
 30
0.0
 11
328.2706704668966
 21
461.85504335914959
 31
0.0
  0
LINE
  5
58D0
  8
AM_0
 10
312.21830046689649
 20
476.33572335914982
 30
0.0
 11
328.21830046689649
 21
476.33572335914982
 31
0.0
  0
LINE
  5
58D1
  8
AM_0
 10
312.21830046689649
 20
540.21561335914998
 30
0.0
 11
328.21830046689649
 21
540.21561335914998
 31
0.0
  0
LINE
  5
58D2
  8
AM_0
 10
368.2183304668967
 20
572.50681335914987
 30
0.0
 11
368.2183304668967
 21
444.06207335914991
 31
0.0
  0
LINE
  5
58D3
  8
AM_0
 10
383.1485104668966
 20
582.99390335914961
 30
0.0
 11
391.21830046689649
 21
583.27570335915016
 31
0.0
  0
LINE
  5
58D4
  8
AM_0
 10
395.2183304668967
 20
578.27570335915016
 30
0.0
 11
395.2183304668967
 21
438.27567335914978
 31
0.0
  0
LINE
  5
58D5
  8
AM_0
 10
391.21830046689649
 20
583.27567335914989
 30
0.0
 11
391.21830046689649
 21
433.27567335914972
 31
0.0
  0
LINE
  5
58D6
  8
AM_0
 10
391.21830046689649
 20
578.27570335915016
 30
0.0
 11
395.2183304668967
 21
578.27570335915016
 31
0.0
  0
LINE
  5
58D7
  8
AM_0
 10
386.21833046689648
 20
567.77570335914982
 30
0.0
 11
386.21833046689648
 21
448.77567335914961
 31
0.0
  0
LINE
  5
58D8
  8
AM_0
 10
373.04383046689651
 20
577.50378335914991
 30
0.0
 11
378.32301046689662
 21
577.68814335914988
 31
0.0
  0
LINE
  5
58D9
  8
AM_0
 10
381.21830046689649
 20
580.99509335914979
 30
0.0
 11
381.21830046689649
 21
548.71606335914964
 31
0.0
  0
LINE
  5
58DA
  8
AM_0
 10
381.21830046689649
 20
435.5562733591496
 30
0.0
 11
381.21830046689649
 21
467.8353033591498
 31
0.0
  0
LINE
  5
58DB
  8
AM_0
 10
373.04383046689651
 20
439.04758335914971
 30
0.0
 11
378.32304046689649
 21
438.86325335914972
 31
0.0
  0
LINE
  5
58DC
  8
AM_0
 10
391.21830046689649
 20
438.27567335914978
 30
0.0
 11
395.2183304668967
 21
438.27567335914978
 31
0.0
  0
LINE
  5
58DD
  8
AM_0
 10
383.14854046689669
 20
433.55747335914981
 30
0.0
 11
391.21830046689649
 21
433.27567335914972
 31
0.0
  0
ARC
  5
58DE
  8
AM_0
 10
332.21830046689672
 20
566.17026335915
 30
0.0
 40
2.0
 50
91.500001000001546
 51
180.00001000000091
  0
ARC
  5
58DF
  8
AM_0
 10
332.21830046689672
 20
450.38113335914983
 30
0.0
 40
2.0
 50
180.00001000000091
 51
268.5000000000004
  0
ARC
  5
58E0
  8
AM_0
 10
328.80772046689651
 20
566.95621335914996
 30
0.0
 40
1.5
 50
271.49999999999949
 51
347.02334999999613
  0
ARC
  5
58E1
  8
AM_0
 10
323.21830046689672
 20
563.30862335914946
 30
0.0
 40
2.0
 50
91.500001000001546
 51
180.00001000000091
  0
ARC
  5
58E2
  8
AM_0
 10
328.21830046689649
 20
556.69565335915001
 30
0.0
 40
2.0
 50
271.49999999999949
 51
0.0
  0
ARC
  5
58E3
  8
AM_0
 10
319.21830046689661
 20
556.45999335914973
 30
0.0
 40
2.0
 50
271.49999999999949
 51
0.0
  0
ARC
  5
58E4
  8
AM_0
 10
319.21830046689661
 20
460.09140335914992
 30
0.0
 40
2.0
 50
0.0
 51
88.499997000000747
  0
ARC
  5
58E5
  8
AM_0
 10
323.21830046689672
 20
453.24274335914959
 30
0.0
 40
2.0
 50
180.00001000000091
 51
268.5000000000004
  0
ARC
  5
58E6
  8
AM_0
 10
328.80772046689651
 20
449.59518335914993
 30
0.0
 40
1.5
 50
12.97665300000153
 51
88.499997000000747
  0
ARC
  5
58E7
  8
AM_0
 10
328.21830046689649
 20
459.85574335914993
 30
0.0
 40
2.0
 50
0.0
 51
88.499997000000747
  0
ARC
  5
58E8
  8
AM_0
 10
328.21830046689649
 20
474.3357233591496
 30
0.0
 40
2.0
 50
0.0
 51
90.000003000000945
  0
ARC
  5
58E9
  8
AM_0
 10
328.21830046689649
 20
542.21561335914976
 30
0.0
 40
2.0
 50
270.0
 51
0.0
  0
ARC
  5
58EA
  8
AM_0
 10
383.2183304668967
 20
548.71606335914964
 30
0.0
 40
2.0
 50
179.999989999999
 51
271.51463999999908
  0
ARC
  5
58EB
  8
AM_0
 10
378.21830046689649
 20
580.68628335915002
 30
0.0
 40
3.0
 50
272.0000000000004
 51
0.0
  0
ARC
  5
58EC
  8
AM_0
 10
373.21830046689649
 20
572.50681335914987
 30
0.0
 40
5.0
 50
91.999998000000545
 51
180.00001000000091
  0
ARC
  5
58ED
  8
AM_0
 10
383.2183304668967
 20
567.77570335914982
 30
0.0
 40
3.0
 50
0.0
 51
90.000003000000945
  0
ARC
  5
58EE
  8
AM_0
 10
383.2183304668967
 20
580.99509335914979
 30
0.0
 40
2.0
 50
91.999998000000545
 51
180.00001000000091
  0
ARC
  5
58EF
  8
AM_0
 10
383.2183304668967
 20
435.5562733591496
 30
0.0
 40
2.0
 50
179.999989999999
 51
268.00000999999861
  0
ARC
  5
58F0
  8
AM_0
 10
383.2183304668967
 20
448.77567335914961
 30
0.0
 40
3.0
 50
270.0
 51
0.0
  0
ARC
  5
58F1
  8
AM_0
 10
373.21830046689649
 20
444.04456335914972
 30
0.0
 40
5.0
 50
179.999989999999
 51
268.00000999999861
  0
ARC
  5
58F2
  8
AM_0
 10
378.21830046689649
 20
435.86508335914971
 30
0.0
 40
3.0
 50
0.0
 51
87.999999999999659
  0
ARC
  5
58F3
  8
AM_0
 10
383.2183304668967
 20
467.8353033591498
 30
0.0
 40
2.0
 50
88.485353000001012
 51
180.00001000000091
  0
TEXT
  5
5C90
  8
AM_0
 10
504.580164421186
 20
520.81548206308673
 30
0.0
 40
10.0
  1
VX01-005BFW~VX01-050BFW
  0
ENDSEC
  0
EOF
