  0
SECTION
  2
HEADER
  9
$ACADVER
  1
AC1009
  9
$INSBASE
 10
0.0
 20
0.0
 30
0.0
  9
$EXTMIN
 10
90.486421770283869
 20
137.16905678193191
 30
-250.41841640509659
  9
$EXTMAX
 10
725.18067352972037
 20
592.39529907594101
 30
8206587.2096418813
  9
$LIMMIN
 10
0.0
 20
0.0
  9
$LIMMAX
 10
853.5
 20
555.00000000000011
  9
$ORTHOMODE
 70
     0
  9
$REGENMODE
 70
     1
  9
$FILLMODE
 70
     1
  9
$QTEXTMODE
 70
     0
  9
$MIRRTEXT
 70
     1
  9
$DRAGMODE
 70
     2
  9
$LTSCALE
 40
3.0
  9
$OSMODE
 70
   551
  9
$ATTMODE
 70
     1
  9
$TEXTSIZE
 40
2.5
  9
$TRACEWID
 40
1.0
  9
$TEXTSTYLE
  7
STANDARD
  9
$CLAYER
  8
AM_0
  9
$CELTYPE
  6
BYLAYER
  9
$CECOLOR
 62
   256
  9
$DIMSCALE
 40
3.0
  9
$DIMASZ
 40
2.5
  9
$DIMEXO
 40
1.0
  9
$DIMDLI
 40
8.0
  9
$DIMRND
 40
0.0
  9
$DIMDLE
 40
0.0
  9
$DIMEXE
 40
0.6
  9
$DIMTP
 40
0.1
  9
$DIMTM
 40
0.1
  9
$DIMTXT
 40
2.5
  9
$DIMCEN
 40
0.0
  9
$DIMTSZ
 40
0.0
  9
$DIMTOL
 70
     0
  9
$DIMLIM
 70
     0
  9
$DIMTIH
 70
     0
  9
$DIMTOH
 70
     0
  9
$DIMSE1
 70
     0
  9
$DIMSE2
 70
     0
  9
$DIMTAD
 70
     1
  9
$DIMZIN
 70
     8
  9
$DIMBLK
  1

  9
$DIMASO
 70
     1
  9
$DIMSHO
 70
     1
  9
$DIMPOST
  1

  9
$DIMAPOST
  1
"
  9
$DIMALT
 70
     0
  9
$DIMALTD
 70
     2
  9
$DIMALTF
 40
0.0393701
  9
$DIMLFAC
 40
1.0
  9
$DIMTOFL
 70
     1
  9
$DIMTVP
 40
0.0
  9
$DIMTIX
 70
     0
  9
$DIMSOXD
 70
     0
  9
$DIMSAH
 70
     0
  9
$DIMBLK1
  1

  9
$DIMBLK2
  1

  9
$DIMSTYLE
  2
AM_ISO
  9
$DIMCLRD
 70
   256
  9
$DIMCLRE
 70
   256
  9
$DIMCLRT
 70
     4
  9
$DIMTFAC
 40
0.71
  9
$DIMGAP
 40
0.8
  9
$LUNITS
 70
     2
  9
$LUPREC
 70
     2
  9
$SKETCHINC
 40
1.0
  9
$FILLETRAD
 40
15.0
  9
$AUNITS
 70
     0
  9
$AUPREC
 70
     0
  9
$MENU
  1
.
  9
$ELEVATION
 40
0.0
  9
$PELEVATION
 40
0.0
  9
$THICKNESS
 40
0.0
  9
$LIMCHECK
 70
     0
  9
$BLIPMODE
 70
     0
  9
$CHAMFERA
 40
6.0
  9
$CHAMFERB
 40
3.0
  9
$SKPOLY
 70
     0
  9
$TDCREATE
 40
2452065.6056192131
  9
$TDUPDATE
 40
2458541.6132593751
  9
$TDINDWG
 40
0.3659678704
  9
$TDUSRTIMER
 40
0.3659676736
  9
$USRTIMER
 70
     1
  9
$ANGBASE
 50
0.0
  9
$ANGDIR
 70
     0
  9
$PDMODE
 70
     0
  9
$PDSIZE
 40
0.0
  9
$PLINEWID
 40
0.0
  9
$COORDS
 70
     1
  9
$SPLFRAME
 70
     0
  9
$SPLINETYPE
 70
     6
  9
$SPLINESEGS
 70
     8
  9
$ATTDIA
 70
     1
  9
$ATTREQ
 70
     1
  9
$HANDLING
 70
     1
  9
$HANDSEED
  5
6992
  9
$SURFTAB1
 70
     6
  9
$SURFTAB2
 70
     6
  9
$SURFTYPE
 70
     6
  9
$SURFU
 70
     6
  9
$SURFV
 70
     6
  9
$UCSNAME
  2

  9
$UCSORG
 10
0.0
 20
0.0
 30
0.0
  9
$UCSXDIR
 10
1.0
 20
0.0
 30
0.0
  9
$UCSYDIR
 10
0.0
 20
1.0
 30
0.0
  9
$PUCSNAME
  2

  9
$PUCSORG
 10
0.0
 20
0.0
 30
0.0
  9
$PUCSXDIR
 10
1.0
 20
0.0
 30
0.0
  9
$PUCSYDIR
 10
0.0
 20
1.0
 30
0.0
  9
$USERI1
 70
     0
  9
$USERI2
 70
     0
  9
$USERI3
 70
     0
  9
$USERI4
 70
     0
  9
$USERI5
 70
     0
  9
$USERR1
 40
0.0
  9
$USERR2
 40
0.0
  9
$USERR3
 40
0.0
  9
$USERR4
 40
0.0
  9
$USERR5
 40
0.0
  9
$WORLDVIEW
 70
     1
  9
$SHADEDGE
 70
     3
  9
$SHADEDIF
 70
    70
  9
$TILEMODE
 70
     1
  9
$MAXACTVP
 70
    64
  9
$PLIMCHECK
 70
     0
  9
$PEXTMIN
 10
1.0000000000000000E+020
 20
1.0000000000000000E+020
 30
1.0000000000000000E+020
  9
$PEXTMAX
 10
-1.0000000000000000E+020
 20
-1.0000000000000000E+020
 30
-1.0000000000000000E+020
  9
$PLIMMIN
 10
0.0
 20
0.0
  9
$PLIMMAX
 10
420.0
 20
297.0
  9
$UNITMODE
 70
     0
  9
$VISRETAIN
 70
     1
  9
$PLINEGEN
 70
     0
  9
$PSLTSCALE
 70
     1
  0
ENDSEC
  0
SECTION
  2
TABLES
  0
TABLE
  2
VPORT
 70
     1
  0
VPORT
  2
*ACTIVE
 70
     0
 10
0.0
 20
0.0
 11
1.0
 21
1.0
 12
407.83354765000212
 22
364.78217792893651
 13
0.0
 23
0.0
 14
7.5
 24
7.5
 15
30.0
 25
30.0
 16
0.0
 26
0.0
 36
1.0
 17
0.0
 27
0.0
 37
0.0
 40
458.3513652388192
 41
1.7571592210767459
 42
50.0
 43
0.0
 44
0.0
 50
0.0
 51
0.0
 71
     0
 72
   100
 73
     1
 74
     3
 75
     0
 76
     0
 77
     0
 78
     0
  0
ENDTAB
  0
TABLE
  2
LTYPE
 70
    26
  0
LTYPE
  2
CONTINUOUS
 70
     0
  3
Solid line
 72
    65
 73
     0
 40
0.0
  0
LTYPE
  2
AM_ISO02W050
 70
     0
  3
__ __ __ __ __ __ __ __ __ __ __ __ __ __ __
 72
    65
 73
     2
 40
7.5
 49
6.0
 49
-1.5
  0
LTYPE
  2
AM_ISO08W050
 70
     0
  3
____ . ____ . ____ . ____ . ____ . ____ . ____
 72
    65
 73
     4
 40
18.0
 49
12.0
 49
-1.5
 49
3.0
 49
-1.5
  0
LTYPE
  2
AM_ISO09W050
 70
     0
  3
_____ . . _____ . . _____ . . ____ .. ____
 72
    65
 73
     6
 40
22.5
 49
12.0
 49
-1.5
 49
3.0
 49
-1.5
 49
3.0
 49
-1.5
  0
LTYPE
  2
AMCONSTR
 70
     0
  3
_______________________
 72
    65
 73
     2
 40
9999.0
 49
9999.0
 49
0.0
  0
LTYPE
  2
AM_ISO08W050X2
 70
     0
  3
__ . __ . __ . __ . __ . __
 72
    65
 73
     4
 40
9.0
 49
6.0
 49
-0.75
 49
1.5
 49
-0.75
  0
LTYPE
  2
AM_ISO02W050X2
 70
     0
  3
 _ _ _ _ _ _ _ _ _ _ _ _
 72
    65
 73
     2
 40
3.75
 49
3.0
 49
-0.75
  0
LTYPE
  2
AMZIGZAG
 70
     0
  3
/\/-/\/-/\/-/\/-/\/-/\/
 72
    65
 73
     2
 40
11.0001
 49
0.0001
 49
-11.0
  0
LTYPE
  2
ACISOWELD
 70
     0
  3
_ _ _ _ _
 72
    65
 73
     2
 40
2.0
 49
2.0
 49
-1.0
  0
LTYPE
  2
ACISOTGB
 70
     0
  3
__ . . __ . .
 72
    65
 73
     6
 40
9.0
 49
4.0
 49
-1.0
 49
1.0
 49
-1.0
 49
1.0
 49
-1.0
  0
LTYPE
  2
ACISOTGL
 70
     0
  3
_ _ _ _ _
 72
    65
 73
     2
 40
3.0
 49
2.0
 49
-1.0
  0
LTYPE
  2
CENTER
 70
     0
  3
__ . __
 72
    65
 73
     4
 40
7.0
 49
4.0
 49
-1.0
 49
1.0
 49
-1.0
  0
LTYPE
  2
HIDDEN
 70
     0
  3
Hidden __ __ __ __ __ __ __ __ __ __ __ __ __ _
 72
    65
 73
     2
 40
9.5249999999999986
 49
6.3499999999999979
 49
-3.174999999999998
  0
LTYPE
  2
PHANTOM2
 70
     0
  3
Phantom (.5x) ___ _ _ ___ _ _ ___ _ _ ___ _ _
 72
    65
 73
     6
 40
31.75
 49
15.875
 49
-3.174999999999998
 49
3.174999999999998
 49
-3.174999999999998
 49
3.174999999999998
 49
-3.174999999999998
  0
LTYPE
  2
ACANSTGBM
 70
     0
  3
__ . . __ . .
 72
    65
 73
     6
 40
9.0
 49
4.0
 49
-1.0
 49
1.0
 49
-1.0
 49
1.0
 49
-1.0
  0
LTYPE
  2
ACANSTGLM
 70
     0
  3
_ _ _ _ _
 72
    65
 73
     2
 40
3.0
 49
2.0
 49
-1.0
  0
LTYPE
  2
GEN7A
 70
     0
  3
__ . __ . __
 72
    65
 73
     4
 40
7.375
 49
4.75
 49
-0.875
 49
0.875
 49
-0.875
  0
LTYPE
  2
ACJISTGB
 70
     0
  3
__ . . __ . .
 72
    65
 73
     6
 40
9.0
 49
4.0
 49
-1.0
 49
1.0
 49
-1.0
 49
1.0
 49
-1.0
  0
LTYPE
  2
ACJISTGL
 70
     0
  3
_ _ _ _ _
 72
    65
 73
     2
 40
3.0
 49
2.0
 49
-1.0
  0
LTYPE
  2
GEN7
 70
     0
  3
____ . ____ . ____ . ____ . ____ . ____ . ____
 72
    65
 73
     4
 40
14.25
 49
9.75
 49
-1.5
 49
1.5
 49
-1.5
  0
LTYPE
  2
CENTER2
 70
     0
  3
Center (.5x) ___ _ ___ _ ___ _ ___ _ ___ _ ___
 72
    65
 73
     4
 40
1.125
 49
0.75
 49
-0.125
 49
0.125
 49
-0.125
  0
LTYPE
  2
HIDDEN2
 70
     0
  3
Hidden (.5x) _ _ _ _ _ _ _ _ _ _ _ _ _ _ _ _ _
 72
    65
 73
     2
 40
0.1875
 49
0.125
 49
-0.0625
  0
LTYPE
  2
AMZIGZAG2
 70
     0
  3
/\/-/\/-/\/-/\/-/\/-/\/
 72
    65
 73
     2
 40
0.4401
 49
0.0001
 49
-0.4400000000000001
  0
LTYPE
  2
ACANSTGB
 70
     0
  3
__ . . __ . .
 72
    65
 73
     6
 40
0.35433070866
 49
0.15748031496
 49
-0.03937007874
 49
0.03937007874
 49
-0.03937007874
 49
0.03937007874
 49
-0.03937007874
  0
LTYPE
  2
ACANSTGL
 70
     0
  3
_ _ _ _ _
 72
    65
 73
     2
 40
0.11811023622
 49
0.07874015748
 49
-0.03937007874
  0
ENDTAB
  0
TABLE
  2
LAYER
 70
     6
  0
LAYER
  2
0
 70
     0
 62
     7
  6
CONTINUOUS
  0
LAYER
  2
AM_0
 70
     0
 62
     7
  6
CONTINUOUS
  0
LAYER
  2
DEFPOINTS
 70
     0
 62
     7
  6
CONTINUOUS
  0
LAYER
  2
ﾁｭｳｼﾝｾﾝ1
 70
     0
 62
     1
  6
GEN7A
  0
LAYER
  2
AM_0N
 70
     0
 62
     7
  6
CONTINUOUS
  0
LAYER
  2
ﾁｭｳｼﾝｾﾝ
 70
     0
 62
     1
  6
GEN7
  0
ENDTAB
  0
TABLE
  2
STYLE
 70
    10
  0
STYLE
  2
STANDARD
 70
     0
 40
0.0
 41
0.8299999999999999
 50
0.0
 71
     0
 42
2.5
  3
txt.shx
  4
bigfont.shx
  0
STYLE
  2
ANNOTATIVE
 70
     0
 40
0.0
 41
1.0
 50
0.0
 71
     0
 42
0.2
  3
txt
  4

  0
STYLE
  2

 70
     1
 40
0.0
 41
1.0
 50
0.0
 71
     0
 42
2.5
  3
ltypeshp.shx
  4

  0
STYLE
  2
ACISOTS
 70
     0
 40
1.0
 41
1.0
 50
0.0
 71
     0
 42
2.5
  3
isocp.shx
  4
extfont.shx
  0
STYLE
  2
ACISOGDT
 70
     0
 40
0.0
 41
1.0
 50
0.0
 71
     0
 42
2.5
  3
amgdt.shx
  4

  0
STYLE
  2
ACANSTS
 70
     0
 40
1.0
 41
1.0
 50
0.0
 71
     0
 42
2.5
  3
romans.shx
  4
bigfont.shx
  0
STYLE
  2
ACANSGDT
 70
     0
 40
0.0
 41
1.0
 50
0.0
 71
     0
 42
2.5
  3
amgdt.shx
  4

  0
STYLE
  2
ACJISTS
 70
     0
 40
1.0
 41
1.0
 50
0.0
 71
     0
 42
2.5
  3
isocp.shx
  4
bigfont.shx
  0
STYLE
  2
ACJISGDT
 70
     0
 40
0.0
 41
1.0
 50
0.0
 71
     0
 42
2.5
  3
amgdt.shx
  4

  0
STYLE
  2

 70
     1
 40
0.0
 41
1.0
 50
0.0
 71
     0
 42
2.5
  3
genltshp.shx
  4

  0
ENDTAB
  0
TABLE
  2
VIEW
 70
     6
  0
VIEW
  2
AM_VIEW1
 70
     0
 40
277.50000000000011
 10
249.64779005524869
 20
416.25
 41
499.29558011049721
 11
0.0
 21
0.0
 31
1.0
 12
0.0
 22
0.0
 32
0.0
 42
50.0
 43
0.0
 44
0.0
 50
0.0
 71
     0
  0
VIEW
  2
AM_VIEW2
 70
     0
 40
277.50000000000011
 10
603.85220994475117
 20
416.25
 41
499.29558011049721
 11
0.0
 21
0.0
 31
1.0
 12
0.0
 22
0.0
 32
0.0
 42
50.0
 43
0.0
 44
0.0
 50
0.0
 71
     0
  0
VIEW
  2
AM_VIEW3
 70
     0
 40
277.50000000000011
 10
249.64779005524869
 20
138.75
 41
499.29558011049721
 11
0.0
 21
0.0
 31
1.0
 12
0.0
 22
0.0
 32
0.0
 42
50.0
 43
0.0
 44
0.0
 50
0.0
 71
     0
  0
VIEW
  2
AM_VIEW4
 70
     0
 40
277.50000000000011
 10
603.85220994475117
 20
138.75
 41
499.29558011049721
 11
0.0
 21
0.0
 31
1.0
 12
0.0
 22
0.0
 32
0.0
 42
50.0
 43
0.0
 44
0.0
 50
0.0
 71
     0
  0
VIEW
  2
AM_VIEW5
 70
     0
 40
277.50000000000011
 10
426.75
 20
277.50000000000011
 41
499.2955801104971
 11
0.0
 21
0.0
 31
1.0
 12
0.0
 22
0.0
 32
0.0
 42
50.0
 43
0.0
 44
0.0
 50
0.0
 71
     0
  0
VIEW
  2
AM_VIEW6
 70
     0
 40
554.99445000000014
 10
426.75
 20
277.5
 41
998.5811743093924
 11
0.0
 21
0.0
 31
1.0
 12
0.0
 22
0.0
 32
0.0
 42
50.0
 43
0.0
 44
0.0
 50
0.0
 71
     0
  0
ENDTAB
  0
TABLE
  2
UCS
 70
     0
  0
ENDTAB
  0
TABLE
  2
APPID
 70
   101
  0
APPID
  2
ACAD
 70
     0
  0
APPID
  2
ACADANNOTATIVE
 70
     0
  0
APPID
  2
MCAD_NO_VIS
 70
     0
  0
APPID
  2
ACAD_TEMP_GRAPHIC
 70
     0
  0
APPID
  2
ACATTRIBSERVICES
 70
     0
  0
APPID
  2
GENIUS_GENREC_14
 70
     0
  0
APPID
  2
GENIUS_GENOBJ-N-REC_13
 70
     0
  0
APPID
  2
GENIUS_GENODEF_13
 70
     0
  0
APPID
  2
GENIUS_GENOLIS_13
 70
     0
  0
APPID
  2
GENIUS_GENOBJ-N-TIT_13
 70
     0
  0
APPID
  2
GENIUS_GENOENT_13
 70
     0
  0
APPID
  2
GENIUS_GENTITLE_13
 70
     0
  0
APPID
  2
GENIUS_GENOREF_13
 70
     0
  0
APPID
  2
GENIUS_GENSCREG_15
 70
     0
  0
APPID
  2
GENIUS_GENOBJ-N-SDF_13
 70
     0
  0
APPID
  2
GENIUS_GENFIL_13
 70
     0
  0
APPID
  2
GENIUS_GENOBJ-N-CHA_13
 70
     0
  0
APPID
  2
GENIUS_GENDTOL_13
 70
     0
  0
APPID
  2
GENIUS_GENOBJ-N-FIL_13
 70
     0
  0
APPID
  2
AD_DRAW
 70
     0
  0
APPID
  2
DESIGNERASSEMBLIES
 70
     0
  0
APPID
  2
ASURF_PCURVE_APPNAME
 70
     0
  0
APPID
  2
GENIUS_GE3SECT_13
 70
     0
  0
APPID
  2
GENIUS_GENCFG_13
 70
     0
  0
APPID
  2
GENIUS_GE3CFG0_13
 70
     0
  0
APPID
  2
GENIUS_GENCFG0_13
 70
     0
  0
APPID
  2
GENIUS_GENCFG1_13
 70
     0
  0
APPID
  2
GENIUS_GENCFG2_13
 70
     0
  0
APPID
  2
GENIUS_GENCFG3_13
 70
     0
  0
APPID
  2
GENIUS_GENCFG4_13
 70
     0
  0
APPID
  2
GENIUS_GEVCFG0_13
 70
     0
  0
APPID
  2
GENIUS_GENHINW_13
 70
     0
  0
APPID
  2
GENIUS_FIRSTVISTXT_14
 70
     0
  0
APPID
  2
GENIUS_GENOBJ-N-LEADER_13
 70
     0
  0
APPID
  2
GEV_VCCNULL_SWITCH_OFF
 70
     0
  0
APPID
  2
GENIUS_GEFCFG0_13
 70
     0
  0
APPID
  2
GENIUS_GENZVEED_13
 70
     0
  0
APPID
  2
GENIUS_GENSCREG_13
 70
     0
  0
APPID
  2
GENIUS_DUMCFG0_13
 70
     0
  0
APPID
  2
GEVID936201362
 70
     0
  0
APPID
  2
GEVDC
 70
     0
  0
APPID
  2
GEVCON
 70
     0
  0
APPID
  2
VCC
 70
     0
  0
APPID
  2
GEVPT
 70
     0
  0
APPID
  2
GEVIT
 70
     0
  0
APPID
  2
GENBH
 70
     0
  0
APPID
  2
GEVMK
 70
     0
  0
APPID
  2
GENIUS_GENBH_13
 70
     0
  0
APPID
  2
GENIUS_GENOBJ-NBEHI-BHF_13
 70
     0
  0
APPID
  2
GENIUS_GENOBJ-NBEHI-BHB_13
 70
     0
  0
APPID
  2
GENIUS_GENOBJ-F-DESC_13
 70
     0
  0
APPID
  2
GENIUS_GEFDESC_14
 70
     0
  0
APPID
  2
GENIUS_GENOBJ-F-PART_13
 70
     0
  0
APPID
  2
GENIUS_GEFSTDP_13
 70
     0
  0
APPID
  2
GENIUS_GEFPARTINS_13
 70
     0
  0
APPID
  2
GENIUS_GENTRA_14
 70
     0
  0
APPID
  2
GENIUS_GENINF13_13
 70
     0
  0
APPID
  2
GENIUS_GENOBJ-N-INFOPT_13
 70
     0
  0
APPID
  2
GENIUS_GENOBJ-N-RSSYM_13
 70
     0
  0
APPID
  2
GENIUS_GENSYMENT_13
 70
     0
  0
APPID
  2
GENIUS_GENSCSYM_13
 70
     0
  0
APPID
  2
GENIUS_GEFINFNAM_13
 70
     0
  0
APPID
  2
GENIUS_GENOBJ-N-CEN_13
 70
     0
  0
APPID
  2
GENIUS_GENOBJ-N-CRS_13
 70
     0
  0
APPID
  2
GENIUS_GENOBJ-N-CRC_13
 70
     0
  0
APPID
  2
GENIUS_GENCRC_14
 70
     0
  0
APPID
  2
GEVID942827039
 70
     0
  0
APPID
  2
GEVID942827040
 70
     0
  0
APPID
  2
GEVID942827041
 70
     0
  0
APPID
  2
GENIUS_GENOBJ-F-SCPASSM_13
 70
     0
  0
APPID
  2
GENIUS_GENDIMSH_14
 70
     0
  0
APPID
  2
GEVID942827042
 70
     0
  0
APPID
  2
GEVID946020473
 70
     0
  0
APPID
  2
GEVID946020474
 70
     0
  0
APPID
  2
GEVID946020475
 70
     0
  0
APPID
  2
GENIUS_GENOBJ-N-HTC_13
 70
     0
  0
APPID
  2
GENIUS_GENHATCH_13
 70
     0
  0
APPID
  2
GEVID948854295
 70
     0
  0
APPID
  2
GEVID939402019
 70
     0
  0
APPID
  2
GEVID952919491
 70
     0
  0
APPID
  2
GEVID952919492
 70
     0
  0
APPID
  2
GENIUS_GEFWELD_13
 70
     0
  0
APPID
  2
GENIUS_GENOBJ-F-WELS_13
 70
     0
  0
APPID
  2
GEVID952919493
 70
     0
  0
APPID
  2
GENIUS_GENOBJ-N-RSBK_13
 70
     0
  0
APPID
  2
GENIUS_GENOBJ-N-LIB_13
 70
     0
  0
APPID
  2
GENIUS_GENSCALE_13
 70
     0
  0
APPID
  2
GEVID986376691
 70
     0
  0
APPID
  2
DCO15
 70
     0
  0
APPID
  2
GEVID988070561
 70
     0
  0
APPID
  2
GEVID988070562
 70
     0
  0
APPID
  2
GEVID988070563
 70
     0
  0
APPID
  2
ACADM_DIM_EDIT
 70
     0
  0
APPID
  2
AMDT_DM_ADJ
 70
     0
  0
APPID
  2
ACAD_PSEXT
 70
     0
  0
APPID
  2
ACAD_DSTYLE_DIMJAG
 70
     0
  0
APPID
  2
ACAD_DSTYLE_DIMBREAK
 70
     0
  0
APPID
  2
ACAD_NAV_VCDISPLAY
 70
     0
  0
APPID
  2
ACADANNOPO
 70
     0
  0
APPID
  2
ACAD_EXEMPT_FROM_CAD_STANDARDS
 70
     0
  0
APPID
  2
ACAD_MLEADERVER
 70
     0
  0
ENDTAB
  0
TABLE
  2
DIMSTYLE
 70
    23
  0
DIMSTYLE
  2
STANDARD
 70
     0
  3

  4

  5

  6

  7

 40
1.0
 41
0.18
 42
0.0625
 43
0.38
 44
0.18
 45
0.0
 46
0.0
 47
0.0
 48
0.0
140
0.18
141
0.09
142
0.0
143
25.399999999999999
144
1.0
145
0.0
146
1.0
147
0.09
 71
     0
 72
     0
 73
     1
 74
     1
 75
     0
 76
     0
 77
     0
 78
     0
170
     0
171
     2
172
     0
173
     0
174
     0
175
     0
176
     0
177
     0
178
     0
  0
DIMSTYLE
  2
ANNOTATIVE
 70
     0
  3

  4

  5

  6

  7

 40
1.0
 41
0.18
 42
0.0625
 43
0.38
 44
0.18
 45
0.0
 46
0.0
 47
0.0
 48
0.0
140
0.18
141
0.09
142
0.0
143
25.399999999999999
144
1.0
145
0.0
146
1.0
147
0.09
 71
     0
 72
     0
 73
     1
 74
     1
 75
     0
 76
     0
 77
     0
 78
     0
170
     0
171
     2
172
     0
173
     0
174
     0
175
     0
176
     0
177
     0
178
     0
  0
DIMSTYLE
  2
AM_ISO
 70
     0
  3

  4
"
  5

  6

  7

 40
1.0
 41
2.5
 42
1.0
 43
8.0
 44
0.6
 45
0.0
 46
0.0
 47
0.1
 48
0.1
140
2.5
141
0.0
142
0.0
143
0.0393701
144
1.0
145
0.0
146
0.71
147
0.8
 71
     0
 72
     0
 73
     0
 74
     0
 75
     0
 76
     0
 77
     1
 78
     8
170
     0
171
     2
172
     1
173
     0
174
     0
175
     0
176
   256
177
   256
178
     4
  0
DIMSTYLE
  2
AM_ISO$3
 70
     0
  3

  4
"
  5

  6

  7

 40
1.0
 41
2.5
 42
1.0
 43
8.0
 44
0.6
 45
0.0
 46
0.0
 47
0.1
 48
0.1
140
2.5
141
0.0
142
0.0
143
0.0393701
144
1.0
145
0.0
146
0.71
147
0.8
 71
     0
 72
     0
 73
     0
 74
     1
 75
     0
 76
     0
 77
     1
 78
     8
170
     0
171
     2
172
     0
173
     0
174
     0
175
     0
176
   256
177
   256
178
     4
  0
DIMSTYLE
  2
AM_ISO$4
 70
     0
  3

  4
"
  5

  6

  7

 40
1.0
 41
2.5
 42
1.0
 43
8.0
 44
0.6
 45
0.0
 46
0.0
 47
0.1
 48
0.1
140
2.5
141
0.0
142
0.0
143
0.0393701
144
1.0
145
0.0
146
0.71
147
0.8
 71
     0
 72
     0
 73
     0
 74
     1
 75
     0
 76
     0
 77
     1
 78
     8
170
     0
171
     2
172
     0
173
     0
174
     0
175
     0
176
   256
177
   256
178
     4
  0
DIMSTYLE
  2
AM_ISO$6
 70
     0
  3

  4
"
  5

  6

  7

 40
1.0
 41
2.5
 42
1.0
 43
8.0
 44
0.6
 45
0.0
 46
0.0
 47
0.1
 48
0.1
140
2.5
141
0.0
142
0.0
143
0.0393701
144
1.0
145
0.0
146
0.71
147
0.8
 71
     0
 72
     0
 73
     0
 74
     0
 75
     0
 76
     0
 77
     0
 78
     8
170
     0
171
     2
172
     1
173
     0
174
     0
175
     0
176
   256
177
   256
178
     4
  0
DIMSTYLE
  2
AM_ISO$7
 70
     0
  3

  4
"
  5

  6

  7

 40
1.0
 41
2.5
 42
1.0
 43
8.0
 44
0.6
 45
0.0
 46
0.0
 47
0.1
 48
0.1
140
2.5
141
0.0
142
0.0
143
0.0393701
144
1.0
145
0.0
146
0.71
147
0.8
 71
     0
 72
     0
 73
     0
 74
     0
 75
     0
 76
     0
 77
     1
 78
     8
170
     0
171
     2
172
     1
173
     0
174
     0
175
     0
176
   256
177
   256
178
     4
  0
DIMSTYLE
  2
AM_ISO$SF
 70
     0
  3

  4
"
  5

  6

  7

 40
1.0
 41
2.5
 42
1.0
 43
10.0
 44
1.0
 45
0.0
 46
0.0
 47
0.1
 48
0.1
140
3.5
141
0.0
142
0.0
143
0.0393701
144
1.0
145
0.0
146
0.71
147
1.5
 71
     0
 72
     0
 73
     0
 74
     0
 75
     1
 76
     1
 77
     1
 78
     8
170
     0
171
     2
172
     1
173
     0
174
     0
175
     0
176
   256
177
   256
178
     2
  0
DIMSTYLE
  2
AM_ISO$SH
 70
     0
  3

  4
"
  5

  6

  7

 40
1.0
 41
2.5
 42
1.0
 43
10.0
 44
1.0
 45
0.0
 46
0.0
 47
0.1
 48
0.1
140
3.5
141
0.0
142
0.0
143
0.0393701
144
2.0
145
0.0
146
0.71
147
1.5
 71
     0
 72
     0
 73
     0
 74
     0
 75
     1
 76
     1
 77
     1
 78
     8
170
     0
171
     2
172
     1
173
     1
174
     0
175
     0
176
   256
177
   256
178
     2
  0
DIMSTYLE
  2
AM_JIS
 70
     0
  3

  4
"
  5

  6

  7

 40
1.0
 41
2.5
 42
1.0
 43
7.0
 44
1.0
 45
0.0
 46
0.0
 47
0.1
 48
0.1000000001
140
2.5
141
0.0
142
0.0
143
0.0393701
144
1.0
145
0.0
146
0.71
147
1.0
 71
     0
 72
     0
 73
     0
 74
     0
 75
     0
 76
     0
 77
     3
 78
     8
170
     0
171
     2
172
     1
173
     0
174
     0
175
     0
176
   256
177
   256
178
     4
  0
DIMSTYLE
  2
AM_JIS$3
 70
     0
  3

  4
"
  5

  6

  7

 40
1.0
 41
2.5
 42
1.0
 43
7.0
 44
1.0
 45
0.0
 46
0.0
 47
0.1
 48
0.1000000001
140
2.5
141
0.0
142
0.0
143
0.0393701
144
1.0
145
0.0
146
0.71
147
1.0
 71
     0
 72
     0
 73
     0
 74
     1
 75
     0
 76
     0
 77
     3
 78
     8
170
     0
171
     2
172
     0
173
     0
174
     0
175
     0
176
   256
177
   256
178
     4
  0
DIMSTYLE
  2
AM_JIS$4
 70
     0
  3

  4
"
  5

  6

  7

 40
1.0
 41
2.5
 42
1.0
 43
7.0
 44
1.0
 45
0.0
 46
0.0
 47
0.1
 48
0.1000000001
140
2.5
141
0.0
142
0.0
143
0.0393701
144
1.0
145
0.0
146
0.71
147
1.0
 71
     0
 72
     0
 73
     0
 74
     0
 75
     0
 76
     0
 77
     3
 78
     8
170
     0
171
     2
172
     0
173
     0
174
     0
175
     0
176
   256
177
   256
178
     4
  0
DIMSTYLE
  2
AM_JIS$6
 70
     0
  3

  4
"
  5

  6

  7

 40
1.0
 41
2.5
 42
1.0
 43
7.0
 44
1.0
 45
0.0
 46
0.0
 47
0.1
 48
0.1000000001
140
2.5
141
0.0
142
0.0
143
0.0393701
144
1.0
145
0.0
146
0.71
147
1.0
 71
     0
 72
     0
 73
     0
 74
     0
 75
     0
 76
     0
 77
     0
 78
     8
170
     0
171
     2
172
     1
173
     0
174
     0
175
     0
176
   256
177
   256
178
     4
  0
DIMSTYLE
  2
AM_JIS$7
 70
     0
  3

  4
"
  5

  6

  7

 40
1.0
 41
2.5
 42
1.0
 43
7.0
 44
1.0
 45
0.0
 46
0.0
 47
0.1
 48
0.1000000001
140
2.5
141
0.0
142
0.0
143
0.0393701
144
1.0
145
0.0
146
0.71
147
1.0
 71
     0
 72
     0
 73
     0
 74
     0
 75
     0
 76
     0
 77
     3
 78
     8
170
     0
171
     2
172
     1
173
     0
174
     0
175
     0
176
   256
177
   256
178
     4
  0
DIMSTYLE
  2
AM_JIS$SF
 70
     0
  3

  4
"
  5

  6

  7

 40
1.0
 41
2.5
 42
1.0
 43
10.0
 44
1.0
 45
0.0
 46
0.0
 47
0.1
 48
0.1
140
3.5
141
0.0
142
0.0
143
0.0393701
144
1.0
145
0.0
146
0.71
147
1.5
 71
     0
 72
     0
 73
     0
 74
     0
 75
     1
 76
     1
 77
     3
 78
     8
170
     0
171
     2
172
     1
173
     0
174
     0
175
     0
176
   256
177
   256
178
     4
  0
DIMSTYLE
  2
AM_JIS$SH
 70
     0
  3

  4
"
  5

  6

  7

 40
1.0
 41
2.5
 42
1.0
 43
10.0
 44
1.0
 45
0.0
 46
0.0
 47
0.1
 48
0.1
140
3.5
141
0.0
142
0.0
143
0.0393701
144
1.0
145
0.0
146
0.71
147
1.5
 71
     0
 72
     0
 73
     0
 74
     0
 75
     1
 76
     0
 77
     3
 78
     8
170
     0
171
     2
172
     1
173
     1
174
     0
175
     0
176
   256
177
   256
178
     4
  0
DIMSTYLE
  2
AM_ISO$0
 70
     0
  3

  4
"
  5

  6

  7

 40
1.0
 41
2.5
 42
1.0
 43
8.0
 44
0.6
 45
0.0
 46
0.0
 47
0.1
 48
0.1
140
2.5
141
0.0
142
0.0
143
0.0393701
144
1.0
145
0.0
146
0.71
147
0.8
 71
     0
 72
     0
 73
     0
 74
     0
 75
     0
 76
     0
 77
     1
 78
     8
170
     0
171
     2
172
     1
173
     0
174
     0
175
     0
176
   256
177
   256
178
     4
  0
DIMSTYLE
  2
AM_ANSI
 70
     0
  3

  4
mm
  5

  6

  7

 40
1.0
 41
0.12
 42
0.05
 43
0.5
 44
0.1
 45
0.0
 46
0.0
 47
0.1
 48
0.1
140
0.12
141
0.0
142
0.0
143
25.399999999999999
144
1.0
145
0.0
146
0.71
147
0.06
 71
     0
 72
     0
 73
     1
 74
     1
 75
     0
 76
     0
 77
     0
 78
     7
170
     0
171
     2
172
     0
173
     0
174
     0
175
     0
176
   256
177
   256
178
     2
  0
DIMSTYLE
  2
AM_ANSI$3
 70
     0
  3

  4
mm
  5

  6

  7

 40
1.0
 41
0.12
 42
0.05
 43
0.5
 44
0.1
 45
0.0
 46
0.0
 47
0.1
 48
0.1
140
0.12
141
0.0
142
0.0
143
25.399999999999999
144
1.0
145
0.0
146
0.71
147
0.06
 71
     0
 72
     0
 73
     1
 74
     1
 75
     0
 76
     0
 77
     0
 78
     7
170
     0
171
     2
172
     0
173
     0
174
     0
175
     0
176
   256
177
   256
178
     2
  0
DIMSTYLE
  2
AM_ANSI$4
 70
     0
  3

  4
mm
  5

  6

  7

 40
1.0
 41
0.12
 42
0.05
 43
0.5
 44
0.1
 45
0.0
 46
0.0
 47
0.1
 48
0.1
140
0.12
141
0.0
142
0.0
143
25.399999999999999
144
1.0
145
0.0
146
0.71
147
0.06
 71
     0
 72
     0
 73
     1
 74
     1
 75
     0
 76
     0
 77
     0
 78
     7
170
     0
171
     2
172
     0
173
     0
174
     0
175
     0
176
   256
177
   256
178
     2
  0
DIMSTYLE
  2
AM_ANSI$7
 70
     0
  3

  4
mm
  5

  6

  7

 40
1.0
 41
0.12
 42
0.05
 43
0.5
 44
0.1
 45
0.0
 46
0.0
 47
0.1
 48
0.1
140
0.12
141
0.0
142
0.0
143
25.399999999999999
144
1.0
145
0.0
146
0.71
147
0.06
 71
     0
 72
     0
 73
     1
 74
     1
 75
     0
 76
     0
 77
     0
 78
     7
170
     0
171
     2
172
     0
173
     0
174
     0
175
     0
176
   256
177
   256
178
     2
  0
DIMSTYLE
  2
AM_ANSI$SF
 70
     0
  3

  4
mm
  5

  6

  7

 40
1.0
 41
0.12
 42
0.05
 43
0.5
 44
0.1
 45
0.0
 46
0.0
 47
0.1
 48
0.1
140
0.12
141
0.0
142
0.0
143
25.399999999999999
144
1.0
145
0.0
146
0.71
147
0.06
 71
     0
 72
     0
 73
     1
 74
     1
 75
     1
 76
     1
 77
     0
 78
     7
170
     0
171
     2
172
     0
173
     0
174
     0
175
     0
176
   256
177
   256
178
     2
  0
DIMSTYLE
  2
AM_ANSI$SH
 70
     0
  3

  4
mm
  5

  6
GENAXEH
  7

 40
1.0
 41
0.12
 42
0.05
 43
0.5
 44
0.1
 45
0.0
 46
0.0
 47
0.1
 48
0.1
140
0.12
141
0.0
142
0.0
143
25.399999999999999
144
1.0
145
0.0
146
0.71
147
0.06
 71
     0
 72
     0
 73
     1
 74
     1
 75
     1
 76
     1
 77
     0
 78
     7
170
     0
171
     2
172
     0
173
     1
174
     0
175
     0
176
   256
177
   256
178
     2
  0
ENDTAB
  0
ENDSEC
  0
SECTION
  2
BLOCKS
  0
BLOCK
  8
0
  2
$MODEL_SPACE
 70
     0
 10
0.0
 20
0.0
 30
0.0
  3
$MODEL_SPACE
  1

  0
ENDBLK
  5
680F
  8
0
  0
BLOCK
 67
     1
  8
0
  2
$PAPER_SPACE
 70
     0
 10
0.0
 20
0.0
 30
0.0
  3
$PAPER_SPACE
  1

  0
ENDBLK
  5
680B
 67
     1
  8
0
  0
BLOCK
  8
0
  2
GENAXEH
 70
     0
 10
0.0
 20
0.0
 30
0.0
  3
GENAXEH
  1

  0
LINE
  5
73
  8
0
 10
-1.0
 20
0.0
 30
0.0
 11
1.0
 21
0.0
 31
0.0
  0
ENDBLK
  5
75
  8
0
  0
BLOCK
  8
0
  2
_OPEN30
 70
     0
 10
0.0
 20
0.0
 30
0.0
  3
_OPEN30
  1

  0
LINE
  5
31A
  8
0
 62
     0
 10
-1.0
 20
0.26794919
 30
0.0
 11
0.0
 21
0.0
 31
0.0
  0
LINE
  5
31B
  8
0
 62
     0
 10
0.0
 20
0.0
 30
0.0
 11
-1.0
 21
-0.26794919
 31
0.0
  0
LINE
  5
31C
  8
0
 62
     0
 10
0.0
 20
0.0
 30
0.0
 11
-1.0
 21
0.0
 31
0.0
  0
ENDBLK
  5
31E
  8
0
  0
BLOCK
  8
0
  2
_NONE
 70
     0
 10
0.0
 20
0.0
 30
0.0
  3
_NONE
  1

  0
ENDBLK
  5
579
  8
0
  0
BLOCK
  8
0
  2
*U5
 70
     1
 10
0.0
 20
0.0
 30
0.0
  3
*U5
  1

  0
TEXT
  5
671A
  8
AM_0
 10
543.69016605858633
 20
500.93056275212678
 30
0.0
 40
10.0
  1
ＶＸ０１－０６０～２００ＢＦＷ
 41
0.8299999999999999
  0
ENDBLK
  5
671C
  8
0
  0
BLOCK
  8
0
  2
_ACMFILLEDHALF
 70
     0
 10
0.0
 20
0.0
 30
0.0
  3
_ACMFILLEDHALF
  1

  0
TRACE
  5
6910
  8
AM_0
 62
     0
 10
-0.8
 20
0.0
 30
0.0
 11
-1.0
 21
0.166666666
 31
0.0
 12
0.0
 22
0.0
 32
0.0
 13
0.0
 23
0.0
 33
0.0
  0
LINE
  5
6911
  8
AM_0
 62
     0
 10
-1.0
 20
0.0
 30
0.0
 11
-0.8
 21
0.0
 31
0.0
  0
ENDBLK
  5
690F
  8
0
  0
ENDSEC
  0
SECTION
  2
ENTITIES
  0
LINE
  5
4596
  8
AM_0
 10
268.19738380279438
 20
180.8450269062277
 30
0.0
 11
271.19738380279432
 21
180.8450269062277
 31
0.0
  0
LINE
  5
4597
  8
AM_0
 10
268.19738380279432
 20
257.29112590622788
 30
0.0
 11
271.19738380279432
 21
257.29112590622788
 31
0.0
  0
LINE
  5
4598
  8
AM_0
 10
166.40381380279419
 20
162.7848589062279
 30
0.0
 11
263.32355380279432
 21
162.7848589062279
 31
0.0
  0
LINE
  5
4599
  8
AM_0
 10
164.87531380279421
 20
182.3450269062279
 30
0.0
 11
172.19738380279421
 21
182.3450269062279
 31
0.0
  0
LINE
  5
459A
  8
AM_0
 10
172.19738380279421
 20
185.06810890622771
 30
0.0
 11
165.5627938027942
 21
185.06810890622771
 31
0.0
  0
LINE
  5
459B
  8
AM_0
 10
172.19738380279421
 20
183.0681109062277
 30
0.0
 11
165.5627938027942
 21
183.0681109062277
 31
0.0
  0
LINE
  5
459C
  8
AM_0
 10
172.19738380279421
 20
255.06812590622781
 30
0.0
 11
165.5627938027942
 21
255.06812590622781
 31
0.0
  0
LINE
  5
459D
  8
AM_0
 10
172.19738380279421
 20
253.0681129062279
 30
0.0
 11
165.5627938027942
 21
253.0681129062279
 31
0.0
  0
LINE
  5
459E
  8
AM_0
 10
164.87468380279421
 20
255.7911259062279
 30
0.0
 11
172.19738380279421
 21
255.7911259062279
 31
0.0
  0
LINE
  5
459F
  8
AM_0
 10
166.40381380279419
 20
275.3513659062279
 30
0.0
 11
263.32355380279432
 21
275.3513659062279
 31
0.0
  0
ARC
  5
45A0
  8
AM_0
 10
164.87468380279421
 20
254.1132169062279
 30
0.0
 40
1.6779127499999991
 50
90.000003000000945
 51
270.0
  0
ARC
  5
45A1
  8
AM_0
 10
165.74675380279419
 20
254.06811190622781
 30
0.0
 40
1.0000000199999981
 50
90.000003000000945
 51
270.0
  0
LINE
  5
45A2
  8
AM_0
 10
163.19738380279429
 20
272.0681059062278
 30
0.0
 11
163.19738380279429
 21
205.66811090622781
 31
0.0
  0
LINE
  5
45A3
  8
AM_0
 10
163.19738380279429
 20
192.46811090622771
 30
0.0
 11
163.19738380279429
 21
169.6278769062279
 31
0.0
  0
LINE
  5
45A4
  8
AM_0
 10
168.56285380279439
 20
182.41683490622771
 30
0.0
 11
163.19744380279411
 21
170.97235990622781
 31
0.0
  0
ARC
  5
45A5
  8
AM_0
 10
200.1973738027942
 20
161.93846890622771
 30
0.0
 40
2.00000007
 50
270.0
 51
0.0
  0
ARC
  5
45A6
  8
AM_0
 10
200.1973738027942
 20
159.18016990622789
 30
0.0
 40
2.00000007
 50
270.0
 51
0.0
  0
LINE
  5
45A7
  8
AM_0
 10
202.19738380279429
 20
159.18016990622789
 30
0.0
 11
202.19738380279429
 21
162.7848589062279
 31
0.0
  0
ARC
  5
45A8
  8
AM_0
 10
200.1973738027942
 20
160.09069090622791
 30
0.0
 40
2.00000007
 50
270.0
 51
0.0
  0
LINE
  5
45A9
  8
AM_0
 10
163.19738380279429
 20
170.9723299062278
 30
0.0
 11
164.4386038027942
 21
164.4129739062279
 31
0.0
  0
LINE
  5
45AA
  8
AM_0
 10
163.19738380279429
 20
169.62780190622769
 30
0.0
 11
164.47748380279421
 21
161.62262890622759
 31
0.0
  0
LINE
  5
45AB
  8
AM_0
 10
163.1973238027941
 20
168.28327390622781
 30
0.0
 11
164.48840380279429
 21
159.7901539062278
 31
0.0
  0
ARC
  5
45AC
  8
AM_0
 10
166.40381380279419
 20
164.78484490622779
 30
0.0
 40
2.00000007
 50
190.71568999999951
 51
270.0
  0
ARC
  5
45AD
  8
AM_0
 10
166.4523838027944
 20
161.93846890622771
 30
0.0
 40
2.00000007
 50
189.08497000000031
 51
270.0
  0
LINE
  5
45AE
  8
AM_0
 10
155.69739380279421
 20
166.06812490622781
 30
0.0
 11
163.19738380279429
 21
166.06812490622781
 31
0.0
  0
ARC
  5
45AF
  8
AM_0
 10
166.4870638027943
 20
159.18016990622789
 30
0.0
 40
2.00000007
 50
187.94403999999901
 51
270.0
  0
LINE
  5
45B0
  8
AM_0
 10
163.1973238027941
 20
168.28322890622781
 30
0.0
 11
164.5062238027943
 21
158.90378590622791
 31
0.0
  0
ARC
  5
45B1
  8
AM_0
 10
166.46576380279441
 20
160.09069090622791
 30
0.0
 40
2.00000007
 50
188.6433899999989
 51
270.0
  0
LINE
  5
45B2
  8
AM_0
 10
166.4523838027944
 20
159.93848590622781
 30
0.0
 11
200.1973738027942
 21
159.93848590622781
 31
0.0
  0
LINE
  5
45B3
  8
AM_0
 10
166.46576380279441
 20
158.0906929062279
 30
0.0
 11
200.1973738027942
 21
158.0906929062279
 31
0.0
  0
LINE
  5
45B4
  8
AM_0
 10
166.4870638027943
 20
157.1801839062278
 30
0.0
 11
200.1973738027942
 21
157.1801839062278
 31
0.0
  0
POLYLINE
  5
45B5
  8
AM_0
 66
     1
 10
0.0
 20
0.0
 30
0.0
  0
VERTEX
  5
45B6
  8
AM_0
 10
167.13122277680259
 20
246.0681109062277
 30
0.0
  0
VERTEX
  5
45B7
  8
AM_0
 10
168.02009380279429
 20
252.43668190622779
 30
0.0
 42
-1.0
  0
SEQEND
  5
45B8
  8
AM_0
  0
LINE
  5
45B9
  8
AM_0
 10
164.87468380279421
 20
252.43529890622781
 30
0.0
 11
172.19738380279421
 21
252.43529890622781
 31
0.0
  0
POLYLINE
  5
45BA
  8
AM_0
 66
     1
 10
0.0
 20
0.0
 30
0.0
  0
VERTEX
  5
45BB
  8
AM_0
 10
167.34057504652989
 20
190.5681109062277
 30
0.0
  0
VERTEX
  5
45BC
  8
AM_0
 10
168.02009380279429
 20
185.69953390622791
 30
0.0
 42
-1.0
  0
SEQEND
  5
45BD
  8
AM_0
  0
ARC
  5
45BE
  8
AM_0
 10
164.87531380279421
 20
184.02294490622771
 30
0.0
 40
1.6779175200000001
 50
90.000003000000945
 51
270.0
  0
ARC
  5
45BF
  8
AM_0
 10
165.74675380279419
 20
184.06812490622781
 30
0.0
 40
1.0000000199999981
 50
90.000003000000945
 51
270.0
  0
LINE
  5
45C0
  8
AM_0
 10
155.89550380279431
 20
175.8766429062278
 30
0.0
 11
162.12530380279441
 21
175.8766429062278
 31
0.0
  0
LINE
  5
45C1
  8
AM_0
 10
164.87531380279421
 20
185.7008779062279
 30
0.0
 11
172.19738380279421
 21
185.7008779062279
 31
0.0
  0
ARC
  5
45C2
  8
AM_0
 10
200.1973738027942
 20
276.19775590622783
 30
0.0
 40
2.00000007
 50
0.0
 51
90.000003000000945
  0
ARC
  5
45C3
  8
AM_0
 10
200.1973738027942
 20
278.0454559062278
 30
0.0
 40
2.00000007
 50
0.0
 51
90.000003000000945
  0
ARC
  5
45C4
  8
AM_0
 10
200.1973738027942
 20
278.95598590622791
 30
0.0
 40
2.00000007
 50
0.0
 51
90.000003000000945
  0
LINE
  5
45C5
  8
AM_0
 10
202.19738380279429
 20
278.95598590622791
 30
0.0
 11
202.19738380279429
 21
275.3513659062279
 31
0.0
  0
ARC
  5
45C6
  8
AM_0
 10
166.40381380279419
 20
273.35138590622768
 30
0.0
 40
2.00000007
 50
90.000003000000945
 51
169.2843100000004
  0
ARC
  5
45C7
  8
AM_0
 10
166.4523838027944
 20
276.19775590622783
 30
0.0
 40
2.00000007
 50
90.000003000000945
 51
170.9150299999996
  0
ARC
  5
45C8
  8
AM_0
 10
166.46576380279441
 20
278.0454559062278
 30
0.0
 40
2.00000007
 50
90.000003000000945
 51
171.35661000000101
  0
ARC
  5
45C9
  8
AM_0
 10
166.4870638027943
 20
278.95598590622791
 30
0.0
 40
2.00000007
 50
90.000003000000945
 51
172.05596000000091
  0
LINE
  5
45CA
  8
AM_0
 10
163.19738380279429
 20
268.50836590622782
 30
0.0
 11
164.47742380279431
 21
276.51350590622781
 31
0.0
  0
LINE
  5
45CB
  8
AM_0
 10
163.19738380279429
 20
269.85296590622778
 30
0.0
 11
164.48840380279429
 21
278.34602590622791
 31
0.0
  0
LINE
  5
45CC
  8
AM_0
 10
163.19738380279429
 20
269.85296590622778
 30
0.0
 11
164.5062238027943
 21
279.23237590622779
 31
0.0
  0
LINE
  5
45CD
  8
AM_0
 10
163.19738380279429
 20
267.16382590622783
 30
0.0
 11
164.43866380279439
 21
273.7232359062279
 31
0.0
  0
LINE
  5
45CE
  8
AM_0
 10
155.69739380279421
 20
272.0681059062278
 30
0.0
 11
163.19738380279429
 21
272.0681059062278
 31
0.0
  0
LINE
  5
45CF
  8
AM_0
 10
155.89550380279431
 20
262.25951590622788
 30
0.0
 11
162.12530380279441
 21
262.25951590622788
 31
0.0
  0
LINE
  5
45D0
  8
AM_0
 10
168.5627938027942
 20
255.71930590622779
 30
0.0
 11
163.19738380279429
 21
267.16379590622768
 31
0.0
  0
LINE
  5
45D1
  8
AM_0
 10
166.4523838027944
 20
278.1977659062278
 30
0.0
 11
200.1973738027942
 21
278.1977659062278
 31
0.0
  0
LINE
  5
45D2
  8
AM_0
 10
166.46576380279441
 20
280.04546590622778
 30
0.0
 11
200.1973738027942
 21
280.04546590622778
 31
0.0
  0
LINE
  5
45D3
  8
AM_0
 10
166.4870638027943
 20
280.95599590622783
 30
0.0
 11
200.1973738027942
 21
280.95599590622783
 31
0.0
  0
ARC
  5
45D4
  8
AM_0
 10
268.0194838027943
 20
254.1132169062279
 30
0.0
 40
1.6779127499999991
 50
276.08620038402
 51
83.913799615980011
  0
LINE
  5
45D5
  8
ﾁｭｳｼﾝｾﾝ
 10
220.19738380279429
 20
270.0681109062279
 30
0.0
 11
220.19738380279429
 21
168.0681109062277
 31
0.0
  0
LINE
  5
45D6
  8
AM_0
 10
271.19738380279432
 20
275.06810590622791
 30
0.0
 11
271.19738380279432
 21
163.06812490622781
 31
0.0
  0
LINE
  5
45D7
  8
AM_0
 10
155.69739380279421
 20
272.0681059062278
 30
0.0
 11
155.69739380279421
 21
246.0681109062277
 31
0.0
  0
LINE
  5
45D8
  8
AM_0
 10
155.69739380279421
 20
222.06811090622799
 30
0.0
 11
155.69739380279421
 21
207.56811090622941
 31
0.0
  0
LINE
  5
45D9
  8
AM_0
 10
155.69739380279421
 20
190.5681109062271
 30
0.0
 11
155.69739380279421
 21
166.06812490622781
 31
0.0
  0
LINE
  5
45DA
  8
AM_0
 10
269.69738380279432
 20
180.8450719062277
 30
0.0
 11
265.25537380279428
 21
164.2672069062279
 31
0.0
  0
LINE
  5
45DB
  8
AM_0
 10
271.19738380279432
 20
163.06812490622781
 30
0.0
 11
279.19739380279412
 21
163.06812490622781
 31
0.0
  0
LINE
  5
45DC
  8
AM_0
 10
265.73792380279428
 20
166.06812490622781
 30
0.0
 11
271.19738380279432
 21
166.06812490622781
 31
0.0
  0
ARC
  5
45DD
  8
AM_0
 10
263.32355380279432
 20
164.78484490622779
 30
0.0
 40
2.00000007
 50
270.0
 51
344.99999999999841
  0
LINE
  5
45DE
  8
AM_0
 10
271.19738380279432
 20
251.00554990622791
 30
0.0
 11
279.19739380279412
 21
251.00554990622791
 31
0.0
  0
LINE
  5
45DF
  8
AM_0
 10
271.19738380279432
 20
187.1306719062278
 30
0.0
 11
279.19739380279412
 21
187.1306719062278
 31
0.0
  0
LINE
  5
45E0
  8
AM_0
 10
271.19738380279432
 20
173.06810890622779
 30
0.0
 11
279.19739380279412
 21
173.06810890622779
 31
0.0
  0
ARC
  5
45E1
  8
AM_0
 10
268.0194838027943
 20
184.02294490622771
 30
0.0
 40
1.6779127499999991
 50
276.08620038402319
 51
83.913799615976814
  0
LINE
  5
45E2
  8
AM_0
 10
271.19738380279432
 20
275.06810590622791
 30
0.0
 11
279.19739380279412
 21
275.06810590622791
 31
0.0
  0
LINE
  5
45E3
  8
AM_0
 10
271.19738380279432
 20
265.06811590622777
 30
0.0
 11
279.19739380279412
 21
265.06811590622777
 31
0.0
  0
LINE
  5
45E4
  8
AM_0
 10
265.73792380279428
 20
272.0681059062278
 30
0.0
 11
271.19738380279432
 21
272.0681059062278
 31
0.0
  0
ARC
  5
45E5
  8
AM_0
 10
263.32355380279432
 20
273.35138590622768
 30
0.0
 40
2.00000007
 50
15.000000000001579
 51
90.000003000000945
  0
ARC
  5
45E6
  8
AM_0
 10
270.84839380279431
 20
258.79112590622788
 30
0.0
 40
1.5000000299999989
 50
195.00000999999889
 51
270.0
  0
LINE
  5
45E7
  8
AM_0
 10
269.3995438027942
 20
258.40292590622778
 30
0.0
 11
265.25537380279428
 21
273.86900590622781
 31
0.0
  0
LINE
  5
45E9
  8
AM_0
 10
264.19738380279438
 20
173.06811090622779
 30
0.0
 11
176.19738380279421
 21
173.06811090622779
 31
0.0
  0
ARC
  5
45EA
  8
AM_0
 10
194.26845161465971
 20
178.06811090622779
 30
0.0
 40
5.0
 50
225.0
 51
270.0
1001
GENIUS_GENOBJ-N-FIL_13
1002
{
1000
OWNER
1000
GEN
1002
}
1001
GENIUS_GENODEF_13
1002
{
1000
HIER
1070
     0
1002
}
1002
{
1000
MANEDIT
1070
     0
1002
}
1002
{
1000
NOSEL
1070
     0
1002
}
1002
{
1000
BEHIND
1070
     0
1002
}
1002
{
1000
OTHER
1070
     0
1002
}
1002
{
1000
REACTOR
1002
}
  0
LINE
  5
45EB
  8
AM_0
 10
245.46946174143659
 20
178.06811090622779
 30
0.0
 11
194.92530586415199
 21
178.06811090622779
 31
0.0
  0
ARC
  5
45EC
  8
AM_0
 10
245.46946174143659
 20
183.0681109062277
 30
0.0
 40
5.0
 50
270.0
 51
315.0
1001
GENIUS_GENOBJ-N-FIL_13
1002
{
1000
OWNER
1000
GEN
1002
}
1001
GENIUS_GENODEF_13
1002
{
1000
HIER
1070
     0
1002
}
1002
{
1000
MANEDIT
1070
     0
1002
}
1002
{
1000
NOSEL
1070
     0
1002
}
1002
{
1000
BEHIND
1070
     0
1002
}
1002
{
1000
OTHER
1070
     0
1002
}
1002
{
1000
REACTOR
1002
}
  0
ARC
  5
45ED
  8
AM_0
 10
264.19738380279438
 20
177.06811090622759
 30
0.0
 40
4.0
 50
270.0
 51
0.0
1001
GENIUS_GENOBJ-N-FIL_13
1002
{
1000
OWNER
1000
GEN
1002
}
1001
GENIUS_GENODEF_13
1002
{
1000
HIER
1070
     0
1002
}
1002
{
1000
MANEDIT
1070
     0
1002
}
1002
{
1000
NOSEL
1070
     0
1002
}
1002
{
1000
BEHIND
1070
     0
1002
}
1002
{
1000
OTHER
1070
     0
1002
}
1002
{
1000
REACTOR
1002
}
  0
LINE
  5
45EE
  8
AM_0
 10
264.19738380279432
 20
265.06811090622801
 30
0.0
 11
176.19738380279421
 21
265.06811090622779
 31
0.0
  0
ARC
  5
45EF
  8
AM_0
 10
246.12631599092879
 20
260.0681109062279
 30
0.0
 40
5.0
 50
45.0
 51
90.0
1001
GENIUS_GENOBJ-N-FIL_13
1002
{
1000
OWNER
1000
GEN
1002
}
1001
GENIUS_GENODEF_13
1002
{
1000
HIER
1070
     0
1002
}
1002
{
1000
MANEDIT
1070
     0
1002
}
1002
{
1000
NOSEL
1070
     0
1002
}
1002
{
1000
BEHIND
1070
     0
1002
}
1002
{
1000
OTHER
1070
     0
1002
}
1002
{
1000
REACTOR
1002
}
  0
ARC
  5
45F0
  8
AM_0
 10
194.26845161465991
 20
260.0681109062279
 30
0.0
 40
5.0
 50
90.0
 51
135.0
1001
GENIUS_GENODEF_13
1002
{
1000
HIER
1070
     0
1002
}
1002
{
1000
MANEDIT
1070
     0
1002
}
1002
{
1000
NOSEL
1070
     0
1002
}
1002
{
1000
BEHIND
1070
     0
1002
}
1002
{
1000
OTHER
1070
     0
1002
}
1002
{
1000
REACTOR
1002
}
1001
GENIUS_GENOBJ-N-FIL_13
1002
{
1000
OWNER
1000
GEN
1002
}
  0
LINE
  5
45F1
  8
AM_0
 10
245.46946174143639
 20
260.0681109062279
 30
0.0
 11
194.92530586415211
 21
260.0681109062279
 31
0.0
  0
ARC
  5
45F2
  8
AM_0
 10
194.92530586415211
 20
255.06811090622799
 30
0.0
 40
5.0
 50
90.0
 51
135.0
1001
GENIUS_GENODEF_13
1002
{
1000
HIER
1070
     0
1002
}
1002
{
1000
MANEDIT
1070
     0
1002
}
1002
{
1000
NOSEL
1070
     0
1002
}
1002
{
1000
BEHIND
1070
     0
1002
}
1002
{
1000
OTHER
1070
     0
1002
}
1002
{
1000
REACTOR
1002
}
1001
GENIUS_GENOBJ-N-FIL_13
1002
{
1000
OWNER
1000
GEN
1002
}
  0
ARC
  5
45F3
  8
AM_0
 10
176.19738380279421
 20
261.06811090622779
 30
0.0
 40
4.0
 50
90.0
 51
180.0
1001
GENIUS_GENODEF_13
1002
{
1000
HIER
1070
     0
1002
}
1002
{
1000
MANEDIT
1070
     0
1002
}
1002
{
1000
NOSEL
1070
     0
1002
}
1002
{
1000
BEHIND
1070
     0
1002
}
1002
{
1000
OTHER
1070
     0
1002
}
1002
{
1000
REACTOR
1002
}
1001
GENIUS_GENOBJ-N-FIL_13
1002
{
1000
OWNER
1000
GEN
1002
}
  0
LINE
  5
45F4
  8
AM_0
 10
172.19738380279421
 20
261.06811090622779
 30
0.0
 11
172.19738380279421
 21
177.06811090622779
 31
0.0
  0
ARC
  5
45F5
  8
AM_0
 10
177.19738380279421
 20
195.13917871809301
 30
0.0
 40
5.0
 50
180.0
 51
225.0
1001
GENIUS_GENOBJ-N-FIL_13
1002
{
1000
OWNER
1000
GEN
1002
}
1001
GENIUS_GENODEF_13
1002
{
1000
HIER
1070
     0
1002
}
1002
{
1000
MANEDIT
1070
     0
1002
}
1002
{
1000
NOSEL
1070
     0
1002
}
1002
{
1000
BEHIND
1070
     0
1002
}
1002
{
1000
OTHER
1070
     0
1002
}
1002
{
1000
REACTOR
1002
}
  0
ARC
  5
45F6
  8
AM_0
 10
177.19738380279421
 20
242.9970430943626
 30
0.0
 40
5.0
 50
135.0
 51
180.0
1001
GENIUS_GENOBJ-N-FIL_13
1002
{
1000
OWNER
1000
GEN
1002
}
1001
GENIUS_GENODEF_13
1002
{
1000
HIER
1070
     0
1002
}
1002
{
1000
MANEDIT
1070
     0
1002
}
1002
{
1000
NOSEL
1070
     0
1002
}
1002
{
1000
BEHIND
1070
     0
1002
}
1002
{
1000
OTHER
1070
     0
1002
}
1002
{
1000
REACTOR
1002
}
  0
LINE
  5
45F7
  8
AM_0
 10
177.19738380279421
 20
242.34018884487011
 30
0.0
 11
177.19738380279409
 21
195.7960329675854
 31
0.0
  0
ARC
  5
45F8
  8
AM_0
 10
182.19738380279409
 20
195.7960329675854
 30
0.0
 40
5.0
 50
180.0
 51
225.0
1001
GENIUS_GENOBJ-N-FIL_13
1002
{
1000
OWNER
1000
GEN
1002
}
1001
GENIUS_GENODEF_13
1002
{
1000
HIER
1070
     0
1002
}
1002
{
1000
MANEDIT
1070
     0
1002
}
1002
{
1000
NOSEL
1070
     0
1002
}
1002
{
1000
BEHIND
1070
     0
1002
}
1002
{
1000
OTHER
1070
     0
1002
}
1002
{
1000
REACTOR
1002
}
  0
ARC
  5
45F9
  8
AM_0
 10
176.19738380279421
 20
177.06811090622779
 30
0.0
 40
4.0
 50
180.0
 51
270.0
1001
GENIUS_GENODEF_13
1002
{
1000
HIER
1070
     0
1002
}
1002
{
1000
MANEDIT
1070
     0
1002
}
1002
{
1000
NOSEL
1070
     0
1002
}
1002
{
1000
BEHIND
1070
     0
1002
}
1002
{
1000
OTHER
1070
     0
1002
}
1002
{
1000
REACTOR
1002
}
1001
GENIUS_GENOBJ-N-FIL_13
1002
{
1000
OWNER
1000
GEN
1002
}
  0
LINE
  5
45FA
  8
AM_0
 10
268.19738380279432
 20
261.06811090622801
 30
0.0
 11
268.19738380279438
 21
177.06811090622759
 31
0.0
  0
ARC
  5
45FB
  8
AM_0
 10
263.19738380279438
 20
242.9970430943626
 30
0.0
 40
5.0
 50
0.0
 51
45.0
1001
GENIUS_GENOBJ-N-FIL_13
1002
{
1000
OWNER
1000
GEN
1002
}
1001
GENIUS_GENODEF_13
1002
{
1000
HIER
1070
     0
1002
}
1002
{
1000
MANEDIT
1070
     0
1002
}
1002
{
1000
NOSEL
1070
     0
1002
}
1002
{
1000
BEHIND
1070
     0
1002
}
1002
{
1000
OTHER
1070
     0
1002
}
1002
{
1000
REACTOR
1002
}
  0
ARC
  5
45FC
  8
AM_0
 10
263.19738380279438
 20
195.13917871809309
 30
0.0
 40
5.0
 50
315.0
 51
0.0
1001
GENIUS_GENOBJ-N-FIL_13
1002
{
1000
OWNER
1000
GEN
1002
}
1001
GENIUS_GENODEF_13
1002
{
1000
HIER
1070
     0
1002
}
1002
{
1000
MANEDIT
1070
     0
1002
}
1002
{
1000
NOSEL
1070
     0
1002
}
1002
{
1000
BEHIND
1070
     0
1002
}
1002
{
1000
OTHER
1070
     0
1002
}
1002
{
1000
REACTOR
1002
}
  0
LINE
  5
45FD
  8
AM_0
 10
249.6618498968615
 20
263.60364481216072
 30
0.0
 11
266.73291770872709
 21
246.53257700029519
 31
0.0
  0
LINE
  5
45FE
  8
AM_0
 10
249.0049956473691
 20
258.60364481216061
 30
0.0
 11
261.73291770872692
 21
245.87572275080299
 31
0.0
  0
ARC
  5
45FF
  8
AM_0
 10
245.46946174143639
 20
255.06811090622779
 30
0.0
 40
5.0
 50
45.0
 51
90.0
1001
GENIUS_GENOBJ-N-FIL_13
1002
{
1000
OWNER
1000
GEN
1002
}
1001
GENIUS_GENODEF_13
1002
{
1000
HIER
1070
     0
1002
}
1002
{
1000
MANEDIT
1070
     0
1002
}
1002
{
1000
NOSEL
1070
     0
1002
}
1002
{
1000
BEHIND
1070
     0
1002
}
1002
{
1000
OTHER
1070
     0
1002
}
1002
{
1000
REACTOR
1002
}
  0
LINE
  5
4600
  8
AM_0
 10
263.19738380279421
 20
242.3401888448702
 30
0.0
 11
263.19738380279438
 21
195.7960329675854
 31
0.0
  0
ARC
  5
4601
  8
AM_0
 10
258.19738380279421
 20
242.3401888448702
 30
0.0
 40
5.0
 50
0.0
 51
45.0
1001
GENIUS_GENODEF_13
1002
{
1000
HIER
1070
     0
1002
}
1002
{
1000
MANEDIT
1070
     0
1002
}
1002
{
1000
NOSEL
1070
     0
1002
}
1002
{
1000
BEHIND
1070
     0
1002
}
1002
{
1000
OTHER
1070
     0
1002
}
1002
{
1000
REACTOR
1002
}
1001
GENIUS_GENOBJ-N-FIL_13
1002
{
1000
OWNER
1000
GEN
1002
}
  0
ARC
  5
4602
  8
AM_0
 10
264.19738380279432
 20
261.06811090622801
 30
0.0
 40
4.0
 50
0.0
 51
90.0
1001
GENIUS_GENODEF_13
1002
{
1000
HIER
1070
     0
1002
}
1002
{
1000
MANEDIT
1070
     0
1002
}
1002
{
1000
NOSEL
1070
     0
1002
}
1002
{
1000
BEHIND
1070
     0
1002
}
1002
{
1000
OTHER
1070
     0
1002
}
1002
{
1000
REACTOR
1002
}
1001
GENIUS_GENOBJ-N-FIL_13
1002
{
1000
OWNER
1000
GEN
1002
}
  0
LINE
  5
4603
  8
ﾁｭｳｼﾝｾﾝ1
 10
263.1973838027958
 20
254.0681109062275
 30
0.0
 11
263.19738380279642
 21
266.0681109062275
 31
0.0
  0
LINE
  5
4604
  8
ﾁｭｳｼﾝｾﾝ1
 10
269.1973838027962
 20
260.06811090622728
 30
0.0
 11
257.19738380279608
 21
260.0681109062279
 31
0.0
  0
LINE
  5
4605
  8
AM_0
 10
168.69738380279429
 20
247.5681109062279
 30
0.0
 11
171.19738380279421
 21
247.5681109062281
 31
0.0
  0
LINE
  5
4606
  8
AM_0
 10
171.19738380279429
 20
220.5681109062281
 30
0.0
 11
168.69738380279429
 21
220.56811090622779
 31
0.0
  0
LINE
  5
4607
  8
AM_0
 10
157.7987127064483
 20
223.56811090622799
 30
0.0
 11
157.7987127064483
 21
244.5681109062277
 31
0.0
  0
LINE
  5
4608
  8
AM_0
 10
142.7987127064483
 20
242.0997359602429
 30
0.0
 11
142.7987127064483
 21
226.036485852212
 31
0.0
  0
LINE
  5
4609
  8
AM_0
 10
155.7987127064483
 20
222.06811090622799
 30
0.0
 11
155.7987127064483
 21
246.0681109062277
 31
0.0
  0
LINE
  5
460A
  8
AM_0
 10
146.2987127064483
 20
234.06811090622799
 30
0.0
 11
146.7987127064483
 21
233.56811090622799
 31
0.0
  0
LINE
  5
460B
  8
AM_0
 10
153.2987127064483
 20
245.76811090622789
 30
0.0
 11
153.2987127064483
 21
222.36811090622791
 31
0.0
  0
LINE
  5
460C
  8
AM_0
 10
163.19738380279429
 20
245.56811090622779
 30
0.0
 11
163.19738380279429
 21
222.5681109062279
 31
0.0
  0
LINE
  5
460D
  8
AM_0
 10
157.2987127064483
 20
233.36811090622601
 30
0.0
 11
157.2987127064483
 21
234.76811090622891
 31
0.0
  0
LINE
  5
460E
  8
AM_0
 10
159.39834843301921
 20
224.96811090622791
 30
0.0
 11
158.64834843302029
 21
243.16811090622801
 31
0.0
  0
LINE
  5
460F
  8
AM_0
 10
158.44738380279429
 20
224.96811090622791
 30
0.0
 11
157.7987127064483
 21
240.70919617754399
 31
0.0
  0
LINE
  5
4610
  8
AM_0
 10
159.1960763933663
 20
224.252452193864
 30
0.0
 11
158.44881634995829
 21
243.88048266739489
 31
0.0
  0
LINE
  5
4611
  8
AM_0
 10
158.64691588585629
 20
224.25573914505989
 30
0.0
 11
157.89834843302029
 21
243.91811090622801
 31
0.0
  0
LINE
  5
4612
  8
AM_0
 10
155.7987127064483
 20
246.0681109062277
 30
0.0
 11
153.59871270644831
 21
246.0681109062277
 31
0.0
  0
ARC
  5
4613
  8
AM_0
 10
167.69738380279441
 20
246.5681109062277
 30
0.0
 40
0.5
 50
269.99999999998693
 51
0.0
  0
ARC
  5
4614
  8
AM_0
 10
168.69738380279429
 20
247.0681109062279
 30
0.0
 40
0.5
 50
90.0
 51
180.0
  0
LINE
  5
4615
  8
AM_0
 10
168.19738380279429
 20
246.5681109062277
 30
0.0
 11
168.19738380279429
 21
247.0681109062279
 31
0.0
  0
LINE
  5
4616
  8
AM_0
 10
159.19738380279429
 20
243.16811090622801
 30
0.0
 11
162.69738380279429
 21
243.16811090622801
 31
0.0
  0
LINE
  5
4617
  8
AM_0
 10
168.19738380279429
 20
244.9241822276349
 30
0.0
 11
168.19738380279429
 21
235.21203958481999
 31
0.0
  0
LINE
  5
4618
  8
AM_0
 10
163.69738380279429
 20
246.0681109062277
 30
0.0
 11
167.69738380279409
 21
246.0681109062277
 31
0.0
  0
LINE
  5
4619
  8
AM_0
 10
167.69738380279429
 20
245.4241822276349
 30
0.0
 11
163.19738380279429
 21
245.4241822276349
 31
0.0
  0
ARC
  5
461A
  8
AM_0
 10
167.69738380279441
 20
244.9241822276349
 30
0.0
 40
0.5
 50
0.0
 51
90.0
  0
ARC
  5
461B
  8
AM_0
 10
162.69738380279429
 20
243.66811090622789
 30
0.0
 40
0.5
 50
270.0
 51
0.0
  0
ARC
  5
461C
  8
AM_0
 10
163.69738380279429
 20
245.56811090622779
 30
0.0
 40
0.5
 50
90.0
 51
180.0
  0
LINE
  5
461D
  8
AM_0
 10
167.69738380279429
 20
234.71203958481999
 30
0.0
 11
163.19738380279429
 21
234.71203958481999
 31
0.0
  0
ARC
  5
461E
  8
AM_0
 10
167.69738380279429
 20
235.21203958481991
 30
0.0
 40
0.5
 50
270.0
 51
0.0
  0
LINE
  5
461F
  8
AM_0
 10
157.2987127064483
 20
240.2132816585198
 30
0.0
 11
157.2987127064483
 21
239.04103847208691
 31
0.0
  0
LINE
  5
4620
  8
AM_0
 10
158.72508086144521
 20
243.16811090622801
 30
0.0
 11
159.19738380279429
 21
243.16811090622801
 31
0.0
  0
LINE
  5
4621
  8
AM_0
 10
158.62848836690611
 20
243.2422286729645
 30
0.0
 11
158.64834843302029
 21
243.16811090622801
 31
0.0
  0
ARC
  5
4622
  8
AM_0
 10
158.72508086144521
 20
243.26811090622789
 30
0.0
 40
0.1000000000000346
 50
195.00019500644461
 51
270.0
  0
ARC
  5
4623
  8
AM_0
 10
156.9987127064484
 20
243.3549438867359
 30
0.0
 40
0.3000000000000043
 50
270.0
 51
0.0
  0
LINE
  5
4624
  8
AM_0
 10
155.7987127064483
 20
245.46811090622791
 30
0.0
 11
157.0186684096054
 21
245.38678052601691
 31
0.0
  0
LINE
  5
4625
  8
AM_0
 10
155.7987127064483
 20
244.31185887038791
 30
0.0
 11
156.99871270644829
 21
244.31185887038791
 31
0.0
  0
LINE
  5
4626
  8
AM_0
 10
157.2987127064483
 20
245.0681109062279
 30
0.0
 11
155.7987127064483
 21
245.0681109062279
 31
0.0
  0
ARC
  5
4627
  8
AM_0
 10
157.2987127064483
 20
244.5681109062277
 30
0.0
 40
0.5
 50
0.0
 51
90.0
  0
LINE
  5
4628
  8
AM_0
 10
157.2987127064483
 20
245.0874449786597
 30
0.0
 11
157.2987127064483
 21
245.0681109062279
 31
0.0
  0
ARC
  5
4629
  8
AM_0
 10
156.9987127064484
 20
245.0874449786597
 30
0.0
 40
0.3000000000000007
 50
0.0
 51
86.185925165715304
  0
LINE
  5
462A
  8
AM_0
 10
158.37065137436929
 20
243.91811090622801
 30
0.0
 11
158.44738380279529
 21
243.91811090622801
 31
0.0
  0
LINE
  5
462B
  8
AM_0
 10
158.44738380279529
 20
243.91811090622801
 30
0.0
 11
158.46724386890841
 21
243.8439931394916
 31
0.0
  0
LINE
  5
462C
  8
AM_0
 10
157.8784883669062
 20
243.8439931394916
 30
0.0
 11
157.89834843302029
 21
243.91811090622801
 31
0.0
  0
LINE
  5
462D
  8
AM_0
 10
157.89834843302029
 20
243.91811090622801
 30
0.0
 11
157.97508086144521
 21
243.91811090622801
 31
0.0
  0
LINE
  5
462E
  8
AM_0
 10
158.46724386890841
 20
243.8439931394916
 30
0.0
 11
158.62848836690611
 21
243.2422286729645
 31
0.0
  0
LINE
  5
462F
  8
AM_0
 10
157.97508086144521
 20
243.91811090622801
 30
0.0
 11
158.37065137436929
 21
243.91811090622801
 31
0.0
  0
LINE
  5
4630
  8
AM_0
 10
157.79871270644929
 20
243.54627037466699
 30
0.0
 11
157.8784883669062
 21
243.8439931394916
 31
0.0
  0
ARC
  5
4631
  8
AM_0
 10
158.37065137436929
 20
243.81811090622779
 30
0.0
 40
0.0999999999999866
 50
15.00019500656942
 51
90.0
  0
ARC
  5
4632
  8
AM_0
 10
157.97508086144521
 20
243.81811090622779
 30
0.0
 40
0.1000000000000014
 50
90.0
 51
164.99980499343059
  0
LINE
  5
4633
  8
AM_0
 10
157.2987127064483
 20
244.01185887038801
 30
0.0
 11
157.2987127064483
 21
243.3549438867359
 31
0.0
  0
ARC
  5
4634
  8
AM_0
 10
156.9987127064484
 20
244.01185887038781
 30
0.0
 40
0.3000000000000007
 50
0.0
 51
90.0
  0
LINE
  5
4635
  8
AM_0
 10
155.7987127064483
 20
240.51328165851999
 30
0.0
 11
156.99871270644829
 21
240.51328165851999
 31
0.0
  0
LINE
  5
4636
  8
AM_0
 10
156.99871270644829
 20
243.05494388673591
 30
0.0
 11
155.7987127064483
 21
243.05494388673591
 31
0.0
  0
LINE
  5
4637
  8
AM_0
 10
158.64834843302029
 20
243.16811090622801
 30
0.0
 11
158.72508086144521
 21
243.16811090622801
 31
0.0
  0
ARC
  5
4638
  8
AM_0
 10
156.99871270644829
 20
240.2132816585198
 30
0.0
 40
0.3000000000000007
 50
0.0
 51
90.0
  0
LINE
  5
4639
  8
AM_0
 10
156.99871270644829
 20
238.74103847208701
 30
0.0
 11
155.7987127064483
 21
238.74103847208701
 31
0.0
  0
ARC
  5
463A
  8
AM_0
 10
156.99871270644829
 20
239.04103847208691
 30
0.0
 40
0.3000000000000043
 50
270.0
 51
0.0
  0
LINE
  5
463B
  8
AM_0
 10
156.99871270644829
 20
235.06811090622901
 30
0.0
 11
155.7987127064483
 21
235.06811090622901
 31
0.0
  0
ARC
  5
463C
  8
AM_0
 10
156.99871270644829
 20
234.76811090622891
 30
0.0
 40
0.3000000000000007
 50
0.0
 51
90.0
  0
LINE
  5
463D
  8
AM_0
 10
146.7987127064483
 20
244.20139073487499
 30
0.0
 11
153.2987127064483
 21
244.20139073487499
 31
0.0
  0
LINE
  5
463E
  8
AM_0
 10
146.7987127064483
 20
244.70139073487499
 30
0.0
 11
153.2987127064483
 21
244.70139073487499
 31
0.0
  0
LINE
  5
463F
  8
AM_0
 10
153.2987127064483
 20
234.56811090622799
 30
0.0
 11
146.7987127064483
 21
234.56811090622799
 31
0.0
  0
LINE
  5
4640
  8
AM_0
 10
146.2987127064483
 20
235.0681109062279
 30
0.0
 11
153.2987127064483
 21
235.0681109062279
 31
0.0
  0
LINE
  5
4641
  8
AM_0
 10
152.99871270644829
 20
245.0681109062279
 30
0.0
 11
146.1607626416303
 21
245.0681109062279
 31
0.0
  0
LINE
  5
4642
  8
AM_0
 10
153.2987127064483
 20
235.4147989747689
 30
0.0
 11
146.7987127064483
 21
235.4147989747689
 31
0.0
  0
LINE
  5
4643
  8
AM_0
 10
153.2987127064483
 20
243.72142283768699
 30
0.0
 11
146.7987127064483
 21
243.72142283768699
 31
0.0
  0
ARC
  5
4644
  8
AM_0
 10
153.59871270644831
 20
245.76811090622789
 30
0.0
 40
0.2999999999999971
 50
90.0
 51
180.0
  0
ARC
  5
4645
  8
AM_0
 10
152.9987127064484
 20
245.36811090622791
 30
0.0
 40
0.2999999999999971
 50
270.0
 51
0.0
  0
ARC
  5
4646
  8
AM_0
 10
154.9237127064483
 20
239.56811090622779
 30
0.0
 40
9.124999999999984
 50
152.92493329272219
 51
207.07506670727781
  0
LINE
  5
4647
  8
AM_0
 10
145.52057824196581
 20
244.8363321858254
 30
0.0
 11
143.15852830678381
 21
242.86795723984039
 31
0.0
  0
LINE
  5
4648
  8
AM_0
 10
146.2987127064483
 20
244.4896783227199
 30
0.0
 11
146.7987127064483
 21
245.0681109062279
 31
0.0
  0
ARC
  5
4649
  8
AM_0
 10
146.1607626416303
 20
244.0681109062277
 30
0.0
 40
1.0
 50
90.0
 51
129.805571092256
  0
LINE
  5
464A
  8
AM_0
 10
146.7987127064483
 20
244.70139073487499
 30
0.0
 11
146.2987127064483
 21
244.4896783227199
 31
0.0
  0
LINE
  5
464B
  8
AM_0
 10
146.2987127064483
 20
244.0274030497489
 30
0.0
 11
146.7987127064483
 21
244.70139073487499
 31
0.0
  0
LINE
  5
464C
  8
AM_0
 10
146.7987127064483
 20
244.20139073487499
 30
0.0
 11
146.2987127064483
 21
244.0274030497489
 31
0.0
  0
LINE
  5
464D
  8
AM_0
 10
146.2987127064483
 20
243.4896783227199
 30
0.0
 11
146.7987127064483
 21
244.20139073487499
 31
0.0
  0
LINE
  5
464E
  8
AM_0
 10
146.7987127064483
 20
243.72142283768699
 30
0.0
 11
146.2987127064483
 21
243.4896783227199
 31
0.0
  0
ARC
  5
464F
  8
AM_0
 10
143.7987127064483
 20
242.0997359602429
 30
0.0
 40
1.0000000000000291
 50
129.80557109226311
 51
180.0
  0
LINE
  5
4650
  8
AM_0
 10
146.7987127064483
 20
234.56811090622799
 30
0.0
 11
146.2987127064483
 21
234.06811090622799
 31
0.0
  0
LINE
  5
4651
  8
AM_0
 10
146.2987127064483
 20
235.0681109062279
 30
0.0
 11
146.7987127064483
 21
234.56811090622799
 31
0.0
  0
LINE
  5
4652
  8
AM_0
 10
146.7987127064483
 20
235.4147989747689
 30
0.0
 11
146.2987127064483
 21
235.0681109062279
 31
0.0
  0
LINE
  5
4653
  8
AM_0
 10
153.59871270644831
 20
222.06811090622799
 30
0.0
 11
155.7987127064483
 21
222.06811090622799
 31
0.0
  0
ARC
  5
4654
  8
AM_0
 10
167.69738380279429
 20
221.5681109062277
 30
0.0
 40
0.5
 50
0.0
 51
90.000000000009777
  0
LINE
  5
4655
  8
AM_0
 10
162.69738380279429
 20
224.96811090622791
 30
0.0
 11
159.47508086144521
 21
224.96811090622791
 31
0.0
  0
LINE
  5
4656
  8
AM_0
 10
168.19738380279429
 20
232.9241822276349
 30
0.0
 11
168.19738380279429
 21
223.21203958481991
 31
0.0
  0
LINE
  5
4657
  8
AM_0
 10
163.19738380279429
 20
233.4241822276349
 30
0.0
 11
167.69738380279429
 21
233.4241822276349
 31
0.0
  0
ARC
  5
4658
  8
AM_0
 10
167.69738380279429
 20
232.9241822276349
 30
0.0
 40
0.5
 50
0.0
 51
90.0
  0
LINE
  5
4659
  8
AM_0
 10
163.19738380279429
 20
222.71203958481991
 30
0.0
 11
167.69738380279429
 21
222.71203958481991
 31
0.0
  0
LINE
  5
465A
  8
AM_0
 10
167.69738380279409
 20
222.0681109062279
 30
0.0
 11
163.69738380279429
 21
222.0681109062279
 31
0.0
  0
ARC
  5
465B
  8
AM_0
 10
167.69738380279429
 20
223.21203958481991
 30
0.0
 40
0.5
 50
270.0
 51
0.0
  0
ARC
  5
465C
  8
AM_0
 10
162.69738380279429
 20
224.46811090622799
 30
0.0
 40
0.5
 50
0.0
 51
90.0
  0
ARC
  5
465D
  8
AM_0
 10
163.69738380279429
 20
222.5681109062279
 30
0.0
 40
0.5
 50
180.0
 51
270.0
  0
ARC
  5
465E
  8
AM_0
 10
156.99871270644829
 20
227.92294015393591
 30
0.0
 40
0.3000000000000114
 50
270.0
 51
0.0
  0
LINE
  5
465F
  8
AM_0
 10
155.7987127064483
 20
233.06811090622591
 30
0.0
 11
156.99871270644829
 21
233.06811090622591
 31
0.0
  0
ARC
  5
4660
  8
AM_0
 10
156.99871270644829
 20
233.36811090622589
 30
0.0
 40
0.2999999999999971
 50
270.0
 51
0.0
  0
LINE
  5
4661
  8
AM_0
 10
155.7987127064483
 20
229.3951833403689
 30
0.0
 11
156.99871270644829
 21
229.3951833403689
 31
0.0
  0
ARC
  5
4662
  8
AM_0
 10
156.99871270644829
 20
229.09518334036881
 30
0.0
 40
0.3000000000000007
 50
0.0
 51
90.0
  0
LINE
  5
4663
  8
AM_0
 10
157.2987127064483
 20
229.095183340369
 30
0.0
 11
157.2987127064483
 21
227.922940153936
 31
0.0
  0
LINE
  5
4664
  8
AM_0
 10
158.72508086144521
 20
224.21811090622791
 30
0.0
 11
159.12065137436929
 21
224.21811090622791
 31
0.0
  0
LINE
  5
4665
  8
AM_0
 10
158.72508086144521
 20
224.21811090622791
 30
0.0
 11
159.12065137436929
 21
224.21811090622791
 31
0.0
  0
LINE
  5
4666
  8
AM_0
 10
159.21724386890841
 20
224.29222867296451
 30
0.0
 11
159.3784883669062
 21
224.8939931394915
 31
0.0
  0
LINE
  5
4667
  8
AM_0
 10
159.21724386890841
 20
224.29222867296451
 30
0.0
 11
159.3784883669062
 21
224.8939931394915
 31
0.0
  0
ARC
  5
4668
  8
AM_0
 10
159.47508086144521
 20
224.86811090622791
 30
0.0
 40
0.0999999999999943
 50
90.0
 51
164.9998049934843
  0
ARC
  5
4669
  8
AM_0
 10
159.12065137436929
 20
224.3181109062279
 30
0.0
 40
0.0999999999999943
 50
270.0
 51
344.99980499349448
  0
LINE
  5
466A
  8
AM_0
 10
157.7978661179072
 20
224.59311090622771
 30
0.0
 11
157.8784883669062
 21
224.8939931394915
 31
0.0
  0
LINE
  5
466B
  8
AM_0
 10
158.45009445500031
 20
224.92884637312989
 30
0.0
 11
158.6284883669062
 21
224.29222867296451
 31
0.0
  0
LINE
  5
466C
  8
AM_0
 10
158.46724386890841
 20
224.8939931394915
 30
0.0
 11
158.6284883669062
 21
224.29222867296451
 31
0.0
  0
LINE
  5
466D
  8
AM_0
 10
157.2987127064483
 20
224.781277925719
 30
0.0
 11
157.2987127064483
 21
224.1243629420679
 31
0.0
  0
LINE
  5
466E
  8
AM_0
 10
157.7987127064483
 20
224.59627037466589
 30
0.0
 11
157.8784883669062
 21
224.8939931394915
 31
0.0
  0
LINE
  5
466F
  8
AM_0
 10
155.7987127064483
 20
225.08127792571901
 30
0.0
 11
156.99871270644829
 21
225.08127792571901
 31
0.0
  0
LINE
  5
4670
  8
AM_0
 10
156.99871270644829
 20
227.6229401539359
 30
0.0
 11
155.7987127064483
 21
227.62294015393491
 31
0.0
  0
LINE
  5
4671
  8
AM_0
 10
158.40328363988431
 20
224.96811090622791
 30
0.0
 11
158.45009445500031
 21
224.92884637312989
 31
0.0
  0
LINE
  5
4672
  8
AM_0
 10
157.97508086144521
 20
224.96811090622791
 30
0.0
 11
158.40328363988431
 21
224.96811090622791
 31
0.0
  0
LINE
  5
4673
  8
AM_0
 10
157.97508086144521
 20
224.96811090622791
 30
0.0
 11
158.37065137436929
 21
224.96811090622791
 31
0.0
  0
ARC
  5
4674
  8
AM_0
 10
157.97508086144521
 20
224.86811090622791
 30
0.0
 40
0.0999999999999943
 50
90.0
 51
164.9998049934843
  0
ARC
  5
4675
  8
AM_0
 10
158.37065137436929
 20
224.86811090622791
 30
0.0
 40
0.0999999999999608
 50
15.00019500651571
 51
90.0
  0
ARC
  5
4676
  8
AM_0
 10
156.99871270644829
 20
224.78127792571891
 30
0.0
 40
0.3000000000000007
 50
0.0
 51
90.0
  0
LINE
  5
4677
  8
AM_0
 10
155.7987127064483
 20
223.06811090622799
 30
0.0
 11
157.2987127064483
 21
223.06811090622799
 31
0.0
  0
LINE
  5
4678
  8
AM_0
 10
156.99871270644829
 20
223.82436294206801
 30
0.0
 11
155.7987127064483
 21
223.82436294206801
 31
0.0
  0
LINE
  5
4679
  8
AM_0
 10
157.0186684096054
 20
222.7494412864379
 30
0.0
 11
155.7987127064483
 21
222.66811090622801
 31
0.0
  0
ARC
  5
467A
  8
AM_0
 10
157.2987127064483
 20
223.5681109062277
 30
0.0
 40
0.5
 50
270.0
 51
0.0
  0
ARC
  5
467B
  8
AM_0
 10
158.72508086144521
 20
224.3181109062279
 30
0.0
 40
0.0999999999999606
 50
195.00019500650541
 51
270.0
  0
ARC
  5
467C
  8
AM_0
 10
156.99871270644829
 20
224.1243629420679
 30
0.0
 40
0.2999999999999971
 50
270.0
 51
0.0
  0
LINE
  5
467D
  8
AM_0
 10
157.2987127064483
 20
223.06811090622799
 30
0.0
 11
157.2987127064483
 21
223.0487768337949
 31
0.0
  0
ARC
  5
467E
  8
AM_0
 10
156.99871270644829
 20
223.0487768337949
 30
0.0
 40
0.3000000000000043
 50
273.81407483428472
 51
0.0
  0
ARC
  5
467F
  8
AM_0
 10
168.69738380279429
 20
221.0681109062277
 30
0.0
 40
0.5
 50
180.0
 51
270.0
  0
LINE
  5
4680
  8
AM_0
 10
168.19738380279429
 20
221.0681109062277
 30
0.0
 11
168.19738380279429
 21
221.5681109062277
 31
0.0
  0
LINE
  5
4681
  8
AM_0
 10
146.7987127064483
 20
224.4147989747689
 30
0.0
 11
153.2987127064483
 21
224.4147989747689
 31
0.0
  0
LINE
  5
4682
  8
AM_0
 10
146.7987127064483
 20
232.7214228376869
 30
0.0
 11
153.2987127064483
 21
232.7214228376869
 31
0.0
  0
LINE
  5
4683
  8
AM_0
 10
146.1607626416303
 20
223.06811090622799
 30
0.0
 11
152.99871270644829
 21
223.06811090622799
 31
0.0
  0
LINE
  5
4684
  8
AM_0
 10
153.2987127064483
 20
233.0681109062279
 30
0.0
 11
146.2987127064483
 21
233.0681109062279
 31
0.0
  0
LINE
  5
4685
  8
AM_0
 10
146.7987127064483
 20
233.56811090622799
 30
0.0
 11
153.2987127064483
 21
233.56811090622799
 31
0.0
  0
LINE
  5
4686
  8
AM_0
 10
153.2987127064483
 20
223.4348310775799
 30
0.0
 11
146.7987127064483
 21
223.4348310775799
 31
0.0
  0
LINE
  5
4687
  8
AM_0
 10
153.2987127064483
 20
223.9348310775799
 30
0.0
 11
146.7987127064483
 21
223.9348310775799
 31
0.0
  0
ARC
  5
4688
  8
AM_0
 10
152.99871270644829
 20
222.76811090622789
 30
0.0
 40
0.3000000000000043
 50
0.0
 51
90.0
  0
ARC
  5
4689
  8
AM_0
 10
153.59871270644831
 20
222.36811090622791
 30
0.0
 40
0.2999999999999971
 50
180.0
 51
270.0
  0
ARC
  5
468A
  8
AM_0
 10
154.9237127064483
 20
228.5681109062279
 30
0.0
 40
9.124999999999984
 50
152.92493329272219
 51
207.07506670727781
  0
LINE
  5
468B
  8
AM_0
 10
146.2987127064483
 20
233.0681109062279
 30
0.0
 11
146.7987127064483
 21
232.7214228376869
 31
0.0
  0
LINE
  5
468C
  8
AM_0
 10
146.7987127064483
 20
233.56811090622799
 30
0.0
 11
146.2987127064483
 21
233.0681109062279
 31
0.0
  0
LINE
  5
468D
  8
AM_0
 10
143.15852830678381
 20
225.2682645726145
 30
0.0
 11
145.52057824196581
 21
223.29988962663049
 31
0.0
  0
LINE
  5
468E
  8
AM_0
 10
146.7987127064483
 20
223.06811090622799
 30
0.0
 11
146.2987127064483
 21
223.646543489735
 31
0.0
  0
ARC
  5
468F
  8
AM_0
 10
146.1607626416303
 20
224.0681109062279
 30
0.0
 40
1.0000000000000411
 50
230.19442890774391
 51
270.0
  0
LINE
  5
4690
  8
AM_0
 10
146.2987127064483
 20
224.646543489735
 30
0.0
 11
146.7987127064483
 21
224.4147989747689
 31
0.0
  0
LINE
  5
4691
  8
AM_0
 10
146.7987127064483
 20
223.9348310775799
 30
0.0
 11
146.2987127064483
 21
224.646543489735
 31
0.0
  0
LINE
  5
4692
  8
AM_0
 10
146.2987127064483
 20
224.10881876270699
 30
0.0
 11
146.7987127064483
 21
223.9348310775799
 31
0.0
  0
LINE
  5
4693
  8
AM_0
 10
146.7987127064483
 20
223.4348310775799
 30
0.0
 11
146.2987127064483
 21
224.10881876270699
 31
0.0
  0
LINE
  5
4694
  8
AM_0
 10
146.2987127064483
 20
223.646543489735
 30
0.0
 11
146.7987127064483
 21
223.4348310775799
 31
0.0
  0
ARC
  5
4695
  8
AM_0
 10
143.7987127064483
 20
226.036485852212
 30
0.0
 40
1.0
 50
180.0
 51
230.19442890773689
  0
CIRCLE
  5
4696
  8
AM_0
 10
177.19738380279259
 20
260.06811090622762
 30
0.0
 40
4.0
  0
LINE
  5
4697
  8
AM_0
 10
176.88588380279259
 20
257.78930250050308
 30
0.0
 11
177.50888380279261
 21
257.78930250050308
 31
0.0
  0
LINE
  5
4698
  8
AM_0
 10
176.88588380279259
 20
262.34691931195192
 30
0.0
 11
177.50888380279261
 21
262.34691931195192
 31
0.0
  0
LINE
  5
4699
  8
AM_0
 10
176.88588380279259
 20
257.78930250050308
 30
0.0
 11
176.88588380279259
 21
259.75661090622759
 31
0.0
  0
LINE
  5
469A
  8
AM_0
 10
176.88588380279259
 20
260.37961090622758
 30
0.0
 11
176.88588380279259
 21
262.34691931195192
 31
0.0
  0
LINE
  5
469B
  8
AM_0
 10
176.88588380279259
 20
260.37961090622758
 30
0.0
 11
174.91857539706811
 21
260.37961090622758
 31
0.0
  0
LINE
  5
469C
  8
AM_0
 10
176.88588380279259
 20
259.75661090622759
 30
0.0
 11
174.91857539706811
 21
259.75661090622759
 31
0.0
  0
LINE
  5
469D
  8
AM_0
 10
174.91857539706811
 20
260.37961090622758
 30
0.0
 11
174.91857539706811
 21
259.75661090622759
 31
0.0
  0
LINE
  5
469E
  8
AM_0
 10
177.50888380279261
 20
257.78930250050308
 30
0.0
 11
177.50888380279261
 21
259.75661090622759
 31
0.0
  0
LINE
  5
469F
  8
AM_0
 10
177.50888380279261
 20
260.37961090622758
 30
0.0
 11
177.50888380279261
 21
262.34691931195192
 31
0.0
  0
LINE
  5
46A0
  8
AM_0
 10
179.47619220851701
 20
259.75661090622759
 30
0.0
 11
177.50888380279261
 21
259.75661090622759
 31
0.0
  0
LINE
  5
46A1
  8
AM_0
 10
179.47619220851701
 20
260.37961090622758
 30
0.0
 11
177.50888380279261
 21
260.37961090622758
 31
0.0
  0
LINE
  5
46A2
  8
AM_0
 10
179.47619220851701
 20
260.37961090622758
 30
0.0
 11
179.47619220851701
 21
259.75661090622759
 31
0.0
  0
CIRCLE
  5
46A3
  8
AM_0
 10
263.1973838027962
 20
260.0681109062275
 30
0.0
 40
4.0
  0
LINE
  5
46A4
  8
AM_0
 10
262.88588380279617
 20
257.78930250050308
 30
0.0
 11
263.50888380279628
 21
257.78930250050308
 31
0.0
  0
LINE
  5
46A5
  8
AM_0
 10
262.88588380279617
 20
262.34691931195192
 30
0.0
 11
263.50888380279628
 21
262.34691931195192
 31
0.0
  0
LINE
  5
46A6
  8
AM_0
 10
262.88588380279617
 20
257.78930250050308
 30
0.0
 11
262.88588380279617
 21
259.75661090622759
 31
0.0
  0
LINE
  5
46A7
  8
AM_0
 10
262.88588380279617
 20
260.37961090622758
 30
0.0
 11
262.88588380279617
 21
262.34691931195192
 31
0.0
  0
LINE
  5
46A8
  8
AM_0
 10
262.88588380279617
 20
260.37961090622758
 30
0.0
 11
260.91857539707178
 21
260.37961090622758
 31
0.0
  0
LINE
  5
46A9
  8
AM_0
 10
262.88588380279617
 20
259.75661090622759
 30
0.0
 11
260.91857539707178
 21
259.75661090622759
 31
0.0
  0
LINE
  5
46AA
  8
AM_0
 10
260.91857539707178
 20
260.37961090622758
 30
0.0
 11
260.91857539707178
 21
259.75661090622759
 31
0.0
  0
LINE
  5
46AB
  8
AM_0
 10
263.50888380279628
 20
257.78930250050308
 30
0.0
 11
263.50888380279628
 21
259.75661090622759
 31
0.0
  0
LINE
  5
46AC
  8
AM_0
 10
263.50888380279628
 20
260.37961090622758
 30
0.0
 11
263.50888380279628
 21
262.34691931195192
 31
0.0
  0
LINE
  5
46AD
  8
AM_0
 10
265.4761922085205
 20
259.75661090622759
 30
0.0
 11
263.50888380279628
 21
259.75661090622759
 31
0.0
  0
LINE
  5
46AE
  8
AM_0
 10
265.4761922085205
 20
260.37961090622758
 30
0.0
 11
263.50888380279628
 21
260.37961090622758
 31
0.0
  0
LINE
  5
46AF
  8
AM_0
 10
265.4761922085205
 20
260.37961090622758
 30
0.0
 11
265.4761922085205
 21
259.75661090622759
 31
0.0
  0
LINE
  5
46B0
  8
AM_0
 10
190.7329177087272
 20
263.60364481216072
 30
0.0
 11
173.66184989686161
 21
246.53257700029539
 31
0.0
  0
LINE
  5
46B1
  8
AM_0
 10
191.38977195821951
 20
258.60364481216072
 30
0.0
 11
178.6618498968615
 21
245.87572275080279
 31
0.0
  0
ARC
  5
46B2
  8
AM_0
 10
182.19738380279421
 20
242.34018884487011
 30
0.0
 40
5.0
 50
135.0
 51
180.0
1001
GENIUS_GENOBJ-N-FIL_13
1002
{
1000
OWNER
1000
GEN
1002
}
1001
GENIUS_GENODEF_13
1002
{
1000
HIER
1070
     0
1002
}
1002
{
1000
MANEDIT
1070
     0
1002
}
1002
{
1000
NOSEL
1070
     0
1002
}
1002
{
1000
BEHIND
1070
     0
1002
}
1002
{
1000
OTHER
1070
     0
1002
}
1002
{
1000
REACTOR
1002
}
  0
LINE
  5
46B3
  8
AM_0
 10
249.6618498968615
 20
174.53257700029491
 30
0.0
 11
266.7329177087272
 21
191.6036448121605
 31
0.0
  0
ARC
  5
46B4
  8
AM_0
 10
246.12631599092899
 20
178.06811090622779
 30
0.0
 40
5.0
 50
270.0
 51
315.0
1001
GENIUS_GENODEF_13
1002
{
1000
HIER
1070
     0
1002
}
1002
{
1000
MANEDIT
1070
     0
1002
}
1002
{
1000
NOSEL
1070
     0
1002
}
1002
{
1000
BEHIND
1070
     0
1002
}
1002
{
1000
OTHER
1070
     0
1002
}
1002
{
1000
REACTOR
1002
}
1001
GENIUS_GENOBJ-N-FIL_13
1002
{
1000
OWNER
1000
GEN
1002
}
  0
LINE
  5
46B5
  8
AM_0
 10
249.0049956473693
 20
179.53257700029491
 30
0.0
 11
261.73291770872709
 21
192.26049906165269
 31
0.0
  0
ARC
  5
46B6
  8
AM_0
 10
258.19738380279438
 20
195.7960329675854
 30
0.0
 40
5.0
 50
315.0
 51
0.0
1001
GENIUS_GENOBJ-N-FIL_13
1002
{
1000
OWNER
1000
GEN
1002
}
1001
GENIUS_GENODEF_13
1002
{
1000
HIER
1070
     0
1002
}
1002
{
1000
MANEDIT
1070
     0
1002
}
1002
{
1000
NOSEL
1070
     0
1002
}
1002
{
1000
BEHIND
1070
     0
1002
}
1002
{
1000
OTHER
1070
     0
1002
}
1002
{
1000
REACTOR
1002
}
  0
LINE
  5
46B7
  8
AM_0
 10
190.732917708727
 20
174.53257700029491
 30
0.0
 11
173.66184989686161
 21
191.6036448121603
 31
0.0
  0
LINE
  5
46B8
  8
AM_0
 10
191.38977195821931
 20
179.53257700029511
 30
0.0
 11
178.6618498968615
 21
192.26049906165269
 31
0.0
  0
ARC
  5
46B9
  8
AM_0
 10
194.92530586415199
 20
183.0681109062277
 30
0.0
 40
5.0
 50
225.0
 51
270.0
1001
GENIUS_GENOBJ-N-FIL_13
1002
{
1000
OWNER
1000
GEN
1002
}
1001
GENIUS_GENODEF_13
1002
{
1000
HIER
1070
     0
1002
}
1002
{
1000
MANEDIT
1070
     0
1002
}
1002
{
1000
NOSEL
1070
     0
1002
}
1002
{
1000
BEHIND
1070
     0
1002
}
1002
{
1000
OTHER
1070
     0
1002
}
1002
{
1000
REACTOR
1002
}
  0
CIRCLE
  5
46BA
  8
AM_0
 10
177.1973838027925
 20
178.06811090622821
 30
0.0
 40
4.0
  0
LINE
  5
46BB
  8
AM_0
 10
176.88588380279251
 20
180.34691931195249
 30
0.0
 11
177.5088838027925
 21
180.34691931195249
 31
0.0
  0
LINE
  5
46BC
  8
AM_0
 10
176.88588380279251
 20
175.78930250050379
 30
0.0
 11
177.5088838027925
 21
175.78930250050379
 31
0.0
  0
LINE
  5
46BD
  8
AM_0
 10
176.88588380279251
 20
180.34691931195249
 30
0.0
 11
176.88588380279251
 21
178.37961090622809
 31
0.0
  0
LINE
  5
46BE
  8
AM_0
 10
176.88588380279251
 20
177.7566109062281
 30
0.0
 11
176.88588380279251
 21
175.78930250050379
 31
0.0
  0
LINE
  5
46BF
  8
AM_0
 10
176.88588380279251
 20
177.7566109062281
 30
0.0
 11
174.91857539706811
 21
177.7566109062281
 31
0.0
  0
LINE
  5
46C0
  8
AM_0
 10
176.88588380279251
 20
178.37961090622809
 30
0.0
 11
174.91857539706811
 21
178.37961090622809
 31
0.0
  0
LINE
  5
46C1
  8
AM_0
 10
174.91857539706811
 20
177.7566109062281
 30
0.0
 11
174.91857539706811
 21
178.37961090622809
 31
0.0
  0
LINE
  5
46C2
  8
AM_0
 10
177.5088838027925
 20
180.34691931195249
 30
0.0
 11
177.5088838027925
 21
178.37961090622809
 31
0.0
  0
LINE
  5
46C3
  8
AM_0
 10
177.5088838027925
 20
177.7566109062281
 30
0.0
 11
177.5088838027925
 21
175.78930250050379
 31
0.0
  0
LINE
  5
46C4
  8
AM_0
 10
179.47619220851681
 20
178.37961090622809
 30
0.0
 11
177.5088838027925
 21
178.37961090622809
 31
0.0
  0
LINE
  5
46C5
  8
AM_0
 10
179.47619220851681
 20
177.7566109062281
 30
0.0
 11
177.5088838027925
 21
177.7566109062281
 31
0.0
  0
LINE
  5
46C6
  8
AM_0
 10
179.47619220851681
 20
177.7566109062281
 30
0.0
 11
179.47619220851681
 21
178.37961090622809
 31
0.0
  0
CIRCLE
  5
46C7
  8
AM_0
 10
263.19738380279603
 20
178.06811090622799
 30
0.0
 40
4.0
  0
LINE
  5
46C8
  8
AM_0
 10
262.885883802796
 20
180.34691931195229
 30
0.0
 11
263.50888380279599
 21
180.34691931195229
 31
0.0
  0
LINE
  5
46C9
  8
AM_0
 10
262.885883802796
 20
175.78930250050351
 30
0.0
 11
263.50888380279599
 21
175.78930250050351
 31
0.0
  0
LINE
  5
46CA
  8
AM_0
 10
262.885883802796
 20
180.34691931195229
 30
0.0
 11
262.885883802796
 21
178.3796109062279
 31
0.0
  0
LINE
  5
46CB
  8
AM_0
 10
262.885883802796
 20
177.75661090622799
 30
0.0
 11
262.885883802796
 21
175.78930250050351
 31
0.0
  0
LINE
  5
46CC
  8
AM_0
 10
262.885883802796
 20
177.75661090622799
 30
0.0
 11
260.91857539707172
 21
177.75661090622799
 31
0.0
  0
LINE
  5
46CD
  8
AM_0
 10
262.885883802796
 20
178.3796109062279
 30
0.0
 11
260.91857539707172
 21
178.3796109062279
 31
0.0
  0
LINE
  5
46CE
  8
AM_0
 10
260.91857539707172
 20
177.75661090622799
 30
0.0
 11
260.91857539707172
 21
178.3796109062279
 31
0.0
  0
LINE
  5
46CF
  8
AM_0
 10
263.50888380279599
 20
180.34691931195229
 30
0.0
 11
263.50888380279599
 21
178.3796109062279
 31
0.0
  0
LINE
  5
46D0
  8
AM_0
 10
263.50888380279599
 20
177.75661090622799
 30
0.0
 11
263.50888380279599
 21
175.78930250050351
 31
0.0
  0
LINE
  5
46D1
  8
AM_0
 10
265.47619220852039
 20
178.3796109062279
 30
0.0
 11
263.50888380279599
 21
178.3796109062279
 31
0.0
  0
LINE
  5
46D2
  8
AM_0
 10
265.47619220852039
 20
177.75661090622799
 30
0.0
 11
263.50888380279599
 21
177.75661090622799
 31
0.0
  0
LINE
  5
46D3
  8
AM_0
 10
265.47619220852039
 20
177.75661090622799
 30
0.0
 11
265.47619220852039
 21
178.3796109062279
 31
0.0
  0
LINE
  5
46D4
  8
AM_0
 10
172.19738380279421
 20
188.06811090622779
 30
0.0
 11
171.19738380279429
 21
188.06811090622779
 31
0.0
  0
LINE
  5
46D5
  8
AM_0
 10
172.19738380279421
 20
250.06811090622779
 30
0.0
 11
171.19738380279429
 21
250.06811090622779
 31
0.0
  0
LINE
  5
46D6
  8
AM_0
 10
171.19738380279429
 20
188.06811090622779
 30
0.0
 11
171.19738380279429
 21
250.06811090622779
 31
0.0
  0
LINE
  5
46D7
  8
ﾁｭｳｼﾝｾﾝ1
 10
177.1973838027923
 20
254.06811090622759
 30
0.0
 11
177.1973838027929
 21
266.06811090622762
 31
0.0
  0
LINE
  5
46D8
  8
ﾁｭｳｼﾝｾﾝ1
 10
183.1973838027925
 20
260.06811090622739
 30
0.0
 11
171.19738380279259
 21
260.0681109062279
 31
0.0
  0
LINE
  5
46D9
  8
ﾁｭｳｼﾝｾﾝ1
 10
177.1973838027921
 20
172.0681109062281
 30
0.0
 11
177.19738380279281
 21
184.06811090622821
 31
0.0
  0
LINE
  5
46DA
  8
ﾁｭｳｼﾝｾﾝ1
 10
183.1973838027925
 20
178.0681109062279
 30
0.0
 11
171.1973838027925
 21
178.0681109062285
 31
0.0
  0
LINE
  5
46DB
  8
ﾁｭｳｼﾝｾﾝ1
 10
263.19738380279568
 20
172.06811090622799
 30
0.0
 11
263.19738380279631
 21
184.06811090622799
 31
0.0
  0
LINE
  5
46DC
  8
ﾁｭｳｼﾝｾﾝ1
 10
269.19738380279603
 20
178.06811090622779
 30
0.0
 11
257.19738380279603
 21
178.06811090622841
 31
0.0
  0
LINE
  5
46E0
  8
AM_0
 10
135.09493154291201
 20
196.0681109062277
 30
0.0
 11
144.19738380279421
 21
196.0681109062277
 31
0.0
  0
ARC
  5
46E1
  8
AM_0
 10
135.09493154291201
 20
186.0681109062277
 30
0.0
 40
10.0
 50
90.0
 51
149.9999999999994
1001
GENIUS_GENOBJ-N-FIL_13
1002
{
1000
OWNER
1000
GEN
1002
}
1001
GENIUS_GENODEF_13
1002
{
1000
HIER
1070
     0
1002
}
1002
{
1000
MANEDIT
1070
     0
1002
}
1002
{
1000
NOSEL
1070
     0
1002
}
1002
{
1000
BEHIND
1070
     0
1002
}
1002
{
1000
OTHER
1070
     0
1002
}
1002
{
1000
REACTOR
1002
}
  0
LINE
  5
46E2
  8
AM_0
 10
137.4043326196705
 20
202.0681109062277
 30
0.0
 11
144.19738380279429
 21
202.06811090622759
 31
0.0
  0
ARC
  5
46E3
  8
AM_0
 10
137.40433261967041
 20
182.06811090622759
 30
0.0
 40
20.0
 50
90.0
 51
149.9999999999994
1001
GENIUS_GENODEF_13
1002
{
1000
HIER
1070
     0
1002
}
1002
{
1000
MANEDIT
1070
     0
1002
}
1002
{
1000
NOSEL
1070
     0
1002
}
1002
{
1000
BEHIND
1070
     0
1002
}
1002
{
1000
OTHER
1070
     0
1002
}
1002
{
1000
REACTOR
1002
}
1001
GENIUS_GENOBJ-N-FIL_13
1002
{
1000
OWNER
1000
GEN
1002
}
  0
LINE
  5
46E4
  8
AM_0
 10
161.07238380279529
 20
192.67805685010359
 30
0.0
 11
161.0830934073403
 21
192.46811090622771
 31
0.0
  0
LINE
  5
46E5
  8
AM_0
 10
161.0830934073403
 20
192.46811090622771
 30
0.0
 11
161.1193987945413
 21
191.75639753234049
 31
0.0
  0
LINE
  5
46E6
  8
AM_0
 10
161.07238380279529
 20
196.43538839774459
 30
0.0
 11
161.3184100254752
 21
192.46811090622771
 31
0.0
  0
LINE
  5
46E7
  8
AM_0
 10
161.79071296682429
 20
192.46811090622771
 30
0.0
 11
161.39514245390029
 21
192.46811090622771
 31
0.0
  0
LINE
  5
46E8
  8
AM_0
 10
161.2985499593612
 20
192.39399313949221
 30
0.0
 11
161.13730546136341
 21
191.79222867296409
 31
0.0
  0
LINE
  5
46E9
  8
AM_0
 10
161.3184100254752
 20
192.46811090622771
 30
0.0
 11
161.2985499593612
 21
192.39399313949221
 31
0.0
  0
LINE
  5
46EA
  8
AM_0
 10
159.57238380279529
 20
190.0681109062277
 30
0.0
 11
159.57238380279529
 21
190.36811090622871
 31
0.0
  0
LINE
  5
46EB
  8
AM_0
 10
149.07238380279429
 20
193.5681109062277
 30
0.0
 11
149.07238380279429
 21
193.7356959653637
 31
0.0
  0
LINE
  5
46EC
  8
AM_0
 10
149.07238380279429
 20
199.0681109062277
 30
0.0
 11
149.07238380279429
 21
193.7491358738186
 31
0.0
  0
LINE
  5
46ED
  8
AM_0
 10
151.80657127578431
 20
190.5681109062258
 30
0.0
 11
151.57238380279131
 21
190.5681109062258
 31
0.0
  0
LINE
  5
46EE
  8
AM_0
 10
151.42246063598509
 20
190.74801870639411
 30
0.0
 11
151.57238380279131
 21
190.5681109062258
 31
0.0
  0
LINE
  5
46EF
  8
AM_0
 10
149.07238380279429
 20
193.5681109062277
 30
0.0
 11
149.18827316299539
 21
193.42904367398671
 31
0.0
  0
LINE
  5
46F0
  8
AM_0
 10
159.57238380279529
 20
190.56811090622861
 30
0.0
 11
160.8723838027953
 21
190.56811090622861
 31
0.0
  0
LINE
  5
46F1
  8
AM_0
 10
160.57238380279429
 20
190.53960717486271
 30
0.0
 11
160.57238380279529
 21
190.56811090622861
 31
0.0
  0
LINE
  5
46F2
  8
AM_0
 10
151.5723838027923
 20
191.5359196980917
 30
0.0
 11
157.5723838027952
 21
191.5359196980917
 31
0.0
  0
LINE
  5
46F3
  8
AM_0
 10
157.5723838027952
 20
191.0359196980917
 30
0.0
 11
151.57238380279131
 21
191.0359196980917
 31
0.0
  0
LINE
  5
46F4
  8
AM_0
 10
151.57238380279131
 20
191.0359196980917
 30
0.0
 11
152.07238380279131
 21
190.5681109062277
 31
0.0
  0
LINE
  5
46F5
  8
AM_0
 10
152.07238380279131
 20
191.0359196980917
 30
0.0
 11
151.5723838027923
 21
191.5359196980917
 31
0.0
  0
LINE
  5
46F6
  8
AM_0
 10
151.5723838027923
 20
192.20689497406079
 30
0.0
 11
152.07238380279131
 21
191.5359196980917
 31
0.0
  0
LINE
  5
46F7
  8
AM_0
 10
152.07238380279131
 20
192.25637321473769
 30
0.0
 11
151.5723838027923
 21
192.20689497406079
 31
0.0
  0
LINE
  5
46F8
  8
AM_0
 10
157.5723838027952
 20
197.9779170711698
 30
0.0
 11
157.5723838027952
 21
199.0681109062277
 31
0.0
  0
LINE
  5
46F9
  8
AM_0
 10
151.57238380279131
 20
198.0681109062277
 30
0.0
 11
157.5723838027952
 21
198.0681109062277
 31
0.0
  0
LINE
  5
46FA
  8
AM_0
 10
152.07238380279131
 20
197.3798485977178
 30
0.0
 11
151.57238380279131
 21
198.0681109062277
 31
0.0
  0
LINE
  5
46FB
  8
AM_0
 10
151.57238380279131
 20
198.0681109062277
 30
0.0
 11
152.0723838027923
 21
198.5681109062277
 31
0.0
  0
LINE
  5
46FC
  8
AM_0
 10
151.5723838027923
 20
199.0681109062277
 30
0.0
 11
152.0723838027923
 21
198.5681109062277
 31
0.0
  0
LINE
  5
46FD
  8
AM_0
 10
152.0723838027923
 20
198.5681109062277
 30
0.0
 11
157.5723838027952
 21
198.5681109062277
 31
0.0
  0
LINE
  5
46FE
  8
AM_0
 10
152.07238380279131
 20
197.3798485977178
 30
0.0
 11
157.5723838027952
 21
197.3798485977178
 31
0.0
  0
LINE
  5
46FF
  8
AM_0
 10
152.07238380279131
 20
192.25637321473769
 30
0.0
 11
157.5723838027952
 21
192.2563732147388
 31
0.0
  0
LINE
  5
4700
  8
AM_0
 10
160.57238380279429
 20
198.61811090622871
 30
0.0
 11
160.57238380279529
 21
199.0681109062277
 31
0.0
  0
LINE
  5
4701
  8
AM_0
 10
159.57238380279529
 20
190.36811090622871
 30
0.0
 11
159.57238380279529
 21
199.0681109062298
 31
0.0
  0
LINE
  5
4702
  8
AM_0
 10
160.27238380279431
 20
192.11060621819581
 30
0.0
 11
159.57238380279529
 21
192.11060621819581
 31
0.0
  0
LINE
  5
4703
  8
AM_0
 10
160.57238380279429
 20
191.4054953609058
 30
0.0
 11
160.57238380279429
 21
191.81060621819569
 31
0.0
  0
LINE
  5
4704
  8
AM_0
 10
159.57238380279529
 20
191.10549536090579
 30
0.0
 11
160.27238380279431
 21
191.10549536090579
 31
0.0
  0
LINE
  5
4705
  8
AM_0
 10
160.27238380279431
 20
195.4842064035968
 30
0.0
 11
159.57238380279529
 21
195.4842064035968
 31
0.0
  0
LINE
  5
4706
  8
AM_0
 10
160.57238380279429
 20
194.38429013730479
 30
0.0
 11
160.57238380279429
 21
195.1842064035967
 31
0.0
  0
LINE
  5
4707
  8
AM_0
 10
159.57238380279529
 20
194.08429013730469
 30
0.0
 11
160.27238380279431
 21
194.08429013730469
 31
0.0
  0
LINE
  5
4708
  8
AM_0
 10
159.57238380279529
 20
198.3181109062277
 30
0.0
 11
160.27238380279431
 21
198.3181109062277
 31
0.0
  0
LINE
  5
4709
  8
AM_0
 10
161.07238380279529
 20
199.06811090622759
 30
0.0
 11
161.07238380279529
 21
190.7681109062288
 31
0.0
  0
LINE
  5
470A
  8
AM_0
 10
157.77238380279431
 20
190.0681109062277
 30
0.0
 11
159.57238380279529
 21
190.0681109062277
 31
0.0
  0
LINE
  5
470B
  8
AM_0
 10
149.18827316299539
 20
193.42904367398671
 30
0.0
 11
151.42246063598509
 21
190.74801870639411
 31
0.0
  0
LINE
  5
470C
  8
AM_0
 10
160.30223491850089
 20
190.2410960177998
 30
0.0
 11
159.57238380279529
 21
190.1681109062288
 31
0.0
  0
LINE
  5
470D
  8
AM_0
 10
157.3723838027953
 20
190.5681109062277
 30
0.0
 11
151.80657127578431
 21
190.5681109062258
 31
0.0
  0
LINE
  5
470E
  8
AM_0
 10
157.5723838027952
 20
197.9779170711698
 30
0.0
 11
157.5723838027952
 21
190.36811090622771
 31
0.0
  0
LINE
  5
470F
  8
AM_0
 10
157.5723838027952
 20
190.36811090622771
 30
0.0
 11
157.57238380279429
 21
190.26811090622769
 31
0.0
  0
LINE
  5
4710
  8
AM_0
 10
165.19738380279429
 20
190.76811090622789
 30
0.0
 11
165.19738380279429
 21
197.3798485977178
 31
0.0
  0
LINE
  5
4711
  8
AM_0
 10
161.69738380279529
 20
199.06811090622759
 30
0.0
 11
162.0701376608053
 21
191.75197255870771
 31
0.0
  0
LINE
  5
4712
  8
AM_0
 10
162.24641917257031
 20
199.06811090622759
 30
0.0
 11
162.6193987945413
 21
191.75639753234049
 31
0.0
  0
LINE
  5
4713
  8
AM_0
 10
161.88730546136341
 20
192.3939931394913
 30
0.0
 11
161.86744539525029
 21
192.46811090622771
 31
0.0
  0
LINE
  5
4714
  8
AM_0
 10
162.8184100254752
 20
192.46811090622771
 30
0.0
 11
162.7985499593612
 21
192.39399313949221
 31
0.0
  0
LINE
  5
4715
  8
AM_0
 10
162.54071296682429
 20
191.71811090622759
 30
0.0
 11
162.14514245390029
 21
191.71811090622759
 31
0.0
  0
LINE
  5
4716
  8
AM_0
 10
162.04854995936111
 20
191.79222867296431
 30
0.0
 11
161.88730546136341
 21
192.3939931394913
 31
0.0
  0
LINE
  5
4717
  8
AM_0
 10
162.7985499593612
 20
192.39399313949221
 30
0.0
 11
162.63730546136341
 21
191.79222867296409
 31
0.0
  0
LINE
  5
4718
  8
AM_0
 10
161.4581538664473
 20
199.06811090622759
 30
0.0
 11
161.86744539525029
 21
192.46811090622771
 31
0.0
  0
LINE
  5
4719
  8
AM_0
 10
162.40911849667231
 20
199.06811090622759
 30
0.0
 11
162.8184100254752
 21
192.46811090622771
 31
0.0
  0
LINE
  5
471A
  8
AM_0
 10
162.89514245390029
 20
192.46811090622771
 30
0.0
 11
164.69738380279429
 21
192.46811090622771
 31
0.0
  0
LINE
  5
471B
  8
AM_0
 10
165.19738380279429
 20
197.3798485977178
 30
0.0
 11
165.19738380279429
 21
199.06811090622861
 31
0.0
  0
LINE
  5
471C
  8
AM_0
 10
165.39738380279431
 20
190.56811090622759
 30
0.0
 11
168.9973838027943
 21
190.56811090622759
 31
0.0
  0
LINE
  5
471D
  8
AM_0
 10
168.9973838027943
 20
197.3798485977178
 30
0.0
 11
165.19738380279429
 21
197.3798485977178
 31
0.0
  0
LINE
  5
471E
  8
AM_0
 10
165.19738380279429
 20
192.2563732147388
 30
0.0
 11
168.9973838027943
 21
192.2563732147388
 31
0.0
  0
LINE
  5
471F
  8
AM_0
 10
144.19738380279429
 20
199.0681109062277
 30
0.0
 11
144.19738380279429
 21
194.8181109062277
 31
0.0
  0
LINE
  5
4720
  8
AM_0
 10
149.07238380279429
 20
194.76697454259181
 30
0.0
 11
144.19738380279429
 21
194.8181109062277
 31
0.0
  0
LINE
  5
4721
  8
AM_0
 10
144.19738380279441
 20
203.3181109062279
 30
0.0
 11
149.07238380279429
 21
203.36924726986479
 31
0.0
  0
LINE
  5
4722
  8
AM_0
 10
144.19738380279441
 20
203.3181109062279
 30
0.0
 11
144.19738380279429
 21
199.0681109062277
 31
0.0
  0
LINE
  5
4723
  8
AM_0
 10
168.9973838027943
 20
205.8798485977178
 30
0.0
 11
165.19738380279441
 21
205.8798485977178
 31
0.0
  0
LINE
  5
4724
  8
AM_0
 10
165.19738380279429
 20
200.7563732147388
 30
0.0
 11
168.9973838027943
 21
200.7563732147388
 31
0.0
  0
LINE
  5
4725
  8
AM_0
 10
168.9973838027943
 20
207.5681109062277
 30
0.0
 11
165.39738380279431
 21
207.5681109062277
 31
0.0
  0
LINE
  5
4726
  8
AM_0
 10
165.19738380279429
 20
199.06811090622861
 30
0.0
 11
165.19738380279429
 21
200.7563732147388
 31
0.0
  0
LINE
  5
4727
  8
AM_0
 10
164.69738380279429
 20
205.66811090622781
 30
0.0
 11
162.14911623122029
 21
205.66811090622781
 31
0.0
  0
LINE
  5
4728
  8
AM_0
 10
162.07238380279441
 20
205.66811090622781
 30
0.0
 11
162.40911849667231
 21
199.06811090622759
 31
0.0
  0
LINE
  5
4729
  8
AM_0
 10
161.1214191725692
 20
205.66811090622781
 30
0.0
 11
161.4581538664473
 21
199.06811090622759
 31
0.0
  0
LINE
  5
472A
  8
AM_0
 10
161.89127923868341
 20
206.3439931394912
 30
0.0
 11
162.05252373668131
 21
205.74222867296419
 31
0.0
  0
LINE
  5
472B
  8
AM_0
 10
161.14127923868341
 20
205.74222867296419
 30
0.0
 11
161.30252373668111
 21
206.34399313949109
 31
0.0
  0
LINE
  5
472C
  8
AM_0
 10
161.3991162312204
 20
206.4181109062277
 30
0.0
 11
161.79468674414429
 21
206.4181109062277
 31
0.0
  0
LINE
  5
472D
  8
AM_0
 10
162.05252373668131
 20
205.74222867296419
 30
0.0
 11
162.07238380279441
 21
205.66811090622781
 31
0.0
  0
LINE
  5
472E
  8
AM_0
 10
161.1214191725692
 20
205.66811090622781
 30
0.0
 11
161.14127923868341
 21
205.74222867296419
 31
0.0
  0
LINE
  5
472F
  8
AM_0
 10
161.8733725718613
 20
206.3798242801148
 30
0.0
 11
162.24641917257031
 21
199.06811090622759
 31
0.0
  0
LINE
  5
4730
  8
AM_0
 10
161.32411143812541
 20
206.38424925374869
 30
0.0
 11
161.69738380279529
 21
199.06811090622759
 31
0.0
  0
LINE
  5
4731
  8
AM_0
 10
165.19738380279429
 20
200.7563732147388
 30
0.0
 11
165.19738380279441
 21
207.36811090622851
 31
0.0
  0
LINE
  5
4732
  8
AM_0
 10
157.57238380279441
 20
207.86811090622871
 30
0.0
 11
157.5723838027952
 21
207.7681109062288
 31
0.0
  0
LINE
  5
4733
  8
AM_0
 10
157.5723838027952
 20
207.7681109062288
 30
0.0
 11
157.5723838027952
 21
200.15830474128671
 31
0.0
  0
LINE
  5
4734
  8
AM_0
 10
151.80657127578431
 20
207.5681109062308
 30
0.0
 11
157.3723838027953
 21
207.5681109062287
 31
0.0
  0
LINE
  5
4735
  8
AM_0
 10
159.57238380279529
 20
207.96811090622771
 30
0.0
 11
160.30223491850089
 21
207.89512579465679
 31
0.0
  0
LINE
  5
4736
  8
AM_0
 10
151.42246063598509
 20
207.38820310606241
 30
0.0
 11
149.1882731629955
 21
204.7071781384698
 31
0.0
  0
LINE
  5
4737
  8
AM_0
 10
159.57238380279529
 20
208.06811090622779
 30
0.0
 11
157.77238380279431
 21
208.06811090622779
 31
0.0
  0
LINE
  5
4738
  8
AM_0
 10
161.07238380279529
 20
207.3681109062278
 30
0.0
 11
161.07238380279529
 21
199.06811090622759
 31
0.0
  0
LINE
  5
4739
  8
AM_0
 10
160.27238380279431
 20
199.8181109062277
 30
0.0
 11
159.57238380279529
 21
199.8181109062277
 31
0.0
  0
LINE
  5
473A
  8
AM_0
 10
160.27238380279431
 20
204.05193167515171
 30
0.0
 11
159.57238380279529
 21
204.05193167515171
 31
0.0
  0
LINE
  5
473B
  8
AM_0
 10
160.57238380279429
 20
202.95201540885981
 30
0.0
 11
160.57238380279429
 21
203.7519316751517
 31
0.0
  0
LINE
  5
473C
  8
AM_0
 10
159.57238380279529
 20
202.65201540885971
 30
0.0
 11
160.27238380279431
 21
202.65201540885971
 31
0.0
  0
LINE
  5
473D
  8
AM_0
 10
160.27238380279431
 20
207.03072645155081
 30
0.0
 11
159.57238380279529
 21
207.03072645155081
 31
0.0
  0
LINE
  5
473E
  8
AM_0
 10
160.57238380279429
 20
206.32561559426071
 30
0.0
 11
160.57238380279429
 21
206.73072645155079
 31
0.0
  0
LINE
  5
473F
  8
AM_0
 10
159.57238380279529
 20
206.02561559426081
 30
0.0
 11
160.27238380279431
 21
206.02561559426081
 31
0.0
  0
LINE
  5
4740
  8
AM_0
 10
159.57238380279529
 20
199.0681109062298
 30
0.0
 11
159.57238380279529
 21
207.7681109062278
 31
0.0
  0
LINE
  5
4741
  8
AM_0
 10
160.57238380279529
 20
199.0681109062277
 30
0.0
 11
160.57238380279429
 21
199.51811090622769
 31
0.0
  0
LINE
  5
4742
  8
AM_0
 10
157.5723838027952
 20
205.8798485977178
 30
0.0
 11
152.07238380279131
 21
205.8798485977178
 31
0.0
  0
LINE
  5
4743
  8
AM_0
 10
157.5723838027952
 20
200.7563732147388
 30
0.0
 11
152.07238380279131
 21
200.75637321473781
 31
0.0
  0
LINE
  5
4744
  8
AM_0
 10
157.5723838027952
 20
199.5681109062277
 30
0.0
 11
152.0723838027923
 21
199.5681109062277
 31
0.0
  0
LINE
  5
4745
  8
AM_0
 10
152.0723838027923
 20
199.5681109062277
 30
0.0
 11
151.5723838027923
 21
199.0681109062277
 31
0.0
  0
LINE
  5
4746
  8
AM_0
 10
152.0723838027923
 20
199.5681109062277
 30
0.0
 11
151.57238380279131
 21
200.06811090622779
 31
0.0
  0
LINE
  5
4747
  8
AM_0
 10
151.57238380279131
 20
200.06811090622779
 30
0.0
 11
152.07238380279131
 21
200.75637321473781
 31
0.0
  0
LINE
  5
4748
  8
AM_0
 10
157.5723838027952
 20
200.06811090622779
 30
0.0
 11
151.57238380279131
 21
200.06811090622779
 31
0.0
  0
LINE
  5
4749
  8
AM_0
 10
157.5723838027952
 20
199.0681109062277
 30
0.0
 11
157.5723838027952
 21
200.15830474128671
 31
0.0
  0
LINE
  5
474A
  8
AM_0
 10
151.57238380279239
 20
205.9293268383957
 30
0.0
 11
152.07238380279131
 21
205.8798485977178
 31
0.0
  0
LINE
  5
474B
  8
AM_0
 10
152.07238380279131
 20
206.60030211436481
 30
0.0
 11
151.57238380279239
 21
205.9293268383957
 31
0.0
  0
LINE
  5
474C
  8
AM_0
 10
151.57238380279239
 20
206.60030211436481
 30
0.0
 11
152.07238380279131
 21
207.10030211436481
 31
0.0
  0
LINE
  5
474D
  8
AM_0
 10
152.07238380279131
 20
207.5681109062279
 30
0.0
 11
151.57238380279131
 21
207.10030211436481
 31
0.0
  0
LINE
  5
474E
  8
AM_0
 10
151.57238380279131
 20
207.10030211436481
 30
0.0
 11
157.5723838027952
 21
207.10030211436481
 31
0.0
  0
LINE
  5
474F
  8
AM_0
 10
157.5723838027952
 20
206.60030211436481
 30
0.0
 11
151.57238380279239
 21
206.60030211436481
 31
0.0
  0
LINE
  5
4750
  8
AM_0
 10
160.57238380279529
 20
207.5681109062279
 30
0.0
 11
160.57238380279429
 21
207.59661463759369
 31
0.0
  0
LINE
  5
4751
  8
AM_0
 10
160.8723838027953
 20
207.5681109062277
 30
0.0
 11
159.57238380279529
 21
207.5681109062279
 31
0.0
  0
LINE
  5
4752
  8
AM_0
 10
149.1882731629955
 20
204.7071781384698
 30
0.0
 11
149.07238380279429
 21
204.5681109062277
 31
0.0
  0
LINE
  5
4753
  8
AM_0
 10
151.57238380279131
 20
207.5681109062308
 30
0.0
 11
151.42246063598509
 21
207.38820310606241
 31
0.0
  0
LINE
  5
4754
  8
AM_0
 10
151.57238380279131
 20
207.5681109062308
 30
0.0
 11
151.80657127578431
 21
207.5681109062308
 31
0.0
  0
LINE
  5
4755
  8
AM_0
 10
149.07238380279429
 20
204.3870859386378
 30
0.0
 11
149.07238380279429
 21
199.0681109062277
 31
0.0
  0
LINE
  5
4756
  8
AM_0
 10
149.07238380279429
 20
204.40052584709181
 30
0.0
 11
149.07238380279429
 21
204.5681109062277
 31
0.0
  0
LINE
  5
4757
  8
AM_0
 10
159.57238380279529
 20
207.7681109062278
 30
0.0
 11
159.57238380279529
 21
208.06811090622779
 31
0.0
  0
ARC
  5
4758
  8
AM_0
 10
161.79071296682429
 20
192.3681109062278
 30
0.0
 40
0.0999999999999643
 50
15.00019500651257
 51
90.0
  0
ARC
  5
4759
  8
AM_0
 10
158.38488380279131
 20
194.8181109062277
 30
0.0
 40
6.8125000000000382
 50
157.91171016505771
 51
202.08828983494229
  0
ARC
  5
475A
  8
AM_0
 10
168.9973838027943
 20
190.3681109062278
 30
0.0
 40
0.1999999999999993
 50
0.0
 51
90.0
  0
ARC
  5
475B
  8
AM_0
 10
168.9973838027943
 20
207.76811090622769
 30
0.0
 40
0.2000000000000028
 50
270.0
 51
0.0
  0
ARC
  5
475C
  8
AM_0
 10
158.38488380279131
 20
203.3181109062279
 30
0.0
 40
6.8125000000000382
 50
157.91171016505771
 51
202.08828983494229
  0
ARC
  5
475D
  8
AM_0
 10
161.04071296682429
 20
191.8181109062277
 30
0.0
 40
0.1000000000000547
 50
288.4639767573006
 51
344.99980499348737
  0
ARC
  5
475E
  8
AM_0
 10
161.39514245390029
 20
192.36811090622871
 30
0.0
 40
0.1000000000000014
 50
90.0
 51
164.9998049934843
  0
ARC
  5
475F
  8
AM_0
 10
151.80657127578431
 20
191.0681109062258
 30
0.0
 40
0.499999999999975
 50
219.8055710921868
 51
270.0
  0
ARC
  5
4760
  8
AM_0
 10
149.57238380279429
 20
193.74913587381869
 30
0.0
 40
0.5
 50
180.00000000000969
 51
219.80557109223059
  0
ARC
  5
4761
  8
AM_0
 10
160.27238380279431
 20
191.8106062181958
 30
0.0
 40
0.3000000000000007
 50
0.0
 51
90.0
  0
ARC
  5
4762
  8
AM_0
 10
160.27238380279431
 20
191.4054953609058
 30
0.0
 40
0.3000000000000043
 50
270.0
 51
0.0
  0
ARC
  5
4763
  8
AM_0
 10
160.27238380279431
 20
195.1842064035967
 30
0.0
 40
0.3000000000000007
 50
0.0
 51
90.0
  0
ARC
  5
4764
  8
AM_0
 10
160.27238380279431
 20
194.38429013730479
 30
0.0
 40
0.2999999999999971
 50
270.0
 51
0.0
  0
ARC
  5
4765
  8
AM_0
 10
160.27238380279431
 20
198.61811090622871
 30
0.0
 40
0.2999999999999971
 50
270.0
 51
0.0
  0
ARC
  5
4766
  8
AM_0
 10
160.27238380279431
 20
190.53960717486279
 30
0.0
 40
0.3000000000000302
 50
275.71059313755637
 51
0.0
  0
ARC
  5
4767
  8
AM_0
 10
157.77238380279431
 20
190.26811090622769
 30
0.0
 40
0.1999999999999993
 50
180.0
 51
270.0
  0
ARC
  5
4768
  8
AM_0
 10
160.8723838027953
 20
190.7681109062288
 30
0.0
 40
0.1999999999999957
 50
270.0
 51
0.0
  0
ARC
  5
4769
  8
AM_0
 10
157.3723838027953
 20
190.3681109062278
 30
0.0
 40
0.1999999999999993
 50
359.99999999997061
 51
90.0
  0
ARC
  5
476A
  8
AM_0
 10
162.89514245390029
 20
192.36811090622871
 30
0.0
 40
0.1000000000000014
 50
90.0
 51
164.9998049934843
  0
ARC
  5
476B
  8
AM_0
 10
162.54071296682429
 20
191.8181109062277
 30
0.0
 40
0.1000000000000014
 50
270.0
 51
344.99980499348737
  0
ARC
  5
476C
  8
AM_0
 10
162.14514245390029
 20
191.8181109062277
 30
0.0
 40
0.1000000000000311
 50
195.00019500644461
 51
270.0
  0
ARC
  5
476D
  8
AM_0
 10
164.69738380279429
 20
191.96811090622771
 30
0.0
 40
0.5
 50
359.99999999997721
 51
90.0
  0
ARC
  5
476E
  8
AM_0
 10
168.9973838027943
 20
197.17984859771769
 30
0.0
 40
0.1999999999999993
 50
0.0
 51
90.0
  0
ARC
  5
476F
  8
AM_0
 10
168.9973838027943
 20
192.4563732147387
 30
0.0
 40
0.2000000000000028
 50
270.0
 51
0.0
  0
ARC
  5
4770
  8
AM_0
 10
165.39738380279431
 20
190.76811090622761
 30
0.0
 40
0.1999999999999993
 50
179.99999999994131
 51
270.0
  0
ARC
  5
4771
  8
AM_0
 10
165.39738380279431
 20
207.36811090622871
 30
0.0
 40
0.2000000000000028
 50
90.0
 51
180.00000000005531
  0
ARC
  5
4772
  8
AM_0
 10
168.9973838027943
 20
205.67984859771781
 30
0.0
 40
0.1999999999999993
 50
0.0
 51
90.0
  0
ARC
  5
4773
  8
AM_0
 10
168.9973838027943
 20
200.95637321473771
 30
0.0
 40
0.2000000000000028
 50
270.0
 51
0.0
  0
ARC
  5
4774
  8
AM_0
 10
164.69738380279429
 20
206.1681109062277
 30
0.0
 40
0.5
 50
270.0
 51
0.0000000000227982
  0
ARC
  5
4775
  8
AM_0
 10
161.39911623122029
 20
206.31811090622779
 30
0.0
 40
0.1000000000000014
 50
90.0
 51
164.99980499355539
  0
ARC
  5
4776
  8
AM_0
 10
161.79468674414429
 20
206.31811090622779
 30
0.0
 40
0.0999999999999608
 50
15.00019500651571
 51
90.0
  0
ARC
  5
4777
  8
AM_0
 10
162.14911623122029
 20
205.7681109062278
 30
0.0
 40
0.0999999999999608
 50
195.00019500651561
 51
270.0
  0
ARC
  5
4778
  8
AM_0
 10
161.04468674414429
 20
205.7681109062278
 30
0.0
 40
0.0999999999999803
 50
286.07948273872381
 51
344.99980499348419
  0
ARC
  5
4779
  8
AM_0
 10
157.3723838027953
 20
207.7681109062288
 30
0.0
 40
0.1999999999999957
 50
270.0
 51
0.000000000029312
  0
ARC
  5
477A
  8
AM_0
 10
160.8723838027953
 20
207.3681109062278
 30
0.0
 40
0.1999999999999993
 50
0.0
 51
90.0
  0
ARC
  5
477B
  8
AM_0
 10
157.77238380279431
 20
207.86811090622871
 30
0.0
 40
0.2000000000000028
 50
90.0
 51
180.0
  0
ARC
  5
477C
  8
AM_0
 10
160.27238380279431
 20
207.5966146375938
 30
0.0
 40
0.3000000000000007
 50
0.0
 51
84.289406862443656
  0
ARC
  5
477D
  8
AM_0
 10
160.27238380279431
 20
199.51811090622769
 30
0.0
 40
0.3000000000000007
 50
0.0
 51
90.0
  0
ARC
  5
477E
  8
AM_0
 10
160.27238380279431
 20
203.75193167515181
 30
0.0
 40
0.3000000000000007
 50
0.0
 51
90.0
  0
ARC
  5
477F
  8
AM_0
 10
160.27238380279431
 20
202.95201540885981
 30
0.0
 40
0.2999999999999971
 50
270.0
 51
0.0
  0
ARC
  5
4780
  8
AM_0
 10
160.27238380279431
 20
206.73072645155079
 30
0.0
 40
0.3000000000000007
 50
0.0
 51
90.0
  0
ARC
  5
4781
  8
AM_0
 10
160.27238380279431
 20
206.32561559426071
 30
0.0
 40
0.3000000000000043
 50
270.0
 51
0.0
  0
ARC
  5
4782
  8
AM_0
 10
149.57238380279429
 20
204.3870859386378
 30
0.0
 40
0.5000000000000059
 50
140.19442890776941
 51
179.99999999998701
  0
ARC
  5
4783
  8
AM_0
 10
151.80657127578431
 20
207.0681109062308
 30
0.0
 40
0.5
 50
90.0
 51
140.19442890781301
  0
LINE
  5
4784
  8
AM_0
 10
169.39738380279431
 20
190.0681109062277
 30
0.0
 11
171.19738380279429
 21
190.0681109062277
 31
0.0
  0
LINE
  5
4785
  8
AM_0
 10
169.19738380279429
 20
190.26811090622761
 30
0.0
 11
169.19738380279429
 21
207.86811090622871
 31
0.0
  0
LINE
  5
4786
  8
AM_0
 10
171.19738380279441
 20
208.0681109062277
 30
0.0
 11
169.39738380279431
 21
208.06811090622779
 31
0.0
  0
ARC
  5
4787
  8
AM_0
 10
169.39738380279431
 20
190.26811090622761
 30
0.0
 40
0.1999999999999993
 50
180.0
 51
270.0
  0
ARC
  5
4788
  8
AM_0
 10
169.39738380279431
 20
207.86811090622871
 30
0.0
 40
0.2000000000000028
 50
90.0
 51
180.0
  0
LINE
  5
4789
  8
ﾁｭｳｼﾝｾﾝ1
 10
141.19738380279429
 20
234.0681109062277
 30
0.0
 11
174.49532994128461
 21
234.0681109062277
 31
0.0
  0
POLYLINE
  5
478A
  8
AM_0
 66
     1
 10
0.0
 20
0.0
 30
0.0
  0
VERTEX
  5
478B
  8
AM_0
  6
CONTINUOUS
 10
165.560629549487
 20
222.0681109062279
 30
0.0
  0
VERTEX
  5
478C
  8
AM_0
  6
CONTINUOUS
 10
165.5655538027944
 20
215.3356339062278
 30
0.0
 42
-1.0
  0
SEQEND
  5
478D
  8
AM_0
  0
LINE
  5
478E
  8
AM_0
 10
171.19738380279429
 20
215.06811190622761
 30
0.0
 11
165.5627938027942
 21
215.06811190622781
 31
0.0
  0
LINE
  5
478F
  8
AM_0
 10
171.19738380279429
 20
213.0681109062277
 30
0.0
 11
165.5627938027942
 21
213.0681109062277
 31
0.0
  0
ARC
  5
4790
  8
AM_0
 10
164.46629380279421
 20
214.06420390622779
 30
0.0
 40
1.26892095
 50
90.000003000000945
 51
270.0
  0
ARC
  5
4791
  8
AM_0
 10
165.74675380279419
 20
214.0681099062279
 30
0.0
 40
1.0000000199999981
 50
90.000003000000945
 51
270.0
  0
LINE
  5
4792
  8
AM_0
 10
164.46629380279421
 20
215.33312590622771
 30
0.0
 11
171.19738380279429
 21
215.33312590622771
 31
0.0
  0
LINE
  5
4793
  8
AM_0
 10
164.46629380279421
 20
212.79528190622781
 30
0.0
 11
171.19738380279429
 21
212.79528190622781
 31
0.0
  0
POLYLINE
  5
4794
  8
AM_0
 66
     1
 10
0.0
 20
0.0
 30
0.0
  0
VERTEX
  5
4795
  8
AM_0
 10
165.60614380279421
 20
212.79877990622791
 30
0.0
  0
VERTEX
  5
4796
  8
AM_0
 10
165.81691484770121
 20
207.5681109062277
 30
0.0
 42
-1.0
  0
SEQEND
  5
4797
  8
AM_0
  0
LINE
  5
4798
  8
AM_0
 10
147.69739380279509
 20
271.12951441499968
 30
0.0
 11
147.69739380279481
 21
245.0681109062279
 31
0.0
  0
LINE
  5
4799
  8
AM_0
 10
138.69739380279421
 20
273.06811090622762
 30
0.0
 11
138.6973938027941
 21
202.06811090622759
 31
0.0
  0
LINE
  5
479A
  8
AM_0
 10
138.69739380279421
 20
196.0681109062277
 30
0.0
 11
138.69739380279421
 21
165.0681109062277
 31
0.0
  0
LINE
  5
479B
  8
AM_0
 10
138.69739380279421
 20
273.06811090622779
 30
0.0
 11
155.69739380279421
 21
272.06811090622767
 31
0.0
  0
LINE
  5
479C
  8
AM_0
 10
138.69739380279421
 20
165.06811090622779
 30
0.0
 11
155.69739380279421
 21
166.06811090622779
 31
0.0
  0
LINE
  5
479D
  8
AM_0
 10
147.69739380279501
 20
262.66201410431921
 30
0.0
 11
155.69739380279421
 21
262.66201410431921
 31
0.0
  0
LINE
  5
479E
  8
AM_0
 10
147.69739380279509
 20
271.12951441499968
 30
0.0
 11
155.69739380279421
 21
271.12951441499968
 31
0.0
  0
LINE
  5
479F
  8
AM_0
 10
144.19739380279481
 20
253.7089838714877
 30
0.0
 11
147.69739380279501
 21
253.7089838714877
 31
0.0
  0
LINE
  5
47A0
  8
AM_0
 10
144.19739380279481
 20
262.20898387148787
 30
0.0
 11
147.69739380279501
 21
262.20898387148787
 31
0.0
  0
LINE
  5
47A1
  8
AM_0
 10
143.69739380279501
 20
261.70898387148787
 30
0.0
 11
143.69739380279501
 21
254.2089838714877
 31
0.0
  0
ARC
  5
47A2
  8
AM_0
 10
144.19739380279481
 20
261.70898387148787
 30
0.0
 40
0.5
 50
90.0
 51
180.0
  0
ARC
  5
47A3
  8
AM_0
 10
144.19739380279481
 20
254.2089838714877
 30
0.0
 40
0.5
 50
180.0
 51
270.0
  0
LINE
  5
47A4
  8
AM_0
 10
138.69739380279421
 20
261.34030539936782
 30
0.0
 11
143.69739380279501
 21
261.34030539936788
 31
0.0
  0
LINE
  5
47A5
  8
AM_0
 10
138.69739380279421
 20
251.6052229010719
 30
0.0
 11
147.69739380279481
 21
251.6052229010719
 31
0.0
  0
LINE
  5
47A6
  8
AM_0
 10
147.69739380279509
 20
167.0067073974555
 30
0.0
 11
147.69739380279481
 21
194.78139751461961
 31
0.0
  0
LINE
  5
47A7
  8
AM_0
 10
147.69739380279501
 20
175.4742077081363
 30
0.0
 11
155.69739380279421
 21
175.4742077081363
 31
0.0
  0
LINE
  5
47A8
  8
AM_0
 10
147.69739380279509
 20
167.0067073974555
 30
0.0
 11
155.69739380279421
 21
167.0067073974555
 31
0.0
  0
LINE
  5
47A9
  8
AM_0
 10
144.19739380279481
 20
184.42723794096759
 30
0.0
 11
147.69739380279501
 21
184.42723794096759
 31
0.0
  0
LINE
  5
47AA
  8
AM_0
 10
144.19739380279481
 20
175.92723794096759
 30
0.0
 11
147.69739380279501
 21
175.92723794096759
 31
0.0
  0
LINE
  5
47AB
  8
AM_0
 10
143.69739380279501
 20
176.42723794096759
 30
0.0
 11
143.69739380279501
 21
183.92723794096759
 31
0.0
  0
ARC
  5
47AC
  8
AM_0
 10
144.19739380279481
 20
176.42723794096759
 30
0.0
 40
0.5
 50
180.0
 51
270.0
  0
ARC
  5
47AD
  8
AM_0
 10
144.19739380279481
 20
183.92723794096759
 30
0.0
 40
0.5
 50
90.0
 51
180.0
  0
LINE
  5
47AE
  8
AM_0
 10
138.69739380279421
 20
176.79591641308761
 30
0.0
 11
143.69739380279501
 21
176.7959164130875
 31
0.0
  0
LINE
  5
47AF
  8
AM_0
 10
138.69739380279421
 20
186.53099891138351
 30
0.0
 11
147.69739380279481
 21
186.53099891138351
 31
0.0
  0
LINE
  5
47B0
  8
AM_0
 10
103.7868090514585
 20
255.05852175115371
 30
0.0
 11
103.7868090514585
 21
248.5469168521951
 31
0.0
  0
LINE
  5
47B1
  8
AM_0
 10
100.697393802794
 20
208.0681109062277
 30
0.0
 11
100.697393802794
 21
202.5681109062277
 31
0.0
  0
LINE
  5
47B2
  8
AM_0
 10
106.197393802794
 20
215.5681109062277
 30
0.0
 11
106.197393802794
 21
222.56811090622759
 31
0.0
  0
LINE
  5
47B3
  8
AM_0
 10
117.897393802794
 20
202.5681109062277
 30
0.0
 11
100.697393802794
 21
202.5681109062277
 31
0.0
  0
LINE
  5
47B4
  8
AM_0
 10
132.69739380279401
 20
165.06811090622759
 30
0.0
 11
132.69739380279401
 21
195.7764481884152
 31
0.0
  0
LINE
  5
47B5
  8
AM_0
 10
132.69739380279401
 20
201.50633939995069
 30
0.0
 11
132.69739380279401
 21
273.06811090622779
 31
0.0
  0
LINE
  5
47B6
  8
AM_0
 10
100.697393802794
 20
217.5681109062277
 30
0.0
 11
101.597393802794
 21
217.5681109062277
 31
0.0
  0
LINE
  5
47B7
  8
AM_0
 10
118.197393802794
 20
210.5681109062277
 30
0.0
 11
118.197393802794
 21
213.1526205908317
 31
0.0
  0
LINE
  5
47B8
  8
AM_0
 10
98.497393802793724
 20
220.5681109062277
 30
0.0
 11
98.497393802793724
 21
217.5681109062277
 31
0.0
  0
LINE
  5
47B9
  8
AM_0
 10
101.597393802794
 20
217.29575917164411
 30
0.0
 11
101.597393802794
 21
220.8404626408115
 31
0.0
  0
LINE
  5
47BA
  8
AM_0
 10
98.197393802793954
 20
220.26811090622769
 30
0.0
 11
101.5973938027941
 21
220.26811090622769
 31
0.0
  0
LINE
  5
47BB
  8
AM_0
 10
105.597393802794
 20
216.68654104582049
 30
0.0
 11
105.597393802794
 21
215.5681109062277
 31
0.0
  0
LINE
  5
47BC
  8
AM_0
 10
105.597393802794
 20
217.5681109062277
 30
0.0
 11
105.597393802794
 21
217.46811090622771
 31
0.0
  0
LINE
  5
47BD
  8
AM_0
 10
105.597393802794
 20
217.46811090622771
 30
0.0
 11
105.597393802794
 21
216.68654104582049
 31
0.0
  0
LINE
  5
47BE
  8
AM_0
 10
100.697393802794
 20
202.5681109062277
 30
0.0
 11
100.697393802794
 21
194.33057689680541
 31
0.0
  0
LINE
  5
47BF
  8
AM_0
 10
118.0509471933873
 20
213.50617398142509
 30
0.0
 11
117.6958800671991
 21
213.86124110761321
 31
0.0
  0
LINE
  5
47C0
  8
AM_0
 10
100.697393802794
 20
220.5681109062277
 30
0.0
 11
100.697393802794
 21
243.80564491565011
 31
0.0
  0
LINE
  5
47C1
  8
AM_0
 10
132.69739380279401
 20
264.0681109062279
 30
0.0
 11
108.9273851021614
 21
264.0681109062279
 31
0.0
  0
LINE
  5
47C2
  8
AM_0
 10
100.697393802794
 20
208.99451408194869
 30
0.0
 11
100.697393802794
 21
217.5681109062277
 31
0.0
  0
LINE
  5
47C3
  8
AM_0
 10
138.69739380279421
 20
273.06811090622779
 30
0.0
 11
132.69739380279401
 21
273.06811090622779
 31
0.0
  0
LINE
  5
47C4
  8
AM_0
 10
132.69739380279401
 20
165.06811090622759
 30
0.0
 11
138.69739380279401
 21
165.06811090622759
 31
0.0
  0
LINE
  5
47C5
  8
AM_0
 10
132.69739380279401
 20
174.06811090622759
 30
0.0
 11
123.197393802794
 21
174.06811090622759
 31
0.0
  0
LINE
  5
47C6
  8
AM_0
 10
100.74297054375739
 20
244.32658944865079
 30
0.0
 11
103.3124139914197
 21
258.89862735991449
 31
0.0
  0
LINE
  5
47C7
  8
AM_0
 10
100.697393802794
 20
208.99451408194869
 30
0.0
 11
100.697393802794
 21
208.0681109062277
 31
0.0
  0
LINE
  5
47C8
  8
AM_0
 10
123.197393802794
 20
174.13673335661349
 30
0.0
 11
120.634606503897
 21
174.13673335661349
 31
0.0
  0
LINE
  5
47C9
  8
AM_0
 10
106.74123231049511
 20
174.06811090622759
 30
0.0
 11
107.697393802794
 21
174.06811090622759
 31
0.0
  0
LINE
  5
47CA
  8
AM_0
 10
100.74297054375739
 20
193.8096323638045
 30
0.0
 11
103.7868090514585
 21
176.5471663732269
 31
0.0
  0
LINE
  5
47CB
  8
AM_0
 10
100.697393802794
 20
194.0681109062277
 30
0.0
 11
100.74297054375739
 21
193.8096323638045
 31
0.0
  0
LINE
  5
47CC
  8
AM_0
 10
100.697393802794
 20
194.33057689680541
 30
0.0
 11
100.697393802794
 21
194.0681109062277
 31
0.0
  0
LINE
  5
47CD
  8
AM_0
 10
111.74739380279409
 20
190.06705451785561
 30
0.0
 11
116.647393802794
 21
190.06705451785561
 31
0.0
  0
LINE
  5
47CE
  8
AM_0
 10
111.74739380279409
 20
188.8540341994231
 30
0.0
 11
116.647393802794
 21
188.8540341994231
 31
0.0
  0
LINE
  5
47CF
  8
AM_0
 10
110.947393802794
 20
189.2670545178556
 30
0.0
 11
110.947393802794
 21
183.6259230974093
 31
0.0
  0
LINE
  5
47D0
  8
AM_0
 10
110.947393802794
 20
181.79451722847651
 30
0.0
 11
110.947393802794
 21
183.6259230974093
 31
0.0
  0
LINE
  5
47D1
  8
AM_0
 10
107.097393802794
 20
175.10482056855361
 30
0.0
 11
107.097393802794
 21
181.7273849466807
 31
0.0
  0
LINE
  5
47D2
  8
AM_0
 10
117.447393802794
 20
189.2670545178556
 30
0.0
 11
117.447393802794
 21
187.5016789118541
 31
0.0
  0
LINE
  5
47D3
  8
AM_0
 10
121.29739380279401
 20
181.7273849466807
 30
0.0
 11
121.29739380279401
 21
175.10482056855361
 31
0.0
  0
LINE
  5
47D4
  8
AM_0
 10
112.83255840156779
 20
179.50854952836269
 30
0.0
 11
107.697393802794
 21
177.71853427313829
 31
0.0
  0
LINE
  5
47D5
  8
AM_0
 10
120.697393802794
 20
177.71853427313829
 30
0.0
 11
119.0573575766481
 21
178.2902179665146
 31
0.0
  0
LINE
  5
47D6
  8
AM_0
 10
111.68702039742099
 20
177.52441950317959
 30
0.0
 11
107.697393802794
 21
176.13371579161071
 31
0.0
  0
LINE
  5
47D7
  8
AM_0
 10
120.697393802794
 20
176.13371579161071
 30
0.0
 11
118.29565658762461
 21
176.97091315335061
 31
0.0
  0
LINE
  5
47D8
  8
AM_0
 10
120.697393802794
 20
177.71853427313829
 30
0.0
 11
120.697393802794
 21
174.8493931242935
 31
0.0
  0
LINE
  5
47D9
  8
AM_0
 10
120.697393802794
 20
174.8493931242935
 30
0.0
 11
120.697393802794
 21
172.83015050617291
 31
0.0
  0
LINE
  5
47DA
  8
AM_0
 10
114.1973515409679
 20
170.5643663069572
 30
0.0
 11
120.697393802794
 21
172.83015050617291
 31
0.0
  0
LINE
  5
47DB
  8
AM_0
 10
107.697393802794
 20
172.83015050617291
 30
0.0
 11
107.697393802794
 21
174.8493931242935
 31
0.0
  0
LINE
  5
47DC
  8
AM_0
 10
107.697393802794
 20
172.83015050617291
 30
0.0
 11
114.1973515409679
 21
170.5643957702051
 31
0.0
  0
LINE
  5
47DD
  8
AM_0
 10
107.697393802794
 20
174.8493931242935
 30
0.0
 11
107.697393802794
 21
177.71853427313829
 31
0.0
  0
LINE
  5
47DE
  8
AM_0
 10
100.1973551347871
 20
272.56811090622762
 30
0.0
 11
100.19733268238841
 21
299.56811090622762
 31
0.0
  0
LINE
  5
47DF
  8
AM_0
 10
100.19733268238841
 20
299.56811090622762
 30
0.0
 11
108.19733268239111
 21
299.56811090622762
 31
0.0
  0
LINE
  5
47E0
  8
AM_0
 10
108.19733268239111
 20
299.56811090622762
 30
0.0
 11
109.697328027212
 21
305.16616974421618
 31
0.0
  0
LINE
  5
47E1
  8
AM_0
 10
109.697328027212
 20
305.16616974421618
 30
0.0
 11
109.6973132638516
 21
322.91976202410672
 31
0.0
  0
LINE
  5
47E2
  8
AM_0
 10
100.19733268238841
 20
299.56811090622762
 30
0.0
 11
98.697328027179395
 21
305.16620449105761
 31
0.0
  0
LINE
  5
47E3
  8
AM_0
 10
98.697328027179395
 20
305.16620449105761
 30
0.0
 11
98.697313263855463
 21
322.91975287683317
 31
0.0
  0
LINE
  5
47E4
  8
AM_0
 10
104.1973551347884
 20
322.91975287683317
 30
0.0
 11
104.1973551347884
 21
305.16620449105761
 31
0.0
  0
LINE
  5
47E6
  8
AM_0
 10
108.19733268239111
 20
299.56811090622762
 30
0.0
 11
108.1973551347899
 21
272.56811090622762
 31
0.0
  0
LINE
  5
47E7
  8
AM_0
 10
118.197393802794
 20
248.5469168521951
 30
0.0
 11
118.197393802794
 21
202.86811090622771
 31
0.0
  0
LINE
  5
47E8
  8
AM_0
 10
106.197393802794
 20
213.1526205908317
 30
0.0
 11
106.197393802794
 21
210.5681109062277
 31
0.0
  0
LINE
  5
47E9
  8
AM_0
 10
106.69890753838899
 20
213.86124110761321
 30
0.0
 11
106.34384041220081
 21
213.50617398142509
 31
0.0
  0
LINE
  5
47EA
  8
AM_0
 10
117.697393802794
 20
210.0681109062277
 30
0.0
 11
106.697393802794
 21
210.0681109062277
 31
0.0
  0
LINE
  5
47EB
  8
AM_0
 10
97.697355966293131
 20
271.56810550102063
 30
0.0
 11
97.697382992328514
 21
266.56810550102063
 31
0.0
  0
LINE
  5
47EC
  8
AM_0
 10
110.6973559664246
 20
271.56811631143461
 30
0.0
 11
110.6973818942443
 21
266.771293658064
 31
0.0
  0
LINE
  5
47ED
  8
AM_0
 10
101.3178970548749
 20
264.56811090622762
 30
0.0
 11
100.74633515350961
 21
265.224694728288
 31
0.0
  0
LINE
  5
47EE
  8
AM_0
 10
98.697382992313962
 20
265.56811090622762
 30
0.0
 11
109.6973818942443
 21
265.56811090622762
 31
0.0
  0
LINE
  5
47EF
  8
AM_0
 10
110.6973818942443
 20
266.771293658064
 30
0.0
 11
110.6973818942443
 21
266.56811090622762
 31
0.0
  0
LINE
  5
47F0
  8
AM_0
 10
110.6973818942443
 20
266.771293658064
 30
0.0
 11
110.69738299246001
 21
266.56811631143472
 31
0.0
  0
LINE
  5
47F1
  8
AM_0
 10
98.697355966278494
 20
272.56811090622762
 30
0.0
 11
109.6973559664392
 21
272.56811090622762
 31
0.0
  0
LINE
  5
47F2
  8
AM_0
 10
108.7048297649562
 20
264.59869797651322
 30
0.0
 11
115.8276294983017
 21
247.61745865776641
 31
0.0
  0
LINE
  5
47F3
  8
AM_0
 10
101.3178970548749
 20
264.56811090622762
 30
0.0
 11
107.89461213018519
 21
245.8735702758255
 31
0.0
  0
LINE
  5
47F4
  8
AM_0
 10
105.597393802794
 20
217.5681109062277
 30
0.0
 11
105.597393802794
 21
217.46811090622771
 31
0.0
  0
LINE
  5
47F5
  8
AM_0
 10
105.597393802794
 20
217.46811090622771
 30
0.0
 11
105.597393802794
 21
216.68654104582049
 31
0.0
  0
LINE
  5
47F6
  8
AM_0
 10
105.597393802794
 20
215.5681109062277
 30
0.0
 11
106.197393802794
 21
215.5681109062277
 31
0.0
  0
LINE
  5
47F7
  8
AM_0
 10
102.897393802794
 20
216.68654104582049
 30
0.0
 11
102.897393802794
 21
221.449680766635
 31
0.0
  0
LINE
  5
47F8
  8
AM_0
 10
102.7363495735365
 20
216.39984941747761
 30
0.0
 11
101.80379652402929
 21
216.93825917164409
 31
0.0
  0
LINE
  5
47F9
  8
AM_0
 10
105.597393802794
 20
222.56811090622759
 30
0.0
 11
105.597393802794
 21
217.5681109062277
 31
0.0
  0
LINE
  5
47FA
  8
AM_0
 10
103.16984539482451
 20
215.89268442568479
 30
0.0
 11
105.3249422107634
 21
215.89268442568479
 31
0.0
  0
LINE
  5
47FB
  8
AM_0
 10
103.16984539482451
 20
217.4803976659563
 30
0.0
 11
105.3249422107634
 21
217.4803976659563
 31
0.0
  0
LINE
  5
47FC
  8
AM_0
 10
101.5973938027941
 20
220.5681109062277
 30
0.0
 11
98.497393802793724
 21
220.5681109062277
 31
0.0
  0
LINE
  5
47FD
  8
AM_0
 10
98.497393802793724
 20
220.5681109062277
 30
0.0
 11
98.197393802793954
 21
220.26811090622769
 31
0.0
  0
LINE
  5
47FE
  8
AM_0
 10
98.197393802793954
 20
220.26811090622769
 30
0.0
 11
98.197393802793883
 21
217.8681109062278
 31
0.0
  0
LINE
  5
47FF
  8
AM_0
 10
98.497393802793724
 20
217.5681109062277
 30
0.0
 11
100.697393802794
 21
217.5681109062277
 31
0.0
  0
LINE
  5
4800
  8
AM_0
 10
98.197393802793954
 20
217.8681109062278
 30
0.0
 11
98.497393802793724
 21
217.5681109062277
 31
0.0
  0
LINE
  5
4801
  8
AM_0
 10
101.597393802794
 20
217.8681109062278
 30
0.0
 11
98.197393802793954
 21
217.8681109062278
 31
0.0
  0
ARC
  5
4802
  8
AM_0
 10
100.197393802794
 20
219.0681109062277
 30
0.0
 40
18.000000000000082
 50
344.79096035988943
 51
15.209039640107409
  0
ARC
  5
4803
  8
AM_0
 10
104.3046169867675
 20
216.68654104582049
 30
0.0
 40
1.292776816026465
 50
322.11555894630482
 51
0.0
  0
ARC
  5
4804
  8
AM_0
 10
124.197393802794
 20
219.0681109062277
 30
0.0
 40
17.999999999999918
 50
164.7909603598894
 51
195.20903964011049
  0
ARC
  5
4805
  8
AM_0
 10
111.5012066538625
 20
175.8185229998931
 30
0.0
 40
6.001601094213977
 50
95.294644622325137
 51
137.2036378052704
  0
ARC
  5
4806
  8
AM_0
 10
111.5012066538625
 20
177.6499288688259
 30
0.0
 40
6.0016010942139628
 50
95.294644622325137
 51
137.2036378052704
  0
ARC
  5
4807
  8
AM_0
 10
107.9671254879912
 20
176.31540865697741
 30
0.0
 40
1.4906229315522701
 50
234.30512237790029
 51
259.57476505017542
  0
ARC
  5
4808
  8
AM_0
 10
116.8935809517256
 20
177.6499288688259
 30
0.0
 40
6.0016010942138758
 50
42.796362194729539
 51
44.995924864879747
  0
ARC
  5
4809
  8
AM_0
 10
116.8935809517256
 20
175.8185229998931
 30
0.0
 40
6.0016010942138758
 50
42.796362194729539
 51
53.897278316401717
  0
ARC
  5
480A
  8
AM_0
 10
120.427662117597
 20
176.31540865697741
 30
0.0
 40
1.490622931552253
 50
280.42523494982129
 51
305.69487762209508
  0
ARC
  5
480B
  8
AM_0
 10
104.1973202088349
 20
314.56811090622767
 30
0.0
 40
10.0
 50
56.63303467623782
 51
123.3670606147022
  0
ARC
  5
480C
  8
AM_0
 10
101.4473341993219
 20
318.48710451722718
 30
0.0
 40
5.2164151124522951
 50
58.18448044842868
 51
121.8155195515713
  0
ARC
  5
480D
  8
AM_0
 10
106.9473415729565
 20
318.48622962646721
 30
0.0
 40
5.217140387381062
 50
58.190058295973543
 51
121.81013228735971
  0
ARC
  5
480E
  8
AM_0
 10
101.4473415809839
 20
306.5341585054004
 30
0.0
 40
3.0714610092699122
 50
206.44737672421749
 51
333.55262327578248
  0
ARC
  5
480F
  8
AM_0
 10
106.9473502123551
 20
306.5324183007051
 30
0.0
 40
3.070669812974502
 50
206.41845794673139
 51
333.58081810520707
  0
ARC
  5
4810
  8
AM_0
 10
107.6598236788537
 20
219.0681109062277
 30
0.0
 40
4.762429876059711
 50
160.52575999458611
 51
199.4742400054138
  0
ARC
  5
4811
  8
AM_0
 10
104.1901706188205
 20
216.68654104582049
 30
0.0
 40
1.292776816026556
 50
142.11555894629771
 51
217.8844410536951
  0
ARC
  5
4812
  8
AM_0
 10
100.8349639267344
 20
219.0681109062277
 30
0.0
 40
4.762429876059584
 50
340.52575999458628
 51
19.474240005409651
  0
ARC
  5
4813
  8
AM_0
 10
104.3046169867675
 20
216.68654104582049
 30
0.0
 40
1.2927768160265021
 50
0.0
 51
37.884441053702282
  0
ARC
  5
4814
  8
AM_0
 10
113.9299419600904
 20
184.14321608081431
 30
8206336.7530117426
 40
12.9134744604336
 50
271.18655406403752
 51
287.92670513354841
  0
LINE
  5
4815
  8
AM_0
 10
117.9047108894889
 20
171.85667732499871
 30
8206336.7530117426
 11
118.3172916566902
 21
172.0099190103914
 31
8206336.7530117426
  0
LINE
  5
4816
  8
AM_0
 10
118.3172916566902
 20
172.0099190103914
 30
8206336.7530117426
 11
118.7197834009467
 21
172.1888883730972
 31
8206336.7530117426
  0
ARC
  5
4817
  8
AM_0
 10
116.2160217601908
 20
177.47368893681951
 30
8206336.7530117426
 40
5.8479004225482916
 50
295.35002817212489
 51
303.5670510400584
  0
LINE
  5
4818
  8
AM_0
 10
119.4493988362007
 20
172.60098824455719
 30
8206336.7530117426
 11
119.76394171545191
 21
172.8332616997277
 31
8206336.7530117426
  0
LINE
  5
4819
  8
AM_0
 10
119.76394171545191
 20
172.8332616997277
 30
8206336.7530117426
 11
120.0531308636493
 21
173.09613257576629
 31
8206336.7530117426
  0
ARC
  5
481A
  8
AM_0
 10
118.1742479002711
 20
174.9618169659737
 30
8206336.7530117426
 40
2.647825416060579
 50
315.20195107610522
 51
327.6690874537353
  0
LINE
  5
481B
  8
AM_0
 10
120.4115899801169
 20
173.54573792450481
 30
8206336.7530117426
 11
120.5405059363963
 21
173.7852696897408
 31
8206336.7530117426
  0
LINE
  5
481C
  8
AM_0
 10
120.5405059363963
 20
173.7852696897408
 30
8206336.7530117426
 11
120.634606503897
 21
174.03992867822521
 31
8206336.7530117426
  0
ARC
  5
481D
  8
AM_0
 10
119.035786264948
 20
174.4950173428285
 30
8206336.7530117426
 40
1.6623272388802151
 50
344.11151119415172
 51
352.55958186686092
  0
LINE
  5
481E
  8
AM_0
 10
120.6841168072759
 20
174.27975407993389
 30
8206336.7530117426
 11
120.69402147171699
 21
174.38061983365461
 31
8206336.7530117426
  0
LINE
  5
481F
  8
AM_0
 10
120.69402147171699
 20
174.38061983365461
 30
8206336.7530117426
 11
120.697393802794
 21
174.48191854739321
 31
8206336.7530117426
  0
ARC
  5
4820
  8
AM_0
 10
119.1023003841246
 20
174.47894239589499
 30
8206336.7530117426
 40
1.595096195143147
 50
0.1069032823798393
 51
11.47976002760999
  0
LINE
  5
4821
  8
AM_0
 10
120.66548679318301
 20
174.79640124723679
 30
8206336.7530117426
 11
120.62485488299779
 21
174.95697512276121
 31
8206336.7530117426
  0
LINE
  5
4822
  8
AM_0
 10
120.62485488299779
 20
174.95697512276121
 30
8206336.7530117426
 11
120.5692148184642
 21
175.1129434161839
 31
8206336.7530117426
  0
ARC
  5
4823
  8
AM_0
 10
118.69374052481039
 20
174.33756063479899
 30
8206336.7530117426
 40
2.029438908620818
 50
22.461811304460369
 51
32.14428943578929
  0
LINE
  5
4824
  8
AM_0
 10
120.4120885678072
 20
175.41733018750611
 30
8206336.7530117426
 11
120.28979982127269
 21
175.5946407802281
 31
8206336.7530117426
  0
LINE
  5
4825
  8
AM_0
 10
120.28979982127269
 20
175.5946407802281
 30
8206336.7530117426
 11
120.1529462209345
 21
175.76102270261751
 31
8206336.7530117426
  0
ARC
  5
4826
  8
AM_0
 10
117.6547882347506
 20
173.51801101680471
 30
8206336.7530117426
 40
3.357364255874967
 50
41.919595935556771
 51
50.918621528346122
  0
LINE
  5
4827
  8
AM_0
 10
119.77134973975799
 20
176.12416951968751
 30
8206336.7530117426
 11
119.3522111223579
 21
176.4268659973132
 31
8206336.7530117426
  0
LINE
  5
4828
  8
AM_0
 10
119.3522111223579
 20
176.4268659973132
 30
8206336.7530117426
 11
118.90305744246029
 21
176.68421769856769
 31
8206336.7530117426
  0
ARC
  5
4829
  8
AM_0
 10
115.5718317594327
 20
170.1566074042982
 30
8206336.7530117426
 40
7.3284896605723491
 50
62.963482965306312
 51
68.223671679105692
  0
ARC
  5
482A
  8
AM_0
 10
114.46484564551329
 20
184.1432160808674
 30
8206336.7530117426
 40
12.91347446048893
 50
252.0732948664546
 51
268.81307083254751
  0
LINE
  5
482B
  8
AM_0
 10
110.4900767160991
 20
171.85667732499871
 30
8206336.7530117426
 11
110.07749594889791
 21
172.0099190103914
 31
8206336.7530117426
  0
LINE
  5
482C
  8
AM_0
 10
110.07749594889791
 20
172.0099190103914
 30
8206336.7530117426
 11
109.6750042046413
 21
172.1888883730972
 31
8206336.7530117426
  0
ARC
  5
482D
  8
AM_0
 10
112.1787658454022
 20
177.47368893682801
 30
8206336.7530117426
 40
5.8479004225582418
 50
236.43294895995061
 51
244.649971827868
  0
LINE
  5
482E
  8
AM_0
 10
108.94538876938731
 20
172.60098824455719
 30
8206336.7530117426
 11
108.6308458901362
 21
172.8332616997277
 31
8206336.7530117426
  0
LINE
  5
482F
  8
AM_0
 10
108.6308458901362
 20
172.8332616997277
 30
8206336.7530117426
 11
108.34165674193871
 21
173.09613257576629
 31
8206336.7530117426
  0
ARC
  5
4830
  8
AM_0
 10
110.2205397053166
 20
174.96181696597321
 30
8206336.7530117426
 40
2.6478254160599781
 50
212.3309125462558
 51
224.79804892389021
  0
LINE
  5
4831
  8
AM_0
 10
107.98319762547111
 20
173.54573792450481
 30
8206336.7530117426
 11
107.85428166919181
 21
173.7852696897408
 31
8206336.7530117426
  0
LINE
  5
4832
  8
AM_0
 10
107.85428166919181
 20
173.7852696897408
 30
8206336.7530117426
 11
107.760181101691
 21
174.03992867822521
 31
8206336.7530117426
  0
ARC
  5
4833
  8
AM_0
 10
109.35900134066971
 20
174.49501734283501
 30
8206336.7530117426
 40
1.6623272389105701
 50
187.4404181332275
 51
195.8884888057874
  0
LINE
  5
4834
  8
AM_0
 10
107.71067079831199
 20
174.27975407993389
 30
8206336.7530117426
 11
107.7007661338711
 21
174.38061983365461
 31
8206336.7530117426
  0
LINE
  5
4835
  8
AM_0
 10
107.7007661338711
 20
174.38061983365461
 30
8206336.7530117426
 11
107.697393802794
 21
174.48191854739321
 31
8206336.7530117426
  0
ARC
  5
4836
  8
AM_0
 10
109.2924872214606
 20
174.47894239589499
 30
8206336.7530117426
 40
1.5950961951403351
 50
168.52023997237021
 51
179.8930967176201
  0
LINE
  5
4837
  8
AM_0
 10
107.729300812405
 20
174.79640124723679
 30
8206336.7530117426
 11
107.7699327225903
 21
174.95697512276121
 31
8206336.7530117426
  0
LINE
  5
4838
  8
AM_0
 10
107.7699327225903
 20
174.95697512276121
 30
8206336.7530117426
 11
107.8255727871237
 21
175.1129434161839
 31
8206336.7530117426
  0
ARC
  5
4839
  8
AM_0
 10
109.70104708078721
 20
174.33756063479311
 30
8206336.7530117426
 40
2.02943890863216
 50
147.8557105642179
 51
157.53818869548999
  0
LINE
  5
483A
  8
AM_0
 10
107.9826990377808
 20
175.41733018750611
 30
8206336.7530117426
 11
108.1049877843154
 21
175.5946407802281
 31
8206336.7530117426
  0
LINE
  5
483B
  8
AM_0
 10
108.1049877843154
 20
175.5946407802281
 30
8206336.7530117426
 11
108.2418413846536
 21
175.76102270261751
 31
8206336.7530117426
  0
ARC
  5
483C
  8
AM_0
 10
110.73999937084621
 20
173.51801101679621
 30
8206336.7530117426
 40
3.3573642558870951
 50
129.0813784716793
 51
138.08040406443399
  0
LINE
  5
483D
  8
AM_0
 10
108.62343786583
 20
176.12416951968751
 30
8206336.7530117426
 11
109.04257648323011
 21
176.4268659973132
 31
8206336.7530117426
  0
LINE
  5
483E
  8
AM_0
 10
109.04257648323011
 20
176.4268659973132
 30
8206336.7530117426
 11
109.4917301631278
 21
176.68421769856769
 31
8206336.7530117426
  0
ARC
  5
483F
  8
AM_0
 10
112.8229558461542
 20
170.15660740430221
 30
8206336.7530117426
 40
7.3284896605682359
 50
109.0382363849769
 51
117.03651703470091
  0
LINE
  5
4840
  8
AM_0
 10
110.4324093013764
 20
177.08423671903211
 30
8206336.7530117426
 11
111.1089071959438
 21
177.29111656865049
 31
8206336.7530117426
  0
LINE
  5
4841
  8
AM_0
 10
111.1089071959438
 20
177.29111656865049
 30
8206336.7530117426
 11
111.65569657367909
 21
177.41621789020269
 31
8206336.7530117426
  0
ARC
  5
4842
  8
AM_0
 10
117.897393802794
 20
202.86811090622771
 30
0.0
 40
0.2999999999999972
 50
270.0
 51
0.0
  0
ARC
  5
4843
  8
AM_0
 10
118.0494334577923
 20
214.2147944982066
 30
0.0
 40
0.4999999999998723
 50
164.7909603598988
 51
225.00000000001839
  0
ARC
  5
4844
  8
AM_0
 10
103.697393802794
 20
194.33057689680541
 30
0.0
 40
3.0
 50
180.0
 51
190.00000000000171
  0
ARC
  5
4845
  8
AM_0
 10
103.697393802794
 20
243.80564491565011
 30
0.0
 40
2.999999999999992
 50
169.9999999999981
 51
180.0
  0
ARC
  5
4846
  8
AM_0
 10
106.74123231049511
 20
177.06811090622759
 30
0.0
 40
2.9999999999999631
 50
190.00000000000171
 51
270.0
  0
ARC
  5
4847
  8
AM_0
 10
111.74739380279409
 20
189.2670545178556
 30
0.0
 40
0.7999999999998977
 50
90.0
 51
180.0
  0
ARC
  5
4848
  8
AM_0
 10
111.74739380279409
 20
188.05403419942311
 30
0.0
 40
0.7999999999999972
 50
90.0
 51
180.0
  0
ARC
  5
4849
  8
AM_0
 10
116.647393802794
 20
189.2670545178556
 30
0.0
 40
0.8000000000000112
 50
0.0
 51
90.0
  0
ARC
  5
484A
  8
AM_0
 10
116.647393802794
 20
188.05403419942311
 30
0.0
 40
0.8000000000000112
 50
0.0
 51
90.0
  0
ARC
  5
484B
  8
AM_0
 10
106.697393802794
 20
210.5681109062277
 30
0.0
 40
0.5
 50
180.0
 51
270.0
  0
ARC
  5
484C
  8
AM_0
 10
117.697393802794
 20
210.5681109062277
 30
0.0
 40
0.5
 50
270.0
 51
0.0
  0
ARC
  5
484D
  8
AM_0
 10
117.697393802794
 20
213.1526205908317
 30
0.0
 40
0.5
 50
0.0
 51
45.0
  0
ARC
  5
484E
  8
AM_0
 10
106.3453541477957
 20
214.2147944982066
 30
0.0
 40
0.5000000000001048
 50
314.99999999998619
 51
15.209039640101111
  0
ARC
  5
484F
  8
AM_0
 10
106.697393802794
 20
213.1526205908317
 30
0.0
 40
0.499999999999984
 50
134.99999999999079
 51
180.0
  0
ARC
  5
4850
  8
AM_0
 10
98.697355966278494
 20
271.56811090622762
 30
0.0
 40
1.0
 50
90.0
 51
180.00030969555451
  0
ARC
  5
4851
  8
AM_0
 10
109.6973559664392
 20
271.56811090622762
 30
0.0
 40
0.9999999999999992
 50
0.0003096955479991
 51
90.0
  0
ARC
  5
4852
  8
AM_0
 10
98.697382992313962
 20
266.56811090622762
 30
0.0
 40
0.9999999999999992
 50
180.00030969555451
 51
270.0
  0
ARC
  5
4853
  8
AM_0
 10
109.6973818942443
 20
266.56811090622762
 30
0.0
 40
1.0
 50
270.0
 51
0.0
  0
ARC
  5
4854
  8
AM_0
 10
109.17762368132949
 20
264.96811090622771
 30
0.0
 40
0.5999999999999944
 50
90.0
 51
218.00194433773009
  0
ARC
  5
4855
  8
AM_0
 10
99.992082089473058
 20
264.56811090622762
 30
0.0
 40
0.9999999999999468
 50
41.03985310957956
 51
90.0
  0
ARC
  5
4856
  8
AM_0
 10
102.0101992452645
 20
217.29575917164411
 30
0.0
 40
0.4128054424705854
 50
180.0
 51
239.99999999999949
  0
ARC
  5
4857
  8
AM_0
 10
102.3235441310659
 20
215.68484941747761
 30
0.0
 40
0.8256108849411369
 50
28.217424594175291
 51
59.999999999996653
  0
LINE
  5
4858
  8
AM_0
 10
101.4871281324255
 20
248.5469168521949
 30
0.0
 11
106.95413228219439
 21
248.5469168521949
 31
0.0
  0
LINE
  5
4859
  8
AM_0
 10
115.4377672241081
 20
248.5469168521949
 30
0.0
 11
118.197393802794
 21
248.5469168521949
 31
0.0
  0
LINE
  5
485A
  8
AM_0
 10
105.5973938027943
 20
222.56811090622759
 30
0.0
 11
106.19739380279429
 21
222.56811090622759
 31
0.0
  0
LINE
  5
485B
  8
AM_0
 10
102.7363495735367
 20
221.73637239497791
 30
0.0
 11
101.80379652402949
 21
221.19796264081151
 31
0.0
  0
LINE
  5
485C
  8
AM_0
 10
103.1698453948249
 20
222.2435373867707
 30
0.0
 11
105.3249422107636
 21
222.2435373867705
 31
0.0
  0
LINE
  5
485D
  8
AM_0
 10
103.16984539482461
 20
220.65582414649921
 30
0.0
 11
105.3249422107636
 21
220.65582414649899
 31
0.0
  0
ARC
  5
485E
  8
AM_0
 10
104.3046169867677
 20
221.4496807666348
 30
0.0
 40
1.292776816026465
 50
359.99999999999352
 51
37.88444105369058
  0
ARC
  5
485F
  8
AM_0
 10
104.1901706188207
 20
221.449680766635
 30
0.0
 40
1.292776816026556
 50
142.11555894629771
 51
217.8844410536951
  0
ARC
  5
4860
  8
AM_0
 10
104.3046169867677
 20
221.4496807666348
 30
0.0
 40
1.2927768160265021
 50
322.11555894629322
 51
359.99999999999352
  0
ARC
  5
4861
  8
AM_0
 10
102.0101992452647
 20
220.8404626408115
 30
0.0
 40
0.4128054424705854
 50
119.99999999999331
 51
179.99999999999341
  0
ARC
  5
4862
  8
AM_0
 10
102.3235441310661
 20
222.45137239497799
 30
0.0
 40
0.8256108849411369
 50
300.00000000000051
 51
331.7825754058203
  0
LINE
  5
4863
  8
AM_0
 10
118.19739380279459
 20
227.56811090622719
 30
0.0
 11
118.19739380279439
 21
224.98360122162319
 31
0.0
  0
LINE
  5
4864
  8
AM_0
 10
118.0509471933877
 20
224.63004783102991
 30
0.0
 11
117.6958800671994
 21
224.27498070484151
 31
0.0
  0
LINE
  5
4865
  8
AM_0
 10
106.19739380279439
 20
224.9836012216239
 30
0.0
 11
106.19739380279459
 21
227.56811090622799
 31
0.0
  0
LINE
  5
4866
  8
AM_0
 10
106.69890753838941
 20
224.27498070484239
 30
0.0
 11
106.3438404122012
 21
224.6300478310304
 31
0.0
  0
LINE
  5
4867
  8
AM_0
 10
117.69739380279459
 20
228.06811090622719
 30
0.0
 11
117.2168159169471
 21
228.06811090622719
 31
0.0
  0
LINE
  5
4868
  8
AM_0
 10
107.1779716886419
 20
228.06811090622779
 30
0.0
 11
106.69739380279449
 21
228.06811090622779
 31
0.0
  0
ARC
  5
4869
  8
AM_0
 10
118.0494334577926
 20
223.92142731424829
 30
0.0
 40
0.4999999999998723
 50
134.99999999997701
 51
195.20903964009699
  0
ARC
  5
486A
  8
AM_0
 10
106.69739380279449
 20
227.5681109062277
 30
0.0
 40
0.5
 50
89.999999999996732
 51
179.99999999999659
  0
ARC
  5
486B
  8
AM_0
 10
117.69739380279459
 20
227.56811090622719
 30
0.0
 40
0.5
 50
359.99999999999682
 51
89.999999999996732
  0
ARC
  5
486C
  8
AM_0
 10
117.69739380279439
 20
224.98360122162319
 30
0.0
 40
0.5
 50
314.9999999999954
 51
359.99999999999682
  0
ARC
  5
486D
  8
AM_0
 10
106.345354147796
 20
223.92142731424889
 30
0.0
 40
0.5000000000001048
 50
344.79096035989579
 51
45.000000000009209
  0
ARC
  5
486E
  8
AM_0
 10
106.69739380279439
 20
224.9836012216239
 30
0.0
 40
0.499999999999984
 50
179.99999999999659
 51
225.0000000000046
  0
LINE
  5
486F
  8
AM_0
 10
108.177971688642
 20
244.21426230404961
 30
0.0
 11
108.1779716886419
 21
229.06811090622779
 31
0.0
  0
ARC
  5
4870
  8
AM_0
 10
107.1779716886419
 20
229.06811090622779
 30
0.0
 40
1.0
 50
269.99999999999682
 51
0.0
1001
GENIUS_GENODEF_13
1002
{
1000
HIER
1070
     0
1002
}
1002
{
1000
MANEDIT
1070
     0
1002
}
1002
{
1000
NOSEL
1070
     0
1002
}
1002
{
1000
BEHIND
1070
     0
1002
}
1002
{
1000
OTHER
1070
     0
1002
}
1002
{
1000
REACTOR
1002
}
1001
GENIUS_GENOBJ-N-FIL_13
1002
{
1000
OWNER
1000
GEN
1002
}
  0
ARC
  5
4871
  8
AM_0
 10
103.177971688642
 20
244.21426230404961
 30
0.0
 40
5.0
 50
0.0
 51
19.381805699020159
1001
GENIUS_GENOBJ-N-FIL_13
1002
{
1000
OWNER
1000
GEN
1002
}
1001
GENIUS_GENODEF_13
1002
{
1000
HIER
1070
     0
1002
}
1002
{
1000
MANEDIT
1070
     0
1002
}
1002
{
1000
NOSEL
1070
     0
1002
}
1002
{
1000
BEHIND
1070
     0
1002
}
1002
{
1000
OTHER
1070
     0
1002
}
1002
{
1000
REACTOR
1002
}
  0
LINE
  5
4872
  8
AM_0
 10
116.2168159169473
 20
245.68344776896629
 30
0.0
 11
116.2168159169473
 21
229.06811090622719
 31
0.0
  0
ARC
  5
4873
  8
AM_0
 10
117.2168159169473
 20
229.06811090622719
 30
0.0
 40
1.0
 50
180.0
 51
269.99999999999352
1001
GENIUS_GENOBJ-N-FIL_13
1002
{
1000
OWNER
1000
GEN
1002
}
1001
GENIUS_GENODEF_13
1002
{
1000
HIER
1070
     0
1002
}
1002
{
1000
MANEDIT
1070
     0
1002
}
1002
{
1000
NOSEL
1070
     0
1002
}
1002
{
1000
BEHIND
1070
     0
1002
}
1002
{
1000
OTHER
1070
     0
1002
}
1002
{
1000
REACTOR
1002
}
  0
ARC
  5
4874
  8
AM_0
 10
111.2168159169472
 20
245.68344776896629
 30
0.0
 40
5.0
 50
0.0
 51
22.755667319206839
1001
GENIUS_GENODEF_13
1002
{
1000
HIER
1070
     0
1002
}
1002
{
1000
MANEDIT
1070
     0
1002
}
1002
{
1000
NOSEL
1070
     0
1002
}
1002
{
1000
BEHIND
1070
     0
1002
}
1002
{
1000
OTHER
1070
     0
1002
}
1002
{
1000
REACTOR
1002
}
1001
GENIUS_GENOBJ-N-FIL_13
1002
{
1000
OWNER
1000
GEN
1002
}
  0
LINE
  5
4875
  8
AM_0
 10
106.9239326494521
 20
224.0499555937796
 30
0.0
 11
117.4708549561373
 21
224.0499555937796
 31
0.0
  0
LINE
  5
4876
  8
AM_0
 10
106.9239326494518
 20
214.086266218676
 30
0.0
 11
117.47085495613619
 21
214.086266218676
 31
0.0
  0
LINE
  5
4877
  8
AM_0
 10
103.7868090514585
 20
183.0777000613017
 30
0.0
 11
103.7868090514585
 21
202.5681109062277
 31
0.0
  0
LINE
  5
4878
  8
AM_0
 10
106.74123231049511
 20
174.06811090622759
 30
0.0
 11
106.74123231049511
 21
202.5681109062277
 31
0.0
  0
LINE
  5
4893
  8
AM_0
 10
117.07569189040311
 20
174.85787231432241
 30
0.0
 11
126.4346775050676
 21
191.0681109062277
 31
0.0
  0
LINE
  5
4894
  8
AM_0
 10
111.8795394676965
 20
177.85787231432241
 30
0.0
 11
120.08382454398161
 21
192.0681109062277
 31
0.0
  0
POLYLINE
  5
4895
  8
AM_0
 66
     1
 10
0.0
 20
0.0
 30
0.0
 70
     8
  0
VERTEX
  5
671D
  8
AM_0
 10
111.88
 20
177.858
 30
0.0
 70
    32
  0
VERTEX
  5
671E
  8
AM_0
 10
111.83499999999999
 20
177.779
 30
0.0
 70
    32
  0
VERTEX
  5
671F
  8
AM_0
 10
111.792
 20
177.69900000000001
 30
0.0
 70
    32
  0
VERTEX
  5
6720
  8
AM_0
 10
111.751
 20
177.61799999999999
 30
0.0
 70
    32
  0
VERTEX
  5
6721
  8
AM_0
 10
111.711
 20
177.53700000000001
 30
0.0
 70
    32
  0
VERTEX
  5
6722
  8
AM_0
 10
111.673
 20
177.45500000000001
 30
0.0
 70
    32
  0
VERTEX
  5
6723
  8
AM_0
 10
111.637
 20
177.37200000000001
 30
0.0
 70
    32
  0
VERTEX
  5
6724
  8
AM_0
 10
111.602
 20
177.28899999999999
 30
0.0
 70
    32
  0
VERTEX
  5
6725
  8
AM_0
 10
111.569
 20
177.20500000000001
 30
0.0
 70
    32
  0
VERTEX
  5
6726
  8
AM_0
 10
111.538
 20
177.12
 30
0.0
 70
    32
  0
VERTEX
  5
6727
  8
AM_0
 10
111.508
 20
177.035
 30
0.0
 70
    32
  0
VERTEX
  5
6728
  8
AM_0
 10
111.48099999999999
 20
176.94999999999999
 30
0.0
 70
    32
  0
VERTEX
  5
6729
  8
AM_0
 10
111.455
 20
176.864
 30
0.0
 70
    32
  0
VERTEX
  5
672A
  8
AM_0
 10
111.431
 20
176.77799999999999
 30
0.0
 70
    32
  0
VERTEX
  5
672B
  8
AM_0
 10
111.40900000000001
 20
176.69200000000001
 30
0.0
 70
    32
  0
VERTEX
  5
672C
  8
AM_0
 10
111.389
 20
176.60599999999999
 30
0.0
 70
    32
  0
VERTEX
  5
672D
  8
AM_0
 10
111.37
 20
176.51900000000001
 30
0.0
 70
    32
  0
VERTEX
  5
672E
  8
AM_0
 10
111.354
 20
176.43199999999999
 30
0.0
 70
    32
  0
VERTEX
  5
672F
  8
AM_0
 10
111.339
 20
176.346
 30
0.0
 70
    32
  0
VERTEX
  5
6730
  8
AM_0
 10
111.32599999999999
 20
176.25899999999999
 30
0.0
 70
    32
  0
VERTEX
  5
6731
  8
AM_0
 10
111.315
 20
176.172
 30
0.0
 70
    32
  0
VERTEX
  5
6732
  8
AM_0
 10
111.306
 20
176.08600000000001
 30
0.0
 70
    32
  0
VERTEX
  5
6733
  8
AM_0
 10
111.29900000000001
 20
175.999
 30
0.0
 70
    32
  0
VERTEX
  5
6734
  8
AM_0
 10
111.294
 20
175.91300000000001
 30
0.0
 70
    32
  0
VERTEX
  5
6735
  8
AM_0
 10
111.291
 20
175.827
 30
0.0
 70
    32
  0
VERTEX
  5
6736
  8
AM_0
 10
111.29000000000001
 20
175.74199999999999
 30
0.0
 70
    32
  0
VERTEX
  5
6737
  8
AM_0
 10
111.29000000000001
 20
175.65600000000001
 30
0.0
 70
    32
  0
VERTEX
  5
6738
  8
AM_0
 10
111.29300000000001
 20
175.572
 30
0.0
 70
    32
  0
VERTEX
  5
6739
  8
AM_0
 10
111.297
 20
175.48699999999999
 30
0.0
 70
    32
  0
VERTEX
  5
673A
  8
AM_0
 10
111.304
 20
175.40299999999999
 30
0.0
 70
    32
  0
VERTEX
  5
673B
  8
AM_0
 10
111.312
 20
175.31999999999999
 30
0.0
 70
    32
  0
VERTEX
  5
673C
  8
AM_0
 10
111.322
 20
175.238
 30
0.0
 70
    32
  0
VERTEX
  5
673D
  8
AM_0
 10
111.334
 20
175.15600000000001
 30
0.0
 70
    32
  0
VERTEX
  5
673E
  8
AM_0
 10
111.348
 20
175.07400000000001
 30
0.0
 70
    32
  0
VERTEX
  5
673F
  8
AM_0
 10
111.364
 20
174.994
 30
0.0
 70
    32
  0
VERTEX
  5
6740
  8
AM_0
 10
111.38200000000001
 20
174.91399999999999
 30
0.0
 70
    32
  0
VERTEX
  5
6741
  8
AM_0
 10
111.401
 20
174.83600000000001
 30
0.0
 70
    32
  0
VERTEX
  5
6742
  8
AM_0
 10
111.423
 20
174.75800000000001
 30
0.0
 70
    32
  0
VERTEX
  5
6743
  8
AM_0
 10
111.446
 20
174.68100000000001
 30
0.0
 70
    32
  0
VERTEX
  5
6744
  8
AM_0
 10
111.471
 20
174.60499999999999
 30
0.0
 70
    32
  0
VERTEX
  5
6745
  8
AM_0
 10
111.498
 20
174.53
 30
0.0
 70
    32
  0
VERTEX
  5
6746
  8
AM_0
 10
111.527
 20
174.45699999999999
 30
0.0
 70
    32
  0
VERTEX
  5
6747
  8
AM_0
 10
111.557
 20
174.38399999999999
 30
0.0
 70
    32
  0
VERTEX
  5
6748
  8
AM_0
 10
111.589
 20
174.31299999999999
 30
0.0
 70
    32
  0
VERTEX
  5
6749
  8
AM_0
 10
111.623
 20
174.24299999999999
 30
0.0
 70
    32
  0
VERTEX
  5
674A
  8
AM_0
 10
111.65900000000001
 20
174.17400000000001
 30
0.0
 70
    32
  0
VERTEX
  5
674B
  8
AM_0
 10
111.697
 20
174.10599999999999
 30
0.0
 70
    32
  0
VERTEX
  5
674C
  8
AM_0
 10
111.736
 20
174.03999999999999
 30
0.0
 70
    32
  0
VERTEX
  5
674D
  8
AM_0
 10
111.776
 20
173.97499999999999
 30
0.0
 70
    32
  0
VERTEX
  5
674E
  8
AM_0
 10
111.819
 20
173.91200000000001
 30
0.0
 70
    32
  0
VERTEX
  5
674F
  8
AM_0
 10
111.863
 20
173.84999999999999
 30
0.0
 70
    32
  0
VERTEX
  5
6750
  8
AM_0
 10
111.908
 20
173.78999999999999
 30
0.0
 70
    32
  0
VERTEX
  5
6751
  8
AM_0
 10
111.955
 20
173.73099999999999
 30
0.0
 70
    32
  0
VERTEX
  5
6752
  8
AM_0
 10
112.004
 20
173.67400000000001
 30
0.0
 70
    32
  0
VERTEX
  5
6753
  8
AM_0
 10
112.054
 20
173.61799999999999
 30
0.0
 70
    32
  0
VERTEX
  5
6754
  8
AM_0
 10
112.10599999999999
 20
173.56399999999999
 30
0.0
 70
    32
  0
VERTEX
  5
6755
  8
AM_0
 10
112.15900000000001
 20
173.512
 30
0.0
 70
    32
  0
VERTEX
  5
6756
  8
AM_0
 10
112.21299999999999
 20
173.46100000000001
 30
0.0
 70
    32
  0
VERTEX
  5
6757
  8
AM_0
 10
112.26900000000001
 20
173.41200000000001
 30
0.0
 70
    32
  0
VERTEX
  5
6758
  8
AM_0
 10
112.32599999999999
 20
173.36500000000001
 30
0.0
 70
    32
  0
VERTEX
  5
6759
  8
AM_0
 10
112.384
 20
173.31999999999999
 30
0.0
 70
    32
  0
VERTEX
  5
675A
  8
AM_0
 10
112.444
 20
173.27699999999999
 30
0.0
 70
    32
  0
VERTEX
  5
675B
  8
AM_0
 10
112.505
 20
173.23500000000001
 30
0.0
 70
    32
  0
VERTEX
  5
675C
  8
AM_0
 10
112.56699999999999
 20
173.196
 30
0.0
 70
    32
  0
VERTEX
  5
675D
  8
AM_0
 10
112.63
 20
173.15799999999999
 30
0.0
 70
    32
  0
VERTEX
  5
675E
  8
AM_0
 10
112.694
 20
173.12200000000001
 30
0.0
 70
    32
  0
VERTEX
  5
675F
  8
AM_0
 10
112.76000000000001
 20
173.08799999999999
 30
0.0
 70
    32
  0
VERTEX
  5
6760
  8
AM_0
 10
112.82599999999999
 20
173.05600000000001
 30
0.0
 70
    32
  0
VERTEX
  5
6761
  8
AM_0
 10
112.89400000000001
 20
173.02600000000001
 30
0.0
 70
    32
  0
VERTEX
  5
6762
  8
AM_0
 10
112.962
 20
172.99799999999999
 30
0.0
 70
    32
  0
VERTEX
  5
6763
  8
AM_0
 10
113.03100000000001
 20
172.97200000000001
 30
0.0
 70
    32
  0
VERTEX
  5
6764
  8
AM_0
 10
113.101
 20
172.94800000000001
 30
0.0
 70
    32
  0
VERTEX
  5
6765
  8
AM_0
 10
113.172
 20
172.92699999999999
 30
0.0
 70
    32
  0
VERTEX
  5
6766
  8
AM_0
 10
113.244
 20
172.90700000000001
 30
0.0
 70
    32
  0
VERTEX
  5
6767
  8
AM_0
 10
113.31699999999999
 20
172.88900000000001
 30
0.0
 70
    32
  0
VERTEX
  5
6768
  8
AM_0
 10
113.39
 20
172.874
 30
0.0
 70
    32
  0
VERTEX
  5
6769
  8
AM_0
 10
113.464
 20
172.86000000000001
 30
0.0
 70
    32
  0
VERTEX
  5
676A
  8
AM_0
 10
113.538
 20
172.84899999999999
 30
0.0
 70
    32
  0
VERTEX
  5
676B
  8
AM_0
 10
113.613
 20
172.839
 30
0.0
 70
    32
  0
VERTEX
  5
676C
  8
AM_0
 10
113.68899999999999
 20
172.83199999999999
 30
0.0
 70
    32
  0
VERTEX
  5
676D
  8
AM_0
 10
113.765
 20
172.827
 30
0.0
 70
    32
  0
VERTEX
  5
676E
  8
AM_0
 10
113.84099999999999
 20
172.82400000000001
 30
0.0
 70
    32
  0
VERTEX
  5
676F
  8
AM_0
 10
113.91800000000001
 20
172.82400000000001
 30
0.0
 70
    32
  0
VERTEX
  5
6770
  8
AM_0
 10
113.995
 20
172.82499999999999
 30
0.0
 70
    32
  0
VERTEX
  5
6771
  8
AM_0
 10
114.07299999999999
 20
172.82900000000001
 30
0.0
 70
    32
  0
VERTEX
  5
6772
  8
AM_0
 10
114.151
 20
172.834
 30
0.0
 70
    32
  0
VERTEX
  5
6773
  8
AM_0
 10
114.229
 20
172.84200000000001
 30
0.0
 70
    32
  0
VERTEX
  5
6774
  8
AM_0
 10
114.307
 20
172.852
 30
0.0
 70
    32
  0
VERTEX
  5
6775
  8
AM_0
 10
114.38500000000001
 20
172.864
 30
0.0
 70
    32
  0
VERTEX
  5
6776
  8
AM_0
 10
114.46299999999999
 20
172.87799999999999
 30
0.0
 70
    32
  0
VERTEX
  5
6777
  8
AM_0
 10
114.541
 20
172.89400000000001
 30
0.0
 70
    32
  0
VERTEX
  5
6778
  8
AM_0
 10
114.619
 20
172.91200000000001
 30
0.0
 70
    32
  0
VERTEX
  5
6779
  8
AM_0
 10
114.69799999999999
 20
172.93299999999999
 30
0.0
 70
    32
  0
VERTEX
  5
677A
  8
AM_0
 10
114.776
 20
172.95500000000001
 30
0.0
 70
    32
  0
VERTEX
  5
677B
  8
AM_0
 10
114.85299999999999
 20
172.97900000000001
 30
0.0
 70
    32
  0
VERTEX
  5
677C
  8
AM_0
 10
114.931
 20
173.00599999999989
 30
0.0
 70
    32
  0
VERTEX
  5
677D
  8
AM_0
 10
115.008
 20
173.03399999999999
 30
0.0
 70
    32
  0
VERTEX
  5
677E
  8
AM_0
 10
115.08499999999999
 20
173.065
 30
0.0
 70
    32
  0
VERTEX
  5
677F
  8
AM_0
 10
115.16200000000001
 20
173.09700000000001
 30
0.0
 70
    32
  0
VERTEX
  5
6780
  8
AM_0
 10
115.238
 20
173.13200000000001
 30
0.0
 70
    32
  0
VERTEX
  5
6781
  8
AM_0
 10
115.31399999999999
 20
173.16800000000001
 30
0.0
 70
    32
  0
VERTEX
  5
6782
  8
AM_0
 10
115.389
 20
173.20699999999999
 30
0.0
 70
    32
  0
VERTEX
  5
6783
  8
AM_0
 10
115.464
 20
173.24700000000001
 30
0.0
 70
    32
  0
VERTEX
  5
6784
  8
AM_0
 10
115.538
 20
173.28899999999999
 30
0.0
 70
    32
  0
VERTEX
  5
6785
  8
AM_0
 10
115.611
 20
173.333
 30
0.0
 70
    32
  0
VERTEX
  5
6786
  8
AM_0
 10
115.684
 20
173.37899999999999
 30
0.0
 70
    32
  0
VERTEX
  5
6787
  8
AM_0
 10
115.756
 20
173.42599999999999
 30
0.0
 70
    32
  0
VERTEX
  5
6788
  8
AM_0
 10
115.827
 20
173.47499999999999
 30
0.0
 70
    32
  0
VERTEX
  5
6789
  8
AM_0
 10
115.898
 20
173.52600000000001
 30
0.0
 70
    32
  0
VERTEX
  5
678A
  8
AM_0
 10
115.968
 20
173.57900000000001
 30
0.0
 70
    32
  0
VERTEX
  5
678B
  8
AM_0
 10
116.036
 20
173.63399999999999
 30
0.0
 70
    32
  0
VERTEX
  5
678C
  8
AM_0
 10
116.104
 20
173.69
 30
0.0
 70
    32
  0
VERTEX
  5
678D
  8
AM_0
 10
116.17100000000001
 20
173.74700000000001
 30
0.0
 70
    32
  0
VERTEX
  5
678E
  8
AM_0
 10
116.23699999999999
 20
173.80699999999999
 30
0.0
 70
    32
  0
VERTEX
  5
678F
  8
AM_0
 10
116.301
 20
173.86699999999999
 30
0.0
 70
    32
  0
VERTEX
  5
6790
  8
AM_0
 10
116.36499999999999
 20
173.93000000000001
 30
0.0
 70
    32
  0
VERTEX
  5
6791
  8
AM_0
 10
116.42700000000001
 20
173.994
 30
0.0
 70
    32
  0
VERTEX
  5
6792
  8
AM_0
 10
116.489
 20
174.059
 30
0.0
 70
    32
  0
VERTEX
  5
6793
  8
AM_0
 10
116.54900000000001
 20
174.125
 30
0.0
 70
    32
  0
VERTEX
  5
6794
  8
AM_0
 10
116.608
 20
174.19300000000001
 30
0.0
 70
    32
  0
VERTEX
  5
6795
  8
AM_0
 10
116.66500000000001
 20
174.262
 30
0.0
 70
    32
  0
VERTEX
  5
6796
  8
AM_0
 10
116.72199999999999
 20
174.333
 30
0.0
 70
    32
  0
VERTEX
  5
6797
  8
AM_0
 10
116.776
 20
174.405
 30
0.0
 70
    32
  0
VERTEX
  5
6798
  8
AM_0
 10
116.83
 20
174.477
 30
0.0
 70
    32
  0
VERTEX
  5
6799
  8
AM_0
 10
116.88200000000001
 20
174.55099999999999
 30
0.0
 70
    32
  0
VERTEX
  5
679A
  8
AM_0
 10
116.93300000000001
 20
174.62700000000001
 30
0.0
 70
    32
  0
VERTEX
  5
679B
  8
AM_0
 10
116.982
 20
174.703
 30
0.0
 70
    32
  0
VERTEX
  5
679C
  8
AM_0
 10
117.03
 20
174.78
 30
0.0
 70
    32
  0
VERTEX
  5
679D
  8
AM_0
 10
117.07599999999999
 20
174.858
 30
0.0
 70
    32
  0
SEQEND
  5
679E
  8
AM_0
  0
LINE
  5
48A3
  8
AM_0
 10
131.69739380279401
 20
272.8681109062278
 30
0.0
 11
131.69739380279401
 21
265.26811090622772
 31
0.0
1001
GENIUS_GENOREF_13
1005
0
  0
LINE
  5
48A4
  8
AM_0
 10
131.69739380279401
 20
265.26811090622772
 30
0.0
 11
132.69739380279401
 21
265.26811090622772
 31
0.0
1001
GENIUS_GENOREF_13
1005
0
  0
LINE
  5
48A5
  8
AM_0
 10
132.69739380279401
 20
268.8681109062278
 30
0.0
 11
131.69739380279401
 21
268.50414067196152
 31
0.0
1001
GENIUS_GENOREF_13
1005
0
  0
LINE
  5
48A6
  8
AM_0
 10
132.69739380279401
 20
269.26811090622772
 30
0.0
 11
131.69739380279401
 21
268.9041406719615
 31
0.0
1001
GENIUS_GENOREF_13
1005
0
  0
LINE
  5
48A7
  8
AM_0
 10
132.69739380279401
 20
272.8681109062278
 30
0.0
 11
131.69739380279401
 21
272.8681109062278
 31
0.0
1001
GENIUS_GENOREF_13
1005
0
  0
LINE
  5
48A8
  8
AM_0N
 10
130.63845629066611
 20
265.16075593392122
 30
0.0
 11
131.69739380279401
 21
265.06811090622767
 31
0.0
  0
LINE
  5
48A9
  8
AM_0N
 10
130.63845629066611
 20
272.97546587853418
 30
0.0
 11
131.69739380279401
 21
273.06811090622779
 31
0.0
  0
ARC
  5
48AA
  8
AM_0N
 10
135.09739380279399
 20
269.06811090622767
 30
0.0
 40
6.5
 50
151.82726586813479
 51
208.1727341318651
  0
ARC
  5
48AB
  8
AM_0N
 10
130.77790547906241
 20
271.3815543615874
 30
0.0
 40
1.6000000000000001
 50
94.99999999999973
 51
151.82726586813479
  0
ARC
  5
48AC
  8
AM_0N
 10
130.77790547906241
 20
266.75466745086811
 30
0.0
 40
1.6000000000000001
 50
208.1727341318651
 51
265.00000000000028
  0
LINE
  5
48AD
  8
AM_0N
 10
131.69739380279401
 20
273.06811090622779
 30
0.0
 11
131.69739380279401
 21
265.06811090622767
 31
0.0
  0
LINE
  5
48AE
  8
AM_0
 10
131.69739380279401
 20
195.47325509993749
 30
0.0
 11
131.69739380279401
 21
190.0056109062277
 31
0.0
1001
GENIUS_GENOREF_13
1005
0
  0
LINE
  5
48AF
  8
AM_0
 10
131.69739380279401
 20
190.2056109062278
 30
0.0
 11
132.69739380279401
 21
190.2056109062278
 31
0.0
1001
GENIUS_GENOREF_13
1005
0
  0
LINE
  5
48B0
  8
AM_0
 10
132.69739380279401
 20
193.8056109062278
 30
0.0
 11
131.69739380279401
 21
193.44164067196161
 31
0.0
1001
GENIUS_GENOREF_13
1005
0
  0
LINE
  5
48B1
  8
AM_0
 10
132.69739380279401
 20
194.2056109062278
 30
0.0
 11
131.69739380279401
 21
193.84164067196161
 31
0.0
1001
GENIUS_GENOREF_13
1005
0
  0
LINE
  5
48B2
  8
AM_0N
 10
130.6384562906662
 20
190.09825593392131
 30
0.0
 11
131.69739380279401
 21
190.0056109062277
 31
0.0
  0
ARC
  5
48B3
  8
AM_0N
 10
135.09739380279399
 20
194.0056109062277
 30
0.0
 40
6.5
 50
182.900769989091
 51
208.1727341318651
  0
ARC
  5
48B4
  8
AM_0N
 10
130.7779054790625
 20
191.69216745086811
 30
0.0
 40
1.6000000000000001
 50
208.1727341318651
 51
265.00000000000028
  0
ARC
  5
4B45
  8
AM_0
 10
635.17844944280614
 20
314.5681109062279
 30
0.0
 40
9.9999999999999964
 50
71.805182709316554
 51
90.0
  0
ARC
  5
4B4C
  8
AM_0
 10
635.17844944280614
 20
314.5681109062279
 30
0.0
 40
10.0
 50
90.0
 51
108.1948172906834
  0
LINE
  5
5991
  8
AM_0
 10
528.17844944280614
 20
173.06811090622779
 30
0.0
 11
552.02150082440039
 21
173.90072860750439
 31
0.0
  0
LINE
  5
5992
  8
AM_0
 10
550.17847744280607
 20
264.299852999628
 30
0.0
 11
528.17844944280614
 21
265.06811090622801
 31
0.0
  0
LINE
  5
5993
  8
AM_0
 10
528.17844944280614
 20
265.06811090622801
 30
0.0
 11
528.17844944280614
 21
173.06811090622759
 31
0.0
  0
LINE
  5
5994
  8
ﾁｭｳｼﾝｾﾝ1
 10
517.17844944280591
 20
178.0681109062285
 30
0.0
 11
533.00597245534277
 21
178.06811090622841
 31
0.0
  0
LINE
  5
5995
  8
AM_0
 10
524.17844944280614
 20
265.06811090622801
 30
0.0
 11
524.17844944280614
 21
244.25360600669549
 31
0.0
  0
LINE
  5
5996
  8
AM_0
 10
524.17844944280614
 20
193.8826158057602
 30
0.0
 11
524.17844944280614
 21
173.06811090622861
 31
0.0
  0
LINE
  5
5997
  8
AM_0
 10
520.17844944280625
 20
258.93232923706728
 30
0.0
 11
520.17844944280603
 21
179.20389257538841
 31
0.0
  0
LINE
  5
5998
  8
AM_0
 10
522.11951193067819
 20
181.97546587853489
 30
0.0
 11
523.17844944280614
 21
182.06811090622841
 31
0.0
  0
LINE
  5
5999
  8
AM_0
 10
522.11951193067819
 20
174.16075593392199
 30
0.0
 11
523.17844944280614
 21
174.06811090622841
 31
0.0
  0
ARC
  5
599A
  8
AM_0
 10
526.57844944280623
 20
178.06811090622841
 30
0.0
 40
6.5
 50
151.82726586813479
 51
208.1727341318651
  0
ARC
  5
599B
  8
AM_0
 10
522.25896111907468
 20
175.75466745086871
 30
0.0
 40
1.6000000000000001
 50
208.1727341318651
 51
265.00000000000028
  0
LINE
  5
599C
  8
AM_0
 10
520.49897578137791
 20
180.36811090622831
 30
0.0
 11
522.78853546017331
 21
178.06811090622841
 31
0.0
  0
LINE
  5
599D
  8
AM_0
 10
522.47844944280587
 20
178.37961090622841
 30
0.0
 11
522.47844944280587
 21
177.75661090622839
 31
0.0
  0
LINE
  5
599E
  8
AM_0
 10
520.49897578137791
 20
175.7681109062284
 30
0.0
 11
522.78853546017331
 21
178.06811090622841
 31
0.0
  0
LINE
  5
599F
  8
AM_0
 10
520.08591775247135
 20
178.37961090622841
 30
0.0
 11
522.47844944280587
 21
178.37961090622841
 31
0.0
  0
LINE
  5
59A0
  8
AM_0
 10
520.08591775247135
 20
177.75661090622839
 30
0.0
 11
522.47844944280587
 21
177.75661090622839
 31
0.0
  0
ARC
  5
59A1
  8
AM_0
 10
522.25896111907468
 20
180.38155436158809
 30
0.0
 40
1.6000000000000001
 50
94.999999999999758
 51
151.82726586813479
  0
LINE
  5
59A2
  8
AM_0
 10
524.17844944280614
 20
265.06811090622801
 30
0.0
 11
528.17844944280614
 21
265.06811090622801
 31
0.0
  0
LINE
  5
59A3
  8
AM_0
 10
523.17844944280591
 20
264.06811090622767
 30
0.0
 11
524.17844944280625
 21
265.06811090622801
 31
0.0
  0
LINE
  5
59A4
  8
AM_0
 10
528.17844944280614
 20
173.06811090622759
 30
0.0
 11
524.17844944280614
 21
173.06811090622861
 31
0.0
  0
LINE
  5
59A5
  8
AM_0N
 10
524.17844944280614
 20
181.86811090622851
 30
0.0
 11
523.17844944280614
 21
181.86811090622851
 31
0.0
  0
LINE
  5
59A6
  8
AM_0N
 10
523.17844944280614
 20
178.2681109062284
 30
0.0
 11
524.17844944280614
 21
178.63208114049451
 31
0.0
  0
LINE
  5
59A7
  8
AM_0N
 10
523.17844944280614
 20
177.86811090622851
 30
0.0
 11
524.17844944280614
 21
178.23208114049461
 31
0.0
  0
LINE
  5
59A8
  8
AM_0N
 10
523.17844944280614
 20
174.06811090622841
 30
0.0
 11
523.17844944280614
 21
182.06811090622841
 31
0.0
  0
LINE
  5
59A9
  8
AM_0N
 10
523.17844944280614
 20
174.2681109062284
 30
0.0
 11
524.17844944280614
 21
174.2681109062284
 31
0.0
  0
LINE
  5
59AA
  8
AM_0
 10
520.17844944280603
 20
193.88261580576011
 30
0.0
 11
524.17844944280614
 21
193.8826158057602
 31
0.0
  0
LINE
  5
59AB
  8
AM_0
 10
524.17844944280614
 20
192.22576155626771
 30
0.0
 11
520.17844944280603
 21
193.88261580576011
 31
0.0
  0
LINE
  5
59AC
  8
AM_0
 10
520.17844944280625
 20
244.25360600669549
 30
0.0
 11
524.17844944280614
 21
244.25360600669549
 31
0.0
  0
LINE
  5
59AD
  8
AM_0
 10
524.17844944280614
 20
245.910460256188
 30
0.0
 11
520.17844944280625
 21
244.25360600669549
 31
0.0
  0
LINE
  5
59AE
  8
ﾁｭｳｼﾝｾﾝ1
 10
517.17844944280625
 20
260.0681109062271
 30
0.0
 11
533.00597245534277
 21
260.06811090622728
 31
0.0
  0
LINE
  5
59AF
  8
AM_0
 10
522.11951193067819
 20
256.16075593392088
 30
0.0
 11
523.17844944280614
 21
256.06811090622728
 31
0.0
  0
LINE
  5
59B0
  8
AM_0
 10
522.11951193067819
 20
263.97546587853373
 30
0.0
 11
523.17844944280614
 21
264.06811090622728
 31
0.0
  0
ARC
  5
59B1
  8
AM_0
 10
526.57844944280623
 20
260.06811090622728
 30
0.0
 40
6.5
 50
151.82726586813479
 51
208.1727341318651
  0
ARC
  5
59B2
  8
AM_0
 10
522.25896111907468
 20
262.38155436158701
 30
0.0
 40
1.6000000000000001
 50
94.999999999999758
 51
151.82726586813479
  0
LINE
  5
59B3
  8
AM_0
 10
520.49897578137791
 20
257.76811090622732
 30
0.0
 11
522.78853546017331
 21
260.06811090622728
 31
0.0
  0
LINE
  5
59B4
  8
AM_0
 10
522.47844944280587
 20
259.75661090622731
 30
0.0
 11
522.47844944280587
 21
260.3796109062273
 31
0.0
  0
LINE
  5
59B5
  8
AM_0
 10
520.49897578137791
 20
262.36811090622717
 30
0.0
 11
522.78853546017331
 21
260.06811090622728
 31
0.0
  0
LINE
  5
59B6
  8
AM_0
 10
520.08591775247135
 20
259.75661090622731
 30
0.0
 11
522.47844944280587
 21
259.75661090622731
 31
0.0
  0
LINE
  5
59B7
  8
AM_0
 10
520.08591775247135
 20
260.3796109062273
 30
0.0
 11
522.47844944280587
 21
260.3796109062273
 31
0.0
  0
ARC
  5
59B8
  8
AM_0
 10
522.25896111907468
 20
257.7546674508676
 30
0.0
 40
1.6000000000000001
 50
208.1727341318651
 51
265.00000000000028
  0
LINE
  5
59B9
  8
AM_0N
 10
524.17844944280614
 20
256.26811090622721
 30
0.0
 11
523.17844944280614
 21
256.26811090622721
 31
0.0
  0
LINE
  5
59BA
  8
AM_0N
 10
523.17844944280614
 20
259.86811090622729
 30
0.0
 11
524.17844944280614
 21
259.50414067196112
 31
0.0
  0
LINE
  5
59BB
  8
AM_0N
 10
523.17844944280614
 20
260.26811090622721
 30
0.0
 11
524.17844944280614
 21
259.9041406719611
 31
0.0
  0
LINE
  5
59BC
  8
AM_0N
 10
523.17844944280614
 20
264.06811090622728
 30
0.0
 11
523.17844944280614
 21
256.06811090622728
 31
0.0
  0
LINE
  5
59BD
  8
AM_0N
 10
523.17844944280614
 20
263.86811090622717
 30
0.0
 11
524.17844944280614
 21
263.86811090622717
 31
0.0
  0
CIRCLE
  5
59C7
  8
AM_0
 10
635.17844944280614
 20
239.0681269062276
 30
0.0
 40
33.499999999999893
  0
CIRCLE
  5
59C8
  8
AM_0
 10
635.17844944280614
 20
239.0681269062276
 30
0.0
 40
28.49999999999994
  0
LINE
  5
59CE
  8
AM_0
 10
390.19733380279371
 20
251.06809690622779
 30
0.0
 11
424.19738380279398
 21
251.06809690622779
 31
0.0
  0
LINE
  5
59CF
  8
AM_0
 10
424.19738380279398
 20
254.06809690622779
 30
0.0
 11
424.19738380279398
 21
227.06809690622779
 31
0.0
  0
LINE
  5
59D0
  8
AM_0
 10
390.19733380279382
 20
227.06809690622779
 30
0.0
 11
424.19738380279398
 21
227.06809690622779
 31
0.0
  0
LINE
  5
59D1
  8
ﾁｭｳｼﾝｾﾝ
 10
427.9098538027942
 20
239.06809690622779
 30
0.0
 11
294.87512380279418
 21
239.06809690622779
 31
0.0
  0
LINE
  5
59D2
  8
AM_0
 10
392.19734380279419
 20
254.06809690622779
 30
0.0
 11
392.19734380279419
 21
251.06809690622779
 31
0.0
  0
LINE
  5
59D3
  8
AM_0
 10
639.17843344280595
 20
254.06809690622779
 30
0.0
 11
639.17843344280595
 21
247.06809790622779
 31
0.0
  0
LINE
  5
59D4
  8
AM_0
 10
631.17843244280596
 20
254.06809690622779
 30
0.0
 11
631.17843244280596
 21
247.06809790622779
 31
0.0
  0
LINE
  5
59D5
  8
AM_0
 10
631.17843244280596
 20
254.06809690622779
 30
0.0
 11
639.17843344280595
 21
254.06809690622779
 31
0.0
  0
LINE
  5
59D6
  8
AM_0
 10
631.17843244280596
 20
247.06809790622779
 30
0.0
 11
639.17843344280595
 21
247.06809790622779
 31
0.0
  0
LINE
  5
59D7
  8
AM_0
 10
392.19734380279419
 20
254.06809690622779
 30
0.0
 11
424.19738380279398
 21
254.06809690622779
 31
0.0
  0
LINE
  5
59D8
  8
AM_0
 10
305.19734380279419
 20
268.73524090622777
 30
0.0
 11
305.19734380279419
 21
249.0961429062279
 31
0.0
  0
LINE
  5
59D9
  8
ﾁｭｳｼﾝｾﾝ
 10
90.508578930471558
 20
219.0681109062277
 30
0.0
 11
324.17129380279431
 21
219.0681109062277
 31
0.0
  0
LINE
  5
59DA
  8
AM_0
 10
279.19739380279412
 20
275.06809690622771
 30
0.0
 11
305.32826380279408
 21
275.7523639062278
 31
0.0
  0
LINE
  5
59DB
  8
AM_0
 10
279.19739380279412
 20
163.0680949062278
 30
0.0
 11
302.275883802794
 21
162.46376890622781
 31
0.0
  0
LINE
  5
59DC
  8
AM_0
 10
279.19739380279412
 20
163.06810990622779
 30
0.0
 11
279.19739380279412
 21
275.06809690622771
 31
0.0
  0
LINE
  5
59DD
  8
AM_0
 10
312.19739380279418
 20
290.06809690622782
 30
0.0
 11
317.19734380279419
 21
290.06809690622782
 31
0.0
  0
LINE
  5
59DE
  8
AM_0
 10
310.1974138027943
 20
288.06809890622787
 30
0.0
 11
310.1974138027943
 21
272.73527290622781
 31
0.0
  0
LINE
  5
59DF
  8
AM_0
 10
307.19741380279419
 20
270.73524190622783
 30
0.0
 11
308.19734380279419
 21
270.73524190622783
 31
0.0
  0
LINE
  5
59E0
  8
AM_0
 10
305.19734380279419
 20
156.19802290622769
 30
0.0
 11
310.1974138027943
 21
156.19802290622769
 31
0.0
  0
LINE
  5
59E1
  8
AM_0
 10
305.19734380279419
 20
169.8523519062278
 30
0.0
 11
310.1974138027943
 21
169.8523519062278
 31
0.0
  0
LINE
  5
59E2
  8
AM_0
 10
305.19734380279419
 20
247.0961569062278
 30
0.0
 11
310.1974138027943
 21
247.0961569062278
 31
0.0
  0
LINE
  5
59E3
  8
AM_0
 10
307.19741380279419
 20
262.5624529062278
 30
0.0
 11
308.19734380279419
 21
262.5624529062278
 31
0.0
  0
LINE
  5
59E4
  8
AM_0
 10
310.1974138027943
 20
260.56242190622783
 30
0.0
 11
310.1974138027943
 21
150.06810790622779
 31
0.0
  0
LINE
  5
59E5
  8
AM_0
 10
305.19734380279419
 20
167.85236590622779
 30
0.0
 11
305.19734380279419
 21
156.06811090622779
 31
0.0
  0
LINE
  5
59E6
  8
AM_0
 10
279.19739380279412
 20
265.06809790622782
 30
0.0
 11
305.19734380279419
 21
265.06809790622782
 31
0.0
  0
LINE
  5
59E7
  8
AM_0
 10
279.19739380279412
 20
251.00510890622789
 30
0.0
 11
305.19734380279419
 21
251.00510890622789
 31
0.0
  0
LINE
  5
59E8
  8
AM_0
 10
279.19739380279412
 20
187.13109790622781
 30
0.0
 11
310.1974138027943
 21
187.13109790622781
 31
0.0
  0
LINE
  5
59E9
  8
AM_0
 10
279.19739380279412
 20
173.06809390622769
 30
0.0
 11
310.1974138027943
 21
173.06809390622769
 31
0.0
  0
LINE
  5
59EA
  8
AM_0
 10
312.19739380279418
 20
148.0680949062278
 30
0.0
 11
317.19734380279419
 21
148.0680949062278
 31
0.0
  0
LINE
  5
59EB
  8
AM_0
 10
377.90960380279398
 20
271.29871990622769
 30
0.0
 11
380.19733380279382
 21
268.57227539086631
 31
0.0
  0
LINE
  5
59EC
  8
AM_0
 10
377.19734380279419
 20
156.56809390622769
 30
0.0
 11
377.19734380279419
 21
324.06811390622778
 31
0.0
  0
LINE
  5
59ED
  8
AM_0
 10
367.19738380279398
 20
158.84867290622779
 30
0.0
 11
367.19738380279398
 21
191.91376690622781
 31
0.0
  0
LINE
  5
59EE
  8
AM_0
 10
349.19738380279409
 20
303.14206390622797
 30
0.0
 11
349.19738380279409
 21
257.91294490622789
 31
0.0
  0
LINE
  5
59EF
  8
AM_0
 10
377.19734380279419
 20
309.06808390622768
 30
0.0
 11
381.19736380279397
 21
309.06808390622768
 31
0.0
  0
LINE
  5
59F0
  8
AM_0
 10
369.12755380279418
 20
323.78629390622768
 30
0.0
 11
377.19734380279419
 21
324.06811390622778
 31
0.0
  0
LINE
  5
59F1
  8
AM_0
 10
354.52286380279401
 20
308.13901390622777
 30
0.0
 11
364.30208380279402
 21
308.4805039062278
 31
0.0
  0
LINE
  5
59F2
  8
ﾁｭｳｼﾝｾﾝ
 10
545.20261894280577
 20
239.0681269062276
 30
0.0
 11
725.15427994280628
 21
239.0681269062276
 31
0.0
  0
LINE
  5
59F3
  8
ﾁｭｳｼﾝｾﾝ
 10
674.15379456859614
 20
219.0681109062279
 30
0.0
 11
596.20310431701614
 21
219.0681109062279
 31
0.0
  0
LINE
  5
59F4
  8
ﾁｭｳｼﾝｾﾝ
 10
635.17844944280614
 20
328.56640718143927
 30
0.0
 11
635.17844944280614
 21
137.2048129062278
 31
0.0
  0
LINE
  5
59F5
  8
AM_0
 10
687.17846344280611
 20
234.0681109062277
 30
0.0
 11
687.17846344280611
 21
217.06810990622779
 31
0.0
  0
LINE
  5
59F6
  8
AM_0
 10
317.19734380279419
 20
290.06809690622782
 30
0.0
 11
317.19734380279419
 21
145.56810790622779
 31
0.0
  0
LINE
  5
59F7
  8
AM_0
 10
568.24051744280621
 20
250.8710599062278
 30
0.0
 11
568.24051744280621
 21
250.8710599062278
 31
0.0
  0
LINE
  5
59F8
  8
AM_0
 10
377.19734380279419
 20
169.06810990622779
 30
0.0
 11
381.19736380279397
 21
169.06810990622779
 31
0.0
  0
LINE
  5
59F9
  8
AM_0
 10
690.85670344280595
 20
278.05442590622778
 30
0.0
 11
690.85670344280595
 21
278.05442590622778
 31
0.0
  0
LINE
  5
59FA
  8
AM_0
 10
702.11642344280585
 20
250.8710599062278
 30
0.0
 11
702.11642344280585
 21
250.8710599062278
 31
0.0
  0
LINE
  5
59FB
  8
AM_0
 10
381.19736380279397
 20
250.8710599062278
 30
0.0
 11
381.19736380279397
 21
169.06810990622779
 31
0.0
  0
LINE
  5
59FC
  8
AM_0
 10
579.50022244280626
 20
278.05442590622778
 30
0.0
 11
579.50022244280626
 21
278.05442590622778
 31
0.0
  0
LINE
  5
59FD
  8
AM_0
 10
367.19738380279398
 20
281.01975790622788
 30
0.0
 11
367.19738380279398
 21
321.78748390622798
 31
0.0
  0
LINE
  5
59FF
  8
ﾁｭｳｼﾝｾﾝ1
 10
555.2753937056649
 20
159.16504433251879
 30
0.0
 11
573.66017739195581
 21
177.54981326792421
 31
0.0
  0
LINE
  5
5A00
  8
AM_0
 10
550.17847744280607
 20
269.06809690622771
 30
0.0
 11
552.44611744280598
 21
312.33751390622768
 31
0.0
  0
LINE
  5
5A01
  8
AM_0
 10
605.17844644280603
 20
324.06811390622778
 30
0.0
 11
635.17844944280614
 21
324.06811390622778
 31
0.0
  0
LINE
  5
5A02
  8
AM_0
 10
597.17844544280581
 20
214.06810990622779
 30
0.0
 11
576.14457244280595
 21
214.06810990622779
 31
0.0
  0
LINE
  5
5A03
  8
AM_0
 10
550.17847744280607
 20
269.06809690622771
 30
0.0
 11
550.17847744280607
 21
239.06809690622779
 31
0.0
  0
LINE
  5
5A04
  8
AM_0
 10
605.178461442806
 20
324.06811390622778
 30
0.0
 11
561.90903544280604
 21
321.80044390622783
 31
0.0
  0
LINE
  5
5A05
  8
AM_0
 10
354.19736380279397
 20
252.91296190622779
 30
0.0
 11
368.42813380279398
 21
252.91296190622779
 31
0.0
  0
LINE
  5
5A06
  8
AM_0
 10
371.19734380279419
 20
174.78676990622779
 30
0.0
 11
371.19734380279419
 21
305.84944390622798
 31
0.0
  0
LINE
  5
5A07
  8
AM_0
 10
369.12758380279399
 20
156.84989290622769
 30
0.0
 11
377.19737380279412
 21
156.56809390622769
 31
0.0
  0
LINE
  5
5A08
  8
AM_0
 10
317.19740380279399
 20
290.06809690622782
 30
0.0
 11
346.27589380279397
 21
290.82954190622769
 31
0.0
  0
LINE
  5
5A09
  8
AM_0
 10
550.17844744280603
 20
209.06809690622779
 30
0.0
 11
552.43321744280593
 21
166.0447489062278
 31
0.0
  0
LINE
  5
5A0A
  8
AM_0
 10
550.17847744280607
 20
209.06809690622779
 30
0.0
 11
550.17847744280607
 21
239.06809690622779
 31
0.0
  0
LINE
  5
5A0B
  8
AM_0
 10
562.41950344280622
 20
156.56809390622769
 30
0.0
 11
591.62915944280587
 21
156.56809390622769
 31
0.0
  0
LINE
  5
5A0C
  8
AM_0
 10
678.72773644280596
 20
156.56809390622769
 30
0.0
 11
707.93740744280592
 21
156.56809390622769
 31
0.0
  0
LINE
  5
5A0D
  8
AM_0
 10
720.17845144280591
 20
209.06809690622779
 30
0.0
 11
720.17845144280591
 21
239.06809690622779
 31
0.0
  0
LINE
  5
5A0F
  8
AM_0
 10
665.17844944280614
 20
324.06811390622778
 30
0.0
 11
635.17844944280614
 21
324.06811390622778
 31
0.0
  0
LINE
  5
5A10
  8
AM_0
 10
317.19734380279419
 20
267.86512390622778
 30
0.0
 11
347.5156438027941
 21
267.86512390622778
 31
0.0
  0
LINE
  5
5A11
  8
AM_0
 10
317.19734380279419
 20
145.56810790622779
 30
0.0
 11
353.19734380279419
 21
144.06810790622779
 31
0.0
  0
LINE
  5
5A12
  8
AM_0
 10
353.19734380279419
 20
159.47857090622779
 30
0.0
 11
353.19734380279419
 21
144.06810790622779
 31
0.0
  0
LINE
  5
5A13
  8
AM_0
 10
354.1712038027942
 20
160.47823390622781
 30
0.0
 11
367.19738380279398
 21
160.81933090622769
 31
0.0
  0
LINE
  5
5A14
  8
AM_0
 10
350.64554380279418
 20
278.79676690622767
 30
0.0
 11
367.6828138027941
 21
278.79676690622767
 31
0.0
  0
LINE
  5
5A15
  8
AM_0
 10
583.17844744280603
 20
234.0681109062277
 30
0.0
 11
583.17844744280603
 21
217.06810990622779
 31
0.0
  0
LINE
  5
5A16
  8
AM_0
 10
572.37717544280611
 20
241.06811290622781
 30
0.0
 11
580.40619844280604
 21
241.06811290622781
 31
0.0
  0
LINE
  5
5A17
  8
AM_0
 10
668.17844944280614
 20
233.3018456088931
 30
0.0
 11
668.17844944280614
 21
219.0681109062277
 31
0.0
  0
LINE
  5
5A18
  8
AM_0
 10
572.37717544280611
 20
237.0681109062279
 30
0.0
 11
580.17844744280603
 21
237.0681109062279
 31
0.0
  0
LINE
  5
5A19
  8
AM_0
 10
677.78834344280597
 20
285.21351490622789
 30
0.0
 11
658.56770044280609
 21
265.99287190622789
 31
0.0
  0
LINE
  5
5A1A
  8
AM_0
 10
681.3238644428061
 20
281.67799090622782
 30
0.0
 11
662.10323944280583
 21
262.45734790622782
 31
0.0
  0
LINE
  5
5A1B
  8
AM_0
 10
592.56858244280602
 20
285.21351490622789
 30
0.0
 11
611.78922544280601
 21
265.99287190622789
 31
0.0
  0
LINE
  5
5A1C
  8
AM_0
 10
607.05117244280609
 20
144.16298890622781
 30
0.0
 11
663.30573844280605
 21
144.16298890622781
 31
0.0
  0
LINE
  5
5A1D
  8
AM_0
 10
673.17846544280599
 20
214.06810990622779
 30
0.0
 11
694.21235344280592
 21
214.06810990622779
 31
0.0
  0
LINE
  5
5A1E
  8
AM_0
 10
637.17846244280599
 20
301.86937390622768
 30
0.0
 11
637.17846244280599
 21
293.84037490622779
 31
0.0
  0
LINE
  5
5A1F
  8
AM_0
 10
633.17844844280592
 20
301.86937390622768
 30
0.0
 11
633.17844844280592
 21
293.84037490622779
 31
0.0
  0
LINE
  5
5A20
  8
AM_0
 10
589.033061442806
 20
281.67796090622761
 30
0.0
 11
608.25368944280604
 21
262.45734790622782
 31
0.0
  0
LINE
  5
5A21
  8
AM_0
 10
697.97973544280615
 20
241.06811290622781
 30
0.0
 11
689.95071244280621
 21
241.06811290622781
 31
0.0
  0
LINE
  5
5A22
  8
AM_0
 10
697.97973544280615
 20
237.0681109062279
 30
0.0
 11
690.17846344280622
 21
237.0681109062279
 31
0.0
  0
LINE
  5
5A23
  8
AM_0
 10
591.62915944280587
 20
156.56810890622771
 30
0.0
 11
594.22724344280596
 21
161.06810890622771
 31
0.0
  0
LINE
  5
5A24
  8
AM_0
 10
678.72775144280604
 20
156.56809390622769
 30
0.0
 11
676.12966744280595
 21
161.06810890622771
 31
0.0
  0
LINE
  5
5A25
  8
AM_0
 10
317.19734380279419
 20
156.19802290622769
 30
0.0
 11
353.19734380279419
 21
156.19802290622769
 31
0.0
  0
LINE
  5
5A26
  8
AM_0
 10
349.19738380279409
 20
285.30177190622771
 30
0.0
 11
365.52650380279402
 21
293.3715949062277
 31
0.0
  0
LINE
  5
5A27
  8
AM_0
 10
351.19736380279397
 20
281.72526490622778
 30
0.0
 11
364.65344380279441
 21
281.72526490622778
 31
0.0
  0
LINE
  5
5A28
  8
AM_0
 10
720.17845144280591
 20
269.06809690622771
 30
0.0
 11
720.17845144280591
 21
239.06809690622779
 31
0.0
  0
LINE
  5
5A29
  8
AM_0
 10
720.17845144280591
 20
269.06809690622771
 30
0.0
 11
717.91079644280615
 21
312.33751390622768
 31
0.0
  0
LINE
  5
5A2A
  8
AM_0
 10
720.17846644280598
 20
209.06809690622779
 30
0.0
 11
717.92370544280595
 21
166.0447489062278
 31
0.0
  0
LINE
  5
5A2B
  8
AM_0
 10
665.1784644428061
 20
324.06811390622778
 30
0.0
 11
708.44787544280609
 21
321.80047390622798
 31
0.0
  0
LINE
  5
5A2C
  8
AM_0
 10
594.22724344280596
 20
161.06812390622781
 30
0.0
 11
676.12966744280595
 21
161.06812390622781
 31
0.0
  0
LINE
  5
5A2D
  8
AM_0
 10
377.19734380279419
 20
277.69273090622789
 30
0.0
 11
381.19736380279397
 21
277.69273090622789
 31
0.0
  0
LINE
  5
5A2E
  8
AM_0
 10
377.19734380279419
 20
250.8710599062278
 30
0.0
 11
381.19736380279397
 21
250.8710599062278
 31
0.0
  0
LINE
  5
5A2F
  8
AM_0
 10
381.19736380279397
 20
277.69273090622789
 30
0.0
 11
381.19736380279397
 21
309.06808390622768
 31
0.0
  0
LINE
  5
5A31
  8
AM_0
 10
602.17844644280603
 20
233.30186277769641
 30
0.0
 11
602.17844644280603
 21
219.0681109062277
 31
0.0
  0
LINE
  5
5A32
  8
AM_0
 10
669.05573644280605
 20
151.16298790622781
 30
0.0
 11
666.18073744280571
 21
146.18334490622789
 31
0.0
  0
LINE
  5
5A33
  8
AM_0
 10
666.18073744280571
 20
146.18334490622789
 30
0.0
 11
660.43075144280601
 21
146.18334490622789
 31
0.0
  0
LINE
  5
5A34
  8
AM_0
 10
660.43073644280605
 20
146.18334490622789
 30
0.0
 11
657.55573744280582
 21
151.16297290622771
 31
0.0
  0
LINE
  5
5A35
  8
AM_0
 10
657.55573744280582
 20
151.16298790622781
 30
0.0
 11
660.43073644280605
 21
156.14263390622759
 31
0.0
  0
LINE
  5
5A36
  8
AM_0
 10
666.18073744280571
 20
156.14263390622759
 30
0.0
 11
660.43075144280601
 21
156.14263390622759
 31
0.0
  0
LINE
  5
5A37
  8
AM_0
 10
669.05573644280605
 20
151.16298790622781
 30
0.0
 11
666.18075244280567
 21
156.14263390622759
 31
0.0
  0
LINE
  5
5A38
  8
AM_0
 10
612.80117344280575
 20
151.16298790622781
 30
0.0
 11
609.9261744428062
 21
156.14263390622759
 31
0.0
  0
LINE
  5
5A39
  8
AM_0
 10
609.92615944280624
 20
156.14263390622759
 30
0.0
 11
604.17618844280582
 21
156.14263390622759
 31
0.0
  0
LINE
  5
5A3A
  8
AM_0
 10
601.30115944280624
 20
151.16298790622781
 30
0.0
 11
604.17615844280579
 21
156.14263390622759
 31
0.0
  0
LINE
  5
5A3B
  8
AM_0
 10
604.17615844280579
 20
146.18334490622789
 30
0.0
 11
601.30115944280624
 21
151.16297290622771
 31
0.0
  0
LINE
  5
5A3C
  8
AM_0
 10
609.92615944280624
 20
146.18334490622789
 30
0.0
 11
604.17618844280582
 21
146.18334490622789
 31
0.0
  0
LINE
  5
5A3D
  8
AM_0
 10
612.80115844280601
 20
151.16298790622781
 30
0.0
 11
609.92615944280624
 21
146.18334490622789
 31
0.0
  0
LINE
  5
5A3E
  8
AM_0
 10
582.61701544280595
 20
263.81211490622781
 30
0.0
 11
579.74201344280596
 21
258.83244190622781
 31
0.0
  0
LINE
  5
5A3F
  8
AM_0
 10
579.74201344280596
 20
258.83244190622781
 30
0.0
 11
573.99201544280606
 21
258.83244190622781
 31
0.0
  0
LINE
  5
5A40
  8
AM_0
 10
573.99201544280606
 20
258.83247190622791
 30
0.0
 11
571.11701344280596
 21
263.81208490622782
 31
0.0
  0
LINE
  5
5A41
  8
AM_0
 10
571.11701344280596
 20
263.81208490622782
 30
0.0
 11
573.99201544280606
 21
268.79176090622781
 31
0.0
  0
LINE
  5
5A42
  8
AM_0
 10
579.74201344280596
 20
268.79173090622788
 30
0.0
 11
573.99201544280606
 21
268.79173090622788
 31
0.0
  0
LINE
  5
5A43
  8
AM_0
 10
582.61698544280614
 20
263.81211490622781
 30
0.0
 11
579.74201344280596
 21
268.79173090622788
 31
0.0
  0
LINE
  5
5A44
  8
AM_0
 10
699.23994244280595
 20
263.8120249062278
 30
0.0
 11
696.36495844280591
 21
258.8323789062278
 31
0.0
  0
LINE
  5
5A45
  8
AM_0
 10
696.36495844280591
 20
258.8323789062278
 30
0.0
 11
690.61495744280614
 21
258.8323789062278
 31
0.0
  0
LINE
  5
5A46
  8
AM_0
 10
690.61494244280595
 20
258.83240890622773
 30
0.0
 11
687.73994344280607
 21
263.8120249062278
 31
0.0
  0
LINE
  5
5A47
  8
AM_0
 10
687.73995844280591
 20
263.8120249062278
 30
0.0
 11
690.61495744280614
 21
268.7916679062277
 31
0.0
  0
LINE
  5
5A48
  8
AM_0
 10
696.36495844280591
 20
268.79170090622779
 30
0.0
 11
690.61495744280614
 21
268.79170090622779
 31
0.0
  0
LINE
  5
5A49
  8
AM_0
 10
699.23994244280595
 20
263.81205490622779
 30
0.0
 11
696.36495844280591
 21
268.79170090622779
 31
0.0
  0
ARC
  5
5A4A
  8
AM_0
 10
635.17844944280614
 20
239.06809690622779
 30
0.0
 40
12.0000003
 50
109.4712200000001
 51
70.528788999999307
  0
CIRCLE
  5
5A4B
  8
AM_0
 62
     2
 10
635.17844944280614
 20
239.06809690622779
 30
0.0
 40
4.0000001999999979
  0
CIRCLE
  5
5A4C
  8
AM_0
 10
635.17844944280614
 20
239.06809690622779
 30
0.0
 40
3.0
  0
ARC
  5
5A4D
  8
AM_0
 10
305.19734380279419
 20
280.75065490622791
 30
0.0
 40
5.0000001000000003
 50
271.50000000000267
 51
0.0
  0
ARC
  5
5A4E
  8
AM_0
 10
312.19739380279418
 20
288.06809890622787
 30
0.0
 40
2.00000007
 50
90.00000299999769
 51
180.00000999999941
  0
ARC
  5
5A4F
  8
AM_0
 10
302.19734380279419
 20
159.46480690622781
 30
0.0
 40
3.0
 50
0.0
 51
88.499997000000747
  0
ARC
  5
5A50
  8
AM_0
 10
307.19741380279419
 20
268.73524090622777
 30
0.0
 40
2.00000007
 50
90.00000299999769
 51
180.00000999999941
  0
ARC
  5
5A51
  8
AM_0
 10
308.19734380279419
 20
272.73527290622781
 30
0.0
 40
2.00000007
 50
270.0
 51
0.0
  0
ARC
  5
5A52
  8
AM_0
 10
307.19741380279419
 20
264.56245090622792
 30
0.0
 40
2.00000007
 50
179.99999000000059
 51
270.0
  0
ARC
  5
5A53
  8
AM_0
 10
308.19734380279419
 20
260.56242190622783
 30
0.0
 40
2.00000007
 50
0.0
 51
90.00000299999769
  0
ARC
  5
5A54
  8
AM_0
 10
303.19739380279418
 20
249.0961429062279
 30
0.0
 40
2.00000007
 50
270.0
 51
0.0
  0
ARC
  5
5A55
  8
AM_0
 10
303.19739380279418
 20
167.85236590622779
 30
0.0
 40
2.00000007
 50
0.0
 51
90.00000299999769
  0
ARC
  5
5A56
  8
AM_0
 10
307.19741380279419
 20
154.1980369062278
 30
0.0
 40
2.00000007
 50
90.00000299999769
 51
110.7662300000012
  0
ARC
  5
5A57
  8
AM_0
 10
312.19739380279418
 20
150.06810790622779
 30
0.0
 40
2.00000007
 50
179.99999000000059
 51
270.0
  0
ARC
  5
5A58
  8
AM_0
 10
354.19736380279397
 20
159.47857090622779
 30
0.0
 40
1.0000000199999981
 50
91.500001000001546
 51
180.00000999999941
  0
ARC
  5
5A59
  8
AM_0
 10
567.8931984428059
 20
248.90145490622791
 30
0.0
 40
2.00000007
 50
351.68540999999948
 51
79.999998000000929
  0
ARC
  5
5A5A
  8
AM_0
 10
635.17844944280614
 20
239.06809690622779
 30
0.0
 40
66.000003000000007
 50
34.109953999997551
 51
145.8900400000021
  0
ARC
  5
5A5B
  8
AM_0
 10
702.4637124428059
 20
248.90145490622791
 30
0.0
 40
2.00000007
 50
99.999999999998593
 51
188.31459000000041
  0
ARC
  5
5A5C
  8
AM_0
 10
578.04902044280595
 20
277.7621299062277
 30
0.0
 40
3.0
 50
265.15681999999839
 51
325.89004999999969
  0
ARC
  5
5A5D
  8
AM_0
 10
702.4637124428059
 20
248.90145490622791
 30
0.0
 40
2.00000007
 50
8.3145874000007272
 51
99.999999999998593
  0
ARC
  5
5A5E
  8
AM_0
 10
693.48991144280592
 20
263.81208490622782
 30
0.0
 40
11.000000399999999
 50
311.14394000000323
 51
94.843180000001595
  0
ARC
  5
5A5F
  8
AM_0
 10
346.19741380279419
 20
293.8285339062279
 30
0.0
 40
3.0
 50
271.50000000000267
 51
0.0
  0
ARC
  5
5A60
  8
AM_0
 10
580.64738044280637
 20
279.69273190622772
 30
0.0
 40
2.00000007
 50
235.00000000000259
 51
323.31459000000137
  0
ARC
  5
5A61
  8
AM_0
 10
354.19736380279397
 20
303.14206390622797
 30
0.0
 40
5.0000001000000003
 50
91.999998000000545
 51
180.00000999999941
  0
ARC
  5
5A62
  8
AM_0
 10
567.65567944280588
 20
253.26928390622771
 30
0.0
 40
3.0
 50
348.12283999999801
 51
48.856062999999523
  0
ARC
  5
5A63
  8
AM_0
 10
702.70124644280622
 20
253.26928390622771
 30
0.0
 40
3.0
 50
131.14394000000331
 51
191.87716000000199
  0
ARC
  5
5A64
  8
AM_0
 10
368.19734380279419
 20
174.78676990622779
 30
0.0
 40
3.0
 50
270.0
 51
0.0
  0
ARC
  5
5A65
  8
AM_0
 10
576.86701444280595
 20
263.81208490622782
 30
0.0
 40
11.000000399999999
 50
85.1568180000002
 51
228.8560599999966
  0
ARC
  5
5A66
  8
AM_0
 10
635.17844944280614
 20
239.06809690622779
 30
0.0
 40
70.000001999999995
 50
30.534626999999471
 51
149.4653700000006
  0
ARC
  5
5A67
  8
AM_0
 10
635.17844944280614
 20
239.06809690622779
 30
0.0
 40
66.000003000000007
 50
0.0
 51
11.877162000000441
  0
ARC
  5
5A68
  8
AM_0
 10
635.17844944280614
 20
219.0681109062277
 30
0.0
 40
71.000000999999983
 50
301.50671999999952
 51
305.22420999999957
  0
ARC
  5
5A69
  8
AM_0
 10
689.70954844280595
 20
279.69273190622772
 30
0.0
 40
2.00000007
 50
304.99999999999739
 51
36.685413999996868
  0
ARC
  5
5A6A
  8
AM_0
 10
635.17844944280614
 20
239.06809690622779
 30
0.0
 40
52.000007999999987
 50
137.75567000000359
 51
174.78408999999999
  0
ARC
  5
5A6B
  8
AM_0
 10
675.66701944280601
 20
287.33482090622778
 30
0.0
 40
3.0
 50
315.0
 51
50.008388000003357
  0
ARC
  5
5A6C
  8
AM_0
 10
635.17844944280614
 20
239.06809690622779
 30
0.0
 40
52.000007999999987
 50
5.2159077000001099
 51
42.244334000004017
  0
ARC
  5
5A6D
  8
AM_0
 10
369.19736380279397
 20
321.78748390622798
 30
0.0
 40
2.00000007
 50
91.999998000000545
 51
180.00000999999941
  0
ARC
  5
5A6E
  8
AM_0
 10
567.8931984428059
 20
248.90145490622791
 30
0.0
 40
2.00000007
 50
79.999998000000929
 51
171.68540999999939
  0
ARC
  5
5A6F
  8
AM_0
 10
635.17844944280614
 20
239.06809690622779
 30
0.0
 40
66.000003000000007
 50
168.12283999999789
 51
0.000010017912262
  0
ARC
  5
5A70
  8
AM_0
 10
580.64738044280637
 20
279.69273190622772
 30
0.0
 40
2.00000007
 50
143.31457999999611
 51
235.00000999999719
  0
ARC
  5
5A71
  8
AM_0
 10
690.17846344280622
 20
217.06810990622779
 30
0.0
 40
3.0
 50
179.99999000000059
 51
270.0
  0
ARC
  5
5A72
  8
AM_0
 10
683.44518844280583
 20
279.55665490622778
 30
0.0
 40
3.0
 50
39.991611000003481
 51
135.0
  0
ARC
  5
5A73
  8
AM_0
 10
635.17844944280614
 20
239.06809690622779
 30
0.0
 40
70.000001999999995
 50
0.0
 51
15.45248699999985
  0
ARC
  5
5A74
  8
AM_0
 10
692.3079054428058
 20
277.7621299062277
 30
0.0
 40
3.0
 50
214.1099599999979
 51
274.84318000000161
  0
ARC
  5
5A75
  8
AM_0
 10
354.19736380279397
 20
257.91294490622789
 30
0.0
 40
5.0000001000000003
 50
179.99999000000059
 51
270.0
  0
ARC
  5
5A76
  8
AM_0
 10
635.17844944280614
 20
239.06809690622779
 30
0.0
 40
70.000001999999995
 50
164.54750999999871
 51
0.000010017912262
  0
ARC
  5
5A77
  8
AM_0
 10
369.19736380279397
 20
158.84867290622779
 30
0.0
 40
2.00000007
 50
179.99999000000059
 51
268.00000999999872
  0
ARC
  5
5A78
  8
AM_0
 10
368.19734380279419
 20
305.84944390622798
 30
0.0
 40
3.0
 50
0.0
 51
90.00000299999769
  0
ARC
  5
5A79
  8
ﾁｭｳｼﾝｾﾝ1
 10
635.17844944280614
 20
239.06809690622779
 30
0.0
 40
100.000011
 50
216.39755512615241
 51
233.60244487384739
  0
CIRCLE
  5
5A7B
  8
AM_0
 10
564.46778344280585
 20
309.77878390622772
 30
0.0
 40
6.0000002999999991
  0
ARC
  5
5A7C
  8
AM_0
 10
562.43241244280603
 20
311.8141639062278
 30
0.0
 40
10.000000200000001
 50
92.999999000001623
 51
176.9999900000002
  0
CIRCLE
  5
5A7D
  8
AM_0
 10
564.46778344280585
 20
168.35743090622771
 30
0.0
 40
6.0000002999999991
  0
CIRCLE
  5
5A7F
  8
AM_0
 10
705.88912744280594
 20
168.35743090622771
 30
0.0
 40
6.0000002999999991
  0
CIRCLE
  5
5A81
  8
AM_0
 10
705.88912744280594
 20
309.77878390622772
 30
0.0
 40
6.0000002999999991
  0
ARC
  5
5A82
  8
AM_0
 10
707.92451344280596
 20
311.8141639062278
 30
0.0
 40
10.000000200000001
 50
3.0000001000004741
 51
86.999998999996933
  0
ARC
  5
5A83
  8
AM_0
 10
580.17844744280603
 20
217.06810990622779
 30
0.0
 40
3.0
 50
270.0
 51
0.0
  0
ARC
  5
5A84
  8
AM_0
 10
613.91053444280624
 20
268.1142109062277
 30
0.0
 40
3.0
 50
225.0
 51
273.99790033610373
  0
ARC
  5
5A85
  8
AM_0
 10
572.37717544280611
 20
244.06811290622781
 30
0.0
 40
3.0
 50
175.4479299999995
 51
270.0
  0
ARC
  5
5A86
  8
AM_0
 10
572.37717544280611
 20
234.0681109062277
 30
0.0
 40
3.0
 50
90.00000299999769
 51
184.55207000000041
  0
ARC
  5
5A87
  8
AM_0
 10
635.17844944280614
 20
239.06809690622779
 30
0.0
 40
52.000007999999987
 50
47.755664999999361
 51
84.78409399999758
  0
ARC
  5
5A88
  8
AM_0
 10
656.44637644280601
 20
268.1142109062277
 30
0.0
 40
3.0
 50
266.00184817577963
 51
315.0
  0
ARC
  5
5A89
  8
AM_0
 10
586.91172244280585
 20
279.55665490622778
 30
0.0
 40
3.0
 50
45.000001000003223
 51
140.00838999999601
  0
ARC
  5
5A8A
  8
AM_0
 10
664.22456044280625
 20
260.3360119062279
 30
0.0
 40
3.0
 50
135.0
 51
183.99797167042081
  0
ARC
  5
5A8B
  8
AM_0
 10
594.6898914428059
 20
287.33482090622778
 30
0.0
 40
3.0
 50
129.99160999999941
 51
225.0
  0
ARC
  5
5A8C
  8
AM_0
 10
370.19738380279398
 20
281.01975790622788
 30
0.0
 40
3.0
 50
179.99999000000059
 51
270.0
  0
ARC
  5
5A8D
  8
AM_0
 10
370.19738380279398
 20
191.91376690622781
 30
0.0
 40
3.0
 50
90.00000299999769
 51
180.00000999999941
  0
ARC
  5
5A8E
  8
AM_0
 10
595.46094844280583
 20
154.27211890622769
 30
0.0
 40
5.0000001000000003
 50
344.9836399999993
 51
56.872543000003567
  0
ARC
  5
5A8F
  8
AM_0
 10
607.05117244280609
 20
151.16298790622781
 30
0.0
 40
7.0000007999999987
 50
164.9194399999995
 51
270.0
  0
ARC
  5
5A90
  8
AM_0
 10
674.89596244280585
 20
154.27211890622769
 30
0.0
 40
5.0000001000000003
 50
121.5067300000014
 51
195.01635000000229
  0
ARC
  5
5A91
  8
AM_0
 10
576.14457244280595
 20
217.06810990622779
 30
0.0
 40
3.0
 50
200.43878000000279
 51
270.0
  0
ARC
  5
5A92
  8
AM_0
 10
694.21235344280592
 20
217.06810990622779
 30
0.0
 40
3.0
 50
270.0
 51
339.56121999999698
  0
ARC
  5
5A93
  8
AM_0
 10
597.17844544280581
 20
219.0681109062277
 30
0.0
 40
5.0000001000000003
 50
270.0
 51
0.0
  0
ARC
  5
5A94
  8
AM_0
 10
673.17846544280599
 20
219.0681109062277
 30
0.0
 40
5.0000001000000003
 50
179.99999000000059
 51
270.0
  0
ARC
  5
5A95
  8
AM_0
 10
364.19738380279398
 20
311.47870390622779
 30
0.0
 40
3.0
 50
271.9999999999971
 51
0.0
  0
ARC
  5
5A97
  8
AM_0
 10
640.17846244280599
 20
293.84037490622779
 30
0.0
 40
3.0
 50
179.99999000000059
 51
264.78408999999982
  0
ARC
  5
5A98
  8
AM_0
 10
580.40619844280604
 20
244.06811290622781
 30
0.0
 40
3.0
 50
270.0
 51
354.78408999999999
  0
ARC
  5
5A99
  8
AM_0
 10
580.17844744280603
 20
234.0681109062277
 30
0.0
 40
3.0
 50
0.0
 51
90.00000299999769
  0
ARC
  5
5A9A
  8
AM_0
 10
690.17846344280622
 20
234.0681109062277
 30
0.0
 40
3.0
 50
90.00000299999769
 51
180.00000999999941
  0
ARC
  5
5A9B
  8
AM_0
 10
630.17844844280592
 20
293.84037490622779
 30
0.0
 40
3.0
 50
275.21591000000018
 51
0.0
  0
ARC
  5
5A9C
  8
AM_0
 10
640.17846244280599
 20
301.86937390622768
 30
0.0
 40
3.0
 50
85.447926999998117
 51
180.00000999999941
  0
ARC
  5
5A9D
  8
AM_0
 10
689.95071244280621
 20
244.06811290622781
 30
0.0
 40
3.0
 50
185.21590999999989
 51
270.0
  0
ARC
  5
5A9E
  8
AM_0
 10
606.132350442806
 20
260.3360119062279
 30
0.0
 40
3.0
 50
356.0023394636645
 51
45.000001000003223
  0
ARC
  5
5A9F
  8
AM_0
 10
630.17844844280592
 20
301.86937390622768
 30
0.0
 40
3.0
 50
0.0
 51
94.552071000002115
  0
ARC
  5
5AA0
  8
AM_0
 10
697.97973544280615
 20
234.0681109062277
 30
0.0
 40
3.0
 50
355.44792999999947
 51
90.00000299999769
  0
ARC
  5
5AA1
  8
AM_0
 10
697.97973544280615
 20
244.06811290622781
 30
0.0
 40
3.0
 50
270.0
 51
4.5520713999997291
  0
ARC
  5
5AA2
  8
AM_0
 10
689.70954844280595
 20
279.69273190622772
 30
0.0
 40
2.00000007
 50
216.6854200000038
 51
304.99999999999739
  0
ARC
  5
5AA3
  8
AM_0
 10
364.65344380279441
 20
278.72526490622778
 30
0.0
 40
3.0
 50
22.48353600000415
 51
90.00000299999769
  0
ARC
  5
5AA4
  8
AM_0
 10
364.19738380279398
 20
296.06107990622797
 30
0.0
 40
3.0
 50
296.29843000000261
 51
0.0
  0
ARC
  5
5AA5
  8
AM_0
 10
351.19736380279397
 20
283.7252629062279
 30
0.0
 40
2.00000007
 50
179.99999000000059
 51
270.0
  0
ARC
  5
5AA6
  8
AM_0
 10
375.611483802794
 20
269.37037390622771
 30
0.0
 40
3.0
 50
39.999999000003022
 51
58.086796999996537
  0
ARC
  5
5AA7
  8
AM_0
 10
562.41950344280622
 20
166.56811090622779
 30
0.0
 40
10.000000200000001
 50
183.00000999999969
 51
270.0
  0
ARC
  5
5AA8
  8
AM_0
 10
707.93740744280592
 20
166.56811090622779
 30
0.0
 40
10.000000200000001
 50
270.0
 51
356.99999999999949
  0
ARC
  5
5AA9
  8
AM_0
 10
635.17844944280614
 20
219.0681109062277
 30
0.0
 40
71.000000999999983
 50
234.7757900000008
 51
238.4932699999986
  0
ARC
  5
5AAA
  8
AM_0
 10
663.30573844280605
 20
151.16298790622781
 30
0.0
 40
7.0000007999999987
 50
270.000020000002
 51
15.08055899999769
  0
CIRCLE
  5
5AAB
  8
AM_0
 10
663.30573844280605
 20
151.16298790622781
 30
0.0
 40
4.979646299999998
  0
CIRCLE
  5
5AAC
  8
AM_0
 10
607.05117244280609
 20
151.16298790622781
 30
0.0
 40
4.979646299999998
  0
CIRCLE
  5
5AAD
  8
AM_0
 10
576.86701444280595
 20
263.81208490622782
 30
0.0
 40
4.979646299999998
  0
CIRCLE
  5
5AAE
  8
AM_0
 10
693.48995644280626
 20
263.8120249062278
 30
0.0
 40
4.979646299999998
  0
ARC
  5
5AC5
  8
AM_0
 10
635.17844944280614
 20
239.06809690622779
 30
0.0
 40
52.000007999999987
 50
95.215910999999593
 51
132.24432999999581
  0
LINE
  5
5AC9
  8
AM_0
 10
385.19733380279382
 20
272.5680939062276
 30
0.0
 11
390.19733380279371
 21
267.56809390622777
 31
0.0
  0
LINE
  5
5ACA
  8
AM_0
 10
380.69733380279399
 20
272.5680939062276
 30
0.0
 11
385.19733380279399
 21
272.5680939062276
 31
0.0
  0
LINE
  5
5ACB
  8
AM_0
 10
380.19733380279382
 20
272.06809390622772
 30
0.0
 11
380.19733380279371
 21
250.87105990622771
 31
0.0
  0
LINE
  5
5ACC
  8
AM_0
 10
390.19733380279371
 20
267.56809390622777
 30
0.0
 11
390.19733380279382
 21
210.5680939062278
 31
0.0
  0
LINE
  5
5ACD
  8
AM_0
 10
381.1973638027938
 20
205.56809390622769
 30
0.0
 11
385.19733380279382
 21
205.56809390622769
 31
0.0
  0
LINE
  5
5ACE
  8
AM_0
 10
385.19733380279382
 20
205.56809390622769
 30
0.0
 11
390.19733380279382
 21
210.5680939062278
 31
0.0
  0
LINE
  5
5ACF
  8
AM_0
 10
380.69733380279399
 20
272.5680939062276
 30
0.0
 11
380.19733380279382
 21
272.06809390622772
 31
0.0
1001
GENIUS_GENFIL_13
1070
     0
1040
0.5
1040
0.5
1040
20.0
1040
0.0
1002
{
1002
}
1001
GENIUS_GENOBJ-N-CHA_13
1002
{
1000
OWNER
1000
GEN
1002
}
1001
GENIUS_GENODEF_13
1002
{
1000
HIER
1070
     0
1002
}
1002
{
1000
MANEDIT
1070
     0
1002
}
1002
{
1000
NOSEL
1070
     0
1002
}
1002
{
1000
BEHIND
1070
     0
1002
}
1002
{
1000
OTHER
1070
     0
1002
}
1002
{
1000
REACTOR
1002
}
  0
LINE
  5
5AD0
  8
AM_0
 10
385.19733380279399
 20
272.5680939062276
 30
0.0
 11
385.19733380279382
 21
205.56809390622769
 31
0.0
  0
LINE
  5
5FD5
  8
ﾁｭｳｼﾝｾﾝ1
 10
715.08150201651506
 20
159.16504116908661
 30
0.0
 11
696.69673308110941
 21
177.54982485537741
 31
0.0
  0
ARC
  5
5FD6
  8
ﾁｭｳｼﾝｾﾝ1
 10
635.17844944280614
 20
239.06809690622779
 30
0.0
 40
100.000011
 50
306.39755512615238
 51
323.60244487384739
  0
LINE
  5
5FD7
  8
ﾁｭｳｼﾝｾﾝ1
 10
715.08150517994704
 20
318.97114947993668
 30
0.0
 11
696.69672149365613
 21
300.5863805445311
 31
0.0
  0
ARC
  5
5FD8
  8
ﾁｭｳｼﾝｾﾝ1
 10
635.17844944280603
 20
239.06809690622779
 30
0.0
 40
100.000011
 50
36.397555126152398
 51
53.602444873847361
  0
LINE
  5
5FD9
  8
ﾁｭｳｼﾝｾﾝ1
 10
555.27539686909711
 20
318.97115264336878
 30
0.0
 11
573.66016580450241
 21
300.58636895707792
 31
0.0
  0
ARC
  5
5FDA
  8
ﾁｭｳｼﾝｾﾝ1
 10
635.17844944280591
 20
239.06809690622759
 30
0.0
 40
100.000011
 50
126.3975551261523
 51
143.60244487384739
  0
LINE
  5
62FC
  8
ﾁｭｳｼﾝｾﾝ
 10
91.401242890608373
 20
507.35952276089853
 30
0.0
 11
426.3884838027941
 21
507.35952276089853
 31
0.0
  0
LINE
  5
6340
  8
AM_0
 10
279.19741380279407
 20
451.35952276089859
 30
0.0
 11
279.19741380279407
 21
563.35952276089836
 31
0.0
  0
LINE
  5
6392
  8
AM_0
 10
250.22360365183451
 20
441.35952276089853
 30
0.0
 11
250.4781529258573
 21
451.07949276089829
 31
0.0
  0
LINE
  5
6393
  8
AM_0
 10
190.17117165659391
 20
441.35952276089853
 30
0.0
 11
189.91668961545511
 21
451.07949276089829
 31
0.0
  0
LINE
  5
6394
  8
AM_0
 10
186.6974138027939
 20
439.35952276089859
 30
0.0
 11
253.69741380279399
 21
439.35952276089859
 31
0.0
  0
LINE
  5
6395
  8
AM_0
 10
186.6974138027939
 20
438.35952276089853
 30
0.0
 11
186.6974138027939
 21
439.35952276089859
 31
0.0
  0
LINE
  5
6396
  8
AM_0
 10
253.69741380279399
 20
438.35952276089853
 30
0.0
 11
253.69741380279399
 21
439.35952276089859
 31
0.0
  0
LINE
  5
6397
  8
AM_0
 10
172.1974138027939
 20
400.35952276089853
 30
0.0
 11
173.45699893905629
 21
436.42932175430337
 31
0.0
  0
LINE
  5
6398
  8
AM_0
 10
175.45578059309449
 20
438.35952276089853
 30
0.0
 11
264.93904701249352
 21
438.35952276089853
 31
0.0
  0
ARC
  5
6399
  8
AM_0
 10
175.45578059309449
 20
436.35952276089853
 30
0.0
 40
2.0
 50
90.0
 51
178.0000000000029
1001
GENIUS_GENODEF_13
1002
{
1000
HIER
1070
     0
1002
}
1002
{
1000
MANEDIT
1070
     0
1002
}
1002
{
1000
NOSEL
1070
     0
1002
}
1002
{
1000
BEHIND
1070
     0
1002
}
1002
{
1000
OTHER
1070
     0
1002
}
1002
{
1000
REACTOR
1002
}
1001
GENIUS_GENOBJ-N-FIL_13
1002
{
1000
OWNER
1000
GEN
1002
}
  0
LINE
  5
639A
  8
AM_0
 10
266.93782866653169
 20
436.42932175430337
 30
0.0
 11
268.19741380279407
 21
400.35952276089853
 31
0.0
  0
ARC
  5
639B
  8
AM_0
 10
264.93904701249357
 20
436.35952276089853
 30
0.0
 40
2.0
 50
1.9999999999971021
 51
90.0
1001
GENIUS_GENOBJ-N-FIL_13
1002
{
1000
OWNER
1000
GEN
1002
}
1001
GENIUS_GENODEF_13
1002
{
1000
HIER
1070
     0
1002
}
1002
{
1000
MANEDIT
1070
     0
1002
}
1002
{
1000
NOSEL
1070
     0
1002
}
1002
{
1000
BEHIND
1070
     0
1002
}
1002
{
1000
OTHER
1070
     0
1002
}
1002
{
1000
REACTOR
1002
}
  0
LINE
  5
639C
  8
AM_0
 10
268.19741380279407
 20
400.35952276089853
 30
0.0
 11
172.1974138027937
 21
400.35952276089853
 31
0.0
  0
LINE
  5
639D
  8
AM_0
 10
172.30217611126909
 20
403.3595227608983
 30
0.0
 11
171.1974138027939
 21
403.3595227608983
 31
0.0
  0
LINE
  5
639E
  8
AM_0
 10
173.41964073500509
 20
435.3595227608983
 30
0.0
 11
171.19741380279379
 21
435.3595227608983
 31
0.0
  0
LINE
  5
639F
  8
ﾁｭｳｼﾝｾﾝ1
 10
177.19741380279461
 20
390.0948152608986
 30
0.0
 11
177.19741380279461
 21
403.0948152608986
 31
0.0
  0
LINE
  5
63A0
  8
ﾁｭｳｼﾝｾﾝ
 10
220.19741380279399
 20
445.65155343412761
 30
0.0
 11
220.19741380279399
 21
387.90900012008927
 31
0.0
  0
LINE
  5
63A1
  8
AM_0
 10
168.6974138027939
 20
405.8595227608983
 30
0.0
 11
171.19741380279379
 21
405.85952276089802
 31
0.0
  0
LINE
  5
63A2
  8
AM_0
 10
171.19741380279379
 20
432.85952276089819
 30
0.0
 11
168.6974138027939
 21
432.85952276089841
 31
0.0
  0
LINE
  5
63A3
  8
AM_0
 10
157.798742706448
 20
429.85952276089819
 30
0.0
 11
157.798742706448
 21
408.85952276089819
 31
0.0
  0
LINE
  5
63A4
  8
AM_0
 10
142.79874270644791
 20
411.32789770688311
 30
0.0
 11
142.79874270644791
 21
427.39114781491429
 31
0.0
  0
LINE
  5
63A5
  8
AM_0
 10
155.798742706448
 20
431.3595227608983
 30
0.0
 11
155.798742706448
 21
407.3595227608983
 31
0.0
  0
LINE
  5
63A6
  8
AM_0
 10
146.29874270644791
 20
419.3595227608983
 30
0.0
 11
146.79874270644791
 21
419.8595227608983
 31
0.0
  0
LINE
  5
63A7
  8
AM_0
 10
153.29874270644791
 20
407.65952276089831
 30
0.0
 11
153.29874270644791
 21
431.05952276089818
 31
0.0
  0
LINE
  5
63A8
  8
AM_0
 10
163.1974138027939
 20
407.85952276089841
 30
0.0
 11
163.1974138027939
 21
430.8595227608983
 31
0.0
  0
LINE
  5
63A9
  8
AM_0
 10
157.29874270644791
 20
420.05952276090011
 30
0.0
 11
157.29874270644791
 21
418.65952276089718
 31
0.0
  0
LINE
  5
63AA
  8
AM_0
 10
159.39837843301879
 20
428.45952276089821
 30
0.0
 11
158.6483784330199
 21
410.25952276089828
 31
0.0
  0
LINE
  5
63AB
  8
AM_0
 10
158.4474138027939
 20
428.45952276089821
 30
0.0
 11
157.798742706448
 21
412.7184374895823
 31
0.0
  0
LINE
  5
63AC
  8
AM_0
 10
159.19610639336591
 20
429.1751814732624
 30
0.0
 11
158.4488463499579
 21
409.54715099973129
 31
0.0
  0
LINE
  5
63AD
  8
AM_0
 10
158.6469458858559
 20
429.17189452206628
 30
0.0
 11
157.8983784330199
 21
409.50952276089822
 31
0.0
  0
LINE
  5
63AE
  8
AM_0
 10
155.798742706448
 20
407.3595227608983
 30
0.0
 11
153.59874270644781
 21
407.3595227608983
 31
0.0
  0
ARC
  5
63AF
  8
AM_0
 10
167.69741380279399
 20
406.8595227608983
 30
0.0
 40
0.5
 50
0.0
 51
90.000000000013017
  0
ARC
  5
63B0
  8
AM_0
 10
168.69741380279399
 20
406.3595227608983
 30
0.0
 40
0.5
 50
180.0
 51
270.0
  0
LINE
  5
63B1
  8
AM_0
 10
168.1974138027939
 20
406.8595227608983
 30
0.0
 11
168.1974138027939
 21
406.3595227608983
 31
0.0
  0
LINE
  5
63B2
  8
AM_0
 10
159.1974138027939
 20
410.25952276089828
 30
0.0
 11
162.6974138027939
 21
410.25952276089828
 31
0.0
  0
LINE
  5
63B3
  8
AM_0
 10
168.1974138027939
 20
408.5034514394913
 30
0.0
 11
168.1974138027939
 21
418.2155940823061
 31
0.0
  0
LINE
  5
63B4
  8
AM_0
 10
163.6974138027939
 20
407.3595227608983
 30
0.0
 11
167.69741380279379
 21
407.3595227608983
 31
0.0
  0
LINE
  5
63B5
  8
AM_0
 10
167.6974138027939
 20
408.0034514394913
 30
0.0
 11
163.1974138027939
 21
408.0034514394913
 31
0.0
  0
ARC
  5
63B6
  8
AM_0
 10
167.69741380279399
 20
408.5034514394913
 30
0.0
 40
0.5
 50
270.0
 51
0.0
  0
ARC
  5
63B7
  8
AM_0
 10
162.6974138027939
 20
409.75952276089851
 30
0.0
 40
0.5
 50
0.0
 51
90.0
  0
ARC
  5
63B8
  8
AM_0
 10
163.6974138027939
 20
407.85952276089841
 30
0.0
 40
0.5
 50
180.0
 51
270.0
  0
LINE
  5
63B9
  8
AM_0
 10
167.6974138027939
 20
418.7155940823061
 30
0.0
 11
163.1974138027939
 21
418.7155940823061
 31
0.0
  0
ARC
  5
63BA
  8
AM_0
 10
167.6974138027939
 20
418.21559408230632
 30
0.0
 40
0.5
 50
0.0
 51
90.0
  0
LINE
  5
63BB
  8
AM_0
 10
157.29874270644791
 20
413.21435200860628
 30
0.0
 11
157.29874270644791
 21
414.38659519503921
 31
0.0
  0
LINE
  5
63BC
  8
AM_0
 10
158.7251108614449
 20
410.25952276089828
 30
0.0
 11
159.1974138027939
 21
410.25952276089828
 31
0.0
  0
LINE
  5
63BD
  8
AM_0
 10
158.62851836690569
 20
410.18540499416162
 30
0.0
 11
158.6483784330199
 21
410.25952276089828
 31
0.0
  0
ARC
  5
63BE
  8
AM_0
 10
158.7251108614449
 20
410.1595227608982
 30
0.0
 40
0.1000000000000346
 50
90.0
 51
164.99980499355539
  0
ARC
  5
63BF
  8
AM_0
 10
156.9987427064479
 20
410.07268978039031
 30
0.0
 40
0.3000000000000043
 50
0.0
 51
90.0
  0
LINE
  5
63C0
  8
AM_0
 10
155.798742706448
 20
407.95952276089821
 30
0.0
 11
157.01869840960501
 21
408.04085314110938
 31
0.0
  0
LINE
  5
63C1
  8
AM_0
 10
155.798742706448
 20
409.11577479673832
 30
0.0
 11
156.9987427064479
 21
409.11577479673832
 31
0.0
  0
LINE
  5
63C2
  8
AM_0
 10
157.29874270644791
 20
408.3595227608983
 30
0.0
 11
155.798742706448
 21
408.3595227608983
 31
0.0
  0
ARC
  5
63C3
  8
AM_0
 10
157.298742706448
 20
408.85952276089819
 30
0.0
 40
0.5
 50
270.0
 51
0.0
  0
LINE
  5
63C4
  8
AM_0
 10
157.29874270644791
 20
408.3401886884663
 30
0.0
 11
157.29874270644791
 21
408.3595227608983
 31
0.0
  0
LINE
  5
63C5
  8
AM_0
 10
157.29874270644791
 20
408.05952276089829
 30
0.0
 11
157.29874270644791
 21
408.3401886884663
 31
0.0
  0
LINE
  5
63C6
  8
AM_0
 10
157.01869840960501
 20
408.04085314110938
 30
0.0
 11
157.29874270644791
 21
408.05952276089829
 31
0.0
  0
ARC
  5
63C7
  8
AM_0
 10
156.9987427064479
 20
408.3401886884663
 30
0.0
 40
0.3000000000000007
 50
273.8140748342816
 51
0.0
  0
LINE
  5
63C8
  8
AM_0
 10
158.37068137436879
 20
409.50952276089822
 30
0.0
 11
158.4474138027949
 21
409.50952276089822
 31
0.0
  0
LINE
  5
63C9
  8
AM_0
 10
158.4474138027949
 20
409.50952276089822
 30
0.0
 11
158.46727386890791
 21
409.5836405276346
 31
0.0
  0
LINE
  5
63CA
  8
AM_0
 10
157.87851836690581
 20
409.5836405276346
 30
0.0
 11
157.8983784330199
 21
409.50952276089822
 31
0.0
  0
LINE
  5
63CB
  8
AM_0
 10
157.8983784330199
 20
409.50952276089822
 30
0.0
 11
157.9751108614449
 21
409.50952276089822
 31
0.0
  0
LINE
  5
63CC
  8
AM_0
 10
158.46727386890791
 20
409.5836405276346
 30
0.0
 11
158.62851836690569
 21
410.18540499416162
 31
0.0
  0
LINE
  5
63CD
  8
AM_0
 10
157.9751108614449
 20
409.50952276089822
 30
0.0
 11
158.37068137436879
 21
409.50952276089822
 31
0.0
  0
LINE
  5
63CE
  8
AM_0
 10
157.79874270644891
 20
409.8813632924593
 30
0.0
 11
157.87851836690581
 21
409.5836405276346
 31
0.0
  0
ARC
  5
63CF
  8
AM_0
 10
158.3706813743689
 20
409.6095227608983
 30
0.0
 40
0.0999999999999866
 50
270.0
 51
344.99980499343371
  0
ARC
  5
63D0
  8
AM_0
 10
157.9751108614449
 20
409.6095227608983
 30
0.0
 40
0.1000000000000014
 50
195.00019500656629
 51
270.0
  0
LINE
  5
63D1
  8
AM_0
 10
157.29874270644791
 20
409.41577479673828
 30
0.0
 11
157.29874270644791
 21
410.07268978039031
 31
0.0
  0
ARC
  5
63D2
  8
AM_0
 10
156.9987427064479
 20
409.41577479673828
 30
0.0
 40
0.3000000000000007
 50
270.0
 51
0.0
  0
LINE
  5
63D3
  8
AM_0
 10
155.798742706448
 20
412.91435200860627
 30
0.0
 11
156.9987427064479
 21
412.91435200860627
 31
0.0
  0
LINE
  5
63D4
  8
AM_0
 10
156.9987427064479
 20
410.37268978039032
 30
0.0
 11
155.798742706448
 21
410.37268978039032
 31
0.0
  0
LINE
  5
63D5
  8
AM_0
 10
158.6483784330199
 20
410.25952276089828
 30
0.0
 11
158.7251108614449
 21
410.25952276089828
 31
0.0
  0
ARC
  5
63D6
  8
AM_0
 10
156.9987427064479
 20
413.21435200860651
 30
0.0
 40
0.3000000000000007
 50
270.0
 51
0.0
  0
LINE
  5
63D7
  8
AM_0
 10
156.9987427064479
 20
414.68659519503939
 30
0.0
 11
155.798742706448
 21
414.68659519503939
 31
0.0
  0
ARC
  5
63D8
  8
AM_0
 10
156.9987427064479
 20
414.38659519503921
 30
0.0
 40
0.3000000000000043
 50
0.0
 51
90.0
  0
LINE
  5
63D9
  8
AM_0
 10
156.9987427064479
 20
418.35952276089722
 30
0.0
 11
155.798742706448
 21
418.35952276089722
 31
0.0
  0
ARC
  5
63DA
  8
AM_0
 10
156.9987427064479
 20
418.65952276089729
 30
0.0
 40
0.3000000000000007
 50
270.0
 51
0.0
  0
LINE
  5
63DB
  8
AM_0
 10
146.79874270644791
 20
409.2262429322513
 30
0.0
 11
153.29874270644791
 21
409.2262429322513
 31
0.0
  0
LINE
  5
63DC
  8
AM_0
 10
146.79874270644791
 20
408.72624293225113
 30
0.0
 11
153.29874270644791
 21
408.72624293225113
 31
0.0
  0
LINE
  5
63DD
  8
AM_0
 10
153.29874270644791
 20
418.8595227608983
 30
0.0
 11
146.79874270644791
 21
418.8595227608983
 31
0.0
  0
LINE
  5
63DE
  8
AM_0
 10
146.29874270644791
 20
418.3595227608983
 30
0.0
 11
153.29874270644791
 21
418.3595227608983
 31
0.0
  0
LINE
  5
63DF
  8
AM_0
 10
152.9987427064479
 20
408.3595227608983
 30
0.0
 11
146.16079264162991
 21
408.3595227608983
 31
0.0
  0
LINE
  5
63E0
  8
AM_0
 10
153.29874270644791
 20
418.0128346923571
 30
0.0
 11
146.79874270644791
 21
418.0128346923571
 31
0.0
  0
LINE
  5
63E1
  8
AM_0
 10
153.29874270644791
 20
409.70621082943939
 30
0.0
 11
146.79874270644791
 21
409.70621082943939
 31
0.0
  0
ARC
  5
63E2
  8
AM_0
 10
153.59874270644801
 20
407.65952276089831
 30
0.0
 40
0.2999999999999971
 50
180.0
 51
270.0
  0
ARC
  5
63E3
  8
AM_0
 10
152.9987427064479
 20
408.05952276089829
 30
0.0
 40
0.2999999999999971
 50
0.0
 51
90.0
  0
ARC
  5
63E4
  8
AM_0
 10
154.923742706448
 20
413.8595227608983
 30
0.0
 40
9.124999999999984
 50
152.92493329271929
 51
207.07506670728071
  0
LINE
  5
63E5
  8
AM_0
 10
145.5206082419655
 20
408.59130148130077
 30
0.0
 11
143.15855830678339
 21
410.55967642728569
 31
0.0
  0
LINE
  5
63E6
  8
AM_0
 10
146.29874270644791
 20
408.93795534440642
 30
0.0
 11
146.79874270644791
 21
408.3595227608983
 31
0.0
  0
ARC
  5
63E7
  8
AM_0
 10
146.16079264162991
 20
409.3595227608983
 30
0.0
 40
1.0
 50
230.19442890774391
 51
270.0
  0
LINE
  5
63E8
  8
AM_0
 10
146.79874270644791
 20
408.72624293225113
 30
0.0
 11
146.29874270644791
 21
408.93795534440642
 31
0.0
  0
LINE
  5
63E9
  8
AM_0
 10
146.29874270644791
 20
409.40023061737742
 30
0.0
 11
146.79874270644791
 21
408.72624293225113
 31
0.0
  0
LINE
  5
63EA
  8
AM_0
 10
146.79874270644791
 20
409.2262429322513
 30
0.0
 11
146.29874270644791
 21
409.40023061737742
 31
0.0
  0
LINE
  5
63EB
  8
AM_0
 10
146.29874270644791
 20
409.93795534440619
 30
0.0
 11
146.79874270644791
 21
409.2262429322513
 31
0.0
  0
LINE
  5
63EC
  8
AM_0
 10
146.79874270644791
 20
409.70621082943939
 30
0.0
 11
146.29874270644791
 21
409.93795534440619
 31
0.0
  0
ARC
  5
63ED
  8
AM_0
 10
143.798742706448
 20
411.32789770688339
 30
0.0
 40
1.0000000000000291
 50
180.0
 51
230.19442890773581
  0
LINE
  5
63EE
  8
AM_0
 10
146.79874270644791
 20
418.8595227608983
 30
0.0
 11
146.29874270644791
 21
419.3595227608983
 31
0.0
  0
LINE
  5
63EF
  8
AM_0
 10
146.29874270644791
 20
418.3595227608983
 30
0.0
 11
146.79874270644791
 21
418.8595227608983
 31
0.0
  0
LINE
  5
63F0
  8
AM_0
 10
146.79874270644791
 20
418.0128346923571
 30
0.0
 11
146.29874270644791
 21
418.3595227608983
 31
0.0
  0
LINE
  5
63F1
  8
AM_0
 10
153.59874270644781
 20
431.3595227608983
 30
0.0
 11
155.798742706448
 21
431.3595227608983
 31
0.0
  0
ARC
  5
63F2
  8
AM_0
 10
167.6974138027939
 20
431.8595227608983
 30
0.0
 40
0.5
 50
269.99999999998693
 51
0.0
  0
LINE
  5
63F3
  8
AM_0
 10
162.6974138027939
 20
428.45952276089821
 30
0.0
 11
159.4751108614449
 21
428.45952276089821
 31
0.0
  0
LINE
  5
63F4
  8
AM_0
 10
168.1974138027939
 20
420.5034514394913
 30
0.0
 11
168.1974138027939
 21
430.21559408230632
 31
0.0
  0
LINE
  5
63F5
  8
AM_0
 10
163.1974138027939
 20
420.0034514394913
 30
0.0
 11
167.6974138027939
 21
420.0034514394913
 31
0.0
  0
ARC
  5
63F6
  8
AM_0
 10
167.6974138027939
 20
420.5034514394913
 30
0.0
 40
0.5
 50
270.0
 51
0.0
  0
LINE
  5
63F7
  8
AM_0
 10
163.1974138027939
 20
430.71559408230632
 30
0.0
 11
167.6974138027939
 21
430.71559408230632
 31
0.0
  0
LINE
  5
63F8
  8
AM_0
 10
167.69741380279379
 20
431.3595227608983
 30
0.0
 11
163.6974138027939
 21
431.3595227608983
 31
0.0
  0
ARC
  5
63F9
  8
AM_0
 10
167.6974138027939
 20
430.21559408230632
 30
0.0
 40
0.5
 50
0.0
 51
90.0
  0
ARC
  5
63FA
  8
AM_0
 10
162.6974138027939
 20
428.95952276089821
 30
0.0
 40
0.5
 50
270.0
 51
0.0
  0
ARC
  5
63FB
  8
AM_0
 10
163.6974138027939
 20
430.8595227608983
 30
0.0
 40
0.5
 50
90.0
 51
180.0
  0
ARC
  5
63FC
  8
AM_0
 10
156.9987427064479
 20
425.50469351319032
 30
0.0
 40
0.3000000000000114
 50
0.0
 51
90.0
  0
LINE
  5
63FD
  8
AM_0
 10
155.798742706448
 20
420.35952276090012
 30
0.0
 11
156.9987427064479
 21
420.35952276090012
 31
0.0
  0
ARC
  5
63FE
  8
AM_0
 10
156.9987427064479
 20
420.05952276090051
 30
0.0
 40
0.2999999999999971
 50
0.0
 51
90.0
  0
LINE
  5
63FF
  8
AM_0
 10
155.798742706448
 20
424.03245032675699
 30
0.0
 11
156.9987427064479
 21
424.03245032675699
 31
0.0
  0
ARC
  5
6400
  8
AM_0
 10
156.9987427064479
 20
424.33245032675723
 30
0.0
 40
0.3000000000000007
 50
270.0
 51
0.0
  0
LINE
  5
6401
  8
AM_0
 10
157.29874270644791
 20
424.33245032675723
 30
0.0
 11
157.29874270644791
 21
425.50469351319032
 31
0.0
  0
LINE
  5
6402
  8
AM_0
 10
158.7251108614449
 20
429.20952276089821
 30
0.0
 11
159.12068137436879
 21
429.20952276089821
 31
0.0
  0
LINE
  5
6403
  8
AM_0
 10
158.7251108614449
 20
429.20952276089821
 30
0.0
 11
159.12068137436879
 21
429.20952276089821
 31
0.0
  0
LINE
  5
6404
  8
AM_0
 10
159.21727386890791
 20
429.13540499416177
 30
0.0
 11
159.37851836690581
 21
428.53364052763459
 31
0.0
  0
LINE
  5
6405
  8
AM_0
 10
159.21727386890791
 20
429.13540499416177
 30
0.0
 11
159.37851836690581
 21
428.53364052763459
 31
0.0
  0
ARC
  5
6406
  8
AM_0
 10
159.4751108614449
 20
428.55952276089829
 30
0.0
 40
0.0999999999999943
 50
195.00019500651879
 51
270.0
  0
ARC
  5
6407
  8
AM_0
 10
159.1206813743689
 20
429.1095227608983
 30
0.0
 40
0.0999999999999943
 50
15.000195006505431
 51
90.0
  0
LINE
  5
6408
  8
AM_0
 10
157.79789611790679
 20
428.83452276089838
 30
0.0
 11
157.87851836690581
 21
428.53364052763459
 31
0.0
  0
LINE
  5
6409
  8
AM_0
 10
158.45012445499981
 20
428.49878729399632
 30
0.0
 11
158.62851836690581
 21
429.13540499416177
 31
0.0
  0
LINE
  5
640A
  8
AM_0
 10
158.46727386890791
 20
428.53364052763459
 30
0.0
 11
158.62851836690581
 21
429.13540499416177
 31
0.0
  0
LINE
  5
640B
  8
AM_0
 10
157.29874270644791
 20
428.64635574140721
 30
0.0
 11
157.29874270644791
 21
429.30327072505821
 31
0.0
  0
LINE
  5
640C
  8
AM_0
 10
157.798742706448
 20
428.8313632924602
 30
0.0
 11
157.87851836690581
 21
428.53364052763459
 31
0.0
  0
LINE
  5
640D
  8
AM_0
 10
155.798742706448
 20
428.34635574140742
 30
0.0
 11
156.9987427064479
 21
428.34635574140742
 31
0.0
  0
LINE
  5
640E
  8
AM_0
 10
156.9987427064479
 20
425.80469351319027
 30
0.0
 11
155.798742706448
 21
425.80469351319118
 31
0.0
  0
LINE
  5
640F
  8
AM_0
 10
158.40331363988389
 20
428.45952276089821
 30
0.0
 11
158.45012445499981
 21
428.49878729399632
 31
0.0
  0
LINE
  5
6410
  8
AM_0
 10
157.9751108614449
 20
428.45952276089821
 30
0.0
 11
158.40331363988389
 21
428.45952276089821
 31
0.0
  0
LINE
  5
6411
  8
AM_0
 10
157.9751108614449
 20
428.45952276089821
 30
0.0
 11
158.37068137436879
 21
428.45952276089821
 31
0.0
  0
ARC
  5
6412
  8
AM_0
 10
157.9751108614449
 20
428.55952276089829
 30
0.0
 40
0.0999999999999943
 50
195.00019500651879
 51
270.0
  0
ARC
  5
6413
  8
AM_0
 10
158.3706813743689
 20
428.55952276089829
 30
0.0
 40
0.0999999999999608
 50
270.0
 51
344.99980499348112
  0
ARC
  5
6414
  8
AM_0
 10
156.9987427064479
 20
428.64635574140721
 30
0.0
 40
0.3000000000000007
 50
270.0
 51
0.0
  0
LINE
  5
6415
  8
AM_0
 10
155.798742706448
 20
430.3595227608983
 30
0.0
 11
157.29874270644791
 21
430.3595227608983
 31
0.0
  0
LINE
  5
6416
  8
AM_0
 10
156.9987427064479
 20
429.60327072505811
 30
0.0
 11
155.798742706448
 21
429.60327072505811
 31
0.0
  0
LINE
  5
6417
  8
AM_0
 10
157.01869840960501
 20
430.6781923806883
 30
0.0
 11
155.798742706448
 21
430.75952276089828
 31
0.0
  0
ARC
  5
6418
  8
AM_0
 10
157.298742706448
 20
429.85952276089819
 30
0.0
 40
0.5
 50
0.0
 51
90.0
  0
ARC
  5
6419
  8
AM_0
 10
158.7251108614449
 20
429.1095227608983
 30
0.0
 40
0.0999999999999606
 50
90.0
 51
164.99980499349451
  0
ARC
  5
641A
  8
AM_0
 10
156.9987427064479
 20
429.30327072505821
 30
0.0
 40
0.2999999999999971
 50
0.0
 51
90.0
  0
LINE
  5
641B
  8
AM_0
 10
157.29874270644791
 20
430.3595227608983
 30
0.0
 11
157.29874270644791
 21
430.3788568333311
 31
0.0
  0
ARC
  5
641C
  8
AM_0
 10
156.9987427064479
 20
430.3788568333311
 30
0.0
 40
0.3000000000000043
 50
0.0
 51
86.185925165718416
  0
ARC
  5
641D
  8
AM_0
 10
168.6974138027939
 20
432.3595227608983
 30
0.0
 40
0.5
 50
90.0
 51
180.0
  0
LINE
  5
641E
  8
AM_0
 10
168.1974138027939
 20
432.3595227608983
 30
0.0
 11
168.1974138027939
 21
431.8595227608983
 31
0.0
  0
LINE
  5
641F
  8
AM_0
 10
146.79874270644791
 20
429.0128346923571
 30
0.0
 11
153.29874270644791
 21
429.0128346923571
 31
0.0
  0
LINE
  5
6420
  8
AM_0
 10
146.79874270644791
 20
420.70621082943921
 30
0.0
 11
153.29874270644791
 21
420.70621082943921
 31
0.0
  0
LINE
  5
6421
  8
AM_0
 10
146.16079264162991
 20
430.3595227608983
 30
0.0
 11
152.9987427064479
 21
430.3595227608983
 31
0.0
  0
LINE
  5
6422
  8
AM_0
 10
153.29874270644791
 20
420.35952276089841
 30
0.0
 11
146.29874270644791
 21
420.35952276089841
 31
0.0
  0
LINE
  5
6423
  8
AM_0
 10
146.79874270644791
 20
419.8595227608983
 30
0.0
 11
153.29874270644791
 21
419.8595227608983
 31
0.0
  0
LINE
  5
6424
  8
AM_0
 10
153.29874270644791
 20
429.99280258954627
 30
0.0
 11
146.79874270644791
 21
429.99280258954627
 31
0.0
  0
LINE
  5
6425
  8
AM_0
 10
153.29874270644791
 20
429.49280258954627
 30
0.0
 11
146.79874270644791
 21
429.49280258954627
 31
0.0
  0
ARC
  5
6426
  8
AM_0
 10
152.9987427064479
 20
430.6595227608982
 30
0.0
 40
0.3000000000000043
 50
270.0
 51
0.0
  0
ARC
  5
6427
  8
AM_0
 10
153.59874270644801
 20
431.05952276089829
 30
0.0
 40
0.2999999999999971
 50
90.0
 51
180.0
  0
ARC
  5
6428
  8
AM_0
 10
154.923742706448
 20
424.85952276089841
 30
0.0
 40
9.124999999999984
 50
152.92493329271929
 51
207.07506670728071
  0
LINE
  5
6429
  8
AM_0
 10
146.29874270644791
 20
420.35952276089841
 30
0.0
 11
146.79874270644791
 21
420.70621082943921
 31
0.0
  0
LINE
  5
642A
  8
AM_0
 10
146.79874270644791
 20
419.8595227608983
 30
0.0
 11
146.29874270644791
 21
420.35952276089841
 31
0.0
  0
LINE
  5
642B
  8
AM_0
 10
143.15855830678339
 20
428.15936909451159
 30
0.0
 11
145.5206082419655
 21
430.1277440404956
 31
0.0
  0
LINE
  5
642C
  8
AM_0
 10
146.79874270644791
 20
430.3595227608983
 30
0.0
 11
146.29874270644791
 21
429.78109017739121
 31
0.0
  0
ARC
  5
642D
  8
AM_0
 10
146.16079264162991
 20
429.3595227608983
 30
0.0
 40
1.0000000000000411
 50
90.0
 51
129.805571092256
  0
LINE
  5
642E
  8
AM_0
 10
146.29874270644791
 20
428.78109017739121
 30
0.0
 11
146.79874270644791
 21
429.0128346923571
 31
0.0
  0
LINE
  5
642F
  8
AM_0
 10
146.79874270644791
 20
429.49280258954627
 30
0.0
 11
146.29874270644791
 21
428.78109017739121
 31
0.0
  0
LINE
  5
6430
  8
AM_0
 10
146.29874270644791
 20
429.31881490441941
 30
0.0
 11
146.79874270644791
 21
429.49280258954627
 31
0.0
  0
LINE
  5
6431
  8
AM_0
 10
146.79874270644791
 20
429.99280258954627
 30
0.0
 11
146.29874270644791
 21
429.31881490441941
 31
0.0
  0
LINE
  5
6432
  8
AM_0
 10
146.29874270644791
 20
429.78109017739121
 30
0.0
 11
146.79874270644791
 21
429.99280258954627
 31
0.0
  0
ARC
  5
6433
  8
AM_0
 10
143.798742706448
 20
427.39114781491429
 30
0.0
 40
1.0
 50
129.8055710922641
 51
180.0
  0
LINE
  5
6434
  8
AM_0
 10
268.19741380279402
 20
396.3595227608987
 30
0.0
 11
247.38290890326161
 21
396.3595227608987
 31
0.0
  0
LINE
  5
6435
  8
AM_0
 10
193.01191870232631
 20
396.3595227608987
 30
0.0
 11
172.19741380279461
 21
396.3595227608987
 31
0.0
  0
LINE
  5
6436
  8
AM_0
 10
262.061632133633
 20
392.35952276089859
 30
0.0
 11
178.33319547195489
 21
392.35952276089859
 31
0.0
  0
LINE
  5
6437
  8
AM_0
 10
181.10476877510101
 20
394.3005852487708
 30
0.0
 11
181.1974138027945
 21
395.35952276089859
 31
0.0
  0
LINE
  5
6438
  8
AM_0
 10
173.29005883048799
 20
394.3005852487708
 30
0.0
 11
173.19741380279461
 21
395.35952276089859
 31
0.0
  0
ARC
  5
6439
  8
AM_0
 10
177.19741380279461
 20
398.75952276089862
 30
0.0
 40
6.5
 50
241.82726586813479
 51
298.17273413186518
  0
ARC
  5
643A
  8
AM_0
 10
174.88397034743491
 20
394.44003443716701
 30
0.0
 40
1.6000000000000001
 50
184.99999999999969
 51
241.82726586813479
  0
LINE
  5
643B
  8
AM_0
 10
179.49741380279451
 20
392.6800490994703
 30
0.0
 11
177.1974138027945
 21
394.96960877826569
 31
0.0
  0
LINE
  5
643C
  8
AM_0
 10
177.5089138027945
 20
394.6595227608986
 30
0.0
 11
176.88591380279451
 21
394.6595227608986
 31
0.0
  0
LINE
  5
643D
  8
AM_0
 10
174.8974138027944
 20
392.6800490994703
 30
0.0
 11
177.1974138027945
 21
394.96960877826569
 31
0.0
  0
LINE
  5
643E
  8
AM_0
 10
177.5089138027945
 20
392.26699107056402
 30
0.0
 11
177.5089138027945
 21
394.6595227608986
 31
0.0
  0
LINE
  5
643F
  8
AM_0
 10
176.88591380279451
 20
392.26699107056402
 30
0.0
 11
176.88591380279451
 21
394.6595227608986
 31
0.0
  0
ARC
  5
6440
  8
AM_0
 10
179.5108572581542
 20
394.44003443716701
 30
0.0
 40
1.6000000000000001
 50
298.17273413186518
 51
355.00000000000023
  0
LINE
  5
6441
  8
AM_0
 10
268.19741380279407
 20
396.3595227608987
 30
0.0
 11
268.19741380279407
 21
400.35952276089853
 31
0.0
  0
LINE
  5
6442
  8
AM_0
 10
172.1974138027937
 20
400.35952276089853
 30
0.0
 11
172.1974138027947
 21
396.3595227608987
 31
0.0
  0
LINE
  5
6443
  8
AM_0N
 10
180.9974138027946
 20
396.3595227608987
 30
0.0
 11
180.9974138027946
 21
395.35952276089859
 31
0.0
  0
LINE
  5
6444
  8
AM_0N
 10
177.3974138027944
 20
395.35952276089859
 30
0.0
 11
177.76138403706071
 21
396.3595227608987
 31
0.0
  0
LINE
  5
6445
  8
AM_0N
 10
176.9974138027946
 20
395.35952276089859
 30
0.0
 11
177.3613840370607
 21
396.3595227608987
 31
0.0
  0
LINE
  5
6446
  8
AM_0N
 10
173.1974138027945
 20
395.35952276089859
 30
0.0
 11
181.1974138027945
 21
395.35952276089859
 31
0.0
  0
LINE
  5
6447
  8
AM_0N
 10
173.3974138027946
 20
395.35952276089859
 30
0.0
 11
173.3974138027946
 21
396.3595227608987
 31
0.0
  0
LINE
  5
6448
  8
AM_0
 10
193.0119187023262
 20
392.35952276089859
 30
0.0
 11
193.0119187023262
 21
396.3595227608987
 31
0.0
  0
LINE
  5
6449
  8
AM_0
 10
191.3550644528338
 20
396.3595227608987
 30
0.0
 11
193.0119187023262
 21
392.35952276089859
 31
0.0
  0
LINE
  5
644A
  8
AM_0
 10
247.38290890326161
 20
392.35952276089859
 30
0.0
 11
247.38290890326161
 21
396.3595227608987
 31
0.0
  0
LINE
  5
644B
  8
AM_0
 10
249.03976315275409
 20
396.3595227608987
 30
0.0
 11
247.38290890326161
 21
392.35952276089859
 31
0.0
  0
LINE
  5
644C
  8
AM_0
 10
186.6974138027939
 20
441.35952276089853
 30
0.0
 11
253.69741380279399
 21
441.35952276089853
 31
0.0
  0
LINE
  5
644D
  8
AM_0
 10
186.6974138027939
 20
441.35952276089853
 30
0.0
 11
186.6974138027939
 21
439.35952276089859
 31
0.0
  0
LINE
  5
644E
  8
AM_0
 10
253.69741380279399
 20
441.35952276089853
 30
0.0
 11
253.69741380279399
 21
439.35952276089859
 31
0.0
  0
LINE
  5
644F
  8
ﾁｭｳｼﾝｾﾝ1
 10
263.19741380279328
 20
390.0948152608986
 30
0.0
 11
263.19741380279328
 21
403.0948152608986
 31
0.0
  0
LINE
  5
6450
  8
AM_0
 10
259.29005883048688
 20
394.3005852487708
 30
0.0
 11
259.19741380279339
 21
395.35952276089859
 31
0.0
  0
LINE
  5
6451
  8
AM_0
 10
267.1047687750999
 20
394.3005852487708
 30
0.0
 11
267.19741380279328
 21
395.35952276089859
 31
0.0
  0
ARC
  5
6452
  8
AM_0
 10
263.19741380279362
 20
398.75952276089851
 30
0.0
 40
6.5
 50
241.82726586813479
 51
298.17273413186518
  0
ARC
  5
6453
  8
AM_0
 10
265.51085725815318
 20
394.44003443716701
 30
0.0
 40
1.6000000000000001
 50
298.17273413186518
 51
355.00000000000023
  0
LINE
  5
6454
  8
AM_0
 10
260.89741380279338
 20
392.6800490994703
 30
0.0
 11
263.19741380279339
 21
394.96960877826569
 31
0.0
  0
LINE
  5
6455
  8
AM_0
 10
262.88591380279343
 20
394.6595227608986
 30
0.0
 11
263.50891380279342
 21
394.6595227608986
 31
0.0
  0
LINE
  5
6456
  8
AM_0
 10
265.4974138027934
 20
392.6800490994703
 30
0.0
 11
263.19741380279339
 21
394.96960877826569
 31
0.0
  0
LINE
  5
6457
  8
AM_0
 10
262.88591380279343
 20
392.26699107056402
 30
0.0
 11
262.88591380279343
 21
394.6595227608986
 31
0.0
  0
LINE
  5
6458
  8
AM_0
 10
263.50891380279342
 20
392.26699107056402
 30
0.0
 11
263.50891380279342
 21
394.6595227608986
 31
0.0
  0
ARC
  5
6459
  8
AM_0
 10
260.88397034743389
 20
394.44003443716701
 30
0.0
 40
1.6000000000000001
 50
184.99999999999969
 51
241.82726586813479
  0
LINE
  5
645A
  8
AM_0N
 10
259.39741380279332
 20
396.3595227608987
 30
0.0
 11
259.39741380279332
 21
395.35952276089859
 31
0.0
  0
LINE
  5
645B
  8
AM_0N
 10
262.99741380279329
 20
395.35952276089859
 30
0.0
 11
262.63344356852718
 21
396.3595227608987
 31
0.0
  0
LINE
  5
645C
  8
AM_0N
 10
263.39741380279332
 20
395.35952276089859
 30
0.0
 11
263.03344356852722
 21
396.3595227608987
 31
0.0
  0
LINE
  5
645D
  8
AM_0N
 10
267.19741380279339
 20
395.35952276089859
 30
0.0
 11
259.19741380279339
 21
395.35952276089859
 31
0.0
  0
LINE
  5
645E
  8
AM_0N
 10
266.99741380279329
 20
395.35952276089859
 30
0.0
 11
266.99741380279329
 21
396.3595227608987
 31
0.0
  0
LINE
  5
645F
  8
AM_0
 10
171.1974138027939
 20
403.3595227608983
 30
0.0
 11
171.19741380279379
 21
435.3595227608983
 31
0.0
  0
LINE
  5
6460
  8
AM_0
 10
269.4031638027941
 20
552.2884127608985
 30
0.0
 11
265.25744380279428
 21
567.76952276089833
 31
0.0
  0
LINE
  5
6461
  8
AM_0
 10
269.40313380279417
 20
551.37841276089864
 30
0.0
 11
265.25741380279408
 21
566.85952276089836
 31
0.0
  0
LINE
  5
6462
  8
AM_0
 10
269.40313380279417
 20
549.52843276089845
 30
0.0
 11
265.25741380279408
 21
565.00957276089855
 31
0.0
  0
LINE
  5
6463
  8
AM_0
 10
271.19741380279407
 20
563.35952276089836
 30
0.0
 11
271.19741380279407
 21
451.3595227608983
 31
0.0
  0
LINE
  5
6464
  8
AM_0
 10
264.53744380279409
 20
543.35952276089859
 30
0.0
 11
165.5574038027942
 21
543.35952276089859
 31
0.0
  0
LINE
  5
6465
  8
AM_0
 10
264.53744380279409
 20
541.35952276089836
 30
0.0
 11
165.5574038027942
 21
541.35952276089836
 31
0.0
  0
LINE
  5
6466
  8
AM_0
 10
232.1974138027943
 20
533.35952276089836
 30
0.0
 11
165.5574038027942
 21
533.35952276089836
 31
0.0
  0
LINE
  5
6467
  8
AM_0
 10
264.5302438027943
 20
531.35952276089859
 30
0.0
 11
165.5574038027942
 21
531.35952276089859
 31
0.0
  0
LINE
  5
6468
  8
AM_0
 10
199.63613380279401
 20
523.35952276089859
 30
0.0
 11
165.5574038027942
 21
523.35952276089859
 31
0.0
  0
LINE
  5
6469
  8
AM_0
 10
199.63613380279401
 20
521.35952276089836
 30
0.0
 11
165.5574038027942
 21
521.35952276089836
 31
0.0
  0
LINE
  5
646A
  8
AM_0
 10
199.63613380279401
 20
513.35952276089836
 30
0.0
 11
165.5574038027942
 21
513.35952276089836
 31
0.0
  0
LINE
  5
646B
  8
AM_0
 10
199.63613380279401
 20
511.35952276089853
 30
0.0
 11
165.5574038027942
 21
511.35952276089853
 31
0.0
  0
LINE
  5
646C
  8
AM_0
 10
164.8774038027943
 20
544.07949276089835
 30
0.0
 11
268.0174238027941
 21
544.07949276089835
 31
0.0
  0
LINE
  5
646D
  8
AM_0
 10
164.8774038027943
 20
540.72951276089861
 30
0.0
 11
232.2174338027942
 21
540.72951276089861
 31
0.0
  0
LINE
  5
646E
  8
AM_0
 10
164.65743380279409
 20
533.84951276089851
 30
0.0
 11
232.1974138027943
 21
533.84951276089851
 31
0.0
  0
LINE
  5
646F
  8
AM_0
 10
164.65743380279409
 20
530.91957276089852
 30
0.0
 11
268.23165380279409
 21
530.91957276089852
 31
0.0
  0
LINE
  5
6470
  8
AM_0
 10
164.52743380279409
 20
523.69948276089849
 30
0.0
 11
200.85610380279411
 21
523.69948276089849
 31
0.0
  0
LINE
  5
6471
  8
AM_0
 10
164.52743380279409
 20
521.03957276089852
 30
0.0
 11
200.85610380279411
 21
521.03957276089852
 31
0.0
  0
LINE
  5
6472
  8
AM_0
 10
164.46743380279401
 20
513.62954276089852
 30
0.0
 11
200.9161038027942
 21
513.62954276089852
 31
0.0
  0
LINE
  5
6473
  8
AM_0
 10
164.46743380279401
 20
511.09951276089851
 30
0.0
 11
200.9161038027942
 21
511.09951276089851
 31
0.0
  0
LINE
  5
6474
  8
AM_0
 10
164.46743380279401
 20
503.62954276089852
 30
0.0
 11
200.9161038027942
 21
503.62954276089852
 31
0.0
  0
LINE
  5
6475
  8
AM_0
 10
199.63613380279401
 20
503.35952276089853
 30
0.0
 11
165.5574038027942
 21
503.35952276089853
 31
0.0
  0
LINE
  5
6476
  8
AM_0
 10
199.63613380279401
 20
501.35952276089859
 30
0.0
 11
165.5574038027942
 21
501.35952276089859
 31
0.0
  0
LINE
  5
6477
  8
AM_0
 10
164.46743380279401
 20
501.08950276089848
 30
0.0
 11
200.9161038027942
 21
501.08950276089848
 31
0.0
  0
LINE
  5
6478
  8
AM_0
 10
164.52743380279409
 20
493.67946276089862
 30
0.0
 11
200.85610380279411
 21
493.67946276089862
 31
0.0
  0
LINE
  5
6479
  8
AM_0
 10
199.63613380279401
 20
493.35952276089859
 30
0.0
 11
165.5574038027942
 21
493.35952276089859
 31
0.0
  0
LINE
  5
647A
  8
AM_0
 10
199.63613380279401
 20
491.35952276089853
 30
0.0
 11
165.5574038027942
 21
491.35952276089853
 31
0.0
  0
LINE
  5
647B
  8
AM_0
 10
164.52743380279409
 20
491.01955276089848
 30
0.0
 11
200.8686838027941
 21
491.01955276089848
 31
0.0
  0
LINE
  5
647C
  8
AM_0
 10
264.5302438027943
 20
483.35952276089853
 30
0.0
 11
165.5574038027942
 21
483.35952276089853
 31
0.0
  0
LINE
  5
647D
  8
AM_0
 10
164.65743380279409
 20
483.79946276089851
 30
0.0
 11
268.23165380279409
 21
483.79946276089851
 31
0.0
  0
LINE
  5
647E
  8
AM_0
 10
232.1974138027943
 20
481.35952276089859
 30
0.0
 11
165.5574038027942
 21
481.35952276089859
 31
0.0
  0
LINE
  5
647F
  8
AM_0
 10
164.65743380279409
 20
480.86953276089861
 30
0.0
 11
232.1974138027943
 21
480.86953276089861
 31
0.0
  0
LINE
  5
6480
  8
AM_0
 10
264.53744380279409
 20
473.35952276089853
 30
0.0
 11
220.1974138027941
 21
473.35952276089853
 31
0.0
  0
LINE
  5
6481
  8
AM_0
 10
264.53744380279409
 20
471.3595227608983
 30
0.0
 11
220.1974138027941
 21
471.3595227608983
 31
0.0
  0
LINE
  5
6482
  8
AM_0
 10
164.8774038027943
 20
470.63955276089831
 30
0.0
 11
220.1974138027941
 21
470.63955276089831
 31
0.0
  0
LINE
  5
6483
  8
AM_0
 10
268.0174238027941
 20
473.98952276089852
 30
0.0
 11
250.1774538027941
 21
473.98952276089852
 31
0.0
  0
LINE
  5
6484
  8
AM_0
 10
164.8774038027943
 20
473.98952276089852
 30
0.0
 11
232.2174338027942
 21
473.98952276089852
 31
0.0
  0
LINE
  5
6485
  8
AM_0
 10
220.1974138027941
 20
473.35952276089853
 30
0.0
 11
165.5574038027942
 21
473.35952276089853
 31
0.0
  0
LINE
  5
6486
  8
AM_0
 10
220.1974138027941
 20
471.3595227608983
 30
0.0
 11
165.5574038027942
 21
471.3595227608983
 31
0.0
  0
LINE
  5
6487
  8
AM_0
 10
220.1974138027941
 20
470.63955276089831
 30
0.0
 11
268.0174238027941
 21
470.63955276089831
 31
0.0
  0
LINE
  5
6488
  8
AM_0
 10
163.1974138027941
 20
560.35952276089859
 30
0.0
 11
163.1974138027941
 21
454.35952276089853
 31
0.0
  0
LINE
  5
6489
  8
AM_0
 10
271.19741380279407
 20
553.35952276089847
 30
0.0
 11
279.19741380279407
 21
553.35952276089847
 31
0.0
  0
LINE
  5
648A
  8
AM_0
 10
271.19741380279407
 20
539.29946276089845
 30
0.0
 11
279.19741380279407
 21
539.29946276089845
 31
0.0
  0
LINE
  5
648B
  8
AM_0
 10
271.19741380279407
 20
563.35952276089836
 30
0.0
 11
279.19741380279407
 21
563.35952276089836
 31
0.0
  0
LINE
  5
648C
  8
AM_0
 10
166.40743380279409
 20
563.6395527608986
 30
0.0
 11
263.3274238027941
 21
563.6395527608986
 31
0.0
  0
LINE
  5
648D
  8
AM_0
 10
163.1974138027941
 20
555.45958276089846
 30
0.0
 11
164.43740380279411
 21
562.01958276089852
 31
0.0
  0
LINE
  5
648E
  8
AM_0
 10
168.5574638027941
 20
544.00954276089851
 30
0.0
 11
163.19747380279409
 21
555.45952276089838
 31
0.0
  0
LINE
  5
648F
  8
AM_0
 10
168.5574038027942
 20
470.7094927608984
 30
0.0
 11
163.19747380279409
 21
459.26958276089829
 31
0.0
  0
LINE
  5
6490
  8
AM_0
 10
166.4474138027941
 20
566.48952276089835
 30
0.0
 11
263.3274238027941
 21
566.48952276089835
 31
0.0
  0
LINE
  5
6491
  8
AM_0
 10
166.46743380279401
 20
568.33950276089854
 30
0.0
 11
263.3274238027941
 21
568.33950276089854
 31
0.0
  0
LINE
  5
6492
  8
AM_0
 10
166.48745380279411
 20
569.24953276089855
 30
0.0
 11
263.32748380279418
 21
569.24953276089855
 31
0.0
  0
LINE
  5
6493
  8
AM_0
 10
163.19747380279409
 20
556.79955276089845
 30
0.0
 11
164.47744380279411
 21
564.80950276089845
 31
0.0
  0
LINE
  5
6494
  8
AM_0
 10
163.19747380279409
 20
558.1494927608984
 30
0.0
 11
164.48745380279419
 21
566.63958276089852
 31
0.0
  0
LINE
  5
6495
  8
AM_0
 10
163.1974138027941
 20
558.14952276089855
 30
0.0
 11
164.5074138027941
 21
567.52956276089833
 31
0.0
  0
LINE
  5
6496
  8
AM_0
 10
269.39748380279428
 20
546.6994827608986
 30
0.0
 11
265.25747380279398
 21
562.15950276089859
 31
0.0
  0
LINE
  5
6497
  8
AM_0
 10
265.73745380279428
 20
560.35952276089859
 30
0.0
 11
271.19741380279407
 21
560.35952276089859
 31
0.0
  0
LINE
  5
6498
  8
AM_0
 10
271.19741380279407
 20
461.3595227608983
 30
0.0
 11
279.19741380279407
 21
461.3595227608983
 31
0.0
  0
LINE
  5
6499
  8
AM_0
 10
271.19741380279407
 20
451.3595227608983
 30
0.0
 11
279.19741380279407
 21
451.3595227608983
 31
0.0
  0
LINE
  5
649A
  8
AM_0
 10
166.40743380279409
 20
451.07949276089829
 30
0.0
 11
263.3274238027941
 21
451.07949276089829
 31
0.0
  0
LINE
  5
649B
  8
AM_0
 10
163.1974138027941
 20
459.26949276089852
 30
0.0
 11
164.4374638027941
 21
452.70949276089851
 31
0.0
  0
LINE
  5
649C
  8
AM_0
 10
166.1036638027941
 20
448.22951276089861
 30
0.0
 11
188.595543802794
 21
448.22951276089861
 31
0.0
  0
LINE
  5
649D
  8
AM_0
 10
163.1974138027941
 20
457.91948276089852
 30
0.0
 11
164.47744380279411
 21
449.9195727608984
 31
0.0
  0
LINE
  5
649E
  8
AM_0
 10
163.1974138027941
 20
456.57958276089852
 30
0.0
 11
164.20669380279409
 21
449.92940276089848
 31
0.0
  0
LINE
  5
649F
  8
AM_0
 10
163.19747380279409
 20
456.57955276089859
 30
0.0
 11
164.1228938027941
 21
449.95296276089852
 31
0.0
  0
LINE
  5
64A0
  8
AM_0
 10
269.40313380279417
 20
468.04067276089847
 30
0.0
 11
265.25741380279408
 21
452.55953276089861
 31
0.0
  0
LINE
  5
64A1
  8
AM_0
 10
265.73946380279409
 20
454.35952276089853
 30
0.0
 11
271.19741380279407
 21
454.35952276089853
 31
0.0
  0
LINE
  5
64A2
  8
AM_0
 10
271.19741380279407
 20
475.41957276089852
 30
0.0
 11
279.19741380279407
 21
475.41957276089852
 31
0.0
  0
LINE
  5
64A3
  8
AM_0
 10
270.19741380279407
 20
454.35952276089853
 30
0.0
 11
264.4716738027941
 21
445.5426227608985
 31
0.0
  0
LINE
  5
64A4
  8
AM_0
 10
251.7110238027941
 20
444.8595227608983
 30
0.0
 11
263.21365380279428
 21
444.8595227608983
 31
0.0
  0
LINE
  5
64A5
  8
AM_0
 10
249.1774538027941
 20
534.85952276089859
 30
0.0
 11
249.1774538027941
 21
539.71950276089854
 31
0.0
  0
LINE
  5
64A6
  8
AM_0
 10
233.21743380279401
 20
534.85952276089859
 30
0.0
 11
233.21743380279401
 21
539.71950276089854
 31
0.0
  0
LINE
  5
64A7
  8
AM_0
 10
248.6974138027941
 20
534.85952276089859
 30
0.0
 11
248.6974138027941
 21
539.85952276089859
 31
0.0
  0
LINE
  5
64A8
  8
AM_0
 10
233.6974138027941
 20
534.85952276089859
 30
0.0
 11
233.6974138027941
 21
539.85952276089859
 31
0.0
  0
LINE
  5
64A9
  8
AM_0
 10
205.1974138027941
 20
520.35952276089836
 30
0.0
 11
268.19741380279407
 21
520.35952276089836
 31
0.0
  0
LINE
  5
64AA
  8
AM_0
 10
205.1974138027941
 20
486.85952276089841
 30
0.0
 11
268.19741380279407
 21
486.85952276089841
 31
0.0
  0
LINE
  5
64AB
  8
AM_0
 10
205.1974138027941
 20
527.85952276089859
 30
0.0
 11
268.19741380279407
 21
527.85952276089859
 31
0.0
  0
LINE
  5
64AC
  8
AM_0
 10
268.19741380279407
 20
527.85952276089859
 30
0.0
 11
268.19741380279407
 21
486.85952276089841
 31
0.0
  0
LINE
  5
64AD
  8
AM_0
 10
205.1974138027941
 20
527.85952276089859
 30
0.0
 11
205.1974138027941
 21
486.85952276089841
 31
0.0
  0
LINE
  5
64AE
  8
AM_0
 10
250.1974138027941
 20
533.84951276089851
 30
0.0
 11
268.24313380279409
 21
533.84951276089851
 31
0.0
  0
LINE
  5
64AF
  8
AM_0
 10
250.1974138027941
 20
480.87954276089852
 30
0.0
 11
268.23165380279409
 21
480.87954276089852
 31
0.0
  0
LINE
  5
64B0
  8
AM_0
 10
249.1774538027941
 20
479.8595227608983
 30
0.0
 11
249.1774538027941
 21
474.99953276089838
 31
0.0
  0
LINE
  5
64B1
  8
AM_0
 10
233.21743380279401
 20
479.8595227608983
 30
0.0
 11
233.21743380279401
 21
474.99953276089838
 31
0.0
  0
LINE
  5
64B2
  8
AM_0
 10
248.6974138027941
 20
479.8595227608983
 30
0.0
 11
248.6974138027941
 21
474.85952276089853
 31
0.0
  0
LINE
  5
64B3
  8
AM_0
 10
233.6974138027941
 20
479.8595227608983
 30
0.0
 11
233.6974138027941
 21
474.85952276089853
 31
0.0
  0
LINE
  5
64B4
  8
AM_0
 10
264.5302438027943
 20
481.35952276089859
 30
0.0
 11
250.1974138027941
 21
481.35952276089859
 31
0.0
  0
LINE
  5
64B5
  8
AM_0
 10
264.54458380279431
 20
533.35952276089836
 30
0.0
 11
250.1974138027941
 21
533.35952276089836
 31
0.0
  0
LINE
  5
64B6
  8
AM_0
 10
250.1774538027941
 20
540.71950276089854
 30
0.0
 11
268.0174238027941
 21
540.71950276089854
 31
0.0
  0
ARC
  5
64B7
  8
AM_0
 10
270.8506138027941
 20
552.69228276089837
 30
0.0
 40
1.502775999999999
 50
194.75642999999971
 51
269.87757999999872
  0
ARC
  5
64B8
  8
AM_0
 10
270.8506138027941
 20
551.78225276089836
 30
0.0
 40
1.502775999999999
 50
194.75642999999971
 51
269.87757999999872
  0
ARC
  5
64B9
  8
AM_0
 10
270.8506138027941
 20
549.93227276089863
 30
0.0
 40
1.502775999999999
 50
194.75642999999971
 51
269.87757999999872
  0
ARC
  5
64BA
  8
AM_0
 10
263.3225938027943
 20
567.24477276089829
 30
0.0
 40
2.0047290000000002
 50
15.173495999996319
 51
89.861678000000197
  0
ARC
  5
64BB
  8
AM_0
 10
263.3225938027943
 20
566.33474276089828
 30
0.0
 40
2.0047290000000002
 50
15.173495999996319
 51
89.861678000000197
  0
ARC
  5
64BC
  8
AM_0
 10
263.3225938027943
 20
564.48476276089855
 30
0.0
 40
2.0047290000000002
 50
15.173495999996319
 51
89.861678000000197
  0
ARC
  5
64BD
  8
AM_0
 10
270.8506138027941
 20
467.63674276089853
 30
0.0
 40
1.502775999999999
 50
90.122413000001615
 51
165.2435700000002
  0
ARC
  5
64BE
  8
AM_0
 10
165.74203380279411
 20
472.3595227608983
 30
0.0
 40
1.000013899999999
 50
89.69165999999926
 51
270.30834000000078
  0
ARC
  5
64BF
  8
AM_0
 10
268.0174238027941
 20
542.40456276089833
 30
0.0
 40
1.6750020000000001
 50
269.999989999999
 51
90.00000299999769
  0
ARC
  5
64C0
  8
AM_0
 10
264.53744380279409
 20
542.35952276089836
 30
0.0
 40
1.0
 50
269.999989999999
 51
90.00000299999769
  0
ARC
  5
64C1
  8
AM_0
 10
264.53744380279409
 20
472.3595227608983
 30
0.0
 40
1.0
 50
269.999989999999
 51
90.00000299999769
  0
ARC
  5
64C2
  8
AM_0
 10
268.0174238027941
 20
472.31447276089852
 30
0.0
 40
1.6750020000000001
 50
269.999989999999
 51
90.00000299999769
  0
ARC
  5
64C3
  8
AM_0
 10
164.87002380279429
 20
542.40456276089833
 30
0.0
 40
1.6750160000000001
 50
89.746145000004447
 51
270.25387000000092
  0
ARC
  5
64C4
  8
AM_0
 10
165.74203380279411
 20
542.35952276089836
 30
0.0
 40
1.000013899999999
 50
89.69165999999926
 51
270.30834000000078
  0
ARC
  5
64C5
  8
AM_0
 10
165.74203380279411
 20
532.35952276089847
 30
0.0
 40
1.000013899999999
 50
89.69165999999926
 51
270.30834000000078
  0
ARC
  5
64C6
  8
AM_0
 10
165.74203380279411
 20
522.35952276089859
 30
0.0
 40
1.000013899999999
 50
89.69165999999926
 51
270.30834000000078
  0
ARC
  5
64C7
  8
AM_0
 10
165.74203380279411
 20
512.35952276089836
 30
0.0
 40
1.000013899999999
 50
89.69165999999926
 51
270.30834000000078
  0
ARC
  5
64C8
  8
AM_0
 10
165.74203380279411
 20
502.35952276089859
 30
0.0
 40
1.000013899999999
 50
89.69165999999926
 51
270.30834000000078
  0
ARC
  5
64C9
  8
AM_0
 10
165.74203380279411
 20
492.35952276089853
 30
0.0
 40
1.000013899999999
 50
89.69165999999926
 51
270.30834000000078
  0
ARC
  5
64CA
  8
AM_0
 10
165.74203380279411
 20
482.35952276089853
 30
0.0
 40
1.000013899999999
 50
89.69165999999926
 51
270.30834000000078
  0
ARC
  5
64CB
  8
AM_0
 10
164.65743380279409
 20
532.38454276089851
 30
0.0
 40
1.465004
 50
90.00000299999769
 51
270.0
  0
ARC
  5
64CC
  8
AM_0
 10
164.52743380279409
 20
522.36953276089855
 30
0.0
 40
1.3300049999999981
 50
90.00000299999769
 51
270.0
  0
ARC
  5
64CD
  8
AM_0
 10
164.46157380279411
 20
512.36452276089835
 30
0.0
 40
1.2650129999999991
 50
89.735579000001735
 51
270.2644100000025
  0
ARC
  5
64CE
  8
AM_0
 10
164.46157380279411
 20
502.35952276089859
 30
0.0
 40
1.2700129999999981
 50
89.736617000001587
 51
270.26336999999921
  0
ARC
  5
64CF
  8
AM_0
 10
164.52743380279409
 20
492.34951276089851
 30
0.0
 40
1.3300049999999981
 50
90.00000299999769
 51
270.0
  0
ARC
  5
64D0
  8
AM_0
 10
164.65743380279409
 20
482.33449276089829
 30
0.0
 40
1.465004
 50
90.00000299999769
 51
270.0
  0
ARC
  5
64D1
  8
AM_0
 10
164.87057380279401
 20
472.31447276089852
 30
0.0
 40
1.675014
 50
89.766498999996756
 51
270.2335099999994
  0
ARC
  5
64D2
  8
AM_0
 10
166.39614380279411
 20
561.64540276089861
 30
0.0
 40
1.994108999999999
 50
89.675548000002749
 51
169.18776999999901
  0
ARC
  5
64D3
  8
AM_0
 10
166.4476638027941
 20
564.4942827608985
 30
0.0
 40
1.995282999999997
 50
90.006203999996856
 51
170.90835000000069
  0
ARC
  5
64D4
  8
AM_0
 10
166.4620038027941
 20
566.34279276089853
 30
0.0
 40
1.9967330000000001
 50
89.843966999998912
 51
171.4538799999975
  0
ARC
  5
64D5
  8
AM_0
 10
166.48391380279401
 20
567.25392276089849
 30
0.0
 40
1.995633
 50
89.899707999995783
 51
172.06112999999939
  0
ARC
  5
64D6
  8
AM_0
 10
263.32754380279408
 20
561.64125276089862
 30
0.0
 40
1.9982919999999991
 50
15.032547999996
 51
90.002632000001341
  0
ARC
  5
64D7
  8
AM_0
 10
270.8506138027941
 20
547.08229276089833
 30
0.0
 40
1.502775999999999
 50
194.75642999999971
 51
269.87757999999872
  0
ARC
  5
64D8
  8
AM_0
 10
263.3225938027943
 20
453.08425276089832
 30
0.0
 40
2.0047290000000002
 50
270.13832000000423
 51
344.82650000000189
  0
ARC
  5
64D9
  8
AM_0
 10
166.40231380279411
 20
453.07875276089851
 30
0.0
 40
1.9992490000000001
 50
190.643100000001
 51
270.14743000000129
  0
ARC
  5
64DA
  8
AM_0
 10
166.45364380279409
 20
450.22988276089831
 30
0.0
 40
2.000420099999999
 50
188.9268200000011
 51
269.82270999999599
  0
ARC
  5
64DB
  8
AM_0
 10
251.7110238027941
 20
443.3595227608983
 30
0.0
 40
1.5
 50
90.00000299999769
 51
178.50000000000381
  0
ARC
  5
64DC
  8
AM_0
 10
263.21365380279428
 20
446.35952276089819
 30
0.0
 40
1.5
 50
269.999989999999
 51
326.99999999999892
  0
ARC
  5
64DD
  8
AM_0
 10
166.18404380279409
 20
450.22951276089861
 30
0.0
 40
2.0
 50
188.62962000000439
 51
269.999989999999
  0
ARC
  5
64DE
  8
AM_0
 10
166.1036638027941
 20
450.22951276089861
 30
0.0
 40
2.0
 50
187.9504400000034
 51
269.999989999999
  0
ARC
  5
64DF
  8
AM_0
 10
188.595543802794
 20
446.72951276089861
 30
0.0
 40
1.5
 50
1.5000027000022329
 51
90.00000299999769
  0
ARC
  5
64E0
  8
AM_0
 10
199.63613380279401
 20
522.35952276089859
 30
0.0
 40
1.0000056999999991
 50
269.999989999999
 51
90.00000299999769
  0
ARC
  5
64E1
  8
AM_0
 10
199.63613380279401
 20
512.35952276089836
 30
0.0
 40
1.0000056999999991
 50
269.999989999999
 51
90.00000299999769
  0
ARC
  5
64E2
  8
AM_0
 10
199.63613380279401
 20
502.35952276089859
 30
0.0
 40
1.0000056999999991
 50
269.999989999999
 51
90.00000299999769
  0
ARC
  5
64E3
  8
AM_0
 10
199.63613380279401
 20
492.35952276089853
 30
0.0
 40
1.0000056999999991
 50
269.999989999999
 51
90.00000299999769
  0
ARC
  5
64E4
  8
AM_0
 10
250.1974138027941
 20
474.85952276089853
 30
0.0
 40
1.5
 50
179.999989999999
 51
270.0
  0
ARC
  5
64E5
  8
AM_0
 10
232.1974138027943
 20
474.85952276089853
 30
0.0
 40
1.5
 50
269.999989999999
 51
0.0000006832495047
  0
ARC
  5
64E6
  8
AM_0
 10
232.2174338027942
 20
474.99953276089838
 30
0.0
 40
1.0
 50
269.999989999999
 51
0.0000006832495047
  0
ARC
  5
64E7
  8
AM_0
 10
250.1774538027941
 20
474.99953276089838
 30
0.0
 40
1.0
 50
179.999989999999
 51
270.0
  0
CIRCLE
  5
64E8
  8
AM_0
 10
238.6974138027941
 20
535.85952276089859
 30
0.0
 40
1.1000000000000001
  0
CIRCLE
  5
64E9
  8
AM_0
 10
238.6974138027941
 20
535.85952276089859
 30
0.0
 40
1.149999999999999
  0
CIRCLE
  5
64EA
  8
AM_0
 10
243.6974138027941
 20
535.85952276089859
 30
0.0
 40
1.0
  0
ARC
  5
64EB
  8
AM_0
 10
232.1974138027943
 20
534.85952276089859
 30
0.0
 40
1.02
 50
269.999989999999
 51
0.0000006832429909
  0
ARC
  5
64EC
  8
AM_0
 10
250.1974138027941
 20
534.85952276089859
 30
0.0
 40
1.02
 50
179.999989999999
 51
270.0
  0
ARC
  5
64ED
  8
AM_0
 10
232.1974138027943
 20
534.85952276089859
 30
0.0
 40
1.5
 50
269.999989999999
 51
0.0000006832495047
  0
ARC
  5
64EE
  8
AM_0
 10
250.1974138027941
 20
534.85952276089859
 30
0.0
 40
1.5
 50
179.999989999999
 51
270.0
  0
CIRCLE
  5
64EF
  8
AM_0
 10
243.6974138027941
 20
478.85952276089853
 30
0.0
 40
1.0
  0
CIRCLE
  5
64F0
  8
AM_0
 10
238.6974138027941
 20
478.85952276089853
 30
0.0
 40
1.149999999999999
  0
CIRCLE
  5
64F1
  8
AM_0
 10
238.6974138027941
 20
478.85952276089853
 30
0.0
 40
1.1000000000000001
  0
ARC
  5
64F2
  8
AM_0
 10
232.1974138027943
 20
479.8595227608983
 30
0.0
 40
1.02
 50
0.0
 51
90.00000299999769
  0
ARC
  5
64F3
  8
AM_0
 10
250.1974138027941
 20
479.8595227608983
 30
0.0
 40
1.02
 50
90.00000299999769
 51
180.00001000000091
  0
ARC
  5
64F4
  8
AM_0
 10
232.1974138027943
 20
479.8595227608983
 30
0.0
 40
1.5
 50
0.0
 51
90.00000299999769
  0
ARC
  5
64F5
  8
AM_0
 10
250.1974138027941
 20
479.8595227608983
 30
0.0
 40
1.5
 50
90.00000299999769
 51
180.00001000000091
  0
ARC
  5
64F6
  8
AM_0
 10
200.8623938027942
 20
492.34951276089851
 30
0.0
 40
1.3300148000000001
 50
269.7294199999987
 51
90.270567000000995
  0
ARC
  5
64F7
  8
AM_0
 10
200.92434380279411
 20
502.35952276089859
 30
0.0
 40
1.2700266
 50
269.62932000000001
 51
90.370669999998213
  0
ARC
  5
64F8
  8
AM_0
 10
200.92434380279411
 20
512.36953276089855
 30
0.0
 40
1.2700266
 50
269.62932000000001
 51
90.370669999998213
  0
ARC
  5
64F9
  8
AM_0
 10
200.8623938027942
 20
522.37453276089855
 30
0.0
 40
1.3350147999999991
 50
269.7304299999999
 51
90.269556000001344
  0
ARC
  5
64FA
  8
AM_0
 10
264.53738380279412
 20
532.35952276089847
 30
0.0
 40
1.0000255999999981
 50
269.5894700000033
 51
90.410530999997775
  0
ARC
  5
64FB
  8
AM_0
 10
268.23739380279409
 20
532.3895527608986
 30
0.0
 40
1.460011199999999
 50
269.77524999999667
 51
90.224750000003354
  0
ARC
  5
64FC
  8
AM_0
 10
264.53738380279412
 20
482.35952276089853
 30
0.0
 40
1.0000255999999981
 50
269.5894700000033
 51
90.410530999997775
  0
ARC
  5
64FD
  8
AM_0
 10
268.23739380279409
 20
482.3294927608984
 30
0.0
 40
1.460011199999999
 50
269.77524999999667
 51
90.224750000003354
  0
ARC
  5
64FE
  8
AM_0
 10
250.1774538027941
 20
539.71950276089854
 30
0.0
 40
1.0
 50
90.00000299999769
 51
180.00001000000091
  0
ARC
  5
64FF
  8
AM_0
 10
250.1974138027941
 20
539.85952276089859
 30
0.0
 40
1.5
 50
90.00000299999769
 51
180.00001000000091
  0
ARC
  5
6500
  8
AM_0
 10
232.1974138027943
 20
539.85952276089859
 30
0.0
 40
1.5
 50
0.0
 51
90.00000299999769
  0
ARC
  5
6501
  8
AM_0
 10
232.2174338027942
 20
539.71950276089854
 30
0.0
 40
1.0
 50
0.0
 51
90.00000299999769
  0
POLYLINE
  5
6502
  8
AM_0
 66
     1
 10
0.0
 20
0.0
 30
0.0
  0
VERTEX
  5
6503
  8
AM_0
 10
165.5574038027942
 20
507.35952276089853
 30
0.0
 42
0.00039106593
  0
VERTEX
  5
6504
  8
AM_0
 10
165.5550438027941
 20
507.04838276089862
 30
0.0
 42
0.00040574899
  0
VERTEX
  5
6505
  8
AM_0
 10
165.55317380279399
 20
506.73727276089858
 30
0.0
 42
0.0003534546
  0
VERTEX
  5
6506
  8
AM_0
 10
165.55178380279409
 20
506.42617276089851
 30
0.0
 42
0.00034407327
  0
VERTEX
  5
6507
  8
AM_0
 10
165.55080380279409
 20
506.11503276089837
 30
0.0
 42
0.00045699408
  0
VERTEX
  5
6508
  8
AM_0
 10
165.55034380279409
 20
505.8039227608985
 30
0.0
 42
0.00035571853
  0
VERTEX
  5
6509
  8
AM_0
 10
165.5503838027941
 20
505.49282276089849
 30
0.0
 42
0.00038547362
  0
VERTEX
  5
650A
  8
AM_0
 10
165.550873802794
 20
505.18168276089852
 30
0.0
 42
0.00035501498
  0
VERTEX
  5
650B
  8
AM_0
 10
165.55183380279411
 20
504.87058276089829
 30
0.0
 42
0.00040118614
  0
VERTEX
  5
650C
  8
AM_0
 10
165.5532538027941
 20
504.55934276089829
 30
0.0
 42
0.00038319871
  0
VERTEX
  5
650D
  8
AM_0
 10
165.55516380279411
 20
504.24821276089858
 30
0.0
 42
0.00040742136
  0
VERTEX
  5
650E
  8
AM_0
 10
165.55756380279431
 20
503.9369827608985
 30
0.0
 42
0.0003578071
  0
VERTEX
  5
650F
  8
AM_0
 10
165.56045380279409
 20
503.62587276089829
 30
0.0
  0
SEQEND
  5
6510
  8
AM_0
  0
POLYLINE
  5
6511
  8
AM_0
 66
     1
 10
0.0
 20
0.0
 30
0.0
  0
VERTEX
  5
6512
  8
AM_0
 10
165.60146380279409
 20
501.08913276089862
 30
0.0
 42
0.00076695232
  0
VERTEX
  5
6513
  8
AM_0
 10
165.61626380279401
 20
500.47137276089859
 30
0.0
 42
0.00073263044
  0
VERTEX
  5
6514
  8
AM_0
 10
165.63290380279429
 20
499.85377276089849
 30
0.0
 42
0.0007652599
  0
VERTEX
  5
6515
  8
AM_0
 10
165.6513938027941
 20
499.23610276089852
 30
0.0
 42
0.00075144485
  0
VERTEX
  5
6516
  8
AM_0
 10
165.67176380279429
 20
498.61850276089848
 30
0.0
 42
0.00078594403
  0
VERTEX
  5
6517
  8
AM_0
 10
165.69401380279399
 20
498.00107276089852
 30
0.0
 42
0.00073349202
  0
VERTEX
  5
6518
  8
AM_0
 10
165.71816380279401
 20
497.38369276089821
 30
0.0
 42
0.0007358075
  0
VERTEX
  5
6519
  8
AM_0
 10
165.74410380279409
 20
496.7662927608983
 30
0.0
 42
0.00078592699
  0
VERTEX
  5
651A
  8
AM_0
 10
165.77193380279411
 20
496.14890276089852
 30
0.0
 42
0.00074823144
  0
VERTEX
  5
651B
  8
AM_0
 10
165.80166380279411
 20
495.53151276089858
 30
0.0
 42
0.00074896603
  0
VERTEX
  5
651C
  8
AM_0
 10
165.83322380279409
 20
494.91438276089849
 30
0.0
 42
0.00076039765
  0
VERTEX
  5
651D
  8
AM_0
 10
165.8666438027943
 20
494.29735276089849
 30
0.0
 42
0.00075616128
  0
VERTEX
  5
651E
  8
AM_0
 10
165.90194380279411
 20
493.68032276089849
 30
0.0
  0
SEQEND
  5
651F
  8
AM_0
  0
POLYLINE
  5
6520
  8
AM_0
 66
     1
 10
0.0
 20
0.0
 30
0.0
  0
VERTEX
  5
6521
  8
AM_0
 10
166.07565380279411
 20
491.01894276089848
 30
0.0
 42
0.00073721992
  0
VERTEX
  5
6522
  8
AM_0
 10
166.119803802794
 20
490.41653276089858
 30
0.0
 42
0.00074398496
  0
VERTEX
  5
6523
  8
AM_0
 10
166.16573380279411
 20
489.81426276089849
 30
0.0
 42
0.00073322625
  0
VERTEX
  5
6524
  8
AM_0
 10
166.21346380279411
 20
489.21193276089849
 30
0.0
 42
0.00073594289
  0
VERTEX
  5
6525
  8
AM_0
 10
166.2629438027941
 20
488.60994276089872
 30
0.0
 42
0.00074742568
  0
VERTEX
  5
6526
  8
AM_0
 10
166.31421380279409
 20
488.00808276089862
 30
0.0
 42
0.00073216749
  0
VERTEX
  5
6527
  8
AM_0
 10
166.36727380279419
 20
487.40627276089839
 30
0.0
 42
0.00074184065
  0
VERTEX
  5
6528
  8
AM_0
 10
166.422093802794
 20
486.80474276089859
 30
0.0
 42
0.00072077528
  0
VERTEX
  5
6529
  8
AM_0
 10
166.4786738027943
 20
486.20351276089872
 30
0.0
 42
0.00074978179
  0
VERTEX
  5
652A
  8
AM_0
 10
166.53701380279401
 20
485.60231276089849
 30
0.0
 42
0.00074288888
  0
VERTEX
  5
652B
  8
AM_0
 10
166.597163802794
 20
485.00129276089831
 30
0.0
 42
0.00072503679
  0
VERTEX
  5
652C
  8
AM_0
 10
166.6590738027941
 20
484.40055276089828
 30
0.0
 42
0.00074640584
  0
VERTEX
  5
652D
  8
AM_0
 10
166.7227438027941
 20
483.79995276089841
 30
0.0
  0
SEQEND
  5
652E
  8
AM_0
  0
POLYLINE
  5
652F
  8
AM_0
 66
     1
 10
0.0
 20
0.0
 30
0.0
  0
VERTEX
  5
6530
  8
AM_0
 10
167.05831380279409
 20
480.87648276089851
 30
0.0
 42
0.0006890001
  0
VERTEX
  5
6531
  8
AM_0
 10
167.12919380279399
 20
480.30173276089829
 30
0.0
 42
0.00070644651
  0
VERTEX
  5
6532
  8
AM_0
 10
167.2016938027941
 20
479.72705276089852
 30
0.0
 42
0.0006924559
  0
VERTEX
  5
6533
  8
AM_0
 10
167.27578380279419
 20
479.15273276089852
 30
0.0
 42
0.00069587797
  0
VERTEX
  5
6534
  8
AM_0
 10
167.35146380279409
 20
478.5785927608984
 30
0.0
 42
0.00071687041
  0
VERTEX
  5
6535
  8
AM_0
 10
167.42877380279401
 20
478.00459276089822
 30
0.0
 42
0.00069759113
  0
VERTEX
  5
6536
  8
AM_0
 10
167.50771380279409
 20
477.43080276089847
 30
0.0
 42
0.00071003142
  0
VERTEX
  5
6537
  8
AM_0
 10
167.5882538027941
 20
476.8573327608982
 30
0.0
 42
0.00069954544
  0
VERTEX
  5
6538
  8
AM_0
 10
167.67039380279411
 20
476.28423276089859
 30
0.0
 42
0.0007188852
  0
VERTEX
  5
6539
  8
AM_0
 10
167.7541738027939
 20
475.71120276089829
 30
0.0
 42
0.00071266165
  0
VERTEX
  5
653A
  8
AM_0
 10
167.8396038027941
 20
475.13844276089827
 30
0.0
 42
0.00071614577
  0
VERTEX
  5
653B
  8
AM_0
 10
167.92663380279399
 20
474.56609276089853
 30
0.0
 42
0.00072290806
  0
VERTEX
  5
653C
  8
AM_0
 10
168.01534380279401
 20
473.9937927608986
 30
0.0
  0
SEQEND
  5
653D
  8
AM_0
  0
POLYLINE
  5
653E
  8
AM_0
 66
     1
 10
0.0
 20
0.0
 30
0.0
  0
VERTEX
  5
653F
  8
AM_0
 10
165.5574038027942
 20
507.35952276089853
 30
0.0
 42
-0.00039106653
  0
VERTEX
  5
6540
  8
AM_0
 10
165.5550438027941
 20
507.67065276089852
 30
0.0
 42
-0.00040574511
  0
VERTEX
  5
6541
  8
AM_0
 10
165.55317380279399
 20
507.9817627608985
 30
0.0
 42
-0.00035346331
  0
VERTEX
  5
6542
  8
AM_0
 10
165.55178380279409
 20
508.2928727608986
 30
0.0
 42
-0.00034406545
  0
VERTEX
  5
6543
  8
AM_0
 10
165.55080380279409
 20
508.60401276089863
 30
0.0
 42
-0.00045699059
  0
VERTEX
  5
6544
  8
AM_0
 10
165.55034380279409
 20
508.91511276089841
 30
0.0
 42
-0.00035573431
  0
VERTEX
  5
6545
  8
AM_0
 10
165.5503838027941
 20
509.22621276089848
 30
0.0
 42
-0.00038545888
  0
VERTEX
  5
6546
  8
AM_0
 10
165.550873802794
 20
509.53735276089827
 30
0.0
 42
-0.00035501203
  0
VERTEX
  5
6547
  8
AM_0
 10
165.55183380279411
 20
509.84846276089849
 30
0.0
 42
-0.00040120778
  0
VERTEX
  5
6548
  8
AM_0
 10
165.5532538027941
 20
510.15969276089839
 30
0.0
 42
-0.00038317821
  0
VERTEX
  5
6549
  8
AM_0
 10
165.55516380279411
 20
510.47082276089861
 30
0.0
 42
-0.00040741862
  0
VERTEX
  5
654A
  8
AM_0
 10
165.55756380279431
 20
510.78205276089852
 30
0.0
 42
-0.00035783324
  0
VERTEX
  5
654B
  8
AM_0
 10
165.56045380279409
 20
511.09316276089862
 30
0.0
  0
SEQEND
  5
654C
  8
AM_0
  0
POLYLINE
  5
654D
  8
AM_0
 66
     1
 10
0.0
 20
0.0
 30
0.0
  0
VERTEX
  5
654E
  8
AM_0
 10
165.60146380279409
 20
513.62990276089852
 30
0.0
 42
-0.00076691987
  0
VERTEX
  5
654F
  8
AM_0
 10
165.61626380279401
 20
514.24766276089861
 30
0.0
 42
-0.00073262795
  0
VERTEX
  5
6550
  8
AM_0
 10
165.63290380279429
 20
514.86526276089853
 30
0.0
 42
-0.0007652954
  0
VERTEX
  5
6551
  8
AM_0
 10
165.6513938027941
 20
515.48293276089862
 30
0.0
 42
-0.00077334627
  0
VERTEX
  5
6552
  8
AM_0
 10
165.6718038027943
 20
516.10053276089855
 30
0.0
 42
-0.00073282897
  0
VERTEX
  5
6553
  8
AM_0
 10
165.69406380279401
 20
516.71795276089836
 30
0.0
 42
-0.0007571179
  0
VERTEX
  5
6554
  8
AM_0
 10
165.71816380279401
 20
517.3354727608986
 30
0.0
 42
-0.00073783152
  0
VERTEX
  5
6555
  8
AM_0
 10
165.74410380279409
 20
517.95286276089826
 30
0.0
 42
-0.0007835518
  0
VERTEX
  5
6556
  8
AM_0
 10
165.77193380279411
 20
518.57013276089856
 30
0.0
 42
-0.00074826133
  0
VERTEX
  5
6557
  8
AM_0
 10
165.80166380279411
 20
519.18752276089845
 30
0.0
 42
-0.00074893555
  0
VERTEX
  5
6558
  8
AM_0
 10
165.83322380279409
 20
519.80465276089853
 30
0.0
 42
-0.00076039841
  0
VERTEX
  5
6559
  8
AM_0
 10
165.8666438027943
 20
520.42168276089853
 30
0.0
 42
-0.00075618789
  0
VERTEX
  5
655A
  8
AM_0
 10
165.90194380279411
 20
521.03871276089853
 30
0.0
  0
SEQEND
  5
655B
  8
AM_0
  0
POLYLINE
  5
655C
  8
AM_0
 66
     1
 10
0.0
 20
0.0
 30
0.0
  0
VERTEX
  5
655D
  8
AM_0
 10
166.07565380279411
 20
523.70009276089854
 30
0.0
 42
-0.0007337051
  0
VERTEX
  5
655E
  8
AM_0
 10
166.11979380279431
 20
524.30250276089851
 30
0.0
 42
-0.00075211323
  0
VERTEX
  5
655F
  8
AM_0
 10
166.16573380279411
 20
524.90490276089861
 30
0.0
 42
-0.0007297491
  0
VERTEX
  5
6560
  8
AM_0
 10
166.21346380279411
 20
525.50710276089853
 30
0.0
 42
-0.00073593041
  0
VERTEX
  5
6561
  8
AM_0
 10
166.2629438027941
 20
526.10909276089853
 30
0.0
 42
-0.00074742739
  0
VERTEX
  5
6562
  8
AM_0
 10
166.31421380279409
 20
526.71095276089852
 30
0.0
 42
-0.00073217363
  0
VERTEX
  5
6563
  8
AM_0
 10
166.36727380279419
 20
527.31276276089864
 30
0.0
 42
-0.00073754168
  0
VERTEX
  5
6564
  8
AM_0
 10
166.422093802794
 20
527.91430276089852
 30
0.0
 42
-0.00073075073
  0
VERTEX
  5
6565
  8
AM_0
 10
166.4786738027943
 20
528.51565276089855
 30
0.0
 42
-0.00074550816
  0
VERTEX
  5
6566
  8
AM_0
 10
166.53701380279401
 20
529.1167227608986
 30
0.0
 42
-0.00074288416
  0
VERTEX
  5
6567
  8
AM_0
 10
166.597163802794
 20
529.71774276089855
 30
0.0
 42
-0.00072504001
  0
VERTEX
  5
6568
  8
AM_0
 10
166.6590738027941
 20
530.31848276089852
 30
0.0
 42
-0.00074640667
  0
VERTEX
  5
6569
  8
AM_0
 10
166.7227438027941
 20
530.91909276089848
 30
0.0
  0
SEQEND
  5
656A
  8
AM_0
  0
POLYLINE
  5
656B
  8
AM_0
 66
     1
 10
0.0
 20
0.0
 30
0.0
  0
VERTEX
  5
656C
  8
AM_0
 10
167.05831380279409
 20
533.84255276089846
 30
0.0
 42
-0.00068898283
  0
VERTEX
  5
656D
  8
AM_0
 10
167.12919380279399
 20
534.41730276089845
 30
0.0
 42
-0.00070644357
  0
VERTEX
  5
656E
  8
AM_0
 10
167.2016938027941
 20
534.99199276089848
 30
0.0
 42
-0.00069248074
  0
VERTEX
  5
656F
  8
AM_0
 10
167.27578380279419
 20
535.56630276089857
 30
0.0
 42
-0.0006958566
  0
VERTEX
  5
6570
  8
AM_0
 10
167.35146380279409
 20
536.14044276089862
 30
0.0
 42
-0.00071687219
  0
VERTEX
  5
6571
  8
AM_0
 10
167.42877380279401
 20
536.71444276089858
 30
0.0
 42
-0.00069760022
  0
VERTEX
  5
6572
  8
AM_0
 10
167.50771380279409
 20
537.28823276089838
 30
0.0
 42
-0.00071002302
  0
VERTEX
  5
6573
  8
AM_0
 10
167.5882538027941
 20
537.86170276089854
 30
0.0
 42
-0.00069954889
  0
VERTEX
  5
6574
  8
AM_0
 10
167.67039380279411
 20
538.43480276089861
 30
0.0
 42
-0.00071887947
  0
VERTEX
  5
6575
  8
AM_0
 10
167.7541738027939
 20
539.00783276089862
 30
0.0
 42
-0.00071266929
  0
VERTEX
  5
6576
  8
AM_0
 10
167.8396038027941
 20
539.58060276089816
 30
0.0
 42
-0.00071614429
  0
VERTEX
  5
6577
  8
AM_0
 10
167.92663380279399
 20
540.15294276089833
 30
0.0
 42
-0.00072288978
  0
VERTEX
  5
6578
  8
AM_0
 10
168.01534380279401
 20
540.7252427608986
 30
0.0
  0
SEQEND
  5
6579
  8
AM_0
  0
LINE
  5
657A
  8
AM_0
 10
155.69741380279419
 20
560.3595227608987
 30
0.0
 11
155.6974138027939
 21
454.35952276089859
 31
0.0
  0
LINE
  5
657B
  8
AM_0
 10
155.6974138027939
 20
454.35952276089859
 30
0.0
 11
163.19741380279399
 21
454.35952276089859
 31
0.0
  0
LINE
  5
657C
  8
AM_0
 10
155.89742380279401
 20
464.16958276089872
 30
0.0
 11
162.12740380279399
 21
464.16958276089872
 31
0.0
  0
LINE
  5
657D
  8
AM_0
 10
155.89742380279401
 20
550.54946276089845
 30
0.0
 11
162.12740380279399
 21
550.54946276089845
 31
0.0
  0
LINE
  5
657E
  8
AM_0
 10
155.69741380279419
 20
560.3595227608987
 30
0.0
 11
163.19741380279419
 21
560.3595227608987
 31
0.0
  0
LINE
  5
657F
  8
AM_0
 10
147.69741380279501
 20
455.2981192521267
 30
0.0
 11
147.69741380279461
 21
493.02040616688402
 31
0.0
  0
LINE
  5
6580
  8
AM_0
 10
138.69741380279419
 20
453.35952276089881
 30
0.0
 11
138.69741380279419
 21
561.35952276089881
 31
0.0
  0
LINE
  5
6581
  8
AM_0
 10
138.69741380279419
 20
453.35952276089853
 30
0.0
 11
155.69741380279399
 21
454.35952276089859
 31
0.0
  0
LINE
  5
6582
  8
AM_0
 10
138.69741380279419
 20
561.35952276089847
 30
0.0
 11
155.69741380279399
 21
560.3595227608987
 31
0.0
  0
LINE
  5
6583
  8
AM_0
 10
147.69741380279481
 20
463.7656195628071
 30
0.0
 11
155.69741380279399
 21
463.76561956280739
 31
0.0
  0
LINE
  5
6584
  8
AM_0
 10
147.69741380279501
 20
455.2981192521267
 30
0.0
 11
155.69741380279399
 21
455.2981192521267
 31
0.0
  0
LINE
  5
6585
  8
AM_0
 10
144.19741380279481
 20
472.71864979563861
 30
0.0
 11
147.69741380279481
 21
472.71864979563861
 31
0.0
  0
LINE
  5
6586
  8
AM_0
 10
144.19741380279481
 20
464.21864979563861
 30
0.0
 11
147.69741380279501
 21
464.21864979563861
 31
0.0
  0
LINE
  5
6587
  8
AM_0
 10
143.6974138027949
 20
464.7186497956385
 30
0.0
 11
143.6974138027949
 21
472.2186497956385
 31
0.0
  0
ARC
  5
6588
  8
AM_0
 10
144.1974138027949
 20
464.7186497956385
 30
0.0
 40
0.5
 50
180.0
 51
270.0
  0
ARC
  5
6589
  8
AM_0
 10
144.1974138027949
 20
472.2186497956385
 30
0.0
 40
0.5
 50
90.0
 51
180.0
  0
LINE
  5
658A
  8
AM_0
 10
138.69741380279419
 20
465.08732826775861
 30
0.0
 11
143.6974138027949
 21
465.08732826775849
 31
0.0
  0
LINE
  5
658B
  8
AM_0
 10
138.69741380279419
 20
474.82241076605447
 30
0.0
 11
147.6974138027947
 21
474.82241076605447
 31
0.0
  0
LINE
  5
658C
  8
AM_0
 10
147.69741380279501
 20
559.42092626967087
 30
0.0
 11
147.69741380279461
 21
521.69863935491799
 31
0.0
  0
LINE
  5
658D
  8
AM_0
 10
147.69741380279481
 20
550.95342595899024
 30
0.0
 11
155.69741380279399
 21
550.95342595899024
 31
0.0
  0
LINE
  5
658E
  8
AM_0
 10
147.69741380279501
 20
559.42092626967087
 30
0.0
 11
155.69741380279399
 21
559.42092626967087
 31
0.0
  0
LINE
  5
658F
  8
AM_0
 10
144.19741380279481
 20
542.0003957261589
 30
0.0
 11
147.69741380279481
 21
542.0003957261589
 31
0.0
  0
LINE
  5
6590
  8
AM_0
 10
144.19741380279481
 20
550.5003957261589
 30
0.0
 11
147.69741380279501
 21
550.5003957261589
 31
0.0
  0
LINE
  5
6591
  8
AM_0
 10
143.6974138027949
 20
550.0003957261589
 30
0.0
 11
143.6974138027949
 21
542.5003957261589
 31
0.0
  0
ARC
  5
6592
  8
AM_0
 10
144.1974138027949
 20
550.00039572615844
 30
0.0
 40
0.5
 50
90.0
 51
180.0
  0
ARC
  5
6593
  8
AM_0
 10
144.1974138027949
 20
542.50039572615844
 30
0.0
 40
0.5
 50
180.0
 51
270.0
  0
LINE
  5
6594
  8
AM_0
 10
138.69741380279419
 20
549.6317172540389
 30
0.0
 11
143.6974138027949
 21
549.63171725403913
 31
0.0
  0
LINE
  5
6595
  8
AM_0
 10
138.69741380279419
 20
539.89663475574275
 30
0.0
 11
147.6974138027947
 21
539.89663475574275
 31
0.0
  0
LINE
  5
6596
  8
AM_0
 10
132.69741380279399
 20
561.35952276089893
 30
0.0
 11
132.69741380279399
 21
453.35952276089853
 31
0.0
  0
LINE
  5
6597
  8
AM_0
 10
138.69741380279419
 20
453.35952276089853
 30
0.0
 11
132.69741380279399
 21
453.35952276089853
 31
0.0
  0
LINE
  5
6598
  8
AM_0
 10
132.69741380279399
 20
561.35952276089893
 30
0.0
 11
138.6974138027939
 21
561.35952276089893
 31
0.0
  0
LINE
  5
6599
  8
AM_0
 10
131.69741380279399
 20
503.55952276089852
 30
0.0
 11
131.69741380279399
 21
511.1595227608986
 31
0.0
  0
LINE
  5
659A
  8
AM_0
 10
131.69741380279399
 20
511.1595227608986
 30
0.0
 11
132.69741380279399
 21
511.1595227608986
 31
0.0
  0
LINE
  5
659B
  8
AM_0
 10
132.69741380279399
 20
507.55952276089852
 30
0.0
 11
131.69741380279399
 21
507.92349299516479
 31
0.0
  0
LINE
  5
659C
  8
AM_0
 10
132.69741380279399
 20
507.15952276089871
 30
0.0
 11
131.69741380279399
 21
507.52349299516487
 31
0.0
  0
LINE
  5
659D
  8
AM_0
 10
132.69741380279399
 20
503.55952276089852
 30
0.0
 11
131.69741380279399
 21
503.55952276089852
 31
0.0
  0
LINE
  5
659E
  8
AM_0
 10
130.63847629066601
 20
511.26687773320532
 30
0.0
 11
131.69741380279399
 21
511.35952276089853
 31
0.0
  0
LINE
  5
659F
  8
AM_0
 10
130.63847629066601
 20
503.45216778859231
 30
0.0
 11
131.69741380279399
 21
503.35952276089853
 31
0.0
  0
ARC
  5
65A0
  8
AM_0
 10
135.09741380279411
 20
507.35952276089853
 30
0.0
 40
6.5
 50
151.82726586813479
 51
208.1727341318651
  0
ARC
  5
65A1
  8
AM_0
 10
130.7779254790627
 20
505.04607930553908
 30
0.0
 40
1.6000000000000001
 50
208.1727341318651
 51
265.00000000000028
  0
ARC
  5
65A2
  8
AM_0
 10
130.7779254790627
 20
509.67296621625837
 30
0.0
 40
1.6000000000000001
 50
94.99999999999973
 51
151.82726586813479
  0
LINE
  5
65A3
  8
AM_0
 10
131.69741380279399
 20
503.35952276089853
 30
0.0
 11
131.69741380279399
 21
511.35952276089853
 31
0.0
  0
LINE
  5
65A4
  8
AM_0
 10
155.69741380279399
 20
493.02040616688407
 30
0.0
 11
147.6974138027947
 21
493.02040616688407
 31
0.0
  0
LINE
  5
65A5
  8
AM_0
 10
155.6974138027939
 20
521.6986393549181
 30
0.0
 11
147.6974138027945
 21
521.6986393549181
 31
0.0
  0
LINE
  5
65A6
  8
AM_0
 10
118.1974138027936
 20
473.35952276089972
 30
0.0
 11
118.1974138027936
 21
462.35952276089881
 31
0.0
  0
LINE
  5
65A7
  8
AM_0
 10
132.69741380279359
 20
462.35952276089881
 30
0.0
 11
118.1974138027936
 21
462.35952276089881
 31
0.0
  0
LINE
  5
65A8
  8
AM_0
 10
106.1974138027941
 20
467.35952276089972
 30
0.0
 11
106.1974138027938
 21
464.35952276089961
 31
0.0
  0
LINE
  5
65A9
  8
AM_0
 10
106.1974138027938
 20
464.35952276089961
 30
0.0
 11
118.1974138027936
 21
464.35952276089961
 31
0.0
  0
LINE
  5
65AA
  8
AM_0
 10
106.1974138027936
 20
465.35952276089989
 30
0.0
 11
106.1974138027936
 21
467.53719116704627
 31
0.0
  0
LINE
  5
65AB
  8
AM_0
 10
100.6974138027936
 20
467.35952276089989
 30
0.0
 11
101.5974138027937
 21
467.35952276089989
 31
0.0
  0
LINE
  5
65AC
  8
AM_0
 10
100.4974138027933
 20
470.35952276089989
 30
0.0
 11
100.4974138027933
 21
467.35952276089989
 31
0.0
  0
LINE
  5
65AD
  8
AM_0
 10
101.5974138027937
 20
467.08717102631618
 30
0.0
 11
101.5974138027937
 21
470.6318744954836
 31
0.0
  0
LINE
  5
65AE
  8
AM_0
 10
100.1974138027936
 20
470.05952276089988
 30
0.0
 11
101.59741380279191
 21
470.05952276089988
 31
0.0
  0
LINE
  5
65AF
  8
AM_0
 10
105.5974138027937
 20
466.47795290049282
 30
0.0
 11
105.5974138027937
 21
465.35952276089989
 31
0.0
  0
LINE
  5
65B0
  8
AM_0
 10
105.5974138027937
 20
467.35952276089989
 30
0.0
 11
105.5974138027937
 21
467.25952276089998
 31
0.0
  0
LINE
  5
65B1
  8
AM_0
 10
105.5974138027937
 20
467.25952276089998
 30
0.0
 11
105.5974138027937
 21
466.47795290049282
 31
0.0
  0
LINE
  5
65B2
  8
AM_0
 10
105.5974138027937
 20
467.35952276089989
 30
0.0
 11
105.5974138027937
 21
467.25952276089998
 31
0.0
  0
LINE
  5
65B3
  8
AM_0
 10
105.5974138027937
 20
467.74328543722959
 30
0.0
 11
105.5974138027937
 21
466.47795290049282
 31
0.0
  0
LINE
  5
65B4
  8
AM_0
 10
105.5974138027937
 20
465.35952276089989
 30
0.0
 11
106.1974138027936
 21
465.35952276089989
 31
0.0
  0
LINE
  5
65B5
  8
AM_0
 10
102.89741380279391
 20
466.47795290049282
 30
0.0
 11
102.89741380279391
 21
469.9094840928928
 31
0.0
  0
LINE
  5
65B6
  8
AM_0
 10
102.73636957353619
 20
466.19126127214957
 30
0.0
 11
101.8038165240291
 21
466.7296710263164
 31
0.0
  0
LINE
  5
65B7
  8
AM_0
 10
103.1698653948243
 20
465.68409628035693
 30
0.0
 11
105.3249622107633
 21
465.68409628035693
 31
0.0
  0
LINE
  5
65B8
  8
AM_0
 10
103.1698653948243
 20
467.27180952062849
 30
0.0
 11
105.3249622107633
 21
467.27180952062872
 31
0.0
  0
LINE
  5
65B9
  8
AM_0
 10
101.5974138027923
 20
470.35952276089989
 30
0.0
 11
100.4974138027933
 21
470.35952276089989
 31
0.0
  0
LINE
  5
65BA
  8
AM_0
 10
100.4974138027933
 20
470.35952276089989
 30
0.0
 11
100.1974138027936
 21
470.05952276089988
 31
0.0
  0
LINE
  5
65BB
  8
AM_0
 10
100.1974138027936
 20
470.05952276089988
 30
0.0
 11
100.1974138027936
 21
467.6595227608999
 31
0.0
  0
LINE
  5
65BC
  8
AM_0
 10
100.4974138027933
 20
467.35952276089989
 30
0.0
 11
101.59741380279191
 21
467.35952276089989
 31
0.0
  0
LINE
  5
65BD
  8
AM_0
 10
100.1974138027936
 20
467.6595227608999
 30
0.0
 11
100.4974138027933
 21
467.35952276089989
 31
0.0
  0
LINE
  5
65BE
  8
AM_0
 10
101.59741380279191
 20
467.6595227608999
 30
0.0
 11
100.1974138027936
 21
467.6595227608999
 31
0.0
  0
ARC
  5
65BF
  8
AM_0
 10
104.30463698676709
 20
466.47795290049282
 30
0.0
 40
1.292776816026465
 50
322.11555894629771
 51
0.0
  0
ARC
  5
65C0
  8
AM_0
 10
107.65984367885341
 20
468.85952276089989
 30
0.0
 40
4.762429876059711
 50
168.45024695876941
 51
199.4742400054138
  0
ARC
  5
65C1
  8
AM_0
 10
104.1901906188203
 20
466.47795290049282
 30
0.0
 40
1.292776816026556
 50
142.11555894629771
 51
217.88444105370229
  0
ARC
  5
65C2
  8
AM_0
 10
100.8349839267342
 20
468.85952276089989
 30
0.0
 40
4.762429876059584
 50
340.52575999458628
 51
347.08714779821958
  0
ARC
  5
65C3
  8
AM_0
 10
104.30463698676709
 20
466.47795290049282
 30
0.0
 40
1.2927768160265021
 50
0.0
 51
37.884441053702282
  0
ARC
  5
65C4
  8
AM_0
 10
102.0102192452642
 20
467.08717102631618
 30
0.0
 40
0.4128054424705854
 50
180.0
 51
239.99999999999949
  0
ARC
  5
65C5
  8
AM_0
 10
102.32356413106579
 20
465.47626127214971
 30
0.0
 40
0.8256108849411369
 50
28.217424594175291
 51
59.999999999999439
  0
LINE
  5
65C6
  8
AM_0
 10
101.8125063353168
 20
470.99439156036959
 30
0.0
 11
101.8038165240291
 21
470.98937449548367
 31
0.0
  0
ARC
  5
65C7
  8
AM_0
 10
102.01021924526439
 20
470.6318744954836
 30
0.0
 40
0.4128054424705854
 50
119.9999999999924
 51
179.99999999999341
  0
CIRCLE
  5
65C8
  8
AM_0
 10
104.1973751347879
 20
507.35952276089893
 30
0.0
 40
5.5
  0
LINE
  5
65C9
  8
AM_0
 10
98.697375134787805
 20
504.18409628035602
 30
0.0
 11
104.1973751347883
 21
501.00866979981282
 31
0.0
  0
LINE
  5
65CA
  8
AM_0
 10
104.1973751347883
 20
501.00866979981282
 30
0.0
 11
109.6973751347878
 21
504.18409628035619
 31
0.0
  0
LINE
  5
65CB
  8
AM_0
 10
109.6973751347878
 20
504.18409628035619
 30
0.0
 11
109.6973751347878
 21
510.53494924144178
 31
0.0
  0
LINE
  5
65CC
  8
AM_0
 10
109.6973751347878
 20
510.53494924144178
 30
0.0
 11
104.1973751347878
 21
513.71037572198497
 31
0.0
  0
LINE
  5
65CD
  8
AM_0
 10
104.1973751347878
 20
513.71037572198497
 30
0.0
 11
98.697375134787805
 21
510.53494924144172
 31
0.0
  0
LINE
  5
65CE
  8
AM_0
 10
98.697375134787805
 20
510.53494924144172
 30
0.0
 11
98.697375134787805
 21
504.18409628035602
 31
0.0
  0
CIRCLE
  5
65CF
  8
AM_0
 10
104.1973751347879
 20
507.35952276089893
 30
0.0
 40
6.4999856554771771
  0
LINE
  5
65D0
  8
AM_0
 10
115.2626673651589
 20
473.35952276089961
 30
0.0
 11
118.1974138027936
 21
473.35952276089961
 31
0.0
  0
LINE
  5
65D1
  8
AM_0
 10
116.21683591694681
 20
471.85952276089972
 30
0.0
 11
118.1974138027936
 21
471.85952276089972
 31
0.0
  0
LINE
  5
65D2
  8
AM_0
 10
107.5184429466526
 20
467.35952276089972
 30
0.0
 11
118.1974138027936
 21
467.35952276089972
 31
0.0
  0
ARC
  5
65D3
  8
AM_0
 10
107.5184429466525
 20
472.35952276089961
 30
0.0
 40
5.0
 50
225.0
 51
270.0
1001
GENIUS_GENODEF_13
1002
{
1000
HIER
1070
     0
1002
}
1002
{
1000
MANEDIT
1070
     0
1002
}
1002
{
1000
NOSEL
1070
     0
1002
}
1002
{
1000
BEHIND
1070
     0
1002
}
1002
{
1000
OTHER
1070
     0
1002
}
1002
{
1000
REACTOR
1002
}
1001
GENIUS_GENOBJ-N-FIL_13
1002
{
1000
OWNER
1000
GEN
1002
}
  0
LINE
  5
65D4
  8
AM_0
 10
116.21683591694659
 20
467.35952276089972
 30
0.0
 11
116.21683591694681
 21
471.85952276089972
 31
0.0
  0
LINE
  5
65D5
  8
AM_0
 10
102.6973751347878
 20
501.03498218300649
 30
0.0
 11
102.697375134788
 21
480.14754790719019
 31
0.0
  0
LINE
  5
65D6
  8
AM_0
 10
105.6973751347878
 20
501.03498218300649
 30
0.0
 11
105.6973751347878
 21
480.14754790719019
 31
0.0
  0
LINE
  5
65D7
  8
AM_0
 10
100.4473751347878
 20
502.05035017739692
 30
0.0
 11
100.4473751347878
 21
474.43059057276429
 31
0.0
  0
ARC
  5
65D8
  8
AM_0
 10
105.4473751347879
 20
474.43059057276429
 30
0.0
 40
5.0
 50
180.0
 51
225.0
1001
GENIUS_GENOBJ-N-FIL_13
1002
{
1000
OWNER
1000
GEN
1002
}
1001
GENIUS_GENODEF_13
1002
{
1000
HIER
1070
     0
1002
}
1002
{
1000
MANEDIT
1070
     0
1002
}
1002
{
1000
NOSEL
1070
     0
1002
}
1002
{
1000
BEHIND
1070
     0
1002
}
1002
{
1000
OTHER
1070
     0
1002
}
1002
{
1000
REACTOR
1002
}
  0
LINE
  5
65D9
  8
AM_0
 10
107.9473751347878
 20
502.05035017739692
 30
0.0
 11
107.9473751347878
 21
477.89044110415119
 31
0.0
  0
ARC
  5
65DA
  8
AM_0
 10
112.9473751347878
 20
486.3150411302243
 30
0.0
 40
5.0
 50
180.0
 51
212.46094411514611
1001
GENIUS_GENODEF_13
1002
{
1000
HIER
1070
     0
1002
}
1002
{
1000
MANEDIT
1070
     0
1002
}
1002
{
1000
NOSEL
1070
     0
1002
}
1002
{
1000
BEHIND
1070
     0
1002
}
1002
{
1000
OTHER
1070
     0
1002
}
1002
{
1000
REACTOR
1002
}
1001
GENIUS_GENOBJ-N-FIL_13
1002
{
1000
OWNER
1000
GEN
1002
}
  0
ARC
  5
65DB
  8
AM_0
 10
112.9473751347878
 20
477.89044110415119
 30
0.0
 40
5.0
 50
180.0
 51
224.2123722808945
1001
GENIUS_GENOBJ-N-FIL_13
1002
{
1000
OWNER
1000
GEN
1002
}
1001
GENIUS_GENODEF_13
1002
{
1000
HIER
1070
     0
1002
}
1002
{
1000
MANEDIT
1070
     0
1002
}
1002
{
1000
NOSEL
1070
     0
1002
}
1002
{
1000
BEHIND
1070
     0
1002
}
1002
{
1000
OTHER
1070
     0
1002
}
1002
{
1000
REACTOR
1002
}
  0
LINE
  5
65DC
  8
AM_0
 10
116.21683591694659
 20
471.85952276089972
 30
0.0
 11
108.7285876240208
 21
483.63141821725873
 31
0.0
  0
LINE
  5
65DD
  8
AM_0
 10
116.21683591694659
 20
467.35952276089972
 30
0.0
 11
109.36357489893641
 21
474.4038416333903
 31
0.0
  0
LINE
  5
65DE
  8
AM_0
 10
101.9118412288551
 20
470.89505666683169
 30
0.0
 11
103.9829090407198
 21
468.82398885496701
 31
0.0
  0
ARC
  5
65DF
  8
AM_0
 10
104.1973751347879
 20
480.14754790719019
 30
0.0
 40
1.5
 50
180.0
 51
0.0
  0
LINE
  5
65E0
  8
AM_0
 10
118.197413802794
 20
541.35952276089802
 30
0.0
 11
118.1974138027945
 21
552.35952276089904
 31
0.0
  0
LINE
  5
65E1
  8
AM_0
 10
132.6974138027945
 20
552.3595227608987
 30
0.0
 11
118.1974138027945
 21
552.35952276089904
 31
0.0
  0
LINE
  5
65E2
  8
AM_0
 10
106.1974138027947
 20
547.35952276089824
 30
0.0
 11
106.1974138027947
 21
550.35952276089824
 31
0.0
  0
LINE
  5
65E3
  8
AM_0
 10
106.1974138027947
 20
550.35952276089824
 30
0.0
 11
118.1974138027945
 21
550.35952276089802
 31
0.0
  0
LINE
  5
65E4
  8
AM_0
 10
106.1974138027945
 20
549.35952276089824
 30
0.0
 11
106.1974138027945
 21
547.18185435475175
 31
0.0
  0
LINE
  5
65E5
  8
AM_0
 10
100.6974138027945
 20
547.35952276089824
 30
0.0
 11
101.59741380279461
 21
547.35952276089824
 31
0.0
  0
LINE
  5
65E6
  8
AM_0
 10
100.4974138027942
 20
544.35952276089847
 30
0.0
 11
100.4974138027942
 21
547.35952276089824
 31
0.0
  0
LINE
  5
65E7
  8
AM_0
 10
101.59741380279461
 20
547.63187449548195
 30
0.0
 11
101.59741380279461
 21
544.08717102631465
 31
0.0
  0
LINE
  5
65E8
  8
AM_0
 10
100.1974138027945
 20
544.65952276089831
 30
0.0
 11
101.59741380279441
 21
544.65952276089831
 31
0.0
  0
LINE
  5
65E9
  8
AM_0
 10
105.59741380279461
 20
548.24109262130548
 30
0.0
 11
105.59741380279461
 21
549.35952276089836
 31
0.0
  0
LINE
  5
65EA
  8
AM_0
 10
105.59741380279461
 20
547.35952276089824
 30
0.0
 11
105.59741380279461
 21
547.45952276089827
 31
0.0
  0
LINE
  5
65EB
  8
AM_0
 10
105.59741380279461
 20
547.45952276089827
 30
0.0
 11
105.59741380279461
 21
548.24109262130548
 31
0.0
  0
LINE
  5
65EC
  8
AM_0
 10
105.59741380279461
 20
547.35952276089824
 30
0.0
 11
105.59741380279461
 21
547.45952276089827
 31
0.0
  0
LINE
  5
65ED
  8
AM_0
 10
105.59741380279461
 20
546.97576008456861
 30
0.0
 11
105.59741380279461
 21
548.24109262130548
 31
0.0
  0
LINE
  5
65EE
  8
AM_0
 10
105.59741380279461
 20
549.35952276089836
 30
0.0
 11
106.1974138027945
 21
549.35952276089824
 31
0.0
  0
LINE
  5
65EF
  8
AM_0
 10
102.8974138027948
 20
548.24109262130548
 30
0.0
 11
102.8974138027946
 21
544.80956142890511
 31
0.0
  0
LINE
  5
65F0
  8
AM_0
 10
102.7363695735371
 20
548.52778424964845
 30
0.0
 11
101.80381652403
 21
547.98937449548191
 31
0.0
  0
LINE
  5
65F1
  8
AM_0
 10
103.16986539482519
 20
549.03494924144115
 30
0.0
 11
105.3249622107642
 21
549.03494924144115
 31
0.0
  0
LINE
  5
65F2
  8
AM_0
 10
103.16986539482519
 20
547.4472360011697
 30
0.0
 11
105.3249622107642
 21
547.4472360011697
 31
0.0
  0
LINE
  5
65F3
  8
AM_0
 10
101.59741380279461
 20
544.35952276089847
 30
0.0
 11
100.4974138027942
 21
544.35952276089847
 31
0.0
  0
LINE
  5
65F4
  8
AM_0
 10
100.4974138027942
 20
544.35952276089847
 30
0.0
 11
100.1974138027945
 21
544.65952276089831
 31
0.0
  0
LINE
  5
65F5
  8
AM_0
 10
100.1974138027945
 20
544.65952276089831
 30
0.0
 11
100.1974138027945
 21
547.05952276089852
 31
0.0
  0
LINE
  5
65F6
  8
AM_0
 10
100.4974138027942
 20
547.35952276089824
 30
0.0
 11
101.59741380279461
 21
547.35952276089824
 31
0.0
  0
LINE
  5
65F7
  8
AM_0
 10
100.1974138027945
 20
547.05952276089852
 30
0.0
 11
100.4974138027942
 21
547.35952276089824
 31
0.0
  0
LINE
  5
65F8
  8
AM_0
 10
101.59741380279461
 20
547.0595227608984
 30
0.0
 11
100.1974138027945
 21
547.05952276089852
 31
0.0
  0
ARC
  5
65F9
  8
AM_0
 10
104.304636986768
 20
548.24109262130548
 30
0.0
 40
1.292776816026465
 50
0.0
 51
37.884441053702282
  0
ARC
  5
65FA
  8
AM_0
 10
107.6598436788541
 20
545.85952276089824
 30
0.0
 40
4.762429876059711
 50
160.52575999458611
 51
191.5497530412305
  0
ARC
  5
65FB
  8
AM_0
 10
104.19019061882121
 20
548.24109262130548
 30
0.0
 40
1.292776816026556
 50
142.11555894629771
 51
217.88444105370229
  0
ARC
  5
65FC
  8
AM_0
 10
100.83498392673491
 20
545.85952276089824
 30
0.0
 40
4.762429876059584
 50
12.912852201780369
 51
19.474240005413812
  0
ARC
  5
65FD
  8
AM_0
 10
104.304636986768
 20
548.24109262130548
 30
0.0
 40
1.2927768160265021
 50
322.11555894629771
 51
0.0
  0
ARC
  5
65FE
  8
AM_0
 10
102.01021924526511
 20
547.63187449548195
 30
0.0
 40
0.4128054424705854
 50
120.0000000000005
 51
180.0
  0
ARC
  5
65FF
  8
AM_0
 10
102.3235641310665
 20
549.24278424964848
 30
0.0
 40
0.8256108849411369
 50
299.99999999999972
 51
331.78257540582467
  0
LINE
  5
6600
  8
AM_0
 10
101.81250633531771
 20
543.72465396142843
 30
0.0
 11
101.80381652403
 21
543.72967102631446
 31
0.0
  0
ARC
  5
6601
  8
AM_0
 10
102.01021924526511
 20
544.08717102631454
 30
0.0
 40
0.4128054424705854
 50
180.00000000000659
 51
240.00000000000759
  0
LINE
  5
6602
  8
AM_0
 10
115.2626673651598
 20
541.35952276089824
 30
0.0
 11
118.197413802794
 21
541.35952276089802
 31
0.0
  0
LINE
  5
6603
  8
AM_0
 10
116.2168359169475
 20
542.85952276089824
 30
0.0
 11
118.1974138027943
 21
542.85952276089802
 31
0.0
  0
LINE
  5
6604
  8
AM_0
 10
107.51844294665359
 20
547.35952276089824
 30
0.0
 11
118.1974138027943
 21
547.35952276089802
 31
0.0
  0
ARC
  5
6605
  8
AM_0
 10
107.5184429466532
 20
542.35952276089824
 30
0.0
 40
5.0
 50
90.0
 51
135.0
1001
GENIUS_GENODEF_13
1002
{
1000
HIER
1070
     0
1002
}
1002
{
1000
MANEDIT
1070
     0
1002
}
1002
{
1000
NOSEL
1070
     0
1002
}
1002
{
1000
BEHIND
1070
     0
1002
}
1002
{
1000
OTHER
1070
     0
1002
}
1002
{
1000
REACTOR
1002
}
1001
GENIUS_GENOBJ-N-FIL_13
1002
{
1000
OWNER
1000
GEN
1002
}
  0
LINE
  5
6606
  8
AM_0
 10
116.2168359169475
 20
547.35952276089824
 30
0.0
 11
116.2168359169475
 21
542.85952276089824
 31
0.0
  0
LINE
  5
6607
  8
AM_0
 10
102.6973751347882
 20
513.68406333879182
 30
0.0
 11
102.6973751347887
 21
534.57149761460767
 31
0.0
  0
LINE
  5
6608
  8
AM_0
 10
105.697375134788
 20
513.6840633387917
 30
0.0
 11
105.6973751347887
 21
534.57149761460767
 31
0.0
  0
LINE
  5
6609
  8
AM_0
 10
100.4473751347882
 20
512.66869534440116
 30
0.0
 11
100.4473751347887
 21
540.28845494903385
 31
0.0
  0
ARC
  5
660A
  8
AM_0
 10
105.4473751347885
 20
540.28845494903362
 30
0.0
 40
5.0
 50
135.0
 51
180.0
1001
GENIUS_GENOBJ-N-FIL_13
1002
{
1000
OWNER
1000
GEN
1002
}
1001
GENIUS_GENODEF_13
1002
{
1000
HIER
1070
     0
1002
}
1002
{
1000
MANEDIT
1070
     0
1002
}
1002
{
1000
NOSEL
1070
     0
1002
}
1002
{
1000
BEHIND
1070
     0
1002
}
1002
{
1000
OTHER
1070
     0
1002
}
1002
{
1000
REACTOR
1002
}
  0
LINE
  5
660B
  8
AM_0
 10
107.9473751347882
 20
512.66869534440093
 30
0.0
 11
107.9473751347887
 21
536.82860441764683
 31
0.0
  0
ARC
  5
660C
  8
AM_0
 10
112.9473751347883
 20
528.40400439157361
 30
0.0
 40
5.0
 50
147.53905588485381
 51
180.0
1001
GENIUS_GENODEF_13
1002
{
1000
HIER
1070
     0
1002
}
1002
{
1000
MANEDIT
1070
     0
1002
}
1002
{
1000
NOSEL
1070
     0
1002
}
1002
{
1000
BEHIND
1070
     0
1002
}
1002
{
1000
OTHER
1070
     0
1002
}
1002
{
1000
REACTOR
1002
}
1001
GENIUS_GENOBJ-N-FIL_13
1002
{
1000
OWNER
1000
GEN
1002
}
  0
ARC
  5
660D
  8
AM_0
 10
112.9473751347885
 20
536.82860441764672
 30
0.0
 40
5.0
 50
135.7876277191055
 51
180.0
1001
GENIUS_GENOBJ-N-FIL_13
1002
{
1000
OWNER
1000
GEN
1002
}
1001
GENIUS_GENODEF_13
1002
{
1000
HIER
1070
     0
1002
}
1002
{
1000
MANEDIT
1070
     0
1002
}
1002
{
1000
NOSEL
1070
     0
1002
}
1002
{
1000
BEHIND
1070
     0
1002
}
1002
{
1000
OTHER
1070
     0
1002
}
1002
{
1000
REACTOR
1002
}
  0
LINE
  5
660E
  8
AM_0
 10
116.2168359169473
 20
542.85952276089824
 30
0.0
 11
108.7285876240212
 21
531.08762730453952
 31
0.0
  0
LINE
  5
660F
  8
AM_0
 10
116.2168359169475
 20
547.35952276089824
 30
0.0
 11
109.3635748989373
 21
540.31520388840772
 31
0.0
  0
LINE
  5
6610
  8
AM_0
 10
101.91184122885581
 20
543.82398885496661
 30
0.0
 11
103.9829090407207
 21
545.89505666683124
 31
0.0
  0
ARC
  5
6611
  8
AM_0
 10
104.1973751347885
 20
534.57149761460767
 30
0.0
 40
1.5
 50
0.0
 51
180.0
  0
ARC
  5
6612
  8
AM_0
 10
149.6482119896493
 20
436.35952276089859
 30
0.0
 40
20.0
 50
209.07393874564249
 51
249.9723572882591
1001
GENIUS_GENODEF_13
1002
{
1000
HIER
1070
     0
1002
}
1002
{
1000
MANEDIT
1070
     0
1002
}
1002
{
1000
NOSEL
1070
     0
1002
}
1002
{
1000
BEHIND
1070
     0
1002
}
1002
{
1000
OTHER
1070
     0
1002
}
1002
{
1000
REACTOR
1002
}
1001
GENIUS_GENOBJ-N-FIL_13
1002
{
1000
OWNER
1000
GEN
1002
}
  0
ARC
  5
6613
  8
AM_0
 10
150.23638821829491
 20
437.35952276089859
 30
0.0
 40
15.0
 50
209.07393874564249
 51
240.27464366407139
1001
GENIUS_GENODEF_13
1002
{
1000
HIER
1070
     0
1002
}
1002
{
1000
MANEDIT
1070
     0
1002
}
1002
{
1000
NOSEL
1070
     0
1002
}
1002
{
1000
BEHIND
1070
     0
1002
}
1002
{
1000
OTHER
1070
     0
1002
}
1002
{
1000
REACTOR
1002
}
1001
GENIUS_GENOBJ-N-FIL_13
1002
{
1000
OWNER
1000
GEN
1002
}
  0
LINE
  5
6614
  8
AM_0
 10
132.1683450982344
 20
426.64076494632081
 30
0.0
 11
111.19681971169641
 21
464.35952276089961
 31
0.0
  0
LINE
  5
6615
  8
AM_0
 10
137.12648804973369
 20
430.07045439996517
 30
0.0
 11
119.1738550344111
 21
462.35952276089881
 31
0.0
  0
LINE
  5
666C
  8
AM_0
 10
424.19738380279398
 20
519.35952276089859
 30
0.0
 11
424.19738380279398
 21
495.35952276089841
 31
0.0
  0
LINE
  5
666D
  8
AM_0
 10
390.19733380279371
 20
519.35952276089847
 30
0.0
 11
424.19738380279398
 21
519.35952276089859
 31
0.0
  0
LINE
  5
666E
  8
AM_0
 10
390.19733380279371
 20
495.35952276089841
 30
0.0
 11
424.19738380279398
 21
495.35952276089841
 31
0.0
  0
LINE
  5
666F
  8
AM_0
 10
392.19738380279398
 20
511.3594927608986
 30
0.0
 11
392.19738380279398
 21
503.35952276089853
 31
0.0
  0
LINE
  5
6670
  8
AM_0
 10
392.19738380279398
 20
503.35952276089853
 30
0.0
 11
424.19738380279398
 21
503.35952276089853
 31
0.0
  0
LINE
  5
6671
  8
AM_0
 10
392.19738380279398
 20
511.3594927608986
 30
0.0
 11
424.19738380279398
 21
511.3594927608986
 31
0.0
  0
ARC
  5
6672
  8
AM_0
 10
392.19738380279398
 20
507.3594927608986
 30
0.0
 40
3.9999962
 50
90.000003000000945
 51
120.0008584236235
  0
ARC
  5
6673
  8
AM_0
 10
392.19738380279398
 20
507.3594927608986
 30
0.0
 40
3.9999962
 50
239.99914157637639
 51
270.0
  0
LINE
  5
6674
  8
AM_0
 10
385.19733380279382
 20
540.85951976089848
 30
0.0
 11
390.19733380279371
 21
535.85951976089871
 31
0.0
  0
LINE
  5
6675
  8
AM_0
 10
381.19741380279402
 20
540.85951976089848
 30
0.0
 11
385.19733380279399
 21
540.85951976089848
 31
0.0
  0
LINE
  5
6676
  8
AM_0
 10
390.19733380279371
 20
535.85951976089871
 30
0.0
 11
390.19733380279382
 21
478.85951976089848
 31
0.0
  0
LINE
  5
6677
  8
AM_0
 10
381.19741380279402
 20
473.85951976089848
 30
0.0
 11
385.19733380279382
 21
473.85951976089848
 31
0.0
  0
LINE
  5
6678
  8
AM_0
 10
385.19733380279382
 20
473.85951976089848
 30
0.0
 11
390.19733380279382
 21
478.85951976089848
 31
0.0
  0
LINE
  5
6679
  8
AM_0
 10
385.19733380279399
 20
540.85951976089848
 30
0.0
 11
385.19733380279382
 21
473.85951976089848
 31
0.0
  0
LINE
  5
667A
  8
AM_0
 10
317.19738380279398
 20
578.35952276089847
 30
0.0
 11
317.19738380279398
 21
436.35952276089853
 31
0.0
  0
LINE
  5
667B
  8
AM_0
 10
348.22097380279411
 20
435.54714276089851
 30
0.0
 11
312.14504380279408
 21
436.49181276089848
 31
0.0
  0
LINE
  5
667C
  8
AM_0
 10
348.22100380279397
 20
579.1719227608985
 30
0.0
 11
312.145073802794
 21
578.22722276089837
 31
0.0
  0
LINE
  5
667D
  8
AM_0
 10
310.19741380279407
 20
438.49114276089853
 30
0.0
 11
310.19741380279407
 21
576.2278927608985
 31
0.0
  0
LINE
  5
667E
  8
AM_0
 10
305.19738380279398
 20
450.67870276089849
 30
0.0
 11
279.197443802794
 21
451.35952276089853
 31
0.0
  0
LINE
  5
667F
  8
AM_0
 10
279.19741380279407
 20
461.35921276089857
 30
0.0
 11
310.19741380279407
 21
461.35921276089857
 31
0.0
  0
LINE
  5
6680
  8
AM_0
 10
307.19738380279398
 20
442.14824276089848
 30
0.0
 11
308.19741380279407
 21
442.14824276089848
 31
0.0
  0
LINE
  5
6681
  8
AM_0
 10
305.19738380279398
 20
444.1482427608986
 30
0.0
 11
305.19738380279398
 21
459.35921276089852
 31
0.0
  0
LINE
  5
6682
  8
AM_0
 10
305.19738380279398
 20
570.57082276089852
 30
0.0
 11
305.19738380279398
 21
555.3598227608984
 31
0.0
  0
LINE
  5
6683
  8
AM_0
 10
305.19741380279402
 20
564.04036276089835
 30
0.0
 11
279.197443802794
 21
563.35952276089836
 31
0.0
  0
LINE
  5
6684
  8
AM_0
 10
279.19741380279407
 20
553.35982276089817
 30
0.0
 11
310.19741380279407
 21
553.35982276089817
 31
0.0
  0
LINE
  5
6685
  8
AM_0
 10
307.19738380279398
 20
572.57082276089852
 30
0.0
 11
308.19741380279407
 21
572.57082276089852
 31
0.0
  0
LINE
  5
6686
  8
AM_0
 10
279.19741380279407
 20
475.41958276089838
 30
0.0
 11
310.19741380279407
 21
475.41958276089838
 31
0.0
  0
LINE
  5
6687
  8
AM_0
 10
279.19741380279407
 20
539.29946276089845
 30
0.0
 11
310.19741380279407
 21
539.29946276089845
 31
0.0
  0
LINE
  5
6688
  8
AM_0
 10
349.19738380279421
 20
577.74849276089833
 30
0.0
 11
349.19738380279421
 21
436.97054276089852
 31
0.0
  0
LINE
  5
6689
  8
AM_0
 10
352.11886380279401
 20
580.74746276089854
 30
0.0
 11
364.27590380279412
 21
581.0657827608984
 31
0.0
  0
LINE
  5
668A
  8
AM_0
 10
377.19738380279398
 20
422.35952276089853
 30
0.0
 11
377.19738380279398
 21
592.35952276089836
 31
0.0
  0
LINE
  5
668B
  8
AM_0
 10
377.19738380279398
 20
577.35952276089847
 30
0.0
 11
381.19741380279402
 21
577.35952276089847
 31
0.0
  0
LINE
  5
668C
  8
AM_0
 10
369.12758380279399
 20
592.0777227608985
 30
0.0
 11
377.197353802794
 21
592.35952276089836
 31
0.0
  0
LINE
  5
668D
  8
AM_0
 10
367.19738380279398
 20
549.31118276089853
 30
0.0
 11
367.19738380279398
 21
590.07891276089856
 31
0.0
  0
LINE
  5
668E
  8
AM_0
 10
371.19738380279432
 20
440.57817276089861
 30
0.0
 11
371.19738380279432
 21
574.14086276089847
 31
0.0
  0
LINE
  5
668F
  8
AM_0
 10
352.1188938027941
 20
433.97155276089848
 30
0.0
 11
364.2759338027941
 21
433.65322276089847
 31
0.0
  0
LINE
  5
6690
  8
AM_0
 10
377.19738380279398
 20
437.35952276089853
 30
0.0
 11
381.19741380279402
 21
437.35952276089853
 31
0.0
  0
LINE
  5
6691
  8
AM_0
 10
369.12755380279401
 20
422.64132276089839
 30
0.0
 11
377.19738380279398
 21
422.35952276089853
 31
0.0
  0
LINE
  5
6692
  8
AM_0
 10
367.19738380279398
 20
465.40786276089852
 30
0.0
 11
367.19738380279398
 21
424.64013276089838
 31
0.0
  0
LINE
  5
6693
  8
AM_0
 10
381.19741380279402
 20
577.35952276089847
 30
0.0
 11
381.19741380279402
 21
437.35952276089853
 31
0.0
  0
LINE
  5
6694
  8
AM_0
 10
364.74022380279399
 20
566.03737276089828
 30
0.0
 11
351.65456380279397
 21
558.30834276089854
 31
0.0
  0
LINE
  5
6695
  8
AM_0
 10
350.19738380279421
 20
555.05764276089849
 30
0.0
 11
365.19738380279421
 21
555.05764276089849
 31
0.0
  0
LINE
  5
6696
  8
AM_0
 10
364.74022380279399
 20
569.52160276089865
 30
0.0
 11
351.65456380279397
 21
561.79256276089836
 31
0.0
  0
LINE
  5
6697
  8
AM_0
 10
350.19738380279421
 20
459.66140276089851
 30
0.0
 11
365.19738380279421
 21
459.66140276089851
 31
0.0
  0
LINE
  5
6698
  8
AM_0
 10
364.74022380279399
 20
448.68166276089858
 30
0.0
 11
351.65456380279397
 21
456.41072276089841
 31
0.0
  0
LINE
  5
6699
  8
AM_0
 10
364.74022380279399
 20
445.19741276089832
 30
0.0
 11
351.65456380279397
 21
452.92647276089849
 31
0.0
  0
ARC
  5
669A
  8
AM_0
 10
312.19741380279407
 20
438.49114276089853
 30
0.0
 40
2.0
 50
180.00001000000091
 51
268.5000000000004
  0
ARC
  5
669B
  8
AM_0
 10
312.19741380279407
 20
576.2278927608985
 30
0.0
 40
2.0
 50
91.500001000001546
 51
180.00001000000091
  0
ARC
  5
669C
  8
AM_0
 10
307.19738380279398
 20
444.1482427608986
 30
0.0
 40
2.0
 50
180.00001000000091
 51
270.0
  0
ARC
  5
669D
  8
AM_0
 10
303.19738380279398
 20
459.35921276089852
 30
0.0
 40
2.0
 50
0.0
 51
90.000003000000945
  0
ARC
  5
669E
  8
AM_0
 10
308.19741380279407
 20
440.1482427608986
 30
0.0
 40
2.0
 50
0.0
 51
90.000003000000945
  0
ARC
  5
669F
  8
AM_0
 10
308.19741380279407
 20
574.57082276089852
 30
0.0
 40
2.0
 50
270.0
 51
0.0
  0
ARC
  5
66A0
  8
AM_0
 10
307.19738380279398
 20
570.57082276089852
 30
0.0
 40
2.0
 50
90.000003000000945
 51
180.00001000000091
  0
ARC
  5
66A1
  8
AM_0
 10
303.19738380279398
 20
555.3598227608984
 30
0.0
 40
2.0
 50
270.0
 51
0.0
  0
ARC
  5
66A2
  8
AM_0
 10
352.19738380279398
 20
577.74849276089833
 30
0.0
 40
3.0
 50
91.500001000001546
 51
180.00001000000091
  0
ARC
  5
66A3
  8
AM_0
 10
352.19738380279398
 20
436.97054276089852
 30
0.0
 40
3.0
 50
179.999989999999
 51
268.50000999999878
  0
ARC
  5
66A4
  8
AM_0
 10
348.14245380279402
 20
582.17086276089833
 30
0.0
 40
3.0
 50
271.49999999999949
 51
312.51811999999887
  0
ARC
  5
66A5
  8
AM_0
 10
348.14245380279402
 20
432.54815276089829
 30
0.0
 40
3.0
 50
47.481952000001627
 51
88.499997000000747
  0
ARC
  5
66A6
  8
AM_0
 10
369.19741380279402
 20
590.07891276089856
 30
0.0
 40
2.0
 50
91.999998000000545
 51
180.00001000000091
  0
ARC
  5
66A7
  8
AM_0
 10
368.19738380279398
 20
574.14086276089847
 30
0.0
 40
3.0
 50
0.0
 51
90.000003000000945
  0
ARC
  5
66A8
  8
AM_0
 10
370.19738380279398
 20
549.31118276089853
 30
0.0
 40
3.0
 50
179.999989999999
 51
270.0
  0
ARC
  5
66A9
  8
AM_0
 10
364.19738380279398
 20
584.06478276089854
 30
0.0
 40
3.0
 50
271.49999999999949
 51
0.0
  0
ARC
  5
66AA
  8
AM_0
 10
364.19738380279398
 20
430.65426276089852
 30
0.0
 40
3.0
 50
0.0
 51
88.499997000000747
  0
ARC
  5
66AB
  8
AM_0
 10
369.19741380279402
 20
424.64013276089838
 30
0.0
 40
2.0
 50
179.999989999999
 51
268.00000999999861
  0
ARC
  5
66AC
  8
AM_0
 10
368.19738380279398
 20
440.57817276089861
 30
0.0
 40
3.0
 50
270.0
 51
0.0
  0
ARC
  5
66AD
  8
AM_0
 10
370.19738380279398
 20
465.40786276089852
 30
0.0
 40
3.0
 50
90.000003000000945
 51
180.00001000000091
  0
ARC
  5
66AE
  8
AM_0
 10
362.19738380279398
 20
570.34249276089849
 30
0.0
 40
5.0
 50
300.56828999999891
 51
0.0
  0
ARC
  5
66AF
  8
AM_0
 10
354.19738380279398
 20
554.00319276089851
 30
0.0
 40
5.0
 50
120.5682899999989
 51
180.00001000000091
  0
ARC
  5
66B0
  8
AM_0
 10
350.19738380279421
 20
554.0576427608986
 30
0.0
 40
1.0
 50
90.000003000000945
 51
180.00001000000091
  0
ARC
  5
66B1
  8
AM_0
 10
362.19738380279398
 20
573.82674276089847
 30
0.0
 40
5.0
 50
300.56828999999891
 51
0.0
  0
ARC
  5
66B2
  8
AM_0
 10
354.19738380279398
 20
557.48745276089858
 30
0.0
 40
5.0
 50
120.5682899999989
 51
180.00001000000091
  0
ARC
  5
66B3
  8
AM_0
 10
362.19738380279398
 20
444.37655276089851
 30
0.0
 40
5.0
 50
0.0
 51
59.431709000000481
  0
ARC
  5
66B4
  8
AM_0
 10
350.19738380279421
 20
460.66140276089851
 30
0.0
 40
1.0
 50
179.999989999999
 51
270.0
  0
ARC
  5
66B5
  8
AM_0
 10
362.19738380279398
 20
440.89229276089861
 30
0.0
 40
5.0
 50
0.0
 51
59.431709000000481
  0
ARC
  5
66B6
  8
AM_0
 10
354.19738380279398
 20
460.71584276089851
 30
0.0
 40
5.0
 50
179.999989999999
 51
239.431710000001
  0
ARC
  5
66B7
  8
AM_0
 10
354.19738380279398
 20
457.23159276089831
 30
0.0
 40
5.0
 50
179.999989999999
 51
239.431710000001
  0
ARC
  5
66B8
  8
AM_0
 10
365.19738380279421
 20
557.0576427608986
 30
0.0
 40
2.0
 50
270.0
 51
0.0
  0
ARC
  5
66B9
  8
AM_0
 10
365.19738380279421
 20
457.66140276089851
 30
0.0
 40
2.0
 50
0.0
 51
90.000003000000945
  0
TEXT
  5
6935
  8
AM_0
 10
490.65966213020749
 20
526.84630914740774
 30
0.0
 40
10.0
  1
VX01-060BFW~VX01-200BFW
  0
ENDSEC
  0
EOF
