  0
SECTION
  2
HEADER
  9
$ACADVER
  1
AC1009
  9
$INSBASE
 10
0.0
 20
0.0
 30
0.0
  9
$EXTMIN
 10
118.2262136726945
 20
150.25391090699819
 30
-500.85211713798338
  9
$EXTMAX
 10
729.15280335612215
 20
577.32287150238903
 30
8206837.6815586779
  9
$LIMMIN
 10
0.0
 20
0.0
  9
$LIMMAX
 10
853.5
 20
555.00000000000011
  9
$ORTHOMODE
 70
     0
  9
$REGENMODE
 70
     1
  9
$FILLMODE
 70
     1
  9
$QTEXTMODE
 70
     0
  9
$MIRRTEXT
 70
     1
  9
$DRAGMODE
 70
     2
  9
$LTSCALE
 40
3.0
  9
$OSMODE
 70
   551
  9
$ATTMODE
 70
     1
  9
$TEXTSIZE
 40
2.5
  9
$TRACEWID
 40
1.0
  9
$TEXTSTYLE
  7
STANDARD
  9
$CLAYER
  8
AM_0
  9
$CELTYPE
  6
BYLAYER
  9
$CECOLOR
 62
   256
  9
$DIMSCALE
 40
3.0
  9
$DIMASZ
 40
2.5
  9
$DIMEXO
 40
1.0
  9
$DIMDLI
 40
8.0
  9
$DIMRND
 40
0.0
  9
$DIMDLE
 40
0.0
  9
$DIMEXE
 40
0.6
  9
$DIMTP
 40
0.1
  9
$DIMTM
 40
0.1
  9
$DIMTXT
 40
2.5
  9
$DIMCEN
 40
0.0
  9
$DIMTSZ
 40
0.0
  9
$DIMTOL
 70
     0
  9
$DIMLIM
 70
     0
  9
$DIMTIH
 70
     0
  9
$DIMTOH
 70
     0
  9
$DIMSE1
 70
     0
  9
$DIMSE2
 70
     0
  9
$DIMTAD
 70
     1
  9
$DIMZIN
 70
     8
  9
$DIMBLK
  1

  9
$DIMASO
 70
     1
  9
$DIMSHO
 70
     1
  9
$DIMPOST
  1

  9
$DIMAPOST
  1
"
  9
$DIMALT
 70
     0
  9
$DIMALTD
 70
     2
  9
$DIMALTF
 40
0.0393701
  9
$DIMLFAC
 40
1.0
  9
$DIMTOFL
 70
     1
  9
$DIMTVP
 40
0.0
  9
$DIMTIX
 70
     0
  9
$DIMSOXD
 70
     0
  9
$DIMSAH
 70
     0
  9
$DIMBLK1
  1

  9
$DIMBLK2
  1

  9
$DIMSTYLE
  2
AM_ISO
  9
$DIMCLRD
 70
   256
  9
$DIMCLRE
 70
   256
  9
$DIMCLRT
 70
     4
  9
$DIMTFAC
 40
0.71
  9
$DIMGAP
 40
0.8
  9
$LUNITS
 70
     2
  9
$LUPREC
 70
     2
  9
$SKETCHINC
 40
1.0
  9
$FILLETRAD
 40
15.0
  9
$AUNITS
 70
     0
  9
$AUPREC
 70
     0
  9
$MENU
  1
.
  9
$ELEVATION
 40
0.0
  9
$PELEVATION
 40
0.0
  9
$THICKNESS
 40
0.0
  9
$LIMCHECK
 70
     0
  9
$BLIPMODE
 70
     0
  9
$CHAMFERA
 40
6.0
  9
$CHAMFERB
 40
3.0
  9
$SKPOLY
 70
     0
  9
$TDCREATE
 40
2452065.6056192131
  9
$TDUPDATE
 40
2458541.6136300121
  9
$TDINDWG
 40
0.3224407292
  9
$TDUSRTIMER
 40
0.3224403588
  9
$USRTIMER
 70
     1
  9
$ANGBASE
 50
0.0
  9
$ANGDIR
 70
     0
  9
$PDMODE
 70
     0
  9
$PDSIZE
 40
0.0
  9
$PLINEWID
 40
0.0
  9
$COORDS
 70
     1
  9
$SPLFRAME
 70
     0
  9
$SPLINETYPE
 70
     6
  9
$SPLINESEGS
 70
     8
  9
$ATTDIA
 70
     1
  9
$ATTREQ
 70
     1
  9
$HANDLING
 70
     1
  9
$HANDSEED
  5
5EB8
  9
$SURFTAB1
 70
     6
  9
$SURFTAB2
 70
     6
  9
$SURFTYPE
 70
     6
  9
$SURFU
 70
     6
  9
$SURFV
 70
     6
  9
$UCSNAME
  2

  9
$UCSORG
 10
0.0
 20
0.0
 30
0.0
  9
$UCSXDIR
 10
1.0
 20
0.0
 30
0.0
  9
$UCSYDIR
 10
0.0
 20
1.0
 30
0.0
  9
$PUCSNAME
  2

  9
$PUCSORG
 10
0.0
 20
0.0
 30
0.0
  9
$PUCSXDIR
 10
1.0
 20
0.0
 30
0.0
  9
$PUCSYDIR
 10
0.0
 20
1.0
 30
0.0
  9
$USERI1
 70
     0
  9
$USERI2
 70
     0
  9
$USERI3
 70
     0
  9
$USERI4
 70
     0
  9
$USERI5
 70
     0
  9
$USERR1
 40
0.0
  9
$USERR2
 40
0.0
  9
$USERR3
 40
0.0
  9
$USERR4
 40
0.0
  9
$USERR5
 40
0.0
  9
$WORLDVIEW
 70
     1
  9
$SHADEDGE
 70
     3
  9
$SHADEDIF
 70
    70
  9
$TILEMODE
 70
     1
  9
$MAXACTVP
 70
    64
  9
$PLIMCHECK
 70
     0
  9
$PEXTMIN
 10
1.0000000000000000E+020
 20
1.0000000000000000E+020
 30
1.0000000000000000E+020
  9
$PEXTMAX
 10
-1.0000000000000000E+020
 20
-1.0000000000000000E+020
 30
-1.0000000000000000E+020
  9
$PLIMMIN
 10
0.0
 20
0.0
  9
$PLIMMAX
 10
420.0
 20
297.0
  9
$UNITMODE
 70
     0
  9
$VISRETAIN
 70
     1
  9
$PLINEGEN
 70
     0
  9
$PSLTSCALE
 70
     1
  0
ENDSEC
  0
SECTION
  2
TABLES
  0
TABLE
  2
VPORT
 70
     1
  0
VPORT
  2
*ACTIVE
 70
     0
 10
0.0
 20
0.0
 11
1.0
 21
1.0
 12
423.68950851440832
 22
363.78839120469371
 13
0.0
 23
0.0
 14
7.5
 24
7.5
 15
30.0
 25
30.0
 16
0.0
 26
0.0
 36
1.0
 17
0.0
 27
0.0
 37
0.0
 40
430.00078412350553
 41
1.7571592210767459
 42
50.0
 43
0.0
 44
0.0
 50
0.0
 51
0.0
 71
     0
 72
   100
 73
     1
 74
     3
 75
     0
 76
     0
 77
     0
 78
     0
  0
ENDTAB
  0
TABLE
  2
LTYPE
 70
    26
  0
LTYPE
  2
CONTINUOUS
 70
     0
  3
Solid line
 72
    65
 73
     0
 40
0.0
  0
LTYPE
  2
AM_ISO02W050
 70
     0
  3
__ __ __ __ __ __ __ __ __ __ __ __ __ __ __
 72
    65
 73
     2
 40
7.5
 49
6.0
 49
-1.5
  0
LTYPE
  2
AM_ISO08W050
 70
     0
  3
____ . ____ . ____ . ____ . ____ . ____ . ____
 72
    65
 73
     4
 40
18.0
 49
12.0
 49
-1.5
 49
3.0
 49
-1.5
  0
LTYPE
  2
AM_ISO09W050
 70
     0
  3
_____ . . _____ . . _____ . . ____ .. ____
 72
    65
 73
     6
 40
22.5
 49
12.0
 49
-1.5
 49
3.0
 49
-1.5
 49
3.0
 49
-1.5
  0
LTYPE
  2
AMCONSTR
 70
     0
  3
_______________________
 72
    65
 73
     2
 40
9999.0
 49
9999.0
 49
0.0
  0
LTYPE
  2
AM_ISO08W050X2
 70
     0
  3
__ . __ . __ . __ . __ . __
 72
    65
 73
     4
 40
9.0
 49
6.0
 49
-0.75
 49
1.5
 49
-0.75
  0
LTYPE
  2
AM_ISO02W050X2
 70
     0
  3
 _ _ _ _ _ _ _ _ _ _ _ _
 72
    65
 73
     2
 40
3.75
 49
3.0
 49
-0.75
  0
LTYPE
  2
AMZIGZAG
 70
     0
  3
/\/-/\/-/\/-/\/-/\/-/\/
 72
    65
 73
     2
 40
11.0001
 49
0.0001
 49
-11.0
  0
LTYPE
  2
ACISOWELD
 70
     0
  3
_ _ _ _ _
 72
    65
 73
     2
 40
2.0
 49
2.0
 49
-1.0
  0
LTYPE
  2
ACISOTGB
 70
     0
  3
__ . . __ . .
 72
    65
 73
     6
 40
9.0
 49
4.0
 49
-1.0
 49
1.0
 49
-1.0
 49
1.0
 49
-1.0
  0
LTYPE
  2
ACISOTGL
 70
     0
  3
_ _ _ _ _
 72
    65
 73
     2
 40
3.0
 49
2.0
 49
-1.0
  0
LTYPE
  2
CENTER
 70
     0
  3
__ . __
 72
    65
 73
     4
 40
7.0
 49
4.0
 49
-1.0
 49
1.0
 49
-1.0
  0
LTYPE
  2
HIDDEN
 70
     0
  3
Hidden __ __ __ __ __ __ __ __ __ __ __ __ __ _
 72
    65
 73
     2
 40
9.5249999999999986
 49
6.349999999999997
 49
-3.174999999999998
  0
LTYPE
  2
PHANTOM2
 70
     0
  3
Phantom (.5x) ___ _ _ ___ _ _ ___ _ _ ___ _ _
 72
    65
 73
     6
 40
31.75
 49
15.875
 49
-3.174999999999998
 49
3.174999999999998
 49
-3.174999999999998
 49
3.174999999999998
 49
-3.174999999999998
  0
LTYPE
  2
ACANSTGBM
 70
     0
  3
__ . . __ . .
 72
    65
 73
     6
 40
9.0
 49
4.0
 49
-1.0
 49
1.0
 49
-1.0
 49
1.0
 49
-1.0
  0
LTYPE
  2
ACANSTGLM
 70
     0
  3
_ _ _ _ _
 72
    65
 73
     2
 40
3.0
 49
2.0
 49
-1.0
  0
LTYPE
  2
GEN7A
 70
     0
  3
__ . __ . __
 72
    65
 73
     4
 40
7.375
 49
4.75
 49
-0.875
 49
0.875
 49
-0.875
  0
LTYPE
  2
ACJISTGB
 70
     0
  3
__ . . __ . .
 72
    65
 73
     6
 40
9.0
 49
4.0
 49
-1.0
 49
1.0
 49
-1.0
 49
1.0
 49
-1.0
  0
LTYPE
  2
ACJISTGL
 70
     0
  3
_ _ _ _ _
 72
    65
 73
     2
 40
3.0
 49
2.0
 49
-1.0
  0
LTYPE
  2
GEN7
 70
     0
  3
____ . ____ . ____ . ____ . ____ . ____ . ____
 72
    65
 73
     4
 40
14.25
 49
9.75
 49
-1.5
 49
1.5
 49
-1.5
  0
LTYPE
  2
CENTER2
 70
     0
  3
Center (.5x) ___ _ ___ _ ___ _ ___ _ ___ _ ___
 72
    65
 73
     4
 40
1.125
 49
0.75
 49
-0.125
 49
0.125
 49
-0.125
  0
LTYPE
  2
HIDDEN2
 70
     0
  3
Hidden (.5x) _ _ _ _ _ _ _ _ _ _ _ _ _ _ _ _ _
 72
    65
 73
     2
 40
0.1875
 49
0.125
 49
-0.0625
  0
LTYPE
  2
AMZIGZAG2
 70
     0
  3
/\/-/\/-/\/-/\/-/\/-/\/
 72
    65
 73
     2
 40
0.4401
 49
0.0001
 49
-0.4400000000000001
  0
LTYPE
  2
ACANSTGB
 70
     0
  3
__ . . __ . .
 72
    65
 73
     6
 40
0.35433070866
 49
0.15748031496
 49
-0.03937007874
 49
0.03937007874
 49
-0.03937007874
 49
0.03937007874
 49
-0.03937007874
  0
LTYPE
  2
ACANSTGL
 70
     0
  3
_ _ _ _ _
 72
    65
 73
     2
 40
0.11811023622
 49
0.07874015748
 49
-0.03937007874
  0
ENDTAB
  0
TABLE
  2
LAYER
 70
     7
  0
LAYER
  2
0
 70
     0
 62
     7
  6
CONTINUOUS
  0
LAYER
  2
AM_0
 70
     0
 62
     7
  6
CONTINUOUS
  0
LAYER
  2
AM_5
 70
     0
 62
     2
  6
CONTINUOUS
  0
LAYER
  2
DEFPOINTS
 70
     0
 62
     7
  6
CONTINUOUS
  0
LAYER
  2
ﾁｭｳｼﾝｾﾝ1
 70
     0
 62
     1
  6
GEN7A
  0
LAYER
  2
AM_0N
 70
     0
 62
     7
  6
CONTINUOUS
  0
LAYER
  2
ﾁｭｳｼﾝｾﾝ
 70
     0
 62
     1
  6
GEN7
  0
ENDTAB
  0
TABLE
  2
STYLE
 70
    10
  0
STYLE
  2
STANDARD
 70
     0
 40
0.0
 41
0.8299999999999999
 50
0.0
 71
     0
 42
2.5
  3
txt.shx
  4
bigfont.shx
  0
STYLE
  2
ANNOTATIVE
 70
     0
 40
0.0
 41
1.0
 50
0.0
 71
     0
 42
0.2
  3
txt
  4

  0
STYLE
  2

 70
     1
 40
0.0
 41
1.0
 50
0.0
 71
     0
 42
2.5
  3
ltypeshp.shx
  4

  0
STYLE
  2
ACISOTS
 70
     0
 40
1.0
 41
1.0
 50
0.0
 71
     0
 42
2.5
  3
isocp.shx
  4
extfont.shx
  0
STYLE
  2
ACISOGDT
 70
     0
 40
0.0
 41
1.0
 50
0.0
 71
     0
 42
2.5
  3
amgdt.shx
  4

  0
STYLE
  2
ACANSTS
 70
     0
 40
1.0
 41
1.0
 50
0.0
 71
     0
 42
2.5
  3
romans.shx
  4
bigfont.shx
  0
STYLE
  2
ACANSGDT
 70
     0
 40
0.0
 41
1.0
 50
0.0
 71
     0
 42
2.5
  3
amgdt.shx
  4

  0
STYLE
  2
ACJISTS
 70
     0
 40
1.0
 41
1.0
 50
0.0
 71
     0
 42
2.5
  3
isocp.shx
  4
bigfont.shx
  0
STYLE
  2
ACJISGDT
 70
     0
 40
0.0
 41
1.0
 50
0.0
 71
     0
 42
2.5
  3
amgdt.shx
  4

  0
STYLE
  2

 70
     1
 40
0.0
 41
1.0
 50
0.0
 71
     0
 42
2.5
  3
genltshp.shx
  4

  0
ENDTAB
  0
TABLE
  2
VIEW
 70
     6
  0
VIEW
  2
AM_VIEW1
 70
     0
 40
277.50000000000011
 10
249.64779005524869
 20
416.24999999999989
 41
499.2955801104971
 11
0.0
 21
0.0
 31
1.0
 12
0.0
 22
0.0
 32
0.0
 42
50.0
 43
0.0
 44
0.0
 50
0.0
 71
     0
  0
VIEW
  2
AM_VIEW2
 70
     0
 40
277.50000000000011
 10
603.85220994475117
 20
416.24999999999989
 41
499.2955801104971
 11
0.0
 21
0.0
 31
1.0
 12
0.0
 22
0.0
 32
0.0
 42
50.0
 43
0.0
 44
0.0
 50
0.0
 71
     0
  0
VIEW
  2
AM_VIEW3
 70
     0
 40
277.50000000000011
 10
249.64779005524869
 20
138.75
 41
499.2955801104971
 11
0.0
 21
0.0
 31
1.0
 12
0.0
 22
0.0
 32
0.0
 42
50.0
 43
0.0
 44
0.0
 50
0.0
 71
     0
  0
VIEW
  2
AM_VIEW4
 70
     0
 40
277.50000000000011
 10
603.85220994475117
 20
138.75
 41
499.2955801104971
 11
0.0
 21
0.0
 31
1.0
 12
0.0
 22
0.0
 32
0.0
 42
50.0
 43
0.0
 44
0.0
 50
0.0
 71
     0
  0
VIEW
  2
AM_VIEW5
 70
     0
 40
277.50000000000011
 10
426.75
 20
277.50000000000011
 41
499.2955801104971
 11
0.0
 21
0.0
 31
1.0
 12
0.0
 22
0.0
 32
0.0
 42
50.0
 43
0.0
 44
0.0
 50
0.0
 71
     0
  0
VIEW
  2
AM_VIEW6
 70
     0
 40
554.99445000000014
 10
426.75
 20
277.5
 41
998.5811743093924
 11
0.0
 21
0.0
 31
1.0
 12
0.0
 22
0.0
 32
0.0
 42
50.0
 43
0.0
 44
0.0
 50
0.0
 71
     0
  0
ENDTAB
  0
TABLE
  2
UCS
 70
     0
  0
ENDTAB
  0
TABLE
  2
APPID
 70
   101
  0
APPID
  2
ACAD
 70
     0
  0
APPID
  2
ACADANNOTATIVE
 70
     0
  0
APPID
  2
MCAD_NO_VIS
 70
     0
  0
APPID
  2
ACAD_TEMP_GRAPHIC
 70
     0
  0
APPID
  2
ACATTRIBSERVICES
 70
     0
  0
APPID
  2
GENIUS_GENREC_14
 70
     0
  0
APPID
  2
GENIUS_GENOBJ-N-REC_13
 70
     0
  0
APPID
  2
GENIUS_GENODEF_13
 70
     0
  0
APPID
  2
GENIUS_GENOLIS_13
 70
     0
  0
APPID
  2
GENIUS_GENOBJ-N-TIT_13
 70
     0
  0
APPID
  2
GENIUS_GENOENT_13
 70
     0
  0
APPID
  2
GENIUS_GENTITLE_13
 70
     0
  0
APPID
  2
GENIUS_GENOREF_13
 70
     0
  0
APPID
  2
GENIUS_GENSCREG_15
 70
     0
  0
APPID
  2
GENIUS_GENOBJ-N-SDF_13
 70
     0
  0
APPID
  2
GENIUS_GENFIL_13
 70
     0
  0
APPID
  2
GENIUS_GENOBJ-N-CHA_13
 70
     0
  0
APPID
  2
GENIUS_GENDTOL_13
 70
     0
  0
APPID
  2
GENIUS_GENOBJ-N-FIL_13
 70
     0
  0
APPID
  2
AD_DRAW
 70
     0
  0
APPID
  2
DESIGNERASSEMBLIES
 70
     0
  0
APPID
  2
ASURF_PCURVE_APPNAME
 70
     0
  0
APPID
  2
GENIUS_GE3SECT_13
 70
     0
  0
APPID
  2
GENIUS_GENCFG_13
 70
     0
  0
APPID
  2
GENIUS_GE3CFG0_13
 70
     0
  0
APPID
  2
GENIUS_GENCFG0_13
 70
     0
  0
APPID
  2
GENIUS_GENCFG1_13
 70
     0
  0
APPID
  2
GENIUS_GENCFG2_13
 70
     0
  0
APPID
  2
GENIUS_GENCFG3_13
 70
     0
  0
APPID
  2
GENIUS_GENCFG4_13
 70
     0
  0
APPID
  2
GENIUS_GEVCFG0_13
 70
     0
  0
APPID
  2
GENIUS_GENHINW_13
 70
     0
  0
APPID
  2
GENIUS_FIRSTVISTXT_14
 70
     0
  0
APPID
  2
GENIUS_GENOBJ-N-LEADER_13
 70
     0
  0
APPID
  2
GEV_VCCNULL_SWITCH_OFF
 70
     0
  0
APPID
  2
GENIUS_GEFCFG0_13
 70
     0
  0
APPID
  2
GENIUS_GENZVEED_13
 70
     0
  0
APPID
  2
GENIUS_GENSCREG_13
 70
     0
  0
APPID
  2
GENIUS_DUMCFG0_13
 70
     0
  0
APPID
  2
GEVID936201362
 70
     0
  0
APPID
  2
GEVDC
 70
     0
  0
APPID
  2
GEVCON
 70
     0
  0
APPID
  2
VCC
 70
     0
  0
APPID
  2
GEVPT
 70
     0
  0
APPID
  2
GEVIT
 70
     0
  0
APPID
  2
GENBH
 70
     0
  0
APPID
  2
GEVMK
 70
     0
  0
APPID
  2
GENIUS_GENBH_13
 70
     0
  0
APPID
  2
GENIUS_GENOBJ-NBEHI-BHF_13
 70
     0
  0
APPID
  2
GENIUS_GENOBJ-NBEHI-BHB_13
 70
     0
  0
APPID
  2
GENIUS_GENOBJ-F-DESC_13
 70
     0
  0
APPID
  2
GENIUS_GEFDESC_14
 70
     0
  0
APPID
  2
GENIUS_GENOBJ-F-PART_13
 70
     0
  0
APPID
  2
GENIUS_GEFSTDP_13
 70
     0
  0
APPID
  2
GENIUS_GEFPARTINS_13
 70
     0
  0
APPID
  2
GENIUS_GENTRA_14
 70
     0
  0
APPID
  2
GENIUS_GENINF13_13
 70
     0
  0
APPID
  2
GENIUS_GENOBJ-N-INFOPT_13
 70
     0
  0
APPID
  2
GENIUS_GENOBJ-N-RSSYM_13
 70
     0
  0
APPID
  2
GENIUS_GENSYMENT_13
 70
     0
  0
APPID
  2
GENIUS_GENSCSYM_13
 70
     0
  0
APPID
  2
GENIUS_GEFINFNAM_13
 70
     0
  0
APPID
  2
GENIUS_GENOBJ-N-CEN_13
 70
     0
  0
APPID
  2
GENIUS_GENOBJ-N-CRS_13
 70
     0
  0
APPID
  2
GENIUS_GENOBJ-N-CRC_13
 70
     0
  0
APPID
  2
GENIUS_GENCRC_14
 70
     0
  0
APPID
  2
GEVID942827039
 70
     0
  0
APPID
  2
GEVID942827040
 70
     0
  0
APPID
  2
GEVID942827041
 70
     0
  0
APPID
  2
GENIUS_GENOBJ-F-SCPASSM_13
 70
     0
  0
APPID
  2
GENIUS_GENDIMSH_14
 70
     0
  0
APPID
  2
GEVID942827042
 70
     0
  0
APPID
  2
GEVID946020473
 70
     0
  0
APPID
  2
GEVID946020474
 70
     0
  0
APPID
  2
GEVID946020475
 70
     0
  0
APPID
  2
GENIUS_GENOBJ-N-HTC_13
 70
     0
  0
APPID
  2
GENIUS_GENHATCH_13
 70
     0
  0
APPID
  2
GEVID948854295
 70
     0
  0
APPID
  2
GEVID939402019
 70
     0
  0
APPID
  2
GEVID952919491
 70
     0
  0
APPID
  2
GEVID952919492
 70
     0
  0
APPID
  2
GENIUS_GEFWELD_13
 70
     0
  0
APPID
  2
GENIUS_GENOBJ-F-WELS_13
 70
     0
  0
APPID
  2
GEVID952919493
 70
     0
  0
APPID
  2
GENIUS_GENOBJ-N-RSBK_13
 70
     0
  0
APPID
  2
GENIUS_GENOBJ-N-LIB_13
 70
     0
  0
APPID
  2
GENIUS_GENSCALE_13
 70
     0
  0
APPID
  2
GEVID986376691
 70
     0
  0
APPID
  2
DCO15
 70
     0
  0
APPID
  2
GEVID988070561
 70
     0
  0
APPID
  2
GEVID988070562
 70
     0
  0
APPID
  2
GEVID988070563
 70
     0
  0
APPID
  2
ACADM_DIM_EDIT
 70
     0
  0
APPID
  2
AMDT_DM_ADJ
 70
     0
  0
APPID
  2
ACAD_PSEXT
 70
     0
  0
APPID
  2
ACAD_DSTYLE_DIMJAG
 70
     0
  0
APPID
  2
ACAD_DSTYLE_DIMBREAK
 70
     0
  0
APPID
  2
ACAD_NAV_VCDISPLAY
 70
     0
  0
APPID
  2
ACADANNOPO
 70
     0
  0
APPID
  2
ACAD_EXEMPT_FROM_CAD_STANDARDS
 70
     0
  0
APPID
  2
ACAD_MLEADERVER
 70
     0
  0
ENDTAB
  0
TABLE
  2
DIMSTYLE
 70
    23
  0
DIMSTYLE
  2
STANDARD
 70
     0
  3

  4

  5

  6

  7

 40
1.0
 41
0.18
 42
0.0625
 43
0.38
 44
0.18
 45
0.0
 46
0.0
 47
0.0
 48
0.0
140
0.18
141
0.09
142
0.0
143
25.399999999999999
144
1.0
145
0.0
146
1.0
147
0.09
 71
     0
 72
     0
 73
     1
 74
     1
 75
     0
 76
     0
 77
     0
 78
     0
170
     0
171
     2
172
     0
173
     0
174
     0
175
     0
176
     0
177
     0
178
     0
  0
DIMSTYLE
  2
ANNOTATIVE
 70
     0
  3

  4

  5

  6

  7

 40
1.0
 41
0.18
 42
0.0625
 43
0.38
 44
0.18
 45
0.0
 46
0.0
 47
0.0
 48
0.0
140
0.18
141
0.09
142
0.0
143
25.399999999999999
144
1.0
145
0.0
146
1.0
147
0.09
 71
     0
 72
     0
 73
     1
 74
     1
 75
     0
 76
     0
 77
     0
 78
     0
170
     0
171
     2
172
     0
173
     0
174
     0
175
     0
176
     0
177
     0
178
     0
  0
DIMSTYLE
  2
AM_ISO
 70
     0
  3

  4
"
  5

  6

  7

 40
1.0
 41
2.5
 42
1.0
 43
8.0
 44
0.6
 45
0.0
 46
0.0
 47
0.1
 48
0.1
140
2.5
141
0.0
142
0.0
143
0.0393701
144
1.0
145
0.0
146
0.71
147
0.8
 71
     0
 72
     0
 73
     0
 74
     0
 75
     0
 76
     0
 77
     1
 78
     8
170
     0
171
     2
172
     1
173
     0
174
     0
175
     0
176
   256
177
   256
178
     4
  0
DIMSTYLE
  2
AM_ISO$3
 70
     0
  3

  4
"
  5

  6

  7

 40
1.0
 41
2.5
 42
1.0
 43
8.0
 44
0.6
 45
0.0
 46
0.0
 47
0.1
 48
0.1
140
2.5
141
0.0
142
0.0
143
0.0393701
144
1.0
145
0.0
146
0.71
147
0.8
 71
     0
 72
     0
 73
     0
 74
     1
 75
     0
 76
     0
 77
     1
 78
     8
170
     0
171
     2
172
     0
173
     0
174
     0
175
     0
176
   256
177
   256
178
     4
  0
DIMSTYLE
  2
AM_ISO$4
 70
     0
  3

  4
"
  5

  6

  7

 40
1.0
 41
2.5
 42
1.0
 43
8.0
 44
0.6
 45
0.0
 46
0.0
 47
0.1
 48
0.1
140
2.5
141
0.0
142
0.0
143
0.0393701
144
1.0
145
0.0
146
0.71
147
0.8
 71
     0
 72
     0
 73
     0
 74
     1
 75
     0
 76
     0
 77
     1
 78
     8
170
     0
171
     2
172
     0
173
     0
174
     0
175
     0
176
   256
177
   256
178
     4
  0
DIMSTYLE
  2
AM_ISO$6
 70
     0
  3

  4
"
  5

  6

  7

 40
1.0
 41
2.5
 42
1.0
 43
8.0
 44
0.6
 45
0.0
 46
0.0
 47
0.1
 48
0.1
140
2.5
141
0.0
142
0.0
143
0.0393701
144
1.0
145
0.0
146
0.71
147
0.8
 71
     0
 72
     0
 73
     0
 74
     0
 75
     0
 76
     0
 77
     0
 78
     8
170
     0
171
     2
172
     1
173
     0
174
     0
175
     0
176
   256
177
   256
178
     4
  0
DIMSTYLE
  2
AM_ISO$7
 70
     0
  3

  4
"
  5

  6

  7

 40
1.0
 41
2.5
 42
1.0
 43
8.0
 44
0.6
 45
0.0
 46
0.0
 47
0.1
 48
0.1
140
2.5
141
0.0
142
0.0
143
0.0393701
144
1.0
145
0.0
146
0.71
147
0.8
 71
     0
 72
     0
 73
     0
 74
     0
 75
     0
 76
     0
 77
     1
 78
     8
170
     0
171
     2
172
     1
173
     0
174
     0
175
     0
176
   256
177
   256
178
     4
  0
DIMSTYLE
  2
AM_ISO$SF
 70
     0
  3

  4
"
  5

  6

  7

 40
1.0
 41
2.5
 42
1.0
 43
10.0
 44
1.0
 45
0.0
 46
0.0
 47
0.1
 48
0.1
140
3.5
141
0.0
142
0.0
143
0.0393701
144
1.0
145
0.0
146
0.71
147
1.5
 71
     0
 72
     0
 73
     0
 74
     0
 75
     1
 76
     1
 77
     1
 78
     8
170
     0
171
     2
172
     1
173
     0
174
     0
175
     0
176
   256
177
   256
178
     2
  0
DIMSTYLE
  2
AM_ISO$SH
 70
     0
  3

  4
"
  5

  6

  7

 40
1.0
 41
2.5
 42
1.0
 43
10.0
 44
1.0
 45
0.0
 46
0.0
 47
0.1
 48
0.1
140
3.5
141
0.0
142
0.0
143
0.0393701
144
2.0
145
0.0
146
0.71
147
1.5
 71
     0
 72
     0
 73
     0
 74
     0
 75
     1
 76
     1
 77
     1
 78
     8
170
     0
171
     2
172
     1
173
     1
174
     0
175
     0
176
   256
177
   256
178
     2
  0
DIMSTYLE
  2
AM_JIS
 70
     0
  3

  4
"
  5

  6

  7

 40
1.0
 41
2.5
 42
1.0
 43
7.0
 44
1.0
 45
0.0
 46
0.0
 47
0.1
 48
0.1000000001
140
2.5
141
0.0
142
0.0
143
0.0393701
144
1.0
145
0.0
146
0.71
147
1.0
 71
     0
 72
     0
 73
     0
 74
     0
 75
     0
 76
     0
 77
     3
 78
     8
170
     0
171
     2
172
     1
173
     0
174
     0
175
     0
176
   256
177
   256
178
     4
  0
DIMSTYLE
  2
AM_JIS$3
 70
     0
  3

  4
"
  5

  6

  7

 40
1.0
 41
2.5
 42
1.0
 43
7.0
 44
1.0
 45
0.0
 46
0.0
 47
0.1
 48
0.1000000001
140
2.5
141
0.0
142
0.0
143
0.0393701
144
1.0
145
0.0
146
0.71
147
1.0
 71
     0
 72
     0
 73
     0
 74
     1
 75
     0
 76
     0
 77
     3
 78
     8
170
     0
171
     2
172
     0
173
     0
174
     0
175
     0
176
   256
177
   256
178
     4
  0
DIMSTYLE
  2
AM_JIS$4
 70
     0
  3

  4
"
  5

  6

  7

 40
1.0
 41
2.5
 42
1.0
 43
7.0
 44
1.0
 45
0.0
 46
0.0
 47
0.1
 48
0.1000000001
140
2.5
141
0.0
142
0.0
143
0.0393701
144
1.0
145
0.0
146
0.71
147
1.0
 71
     0
 72
     0
 73
     0
 74
     0
 75
     0
 76
     0
 77
     3
 78
     8
170
     0
171
     2
172
     0
173
     0
174
     0
175
     0
176
   256
177
   256
178
     4
  0
DIMSTYLE
  2
AM_JIS$6
 70
     0
  3

  4
"
  5

  6

  7

 40
1.0
 41
2.5
 42
1.0
 43
7.0
 44
1.0
 45
0.0
 46
0.0
 47
0.1
 48
0.1000000001
140
2.5
141
0.0
142
0.0
143
0.0393701
144
1.0
145
0.0
146
0.71
147
1.0
 71
     0
 72
     0
 73
     0
 74
     0
 75
     0
 76
     0
 77
     0
 78
     8
170
     0
171
     2
172
     1
173
     0
174
     0
175
     0
176
   256
177
   256
178
     4
  0
DIMSTYLE
  2
AM_JIS$7
 70
     0
  3

  4
"
  5

  6

  7

 40
1.0
 41
2.5
 42
1.0
 43
7.0
 44
1.0
 45
0.0
 46
0.0
 47
0.1
 48
0.1000000001
140
2.5
141
0.0
142
0.0
143
0.0393701
144
1.0
145
0.0
146
0.71
147
1.0
 71
     0
 72
     0
 73
     0
 74
     0
 75
     0
 76
     0
 77
     3
 78
     8
170
     0
171
     2
172
     1
173
     0
174
     0
175
     0
176
   256
177
   256
178
     4
  0
DIMSTYLE
  2
AM_JIS$SF
 70
     0
  3

  4
"
  5

  6

  7

 40
1.0
 41
2.5
 42
1.0
 43
10.0
 44
1.0
 45
0.0
 46
0.0
 47
0.1
 48
0.1
140
3.5
141
0.0
142
0.0
143
0.0393701
144
1.0
145
0.0
146
0.71
147
1.5
 71
     0
 72
     0
 73
     0
 74
     0
 75
     1
 76
     1
 77
     3
 78
     8
170
     0
171
     2
172
     1
173
     0
174
     0
175
     0
176
   256
177
   256
178
     4
  0
DIMSTYLE
  2
AM_JIS$SH
 70
     0
  3

  4
"
  5

  6

  7

 40
1.0
 41
2.5
 42
1.0
 43
10.0
 44
1.0
 45
0.0
 46
0.0
 47
0.1
 48
0.1
140
3.5
141
0.0
142
0.0
143
0.0393701
144
1.0
145
0.0
146
0.71
147
1.5
 71
     0
 72
     0
 73
     0
 74
     0
 75
     1
 76
     0
 77
     3
 78
     8
170
     0
171
     2
172
     1
173
     1
174
     0
175
     0
176
   256
177
   256
178
     4
  0
DIMSTYLE
  2
AM_ISO$0
 70
     0
  3

  4
"
  5

  6

  7

 40
1.0
 41
2.5
 42
1.0
 43
8.0
 44
0.6
 45
0.0
 46
0.0
 47
0.1
 48
0.1
140
2.5
141
0.0
142
0.0
143
0.0393701
144
1.0
145
0.0
146
0.71
147
0.8
 71
     0
 72
     0
 73
     0
 74
     0
 75
     0
 76
     0
 77
     1
 78
     8
170
     0
171
     2
172
     1
173
     0
174
     0
175
     0
176
   256
177
   256
178
     4
  0
DIMSTYLE
  2
AM_ANSI
 70
     0
  3

  4
mm
  5

  6

  7

 40
1.0
 41
0.12
 42
0.05
 43
0.5
 44
0.1
 45
0.0
 46
0.0
 47
0.1
 48
0.1
140
0.12
141
0.0
142
0.0
143
25.399999999999999
144
1.0
145
0.0
146
0.71
147
0.06
 71
     0
 72
     0
 73
     1
 74
     1
 75
     0
 76
     0
 77
     0
 78
     7
170
     0
171
     2
172
     0
173
     0
174
     0
175
     0
176
   256
177
   256
178
     2
  0
DIMSTYLE
  2
AM_ANSI$3
 70
     0
  3

  4
mm
  5

  6

  7

 40
1.0
 41
0.12
 42
0.05
 43
0.5
 44
0.1
 45
0.0
 46
0.0
 47
0.1
 48
0.1
140
0.12
141
0.0
142
0.0
143
25.399999999999999
144
1.0
145
0.0
146
0.71
147
0.06
 71
     0
 72
     0
 73
     1
 74
     1
 75
     0
 76
     0
 77
     0
 78
     7
170
     0
171
     2
172
     0
173
     0
174
     0
175
     0
176
   256
177
   256
178
     2
  0
DIMSTYLE
  2
AM_ANSI$4
 70
     0
  3

  4
mm
  5

  6

  7

 40
1.0
 41
0.12
 42
0.05
 43
0.5
 44
0.1
 45
0.0
 46
0.0
 47
0.1
 48
0.1
140
0.12
141
0.0
142
0.0
143
25.399999999999999
144
1.0
145
0.0
146
0.71
147
0.06
 71
     0
 72
     0
 73
     1
 74
     1
 75
     0
 76
     0
 77
     0
 78
     7
170
     0
171
     2
172
     0
173
     0
174
     0
175
     0
176
   256
177
   256
178
     2
  0
DIMSTYLE
  2
AM_ANSI$7
 70
     0
  3

  4
mm
  5

  6

  7

 40
1.0
 41
0.12
 42
0.05
 43
0.5
 44
0.1
 45
0.0
 46
0.0
 47
0.1
 48
0.1
140
0.12
141
0.0
142
0.0
143
25.399999999999999
144
1.0
145
0.0
146
0.71
147
0.06
 71
     0
 72
     0
 73
     1
 74
     1
 75
     0
 76
     0
 77
     0
 78
     7
170
     0
171
     2
172
     0
173
     0
174
     0
175
     0
176
   256
177
   256
178
     2
  0
DIMSTYLE
  2
AM_ANSI$SF
 70
     0
  3

  4
mm
  5

  6

  7

 40
1.0
 41
0.12
 42
0.05
 43
0.5
 44
0.1
 45
0.0
 46
0.0
 47
0.1
 48
0.1
140
0.12
141
0.0
142
0.0
143
25.399999999999999
144
1.0
145
0.0
146
0.71
147
0.06
 71
     0
 72
     0
 73
     1
 74
     1
 75
     1
 76
     1
 77
     0
 78
     7
170
     0
171
     2
172
     0
173
     0
174
     0
175
     0
176
   256
177
   256
178
     2
  0
DIMSTYLE
  2
AM_ANSI$SH
 70
     0
  3

  4
mm
  5

  6
GENAXEH
  7

 40
1.0
 41
0.12
 42
0.05
 43
0.5
 44
0.1
 45
0.0
 46
0.0
 47
0.1
 48
0.1
140
0.12
141
0.0
142
0.0
143
25.399999999999999
144
1.0
145
0.0
146
0.71
147
0.06
 71
     0
 72
     0
 73
     1
 74
     1
 75
     1
 76
     1
 77
     0
 78
     7
170
     0
171
     2
172
     0
173
     1
174
     0
175
     0
176
   256
177
   256
178
     2
  0
ENDTAB
  0
ENDSEC
  0
SECTION
  2
BLOCKS
  0
BLOCK
  8
0
  2
$MODEL_SPACE
 70
     0
 10
0.0
 20
0.0
 30
0.0
  3
$MODEL_SPACE
  1

  0
ENDBLK
  5
5D32
  8
0
  0
BLOCK
 67
     1
  8
0
  2
$PAPER_SPACE
 70
     0
 10
0.0
 20
0.0
 30
0.0
  3
$PAPER_SPACE
  1

  0
ENDBLK
  5
5D2E
 67
     1
  8
0
  0
BLOCK
  8
0
  2
GENAXEH
 70
     0
 10
0.0
 20
0.0
 30
0.0
  3
GENAXEH
  1

  0
LINE
  5
73
  8
0
 10
-1.0
 20
0.0
 30
0.0
 11
1.0
 21
0.0
 31
0.0
  0
ENDBLK
  5
75
  8
0
  0
BLOCK
  8
0
  2
_OPEN30
 70
     0
 10
0.0
 20
0.0
 30
0.0
  3
_OPEN30
  1

  0
LINE
  5
31A
  8
0
 62
     0
 10
-1.0
 20
0.26794919
 30
0.0
 11
0.0
 21
0.0
 31
0.0
  0
LINE
  5
31B
  8
0
 62
     0
 10
0.0
 20
0.0
 30
0.0
 11
-1.0
 21
-0.26794919
 31
0.0
  0
LINE
  5
31C
  8
0
 62
     0
 10
0.0
 20
0.0
 30
0.0
 11
-1.0
 21
0.0
 31
0.0
  0
ENDBLK
  5
31E
  8
0
  0
BLOCK
  8
0
  2
_NONE
 70
     0
 10
0.0
 20
0.0
 30
0.0
  3
_NONE
  1

  0
ENDBLK
  5
579
  8
0
  0
BLOCK
  8
0
  2
*U5
 70
     1
 10
0.0
 20
0.0
 30
0.0
  3
*U5
  1

  0
TEXT
  5
5AFF
  8
AM_0
 10
562.80620559532986
 20
486.56246315310381
 30
0.0
 40
10.0
  1
ＶＸ０２－００５～０３０ＢＦＷ
 41
0.8299999999999999
  0
ENDBLK
  5
5B01
  8
0
  0
BLOCK
  8
0
  2
_ACMFILLEDHALF
 70
     0
 10
0.0
 20
0.0
 30
0.0
  3
_ACMFILLEDHALF
  1

  0
TRACE
  5
5E34
  8
AM_0
 62
     0
 10
-0.8
 20
0.0
 30
0.0
 11
-1.0
 21
0.166666666
 31
0.0
 12
0.0
 22
0.0
 32
0.0
 13
0.0
 23
0.0
 33
0.0
  0
LINE
  5
5E35
  8
AM_0
 62
     0
 10
-1.0
 20
0.0
 30
0.0
 11
-0.8
 21
0.0
 31
0.0
  0
ENDBLK
  5
5E33
  8
0
  0
ENDSEC
  0
SECTION
  2
ENTITIES
  0
LINE
  5
40B0
  8
AM_0
 10
295.95205438210343
 20
181.72182366197109
 30
0.0
 11
298.95205438210331
 21
181.72182366197109
 31
0.0
  0
LINE
  5
40B1
  8
AM_0
 10
295.95205438210331
 20
258.1679226619712
 30
0.0
 11
298.95205438210331
 21
258.1679226619712
 31
0.0
  0
LINE
  5
40B2
  8
AM_0
 10
194.15848438210321
 20
163.66165566197111
 30
0.0
 11
291.0782243821032
 21
163.66165566197111
 31
0.0
  0
LINE
  5
40B3
  8
AM_0
 10
192.6299843821032
 20
183.22182366197109
 30
0.0
 11
199.9520543821032
 21
183.22182366197109
 31
0.0
  0
LINE
  5
40B4
  8
AM_0
 10
199.9520543821032
 20
185.94490566197109
 30
0.0
 11
193.31746438210311
 21
185.94490566197109
 31
0.0
  0
LINE
  5
40B5
  8
AM_0
 10
199.9520543821032
 20
183.94490766197109
 30
0.0
 11
193.31746438210311
 21
183.94490766197109
 31
0.0
  0
LINE
  5
40B6
  8
AM_0
 10
199.9520543821032
 20
255.94492266197119
 30
0.0
 11
193.31746438210311
 21
255.94492266197119
 31
0.0
  0
LINE
  5
40B7
  8
AM_0
 10
199.9520543821032
 20
253.9449096619712
 30
0.0
 11
193.31746438210311
 21
253.9449096619712
 31
0.0
  0
LINE
  5
40B8
  8
AM_0
 10
192.6293543821032
 20
256.6679226619712
 30
0.0
 11
199.9520543821032
 21
256.6679226619712
 31
0.0
  0
LINE
  5
40B9
  8
AM_0
 10
194.15848438210321
 20
276.22816266197123
 30
0.0
 11
291.0782243821032
 21
276.22816266197123
 31
0.0
  0
ARC
  5
40BA
  8
AM_0
 10
192.6293543821032
 20
254.9900136619712
 30
0.0
 40
1.6779127499999991
 50
90.000003000000945
 51
270.0
  0
ARC
  5
40BB
  8
AM_0
 10
193.50142438210301
 20
254.9449086619712
 30
0.0
 40
1.0000000199999981
 50
90.000003000000945
 51
270.0
  0
LINE
  5
40BC
  8
AM_0
 10
190.9520543821032
 20
272.94490266197118
 30
0.0
 11
190.9520543821032
 21
206.54490766197111
 31
0.0
  0
LINE
  5
40BD
  8
AM_0
 10
190.9520543821032
 20
193.34490766197121
 30
0.0
 11
190.9520543821032
 21
170.5046736619712
 31
0.0
  0
LINE
  5
40BE
  8
AM_0
 10
196.3175243821033
 20
183.29363166197129
 30
0.0
 11
190.9521143821031
 21
171.84915666197131
 31
0.0
  0
ARC
  5
40BF
  8
AM_0
 10
227.9520443821032
 20
162.8152656619711
 30
0.0
 40
2.00000007
 50
270.0
 51
0.0
  0
ARC
  5
40C0
  8
AM_0
 10
227.9520443821032
 20
160.0569666619711
 30
0.0
 40
2.00000007
 50
270.0
 51
0.0
  0
LINE
  5
40C1
  8
AM_0
 10
229.9520543821032
 20
160.0569666619711
 30
0.0
 11
229.9520543821032
 21
163.66165566197111
 31
0.0
  0
ARC
  5
40C2
  8
AM_0
 10
227.9520443821032
 20
160.96748766197109
 30
0.0
 40
2.00000007
 50
270.0
 51
0.0
  0
LINE
  5
40C3
  8
AM_0
 10
190.9520543821032
 20
171.8491266619711
 30
0.0
 11
192.19327438210311
 21
165.28977066197109
 31
0.0
  0
LINE
  5
40C4
  8
AM_0
 10
190.9520543821032
 20
170.5045986619713
 30
0.0
 11
192.2321543821032
 21
162.4994256619712
 31
0.0
  0
LINE
  5
40C5
  8
AM_0
 10
190.95199438210301
 20
169.16007066197119
 30
0.0
 11
192.2430743821032
 21
160.66695066197121
 31
0.0
  0
ARC
  5
40C6
  8
AM_0
 10
194.15848438210321
 20
165.661641661971
 30
0.0
 40
2.00000007
 50
190.71568999999951
 51
270.0
  0
ARC
  5
40C7
  8
AM_0
 10
194.20705438210331
 20
162.8152656619711
 30
0.0
 40
2.00000007
 50
189.08497000000031
 51
270.0
  0
LINE
  5
40C8
  8
AM_0
 10
183.45206438210309
 20
166.94492166197119
 30
0.0
 11
190.9520543821032
 21
166.94492166197119
 31
0.0
  0
ARC
  5
40C9
  8
AM_0
 10
194.2417343821032
 20
160.0569666619711
 30
0.0
 40
2.00000007
 50
187.94403999999901
 51
270.0
  0
LINE
  5
40CA
  8
AM_0
 10
190.95199438210301
 20
169.16002566197119
 30
0.0
 11
192.2608943821032
 21
159.7805826619711
 31
0.0
  0
ARC
  5
40CB
  8
AM_0
 10
194.22043438210321
 20
160.96748766197109
 30
0.0
 40
2.00000007
 50
188.6433899999989
 51
270.0
  0
LINE
  5
40CC
  8
AM_0
 10
194.20705438210331
 20
160.8152826619712
 30
0.0
 11
227.9520443821032
 21
160.8152826619712
 31
0.0
  0
LINE
  5
40CD
  8
AM_0
 10
194.22043438210321
 20
158.9674896619712
 30
0.0
 11
227.9520443821032
 21
158.9674896619712
 31
0.0
  0
LINE
  5
40CE
  8
AM_0
 10
194.2417343821032
 20
158.05698066197121
 30
0.0
 11
227.9520443821032
 21
158.05698066197121
 31
0.0
  0
POLYLINE
  5
40CF
  8
AM_0
 66
     1
 10
0.0
 20
0.0
 30
0.0
  0
VERTEX
  5
40D0
  8
AM_0
 10
194.8858933561115
 20
246.9449076619714
 30
0.0
  0
VERTEX
  5
40D1
  8
AM_0
 10
195.77476438210331
 20
253.3134786619712
 30
0.0
 42
-1.0
  0
SEQEND
  5
40D2
  8
AM_0
  0
LINE
  5
40D3
  8
AM_0
 10
192.6293543821032
 20
253.31209566197131
 30
0.0
 11
199.9520543821032
 21
253.31209566197131
 31
0.0
  0
POLYLINE
  5
40D4
  8
AM_0
 66
     1
 10
0.0
 20
0.0
 30
0.0
  0
VERTEX
  5
40D5
  8
AM_0
 10
195.0952456258388
 20
191.44490766197109
 30
0.0
  0
VERTEX
  5
40D6
  8
AM_0
 10
195.77476438210331
 20
186.5763306619711
 30
0.0
 42
-1.0
  0
SEQEND
  5
40D7
  8
AM_0
  0
ARC
  5
40D8
  8
AM_0
 10
192.6299843821032
 20
184.89974166197121
 30
0.0
 40
1.6779175200000001
 50
90.000003000000945
 51
270.0
  0
ARC
  5
40D9
  8
AM_0
 10
193.50142438210301
 20
184.94492166197111
 30
0.0
 40
1.0000000199999981
 50
90.000003000000945
 51
270.0
  0
LINE
  5
40DA
  8
AM_0
 10
183.65017438210299
 20
176.7534396619711
 30
0.0
 11
189.87997438210331
 21
176.7534396619711
 31
0.0
  0
LINE
  5
40DB
  8
AM_0
 10
192.6299843821032
 20
186.57767466197109
 30
0.0
 11
199.9520543821032
 21
186.57767466197129
 31
0.0
  0
ARC
  5
40DC
  8
AM_0
 10
227.9520443821032
 20
277.07455266197121
 30
0.0
 40
2.00000007
 50
0.0
 51
90.000003000000945
  0
ARC
  5
40DD
  8
AM_0
 10
227.9520443821032
 20
278.92225266197119
 30
0.0
 40
2.00000007
 50
0.0
 51
90.000003000000945
  0
ARC
  5
40DE
  8
AM_0
 10
227.9520443821032
 20
279.83278266197118
 30
0.0
 40
2.00000007
 50
0.0
 51
90.000003000000945
  0
LINE
  5
40DF
  8
AM_0
 10
229.9520543821032
 20
279.83278266197118
 30
0.0
 11
229.9520543821032
 21
276.22816266197123
 31
0.0
  0
ARC
  5
40E0
  8
AM_0
 10
194.15848438210321
 20
274.22818266197118
 30
0.0
 40
2.00000007
 50
90.000003000000945
 51
169.2843100000004
  0
ARC
  5
40E1
  8
AM_0
 10
194.20705438210331
 20
277.07455266197121
 30
0.0
 40
2.00000007
 50
90.000003000000945
 51
170.9150299999996
  0
ARC
  5
40E2
  8
AM_0
 10
194.22043438210321
 20
278.92225266197119
 30
0.0
 40
2.00000007
 50
90.000003000000945
 51
171.35661000000101
  0
ARC
  5
40E3
  8
AM_0
 10
194.2417343821032
 20
279.83278266197118
 30
0.0
 40
2.00000007
 50
90.000003000000945
 51
172.05596000000091
  0
LINE
  5
40E4
  8
AM_0
 10
190.9520543821032
 20
269.38516266197121
 30
0.0
 11
192.23209438210321
 21
277.3903026619713
 31
0.0
  0
LINE
  5
40E5
  8
AM_0
 10
190.9520543821032
 20
270.72976266197122
 30
0.0
 11
192.2430743821032
 21
279.22282266197118
 31
0.0
  0
LINE
  5
40E6
  8
AM_0
 10
190.9520543821032
 20
270.72976266197122
 30
0.0
 11
192.2608943821032
 21
280.10917266197117
 31
0.0
  0
LINE
  5
40E7
  8
AM_0
 10
190.9520543821032
 20
268.04062266197133
 30
0.0
 11
192.1933343821033
 21
274.60003266197111
 31
0.0
  0
LINE
  5
40E8
  8
AM_0
 10
183.45206438210309
 20
272.94490266197118
 30
0.0
 11
190.9520543821032
 21
272.94490266197118
 31
0.0
  0
LINE
  5
40E9
  8
AM_0
 10
183.65017438210299
 20
263.13631266197109
 30
0.0
 11
189.87997438210331
 21
263.13631266197109
 31
0.0
  0
LINE
  5
40EA
  8
AM_0
 10
196.31746438210311
 20
256.59610266197132
 30
0.0
 11
190.9520543821032
 21
268.04059266197117
 31
0.0
  0
LINE
  5
40EB
  8
AM_0
 10
194.20705438210331
 20
279.0745626619713
 30
0.0
 11
227.9520443821032
 21
279.0745626619713
 31
0.0
  0
LINE
  5
40EC
  8
AM_0
 10
194.22043438210321
 20
280.92226266197122
 30
0.0
 11
227.9520443821032
 21
280.92226266197122
 31
0.0
  0
LINE
  5
40ED
  8
AM_0
 10
194.2417343821032
 20
281.83279266197121
 30
0.0
 11
227.9520443821032
 21
281.83279266197121
 31
0.0
  0
ARC
  5
40EE
  8
AM_0
 10
295.77415438210329
 20
254.9900136619712
 30
0.0
 40
1.6779127499999991
 50
276.08620038402
 51
83.913799615980011
  0
LINE
  5
40EF
  8
ﾁｭｳｼﾝｾﾝ
 10
247.9520543821032
 20
270.94490766197117
 30
0.0
 11
247.9520543821032
 21
168.94490766197109
 31
0.0
  0
LINE
  5
40F0
  8
AM_0
 10
298.95205438210331
 20
275.94490266197118
 30
0.0
 11
298.95205438210331
 21
163.94492166197119
 31
0.0
  0
LINE
  5
40F1
  8
AM_0
 10
183.45206438210309
 20
272.94490266197118
 30
0.0
 11
183.45206438210309
 21
246.9449076619714
 31
0.0
  0
LINE
  5
40F2
  8
AM_0
 10
183.45206438210309
 20
222.94490766197131
 30
0.0
 11
183.45206438210309
 21
208.44490766197271
 31
0.0
  0
LINE
  5
40F3
  8
AM_0
 10
183.45206438210309
 20
191.4449076619706
 30
0.0
 11
183.45206438210309
 21
166.94492166197119
 31
0.0
  0
LINE
  5
40F4
  8
AM_0
 10
297.45205438210331
 20
181.72186866197109
 30
0.0
 11
293.01004438210322
 21
165.14400366197111
 31
0.0
  0
LINE
  5
40F5
  8
AM_0
 10
298.95205438210331
 20
163.94492166197119
 30
0.0
 11
306.95206438210312
 21
163.94492166197119
 31
0.0
  0
LINE
  5
40F6
  8
AM_0
 10
293.49259438210311
 20
166.94492166197119
 30
0.0
 11
298.95205438210331
 21
166.94492166197119
 31
0.0
  0
ARC
  5
40F7
  8
AM_0
 10
291.0782243821032
 20
165.661641661971
 30
0.0
 40
2.00000007
 50
270.0
 51
344.99999999999852
  0
LINE
  5
40F8
  8
AM_0
 10
298.95205438210331
 20
251.88234666197121
 30
0.0
 11
306.95206438210312
 21
251.88234666197121
 31
0.0
  0
LINE
  5
40F9
  8
AM_0
 10
298.95205438210331
 20
188.0074686619711
 30
0.0
 11
306.95206438210312
 21
188.0074686619711
 31
0.0
  0
LINE
  5
40FA
  8
AM_0
 10
298.95205438210331
 20
173.94490566197109
 30
0.0
 11
306.95206438210312
 21
173.94490566197109
 31
0.0
  0
ARC
  5
40FB
  8
AM_0
 10
295.77415438210329
 20
184.89974166197121
 30
0.0
 40
1.6779127499999991
 50
276.08620038402319
 51
83.913799615976814
  0
LINE
  5
40FC
  8
AM_0
 10
298.95205438210331
 20
275.94490266197118
 30
0.0
 11
306.95206438210312
 21
275.94490266197118
 31
0.0
  0
LINE
  5
40FD
  8
AM_0
 10
298.95205438210331
 20
265.94491266197122
 30
0.0
 11
306.95206438210312
 21
265.94491266197122
 31
0.0
  0
LINE
  5
40FE
  8
AM_0
 10
293.49259438210311
 20
272.94490266197118
 30
0.0
 11
298.95205438210331
 21
272.94490266197118
 31
0.0
  0
ARC
  5
40FF
  8
AM_0
 10
291.0782243821032
 20
274.22818266197118
 30
0.0
 40
2.00000007
 50
15.000000000001579
 51
90.000003000000945
  0
ARC
  5
4100
  8
AM_0
 10
298.6030643821033
 20
259.66792266197109
 30
0.0
 40
1.500000029999998
 50
195.00000999999889
 51
270.0
  0
LINE
  5
4101
  8
AM_0
 10
297.15421438210319
 20
259.27972266197128
 30
0.0
 11
293.01004438210322
 21
274.74580266197108
 31
0.0
  0
LINE
  5
4103
  8
AM_0
 10
291.95205438210343
 20
173.94490766197109
 30
0.0
 11
203.95205438210331
 21
173.94490766197109
 31
0.0
  0
ARC
  5
4104
  8
AM_0
 10
222.0231221939687
 20
178.94490766197109
 30
0.0
 40
5.0
 50
225.0
 51
270.0
1001
GENIUS_GENOBJ-N-FIL_13
1002
{
1000
OWNER
1000
GEN
1002
}
1001
GENIUS_GENODEF_13
1002
{
1000
HIER
1070
     0
1002
}
1002
{
1000
MANEDIT
1070
     0
1002
}
1002
{
1000
NOSEL
1070
     0
1002
}
1002
{
1000
BEHIND
1070
     0
1002
}
1002
{
1000
OTHER
1070
     0
1002
}
1002
{
1000
REACTOR
1002
}
  0
LINE
  5
4105
  8
AM_0
 10
273.22413232074553
 20
178.94490766197109
 30
0.0
 11
222.67997644346099
 21
178.94490766197109
 31
0.0
  0
ARC
  5
4106
  8
AM_0
 10
273.22413232074553
 20
183.94490766197109
 30
0.0
 40
5.0
 50
270.0
 51
315.0
1001
GENIUS_GENOBJ-N-FIL_13
1002
{
1000
OWNER
1000
GEN
1002
}
1001
GENIUS_GENODEF_13
1002
{
1000
HIER
1070
     0
1002
}
1002
{
1000
MANEDIT
1070
     0
1002
}
1002
{
1000
NOSEL
1070
     0
1002
}
1002
{
1000
BEHIND
1070
     0
1002
}
1002
{
1000
OTHER
1070
     0
1002
}
1002
{
1000
REACTOR
1002
}
  0
ARC
  5
4107
  8
AM_0
 10
291.95205438210343
 20
177.94490766197109
 30
0.0
 40
4.0
 50
270.0
 51
0.0
1001
GENIUS_GENOBJ-N-FIL_13
1002
{
1000
OWNER
1000
GEN
1002
}
1001
GENIUS_GENODEF_13
1002
{
1000
HIER
1070
     0
1002
}
1002
{
1000
MANEDIT
1070
     0
1002
}
1002
{
1000
NOSEL
1070
     0
1002
}
1002
{
1000
BEHIND
1070
     0
1002
}
1002
{
1000
OTHER
1070
     0
1002
}
1002
{
1000
REACTOR
1002
}
  0
LINE
  5
4108
  8
AM_0
 10
291.9520543821032
 20
265.9449076619714
 30
0.0
 11
203.95205438210331
 21
265.9449076619714
 31
0.0
  0
ARC
  5
4109
  8
AM_0
 10
273.88098657023772
 20
260.94490766197129
 30
0.0
 40
5.0
 50
45.0
 51
90.0
1001
GENIUS_GENOBJ-N-FIL_13
1002
{
1000
OWNER
1000
GEN
1002
}
1001
GENIUS_GENODEF_13
1002
{
1000
HIER
1070
     0
1002
}
1002
{
1000
MANEDIT
1070
     0
1002
}
1002
{
1000
NOSEL
1070
     0
1002
}
1002
{
1000
BEHIND
1070
     0
1002
}
1002
{
1000
OTHER
1070
     0
1002
}
1002
{
1000
REACTOR
1002
}
  0
ARC
  5
410A
  8
AM_0
 10
222.0231221939689
 20
260.94490766197129
 30
0.0
 40
5.0
 50
90.0
 51
135.0
1001
GENIUS_GENODEF_13
1002
{
1000
HIER
1070
     0
1002
}
1002
{
1000
MANEDIT
1070
     0
1002
}
1002
{
1000
NOSEL
1070
     0
1002
}
1002
{
1000
BEHIND
1070
     0
1002
}
1002
{
1000
OTHER
1070
     0
1002
}
1002
{
1000
REACTOR
1002
}
1001
GENIUS_GENOBJ-N-FIL_13
1002
{
1000
OWNER
1000
GEN
1002
}
  0
LINE
  5
410B
  8
AM_0
 10
273.2241323207453
 20
260.94490766197129
 30
0.0
 11
222.67997644346119
 21
260.94490766197129
 31
0.0
  0
ARC
  5
410C
  8
AM_0
 10
222.67997644346119
 20
255.94490766197131
 30
0.0
 40
5.0
 50
90.0
 51
135.0
1001
GENIUS_GENODEF_13
1002
{
1000
HIER
1070
     0
1002
}
1002
{
1000
MANEDIT
1070
     0
1002
}
1002
{
1000
NOSEL
1070
     0
1002
}
1002
{
1000
BEHIND
1070
     0
1002
}
1002
{
1000
OTHER
1070
     0
1002
}
1002
{
1000
REACTOR
1002
}
1001
GENIUS_GENOBJ-N-FIL_13
1002
{
1000
OWNER
1000
GEN
1002
}
  0
ARC
  5
410D
  8
AM_0
 10
203.95205438210331
 20
261.9449076619714
 30
0.0
 40
4.0
 50
90.0
 51
180.0
1001
GENIUS_GENODEF_13
1002
{
1000
HIER
1070
     0
1002
}
1002
{
1000
MANEDIT
1070
     0
1002
}
1002
{
1000
NOSEL
1070
     0
1002
}
1002
{
1000
BEHIND
1070
     0
1002
}
1002
{
1000
OTHER
1070
     0
1002
}
1002
{
1000
REACTOR
1002
}
1001
GENIUS_GENOBJ-N-FIL_13
1002
{
1000
OWNER
1000
GEN
1002
}
  0
LINE
  5
410E
  8
AM_0
 10
199.9520543821032
 20
261.9449076619714
 30
0.0
 11
199.9520543821032
 21
177.94490766197109
 31
0.0
  0
ARC
  5
410F
  8
AM_0
 10
204.9520543821032
 20
196.01597547383639
 30
0.0
 40
5.0
 50
180.0
 51
225.0
1001
GENIUS_GENOBJ-N-FIL_13
1002
{
1000
OWNER
1000
GEN
1002
}
1001
GENIUS_GENODEF_13
1002
{
1000
HIER
1070
     0
1002
}
1002
{
1000
MANEDIT
1070
     0
1002
}
1002
{
1000
NOSEL
1070
     0
1002
}
1002
{
1000
BEHIND
1070
     0
1002
}
1002
{
1000
OTHER
1070
     0
1002
}
1002
{
1000
REACTOR
1002
}
  0
ARC
  5
4110
  8
AM_0
 10
204.9520543821032
 20
243.87383985010601
 30
0.0
 40
5.0
 50
135.0
 51
180.0
1001
GENIUS_GENOBJ-N-FIL_13
1002
{
1000
OWNER
1000
GEN
1002
}
1001
GENIUS_GENODEF_13
1002
{
1000
HIER
1070
     0
1002
}
1002
{
1000
MANEDIT
1070
     0
1002
}
1002
{
1000
NOSEL
1070
     0
1002
}
1002
{
1000
BEHIND
1070
     0
1002
}
1002
{
1000
OTHER
1070
     0
1002
}
1002
{
1000
REACTOR
1002
}
  0
LINE
  5
4111
  8
AM_0
 10
204.9520543821032
 20
243.21698560061341
 30
0.0
 11
204.9520543821032
 21
196.67282972332879
 31
0.0
  0
ARC
  5
4112
  8
AM_0
 10
209.9520543821032
 20
196.67282972332879
 30
0.0
 40
5.0
 50
180.0
 51
225.0
1001
GENIUS_GENOBJ-N-FIL_13
1002
{
1000
OWNER
1000
GEN
1002
}
1001
GENIUS_GENODEF_13
1002
{
1000
HIER
1070
     0
1002
}
1002
{
1000
MANEDIT
1070
     0
1002
}
1002
{
1000
NOSEL
1070
     0
1002
}
1002
{
1000
BEHIND
1070
     0
1002
}
1002
{
1000
OTHER
1070
     0
1002
}
1002
{
1000
REACTOR
1002
}
  0
ARC
  5
4113
  8
AM_0
 10
203.95205438210331
 20
177.94490766197109
 30
0.0
 40
4.0
 50
180.0
 51
270.0
1001
GENIUS_GENODEF_13
1002
{
1000
HIER
1070
     0
1002
}
1002
{
1000
MANEDIT
1070
     0
1002
}
1002
{
1000
NOSEL
1070
     0
1002
}
1002
{
1000
BEHIND
1070
     0
1002
}
1002
{
1000
OTHER
1070
     0
1002
}
1002
{
1000
REACTOR
1002
}
1001
GENIUS_GENOBJ-N-FIL_13
1002
{
1000
OWNER
1000
GEN
1002
}
  0
LINE
  5
4114
  8
AM_0
 10
295.95205438210331
 20
261.9449076619714
 30
0.0
 11
295.95205438210343
 21
177.94490766197109
 31
0.0
  0
ARC
  5
4115
  8
AM_0
 10
290.95205438210331
 20
243.87383985010581
 30
0.0
 40
5.0
 50
0.0
 51
45.0
1001
GENIUS_GENOBJ-N-FIL_13
1002
{
1000
OWNER
1000
GEN
1002
}
1001
GENIUS_GENODEF_13
1002
{
1000
HIER
1070
     0
1002
}
1002
{
1000
MANEDIT
1070
     0
1002
}
1002
{
1000
NOSEL
1070
     0
1002
}
1002
{
1000
BEHIND
1070
     0
1002
}
1002
{
1000
OTHER
1070
     0
1002
}
1002
{
1000
REACTOR
1002
}
  0
ARC
  5
4116
  8
AM_0
 10
290.95205438210343
 20
196.01597547383651
 30
0.0
 40
5.0
 50
315.0
 51
0.0
1001
GENIUS_GENOBJ-N-FIL_13
1002
{
1000
OWNER
1000
GEN
1002
}
1001
GENIUS_GENODEF_13
1002
{
1000
HIER
1070
     0
1002
}
1002
{
1000
MANEDIT
1070
     0
1002
}
1002
{
1000
NOSEL
1070
     0
1002
}
1002
{
1000
BEHIND
1070
     0
1002
}
1002
{
1000
OTHER
1070
     0
1002
}
1002
{
1000
REACTOR
1002
}
  0
LINE
  5
4117
  8
AM_0
 10
277.41652047617038
 20
264.48044156790399
 30
0.0
 11
294.48758828803602
 21
247.4093737560386
 31
0.0
  0
LINE
  5
4118
  8
AM_0
 10
276.75966622667812
 20
259.48044156790399
 30
0.0
 11
289.48758828803579
 21
246.75251950654641
 31
0.0
  0
ARC
  5
4119
  8
AM_0
 10
273.2241323207453
 20
255.94490766197131
 30
0.0
 40
5.0
 50
45.0
 51
90.0
1001
GENIUS_GENOBJ-N-FIL_13
1002
{
1000
OWNER
1000
GEN
1002
}
1001
GENIUS_GENODEF_13
1002
{
1000
HIER
1070
     0
1002
}
1002
{
1000
MANEDIT
1070
     0
1002
}
1002
{
1000
NOSEL
1070
     0
1002
}
1002
{
1000
BEHIND
1070
     0
1002
}
1002
{
1000
OTHER
1070
     0
1002
}
1002
{
1000
REACTOR
1002
}
  0
LINE
  5
411A
  8
AM_0
 10
290.95205438210309
 20
243.21698560061361
 30
0.0
 11
290.95205438210343
 21
196.67282972332879
 31
0.0
  0
ARC
  5
411B
  8
AM_0
 10
285.9520543821032
 20
243.21698560061361
 30
0.0
 40
5.0
 50
0.0
 51
45.0
1001
GENIUS_GENODEF_13
1002
{
1000
HIER
1070
     0
1002
}
1002
{
1000
MANEDIT
1070
     0
1002
}
1002
{
1000
NOSEL
1070
     0
1002
}
1002
{
1000
BEHIND
1070
     0
1002
}
1002
{
1000
OTHER
1070
     0
1002
}
1002
{
1000
REACTOR
1002
}
1001
GENIUS_GENOBJ-N-FIL_13
1002
{
1000
OWNER
1000
GEN
1002
}
  0
ARC
  5
411C
  8
AM_0
 10
291.9520543821032
 20
261.9449076619714
 30
0.0
 40
4.0
 50
0.0
 51
90.0
1001
GENIUS_GENODEF_13
1002
{
1000
HIER
1070
     0
1002
}
1002
{
1000
MANEDIT
1070
     0
1002
}
1002
{
1000
NOSEL
1070
     0
1002
}
1002
{
1000
BEHIND
1070
     0
1002
}
1002
{
1000
OTHER
1070
     0
1002
}
1002
{
1000
REACTOR
1002
}
1001
GENIUS_GENOBJ-N-FIL_13
1002
{
1000
OWNER
1000
GEN
1002
}
  0
LINE
  5
411D
  8
ﾁｭｳｼﾝｾﾝ1
 10
290.95205438210468
 20
254.9449076619708
 30
0.0
 11
290.95205438210547
 21
266.94490766197089
 31
0.0
  0
LINE
  5
411E
  8
ﾁｭｳｼﾝｾﾝ1
 10
296.95205438210508
 20
260.94490766197072
 30
0.0
 11
284.95205438210508
 21
260.94490766197129
 31
0.0
  0
LINE
  5
411F
  8
AM_0
 10
196.4520543821032
 20
248.44490766197131
 30
0.0
 11
198.95205438210311
 21
248.4449076619716
 31
0.0
  0
LINE
  5
4120
  8
AM_0
 10
198.9520543821032
 20
221.44490766197131
 30
0.0
 11
196.4520543821032
 21
221.44490766197131
 31
0.0
  0
LINE
  5
4121
  8
AM_0
 10
185.55338328575721
 20
224.4449076619714
 30
0.0
 11
185.55338328575721
 21
245.4449076619714
 31
0.0
  0
LINE
  5
4122
  8
AM_0
 10
170.55338328575721
 20
242.97653271598631
 30
0.0
 11
170.55338328575721
 21
226.91328260795541
 31
0.0
  0
LINE
  5
4123
  8
AM_0
 10
183.55338328575721
 20
222.94490766197131
 30
0.0
 11
183.55338328575721
 21
246.9449076619714
 31
0.0
  0
LINE
  5
4124
  8
AM_0
 10
174.05338328575721
 20
234.9449076619714
 30
0.0
 11
174.55338328575721
 21
234.4449076619714
 31
0.0
  0
LINE
  5
4125
  8
AM_0
 10
181.05338328575709
 20
246.64490766197139
 30
0.0
 11
181.05338328575709
 21
223.2449076619713
 31
0.0
  0
LINE
  5
4126
  8
AM_0
 10
190.9520543821032
 20
246.44490766197131
 30
0.0
 11
190.9520543821032
 21
223.44490766197131
 31
0.0
  0
LINE
  5
4127
  8
AM_0
 10
185.05338328575709
 20
234.24490766196931
 30
0.0
 11
185.05338328575709
 21
235.6449076619723
 31
0.0
  0
LINE
  5
4128
  8
AM_0
 10
187.1530190123282
 20
225.84490766197129
 30
0.0
 11
186.40301901232911
 21
244.04490766197139
 31
0.0
  0
LINE
  5
4129
  8
AM_0
 10
186.2020543821032
 20
225.84490766197129
 30
0.0
 11
185.55338328575721
 21
241.58599293328729
 31
0.0
  0
LINE
  5
412A
  8
AM_0
 10
186.9507469726752
 20
225.12924894960739
 30
0.0
 11
186.2034869292672
 21
244.7572794231383
 31
0.0
  0
LINE
  5
412B
  8
AM_0
 10
186.40158646516511
 20
225.1325359008033
 30
0.0
 11
185.6530190123292
 21
244.79490766197131
 31
0.0
  0
LINE
  5
412C
  8
AM_0
 10
183.55338328575721
 20
246.9449076619714
 30
0.0
 11
181.35338328575719
 21
246.9449076619714
 31
0.0
  0
ARC
  5
412D
  8
AM_0
 10
195.45205438210331
 20
247.4449076619714
 30
0.0
 40
0.5
 50
269.99999999998693
 51
0.0
  0
ARC
  5
412E
  8
AM_0
 10
196.45205438210331
 20
247.94490766197131
 30
0.0
 40
0.5
 50
90.0
 51
180.0
  0
LINE
  5
412F
  8
AM_0
 10
195.9520543821032
 20
247.4449076619714
 30
0.0
 11
195.9520543821032
 21
247.94490766197131
 31
0.0
  0
LINE
  5
4130
  8
AM_0
 10
186.9520543821032
 20
244.04490766197139
 30
0.0
 11
190.4520543821032
 21
244.04490766197111
 31
0.0
  0
LINE
  5
4131
  8
AM_0
 10
195.9520543821032
 20
245.80097898337829
 30
0.0
 11
195.9520543821032
 21
236.08883634056329
 31
0.0
  0
LINE
  5
4132
  8
AM_0
 10
191.4520543821032
 20
246.9449076619714
 30
0.0
 11
195.45205438210311
 21
246.9449076619714
 31
0.0
  0
LINE
  5
4133
  8
AM_0
 10
195.4520543821032
 20
246.30097898337829
 30
0.0
 11
190.9520543821032
 21
246.30097898337829
 31
0.0
  0
ARC
  5
4134
  8
AM_0
 10
195.45205438210331
 20
245.80097898337829
 30
0.0
 40
0.5
 50
0.0
 51
90.0
  0
ARC
  5
4135
  8
AM_0
 10
190.4520543821032
 20
244.54490766197131
 30
0.0
 40
0.5
 50
270.0
 51
0.0
  0
ARC
  5
4136
  8
AM_0
 10
191.4520543821032
 20
246.44490766197131
 30
0.0
 40
0.5
 50
90.0
 51
180.0
  0
LINE
  5
4137
  8
AM_0
 10
195.4520543821032
 20
235.5888363405632
 30
0.0
 11
190.9520543821032
 21
235.5888363405632
 31
0.0
  0
ARC
  5
4138
  8
AM_0
 10
195.4520543821032
 20
236.08883634056329
 30
0.0
 40
0.5
 50
270.0
 51
0.0
  0
LINE
  5
4139
  8
AM_0
 10
185.05338328575709
 20
241.0900784142633
 30
0.0
 11
185.05338328575709
 21
239.9178352278303
 31
0.0
  0
LINE
  5
413A
  8
AM_0
 10
186.4797514407542
 20
244.04490766197139
 30
0.0
 11
186.9520543821032
 21
244.04490766197139
 31
0.0
  0
LINE
  5
413B
  8
AM_0
 10
186.38315894621499
 20
244.11902542870789
 30
0.0
 11
186.40301901232911
 21
244.04490766197139
 31
0.0
  0
ARC
  5
413C
  8
AM_0
 10
186.47975144075431
 20
244.1449076619713
 30
0.0
 40
0.1000000000000346
 50
195.00019500644461
 51
270.0
  0
ARC
  5
413D
  8
AM_0
 10
184.75338328575731
 20
244.23174064247931
 30
0.0
 40
0.3000000000000043
 50
270.0
 51
0.0
  0
LINE
  5
413E
  8
AM_0
 10
183.55338328575721
 20
246.34490766197129
 30
0.0
 11
184.7733389889143
 21
246.2635772817604
 31
0.0
  0
LINE
  5
413F
  8
AM_0
 10
183.55338328575721
 20
245.18865562613129
 30
0.0
 11
184.75338328575711
 21
245.18865562613129
 31
0.0
  0
LINE
  5
4140
  8
AM_0
 10
185.05338328575709
 20
245.94490766197131
 30
0.0
 11
183.55338328575721
 21
245.94490766197131
 31
0.0
  0
ARC
  5
4141
  8
AM_0
 10
185.05338328575709
 20
245.4449076619714
 30
0.0
 40
0.5
 50
0.0
 51
90.0
  0
LINE
  5
4142
  8
AM_0
 10
185.05338328575709
 20
245.9642417344034
 30
0.0
 11
185.05338328575709
 21
245.94490766197131
 31
0.0
  0
ARC
  5
4143
  8
AM_0
 10
184.75338328575731
 20
245.9642417344034
 30
0.0
 40
0.3000000000000007
 50
0.0
 51
86.185925165715304
  0
LINE
  5
4144
  8
AM_0
 10
186.12532195367811
 20
244.79490766197131
 30
0.0
 11
186.20205438210411
 21
244.79490766197131
 31
0.0
  0
LINE
  5
4145
  8
AM_0
 10
186.20205438210411
 20
244.79490766197131
 30
0.0
 11
186.22191444821729
 21
244.72078989523479
 31
0.0
  0
LINE
  5
4146
  8
AM_0
 10
185.6331589462151
 20
244.72078989523479
 30
0.0
 11
185.6530190123292
 21
244.79490766197131
 31
0.0
  0
LINE
  5
4147
  8
AM_0
 10
185.6530190123292
 20
244.79490766197131
 30
0.0
 11
185.7297514407542
 21
244.79490766197131
 31
0.0
  0
LINE
  5
4148
  8
AM_0
 10
186.22191444821729
 20
244.72078989523479
 30
0.0
 11
186.38315894621499
 21
244.11902542870789
 31
0.0
  0
LINE
  5
4149
  8
AM_0
 10
185.7297514407542
 20
244.79490766197131
 30
0.0
 11
186.12532195367811
 21
244.79490766197131
 31
0.0
  0
LINE
  5
414A
  8
AM_0
 10
185.55338328575809
 20
244.42306713041029
 30
0.0
 11
185.6331589462151
 21
244.72078989523479
 31
0.0
  0
ARC
  5
414B
  8
AM_0
 10
186.12532195367831
 20
244.69490766197131
 30
0.0
 40
0.0999999999999866
 50
15.00019500656942
 51
90.0
  0
ARC
  5
414C
  8
AM_0
 10
185.72975144075431
 20
244.69490766197131
 30
0.0
 40
0.1000000000000014
 50
90.0
 51
164.99980499343059
  0
LINE
  5
414D
  8
AM_0
 10
185.05338328575709
 20
244.8886556261312
 30
0.0
 11
185.05338328575709
 21
244.23174064247931
 31
0.0
  0
ARC
  5
414E
  8
AM_0
 10
184.75338328575731
 20
244.8886556261312
 30
0.0
 40
0.3000000000000007
 50
0.0
 51
90.0
  0
LINE
  5
414F
  8
AM_0
 10
183.55338328575721
 20
241.3900784142634
 30
0.0
 11
184.75338328575711
 21
241.3900784142634
 31
0.0
  0
LINE
  5
4150
  8
AM_0
 10
184.75338328575711
 20
243.9317406424793
 30
0.0
 11
183.55338328575721
 21
243.9317406424793
 31
0.0
  0
LINE
  5
4151
  8
AM_0
 10
186.40301901232911
 20
244.04490766197139
 30
0.0
 11
186.4797514407542
 21
244.04490766197139
 31
0.0
  0
ARC
  5
4152
  8
AM_0
 10
184.75338328575711
 20
241.0900784142633
 30
0.0
 40
0.3000000000000007
 50
0.0
 51
90.0
  0
LINE
  5
4153
  8
AM_0
 10
184.75338328575711
 20
239.6178352278304
 30
0.0
 11
183.55338328575721
 21
239.6178352278304
 31
0.0
  0
ARC
  5
4154
  8
AM_0
 10
184.75338328575711
 20
239.9178352278303
 30
0.0
 40
0.3000000000000043
 50
270.0
 51
0.0
  0
LINE
  5
4155
  8
AM_0
 10
184.75338328575711
 20
235.94490766197239
 30
0.0
 11
183.55338328575721
 21
235.94490766197239
 31
0.0
  0
ARC
  5
4156
  8
AM_0
 10
184.75338328575711
 20
235.6449076619723
 30
0.0
 40
0.3000000000000007
 50
0.0
 51
90.0
  0
LINE
  5
4157
  8
AM_0
 10
174.55338328575721
 20
245.07818749061821
 30
0.0
 11
181.05338328575709
 21
245.07818749061821
 31
0.0
  0
LINE
  5
4158
  8
AM_0
 10
174.55338328575721
 20
245.57818749061829
 30
0.0
 11
181.05338328575709
 21
245.57818749061829
 31
0.0
  0
LINE
  5
4159
  8
AM_0
 10
181.05338328575709
 20
235.44490766197131
 30
0.0
 11
174.55338328575721
 21
235.44490766197131
 31
0.0
  0
LINE
  5
415A
  8
AM_0
 10
174.05338328575721
 20
235.94490766197131
 30
0.0
 11
181.05338328575709
 21
235.94490766197131
 31
0.0
  0
LINE
  5
415B
  8
AM_0
 10
180.75338328575711
 20
245.94490766197131
 30
0.0
 11
173.91543322093921
 21
245.94490766197131
 31
0.0
  0
LINE
  5
415C
  8
AM_0
 10
181.05338328575709
 20
236.29159573051231
 30
0.0
 11
174.55338328575721
 21
236.29159573051231
 31
0.0
  0
LINE
  5
415D
  8
AM_0
 10
181.05338328575709
 20
244.5982195934304
 30
0.0
 11
174.55338328575721
 21
244.5982195934304
 31
0.0
  0
ARC
  5
415E
  8
AM_0
 10
181.35338328575719
 20
246.64490766197139
 30
0.0
 40
0.2999999999999971
 50
90.0
 51
180.0
  0
ARC
  5
415F
  8
AM_0
 10
180.75338328575711
 20
246.2449076619713
 30
0.0
 40
0.2999999999999971
 50
270.0
 51
0.0
  0
ARC
  5
4160
  8
AM_0
 10
182.67838328575721
 20
240.44490766197131
 30
0.0
 40
9.124999999999984
 50
152.92493329272219
 51
207.07506670727781
  0
LINE
  5
4161
  8
AM_0
 10
173.2752488212748
 20
245.71312894156881
 30
0.0
 11
170.91319888609269
 21
243.74475399558381
 31
0.0
  0
LINE
  5
4162
  8
AM_0
 10
174.05338328575721
 20
245.36647507846331
 30
0.0
 11
174.55338328575721
 21
245.94490766197131
 31
0.0
  0
ARC
  5
4163
  8
AM_0
 10
173.91543322093921
 20
244.9449076619714
 30
0.0
 40
1.0
 50
90.0
 51
129.805571092256
  0
LINE
  5
4164
  8
AM_0
 10
174.55338328575721
 20
245.57818749061829
 30
0.0
 11
174.05338328575721
 21
245.36647507846331
 31
0.0
  0
LINE
  5
4165
  8
AM_0
 10
174.05338328575721
 20
244.90419980549231
 30
0.0
 11
174.55338328575721
 21
245.57818749061829
 31
0.0
  0
LINE
  5
4166
  8
AM_0
 10
174.55338328575721
 20
245.07818749061821
 30
0.0
 11
174.05338328575721
 21
244.90419980549231
 31
0.0
  0
LINE
  5
4167
  8
AM_0
 10
174.05338328575721
 20
244.36647507846331
 30
0.0
 11
174.55338328575721
 21
245.07818749061821
 31
0.0
  0
LINE
  5
4168
  8
AM_0
 10
174.55338328575721
 20
244.5982195934304
 30
0.0
 11
174.05338328575721
 21
244.36647507846331
 31
0.0
  0
ARC
  5
4169
  8
AM_0
 10
171.55338328575709
 20
242.97653271598631
 30
0.0
 40
1.0000000000000291
 50
129.80557109226311
 51
180.0
  0
LINE
  5
416A
  8
AM_0
 10
174.55338328575721
 20
235.44490766197131
 30
0.0
 11
174.05338328575721
 21
234.9449076619714
 31
0.0
  0
LINE
  5
416B
  8
AM_0
 10
174.05338328575721
 20
235.94490766197131
 30
0.0
 11
174.55338328575721
 21
235.44490766197131
 31
0.0
  0
LINE
  5
416C
  8
AM_0
 10
174.55338328575721
 20
236.29159573051231
 30
0.0
 11
174.05338328575721
 21
235.94490766197131
 31
0.0
  0
LINE
  5
416D
  8
AM_0
 10
181.35338328575719
 20
222.94490766197131
 30
0.0
 11
183.55338328575721
 21
222.94490766197131
 31
0.0
  0
ARC
  5
416E
  8
AM_0
 10
195.4520543821032
 20
222.4449076619714
 30
0.0
 40
0.5
 50
0.0
 51
90.000000000009777
  0
LINE
  5
416F
  8
AM_0
 10
190.4520543821032
 20
225.84490766197129
 30
0.0
 11
187.2297514407542
 21
225.84490766197129
 31
0.0
  0
LINE
  5
4170
  8
AM_0
 10
195.9520543821032
 20
233.80097898337829
 30
0.0
 11
195.9520543821032
 21
224.08883634056329
 31
0.0
  0
LINE
  5
4171
  8
AM_0
 10
190.9520543821032
 20
234.30097898337829
 30
0.0
 11
195.4520543821032
 21
234.30097898337829
 31
0.0
  0
ARC
  5
4172
  8
AM_0
 10
195.4520543821032
 20
233.80097898337829
 30
0.0
 40
0.5
 50
0.0
 51
90.0
  0
LINE
  5
4173
  8
AM_0
 10
190.9520543821032
 20
223.58883634056329
 30
0.0
 11
195.4520543821032
 21
223.58883634056329
 31
0.0
  0
LINE
  5
4174
  8
AM_0
 10
195.45205438210311
 20
222.94490766197131
 30
0.0
 11
191.4520543821032
 21
222.94490766197131
 31
0.0
  0
ARC
  5
4175
  8
AM_0
 10
195.4520543821032
 20
224.08883634056329
 30
0.0
 40
0.5
 50
270.0
 51
0.0
  0
ARC
  5
4176
  8
AM_0
 10
190.4520543821032
 20
225.34490766197129
 30
0.0
 40
0.5
 50
0.0
 51
90.0
  0
ARC
  5
4177
  8
AM_0
 10
191.4520543821032
 20
223.44490766197131
 30
0.0
 40
0.5
 50
180.0
 51
270.0
  0
ARC
  5
4178
  8
AM_0
 10
184.75338328575711
 20
228.79973690967921
 30
0.0
 40
0.3000000000000114
 50
270.0
 51
0.0
  0
LINE
  5
4179
  8
AM_0
 10
183.55338328575721
 20
233.9449076619693
 30
0.0
 11
184.75338328575711
 21
233.9449076619693
 31
0.0
  0
ARC
  5
417A
  8
AM_0
 10
184.75338328575711
 20
234.24490766196931
 30
0.0
 40
0.2999999999999971
 50
270.0
 51
0.0
  0
LINE
  5
417B
  8
AM_0
 10
183.55338328575721
 20
230.27198009611229
 30
0.0
 11
184.75338328575711
 21
230.27198009611229
 31
0.0
  0
ARC
  5
417C
  8
AM_0
 10
184.75338328575711
 20
229.97198009611211
 30
0.0
 40
0.3000000000000007
 50
0.0
 51
90.0
  0
LINE
  5
417D
  8
AM_0
 10
185.05338328575709
 20
229.97198009611239
 30
0.0
 11
185.05338328575709
 21
228.79973690967941
 31
0.0
  0
LINE
  5
417E
  8
AM_0
 10
186.4797514407542
 20
225.09490766197129
 30
0.0
 11
186.87532195367811
 21
225.09490766197129
 31
0.0
  0
LINE
  5
417F
  8
AM_0
 10
186.4797514407542
 20
225.09490766197129
 30
0.0
 11
186.87532195367811
 21
225.09490766197129
 31
0.0
  0
LINE
  5
4180
  8
AM_0
 10
186.97191444821729
 20
225.1690254287079
 30
0.0
 11
187.1331589462151
 21
225.77078989523491
 31
0.0
  0
LINE
  5
4181
  8
AM_0
 10
186.97191444821729
 20
225.1690254287079
 30
0.0
 11
187.1331589462151
 21
225.77078989523491
 31
0.0
  0
ARC
  5
4182
  8
AM_0
 10
187.2297514407542
 20
225.7449076619713
 30
0.0
 40
0.0999999999999943
 50
90.0
 51
164.9998049934843
  0
ARC
  5
4183
  8
AM_0
 10
186.87532195367811
 20
225.19490766197131
 30
0.0
 40
0.0999999999999943
 50
270.0
 51
344.99980499349448
  0
LINE
  5
4184
  8
AM_0
 10
185.55253669721611
 20
225.46990766197109
 30
0.0
 11
185.6331589462151
 21
225.77078989523491
 31
0.0
  0
LINE
  5
4185
  8
AM_0
 10
186.20476503430919
 20
225.8056431288733
 30
0.0
 11
186.3831589462151
 21
225.1690254287079
 31
0.0
  0
LINE
  5
4186
  8
AM_0
 10
186.22191444821729
 20
225.77078989523491
 30
0.0
 11
186.3831589462151
 21
225.1690254287079
 31
0.0
  0
LINE
  5
4187
  8
AM_0
 10
185.05338328575709
 20
225.65807468146241
 30
0.0
 11
185.05338328575709
 21
225.00115969781129
 31
0.0
  0
LINE
  5
4188
  8
AM_0
 10
185.55338328575721
 20
225.47306713040931
 30
0.0
 11
185.6331589462151
 21
225.77078989523491
 31
0.0
  0
LINE
  5
4189
  8
AM_0
 10
183.55338328575721
 20
225.95807468146239
 30
0.0
 11
184.75338328575711
 21
225.95807468146239
 31
0.0
  0
LINE
  5
418A
  8
AM_0
 10
184.75338328575711
 20
228.49973690967931
 30
0.0
 11
183.55338328575721
 21
228.49973690967829
 31
0.0
  0
LINE
  5
418B
  8
AM_0
 10
186.15795421919319
 20
225.84490766197129
 30
0.0
 11
186.20476503430919
 21
225.8056431288733
 31
0.0
  0
LINE
  5
418C
  8
AM_0
 10
185.7297514407542
 20
225.84490766197129
 30
0.0
 11
186.15795421919319
 21
225.84490766197129
 31
0.0
  0
LINE
  5
418D
  8
AM_0
 10
185.7297514407542
 20
225.84490766197129
 30
0.0
 11
186.12532195367811
 21
225.84490766197129
 31
0.0
  0
ARC
  5
418E
  8
AM_0
 10
185.7297514407542
 20
225.7449076619713
 30
0.0
 40
0.0999999999999943
 50
90.0
 51
164.9998049934843
  0
ARC
  5
418F
  8
AM_0
 10
186.12532195367811
 20
225.7449076619713
 30
0.0
 40
0.0999999999999608
 50
15.00019500651571
 51
90.0
  0
ARC
  5
4190
  8
AM_0
 10
184.75338328575711
 20
225.6580746814623
 30
0.0
 40
0.3000000000000007
 50
0.0
 51
90.0
  0
LINE
  5
4191
  8
AM_0
 10
183.55338328575721
 20
223.94490766197131
 30
0.0
 11
185.05338328575709
 21
223.94490766197131
 31
0.0
  0
LINE
  5
4192
  8
AM_0
 10
184.75338328575711
 20
224.70115969781139
 30
0.0
 11
183.55338328575721
 21
224.70115969781139
 31
0.0
  0
LINE
  5
4193
  8
AM_0
 10
184.7733389889143
 20
223.62623804218131
 30
0.0
 11
183.55338328575721
 21
223.54490766197139
 31
0.0
  0
ARC
  5
4194
  8
AM_0
 10
185.05338328575709
 20
224.4449076619714
 30
0.0
 40
0.5
 50
270.0
 51
0.0
  0
ARC
  5
4195
  8
AM_0
 10
186.4797514407542
 20
225.19490766197131
 30
0.0
 40
0.0999999999999606
 50
195.00019500650541
 51
270.0
  0
ARC
  5
4196
  8
AM_0
 10
184.75338328575711
 20
225.00115969781129
 30
0.0
 40
0.2999999999999971
 50
270.0
 51
0.0
  0
LINE
  5
4197
  8
AM_0
 10
185.05338328575709
 20
223.94490766197131
 30
0.0
 11
185.05338328575709
 21
223.92557358953829
 31
0.0
  0
ARC
  5
4198
  8
AM_0
 10
184.75338328575711
 20
223.92557358953829
 30
0.0
 40
0.3000000000000043
 50
273.81407483428472
 51
0.0
  0
ARC
  5
4199
  8
AM_0
 10
196.4520543821032
 20
221.9449076619714
 30
0.0
 40
0.5
 50
180.0
 51
270.0
  0
LINE
  5
419A
  8
AM_0
 10
195.9520543821032
 20
221.9449076619714
 30
0.0
 11
195.9520543821032
 21
222.4449076619714
 31
0.0
  0
LINE
  5
419B
  8
AM_0
 10
174.55338328575721
 20
225.29159573051231
 30
0.0
 11
181.05338328575709
 21
225.29159573051231
 31
0.0
  0
LINE
  5
419C
  8
AM_0
 10
174.55338328575721
 20
233.5982195934304
 30
0.0
 11
181.05338328575709
 21
233.5982195934304
 31
0.0
  0
LINE
  5
419D
  8
AM_0
 10
173.91543322093921
 20
223.94490766197131
 30
0.0
 11
180.75338328575711
 21
223.94490766197131
 31
0.0
  0
LINE
  5
419E
  8
AM_0
 10
181.05338328575709
 20
233.94490766197131
 30
0.0
 11
174.05338328575721
 21
233.94490766197131
 31
0.0
  0
LINE
  5
419F
  8
AM_0
 10
174.55338328575721
 20
234.4449076619714
 30
0.0
 11
181.05338328575709
 21
234.4449076619714
 31
0.0
  0
LINE
  5
41A0
  8
AM_0
 10
181.05338328575709
 20
224.31162783332331
 30
0.0
 11
174.55338328575721
 21
224.31162783332331
 31
0.0
  0
LINE
  5
41A1
  8
AM_0
 10
181.05338328575709
 20
224.81162783332331
 30
0.0
 11
174.55338328575721
 21
224.81162783332331
 31
0.0
  0
ARC
  5
41A2
  8
AM_0
 10
180.75338328575711
 20
223.6449076619713
 30
0.0
 40
0.3000000000000043
 50
0.0
 51
90.0
  0
ARC
  5
41A3
  8
AM_0
 10
181.35338328575719
 20
223.2449076619713
 30
0.0
 40
0.2999999999999971
 50
180.0
 51
270.0
  0
ARC
  5
41A4
  8
AM_0
 10
182.67838328575721
 20
229.44490766197131
 30
0.0
 40
9.124999999999984
 50
152.92493329272219
 51
207.07506670727781
  0
LINE
  5
41A5
  8
AM_0
 10
174.05338328575721
 20
233.94490766197131
 30
0.0
 11
174.55338328575721
 21
233.5982195934304
 31
0.0
  0
LINE
  5
41A6
  8
AM_0
 10
174.55338328575721
 20
234.4449076619714
 30
0.0
 11
174.05338328575721
 21
233.94490766197131
 31
0.0
  0
LINE
  5
41A7
  8
AM_0
 10
170.91319888609269
 20
226.14506132835791
 30
0.0
 11
173.2752488212748
 21
224.1766863823739
 31
0.0
  0
LINE
  5
41A8
  8
AM_0
 10
174.55338328575721
 20
223.94490766197131
 30
0.0
 11
174.05338328575721
 21
224.52334024547841
 31
0.0
  0
ARC
  5
41A9
  8
AM_0
 10
173.91543322093921
 20
224.94490766197131
 30
0.0
 40
1.0000000000000411
 50
230.19442890774391
 51
270.0
  0
LINE
  5
41AA
  8
AM_0
 10
174.05338328575721
 20
225.52334024547841
 30
0.0
 11
174.55338328575721
 21
225.29159573051231
 31
0.0
  0
LINE
  5
41AB
  8
AM_0
 10
174.55338328575721
 20
224.81162783332331
 30
0.0
 11
174.05338328575721
 21
225.52334024547841
 31
0.0
  0
LINE
  5
41AC
  8
AM_0
 10
174.05338328575721
 20
224.98561551845029
 30
0.0
 11
174.55338328575721
 21
224.81162783332331
 31
0.0
  0
LINE
  5
41AD
  8
AM_0
 10
174.55338328575721
 20
224.31162783332331
 30
0.0
 11
174.05338328575721
 21
224.98561551845029
 31
0.0
  0
LINE
  5
41AE
  8
AM_0
 10
174.05338328575721
 20
224.52334024547841
 30
0.0
 11
174.55338328575721
 21
224.31162783332331
 31
0.0
  0
ARC
  5
41AF
  8
AM_0
 10
171.55338328575709
 20
226.91328260795521
 30
0.0
 40
1.0
 50
180.0
 51
230.19442890773689
  0
CIRCLE
  5
41B0
  8
AM_0
 10
204.95205438210161
 20
260.94490766197089
 30
0.0
 40
4.0
  0
LINE
  5
41B1
  8
AM_0
 10
204.64055438210161
 20
258.6660992562467
 30
0.0
 11
205.2635543821016
 21
258.6660992562467
 31
0.0
  0
LINE
  5
41B2
  8
AM_0
 10
204.64055438210161
 20
263.22371606769542
 30
0.0
 11
205.2635543821016
 21
263.22371606769542
 31
0.0
  0
LINE
  5
41B3
  8
AM_0
 10
204.64055438210161
 20
258.6660992562467
 30
0.0
 11
204.64055438210161
 21
260.63340766197098
 31
0.0
  0
LINE
  5
41B4
  8
AM_0
 10
204.64055438210161
 20
261.25640766197091
 30
0.0
 11
204.64055438210161
 21
263.22371606769542
 31
0.0
  0
LINE
  5
41B5
  8
AM_0
 10
204.64055438210161
 20
261.25640766197091
 30
0.0
 11
202.67324597637719
 21
261.25640766197091
 31
0.0
  0
LINE
  5
41B6
  8
AM_0
 10
204.64055438210161
 20
260.63340766197098
 30
0.0
 11
202.67324597637719
 21
260.63340766197098
 31
0.0
  0
LINE
  5
41B7
  8
AM_0
 10
202.67324597637719
 20
261.25640766197091
 30
0.0
 11
202.67324597637719
 21
260.63340766197098
 31
0.0
  0
LINE
  5
41B8
  8
AM_0
 10
205.2635543821016
 20
258.6660992562467
 30
0.0
 11
205.2635543821016
 21
260.63340766197098
 31
0.0
  0
LINE
  5
41B9
  8
AM_0
 10
205.2635543821016
 20
261.25640766197091
 30
0.0
 11
205.2635543821016
 21
263.22371606769542
 31
0.0
  0
LINE
  5
41BA
  8
AM_0
 10
207.23086278782591
 20
260.63340766197098
 30
0.0
 11
205.2635543821016
 21
260.63340766197098
 31
0.0
  0
LINE
  5
41BB
  8
AM_0
 10
207.23086278782591
 20
261.25640766197091
 30
0.0
 11
205.2635543821016
 21
261.25640766197091
 31
0.0
  0
LINE
  5
41BC
  8
AM_0
 10
207.23086278782591
 20
261.25640766197091
 30
0.0
 11
207.23086278782591
 21
260.63340766197098
 31
0.0
  0
CIRCLE
  5
41BD
  8
AM_0
 10
290.95205438210508
 20
260.94490766197089
 30
0.0
 40
4.0
  0
LINE
  5
41BE
  8
AM_0
 10
290.64055438210522
 20
258.66609925624653
 30
0.0
 11
291.26355438210521
 21
258.66609925624653
 31
0.0
  0
LINE
  5
41BF
  8
AM_0
 10
290.64055438210522
 20
263.22371606769531
 30
0.0
 11
291.26355438210521
 21
263.22371606769531
 31
0.0
  0
LINE
  5
41C0
  8
AM_0
 10
290.64055438210522
 20
258.66609925624653
 30
0.0
 11
290.64055438210522
 21
260.63340766197092
 31
0.0
  0
LINE
  5
41C1
  8
AM_0
 10
290.64055438210522
 20
261.25640766197091
 30
0.0
 11
290.64055438210522
 21
263.22371606769531
 31
0.0
  0
LINE
  5
41C2
  8
AM_0
 10
290.64055438210522
 20
261.25640766197091
 30
0.0
 11
288.67324597638083
 21
261.25640766197091
 31
0.0
  0
LINE
  5
41C3
  8
AM_0
 10
290.64055438210522
 20
260.63340766197092
 30
0.0
 11
288.67324597638083
 21
260.63340766197092
 31
0.0
  0
LINE
  5
41C4
  8
AM_0
 10
288.67324597638083
 20
261.25640766197091
 30
0.0
 11
288.67324597638083
 21
260.63340766197092
 31
0.0
  0
LINE
  5
41C5
  8
AM_0
 10
291.26355438210521
 20
258.66609925624653
 30
0.0
 11
291.26355438210521
 21
260.63340766197092
 31
0.0
  0
LINE
  5
41C6
  8
AM_0
 10
291.26355438210521
 20
261.25640766197091
 30
0.0
 11
291.26355438210521
 21
263.22371606769531
 31
0.0
  0
LINE
  5
41C7
  8
AM_0
 10
293.23086278782949
 20
260.63340766197092
 30
0.0
 11
291.26355438210521
 21
260.63340766197092
 31
0.0
  0
LINE
  5
41C8
  8
AM_0
 10
293.23086278782949
 20
261.25640766197091
 30
0.0
 11
291.26355438210521
 21
261.25640766197091
 31
0.0
  0
LINE
  5
41C9
  8
AM_0
 10
293.23086278782949
 20
261.25640766197091
 30
0.0
 11
293.23086278782949
 21
260.63340766197092
 31
0.0
  0
LINE
  5
41CA
  8
AM_0
 10
218.48758828803619
 20
264.48044156790411
 30
0.0
 11
201.4165204761706
 21
247.4093737560388
 31
0.0
  0
LINE
  5
41CB
  8
AM_0
 10
219.14444253752839
 20
259.48044156790399
 30
0.0
 11
206.4165204761704
 21
246.75251950654629
 31
0.0
  0
ARC
  5
41CC
  8
AM_0
 10
209.95205438210331
 20
243.21698560061341
 30
0.0
 40
5.0
 50
135.0
 51
180.0
1001
GENIUS_GENOBJ-N-FIL_13
1002
{
1000
OWNER
1000
GEN
1002
}
1001
GENIUS_GENODEF_13
1002
{
1000
HIER
1070
     0
1002
}
1002
{
1000
MANEDIT
1070
     0
1002
}
1002
{
1000
NOSEL
1070
     0
1002
}
1002
{
1000
BEHIND
1070
     0
1002
}
1002
{
1000
OTHER
1070
     0
1002
}
1002
{
1000
REACTOR
1002
}
  0
LINE
  5
41CD
  8
AM_0
 10
277.41652047617049
 20
175.40937375603841
 30
0.0
 11
294.48758828803608
 21
192.48044156790371
 31
0.0
  0
ARC
  5
41CE
  8
AM_0
 10
273.88098657023772
 20
178.94490766197109
 30
0.0
 40
5.0
 50
270.0
 51
315.0
1001
GENIUS_GENODEF_13
1002
{
1000
HIER
1070
     0
1002
}
1002
{
1000
MANEDIT
1070
     0
1002
}
1002
{
1000
NOSEL
1070
     0
1002
}
1002
{
1000
BEHIND
1070
     0
1002
}
1002
{
1000
OTHER
1070
     0
1002
}
1002
{
1000
REACTOR
1002
}
1001
GENIUS_GENOBJ-N-FIL_13
1002
{
1000
OWNER
1000
GEN
1002
}
  0
LINE
  5
41CF
  8
AM_0
 10
276.75966622667818
 20
180.40937375603841
 30
0.0
 11
289.48758828803608
 21
193.13729581739611
 31
0.0
  0
ARC
  5
41D0
  8
AM_0
 10
285.95205438210343
 20
196.67282972332879
 30
0.0
 40
5.0
 50
315.0
 51
0.0
1001
GENIUS_GENOBJ-N-FIL_13
1002
{
1000
OWNER
1000
GEN
1002
}
1001
GENIUS_GENODEF_13
1002
{
1000
HIER
1070
     0
1002
}
1002
{
1000
MANEDIT
1070
     0
1002
}
1002
{
1000
NOSEL
1070
     0
1002
}
1002
{
1000
BEHIND
1070
     0
1002
}
1002
{
1000
OTHER
1070
     0
1002
}
1002
{
1000
REACTOR
1002
}
  0
LINE
  5
41D1
  8
AM_0
 10
218.48758828803599
 20
175.40937375603841
 30
0.0
 11
201.4165204761706
 21
192.4804415679036
 31
0.0
  0
LINE
  5
41D2
  8
AM_0
 10
219.14444253752831
 20
180.40937375603841
 30
0.0
 11
206.4165204761704
 21
193.13729581739611
 31
0.0
  0
ARC
  5
41D3
  8
AM_0
 10
222.67997644346099
 20
183.94490766197109
 30
0.0
 40
5.0
 50
225.0
 51
270.0
1001
GENIUS_GENOBJ-N-FIL_13
1002
{
1000
OWNER
1000
GEN
1002
}
1001
GENIUS_GENODEF_13
1002
{
1000
HIER
1070
     0
1002
}
1002
{
1000
MANEDIT
1070
     0
1002
}
1002
{
1000
NOSEL
1070
     0
1002
}
1002
{
1000
BEHIND
1070
     0
1002
}
1002
{
1000
OTHER
1070
     0
1002
}
1002
{
1000
REACTOR
1002
}
  0
CIRCLE
  5
41D4
  8
AM_0
 10
204.95205438210141
 20
178.9449076619716
 30
0.0
 40
4.0
  0
LINE
  5
41D5
  8
AM_0
 10
204.6405543821015
 20
181.2237160676959
 30
0.0
 11
205.2635543821014
 21
181.2237160676959
 31
0.0
  0
LINE
  5
41D6
  8
AM_0
 10
204.6405543821015
 20
176.66609925624721
 30
0.0
 11
205.2635543821014
 21
176.66609925624721
 31
0.0
  0
LINE
  5
41D7
  8
AM_0
 10
204.6405543821015
 20
181.2237160676959
 30
0.0
 11
204.6405543821015
 21
179.25640766197159
 31
0.0
  0
LINE
  5
41D8
  8
AM_0
 10
204.6405543821015
 20
178.6334076619714
 30
0.0
 11
204.6405543821015
 21
176.66609925624721
 31
0.0
  0
LINE
  5
41D9
  8
AM_0
 10
204.6405543821015
 20
178.6334076619714
 30
0.0
 11
202.6732459763771
 21
178.6334076619714
 31
0.0
  0
LINE
  5
41DA
  8
AM_0
 10
204.6405543821015
 20
179.25640766197159
 30
0.0
 11
202.6732459763771
 21
179.25640766197159
 31
0.0
  0
LINE
  5
41DB
  8
AM_0
 10
202.6732459763771
 20
178.6334076619714
 30
0.0
 11
202.6732459763771
 21
179.25640766197159
 31
0.0
  0
LINE
  5
41DC
  8
AM_0
 10
205.2635543821014
 20
181.2237160676959
 30
0.0
 11
205.2635543821014
 21
179.25640766197159
 31
0.0
  0
LINE
  5
41DD
  8
AM_0
 10
205.2635543821014
 20
178.6334076619714
 30
0.0
 11
205.2635543821014
 21
176.66609925624721
 31
0.0
  0
LINE
  5
41DE
  8
AM_0
 10
207.2308627878258
 20
179.25640766197159
 30
0.0
 11
205.2635543821014
 21
179.25640766197159
 31
0.0
  0
LINE
  5
41DF
  8
AM_0
 10
207.2308627878258
 20
178.6334076619714
 30
0.0
 11
205.2635543821014
 21
178.6334076619714
 31
0.0
  0
LINE
  5
41E0
  8
AM_0
 10
207.2308627878258
 20
178.6334076619714
 30
0.0
 11
207.2308627878258
 21
179.25640766197159
 31
0.0
  0
CIRCLE
  5
41E1
  8
AM_0
 10
290.95205438210508
 20
178.94490766197131
 30
0.0
 40
4.0
  0
LINE
  5
41E2
  8
AM_0
 10
290.64055438210488
 20
181.2237160676957
 30
0.0
 11
291.26355438210493
 21
181.2237160676957
 31
0.0
  0
LINE
  5
41E3
  8
AM_0
 10
290.64055438210488
 20
176.66609925624709
 30
0.0
 11
291.26355438210493
 21
176.66609925624709
 31
0.0
  0
LINE
  5
41E4
  8
AM_0
 10
290.64055438210488
 20
181.2237160676957
 30
0.0
 11
290.64055438210488
 21
179.25640766197131
 31
0.0
  0
LINE
  5
41E5
  8
AM_0
 10
290.64055438210488
 20
178.63340766197129
 30
0.0
 11
290.64055438210488
 21
176.66609925624709
 31
0.0
  0
LINE
  5
41E6
  8
AM_0
 10
290.64055438210488
 20
178.63340766197129
 30
0.0
 11
288.6732459763806
 21
178.63340766197129
 31
0.0
  0
LINE
  5
41E7
  8
AM_0
 10
290.64055438210488
 20
179.25640766197131
 30
0.0
 11
288.6732459763806
 21
179.25640766197131
 31
0.0
  0
LINE
  5
41E8
  8
AM_0
 10
288.6732459763806
 20
178.63340766197129
 30
0.0
 11
288.6732459763806
 21
179.25640766197131
 31
0.0
  0
LINE
  5
41E9
  8
AM_0
 10
291.26355438210493
 20
181.2237160676957
 30
0.0
 11
291.26355438210493
 21
179.25640766197131
 31
0.0
  0
LINE
  5
41EA
  8
AM_0
 10
291.26355438210493
 20
178.63340766197129
 30
0.0
 11
291.26355438210493
 21
176.66609925624709
 31
0.0
  0
LINE
  5
41EB
  8
AM_0
 10
293.23086278782932
 20
179.25640766197131
 30
0.0
 11
291.26355438210493
 21
179.25640766197131
 31
0.0
  0
LINE
  5
41EC
  8
AM_0
 10
293.23086278782932
 20
178.63340766197129
 30
0.0
 11
291.26355438210493
 21
178.63340766197129
 31
0.0
  0
LINE
  5
41ED
  8
AM_0
 10
293.23086278782932
 20
178.63340766197129
 30
0.0
 11
293.23086278782932
 21
179.25640766197131
 31
0.0
  0
LINE
  5
41EE
  8
AM_0
 10
199.9520543821032
 20
188.9449076619712
 30
0.0
 11
198.9520543821032
 21
188.9449076619712
 31
0.0
  0
LINE
  5
41EF
  8
AM_0
 10
199.9520543821032
 20
250.94490766197131
 30
0.0
 11
198.9520543821032
 21
250.9449076619712
 31
0.0
  0
LINE
  5
41F0
  8
AM_0
 10
198.9520543821032
 20
188.9449076619712
 30
0.0
 11
198.9520543821032
 21
250.9449076619712
 31
0.0
  0
LINE
  5
41F1
  8
ﾁｭｳｼﾝｾﾝ1
 10
204.95205438210121
 20
254.9449076619708
 30
0.0
 11
204.95205438210181
 21
266.94490766197089
 31
0.0
  0
LINE
  5
41F2
  8
ﾁｭｳｼﾝｾﾝ1
 10
210.95205438210161
 20
260.94490766197072
 30
0.0
 11
198.95205438210141
 21
260.94490766197129
 31
0.0
  0
LINE
  5
41F3
  8
ﾁｭｳｼﾝｾﾝ1
 10
204.9520543821011
 20
172.94490766197151
 30
0.0
 11
204.95205438210169
 21
184.94490766197151
 31
0.0
  0
LINE
  5
41F4
  8
ﾁｭｳｼﾝｾﾝ1
 10
210.95205438210141
 20
178.94490766197131
 30
0.0
 11
198.95205438210141
 21
178.94490766197191
 31
0.0
  0
LINE
  5
41F5
  8
ﾁｭｳｼﾝｾﾝ1
 10
290.95205438210462
 20
172.94490766197131
 30
0.0
 11
290.95205438210519
 21
184.94490766197131
 31
0.0
  0
LINE
  5
41F6
  8
ﾁｭｳｼﾝｾﾝ1
 10
296.95205438210508
 20
178.94490766197109
 30
0.0
 11
284.95205438210508
 21
178.9449076619718
 31
0.0
  0
LINE
  5
41FA
  8
AM_0
 10
162.84960212222089
 20
196.944907661971
 30
0.0
 11
171.9520543821032
 21
196.944907661971
 31
0.0
  0
ARC
  5
41FB
  8
AM_0
 10
162.84960212222089
 20
186.94490766197109
 30
0.0
 40
10.0
 50
90.0
 51
149.9999999999994
1001
GENIUS_GENOBJ-N-FIL_13
1002
{
1000
OWNER
1000
GEN
1002
}
1001
GENIUS_GENODEF_13
1002
{
1000
HIER
1070
     0
1002
}
1002
{
1000
MANEDIT
1070
     0
1002
}
1002
{
1000
NOSEL
1070
     0
1002
}
1002
{
1000
BEHIND
1070
     0
1002
}
1002
{
1000
OTHER
1070
     0
1002
}
1002
{
1000
REACTOR
1002
}
  0
LINE
  5
41FC
  8
AM_0
 10
165.15900319897941
 20
202.94490766197109
 30
0.0
 11
171.9520543821032
 21
202.94490766197109
 31
0.0
  0
ARC
  5
41FD
  8
AM_0
 10
165.15900319897941
 20
182.94490766197109
 30
0.0
 40
20.0
 50
90.0
 51
149.9999999999994
1001
GENIUS_GENODEF_13
1002
{
1000
HIER
1070
     0
1002
}
1002
{
1000
MANEDIT
1070
     0
1002
}
1002
{
1000
NOSEL
1070
     0
1002
}
1002
{
1000
BEHIND
1070
     0
1002
}
1002
{
1000
OTHER
1070
     0
1002
}
1002
{
1000
REACTOR
1002
}
1001
GENIUS_GENOBJ-N-FIL_13
1002
{
1000
OWNER
1000
GEN
1002
}
  0
LINE
  5
41FE
  8
AM_0
 10
188.82705438210411
 20
193.55485360584709
 30
0.0
 11
188.83776398664929
 21
193.34490766197109
 31
0.0
  0
LINE
  5
41FF
  8
AM_0
 10
188.83776398664929
 20
193.34490766197109
 30
0.0
 11
188.87406937385029
 21
192.6331942880841
 31
0.0
  0
LINE
  5
4200
  8
AM_0
 10
188.82705438210411
 20
197.312185153488
 30
0.0
 11
189.0730806047842
 21
193.34490766197109
 31
0.0
  0
LINE
  5
4201
  8
AM_0
 10
189.54538354613331
 20
193.34490766197109
 30
0.0
 11
189.1498130332092
 21
193.34490766197109
 31
0.0
  0
LINE
  5
4202
  8
AM_0
 10
189.0532205386701
 20
193.27078989523571
 30
0.0
 11
188.8919760406724
 21
192.6690254287075
 31
0.0
  0
LINE
  5
4203
  8
AM_0
 10
189.0730806047842
 20
193.34490766197109
 30
0.0
 11
189.0532205386701
 21
193.27078989523571
 31
0.0
  0
LINE
  5
4204
  8
AM_0
 10
187.32705438210431
 20
190.94490766197109
 30
0.0
 11
187.32705438210431
 21
191.24490766197221
 31
0.0
  0
LINE
  5
4205
  8
AM_0
 10
176.8270543821032
 20
194.44490766197109
 30
0.0
 11
176.8270543821032
 21
194.6124927211072
 31
0.0
  0
LINE
  5
4206
  8
AM_0
 10
176.8270543821032
 20
199.94490766197109
 30
0.0
 11
176.8270543821032
 21
194.62593262956199
 31
0.0
  0
LINE
  5
4207
  8
AM_0
 10
179.56124185509319
 20
191.4449076619689
 30
0.0
 11
179.3270543821003
 21
191.4449076619689
 31
0.0
  0
LINE
  5
4208
  8
AM_0
 10
179.17713121529411
 20
191.62481546213741
 30
0.0
 11
179.3270543821003
 21
191.4449076619689
 31
0.0
  0
LINE
  5
4209
  8
AM_0
 10
176.8270543821032
 20
194.44490766197109
 30
0.0
 11
176.94294374230421
 21
194.30584042973021
 31
0.0
  0
LINE
  5
420A
  8
AM_0
 10
187.32705438210431
 20
191.44490766197211
 30
0.0
 11
188.62705438210421
 21
191.44490766197211
 31
0.0
  0
LINE
  5
420B
  8
AM_0
 10
188.3270543821032
 20
191.41640393060621
 30
0.0
 11
188.32705438210431
 21
191.44490766197211
 31
0.0
  0
LINE
  5
420C
  8
AM_0
 10
179.32705438210121
 20
192.4127164538352
 30
0.0
 11
185.32705438210431
 21
192.4127164538352
 31
0.0
  0
LINE
  5
420D
  8
AM_0
 10
185.32705438210431
 20
191.9127164538352
 30
0.0
 11
179.3270543821003
 21
191.9127164538352
 31
0.0
  0
LINE
  5
420E
  8
AM_0
 10
179.3270543821003
 20
191.9127164538352
 30
0.0
 11
179.8270543821003
 21
191.44490766197109
 31
0.0
  0
LINE
  5
420F
  8
AM_0
 10
179.8270543821003
 20
191.9127164538352
 30
0.0
 11
179.32705438210121
 21
192.4127164538352
 31
0.0
  0
LINE
  5
4210
  8
AM_0
 10
179.32705438210121
 20
193.0836917298042
 30
0.0
 11
179.8270543821003
 21
192.4127164538352
 31
0.0
  0
LINE
  5
4211
  8
AM_0
 10
179.8270543821003
 20
193.13316997048111
 30
0.0
 11
179.32705438210121
 21
193.0836917298042
 31
0.0
  0
LINE
  5
4212
  8
AM_0
 10
185.32705438210431
 20
198.8547138269131
 30
0.0
 11
185.32705438210431
 21
199.94490766197109
 31
0.0
  0
LINE
  5
4213
  8
AM_0
 10
179.3270543821003
 20
198.94490766197109
 30
0.0
 11
185.32705438210431
 21
198.94490766197109
 31
0.0
  0
LINE
  5
4214
  8
AM_0
 10
179.8270543821003
 20
198.2566453534611
 30
0.0
 11
179.3270543821003
 21
198.94490766197109
 31
0.0
  0
LINE
  5
4215
  8
AM_0
 10
179.3270543821003
 20
198.94490766197109
 30
0.0
 11
179.8270543821011
 21
199.44490766197109
 31
0.0
  0
LINE
  5
4216
  8
AM_0
 10
179.32705438210121
 20
199.94490766197109
 30
0.0
 11
179.8270543821011
 21
199.44490766197109
 31
0.0
  0
LINE
  5
4217
  8
AM_0
 10
179.8270543821011
 20
199.44490766197109
 30
0.0
 11
185.32705438210431
 21
199.44490766197109
 31
0.0
  0
LINE
  5
4218
  8
AM_0
 10
179.8270543821003
 20
198.2566453534611
 30
0.0
 11
185.32705438210431
 21
198.2566453534611
 31
0.0
  0
LINE
  5
4219
  8
AM_0
 10
179.8270543821003
 20
193.13316997048111
 30
0.0
 11
185.32705438210431
 21
193.13316997048199
 31
0.0
  0
LINE
  5
421A
  8
AM_0
 10
188.3270543821032
 20
199.49490766197221
 30
0.0
 11
188.32705438210431
 21
199.94490766197109
 31
0.0
  0
LINE
  5
421B
  8
AM_0
 10
187.32705438210431
 20
191.24490766197221
 30
0.0
 11
187.32705438210431
 21
199.9449076619731
 31
0.0
  0
LINE
  5
421C
  8
AM_0
 10
188.0270543821033
 20
192.98740297393911
 30
0.0
 11
187.32705438210431
 21
192.98740297393911
 31
0.0
  0
LINE
  5
421D
  8
AM_0
 10
188.3270543821032
 20
192.2822921166491
 30
0.0
 11
188.3270543821032
 21
192.6874029739391
 31
0.0
  0
LINE
  5
421E
  8
AM_0
 10
187.32705438210431
 20
191.98229211664909
 30
0.0
 11
188.0270543821033
 21
191.98229211664909
 31
0.0
  0
LINE
  5
421F
  8
AM_0
 10
188.0270543821033
 20
196.3610031593401
 30
0.0
 11
187.32705438210431
 21
196.3610031593401
 31
0.0
  0
LINE
  5
4220
  8
AM_0
 10
188.3270543821032
 20
195.2610868930482
 30
0.0
 11
188.3270543821032
 21
196.0610031593402
 31
0.0
  0
LINE
  5
4221
  8
AM_0
 10
187.32705438210431
 20
194.9610868930481
 30
0.0
 11
188.0270543821033
 21
194.9610868930481
 31
0.0
  0
LINE
  5
4222
  8
AM_0
 10
187.32705438210431
 20
199.19490766197109
 30
0.0
 11
188.0270543821033
 21
199.19490766197109
 31
0.0
  0
LINE
  5
4223
  8
AM_0
 10
188.82705438210411
 20
199.94490766197109
 30
0.0
 11
188.82705438210411
 21
191.64490766197201
 31
0.0
  0
LINE
  5
4224
  8
AM_0
 10
185.52705438210319
 20
190.94490766197109
 30
0.0
 11
187.32705438210431
 21
190.94490766197109
 31
0.0
  0
LINE
  5
4225
  8
AM_0
 10
176.94294374230421
 20
194.30584042973021
 30
0.0
 11
179.17713121529411
 21
191.62481546213741
 31
0.0
  0
LINE
  5
4226
  8
AM_0
 10
188.05690549780979
 20
191.1178927735431
 30
0.0
 11
187.32705438210431
 21
191.0449076619721
 31
0.0
  0
LINE
  5
4227
  8
AM_0
 10
185.12705438210409
 20
191.44490766197109
 30
0.0
 11
179.56124185509319
 21
191.4449076619689
 31
0.0
  0
LINE
  5
4228
  8
AM_0
 10
185.32705438210431
 20
198.8547138269131
 30
0.0
 11
185.32705438210431
 21
191.24490766197101
 31
0.0
  0
LINE
  5
4229
  8
AM_0
 10
185.32705438210431
 20
191.24490766197101
 30
0.0
 11
185.3270543821032
 21
191.1449076619711
 31
0.0
  0
LINE
  5
422A
  8
AM_0
 10
192.9520543821032
 20
191.6449076619713
 30
0.0
 11
192.9520543821032
 21
198.2566453534611
 31
0.0
  0
LINE
  5
422B
  8
AM_0
 10
189.45205438210431
 20
199.94490766197109
 30
0.0
 11
189.82480824011429
 21
192.62876931445109
 31
0.0
  0
LINE
  5
422C
  8
AM_0
 10
190.00108975187919
 20
199.94490766197109
 30
0.0
 11
190.3740693738502
 21
192.6331942880841
 31
0.0
  0
LINE
  5
422D
  8
AM_0
 10
189.6419760406724
 20
193.2707898952344
 30
0.0
 11
189.62211597455931
 21
193.34490766197109
 31
0.0
  0
LINE
  5
422E
  8
AM_0
 10
190.5730806047842
 20
193.34490766197109
 30
0.0
 11
190.55322053866999
 21
193.27078989523571
 31
0.0
  0
LINE
  5
422F
  8
AM_0
 10
190.29538354613331
 20
192.59490766197109
 30
0.0
 11
189.8998130332092
 21
192.59490766197109
 31
0.0
  0
LINE
  5
4230
  8
AM_0
 10
189.80322053866999
 20
192.6690254287075
 30
0.0
 11
189.6419760406724
 21
193.2707898952344
 31
0.0
  0
LINE
  5
4231
  8
AM_0
 10
190.55322053866999
 20
193.27078989523571
 30
0.0
 11
190.3919760406724
 21
192.6690254287075
 31
0.0
  0
LINE
  5
4232
  8
AM_0
 10
189.21282444575621
 20
199.94490766197109
 30
0.0
 11
189.62211597455931
 21
193.34490766197109
 31
0.0
  0
LINE
  5
4233
  8
AM_0
 10
190.1637890759813
 20
199.94490766197109
 30
0.0
 11
190.5730806047842
 21
193.34490766197109
 31
0.0
  0
LINE
  5
4234
  8
AM_0
 10
190.6498130332092
 20
193.34490766197109
 30
0.0
 11
192.4520543821032
 21
193.34490766197109
 31
0.0
  0
LINE
  5
4235
  8
AM_0
 10
192.9520543821032
 20
198.2566453534611
 30
0.0
 11
192.9520543821032
 21
199.944907661972
 31
0.0
  0
LINE
  5
4236
  8
AM_0
 10
193.1520543821033
 20
191.44490766197109
 30
0.0
 11
196.75205438210321
 21
191.44490766197109
 31
0.0
  0
LINE
  5
4237
  8
AM_0
 10
196.7520543821033
 20
198.2566453534611
 30
0.0
 11
192.9520543821032
 21
198.2566453534611
 31
0.0
  0
LINE
  5
4238
  8
AM_0
 10
192.9520543821032
 20
193.13316997048199
 30
0.0
 11
196.7520543821033
 21
193.13316997048199
 31
0.0
  0
LINE
  5
4239
  8
AM_0
 10
171.9520543821032
 20
199.94490766197109
 30
0.0
 11
171.9520543821032
 21
195.69490766197109
 31
0.0
  0
LINE
  5
423A
  8
AM_0
 10
176.8270543821032
 20
195.643771298335
 30
0.0
 11
171.9520543821032
 21
195.69490766197109
 31
0.0
  0
LINE
  5
423B
  8
AM_0
 10
171.95205438210331
 20
204.19490766197109
 30
0.0
 11
176.82705438210331
 21
204.24604402560809
 31
0.0
  0
LINE
  5
423C
  8
AM_0
 10
171.95205438210331
 20
204.19490766197109
 30
0.0
 11
171.9520543821032
 21
199.94490766197109
 31
0.0
  0
LINE
  5
423D
  8
AM_0
 10
196.7520543821033
 20
206.75664535346101
 30
0.0
 11
192.95205438210331
 21
206.75664535346101
 31
0.0
  0
LINE
  5
423E
  8
AM_0
 10
192.9520543821032
 20
201.6331699704821
 30
0.0
 11
196.7520543821033
 21
201.6331699704821
 31
0.0
  0
LINE
  5
423F
  8
AM_0
 10
196.7520543821033
 20
208.44490766197109
 30
0.0
 11
193.1520543821033
 21
208.44490766197109
 31
0.0
  0
LINE
  5
4240
  8
AM_0
 10
192.9520543821032
 20
199.944907661972
 30
0.0
 11
192.9520543821032
 21
201.6331699704821
 31
0.0
  0
LINE
  5
4241
  8
AM_0
 10
192.45205438210331
 20
206.54490766197111
 30
0.0
 11
189.90378681052931
 21
206.54490766197111
 31
0.0
  0
LINE
  5
4242
  8
AM_0
 10
189.8270543821032
 20
206.54490766197111
 30
0.0
 11
190.1637890759813
 21
199.94490766197109
 31
0.0
  0
LINE
  5
4243
  8
AM_0
 10
188.87608975187831
 20
206.54490766197111
 30
0.0
 11
189.21282444575621
 21
199.94490766197109
 31
0.0
  0
LINE
  5
4244
  8
AM_0
 10
189.6459498179924
 20
207.22078989523459
 30
0.0
 11
189.8071943159901
 21
206.61902542870769
 31
0.0
  0
LINE
  5
4245
  8
AM_0
 10
188.8959498179924
 20
206.61902542870769
 30
0.0
 11
189.0571943159901
 21
207.22078989523459
 31
0.0
  0
LINE
  5
4246
  8
AM_0
 10
189.15378681052931
 20
207.29490766197111
 30
0.0
 11
189.54935732345331
 21
207.29490766197111
 31
0.0
  0
LINE
  5
4247
  8
AM_0
 10
189.8071943159901
 20
206.61902542870769
 30
0.0
 11
189.8270543821032
 21
206.54490766197111
 31
0.0
  0
LINE
  5
4248
  8
AM_0
 10
188.87608975187831
 20
206.54490766197111
 30
0.0
 11
188.8959498179924
 21
206.61902542870769
 31
0.0
  0
LINE
  5
4249
  8
AM_0
 10
189.6280431511702
 20
207.2566210358581
 30
0.0
 11
190.00108975187919
 21
199.94490766197109
 31
0.0
  0
LINE
  5
424A
  8
AM_0
 10
189.07878201743421
 20
207.26104600949211
 30
0.0
 11
189.45205438210431
 21
199.94490766197109
 31
0.0
  0
LINE
  5
424B
  8
AM_0
 10
192.9520543821032
 20
201.6331699704821
 30
0.0
 11
192.95205438210331
 21
208.24490766197201
 31
0.0
  0
LINE
  5
424C
  8
AM_0
 10
185.32705438210331
 20
208.74490766197221
 30
0.0
 11
185.32705438210431
 21
208.6449076619723
 31
0.0
  0
LINE
  5
424D
  8
AM_0
 10
185.32705438210431
 20
208.6449076619723
 30
0.0
 11
185.32705438210431
 21
201.0351014970301
 31
0.0
  0
LINE
  5
424E
  8
AM_0
 10
179.56124185509319
 20
208.44490766197401
 30
0.0
 11
185.12705438210409
 21
208.44490766197211
 31
0.0
  0
LINE
  5
424F
  8
AM_0
 10
187.32705438210431
 20
208.84490766197121
 30
0.0
 11
188.05690549780991
 21
208.77192255040009
 31
0.0
  0
LINE
  5
4250
  8
AM_0
 10
179.1771312152942
 20
208.2649998618059
 30
0.0
 11
176.94294374230441
 21
205.58397489421321
 31
0.0
  0
LINE
  5
4251
  8
AM_0
 10
187.32705438210431
 20
208.94490766197109
 30
0.0
 11
185.5270543821033
 21
208.94490766197109
 31
0.0
  0
LINE
  5
4252
  8
AM_0
 10
188.82705438210411
 20
208.2449076619711
 30
0.0
 11
188.82705438210411
 21
199.94490766197109
 31
0.0
  0
LINE
  5
4253
  8
AM_0
 10
188.0270543821033
 20
200.69490766197109
 30
0.0
 11
187.32705438210431
 21
200.69490766197109
 31
0.0
  0
LINE
  5
4254
  8
AM_0
 10
188.0270543821033
 20
204.92872843089521
 30
0.0
 11
187.32705438210431
 21
204.92872843089521
 31
0.0
  0
LINE
  5
4255
  8
AM_0
 10
188.32705438210331
 20
203.82881216460319
 30
0.0
 11
188.32705438210331
 21
204.62872843089519
 31
0.0
  0
LINE
  5
4256
  8
AM_0
 10
187.32705438210431
 20
203.52881216460321
 30
0.0
 11
188.0270543821033
 21
203.52881216460321
 31
0.0
  0
LINE
  5
4257
  8
AM_0
 10
188.0270543821033
 20
207.90752320729419
 30
0.0
 11
187.32705438210431
 21
207.90752320729419
 31
0.0
  0
LINE
  5
4258
  8
AM_0
 10
188.32705438210331
 20
207.2024123500041
 30
0.0
 11
188.32705438210331
 21
207.60752320729409
 31
0.0
  0
LINE
  5
4259
  8
AM_0
 10
187.32705438210431
 20
206.9024123500042
 30
0.0
 11
188.0270543821033
 21
206.9024123500042
 31
0.0
  0
LINE
  5
425A
  8
AM_0
 10
187.32705438210431
 20
199.9449076619731
 30
0.0
 11
187.32705438210431
 21
208.6449076619711
 31
0.0
  0
LINE
  5
425B
  8
AM_0
 10
188.32705438210431
 20
199.94490766197109
 30
0.0
 11
188.3270543821032
 21
200.3949076619711
 31
0.0
  0
LINE
  5
425C
  8
AM_0
 10
185.32705438210431
 20
206.75664535346101
 30
0.0
 11
179.8270543821003
 21
206.75664535346101
 31
0.0
  0
LINE
  5
425D
  8
AM_0
 10
185.32705438210431
 20
201.6331699704821
 30
0.0
 11
179.8270543821003
 21
201.63316997048111
 31
0.0
  0
LINE
  5
425E
  8
AM_0
 10
185.32705438210431
 20
200.44490766197109
 30
0.0
 11
179.8270543821011
 21
200.44490766197109
 31
0.0
  0
LINE
  5
425F
  8
AM_0
 10
179.8270543821011
 20
200.44490766197109
 30
0.0
 11
179.32705438210121
 21
199.94490766197109
 31
0.0
  0
LINE
  5
4260
  8
AM_0
 10
179.8270543821011
 20
200.44490766197109
 30
0.0
 11
179.3270543821003
 21
200.94490766197109
 31
0.0
  0
LINE
  5
4261
  8
AM_0
 10
179.3270543821003
 20
200.94490766197109
 30
0.0
 11
179.8270543821003
 21
201.63316997048111
 31
0.0
  0
LINE
  5
4262
  8
AM_0
 10
185.32705438210431
 20
200.94490766197109
 30
0.0
 11
179.3270543821003
 21
200.94490766197109
 31
0.0
  0
LINE
  5
4263
  8
AM_0
 10
185.32705438210431
 20
199.94490766197109
 30
0.0
 11
185.32705438210431
 21
201.0351014970301
 31
0.0
  0
LINE
  5
4264
  8
AM_0
 10
179.3270543821013
 20
206.80612359413919
 30
0.0
 11
179.8270543821003
 21
206.75664535346101
 31
0.0
  0
LINE
  5
4265
  8
AM_0
 10
179.8270543821003
 20
207.47709887010811
 30
0.0
 11
179.3270543821013
 21
206.80612359413919
 31
0.0
  0
LINE
  5
4266
  8
AM_0
 10
179.3270543821013
 20
207.47709887010811
 30
0.0
 11
179.8270543821003
 21
207.97709887010811
 31
0.0
  0
LINE
  5
4267
  8
AM_0
 10
179.8270543821003
 20
208.44490766197109
 30
0.0
 11
179.3270543821003
 21
207.97709887010811
 31
0.0
  0
LINE
  5
4268
  8
AM_0
 10
179.3270543821003
 20
207.97709887010811
 30
0.0
 11
185.32705438210431
 21
207.97709887010811
 31
0.0
  0
LINE
  5
4269
  8
AM_0
 10
185.32705438210431
 20
207.47709887010811
 30
0.0
 11
179.3270543821013
 21
207.47709887010811
 31
0.0
  0
LINE
  5
426A
  8
AM_0
 10
188.32705438210431
 20
208.44490766197109
 30
0.0
 11
188.32705438210331
 21
208.47341139333719
 31
0.0
  0
LINE
  5
426B
  8
AM_0
 10
188.62705438210421
 20
208.44490766197109
 30
0.0
 11
187.32705438210431
 21
208.44490766197109
 31
0.0
  0
LINE
  5
426C
  8
AM_0
 10
176.94294374230441
 20
205.58397489421321
 30
0.0
 11
176.82705438210331
 21
205.44490766197109
 31
0.0
  0
LINE
  5
426D
  8
AM_0
 10
179.3270543821003
 20
208.44490766197401
 30
0.0
 11
179.1771312152942
 21
208.2649998618059
 31
0.0
  0
LINE
  5
426E
  8
AM_0
 10
179.3270543821003
 20
208.44490766197401
 30
0.0
 11
179.56124185509319
 21
208.44490766197401
 31
0.0
  0
LINE
  5
426F
  8
AM_0
 10
176.82705438210331
 20
205.26388269438129
 30
0.0
 11
176.8270543821032
 21
199.94490766197109
 31
0.0
  0
LINE
  5
4270
  8
AM_0
 10
176.82705438210331
 20
205.2773226028352
 30
0.0
 11
176.82705438210331
 21
205.44490766197109
 31
0.0
  0
LINE
  5
4271
  8
AM_0
 10
187.32705438210431
 20
208.6449076619711
 30
0.0
 11
187.32705438210431
 21
208.94490766197109
 31
0.0
  0
ARC
  5
4272
  8
AM_0
 10
189.54538354613331
 20
193.2449076619711
 30
0.0
 40
0.0999999999999643
 50
15.00019500651257
 51
90.0
  0
ARC
  5
4273
  8
AM_0
 10
186.1395543821003
 20
195.69490766197109
 30
0.0
 40
6.8125000000000382
 50
157.91171016505771
 51
202.08828983494229
  0
ARC
  5
4274
  8
AM_0
 10
196.75205438210321
 20
191.24490766197101
 30
0.0
 40
0.1999999999999993
 50
0.0
 51
90.0
  0
ARC
  5
4275
  8
AM_0
 10
196.75205438210321
 20
208.6449076619711
 30
0.0
 40
0.2000000000000028
 50
270.0
 51
0.0
  0
ARC
  5
4276
  8
AM_0
 10
186.1395543821003
 20
204.19490766197109
 30
0.0
 40
6.8125000000000382
 50
157.91171016505771
 51
202.08828983494229
  0
ARC
  5
4277
  8
AM_0
 10
188.79538354613331
 20
192.69490766197109
 30
0.0
 40
0.1000000000000547
 50
288.4639767573006
 51
344.99980499348737
  0
ARC
  5
4278
  8
AM_0
 10
189.1498130332092
 20
193.24490766197221
 30
0.0
 40
0.1000000000000014
 50
90.0
 51
164.9998049934843
  0
ARC
  5
4279
  8
AM_0
 10
179.56124185509319
 20
191.94490766196921
 30
0.0
 40
0.499999999999975
 50
219.8055710921868
 51
270.0
  0
ARC
  5
427A
  8
AM_0
 10
177.3270543821032
 20
194.6259326295621
 30
0.0
 40
0.5
 50
180.00000000000969
 51
219.80557109223059
  0
ARC
  5
427B
  8
AM_0
 10
188.0270543821033
 20
192.6874029739391
 30
0.0
 40
0.3000000000000007
 50
0.0
 51
90.0
  0
ARC
  5
427C
  8
AM_0
 10
188.0270543821033
 20
192.2822921166491
 30
0.0
 40
0.3000000000000043
 50
270.0
 51
0.0
  0
ARC
  5
427D
  8
AM_0
 10
188.0270543821033
 20
196.0610031593402
 30
0.0
 40
0.3000000000000007
 50
0.0
 51
90.0
  0
ARC
  5
427E
  8
AM_0
 10
188.0270543821033
 20
195.2610868930482
 30
0.0
 40
0.2999999999999971
 50
270.0
 51
0.0
  0
ARC
  5
427F
  8
AM_0
 10
188.0270543821033
 20
199.49490766197221
 30
0.0
 40
0.2999999999999971
 50
270.0
 51
0.0
  0
ARC
  5
4280
  8
AM_0
 10
188.0270543821033
 20
191.41640393060621
 30
0.0
 40
0.3000000000000302
 50
275.71059313755637
 51
0.0
  0
ARC
  5
4281
  8
AM_0
 10
185.52705438210319
 20
191.1449076619711
 30
0.0
 40
0.1999999999999993
 50
180.0
 51
270.0
  0
ARC
  5
4282
  8
AM_0
 10
188.62705438210421
 20
191.64490766197221
 30
0.0
 40
0.1999999999999957
 50
270.0
 51
0.0
  0
ARC
  5
4283
  8
AM_0
 10
185.12705438210409
 20
191.2449076619711
 30
0.0
 40
0.1999999999999993
 50
359.99999999997061
 51
90.0
  0
ARC
  5
4284
  8
AM_0
 10
190.6498130332092
 20
193.24490766197209
 30
0.0
 40
0.1000000000000014
 50
90.0
 51
164.9998049934843
  0
ARC
  5
4285
  8
AM_0
 10
190.29538354613331
 20
192.69490766197109
 30
0.0
 40
0.1000000000000014
 50
270.0
 51
344.99980499348737
  0
ARC
  5
4286
  8
AM_0
 10
189.8998130332092
 20
192.69490766197109
 30
0.0
 40
0.1000000000000311
 50
195.00019500644461
 51
270.0
  0
ARC
  5
4287
  8
AM_0
 10
192.4520543821032
 20
192.84490766197109
 30
0.0
 40
0.5
 50
359.99999999997721
 51
90.0
  0
ARC
  5
4288
  8
AM_0
 10
196.75205438210321
 20
198.05664535346111
 30
0.0
 40
0.1999999999999993
 50
0.0
 51
90.0
  0
ARC
  5
4289
  8
AM_0
 10
196.75205438210321
 20
193.33316997048209
 30
0.0
 40
0.2000000000000028
 50
270.0
 51
0.0
  0
ARC
  5
428A
  8
AM_0
 10
193.1520543821033
 20
191.6449076619711
 30
0.0
 40
0.1999999999999993
 50
179.99999999994131
 51
270.0
  0
ARC
  5
428B
  8
AM_0
 10
193.1520543821033
 20
208.24490766197209
 30
0.0
 40
0.2000000000000028
 50
90.0
 51
180.00000000005531
  0
ARC
  5
428C
  8
AM_0
 10
196.75205438210321
 20
206.55664535346111
 30
0.0
 40
0.1999999999999993
 50
0.0
 51
90.0
  0
ARC
  5
428D
  8
AM_0
 10
196.75205438210321
 20
201.83316997048109
 30
0.0
 40
0.2000000000000028
 50
270.0
 51
0.0
  0
ARC
  5
428E
  8
AM_0
 10
192.4520543821032
 20
207.04490766197111
 30
0.0
 40
0.5
 50
270.0
 51
0.0000000000227982
  0
ARC
  5
428F
  8
AM_0
 10
189.15378681052911
 20
207.19490766197109
 30
0.0
 40
0.1000000000000014
 50
90.0
 51
164.99980499355539
  0
ARC
  5
4290
  8
AM_0
 10
189.54935732345311
 20
207.19490766197109
 30
0.0
 40
0.0999999999999608
 50
15.00019500651571
 51
90.0
  0
ARC
  5
4291
  8
AM_0
 10
189.9037868105292
 20
206.6449076619711
 30
0.0
 40
0.0999999999999608
 50
195.00019500651561
 51
270.0
  0
ARC
  5
4292
  8
AM_0
 10
188.79935732345311
 20
206.6449076619711
 30
0.0
 40
0.0999999999999803
 50
286.07948273872381
 51
344.99980499348419
  0
ARC
  5
4293
  8
AM_0
 10
185.12705438210409
 20
208.64490766197221
 30
0.0
 40
0.1999999999999957
 50
270.0
 51
0.000000000029312
  0
ARC
  5
4294
  8
AM_0
 10
188.62705438210421
 20
208.2449076619711
 30
0.0
 40
0.1999999999999993
 50
0.0
 51
90.0
  0
ARC
  5
4295
  8
AM_0
 10
185.52705438210319
 20
208.74490766197221
 30
0.0
 40
0.2000000000000028
 50
90.0
 51
180.0
  0
ARC
  5
4296
  8
AM_0
 10
188.0270543821033
 20
208.47341139333719
 30
0.0
 40
0.3000000000000007
 50
0.0
 51
84.289406862443656
  0
ARC
  5
4297
  8
AM_0
 10
188.0270543821033
 20
200.3949076619711
 30
0.0
 40
0.3000000000000007
 50
0.0
 51
90.0
  0
ARC
  5
4298
  8
AM_0
 10
188.0270543821033
 20
204.62872843089519
 30
0.0
 40
0.3000000000000007
 50
0.0
 51
90.0
  0
ARC
  5
4299
  8
AM_0
 10
188.0270543821033
 20
203.82881216460319
 30
0.0
 40
0.2999999999999971
 50
270.0
 51
0.0
  0
ARC
  5
429A
  8
AM_0
 10
188.0270543821033
 20
207.60752320729409
 30
0.0
 40
0.3000000000000007
 50
0.0
 51
90.0
  0
ARC
  5
429B
  8
AM_0
 10
188.0270543821033
 20
207.20241235000421
 30
0.0
 40
0.3000000000000043
 50
270.0
 51
0.0
  0
ARC
  5
429C
  8
AM_0
 10
177.3270543821032
 20
205.2638826943811
 30
0.0
 40
0.5000000000000059
 50
140.19442890776941
 51
179.99999999998701
  0
ARC
  5
429D
  8
AM_0
 10
179.56124185509319
 20
207.94490766197421
 30
0.0
 40
0.5
 50
90.0
 51
140.19442890781301
  0
LINE
  5
429E
  8
AM_0
 10
197.1520543821033
 20
190.94490766197109
 30
0.0
 11
198.9520543821032
 21
190.94490766197109
 31
0.0
  0
LINE
  5
429F
  8
AM_0
 10
196.9520543821032
 20
191.1449076619711
 30
0.0
 11
196.9520543821032
 21
208.74490766197209
 31
0.0
  0
LINE
  5
42A0
  8
AM_0
 10
198.95205438210331
 20
208.94490766197109
 30
0.0
 11
197.1520543821033
 21
208.94490766197109
 31
0.0
  0
ARC
  5
42A1
  8
AM_0
 10
197.1520543821033
 20
191.1449076619711
 30
0.0
 40
0.1999999999999993
 50
180.0
 51
270.0
  0
ARC
  5
42A2
  8
AM_0
 10
197.1520543821033
 20
208.74490766197209
 30
0.0
 40
0.2000000000000028
 50
90.0
 51
180.0
  0
LINE
  5
42A3
  8
ﾁｭｳｼﾝｾﾝ1
 10
168.9520543821032
 20
234.94490766197109
 30
0.0
 11
202.2500005205936
 21
234.94490766197109
 31
0.0
  0
POLYLINE
  5
42A4
  8
AM_0
 66
     1
 10
0.0
 20
0.0
 30
0.0
  0
VERTEX
  5
42A5
  8
AM_0
  6
CONTINUOUS
 10
193.31530012879591
 20
222.9449076619712
 30
0.0
  0
VERTEX
  5
42A6
  8
AM_0
  6
CONTINUOUS
 10
193.32022438210331
 20
216.21243066197121
 30
0.0
 42
-1.0
  0
SEQEND
  5
42A7
  8
AM_0
  0
LINE
  5
42A8
  8
AM_0
 10
198.9520543821032
 20
215.9449086619712
 30
0.0
 11
193.31746438210311
 21
215.9449086619712
 31
0.0
  0
LINE
  5
42A9
  8
AM_0
 10
198.9520543821032
 20
213.94490766197109
 30
0.0
 11
193.31746438210311
 21
213.9449076619712
 31
0.0
  0
ARC
  5
42AA
  8
AM_0
 10
192.22096438210309
 20
214.9410006619712
 30
0.0
 40
1.26892095
 50
90.000003000000945
 51
270.0
  0
ARC
  5
42AB
  8
AM_0
 10
193.50142438210301
 20
214.94490666197129
 30
0.0
 40
1.0000000199999981
 50
90.000003000000945
 51
270.0
  0
LINE
  5
42AC
  8
AM_0
 10
192.22096438210309
 20
216.20992266197129
 30
0.0
 11
198.9520543821032
 21
216.20992266197129
 31
0.0
  0
LINE
  5
42AD
  8
AM_0
 10
192.22096438210309
 20
213.67207866197111
 30
0.0
 11
198.9520543821032
 21
213.67207866197111
 31
0.0
  0
POLYLINE
  5
42AE
  8
AM_0
 66
     1
 10
0.0
 20
0.0
 30
0.0
  0
VERTEX
  5
42AF
  8
AM_0
 10
193.36081438210309
 20
213.67557666197129
 30
0.0
  0
VERTEX
  5
42B0
  8
AM_0
 10
193.57158542701021
 20
208.44490766197109
 30
0.0
 42
-1.0
  0
SEQEND
  5
42B1
  8
AM_0
  0
LINE
  5
42B2
  8
AM_0
 10
175.452064382104
 20
272.006311170743
 30
0.0
 11
175.4520643821038
 21
245.94490766197131
 31
0.0
  0
LINE
  5
42B3
  8
AM_0
 10
166.4520643821032
 20
273.94490766197111
 30
0.0
 11
166.45206438210309
 21
202.94490766197109
 31
0.0
  0
LINE
  5
42B4
  8
AM_0
 10
166.4520643821032
 20
196.944907661971
 30
0.0
 11
166.4520643821032
 21
165.94490766197109
 31
0.0
  0
LINE
  5
42B5
  8
AM_0
 10
166.4520643821032
 20
273.94490766197111
 30
0.0
 11
183.45206438210309
 21
272.94490766197111
 31
0.0
  0
LINE
  5
42B6
  8
AM_0
 10
166.4520643821032
 20
165.94490766197109
 30
0.0
 11
183.45206438210309
 21
166.94490766197109
 31
0.0
  0
LINE
  5
42B7
  8
AM_0
 10
175.45206438210391
 20
263.5388108600626
 30
0.0
 11
183.45206438210309
 21
263.5388108600626
 31
0.0
  0
LINE
  5
42B8
  8
AM_0
 10
175.452064382104
 20
272.006311170743
 30
0.0
 11
183.45206438210309
 21
272.006311170743
 31
0.0
  0
LINE
  5
42B9
  8
AM_0
 10
171.95206438210391
 20
254.5857806272312
 30
0.0
 11
175.45206438210391
 21
254.5857806272312
 31
0.0
  0
LINE
  5
42BA
  8
AM_0
 10
171.95206438210391
 20
263.0857806272312
 30
0.0
 11
175.45206438210391
 21
263.0857806272312
 31
0.0
  0
LINE
  5
42BB
  8
AM_0
 10
171.45206438210391
 20
262.5857806272312
 30
0.0
 11
171.45206438210391
 21
255.0857806272312
 31
0.0
  0
ARC
  5
42BC
  8
AM_0
 10
171.95206438210391
 20
262.5857806272312
 30
0.0
 40
0.5
 50
90.0
 51
180.0
  0
ARC
  5
42BD
  8
AM_0
 10
171.95206438210391
 20
255.0857806272312
 30
0.0
 40
0.5
 50
180.0
 51
270.0
  0
LINE
  5
42BE
  8
AM_0
 10
166.4520643821032
 20
262.21710215511132
 30
0.0
 11
171.45206438210391
 21
262.21710215511132
 31
0.0
  0
LINE
  5
42BF
  8
AM_0
 10
166.4520643821032
 20
252.4820196568154
 30
0.0
 11
175.4520643821038
 21
252.48201965681531
 31
0.0
  0
LINE
  5
42C0
  8
AM_0
 10
175.452064382104
 20
167.88350415319911
 30
0.0
 11
175.4520643821038
 21
195.65819427036291
 31
0.0
  0
LINE
  5
42C1
  8
AM_0
 10
175.45206438210391
 20
176.3510044638796
 30
0.0
 11
183.45206438210309
 21
176.35100446387969
 31
0.0
  0
LINE
  5
42C2
  8
AM_0
 10
175.452064382104
 20
167.88350415319911
 30
0.0
 11
183.45206438210309
 21
167.88350415319911
 31
0.0
  0
LINE
  5
42C3
  8
AM_0
 10
171.95206438210391
 20
185.304034696711
 30
0.0
 11
175.45206438210391
 21
185.304034696711
 31
0.0
  0
LINE
  5
42C4
  8
AM_0
 10
171.95206438210391
 20
176.804034696711
 30
0.0
 11
175.45206438210391
 21
176.804034696711
 31
0.0
  0
LINE
  5
42C5
  8
AM_0
 10
171.45206438210391
 20
177.304034696711
 30
0.0
 11
171.45206438210391
 21
184.804034696711
 31
0.0
  0
ARC
  5
42C6
  8
AM_0
 10
171.95206438210391
 20
177.304034696711
 30
0.0
 40
0.5
 50
180.0
 51
270.0
  0
ARC
  5
42C7
  8
AM_0
 10
171.95206438210391
 20
184.804034696711
 30
0.0
 40
0.5
 50
90.0
 51
180.0
  0
LINE
  5
42C8
  8
AM_0
 10
166.4520643821032
 20
177.67271316883091
 30
0.0
 11
171.45206438210391
 21
177.67271316883091
 31
0.0
  0
LINE
  5
42C9
  8
AM_0
 10
166.4520643821032
 20
187.40779566712681
 30
0.0
 11
175.4520643821038
 21
187.40779566712689
 31
0.0
  0
LINE
  5
42CA
  8
AM_0
 10
131.54147963076741
 20
255.93531850689729
 30
0.0
 11
131.54147963076741
 21
249.42371360793831
 31
0.0
  0
LINE
  5
42CB
  8
AM_0
 10
128.4520643821028
 20
208.94490766197109
 30
0.0
 11
128.4520643821028
 21
203.44490766197109
 31
0.0
  0
LINE
  5
42CC
  8
AM_0
 10
133.9520643821028
 20
216.44490766197109
 30
0.0
 11
133.9520643821028
 21
223.4449076619708
 31
0.0
  0
LINE
  5
42CD
  8
AM_0
 10
145.65206438210299
 20
203.44490766197109
 30
0.0
 11
128.4520643821028
 21
203.44490766197109
 31
0.0
  0
LINE
  5
42CE
  8
AM_0
 10
160.4520643821028
 20
165.94490766197109
 30
0.0
 11
160.452064382103
 21
196.6532449441585
 31
0.0
  0
LINE
  5
42CF
  8
AM_0
 10
160.4520643821028
 20
202.3831361556939
 30
0.0
 11
160.4520643821028
 21
273.94490766197111
 31
0.0
  0
LINE
  5
42D0
  8
AM_0
 10
128.4520643821028
 20
218.44490766197109
 30
0.0
 11
129.3520643821029
 21
218.44490766197109
 31
0.0
  0
LINE
  5
42D1
  8
AM_0
 10
145.9520643821028
 20
211.44490766197109
 30
0.0
 11
145.9520643821028
 21
214.02941734657509
 31
0.0
  0
LINE
  5
42D2
  8
AM_0
 10
126.2520643821027
 20
221.44490766197109
 30
0.0
 11
126.2520643821027
 21
218.44490766197109
 31
0.0
  0
LINE
  5
42D3
  8
AM_0
 10
129.3520643821029
 20
218.17255592738749
 30
0.0
 11
129.35206438210301
 21
221.71725939655479
 31
0.0
  0
LINE
  5
42D4
  8
AM_0
 10
125.9520643821029
 20
221.1449076619711
 30
0.0
 11
129.35206438210301
 21
221.1449076619711
 31
0.0
  0
LINE
  5
42D5
  8
AM_0
 10
133.3520643821029
 20
217.56333780156399
 30
0.0
 11
133.3520643821029
 21
216.44490766197109
 31
0.0
  0
LINE
  5
42D6
  8
AM_0
 10
133.3520643821029
 20
218.44490766197109
 30
0.0
 11
133.3520643821029
 21
218.34490766197109
 31
0.0
  0
LINE
  5
42D7
  8
AM_0
 10
133.3520643821029
 20
218.34490766197109
 30
0.0
 11
133.3520643821029
 21
217.56333780156399
 31
0.0
  0
LINE
  5
42D8
  8
AM_0
 10
128.4520643821028
 20
203.44490766197109
 30
0.0
 11
128.4520643821028
 21
195.20737365254871
 31
0.0
  0
LINE
  5
42D9
  8
AM_0
 10
145.80561777269619
 20
214.38297073716839
 30
0.0
 11
145.45055064650799
 21
214.73803786335671
 31
0.0
  0
LINE
  5
42DA
  8
AM_0
 10
128.4520643821028
 20
221.44490766197109
 30
0.0
 11
128.4520643821028
 21
244.68244167139329
 31
0.0
  0
LINE
  5
42DB
  8
AM_0
 10
160.4520643821028
 20
264.94490766197117
 30
0.0
 11
136.6820556814703
 21
264.94490766197111
 31
0.0
  0
LINE
  5
42DC
  8
AM_0
 10
128.4520643821028
 20
209.87131083769231
 30
0.0
 11
128.4520643821028
 21
218.44490766197109
 31
0.0
  0
LINE
  5
42DD
  8
AM_0
 10
166.4520643821032
 20
273.94490766197111
 30
0.0
 11
160.4520643821028
 21
273.94490766197111
 31
0.0
  0
LINE
  5
42DE
  8
AM_0
 10
160.4520643821028
 20
165.94490766197109
 30
0.0
 11
166.4520643821028
 21
165.94490766197109
 31
0.0
  0
LINE
  5
42DF
  8
AM_0
 10
160.4520643821028
 20
174.94490766197109
 30
0.0
 11
150.9520643821028
 21
174.94490766197109
 31
0.0
  0
LINE
  5
42E0
  8
AM_0
 10
128.4976411230663
 20
245.20338620439421
 30
0.0
 11
131.0670845707285
 21
259.77542411565798
 31
0.0
  0
LINE
  5
42E1
  8
AM_0
 10
128.4520643821028
 20
209.87131083769231
 30
0.0
 11
128.4520643821028
 21
208.94490766197109
 31
0.0
  0
LINE
  5
42E2
  8
AM_0
 10
150.9520643821028
 20
175.01353011235699
 30
0.0
 11
148.38927708320591
 21
175.01353011235699
 31
0.0
  0
LINE
  5
42E3
  8
AM_0
 10
134.49590288980411
 20
174.94490766197109
 30
0.0
 11
135.4520643821028
 21
174.94490766197109
 31
0.0
  0
LINE
  5
42E4
  8
AM_0
 10
128.4976411230663
 20
194.686429119548
 30
0.0
 11
131.54147963076741
 21
177.42396312897031
 31
0.0
  0
LINE
  5
42E5
  8
AM_0
 10
128.4520643821028
 20
194.94490766197109
 30
0.0
 11
128.4976411230663
 21
194.686429119548
 31
0.0
  0
LINE
  5
42E6
  8
AM_0
 10
128.4520643821028
 20
195.20737365254871
 30
0.0
 11
128.4520643821028
 21
194.94490766197109
 31
0.0
  0
LINE
  5
42E7
  8
AM_0
 10
139.50206438210299
 20
190.9438512735988
 30
0.0
 11
144.40206438210299
 21
190.9438512735988
 31
0.0
  0
LINE
  5
42E8
  8
AM_0
 10
139.50206438210299
 20
189.7308309551664
 30
0.0
 11
144.40206438210299
 21
189.7308309551664
 31
0.0
  0
LINE
  5
42E9
  8
AM_0
 10
138.7020643821028
 20
190.1438512735991
 30
0.0
 11
138.7020643821028
 21
184.5027198531524
 31
0.0
  0
LINE
  5
42EA
  8
AM_0
 10
138.7020643821028
 20
182.67131398422001
 30
0.0
 11
138.7020643821028
 21
184.5027198531524
 31
0.0
  0
LINE
  5
42EB
  8
AM_0
 10
134.8520643821029
 20
175.98161732429691
 30
0.0
 11
134.8520643821029
 21
182.6041817024238
 31
0.0
  0
LINE
  5
42EC
  8
AM_0
 10
145.2020643821028
 20
190.1438512735991
 30
0.0
 11
145.2020643821028
 21
188.37847566759751
 31
0.0
  0
LINE
  5
42ED
  8
AM_0
 10
149.05206438210291
 20
182.6041817024238
 30
0.0
 11
149.05206438210291
 21
175.98161732429691
 31
0.0
  0
LINE
  5
42EE
  8
AM_0
 10
140.58722898087669
 20
180.38534628410611
 30
0.0
 11
135.4520643821028
 21
178.59533102888179
 31
0.0
  0
LINE
  5
42EF
  8
AM_0
 10
148.4520643821028
 20
178.59533102888179
 30
0.0
 11
146.81202815595699
 21
179.1670147222579
 31
0.0
  0
LINE
  5
42F0
  8
AM_0
 10
139.44169097673
 20
178.401216258923
 30
0.0
 11
135.4520643821028
 21
177.0105125473541
 31
0.0
  0
LINE
  5
42F1
  8
AM_0
 10
148.4520643821028
 20
177.0105125473541
 30
0.0
 11
146.05032716693361
 21
177.84770990909391
 31
0.0
  0
LINE
  5
42F2
  8
AM_0
 10
148.4520643821028
 20
178.59533102888179
 30
0.0
 11
148.4520643821028
 21
175.72618988003691
 31
0.0
  0
LINE
  5
42F3
  8
AM_0
 10
148.4520643821028
 20
175.72618988003691
 30
0.0
 11
148.4520643821028
 21
173.7069472619163
 31
0.0
  0
LINE
  5
42F4
  8
AM_0
 10
141.95202212027681
 20
171.44116306270061
 30
0.0
 11
148.4520643821028
 21
173.7069472619163
 31
0.0
  0
LINE
  5
42F5
  8
AM_0
 10
135.4520643821028
 20
173.7069472619163
 30
0.0
 11
135.4520643821028
 21
175.72618988003691
 31
0.0
  0
LINE
  5
42F6
  8
AM_0
 10
135.4520643821028
 20
173.7069472619163
 30
0.0
 11
141.95202212027681
 21
171.4411925259484
 31
0.0
  0
LINE
  5
42F7
  8
AM_0
 10
135.4520643821028
 20
175.72618988003691
 30
0.0
 11
135.4520643821028
 21
178.59533102888179
 31
0.0
  0
LINE
  5
42F8
  8
AM_0
 10
127.952025714096
 20
273.44490766197111
 30
0.0
 11
127.9520032616974
 21
300.44490766197111
 31
0.0
  0
LINE
  5
42F9
  8
AM_0
 10
127.9520032616974
 20
300.44490766197111
 30
0.0
 11
135.95200326170001
 21
300.44490766197111
 31
0.0
  0
LINE
  5
42FA
  8
AM_0
 10
135.95200326170001
 20
300.44490766197111
 30
0.0
 11
137.4519986065209
 21
306.04296649995968
 31
0.0
  0
LINE
  5
42FB
  8
AM_0
 10
137.4519986065209
 20
306.04296649995968
 30
0.0
 11
137.45198384316041
 21
323.79655877984999
 31
0.0
  0
LINE
  5
42FC
  8
AM_0
 10
127.9520032616974
 20
300.44490766197111
 30
0.0
 11
126.4519986064883
 21
306.04300124680088
 31
0.0
  0
LINE
  5
42FD
  8
AM_0
 10
126.4519986064883
 20
306.04300124680088
 30
0.0
 11
126.4519838431644
 21
323.79654963257661
 31
0.0
  0
LINE
  5
42FE
  8
AM_0
 10
131.9520257140974
 20
323.79654963257661
 30
0.0
 11
131.9520257140974
 21
306.04300124680088
 31
0.0
  0
LINE
  5
42FF
  8
AM_0
 10
135.95200326170001
 20
300.44490766197111
 30
0.0
 11
135.9520257140988
 21
273.44490766197111
 31
0.0
  0
LINE
  5
4300
  8
AM_0
 10
145.952064382103
 20
249.42371360793831
 30
0.0
 11
145.9520643821028
 21
203.7449076619711
 31
0.0
  0
LINE
  5
4301
  8
AM_0
 10
133.9520643821028
 20
214.02941734657509
 30
0.0
 11
133.9520643821028
 21
211.44490766197109
 31
0.0
  0
LINE
  5
4302
  8
AM_0
 10
134.45357811769799
 20
214.73803786335671
 30
0.0
 11
134.09851099150981
 21
214.38297073716839
 31
0.0
  0
LINE
  5
4303
  8
AM_0
 10
145.4520643821028
 20
210.94490766197109
 30
0.0
 11
134.4520643821028
 21
210.94490766197109
 31
0.0
  0
LINE
  5
4304
  8
AM_0
 10
125.452026545602
 20
272.44490225676401
 30
0.0
 11
125.45205357163741
 21
267.44490225676412
 31
0.0
  0
LINE
  5
4305
  8
AM_0
 10
138.4520265457335
 20
272.44491306717828
 30
0.0
 11
138.45205247355321
 21
267.64809041380749
 31
0.0
  0
LINE
  5
4306
  8
AM_0
 10
129.07256763418391
 20
265.44490766197111
 30
0.0
 11
128.5010057328185
 21
266.10149148403138
 31
0.0
  0
LINE
  5
4307
  8
AM_0
 10
126.4520535716229
 20
266.44490766197111
 30
0.0
 11
137.45205247355321
 21
266.44490766197111
 31
0.0
  0
LINE
  5
4308
  8
AM_0
 10
138.45205247355321
 20
267.64809041380749
 30
0.0
 11
138.45205247355321
 21
267.44490766197111
 31
0.0
  0
LINE
  5
4309
  8
AM_0
 10
138.45205247355321
 20
267.64809041380749
 30
0.0
 11
138.452053571769
 21
267.44491306717811
 31
0.0
  0
LINE
  5
430A
  8
AM_0
 10
126.4520265455874
 20
273.44490766197111
 30
0.0
 11
137.4520265457482
 21
273.44490766197111
 31
0.0
  0
LINE
  5
430B
  8
AM_0
 10
136.45950034426511
 20
265.47549473225649
 30
0.0
 11
143.5823000776106
 21
248.49425541350979
 31
0.0
  0
LINE
  5
430C
  8
AM_0
 10
129.07256763418391
 20
265.44490766197111
 30
0.0
 11
135.64928270949409
 21
246.7503670315688
 31
0.0
  0
LINE
  5
430D
  8
AM_0
 10
133.3520643821029
 20
218.44490766197109
 30
0.0
 11
133.3520643821029
 21
218.34490766197109
 31
0.0
  0
LINE
  5
430E
  8
AM_0
 10
133.3520643821029
 20
218.34490766197109
 30
0.0
 11
133.3520643821029
 21
217.56333780156399
 31
0.0
  0
LINE
  5
430F
  8
AM_0
 10
133.3520643821029
 20
216.44490766197109
 30
0.0
 11
133.9520643821028
 21
216.44490766197109
 31
0.0
  0
LINE
  5
4310
  8
AM_0
 10
130.65206438210299
 20
217.56333780156399
 30
0.0
 11
130.65206438210299
 21
222.32647752237821
 31
0.0
  0
LINE
  5
4311
  8
AM_0
 10
130.49102015284541
 20
217.27664617322091
 30
0.0
 11
129.55846710333819
 21
217.81505592738759
 31
0.0
  0
LINE
  5
4312
  8
AM_0
 10
133.3520643821029
 20
223.4449076619708
 30
0.0
 11
133.3520643821029
 21
218.44490766197109
 31
0.0
  0
LINE
  5
4313
  8
AM_0
 10
130.9245159741335
 20
216.7694811814282
 30
0.0
 11
133.07961279007219
 21
216.7694811814282
 31
0.0
  0
LINE
  5
4314
  8
AM_0
 10
130.9245159741335
 20
218.35719442169969
 30
0.0
 11
133.07961279007219
 21
218.3571944216998
 31
0.0
  0
LINE
  5
4315
  8
AM_0
 10
129.35206438210301
 20
221.44490766197109
 30
0.0
 11
126.2520643821027
 21
221.44490766197109
 31
0.0
  0
LINE
  5
4316
  8
AM_0
 10
126.2520643821027
 20
221.44490766197109
 30
0.0
 11
125.9520643821029
 21
221.1449076619711
 31
0.0
  0
LINE
  5
4317
  8
AM_0
 10
125.9520643821029
 20
221.1449076619711
 30
0.0
 11
125.9520643821028
 21
218.74490766197101
 31
0.0
  0
LINE
  5
4318
  8
AM_0
 10
126.2520643821027
 20
218.44490766197109
 30
0.0
 11
128.4520643821028
 21
218.44490766197109
 31
0.0
  0
LINE
  5
4319
  8
AM_0
 10
125.9520643821029
 20
218.74490766197101
 30
0.0
 11
126.2520643821027
 21
218.44490766197109
 31
0.0
  0
LINE
  5
431A
  8
AM_0
 10
129.3520643821029
 20
218.74490766197101
 30
0.0
 11
125.9520643821029
 21
218.74490766197101
 31
0.0
  0
ARC
  5
431B
  8
AM_0
 10
127.9520643821029
 20
219.94490766197109
 30
0.0
 40
18.000000000000082
 50
344.79096035988943
 51
15.209039640107409
  0
ARC
  5
431C
  8
AM_0
 10
132.05928756607639
 20
217.56333780156399
 30
0.0
 40
1.292776816026465
 50
322.11555894630482
 51
0.0
  0
ARC
  5
431D
  8
AM_0
 10
151.9520643821028
 20
219.94490766197109
 30
0.0
 40
17.999999999999918
 50
164.7909603598894
 51
195.20903964011049
  0
ARC
  5
431E
  8
AM_0
 10
139.25587723317139
 20
176.6953197556366
 30
0.0
 40
6.001601094213977
 50
95.294644622325137
 51
137.2036378052704
  0
ARC
  5
431F
  8
AM_0
 10
139.25587723317139
 20
178.52672562456939
 30
0.0
 40
6.0016010942139619
 50
95.294644622325137
 51
137.2036378052704
  0
ARC
  5
4320
  8
AM_0
 10
135.72179606730001
 20
177.19220541272071
 30
0.0
 40
1.4906229315522701
 50
234.30512237790029
 51
259.57476505017542
  0
ARC
  5
4321
  8
AM_0
 10
144.64825153103459
 20
178.52672562456939
 30
0.0
 40
6.0016010942138749
 50
42.796362194729539
 51
44.995924864879747
  0
ARC
  5
4322
  8
AM_0
 10
144.64825153103459
 20
176.6953197556366
 30
0.0
 40
6.0016010942138749
 50
42.796362194729539
 51
53.897278316401717
  0
ARC
  5
4323
  8
AM_0
 10
148.18233269690589
 20
177.19220541272071
 30
0.0
 40
1.490622931552253
 50
280.42523494982129
 51
305.69487762209508
  0
ARC
  5
4324
  8
AM_0
 10
131.95199078814369
 20
315.44490766197111
 30
0.0
 40
10.0
 50
56.63303467623782
 51
123.3670606147022
  0
ARC
  5
4325
  8
AM_0
 10
129.20200477863079
 20
319.36390127297068
 30
0.0
 40
5.2164151124522951
 50
58.18448044842868
 51
121.8155195515713
  0
ARC
  5
4326
  8
AM_0
 10
134.70201215226541
 20
319.36302638221059
 30
0.0
 40
5.2171403873810611
 50
58.190058295973543
 51
121.81013228735971
  0
ARC
  5
4327
  8
AM_0
 10
129.2020121602929
 20
307.41095526114378
 30
0.0
 40
3.0714610092699122
 50
206.44737672421749
 51
333.55262327578248
  0
ARC
  5
4328
  8
AM_0
 10
134.7020207916641
 20
307.4092150564486
 30
0.0
 40
3.070669812974502
 50
206.41845794673139
 51
333.58081810520707
  0
ARC
  5
4329
  8
AM_0
 10
135.41449425816259
 20
219.94490766197109
 30
0.0
 40
4.762429876059711
 50
160.52575999458611
 51
199.4742400054138
  0
ARC
  5
432A
  8
AM_0
 10
131.9448411981295
 20
217.56333780156399
 30
0.0
 40
1.2927768160265549
 50
142.11555894629771
 51
217.8844410536951
  0
ARC
  5
432B
  8
AM_0
 10
128.58963450604341
 20
219.94490766197109
 30
0.0
 40
4.762429876059584
 50
340.52575999458628
 51
19.474240005409651
  0
ARC
  5
432C
  8
AM_0
 10
132.05928756607639
 20
217.56333780156399
 30
0.0
 40
1.2927768160265021
 50
0.0
 51
37.884441053702282
  0
ARC
  5
432D
  8
AM_0
 10
141.6846125393993
 20
185.0200128365577
 30
8206336.7530117426
 40
12.9134744604336
 50
271.18655406403752
 51
287.92670513354841
  0
LINE
  5
432E
  8
AM_0
 10
145.6593814687979
 20
172.7334740807421
 30
8206336.7530117426
 11
146.07196223599911
 21
172.88671576613481
 31
8206336.7530117426
  0
LINE
  5
432F
  8
AM_0
 10
146.07196223599911
 20
172.88671576613481
 30
8206336.7530117426
 11
146.47445398025559
 21
173.0656851288405
 31
8206336.7530117426
  0
ARC
  5
4330
  8
AM_0
 10
143.97069233949969
 20
178.3504856925629
 30
8206336.7530117426
 40
5.8479004225482907
 50
295.35002817212489
 51
303.5670510400584
  0
LINE
  5
4331
  8
AM_0
 10
147.20406941550959
 20
173.47778500030051
 30
8206336.7530117426
 11
147.51861229476091
 21
173.71005845547111
 31
8206336.7530117426
  0
LINE
  5
4332
  8
AM_0
 10
147.51861229476091
 20
173.71005845547111
 30
8206336.7530117426
 11
147.80780144295809
 21
173.97292933150979
 31
8206336.7530117426
  0
ARC
  5
4333
  8
AM_0
 10
145.92891847958009
 20
175.83861372171711
 30
8206336.7530117426
 40
2.6478254160605781
 50
315.20195107610522
 51
327.6690874537353
  0
LINE
  5
4334
  8
AM_0
 10
148.16626055942589
 20
174.42253468024819
 30
8206336.7530117426
 11
148.29517651570529
 21
174.6620664454843
 31
8206336.7530117426
  0
LINE
  5
4335
  8
AM_0
 10
148.29517651570529
 20
174.6620664454843
 30
8206336.7530117426
 11
148.38927708320591
 21
174.91672543396871
 31
8206336.7530117426
  0
ARC
  5
4336
  8
AM_0
 10
146.79045684425699
 20
175.37181409857189
 30
8206336.7530117426
 40
1.6623272388802151
 50
344.11151119415172
 51
352.55958186686092
  0
LINE
  5
4337
  8
AM_0
 10
148.43878738658481
 20
175.15655083567719
 30
8206336.7530117426
 11
148.4486920510258
 21
175.25741658939791
 31
8206336.7530117426
  0
LINE
  5
4338
  8
AM_0
 10
148.4486920510258
 20
175.25741658939791
 30
8206336.7530117426
 11
148.4520643821028
 21
175.35871530313679
 31
8206336.7530117426
  0
ARC
  5
4339
  8
AM_0
 10
146.8569709634335
 20
175.3557391516386
 30
8206336.7530117426
 40
1.5950961951431459
 50
0.1069032823798393
 51
11.47976002760999
  0
LINE
  5
433A
  8
AM_0
 10
148.42015737249201
 20
175.6731980029802
 30
8206336.7530117426
 11
148.37952546230679
 21
175.83377187850459
 31
8206336.7530117426
  0
LINE
  5
433B
  8
AM_0
 10
148.37952546230679
 20
175.83377187850459
 30
8206336.7530117426
 11
148.3238853977731
 21
175.98974017192731
 31
8206336.7530117426
  0
ARC
  5
433C
  8
AM_0
 10
146.4484111041194
 20
175.2143573905424
 30
8206336.7530117426
 40
2.029438908620818
 50
22.461811304460369
 51
32.14428943578929
  0
LINE
  5
433D
  8
AM_0
 10
148.1667591471161
 20
176.29412694324941
 30
8206336.7530117426
 11
148.04447040058159
 21
176.4714375359714
 31
8206336.7530117426
  0
LINE
  5
433E
  8
AM_0
 10
148.04447040058159
 20
176.4714375359714
 30
8206336.7530117426
 11
147.9076168002434
 21
176.63781945836089
 31
8206336.7530117426
  0
ARC
  5
433F
  8
AM_0
 10
145.4094588140596
 20
174.39480777254821
 30
8206336.7530117426
 40
3.357364255874967
 50
41.919595935556771
 51
50.918621528346122
  0
LINE
  5
4340
  8
AM_0
 10
147.5260203190669
 20
177.00096627543081
 30
8206336.7530117426
 11
147.10688170166679
 21
177.3036627530565
 31
8206336.7530117426
  0
LINE
  5
4341
  8
AM_0
 10
147.10688170166679
 20
177.3036627530565
 30
8206336.7530117426
 11
146.65772802176929
 21
177.56101445431111
 31
8206336.7530117426
  0
ARC
  5
4342
  8
AM_0
 10
143.32650233874159
 20
171.03340416004161
 30
8206336.7530117426
 40
7.3284896605723491
 50
62.963482965306312
 51
68.223671679105692
  0
ARC
  5
4343
  8
AM_0
 10
142.2195162248222
 20
185.02001283661079
 30
8206336.7530117426
 40
12.91347446048893
 50
252.0732948664546
 51
268.81307083254762
  0
LINE
  5
4344
  8
AM_0
 10
138.24474729540799
 20
172.7334740807421
 30
8206336.7530117426
 11
137.83216652820681
 21
172.88671576613481
 31
8206336.7530117426
  0
LINE
  5
4345
  8
AM_0
 10
137.83216652820681
 20
172.88671576613481
 30
8206336.7530117426
 11
137.42967478395019
 21
173.0656851288405
 31
8206336.7530117426
  0
ARC
  5
4346
  8
AM_0
 10
139.933436424711
 20
178.3504856925716
 30
8206336.7530117426
 40
5.8479004225582409
 50
236.43294895995061
 51
244.649971827868
  0
LINE
  5
4347
  8
AM_0
 10
136.70005934869619
 20
173.47778500030051
 30
8206336.7530117426
 11
136.38551646944509
 21
173.71005845547111
 31
8206336.7530117426
  0
LINE
  5
4348
  8
AM_0
 10
136.38551646944509
 20
173.71005845547111
 30
8206336.7530117426
 11
136.0963273212476
 21
173.97292933150979
 31
8206336.7530117426
  0
ARC
  5
4349
  8
AM_0
 10
137.9752102846256
 20
175.83861372171651
 30
8206336.7530117426
 40
2.6478254160599781
 50
212.3309125462558
 51
224.79804892389021
  0
LINE
  5
434A
  8
AM_0
 10
135.73786820478011
 20
174.42253468024819
 30
8206336.7530117426
 11
135.6089522485008
 21
174.6620664454843
 31
8206336.7530117426
  0
LINE
  5
434B
  8
AM_0
 10
135.6089522485008
 20
174.6620664454843
 30
8206336.7530117426
 11
135.51485168100001
 21
174.91672543396871
 31
8206336.7530117426
  0
ARC
  5
434C
  8
AM_0
 10
137.1136719199786
 20
175.37181409857851
 30
8206336.7530117426
 40
1.6623272389105701
 50
187.4404181332275
 51
195.8884888057874
  0
LINE
  5
434D
  8
AM_0
 10
135.465341377621
 20
175.15655083567719
 30
8206336.7530117426
 11
135.45543671318001
 21
175.25741658939791
 31
8206336.7530117426
  0
LINE
  5
434E
  8
AM_0
 10
135.45543671318001
 20
175.25741658939791
 30
8206336.7530117426
 11
135.4520643821028
 21
175.35871530313679
 31
8206336.7530117426
  0
ARC
  5
434F
  8
AM_0
 10
137.0471578007695
 20
175.3557391516386
 30
8206336.7530117426
 40
1.5950961951403351
 50
168.52023997237021
 51
179.8930967176201
  0
LINE
  5
4350
  8
AM_0
 10
135.48397139171391
 20
175.6731980029802
 30
8206336.7530117426
 11
135.5246033018993
 21
175.83377187850459
 31
8206336.7530117426
  0
LINE
  5
4351
  8
AM_0
 10
135.5246033018993
 20
175.83377187850459
 30
8206336.7530117426
 11
135.5802433664326
 21
175.98974017192731
 31
8206336.7530117426
  0
ARC
  5
4352
  8
AM_0
 10
137.45571766009621
 20
175.21435739053641
 30
8206336.7530117426
 40
2.02943890863216
 50
147.8557105642179
 51
157.53818869548999
  0
LINE
  5
4353
  8
AM_0
 10
135.73736961708971
 20
176.29412694324941
 30
8206336.7530117426
 11
135.85965836362431
 21
176.4714375359714
 31
8206336.7530117426
  0
LINE
  5
4354
  8
AM_0
 10
135.85965836362431
 20
176.4714375359714
 30
8206336.7530117426
 11
135.99651196396249
 21
176.63781945836089
 31
8206336.7530117426
  0
ARC
  5
4355
  8
AM_0
 10
138.4946699501551
 20
174.39480777253971
 30
8206336.7530117426
 40
3.3573642558870951
 50
129.0813784716793
 51
138.08040406443399
  0
LINE
  5
4356
  8
AM_0
 10
136.37810844513891
 20
177.00096627543081
 30
8206336.7530117426
 11
136.79724706253899
 21
177.3036627530565
 31
8206336.7530117426
  0
LINE
  5
4357
  8
AM_0
 10
136.79724706253899
 20
177.3036627530565
 30
8206336.7530117426
 11
137.24640074243669
 21
177.56101445431111
 31
8206336.7530117426
  0
ARC
  5
4358
  8
AM_0
 10
140.57762642546311
 20
171.03340416004559
 30
8206336.7530117426
 40
7.3284896605682359
 50
109.0382363849769
 51
117.03651703470091
  0
LINE
  5
4359
  8
AM_0
 10
138.18707988068539
 20
177.96103347477569
 30
8206336.7530117426
 11
138.86357777525279
 21
178.16791332439399
 31
8206336.7530117426
  0
LINE
  5
435A
  8
AM_0
 10
138.86357777525279
 20
178.16791332439399
 30
8206336.7530117426
 11
139.41036715298799
 21
178.29301464594599
 31
8206336.7530117426
  0
ARC
  5
435B
  8
AM_0
 10
145.65206438210299
 20
203.7449076619711
 30
0.0
 40
0.2999999999999972
 50
270.0
 51
0.0
  0
ARC
  5
435C
  8
AM_0
 10
145.80410403710121
 20
215.09159125395001
 30
0.0
 40
0.4999999999998723
 50
164.7909603598988
 51
225.00000000001839
  0
ARC
  5
435D
  8
AM_0
 10
131.4520643821028
 20
195.20737365254871
 30
0.0
 40
3.0
 50
180.0
 51
190.00000000000171
  0
ARC
  5
435E
  8
AM_0
 10
131.4520643821028
 20
244.68244167139329
 30
0.0
 40
2.9999999999999911
 50
169.9999999999981
 51
180.0
  0
ARC
  5
435F
  8
AM_0
 10
134.49590288980411
 20
177.94490766197109
 30
0.0
 40
2.9999999999999631
 50
190.00000000000171
 51
270.0
  0
ARC
  5
4360
  8
AM_0
 10
139.50206438210299
 20
190.1438512735991
 30
0.0
 40
0.7999999999998977
 50
90.0
 51
180.0
  0
ARC
  5
4361
  8
AM_0
 10
139.50206438210299
 20
188.93083095516641
 30
0.0
 40
0.7999999999999972
 50
90.0
 51
180.0
  0
ARC
  5
4362
  8
AM_0
 10
144.40206438210299
 20
190.1438512735991
 30
0.0
 40
0.8000000000000112
 50
0.0
 51
90.0
  0
ARC
  5
4363
  8
AM_0
 10
144.40206438210299
 20
188.93083095516641
 30
0.0
 40
0.8000000000000112
 50
0.0
 51
90.0
  0
ARC
  5
4364
  8
AM_0
 10
134.4520643821028
 20
211.44490766197109
 30
0.0
 40
0.5
 50
180.0
 51
270.0
  0
ARC
  5
4365
  8
AM_0
 10
145.4520643821028
 20
211.44490766197109
 30
0.0
 40
0.5
 50
270.0
 51
0.0
  0
ARC
  5
4366
  8
AM_0
 10
145.4520643821028
 20
214.02941734657509
 30
0.0
 40
0.5
 50
0.0
 51
45.0
  0
ARC
  5
4367
  8
AM_0
 10
134.1000247271046
 20
215.09159125395001
 30
0.0
 40
0.5000000000001048
 50
314.99999999998619
 51
15.209039640101111
  0
ARC
  5
4368
  8
AM_0
 10
134.4520643821028
 20
214.02941734657509
 30
0.0
 40
0.499999999999984
 50
134.99999999999079
 51
180.0
  0
ARC
  5
4369
  8
AM_0
 10
126.4520265455874
 20
272.44490766197111
 30
0.0
 40
1.0
 50
90.0
 51
180.00030969555451
  0
ARC
  5
436A
  8
AM_0
 10
137.4520265457482
 20
272.44490766197111
 30
0.0
 40
0.9999999999999992
 50
0.0003096955479991
 51
90.0
  0
ARC
  5
436B
  8
AM_0
 10
126.4520535716229
 20
267.44490766197111
 30
0.0
 40
0.9999999999999992
 50
180.00030969555451
 51
270.0
  0
ARC
  5
436C
  8
AM_0
 10
137.45205247355321
 20
267.44490766197111
 30
0.0
 40
1.0
 50
270.0
 51
0.0
  0
ARC
  5
436D
  8
AM_0
 10
136.9322942606384
 20
265.84490766197109
 30
0.0
 40
0.5999999999999944
 50
90.0
 51
218.00194433773009
  0
ARC
  5
436E
  8
AM_0
 10
127.74675266878199
 20
265.44490766197111
 30
0.0
 40
0.9999999999999468
 50
41.03985310957956
 51
90.0
  0
ARC
  5
436F
  8
AM_0
 10
129.76486982457351
 20
218.17255592738749
 30
0.0
 40
0.4128054424705855
 50
180.0
 51
239.99999999999949
  0
ARC
  5
4370
  8
AM_0
 10
130.07821471037491
 20
216.56164617322099
 30
0.0
 40
0.8256108849411369
 50
28.217424594175291
 51
59.999999999996653
  0
LINE
  5
4371
  8
AM_0
 10
129.24179871173439
 20
249.42371360793831
 30
0.0
 11
134.7088028615033
 21
249.42371360793831
 31
0.0
  0
LINE
  5
4372
  8
AM_0
 10
143.19243780341711
 20
249.42371360793831
 30
0.0
 11
145.9520643821028
 21
249.42371360793831
 31
0.0
  0
LINE
  5
4373
  8
AM_0
 10
133.35206438210321
 20
223.444907661971
 30
0.0
 11
133.9520643821032
 21
223.4449076619708
 31
0.0
  0
LINE
  5
4374
  8
AM_0
 10
130.49102015284569
 20
222.61316915072129
 30
0.0
 11
129.55846710333839
 21
222.0747593965549
 31
0.0
  0
LINE
  5
4375
  8
AM_0
 10
130.92451597413381
 20
223.12033414251411
 30
0.0
 11
133.07961279007259
 21
223.12033414251391
 31
0.0
  0
LINE
  5
4376
  8
AM_0
 10
130.92451597413361
 20
221.53262090224271
 30
0.0
 11
133.0796127900725
 21
221.53262090224251
 31
0.0
  0
ARC
  5
4377
  8
AM_0
 10
132.05928756607659
 20
222.32647752237821
 30
0.0
 40
1.292776816026465
 50
359.99999999999352
 51
37.88444105369058
  0
ARC
  5
4378
  8
AM_0
 10
131.94484119812961
 20
222.32647752237821
 30
0.0
 40
1.2927768160265549
 50
142.11555894629771
 51
217.8844410536951
  0
ARC
  5
4379
  8
AM_0
 10
132.05928756607659
 20
222.32647752237821
 30
0.0
 40
1.2927768160265021
 50
322.11555894629322
 51
359.99999999999352
  0
ARC
  5
437A
  8
AM_0
 10
129.76486982457371
 20
221.71725939655479
 30
0.0
 40
0.4128054424705855
 50
119.99999999999331
 51
179.99999999999341
  0
ARC
  5
437B
  8
AM_0
 10
130.07821471037511
 20
223.32816915072141
 30
0.0
 40
0.8256108849411369
 50
300.00000000000051
 51
331.7825754058203
  0
LINE
  5
437C
  8
AM_0
 10
145.9520643821034
 20
228.4449076619706
 30
0.0
 11
145.95206438210329
 21
225.86039797736649
 31
0.0
  0
LINE
  5
437D
  8
AM_0
 10
145.80561777269659
 20
225.5068445867733
 30
0.0
 11
145.4505506465083
 21
225.15177746058509
 31
0.0
  0
LINE
  5
437E
  8
AM_0
 10
133.95206438210329
 20
225.8603979773674
 30
0.0
 11
133.95206438210349
 21
228.4449076619714
 31
0.0
  0
LINE
  5
437F
  8
AM_0
 10
134.4535781176983
 20
225.15177746058581
 30
0.0
 11
134.09851099151021
 21
225.50684458677409
 31
0.0
  0
LINE
  5
4380
  8
AM_0
 10
145.4520643821034
 20
228.94490766197049
 30
0.0
 11
144.97148649625609
 21
228.94490766197069
 31
0.0
  0
LINE
  5
4381
  8
AM_0
 10
134.9326422679508
 20
228.94490766197131
 30
0.0
 11
134.45206438210349
 21
228.94490766197131
 31
0.0
  0
ARC
  5
4382
  8
AM_0
 10
145.80410403710161
 20
224.79822406999159
 30
0.0
 40
0.4999999999998723
 50
134.99999999997701
 51
195.2090396400969
  0
ARC
  5
4383
  8
AM_0
 10
134.45206438210349
 20
228.4449076619714
 30
0.0
 40
0.5
 50
89.999999999996732
 51
179.99999999999659
  0
ARC
  5
4384
  8
AM_0
 10
145.4520643821034
 20
228.4449076619706
 30
0.0
 40
0.5
 50
359.99999999999682
 51
89.999999999996732
  0
ARC
  5
4385
  8
AM_0
 10
145.45206438210329
 20
225.8603979773666
 30
0.0
 40
0.5
 50
314.9999999999954
 51
359.99999999999682
  0
ARC
  5
4386
  8
AM_0
 10
134.10002472710491
 20
224.79822406999239
 30
0.0
 40
0.5000000000001048
 50
344.79096035989579
 51
45.000000000009209
  0
ARC
  5
4387
  8
AM_0
 10
134.45206438210329
 20
225.8603979773674
 30
0.0
 40
0.499999999999984
 50
179.99999999999659
 51
225.0000000000046
  0
LINE
  5
4388
  8
AM_0
 10
135.93264226795091
 20
245.09105905979291
 30
0.0
 11
135.9326422679508
 21
229.94490766197131
 31
0.0
  0
ARC
  5
4389
  8
AM_0
 10
134.9326422679508
 20
229.94490766197131
 30
0.0
 40
1.0
 50
269.99999999999682
 51
0.0
1001
GENIUS_GENODEF_13
1002
{
1000
HIER
1070
     0
1002
}
1002
{
1000
MANEDIT
1070
     0
1002
}
1002
{
1000
NOSEL
1070
     0
1002
}
1002
{
1000
BEHIND
1070
     0
1002
}
1002
{
1000
OTHER
1070
     0
1002
}
1002
{
1000
REACTOR
1002
}
1001
GENIUS_GENOBJ-N-FIL_13
1002
{
1000
OWNER
1000
GEN
1002
}
  0
ARC
  5
438A
  8
AM_0
 10
130.93264226795091
 20
245.09105905979291
 30
0.0
 40
5.0
 50
0.0
 51
19.381805699020159
1001
GENIUS_GENOBJ-N-FIL_13
1002
{
1000
OWNER
1000
GEN
1002
}
1001
GENIUS_GENODEF_13
1002
{
1000
HIER
1070
     0
1002
}
1002
{
1000
MANEDIT
1070
     0
1002
}
1002
{
1000
NOSEL
1070
     0
1002
}
1002
{
1000
BEHIND
1070
     0
1002
}
1002
{
1000
OTHER
1070
     0
1002
}
1002
{
1000
REACTOR
1002
}
  0
LINE
  5
438B
  8
AM_0
 10
143.97148649625609
 20
246.5602445247097
 30
0.0
 11
143.97148649625609
 21
229.94490766197069
 31
0.0
  0
ARC
  5
438C
  8
AM_0
 10
144.9714864962562
 20
229.94490766197069
 30
0.0
 40
1.0
 50
180.0
 51
269.99999999999352
1001
GENIUS_GENOBJ-N-FIL_13
1002
{
1000
OWNER
1000
GEN
1002
}
1001
GENIUS_GENODEF_13
1002
{
1000
HIER
1070
     0
1002
}
1002
{
1000
MANEDIT
1070
     0
1002
}
1002
{
1000
NOSEL
1070
     0
1002
}
1002
{
1000
BEHIND
1070
     0
1002
}
1002
{
1000
OTHER
1070
     0
1002
}
1002
{
1000
REACTOR
1002
}
  0
ARC
  5
438D
  8
AM_0
 10
138.9714864962562
 20
246.5602445247097
 30
0.0
 40
5.0
 50
0.0
 51
22.755667319206839
1001
GENIUS_GENODEF_13
1002
{
1000
HIER
1070
     0
1002
}
1002
{
1000
MANEDIT
1070
     0
1002
}
1002
{
1000
NOSEL
1070
     0
1002
}
1002
{
1000
BEHIND
1070
     0
1002
}
1002
{
1000
OTHER
1070
     0
1002
}
1002
{
1000
REACTOR
1002
}
1001
GENIUS_GENOBJ-N-FIL_13
1002
{
1000
OWNER
1000
GEN
1002
}
  0
LINE
  5
438E
  8
AM_0
 10
134.67860322876101
 20
224.9267523495231
 30
0.0
 11
145.2255255354462
 21
224.9267523495231
 31
0.0
  0
LINE
  5
438F
  8
AM_0
 10
134.67860322876069
 20
214.96306297441939
 30
0.0
 11
145.2255255354452
 21
214.96306297441939
 31
0.0
  0
LINE
  5
4390
  8
AM_0
 10
131.54147963076741
 20
183.9544968170448
 30
0.0
 11
131.54147963076741
 21
203.44490766197109
 31
0.0
  0
LINE
  5
4391
  8
AM_0
 10
134.49590288980411
 20
174.94490766197109
 30
0.0
 11
134.49590288980411
 21
203.44490766197109
 31
0.0
  0
LINE
  5
43AC
  8
AM_0
 10
144.83036246971199
 20
175.73466907006591
 30
0.0
 11
154.18934808437641
 21
191.94490766197109
 31
0.0
  0
LINE
  5
43AD
  8
AM_0
 10
139.63421004700541
 20
178.73466907006591
 30
0.0
 11
147.83849512329061
 21
192.94490766197109
 31
0.0
  0
POLYLINE
  5
43AE
  8
AM_0
 66
     1
 10
0.0
 20
0.0
 30
0.0
 70
     8
  0
VERTEX
  5
5B02
  8
AM_0
 10
139.63399999999999
 20
178.73500000000001
 30
0.0
 70
    32
  0
VERTEX
  5
5B03
  8
AM_0
 10
139.59
 20
178.65599999999989
 30
0.0
 70
    32
  0
VERTEX
  5
5B04
  8
AM_0
 10
139.547
 20
178.57599999999999
 30
0.0
 70
    32
  0
VERTEX
  5
5B05
  8
AM_0
 10
139.505
 20
178.495
 30
0.0
 70
    32
  0
VERTEX
  5
5B06
  8
AM_0
 10
139.46600000000001
 20
178.41399999999999
 30
0.0
 70
    32
  0
VERTEX
  5
5B07
  8
AM_0
 10
139.428
 20
178.33199999999999
 30
0.0
 70
    32
  0
VERTEX
  5
5B08
  8
AM_0
 10
139.39099999999999
 20
178.249
 30
0.0
 70
    32
  0
VERTEX
  5
5B09
  8
AM_0
 10
139.357
 20
178.16499999999999
 30
0.0
 70
    32
  0
VERTEX
  5
5B0A
  8
AM_0
 10
139.32400000000001
 20
178.08199999999999
 30
0.0
 70
    32
  0
VERTEX
  5
5B0B
  8
AM_0
 10
139.29300000000001
 20
177.99700000000001
 30
0.0
 70
    32
  0
VERTEX
  5
5B0C
  8
AM_0
 10
139.26300000000001
 20
177.91200000000001
 30
0.0
 70
    32
  0
VERTEX
  5
5B0D
  8
AM_0
 10
139.23599999999999
 20
177.827
 30
0.0
 70
    32
  0
VERTEX
  5
5B0E
  8
AM_0
 10
139.21000000000001
 20
177.74100000000001
 30
0.0
 70
    32
  0
VERTEX
  5
5B0F
  8
AM_0
 10
139.18600000000001
 20
177.655
 30
0.0
 70
    32
  0
VERTEX
  5
5B10
  8
AM_0
 10
139.16399999999999
 20
177.56899999999999
 30
0.0
 70
    32
  0
VERTEX
  5
5B11
  8
AM_0
 10
139.143
 20
177.482
 30
0.0
 70
    32
  0
VERTEX
  5
5B12
  8
AM_0
 10
139.125
 20
177.39599999999999
 30
0.0
 70
    32
  0
VERTEX
  5
5B13
  8
AM_0
 10
139.108
 20
177.309
 30
0.0
 70
    32
  0
VERTEX
  5
5B14
  8
AM_0
 10
139.09399999999999
 20
177.22200000000001
 30
0.0
 70
    32
  0
VERTEX
  5
5B15
  8
AM_0
 10
139.08099999999999
 20
177.136
 30
0.0
 70
    32
  0
VERTEX
  5
5B16
  8
AM_0
 10
139.06999999999999
 20
177.04900000000001
 30
0.0
 70
    32
  0
VERTEX
  5
5B17
  8
AM_0
 10
139.06100000000001
 20
176.96199999999999
 30
0.0
 70
    32
  0
VERTEX
  5
5B18
  8
AM_0
 10
139.054
 20
176.876
 30
0.0
 70
    32
  0
VERTEX
  5
5B19
  8
AM_0
 10
139.04900000000001
 20
176.78999999999999
 30
0.0
 70
    32
  0
VERTEX
  5
5B1A
  8
AM_0
 10
139.04599999999999
 20
176.70400000000001
 30
0.0
 70
    32
  0
VERTEX
  5
5B1B
  8
AM_0
 10
139.04400000000001
 20
176.61799999999999
 30
0.0
 70
    32
  0
VERTEX
  5
5B1C
  8
AM_0
 10
139.04499999999999
 20
176.53299999999999
 30
0.0
 70
    32
  0
VERTEX
  5
5B1D
  8
AM_0
 10
139.047
 20
176.44800000000001
 30
0.0
 70
    32
  0
VERTEX
  5
5B1E
  8
AM_0
 10
139.05199999999999
 20
176.364
 30
0.0
 70
    32
  0
VERTEX
  5
5B1F
  8
AM_0
 10
139.05799999999999
 20
176.28
 30
0.0
 70
    32
  0
VERTEX
  5
5B20
  8
AM_0
 10
139.066
 20
176.197
 30
0.0
 70
    32
  0
VERTEX
  5
5B21
  8
AM_0
 10
139.077
 20
176.114
 30
0.0
 70
    32
  0
VERTEX
  5
5B22
  8
AM_0
 10
139.089
 20
176.03200000000001
 30
0.0
 70
    32
  0
VERTEX
  5
5B23
  8
AM_0
 10
139.10299999999981
 20
175.95099999999999
 30
0.0
 70
    32
  0
VERTEX
  5
5B24
  8
AM_0
 10
139.119
 20
175.8709999999999
 30
0.0
 70
    32
  0
VERTEX
  5
5B25
  8
AM_0
 10
139.136
 20
175.791
 30
0.0
 70
    32
  0
VERTEX
  5
5B26
  8
AM_0
 10
139.15600000000001
 20
175.71299999999999
 30
0.0
 70
    32
  0
VERTEX
  5
5B27
  8
AM_0
 10
139.17699999999999
 20
175.63499999999999
 30
0.0
 70
    32
  0
VERTEX
  5
5B28
  8
AM_0
 10
139.20099999999999
 20
175.55799999999999
 30
0.0
 70
    32
  0
VERTEX
  5
5B29
  8
AM_0
 10
139.226
 20
175.482
 30
0.0
 70
    32
  0
VERTEX
  5
5B2A
  8
AM_0
 10
139.25299999999999
 20
175.40700000000001
 30
0.0
 70
    32
  0
VERTEX
  5
5B2B
  8
AM_0
 10
139.28100000000001
 20
175.334
 30
0.0
 70
    32
  0
VERTEX
  5
5B2C
  8
AM_0
 10
139.31200000000001
 20
175.261
 30
0.0
 70
    32
  0
VERTEX
  5
5B2D
  8
AM_0
 10
139.34399999999999
 20
175.19
 30
0.0
 70
    32
  0
VERTEX
  5
5B2E
  8
AM_0
 10
139.37799999999999
 20
175.119
 30
0.0
 70
    32
  0
VERTEX
  5
5B2F
  8
AM_0
 10
139.41399999999999
 20
175.05099999999999
 30
0.0
 70
    32
  0
VERTEX
  5
5B30
  8
AM_0
 10
139.45099999999999
 20
174.983
 30
0.0
 70
    32
  0
VERTEX
  5
5B31
  8
AM_0
 10
139.49000000000001
 20
174.917
 30
0.0
 70
    32
  0
VERTEX
  5
5B32
  8
AM_0
 10
139.53100000000001
 20
174.852
 30
0.0
 70
    32
  0
VERTEX
  5
5B33
  8
AM_0
 10
139.57300000000001
 20
174.78899999999999
 30
0.0
 70
    32
  0
VERTEX
  5
5B34
  8
AM_0
 10
139.61699999999999
 20
174.727
 30
0.0
 70
    32
  0
VERTEX
  5
5B35
  8
AM_0
 10
139.66300000000001
 20
174.667
 30
0.0
 70
    32
  0
VERTEX
  5
5B36
  8
AM_0
 10
139.71000000000001
 20
174.608
 30
0.0
 70
    32
  0
VERTEX
  5
5B37
  8
AM_0
 10
139.75899999999999
 20
174.55099999999999
 30
0.0
 70
    32
  0
VERTEX
  5
5B38
  8
AM_0
 10
139.809
 20
174.495
 30
0.0
 70
    32
  0
VERTEX
  5
5B39
  8
AM_0
 10
139.86000000000001
 20
174.441
 30
0.0
 70
    32
  0
VERTEX
  5
5B3A
  8
AM_0
 10
139.9129999999999
 20
174.38900000000001
 30
0.0
 70
    32
  0
VERTEX
  5
5B3B
  8
AM_0
 10
139.96799999999999
 20
174.33799999999999
 30
0.0
 70
    32
  0
VERTEX
  5
5B3C
  8
AM_0
 10
140.023
 20
174.28899999999999
 30
0.0
 70
    32
  0
VERTEX
  5
5B3D
  8
AM_0
 10
140.08099999999999
 20
174.24199999999999
 30
0.0
 70
    32
  0
VERTEX
  5
5B3E
  8
AM_0
 10
140.13900000000001
 20
174.197
 30
0.0
 70
    32
  0
VERTEX
  5
5B3F
  8
AM_0
 10
140.19900000000001
 20
174.154
 30
0.0
 70
    32
  0
VERTEX
  5
5B40
  8
AM_0
 10
140.25899999999999
 20
174.11199999999999
 30
0.0
 70
    32
  0
VERTEX
  5
5B41
  8
AM_0
 10
140.321
 20
174.072
 30
0.0
 70
    32
  0
VERTEX
  5
5B42
  8
AM_0
 10
140.38499999999999
 20
174.035
 30
0.0
 70
    32
  0
VERTEX
  5
5B43
  8
AM_0
 10
140.44900000000001
 20
173.999
 30
0.0
 70
    32
  0
VERTEX
  5
5B44
  8
AM_0
 10
140.51400000000001
 20
173.965
 30
0.0
 70
    32
  0
VERTEX
  5
5B45
  8
AM_0
 10
140.58099999999999
 20
173.93299999999999
 30
0.0
 70
    32
  0
VERTEX
  5
5B46
  8
AM_0
 10
140.648
 20
173.90299999999999
 30
0.0
 70
    32
  0
VERTEX
  5
5B47
  8
AM_0
 10
140.71700000000001
 20
173.875
 30
0.0
 70
    32
  0
VERTEX
  5
5B48
  8
AM_0
 10
140.786
 20
173.84899999999999
 30
0.0
 70
    32
  0
VERTEX
  5
5B49
  8
AM_0
 10
140.85599999999999
 20
173.82499999999999
 30
0.0
 70
    32
  0
VERTEX
  5
5B4A
  8
AM_0
 10
140.92699999999999
 20
173.803
 30
0.0
 70
    32
  0
VERTEX
  5
5B4B
  8
AM_0
 10
140.999
 20
173.78399999999999
 30
0.0
 70
    32
  0
VERTEX
  5
5B4C
  8
AM_0
 10
141.071
 20
173.76599999999999
 30
0.0
 70
    32
  0
VERTEX
  5
5B4D
  8
AM_0
 10
141.14500000000001
 20
173.75
 30
0.0
 70
    32
  0
VERTEX
  5
5B4E
  8
AM_0
 10
141.21799999999999
 20
173.73699999999999
 30
0.0
 70
    32
  0
VERTEX
  5
5B4F
  8
AM_0
 10
141.29300000000001
 20
173.726
 30
0.0
 70
    32
  0
VERTEX
  5
5B50
  8
AM_0
 10
141.36799999999999
 20
173.71600000000001
 30
0.0
 70
    32
  0
VERTEX
  5
5B51
  8
AM_0
 10
141.44399999999999
 20
173.709
 30
0.0
 70
    32
  0
VERTEX
  5
5B52
  8
AM_0
 10
141.52000000000001
 20
173.70400000000001
 30
0.0
 70
    32
  0
VERTEX
  5
5B53
  8
AM_0
 10
141.596
 20
173.70099999999999
 30
0.0
 70
    32
  0
VERTEX
  5
5B54
  8
AM_0
 10
141.673
 20
173.69999999999999
 30
0.0
 70
    32
  0
VERTEX
  5
5B55
  8
AM_0
 10
141.75
 20
173.702
 30
0.0
 70
    32
  0
VERTEX
  5
5B56
  8
AM_0
 10
141.828
 20
173.70500000000001
 30
0.0
 70
    32
  0
VERTEX
  5
5B57
  8
AM_0
 10
141.905
 20
173.71100000000001
 30
0.0
 70
    32
  0
VERTEX
  5
5B58
  8
AM_0
 10
141.983
 20
173.71899999999999
 30
0.0
 70
    32
  0
VERTEX
  5
5B59
  8
AM_0
 10
142.06100000000001
 20
173.72900000000001
 30
0.0
 70
    32
  0
VERTEX
  5
5B5A
  8
AM_0
 10
142.13900000000001
 20
173.74000000000001
 30
0.0
 70
    32
  0
VERTEX
  5
5B5B
  8
AM_0
 10
142.21799999999999
 20
173.755
 30
0.0
 70
    32
  0
VERTEX
  5
5B5C
  8
AM_0
 10
142.29599999999999
 20
173.77099999999999
 30
0.0
 70
    32
  0
VERTEX
  5
5B5D
  8
AM_0
 10
142.374
 20
173.78899999999999
 30
0.0
 70
    32
  0
VERTEX
  5
5B5E
  8
AM_0
 10
142.452
 20
173.809
 30
0.0
 70
    32
  0
VERTEX
  5
5B5F
  8
AM_0
 10
142.53
 20
173.83199999999999
 30
0.0
 70
    32
  0
VERTEX
  5
5B60
  8
AM_0
 10
142.608
 20
173.85599999999999
 30
0.0
 70
    32
  0
VERTEX
  5
5B61
  8
AM_0
 10
142.68600000000001
 20
173.88300000000001
 30
0.0
 70
    32
  0
VERTEX
  5
5B62
  8
AM_0
 10
142.76300000000001
 20
173.91099999999989
 30
0.0
 70
    32
  0
VERTEX
  5
5B63
  8
AM_0
 10
142.84
 20
173.94200000000001
 30
0.0
 70
    32
  0
VERTEX
  5
5B64
  8
AM_0
 10
142.917
 20
173.97399999999999
 30
0.0
 70
    32
  0
VERTEX
  5
5B65
  8
AM_0
 10
142.99299999999999
 20
174.00899999999999
 30
0.0
 70
    32
  0
VERTEX
  5
5B66
  8
AM_0
 10
143.06899999999999
 20
174.04499999999999
 30
0.0
 70
    32
  0
VERTEX
  5
5B67
  8
AM_0
 10
143.14400000000001
 20
174.083
 30
0.0
 70
    32
  0
VERTEX
  5
5B68
  8
AM_0
 10
143.21799999999999
 20
174.124
 30
0.0
 70
    32
  0
VERTEX
  5
5B69
  8
AM_0
 10
143.29300000000001
 20
174.166
 30
0.0
 70
    32
  0
VERTEX
  5
5B6A
  8
AM_0
 10
143.36600000000001
 20
174.21000000000001
 30
0.0
 70
    32
  0
VERTEX
  5
5B6B
  8
AM_0
 10
143.43899999999999
 20
174.255
 30
0.0
 70
    32
  0
VERTEX
  5
5B6C
  8
AM_0
 10
143.511
 20
174.303
 30
0.0
 70
    32
  0
VERTEX
  5
5B6D
  8
AM_0
 10
143.58199999999999
 20
174.352
 30
0.0
 70
    32
  0
VERTEX
  5
5B6E
  8
AM_0
 10
143.65299999999999
 20
174.40299999999999
 30
0.0
 70
    32
  0
VERTEX
  5
5B6F
  8
AM_0
 10
143.72200000000001
 20
174.45599999999999
 30
0.0
 70
    32
  0
VERTEX
  5
5B70
  8
AM_0
 10
143.791
 20
174.50999999999999
 30
0.0
 70
    32
  0
VERTEX
  5
5B71
  8
AM_0
 10
143.85900000000001
 20
174.56700000000001
 30
0.0
 70
    32
  0
VERTEX
  5
5B72
  8
AM_0
 10
143.92599999999999
 20
174.624
 30
0.0
 70
    32
  0
VERTEX
  5
5B73
  8
AM_0
 10
143.99100000000001
 20
174.68299999999999
 30
0.0
 70
    32
  0
VERTEX
  5
5B74
  8
AM_0
 10
144.05600000000001
 20
174.744
 30
0.0
 70
    32
  0
VERTEX
  5
5B75
  8
AM_0
 10
144.12
 20
174.80699999999999
 30
0.0
 70
    32
  0
VERTEX
  5
5B76
  8
AM_0
 10
144.18199999999999
 20
174.87
 30
0.0
 70
    32
  0
VERTEX
  5
5B77
  8
AM_0
 10
144.24299999999999
 20
174.935
 30
0.0
 70
    32
  0
VERTEX
  5
5B78
  8
AM_0
 10
144.304
 20
175.00200000000001
 30
0.0
 70
    32
  0
VERTEX
  5
5B79
  8
AM_0
 10
144.36199999999999
 20
175.06999999999999
 30
0.0
 70
    32
  0
VERTEX
  5
5B7A
  8
AM_0
 10
144.41999999999999
 20
175.13900000000001
 30
0.0
 70
    32
  0
VERTEX
  5
5B7B
  8
AM_0
 10
144.476
 20
175.21000000000001
 30
0.0
 70
    32
  0
VERTEX
  5
5B7C
  8
AM_0
 10
144.53100000000001
 20
175.28100000000001
 30
0.0
 70
    32
  0
VERTEX
  5
5B7D
  8
AM_0
 10
144.58500000000001
 20
175.35400000000001
 30
0.0
 70
    32
  0
VERTEX
  5
5B7E
  8
AM_0
 10
144.637
 20
175.428
 30
0.0
 70
    32
  0
VERTEX
  5
5B7F
  8
AM_0
 10
144.68700000000001
 20
175.50299999999999
 30
0.0
 70
    32
  0
VERTEX
  5
5B80
  8
AM_0
 10
144.73699999999999
 20
175.57900000000001
 30
0.0
 70
    32
  0
VERTEX
  5
5B81
  8
AM_0
 10
144.78399999999999
 20
175.65700000000001
 30
0.0
 70
    32
  0
VERTEX
  5
5B82
  8
AM_0
 10
144.83000000000001
 20
175.73500000000001
 30
0.0
 70
    32
  0
SEQEND
  5
5B83
  8
AM_0
  0
LINE
  5
43AF
  8
AM_0
 10
159.4520643821028
 20
273.74490766197118
 30
0.0
 11
159.4520643821028
 21
266.14490766197122
 31
0.0
1001
GENIUS_GENOREF_13
1005
0
  0
LINE
  5
43B0
  8
AM_0
 10
159.4520643821028
 20
266.14490766197122
 30
0.0
 11
160.4520643821028
 21
266.14490766197122
 31
0.0
1001
GENIUS_GENOREF_13
1005
0
  0
LINE
  5
43B1
  8
AM_0
 10
160.4520643821028
 20
269.74490766197118
 30
0.0
 11
159.4520643821028
 21
269.38093742770491
 31
0.0
1001
GENIUS_GENOREF_13
1005
0
  0
LINE
  5
43B2
  8
AM_0
 10
160.4520643821028
 20
270.14490766197122
 30
0.0
 11
159.4520643821028
 21
269.78093742770488
 31
0.0
1001
GENIUS_GENOREF_13
1005
0
  0
LINE
  5
43B3
  8
AM_0
 10
160.4520643821028
 20
273.74490766197118
 30
0.0
 11
159.4520643821028
 21
273.74490766197118
 31
0.0
1001
GENIUS_GENOREF_13
1005
0
  0
LINE
  5
43B4
  8
AM_0N
 10
158.39312686997511
 20
266.03755268966461
 30
0.0
 11
159.4520643821028
 21
265.94490766197111
 31
0.0
  0
LINE
  5
43B5
  8
AM_0N
 10
158.39312686997511
 20
273.85226263427762
 30
0.0
 11
159.4520643821028
 21
273.94490766197111
 31
0.0
  0
ARC
  5
43B6
  8
AM_0N
 10
162.85206438210301
 20
269.94490766197111
 30
0.0
 40
6.5
 50
151.82726586813479
 51
208.1727341318651
  0
ARC
  5
43B7
  8
AM_0N
 10
158.5325760583714
 20
272.25835111733079
 30
0.0
 40
1.6000000000000001
 50
94.99999999999973
 51
151.82726586813479
  0
ARC
  5
43B8
  8
AM_0N
 10
158.5325760583714
 20
267.6314642066115
 30
0.0
 40
1.6000000000000001
 50
208.1727341318651
 51
265.00000000000028
  0
LINE
  5
43B9
  8
AM_0N
 10
159.4520643821028
 20
273.94490766197111
 30
0.0
 11
159.4520643821028
 21
265.94490766197111
 31
0.0
  0
LINE
  5
43BA
  8
AM_0
 10
159.452064382103
 20
196.3500518556809
 30
0.0
 11
159.452064382103
 21
190.88240766197109
 31
0.0
1001
GENIUS_GENOREF_13
1005
0
  0
LINE
  5
43BB
  8
AM_0
 10
159.452064382103
 20
191.0824076619711
 30
0.0
 11
160.452064382103
 21
191.0824076619711
 31
0.0
1001
GENIUS_GENOREF_13
1005
0
  0
LINE
  5
43BC
  8
AM_0
 10
160.452064382103
 20
194.6824076619711
 30
0.0
 11
159.452064382103
 21
194.31843742770491
 31
0.0
1001
GENIUS_GENOREF_13
1005
0
  0
LINE
  5
43BD
  8
AM_0
 10
160.452064382103
 20
195.0824076619711
 30
0.0
 11
159.452064382103
 21
194.718437427705
 31
0.0
1001
GENIUS_GENOREF_13
1005
0
  0
LINE
  5
43BE
  8
AM_0N
 10
158.39312686997511
 20
190.97505268966469
 30
0.0
 11
159.452064382103
 21
190.8824076619712
 31
0.0
  0
ARC
  5
43BF
  8
AM_0N
 10
162.85206438210301
 20
194.88240766197109
 30
0.0
 40
6.5
 50
182.900769989091
 51
208.1727341318651
  0
ARC
  5
43C0
  8
AM_0N
 10
158.5325760583714
 20
192.5689642066115
 30
0.0
 40
1.6000000000000001
 50
208.1727341318651
 51
265.00000000000028
  0
LINE
  5
4624
  8
AM_0
 10
654.07730151786825
 20
311.94490266197118
 30
0.0
 11
654.07730151786825
 21
323.12865674689073
 31
0.0
  0
LINE
  5
4625
  8
AM_0
 10
647.67730151786873
 20
311.94490266197118
 30
0.0
 11
647.67730151786873
 21
323.12865674689073
 31
0.0
  0
LINE
  5
4629
  8
AM_0
 10
657.27730151786875
 20
311.94490266197118
 30
0.0
 11
657.27730151786864
 21
323.12865674689073
 31
0.0
  0
LINE
  5
462A
  8
AM_0
 10
644.47730151786868
 20
323.12865674689073
 30
0.0
 11
644.47730151786868
 21
311.94490266197118
 31
0.0
  0
ARC
  5
462D
  8
AM_0
 10
650.87730151786877
 20
315.44490766197117
 30
0.0
 40
9.9999999999999964
 50
50.208180500442623
 51
90.0
  0
ARC
  5
4631
  8
AM_0
 10
650.87730151786877
 20
312.9136758520076
 30
0.0
 40
10.704477319459491
 50
72.606031891266454
 51
107.3939681087335
  0
ARC
  5
4632
  8
AM_0
 10
646.07730151786825
 20
320.75889135041632
 30
0.0
 40
2.8593334947723461
 50
55.973867765119778
 51
124.02613223488019
  0
ARC
  5
4633
  8
AM_0
 10
655.67730151786873
 20
320.7619582718188
 30
0.0
 40
2.856792199637066
 50
55.939448481710848
 51
124.060551518289
  0
ARC
  5
4634
  8
AM_0
 10
650.87730151786877
 20
315.44490766197117
 30
0.0
 40
10.0
 50
90.0
 51
129.79181949955731
  0
LINE
  5
4EEA
  8
AM_0
 10
543.87730151786855
 20
173.94490766197109
 30
0.0
 11
579.53039269313649
 21
175.189941040571
 31
0.0
  0
LINE
  5
4EEB
  8
AM_0
 10
576.56483248139216
 20
264.80343392793981
 30
0.0
 11
543.87730151786866
 21
265.9449076619714
 31
0.0
  0
LINE
  5
4EEC
  8
AM_0
 10
543.87730151786866
 20
265.9449076619714
 30
0.0
 11
543.87730151786855
 21
173.944907661971
 31
0.0
  0
LINE
  5
4EED
  8
ﾁｭｳｼﾝｾﾝ1
 10
532.87730151786855
 20
178.94490766197191
 30
0.0
 11
548.7048245304054
 21
178.94490766197191
 31
0.0
  0
LINE
  5
4EEE
  8
AM_0
 10
539.87730151786866
 20
265.94490766197117
 30
0.0
 11
539.87730151786866
 21
245.13040276243879
 31
0.0
  0
LINE
  5
4EEF
  8
AM_0
 10
539.87730151786855
 20
194.75941256150361
 30
0.0
 11
539.87730151786855
 21
173.94490766197191
 31
0.0
  0
LINE
  5
4EF0
  8
AM_0
 10
535.87730151786866
 20
259.80912599281072
 30
0.0
 11
535.87730151786855
 21
180.08068933113191
 31
0.0
  0
LINE
  5
4EF1
  8
AM_0
 10
537.8183640057407
 20
182.8522626342783
 30
0.0
 11
538.87730151786855
 21
182.9449076619718
 31
0.0
  0
LINE
  5
4EF2
  8
AM_0
 10
537.8183640057407
 20
175.03755268966529
 30
0.0
 11
538.87730151786855
 21
174.94490766197191
 31
0.0
  0
ARC
  5
4EF3
  8
AM_0
 10
542.27730151786875
 20
178.9449076619718
 30
0.0
 40
6.5
 50
151.82726586813479
 51
208.1727341318651
  0
ARC
  5
4EF4
  8
AM_0
 10
537.9578131941372
 20
176.63146420661209
 30
0.0
 40
1.6000000000000001
 50
208.1727341318651
 51
265.00000000000028
  0
LINE
  5
4EF5
  8
AM_0
 10
536.19782785644031
 20
181.24490766197169
 30
0.0
 11
538.48738753523594
 21
178.9449076619718
 31
0.0
  0
LINE
  5
4EF6
  8
AM_0
 10
538.17730151786839
 20
179.25640766197179
 30
0.0
 11
538.17730151786839
 21
178.63340766197169
 31
0.0
  0
LINE
  5
4EF7
  8
AM_0
 10
536.19782785644031
 20
176.64490766197181
 30
0.0
 11
538.48738753523594
 21
178.9449076619718
 31
0.0
  0
LINE
  5
4EF8
  8
AM_0
 10
535.78476982753375
 20
179.25640766197179
 30
0.0
 11
538.17730151786839
 21
179.25640766197179
 31
0.0
  0
LINE
  5
4EF9
  8
AM_0
 10
535.78476982753375
 20
178.63340766197169
 30
0.0
 11
538.17730151786839
 21
178.63340766197169
 31
0.0
  0
ARC
  5
4EFA
  8
AM_0
 10
537.9578131941372
 20
181.2583511173315
 30
0.0
 40
1.6000000000000001
 50
94.999999999999758
 51
151.82726586813479
  0
LINE
  5
4EFB
  8
AM_0
 10
539.87730151786866
 20
265.9449076619714
 30
0.0
 11
543.87730151786866
 21
265.9449076619714
 31
0.0
  0
LINE
  5
4EFC
  8
AM_0
 10
538.87730151786855
 20
264.94490766197111
 30
0.0
 11
539.87730151786866
 21
265.9449076619714
 31
0.0
  0
LINE
  5
4EFD
  8
AM_0
 10
543.87730151786855
 20
173.944907661971
 30
0.0
 11
539.87730151786855
 21
173.944907661972
 31
0.0
  0
LINE
  5
4EFE
  8
AM_0N
 10
539.87730151786855
 20
182.74490766197181
 30
0.0
 11
538.87730151786855
 21
182.74490766197181
 31
0.0
  0
LINE
  5
4EFF
  8
AM_0N
 10
538.87730151786855
 20
179.14490766197181
 30
0.0
 11
539.87730151786855
 21
179.50887789623781
 31
0.0
  0
LINE
  5
4F00
  8
AM_0N
 10
538.87730151786855
 20
178.74490766197181
 30
0.0
 11
539.87730151786855
 21
179.10887789623791
 31
0.0
  0
LINE
  5
4F01
  8
AM_0N
 10
538.87730151786855
 20
174.9449076619718
 30
0.0
 11
538.87730151786855
 21
182.9449076619718
 31
0.0
  0
LINE
  5
4F02
  8
AM_0N
 10
538.87730151786855
 20
175.14490766197181
 30
0.0
 11
539.87730151786855
 21
175.14490766197181
 31
0.0
  0
LINE
  5
4F03
  8
AM_0
 10
535.87730151786855
 20
194.7594125615035
 30
0.0
 11
539.87730151786855
 21
194.7594125615035
 31
0.0
  0
LINE
  5
4F04
  8
AM_0
 10
539.87730151786855
 20
193.10255831201101
 30
0.0
 11
535.87730151786855
 21
194.7594125615035
 31
0.0
  0
LINE
  5
4F05
  8
AM_0
 10
535.87730151786866
 20
245.13040276243879
 30
0.0
 11
539.87730151786866
 21
245.13040276243879
 31
0.0
  0
LINE
  5
4F06
  8
AM_0
 10
539.87730151786866
 20
246.78725701193139
 30
0.0
 11
535.87730151786866
 21
245.13040276243879
 31
0.0
  0
LINE
  5
4F07
  8
ﾁｭｳｼﾝｾﾝ1
 10
532.87730151786866
 20
260.94490766197049
 30
0.0
 11
548.7048245304054
 21
260.94490766197049
 31
0.0
  0
LINE
  5
4F08
  8
AM_0
 10
537.8183640057407
 20
257.03755268966421
 30
0.0
 11
538.87730151786855
 21
256.94490766197072
 31
0.0
  0
LINE
  5
4F09
  8
AM_0
 10
537.8183640057407
 20
264.85226263427722
 30
0.0
 11
538.87730151786855
 21
264.94490766197049
 31
0.0
  0
ARC
  5
4F0A
  8
AM_0
 10
542.27730151786875
 20
260.94490766197072
 30
0.0
 40
6.5
 50
151.82726586813479
 51
208.1727341318651
  0
ARC
  5
4F0B
  8
AM_0
 10
537.9578131941372
 20
263.25835111733039
 30
0.0
 40
1.6000000000000001
 50
94.999999999999758
 51
151.82726586813479
  0
LINE
  5
4F0C
  8
AM_0
 10
536.19782785644031
 20
258.64490766197071
 30
0.0
 11
538.48738753523594
 21
260.94490766197072
 31
0.0
  0
LINE
  5
4F0D
  8
AM_0
 10
538.17730151786839
 20
260.63340766197058
 30
0.0
 11
538.17730151786839
 21
261.25640766197068
 31
0.0
  0
LINE
  5
4F0E
  8
AM_0
 10
536.19782785644031
 20
263.24490766197061
 30
0.0
 11
538.48738753523594
 21
260.94490766197072
 31
0.0
  0
LINE
  5
4F0F
  8
AM_0
 10
535.78476982753375
 20
260.63340766197058
 30
0.0
 11
538.17730151786839
 21
260.63340766197058
 31
0.0
  0
LINE
  5
4F10
  8
AM_0
 10
535.78476982753375
 20
261.25640766197068
 30
0.0
 11
538.17730151786839
 21
261.25640766197068
 31
0.0
  0
ARC
  5
4F11
  8
AM_0
 10
537.9578131941372
 20
258.63146420661099
 30
0.0
 40
1.6000000000000001
 50
208.1727341318651
 51
265.00000000000028
  0
LINE
  5
4F12
  8
AM_0N
 10
539.87730151786855
 20
257.14490766197059
 30
0.0
 11
538.87730151786855
 21
257.14490766197059
 31
0.0
  0
LINE
  5
4F13
  8
AM_0N
 10
538.87730151786855
 20
260.74490766197061
 30
0.0
 11
539.87730151786855
 21
260.3809374277044
 31
0.0
  0
LINE
  5
4F14
  8
AM_0N
 10
538.87730151786855
 20
261.14490766197059
 30
0.0
 11
539.87730151786855
 21
260.78093742770437
 31
0.0
  0
LINE
  5
4F15
  8
AM_0N
 10
538.87730151786855
 20
264.94490766197072
 30
0.0
 11
538.87730151786855
 21
256.94490766197072
 31
0.0
  0
LINE
  5
4F16
  8
AM_0N
 10
538.87730151786855
 20
264.74490766197061
 30
0.0
 11
539.87730151786855
 21
264.74490766197061
 31
0.0
  0
LINE
  5
4F17
  8
AM_0
 10
392.95204438210328
 20
261.44490566197129
 30
0.0
 11
396.95204438210311
 21
257.44490566197129
 31
0.0
  0
LINE
  5
4F18
  8
AM_0
 10
390.45204438210322
 20
261.44490566197129
 30
0.0
 11
392.95204438210328
 21
261.44490566197118
 31
0.0
  0
LINE
  5
4F19
  8
AM_0
 10
396.95204438210311
 20
257.44490566197129
 30
0.0
 11
396.95204438210368
 21
216.44490566197109
 31
0.0
  0
LINE
  5
4F1A
  8
AM_0
 10
392.95204438210328
 20
212.4449056619714
 30
0.0
 11
396.95204438210311
 21
216.44490566197109
 31
0.0
  0
LINE
  5
4F1B
  8
AM_0
 10
390.45204438210322
 20
212.4449056619714
 30
0.0
 11
392.95204438210328
 21
212.4449056619714
 31
0.0
  0
LINE
  5
4F1C
  8
AM_0
 10
389.95204438210322
 20
260.94490566197129
 30
0.0
 11
390.45204438210322
 21
261.44490566197129
 31
0.0
1001
GENIUS_GENFIL_13
1070
     0
1040
0.5
1040
0.5
1040
20.0
1040
0.0
1002
{
1002
}
1001
GENIUS_GENOBJ-N-CHA_13
1002
{
1000
OWNER
1000
GEN
1002
}
1001
GENIUS_GENODEF_13
1002
{
1000
HIER
1070
     0
1002
}
1002
{
1000
MANEDIT
1070
     0
1002
}
1002
{
1000
NOSEL
1070
     0
1002
}
1002
{
1000
BEHIND
1070
     0
1002
}
1002
{
1000
OTHER
1070
     0
1002
}
1002
{
1000
REACTOR
1002
}
  0
LINE
  5
4F1D
  8
AM_0
 10
389.95204438210322
 20
212.94490566197129
 30
0.0
 11
390.45204438210322
 21
212.4449056619714
 31
0.0
1001
GENIUS_GENFIL_13
1070
     0
1040
0.5
1040
0.5
1040
20.0
1040
0.0
1002
{
1002
}
1001
GENIUS_GENODEF_13
1002
{
1000
HIER
1070
     0
1002
}
1002
{
1000
MANEDIT
1070
     0
1002
}
1002
{
1000
NOSEL
1070
     0
1002
}
1002
{
1000
BEHIND
1070
     0
1002
}
1002
{
1000
OTHER
1070
     0
1002
}
1002
{
1000
REACTOR
1002
}
1001
GENIUS_GENOBJ-N-CHA_13
1002
{
1000
OWNER
1000
GEN
1002
}
  0
CIRCLE
  5
4F1E
  8
AM_0
 10
650.87730151786877
 20
236.94490566197121
 30
0.0
 40
24.49999999999989
  0
CIRCLE
  5
4F1F
  8
AM_0
 10
650.87730151786877
 20
236.94490566197121
 30
0.0
 40
20.50000000000011
  0
LINE
  5
4F20
  8
AM_0
 10
392.95204438210328
 20
261.44490566197118
 30
0.0
 11
392.95204438210328
 21
212.4449056619714
 31
0.0
  0
LINE
  5
4F2A
  8
AM_0
 10
398.95204438210311
 20
248.9449076619712
 30
0.0
 11
420.95206438210312
 21
248.9449076619712
 31
0.0
  0
LINE
  5
4F2B
  8
ﾁｭｳｼﾝｾﾝ
 10
573.29307305460213
 20
236.94490566197121
 30
0.0
 11
728.46152998113541
 21
236.94490566197121
 31
0.0
  0
LINE
  5
4F2C
  8
ﾁｭｳｼﾝｾﾝ
 10
319.60264438210311
 20
236.94490566197121
 30
0.0
 11
427.2638319645564
 21
236.94490566197121
 31
0.0
  0
LINE
  5
4F2D
  8
AM_0
 10
420.95206438210312
 20
227.4449076619712
 30
0.0
 11
420.95206438210312
 21
248.94490766197109
 31
0.0
  0
LINE
  5
4F2E
  8
AM_0
 10
396.95204438210368
 20
227.4449076619712
 30
0.0
 11
420.95206438210312
 21
227.4449076619712
 31
0.0
  0
LINE
  5
4F2F
  8
AM_0
 10
396.95204438210328
 20
246.44490666197129
 30
0.0
 11
420.95206438210312
 21
246.4449066619712
 31
0.0
  0
LINE
  5
4F30
  8
AM_0
 10
653.87730151786866
 20
248.9449086619712
 30
0.0
 11
647.87730151786866
 21
248.9449086619712
 31
0.0
  0
LINE
  5
4F31
  8
AM_0
 10
653.87730151786866
 20
242.9449086619712
 30
0.0
 11
653.87730151786866
 21
248.9449086619712
 31
0.0
  0
LINE
  5
4F32
  8
AM_0
 10
647.87730151786866
 20
242.9449086619712
 30
0.0
 11
653.87730151786866
 21
242.9449086619712
 31
0.0
  0
LINE
  5
4F33
  8
AM_0
 10
647.87730151786866
 20
248.9449086619712
 30
0.0
 11
647.87730151786866
 21
242.9449086619712
 31
0.0
  0
LINE
  5
4F34
  8
AM_0
 10
330.95206438210312
 20
279.94490766197117
 30
0.0
 11
330.95206438210312
 21
155.13098466197121
 31
0.0
  0
LINE
  5
4F35
  8
AM_0
 10
705.85856551786878
 20
255.41011866197121
 30
0.0
 11
705.85856551786878
 21
261.1836156619712
 31
0.0
  0
LINE
  5
4F36
  8
AM_0
 10
700.85856751786878
 20
252.5233686619712
 30
0.0
 11
705.85856551786878
 21
255.41014866197119
 31
0.0
  0
LINE
  5
4F37
  8
AM_0
 10
626.76823351786868
 20
155.96701566197109
 30
0.0
 11
631.76823151786868
 21
158.85376266197119
 31
0.0
  0
LINE
  5
4F38
  8
AM_0
 10
631.76823151786868
 20
158.85371766197119
 30
0.0
 11
631.76823151786868
 21
164.62724766197121
 31
0.0
  0
LINE
  5
4F39
  8
AM_0
 10
631.76823151786868
 20
164.62723266197119
 30
0.0
 11
626.76826351786872
 21
167.5139826619712
 31
0.0
  0
LINE
  5
4F3A
  8
AM_0
 10
626.76823351786868
 20
167.51399766197119
 30
0.0
 11
621.76823251786846
 21
164.62724766197121
 31
0.0
  0
LINE
  5
4F3B
  8
AM_0
 10
669.98637451786885
 20
158.85371766197119
 30
0.0
 11
674.98635751786878
 21
155.9669676619711
 31
0.0
  0
LINE
  5
4F3C
  8
AM_0
 10
674.98635751786878
 20
155.96700066197121
 30
0.0
 11
679.98635851786867
 21
158.8537476619712
 31
0.0
  0
LINE
  5
4F3D
  8
AM_0
 10
695.85855151786882
 20
261.1836156619712
 30
0.0
 11
695.85855151786882
 21
255.41011866197121
 31
0.0
  0
LINE
  5
4F3E
  8
AM_0
 10
695.85856651786855
 20
255.41011866197121
 30
0.0
 11
700.85855251786882
 21
252.5233686619712
 31
0.0
  0
LINE
  5
4F3F
  8
AM_0
 10
669.98634151786871
 20
164.62724766197121
 30
0.0
 11
669.98634151786871
 21
158.85371766197119
 31
0.0
  0
LINE
  5
4F40
  8
AM_0
 10
679.98635851786867
 20
158.85371766197119
 30
0.0
 11
679.98635851786867
 21
164.62724766197121
 31
0.0
  0
LINE
  5
4F41
  8
AM_0
 10
700.85855251786882
 20
264.0703956619713
 30
0.0
 11
695.85855151786882
 21
261.18364566197118
 31
0.0
  0
LINE
  5
4F42
  8
AM_0
 10
595.89602551786868
 20
255.41011866197121
 30
0.0
 11
600.89603551786865
 21
252.5233686619712
 31
0.0
  0
LINE
  5
4F43
  8
AM_0
 10
595.89602551786868
 20
261.1836156619712
 30
0.0
 11
595.89602551786868
 21
255.41011866197121
 31
0.0
  0
LINE
  5
4F44
  8
AM_0
 10
600.89606551786869
 20
264.07036566197121
 30
0.0
 11
595.89602551786868
 21
261.1836156619712
 31
0.0
  0
LINE
  5
4F45
  8
AM_0
 10
605.89604551786874
 20
261.1836156619712
 30
0.0
 11
600.89603551786865
 21
264.07036566197121
 31
0.0
  0
LINE
  5
4F46
  8
AM_0
 10
605.89604551786874
 20
255.41011866197121
 30
0.0
 11
605.89604551786874
 21
261.1836156619712
 31
0.0
  0
LINE
  5
4F47
  8
AM_0
 10
674.98635751786878
 20
167.51401266197121
 30
0.0
 11
669.98634151786871
 21
164.6272626619712
 31
0.0
  0
LINE
  5
4F48
  8
AM_0
 10
600.89603551786865
 20
252.5233686619712
 30
0.0
 11
605.89604551786874
 21
255.41011866197121
 31
0.0
  0
LINE
  5
4F49
  8
AM_0
 10
679.98635851786867
 20
164.62723266197119
 30
0.0
 11
674.98637251786874
 21
167.5139826619712
 31
0.0
  0
LINE
  5
4F4A
  8
AM_0
 10
621.76826251786872
 20
158.85373266197121
 30
0.0
 11
626.76826351786872
 21
155.9669826619712
 31
0.0
  0
LINE
  5
4F4B
  8
AM_0
 10
705.85856551786878
 20
261.1836156619712
 30
0.0
 11
700.85856751786878
 21
264.07036566197121
 31
0.0
  0
LINE
  5
4F4C
  8
AM_0
 10
621.76826251786872
 20
164.62724766197121
 30
0.0
 11
621.76826251786872
 21
158.85371766197119
 31
0.0
  0
LINE
  5
4F4D
  8
AM_0
 10
398.95204438210311
 20
246.4449066619712
 30
0.0
 11
398.95204438210311
 21
248.9449076619712
 31
0.0
  0
LINE
  5
4F4E
  8
AM_0
 10
318.95206438210312
 20
262.55175066197131
 30
0.0
 11
330.95206438210312
 21
262.55175066197131
 31
0.0
  0
LINE
  5
4F4F
  8
AM_0
 10
324.95206438210312
 20
259.81853466197123
 30
0.0
 11
324.95206438210312
 21
219.9449076619712
 31
0.0
  0
LINE
  5
4F50
  8
AM_0
 10
318.95206438210312
 20
263.94490866197123
 30
0.0
 11
324.95206438210312
 21
263.94490866197123
 31
0.0
  0
LINE
  5
4F51
  8
AM_0
 10
306.9520043821031
 20
163.94488866197119
 30
0.0
 11
317.49130438210312
 21
163.66891866197119
 31
0.0
  0
LINE
  5
4F52
  8
AM_0
 10
318.95206438210312
 20
245.7276216619712
 30
0.0
 11
324.95206438210312
 21
245.7276216619712
 31
0.0
  0
LINE
  5
4F53
  8
AM_0
 10
324.95206438210312
 20
169.1530206619712
 30
0.0
 11
324.95206438210312
 21
219.9449076619712
 31
0.0
  0
LINE
  5
4F54
  8
AM_0
 10
326.41282438210322
 20
279.82607166197118
 30
0.0
 11
330.95206438210312
 21
279.94490766197117
 31
0.0
  0
LINE
  5
4F55
  8
AM_0
 10
306.95206438210312
 20
275.94490866197123
 30
0.0
 11
323.49130438210312
 21
276.37801266197118
 31
0.0
  0
LINE
  5
4F56
  8
AM_0
 10
306.95206438210312
 20
265.94490666197117
 30
0.0
 11
324.95206438210312
 21
265.94490666197117
 31
0.0
  0
LINE
  5
4F57
  8
AM_0
 10
306.95206438210312
 20
188.00746566197111
 30
0.0
 11
324.95206438210312
 21
188.00746566197111
 31
0.0
  0
LINE
  5
4F58
  8
AM_0
 10
306.95206438210312
 20
173.9448906619711
 30
0.0
 11
324.95206438210312
 21
173.9448906619711
 31
0.0
  0
LINE
  5
4F59
  8
AM_0
 10
306.95206438210312
 20
275.94493866197132
 30
0.0
 11
306.95206438210312
 21
163.94490366197121
 31
0.0
  0
LINE
  5
4F5A
  8
AM_0
 10
306.95206438210312
 20
251.88234666197121
 30
0.0
 11
318.95206438210312
 21
251.88234666197121
 31
0.0
  0
LINE
  5
4F5B
  8
AM_0
 10
324.95206438210312
 20
278.32656066197131
 30
0.0
 11
324.95206438210312
 21
263.94490866197123
 31
0.0
  0
LINE
  5
4F5C
  8
ﾁｭｳｼﾝｾﾝ
 10
118.26324950978049
 20
219.94490766197109
 30
0.0
 11
328.91563438210312
 21
219.9449076619712
 31
0.0
  0
LINE
  5
4F5D
  8
ﾁｭｳｼﾝｾﾝ
 10
650.87730151786877
 20
150.2731356619712
 30
0.0
 11
650.87730151786877
 21
330.26571884407531
 31
0.0
  0
LINE
  5
4F5E
  8
ﾁｭｳｼﾝｾﾝ
 10
682.46478062724759
 20
219.9449076619712
 30
0.0
 11
619.28982240848995
 21
219.9449076619712
 31
0.0
  0
LINE
  5
4F5F
  8
AM_0
 10
377.88229438210311
 20
167.3228796619712
 30
0.0
 11
385.9520243821031
 21
167.04108066197119
 31
0.0
  0
LINE
  5
4F60
  8
AM_0
 10
389.95207438210309
 20
236.94490566197121
 30
0.0
 11
389.95207438210309
 21
171.44488866197119
 31
0.0
  0
LINE
  5
4F61
  8
AM_0
 10
380.95207438210309
 20
296.44492266197119
 30
0.0
 11
380.95207438210309
 21
182.3295936619711
 31
0.0
  0
LINE
  5
4F62
  8
AM_0
 10
612.37837051786869
 20
165.94488966197119
 30
0.0
 11
615.55378351786874
 21
171.44488866197119
 31
0.0
  0
LINE
  5
4F63
  8
AM_0
 10
385.9520243821031
 20
311.9449026619713
 30
0.0
 11
385.9520243821031
 21
167.04108066197119
 31
0.0
  0
LINE
  5
4F64
  8
AM_0
 10
385.9520543821032
 20
171.3401376619712
 30
0.0
 11
389.95207438210309
 21
171.44488866197119
 31
0.0
  0
LINE
  5
4F65
  8
AM_0
 10
375.95206438210312
 20
309.66433266197117
 30
0.0
 11
375.95206438210312
 21
277.38527766197132
 31
0.0
  0
LINE
  5
4F66
  8
AM_0
 10
385.9520243821031
 20
306.94492266197119
 30
0.0
 11
389.95207438210309
 21
306.94492266197119
 31
0.0
  0
LINE
  5
4F67
  8
AM_0
 10
367.77760438210311
 20
306.17299266197119
 30
0.0
 11
373.05676438210321
 21
306.35734266197119
 31
0.0
  0
LINE
  5
4F68
  8
AM_0
 10
377.88226438210307
 20
311.66311266197118
 30
0.0
 11
385.9520543821032
 21
311.9449026619713
 31
0.0
  0
LINE
  5
4F69
  8
AM_0
 10
366.95206438210312
 20
170.14368066197119
 30
0.0
 11
366.95206438210312
 21
153.94488966197119
 31
0.0
  0
LINE
  5
4F6A
  8
AM_0
 10
389.95207438210309
 20
306.94492266197119
 30
0.0
 11
389.95207438210309
 21
236.94490566197121
 31
0.0
  0
LINE
  5
4F6B
  8
AM_0
 10
330.95206438210312
 20
155.13098466197121
 30
0.0
 11
366.9520943821031
 21
153.87382866197109
 31
0.0
  0
LINE
  5
4F6C
  8
AM_0
 10
367.9258643821031
 20
170.86810866197109
 30
0.0
 11
375.95206438210312
 21
171.0782826619712
 31
0.0
  0
LINE
  5
4F6D
  8
AM_0
 10
330.95206438210312
 20
262.55175066197131
 30
0.0
 11
361.14808438210309
 21
262.55175066197131
 31
0.0
  0
LINE
  5
4F6E
  8
AM_0
 10
330.95206438210312
 20
167.1642666619712
 30
0.0
 11
366.95206438210312
 21
167.1642666619712
 31
0.0
  0
LINE
  5
4F6F
  8
AM_0
 10
367.9520243821031
 20
190.2096156619711
 30
0.0
 11
375.95206438210312
 21
190.2096156619711
 31
0.0
  0
LINE
  5
4F70
  8
AM_0
 10
330.95206438210312
 20
279.94490766197117
 30
0.0
 11
360.03058438210297
 21
280.70635266197121
 31
0.0
  0
LINE
  5
4F71
  8
AM_0
 10
362.95207438210309
 20
301.17601266197119
 30
0.0
 11
362.95207438210309
 21
195.2095986619712
 31
0.0
  0
LINE
  5
4F72
  8
AM_0
 10
681.18530251786865
 20
184.0844016619711
 30
0.0
 11
682.18464751786871
 21
182.46692466197121
 31
0.0
  0
LINE
  5
4F73
  8
AM_0
 10
684.58821151786879
 20
186.1868346619712
 30
0.0
 11
685.58755351786874
 21
184.56935766197111
 31
0.0
  0
LINE
  5
4F74
  8
AM_0
 10
674.83038151786877
 20
175.4448906619711
 30
0.0
 11
626.92423951786873
 21
175.4448906619711
 31
0.0
  0
LINE
  5
4F75
  8
AM_0
 10
692.22376951786885
 20
251.99376666197111
 30
0.0
 11
696.43670551786875
 21
240.41883066197121
 31
0.0
  0
LINE
  5
4F76
  8
AM_0
 10
626.39796151786845
 20
215.2939806619712
 30
0.0
 11
605.05589551786875
 21
193.9518936619711
 31
0.0
  0
LINE
  5
4F77
  8
ﾁｭｳｼﾝｾﾝ1
 10
598.54700551786846
 20
289.27516266197131
 30
0.0
 11
583.39883551786875
 21
304.42336266197123
 31
0.0
  0
LINE
  5
4F78
  8
AM_0
 10
629.00553751786845
 20
212.2446966619712
 30
0.0
 11
607.88432551786866
 21
191.1234636619711
 31
0.0
  0
LINE
  5
4F79
  8
AM_0
 10
629.22639151786836
 20
261.42424866197121
 30
0.0
 11
607.88432551786866
 21
282.76628766197121
 31
0.0
  0
LINE
  5
4F7A
  8
AM_0
 10
626.39796151786845
 20
258.59581866197118
 30
0.0
 11
605.05589551786875
 21
279.93785766197118
 31
0.0
  0
LINE
  5
4F7B
  8
AM_0
 10
675.35664451786874
 20
258.59581866197118
 30
0.0
 11
696.69873151786885
 21
279.93789066197121
 31
0.0
  0
LINE
  5
4F7C
  8
AM_0
 10
672.52821151786873
 20
261.42424866197121
 30
0.0
 11
693.87030151786882
 21
282.76632066197118
 31
0.0
  0
LINE
  5
4F7D
  8
AM_0
 10
621.17881651786865
 20
204.4179756619711
 30
0.0
 11
645.03059251786874
 21
180.5662116619711
 31
0.0
  0
LINE
  5
4F7E
  8
AM_0
 10
615.55378351786874
 20
171.44488866197119
 30
0.0
 11
650.87730151786877
 21
171.44488866197119
 31
0.0
  0
LINE
  5
4F7F
  8
AM_0
 10
725.87730451786865
 20
236.94490566197121
 30
0.0
 11
725.87730451786865
 21
256.94487666197119
 31
0.0
  0
LINE
  5
4F80
  8
AM_0
 10
686.20081951786847
 20
171.44488866197119
 30
0.0
 11
650.87730151786877
 21
171.44488866197119
 31
0.0
  0
LINE
  5
4F81
  8
AM_0
 10
650.87730151786877
 20
311.9449026619713
 30
0.0
 11
670.87728751786869
 21
311.9449026619713
 31
0.0
  0
LINE
  5
4F82
  8
AM_0
 10
699.71244751786855
 20
231.4188306619711
 30
0.0
 11
708.73664851786884
 21
206.6250216619712
 31
0.0
  0
LINE
  5
4F83
  8
AM_0
 10
649.37730151786866
 20
299.78395266197123
 30
0.0
 11
649.37730151786866
 21
283.72896666197119
 31
0.0
  0
LINE
  5
4F84
  8
AM_0
 10
652.37730151786866
 20
299.78395266197123
 30
0.0
 11
652.37730151786866
 21
283.72896666197119
 31
0.0
  0
LINE
  5
4F85
  8
AM_0
 10
588.03821551786848
 20
235.44490566197121
 30
0.0
 11
604.09322551786875
 21
235.44490566197121
 31
0.0
  0
LINE
  5
4F86
  8
AM_0
 10
588.03821551786848
 20
238.44490566197121
 30
0.0
 11
604.09322551786875
 21
238.44490566197121
 31
0.0
  0
LINE
  5
4F87
  8
AM_0
 10
713.71636951786877
 20
238.44490566197121
 30
0.0
 11
699.25579951786881
 21
238.44490566197121
 31
0.0
  0
LINE
  5
4F88
  8
AM_0
 10
713.71636951786877
 20
235.44490566197121
 30
0.0
 11
702.53150851786882
 21
235.44490566197121
 31
0.0
  0
LINE
  5
4F89
  8
AM_0
 10
375.95206438210312
 20
169.3216746619712
 30
0.0
 11
375.95206438210312
 21
196.40990166197111
 31
0.0
  0
LINE
  5
4F8A
  8
AM_0
 10
658.49052451786872
 20
187.7203416619711
 30
0.0
 11
629.97211951786869
 21
215.42807466197121
 31
0.0
  0
LINE
  5
4F8B
  8
AM_0
 10
691.49192851786881
 20
208.1097006619712
 30
0.0
 11
679.47425851786875
 21
246.01210566197119
 31
0.0
  0
LINE
  5
4F8C
  8
AM_0
 10
689.37623551786885
 20
165.9448746619712
 30
0.0
 11
686.20080451786885
 21
171.4448736619712
 31
0.0
  0
LINE
  5
4F8D
  8
AM_0
 10
650.87730151786877
 20
311.9449026619713
 30
0.0
 11
630.87730351786865
 21
311.9449026619713
 31
0.0
  0
LINE
  5
4F8E
  8
AM_0
 10
670.87730251786866
 20
311.9449026619713
 30
0.0
 11
713.09347651786879
 21
308.2514526619712
 31
0.0
  0
LINE
  5
4F8F
  8
AM_0
 10
630.87730351786865
 20
311.9448726619712
 30
0.0
 11
588.66113551786873
 21
308.2514526619712
 31
0.0
  0
LINE
  5
4F90
  8
AM_0
 10
575.87729551786845
 20
236.94490566197121
 30
0.0
 11
575.87729551786845
 21
256.94487666197119
 31
0.0
  0
LINE
  5
4F91
  8
AM_0
 10
725.87730451786865
 20
256.94487666197119
 30
0.0
 11
722.18386951786863
 21
299.16106266197119
 31
0.0
  0
LINE
  5
4F92
  8
AM_0
 10
689.37623551786885
 20
165.94488966197119
 30
0.0
 11
712.25207551786878
 21
165.94488966197119
 31
0.0
  0
LINE
  5
4F93
  8
AM_0
 10
575.87729551786845
 20
256.94487666197119
 30
0.0
 11
579.57074551786866
 21
299.16106266197119
 31
0.0
  0
LINE
  5
4F94
  8
AM_0
 10
575.87729551786845
 20
216.9448746619712
 30
0.0
 11
579.54059551786861
 21
175.0733226619711
 31
0.0
  0
LINE
  5
4F95
  8
AM_0
 10
725.87730451786865
 20
216.94489266197129
 30
0.0
 11
722.21401951786868
 21
175.0733376619711
 31
0.0
  0
LINE
  5
4F96
  8
AM_0
 10
575.87729551786845
 20
236.94490566197121
 30
0.0
 11
575.87729551786845
 21
216.94489266197129
 31
0.0
  0
LINE
  5
4F97
  8
AM_0
 10
612.37837051786869
 20
165.94488966197119
 30
0.0
 11
589.50251551786869
 21
165.94488966197119
 31
0.0
  0
LINE
  5
4F98
  8
AM_0
 10
725.87730451786865
 20
236.94490566197121
 30
0.0
 11
725.87730451786865
 21
216.94489266197129
 31
0.0
  0
LINE
  5
4F99
  8
AM_0
 10
626.76823351786868
 20
154.74048366197121
 30
0.0
 11
674.98635751786878
 21
154.74048366197121
 31
0.0
  0
LINE
  5
4F9A
  8
ﾁｭｳｼﾝｾﾝ1
 10
598.54703551786872
 20
184.61459766197109
 30
0.0
 11
583.39883551786875
 21
169.46640366197121
 31
0.0
  0
LINE
  5
4F9B
  8
ﾁｭｳｼﾝｾﾝ1
 10
703.20759751786875
 20
184.61459766197109
 30
0.0
 11
718.35577351786878
 21
169.4664186619712
 31
0.0
  0
LINE
  5
4F9C
  8
ﾁｭｳｼﾝｾﾝ1
 10
703.20759751786875
 20
289.27516266197131
 30
0.0
 11
718.35579151786885
 21
304.42336266197123
 31
0.0
  0
LINE
  5
4F9D
  8
AM_0
 10
320.41282438210322
 20
155.4069726619712
 30
0.0
 11
330.95206438210312
 21
155.13098466197121
 31
0.0
  0
LINE
  5
4F9E
  8
AM_0
 10
318.95206438210312
 20
263.94490866197123
 30
0.0
 11
318.95206438210312
 21
245.7276216619712
 31
0.0
  0
LINE
  5
4F9F
  8
AM_0
 10
318.95206438210312
 20
167.57448366197119
 30
0.0
 11
318.95206438210312
 21
156.9064536619712
 31
0.0
  0
LINE
  5
4FA0
  8
AM_0
 10
324.95206438210312
 20
167.1530196619712
 30
0.0
 11
330.95206438210312
 21
167.1530196619712
 31
0.0
  0
LINE
  5
4FA1
  8
AM_0
 10
318.95206438210312
 20
169.5744966619711
 30
0.0
 11
324.95206438210312
 21
169.5744966619711
 31
0.0
  0
LINE
  5
4FA2
  8
AM_0
 10
370.9520243821031
 20
166.05298266197121
 30
0.0
 11
370.9520243821031
 21
157.42796766197119
 31
0.0
  0
LINE
  5
4FA3
  8
AM_0
 10
370.50727438210311
 20
167.49048366197121
 30
0.0
 11
366.95206438210312
 21
167.49048366197121
 31
0.0
  0
LINE
  5
4FA4
  8
AM_0
 10
370.50727438210311
 20
155.9904816619711
 30
0.0
 11
366.95206438210312
 21
155.9904816619711
 31
0.0
  0
LINE
  5
4FA5
  8
AM_0
 10
370.50727438210311
 20
164.6154996619712
 30
0.0
 11
366.95206438210312
 21
164.6154996619712
 31
0.0
  0
LINE
  5
4FA6
  8
AM_0
 10
370.50727438210311
 20
158.86548366197121
 30
0.0
 11
366.95206438210312
 21
158.86548366197121
 31
0.0
  0
CIRCLE
  5
4FA7
  8
AM_0
 10
650.87730151786877
 20
236.94490566197121
 30
0.0
 40
2.4999998400000001
  0
CIRCLE
  5
4FA8
  8
AM_5
 10
650.87730151786877
 20
236.94490566197121
 30
0.0
 40
3.0
  0
ARC
  5
4FA9
  8
AM_0
 10
650.87730151786877
 20
236.94490566197121
 30
0.0
 40
9.5000003999999993
 50
108.4084799999997
 51
71.591512000000776
  0
CIRCLE
  5
4FAA
  8
AM_0
 10
700.85855251786882
 20
258.2968656619712
 30
0.0
 40
4.9999998000000003
  0
CIRCLE
  5
4FAB
  8
AM_0
 10
626.76823351786868
 20
161.7404976619712
 30
0.0
 40
4.9999998000000003
  0
CIRCLE
  5
4FAC
  8
AM_0
 10
600.89603551786865
 20
258.2968656619712
 30
0.0
 40
4.9999998000000003
  0
CIRCLE
  5
4FAD
  8
AM_0
 10
674.98635751786878
 20
161.7404976619712
 30
0.0
 40
4.9999998000000003
  0
ARC
  5
4FAE
  8
AM_0
 10
326.45206438210312
 20
278.32656066197131
 30
0.0
 40
1.500000029999998
 50
91.500001000001546
 51
180.0000099999977
  0
ARC
  5
4FAF
  8
AM_0
 10
323.45206438210312
 20
277.87749366197119
 30
0.0
 40
1.500000029999998
 50
271.50000000000267
 51
0.0
  0
ARC
  5
4FB0
  8
AM_0
 10
367.9520243821031
 20
195.2095986619712
 30
0.0
 40
5.0000001000000003
 50
179.999989999999
 51
270.0
  0
ARC
  5
4FB1
  8
AM_0
 10
367.9520243821031
 20
169.8684726619712
 30
0.0
 40
1.0000000199999981
 50
91.500001000001546
 51
180.0000099999977
  0
ARC
  5
4FB2
  8
AM_0
 10
359.95207438210309
 20
283.7053146619711
 30
0.0
 40
3.0
 50
271.50000000000267
 51
0.0
  0
ARC
  5
4FB3
  8
AM_0
 10
377.95207438210309
 20
296.44492266197119
 30
0.0
 40
3.0
 50
0.0
 51
90.00000299999769
  0
ARC
  5
4FB4
  8
AM_0
 10
377.95207438210309
 20
309.66433266197117
 30
0.0
 40
2.00000007
 50
91.999998000000545
 51
180.0000099999977
  0
ARC
  5
4FB5
  8
AM_0
 10
367.9520243821031
 20
301.17601266197119
 30
0.0
 40
5.0000001000000003
 50
91.999998000000545
 51
180.0000099999977
  0
ARC
  5
4FB6
  8
AM_0
 10
377.95207438210309
 20
277.38527766197132
 30
0.0
 40
2.00000007
 50
179.999989999999
 51
271.51463999999908
  0
ARC
  5
4FB7
  8
AM_0
 10
372.95206438210312
 20
309.35551266197132
 30
0.0
 40
3.0
 50
271.9999999999971
 51
0.0
  0
ARC
  5
4FB8
  8
AM_0
 10
650.87730151786877
 20
236.94490566197121
 30
0.0
 40
44.000000999999983
 50
137.54731999999819
 51
174.50581000000039
  0
ARC
  5
4FB9
  8
AM_0
 10
670.40689051786865
 20
263.54555466197121
 30
0.0
 40
3.0
 50
233.71475000000001
 51
315.0
  0
ARC
  5
4FBA
  8
ﾁｭｳｼﾝｾﾝ1
 10
650.87730151786877
 20
236.94490566197121
 30
0.0
 40
85.000001999999981
 50
125.6955299999962
 51
144.1425800000026
  0
ARC
  5
4FBB
  8
AM_0
 10
624.27662551786875
 20
217.41530466197119
 30
0.0
 40
3.0
 50
315.0
 51
36.285256999998218
  0
ARC
  5
4FBC
  8
AM_0
 10
698.82003751786885
 20
277.81655166197129
 30
0.0
 40
3.0
 50
40.447928999996982
 51
135.0
  0
ARC
  5
4FBD
  8
AM_0
 10
646.37730151786877
 20
299.78395266197123
 30
0.0
 40
3.0
 50
0.0
 51
94.096045999998367
  0
ARC
  5
4FBE
  8
AM_0
 10
610.00562851786867
 20
189.00214266197111
 30
0.0
 40
3.0
 50
135.0
 51
229.5520800000011
  0
ARC
  5
4FBF
  8
AM_0
 10
610.00562851786867
 20
284.88762666197118
 30
0.0
 40
3.0
 50
130.4479300000001
 51
225.0
  0
ARC
  5
4FC0
  8
AM_0
 10
691.74897751786875
 20
284.88762666197118
 30
0.0
 40
3.0
 50
315.0
 51
49.552073000000021
  0
ARC
  5
4FC1
  8
AM_0
 10
602.93459551786873
 20
277.81655166197129
 30
0.0
 40
3.0
 50
45.000001000003223
 51
139.55207999999661
  0
ARC
  5
4FC2
  8
AM_0
 10
624.27662551786875
 20
256.4744796619712
 30
0.0
 40
3.0
 50
323.71473999999722
 51
45.000001000003223
  0
ARC
  5
4FC3
  8
AM_0
 10
631.12687651786871
 20
210.12338766197121
 30
0.0
 40
3.0
 50
45.826030999997961
 51
135.0
  0
ARC
  5
4FC4
  8
AM_0
 10
672.42730651786871
 20
202.06488666197109
 30
0.0
 40
20.000000700000001
 50
225.8260300000002
 51
17.592213999998648
  0
ARC
  5
4FC5
  8
AM_0
 10
650.87730151786877
 20
236.94490566197121
 30
0.0
 40
66.000003000000007
 50
291.2799600000028
 51
248.72003000000129
  0
ARC
  5
4FC6
  8
AM_0
 10
650.87730151786877
 20
236.94490566197121
 30
0.0
 40
70.000001999999995
 50
290.6561499999973
 51
249.34384000000179
  0
CIRCLE
  5
4FC7
  8
AM_0
 10
590.7732255178687
 20
297.04897266197122
 30
0.0
 40
5.0000001000000003
  0
ARC
  5
4FC8
  8
AM_0
 10
650.87730151786877
 20
219.94489266197121
 30
0.0
 40
60.000002999999992
 50
233.93341000000211
 51
236.89085000000259
  0
ARC
  5
4FC9
  8
AM_0
 10
650.87730151786877
 20
219.94489266197121
 30
0.0
 40
60.000002999999992
 50
303.10914000000122
 51
304.41150999999837
  0
ARC
  5
4FCA
  8
AM_0
 10
602.93459551786873
 20
196.07321766197111
 30
0.0
 40
3.0
 50
220.44792000000331
 51
315.0
  0
ARC
  5
4FCB
  8
AM_0
 10
688.13974051786874
 20
186.14615466197111
 30
0.0
 40
3.0
 50
211.70912000000229
 51
306.26119999999651
  0
ARC
  5
4FCC
  8
AM_0
 10
679.63246051786848
 20
180.8900946619712
 30
0.0
 40
3.0
 50
297.15705000000168
 51
31.709121999997731
  0
ARC
  5
4FCD
  8
AM_0
 10
650.87730151786877
 20
236.94490566197121
 30
0.0
 40
44.000000999999983
 50
19.999999000006291
 51
42.452681999998767
  0
ARC
  5
4FCE
  8
AM_0
 10
650.87730151786877
 20
236.94490566197121
 30
0.0
 40
44.000000999999983
 50
47.547317000001861
 51
84.50581900000067
  0
CIRCLE
  5
4FCF
  8
AM_0
 10
710.98136851786865
 20
176.84080866197121
 30
0.0
 40
5.0000001000000003
  0
ARC
  5
4FD0
  8
AM_0
 10
615.37199251786876
 20
165.49884366197119
 30
0.0
 40
5.0000001000000003
 50
341.74802000000159
 51
56.890858999997633
  0
ARC
  5
4FD1
  8
AM_0
 10
686.38261351786878
 20
165.49884366197119
 30
0.0
 40
5.0000001000000003
 50
123.1091299999986
 51
198.25197999999841
  0
CIRCLE
  5
4FD2
  8
AM_0
 10
590.7732255178687
 20
176.84080866197121
 30
0.0
 40
5.0000001000000003
  0
ARC
  5
4FD3
  8
AM_0
 10
626.76823351786868
 20
161.74046766197119
 30
0.0
 40
7.0000007999999987
 50
161.74802000000159
 51
270.0
  0
CIRCLE
  5
4FD4
  8
AM_0
 10
710.98136851786865
 20
297.04897266197122
 30
0.0
 40
5.0000001000000003
  0
ARC
  5
4FD5
  8
AM_0
 10
655.37730451786865
 20
299.78395266197123
 30
0.0
 40
3.0
 50
85.903958999999986
 51
180.0000099999977
  0
ARC
  5
4FD6
  8
AM_0
 10
588.03821551786848
 20
232.44490566197121
 30
0.0
 40
3.0
 50
90.00000299999769
 51
184.09603999999749
  0
ARC
  5
4FD7
  8
AM_0
 10
650.87730151786877
 20
236.94490566197121
 30
0.0
 40
44.000000999999983
 50
185.49418999999949
 51
222.45268000000121
  0
ARC
  5
4FD8
  8
AM_0
 10
646.37730151786877
 20
283.72896666197119
 30
0.0
 40
3.0
 50
275.49418000000247
 51
0.0
  0
ARC
  5
4FD9
  8
AM_0
 10
655.37730451786865
 20
283.72896666197119
 30
0.0
 40
3.0
 50
179.999989999999
 51
264.50581999999741
  0
ARC
  5
4FDA
  8
AM_0
 10
588.03821551786848
 20
241.4449086619712
 30
0.0
 40
3.0
 50
175.90395000000231
 51
270.0
  0
ARC
  5
4FDB
  8
AM_0
 10
604.09322551786875
 20
232.44490566197121
 30
0.0
 40
3.0
 50
5.4941789999992992
 51
90.00000299999769
  0
ARC
  5
4FDC
  8
AM_0
 10
604.09322551786875
 20
241.4449086619712
 30
0.0
 40
3.0
 50
270.0
 51
354.50582000000048
  0
ARC
  5
4FDD
  8
AM_0
 10
713.71636951786877
 20
241.4449086619712
 30
0.0
 40
3.0
 50
270.0
 51
4.096044000000556
  0
ARC
  5
4FDE
  8
AM_0
 10
713.71636951786877
 20
232.44490566197121
 30
0.0
 40
3.0
 50
355.90396000000248
 51
90.00000299999769
  0
ARC
  5
4FDF
  8
AM_0
 10
702.53150851786882
 20
232.44490566197121
 30
0.0
 40
3.0
 50
90.00000299999769
 51
200.00000000000219
  0
ARC
  5
4FE0
  8
AM_0
 10
699.25579951786881
 20
241.4449086619712
 30
0.0
 40
3.0
 50
200.00000000000219
 51
270.0
  0
ARC
  5
4FE1
  8
AM_0
 10
377.95207438210309
 20
196.40990166197111
 30
0.0
 40
2.00000007
 50
90.00000299999769
 51
180.0000099999977
  0
ARC
  5
4FE2
  8
AM_0
 10
377.95207438210309
 20
169.3216746619712
 30
0.0
 40
2.00000007
 50
179.999989999999
 51
268.00000999999872
  0
ARC
  5
4FE3
  8
AM_0
 10
378.95206438210312
 20
182.3295936619711
 30
0.0
 40
2.00000007
 50
268.0000000000029
 51
0.0
  0
ARC
  5
4FE4
  8
AM_0
 10
650.87730151786877
 20
236.94490566197121
 30
0.0
 40
30.0
 50
17.592213999998648
 51
225.8260300000002
  0
ARC
  5
4FE5
  8
AM_0
 10
677.4779655178686
 20
256.4744796619712
 30
0.0
 40
3.0
 50
135.0
 51
216.28526000000289
  0
ARC
  5
4FE6
  8
AM_0
 10
631.3477005178687
 20
263.54555466197121
 30
0.0
 40
3.0
 50
225.0
 51
306.28525999999772
  0
ARC
  5
4FE7
  8
AM_0
 10
712.22191051786865
 20
298.28950266197131
 30
0.0
 40
10.000000200000001
 50
4.99999990000107
 51
84.999996999998729
  0
ARC
  5
4FE8
  8
AM_0
 10
650.87730151786877
 20
219.94489266197121
 30
0.0
 40
60.000002999999992
 50
303.10914000000122
 51
306.06658999999792
  0
ARC
  5
4FE9
  8
AM_0
 10
589.53269551786866
 20
298.28950266197131
 30
0.0
 40
10.000000200000001
 50
95.00000199999856
 51
175.0000100000004
  0
ARC
  5
4FEA
  8
AM_0
 10
712.25207551786878
 20
175.94488866197111
 30
0.0
 40
10.000000200000001
 50
270.0
 51
354.99999999999977
  0
ARC
  5
4FEB
  8
AM_0
 10
589.50251551786869
 20
175.94488866197111
 30
0.0
 40
10.000000200000001
 50
184.99998999999951
 51
270.0
  0
ARC
  5
4FEC
  8
AM_0
 10
642.90925351786848
 20
178.44490566197109
 30
0.0
 40
3.0
 50
270.0
 51
45.000001000003223
  0
ARC
  5
4FED
  8
AM_0
 10
674.98635751786878
 20
161.74046766197119
 30
0.0
 40
7.0000007999999987
 50
270.0
 51
18.251978000001721
  0
ARC
  5
4FEE
  8
ﾁｭｳｼﾝｾﾝ1
 10
650.87730151786877
 20
236.94490566197121
 30
0.0
 40
85.000001999999981
 50
215.6955299999963
 51
234.14257999999799
  0
ARC
  5
4FEF
  8
ﾁｭｳｼﾝｾﾝ1
 10
650.87730151786877
 20
236.94490566197121
 30
0.0
 40
85.000001999999981
 50
305.69552999999621
 51
324.14258000000262
  0
ARC
  5
4FF0
  8
ﾁｭｳｼﾝｾﾝ1
 10
650.87730151786877
 20
236.94490566197121
 30
0.0
 40
85.000001999999981
 50
35.695527999996102
 51
54.142581999996843
  0
ARC
  5
4FF1
  8
AM_0
 10
317.45206438210312
 20
162.16943766197119
 30
0.0
 40
1.500000029999998
 50
0.0
 51
88.499997000000747
  0
ARC
  5
4FF2
  8
AM_0
 10
320.45206438210312
 20
156.9064536619712
 30
0.0
 40
1.500000029999998
 50
179.999989999999
 51
268.50000999999878
  0
ARC
  5
4FF3
  8
AM_0
 10
316.9520543821032
 20
167.57448366197119
 30
0.0
 40
2.00000007
 50
0.0
 51
90.00000299999769
  0
ARC
  5
4FF4
  8
AM_0
 10
322.9520543821032
 20
169.1530206619712
 30
0.0
 40
2.00000007
 50
270.0
 51
0.0
  0
ARC
  5
4FF5
  8
AM_0
 10
368.40664438210308
 20
157.42796766197119
 30
0.0
 40
2.5454064299999981
 50
325.61556999999817
 51
34.384439000003397
  0
ARC
  5
4FF6
  8
AM_0
 10
368.40664438210308
 20
166.05298266197121
 30
0.0
 40
2.5454064299999981
 50
325.61556999999817
 51
34.384439000003397
  0
ARC
  5
4FF7
  8
AM_0
 10
361.4375543821032
 20
161.74048266197121
 30
0.0
 40
9.5144921999999994
 50
342.41195999999599
 51
17.588032999999289
  0
ARC
  5
500D
  8
AM_0
 10
650.87730151786877
 20
236.9449056619714
 30
0.0
 40
44.000000999999983
 50
95.494178999999434
 51
132.4526799999984
  0
LINE
  5
56C9
  8
AM_0
 10
277.97825423114352
 20
436.31167766071252
 30
0.0
 11
278.23280350516632
 21
446.03164766071251
 31
0.0
  0
LINE
  5
56CA
  8
AM_0
 10
217.92582223590301
 20
436.31167766071252
 30
0.0
 11
217.67134019476421
 21
446.03164766071251
 31
0.0
  0
LINE
  5
56CB
  8
AM_0
 10
214.452064382103
 20
434.31167766071252
 30
0.0
 11
281.452064382103
 21
434.31167766071252
 31
0.0
  0
LINE
  5
56CC
  8
AM_0
 10
214.452064382103
 20
433.31167766071252
 30
0.0
 11
214.452064382103
 21
434.31167766071252
 31
0.0
  0
LINE
  5
56CD
  8
AM_0
 10
281.452064382103
 20
433.31167766071252
 30
0.0
 11
281.452064382103
 21
434.31167766071252
 31
0.0
  0
LINE
  5
56CE
  8
AM_0
 10
199.952064382103
 20
395.31167766071252
 30
0.0
 11
201.21164951836531
 21
431.38147665411748
 31
0.0
  0
LINE
  5
56CF
  8
AM_0
 10
203.21043117240359
 20
433.31167766071252
 30
0.0
 11
292.6936975918025
 21
433.31167766071252
 31
0.0
  0
ARC
  5
56D0
  8
AM_0
 10
203.21043117240359
 20
431.31167766071258
 30
0.0
 40
2.0
 50
90.0
 51
178.0000000000029
1001
GENIUS_GENODEF_13
1002
{
1000
HIER
1070
     0
1002
}
1002
{
1000
MANEDIT
1070
     0
1002
}
1002
{
1000
NOSEL
1070
     0
1002
}
1002
{
1000
BEHIND
1070
     0
1002
}
1002
{
1000
OTHER
1070
     0
1002
}
1002
{
1000
REACTOR
1002
}
1001
GENIUS_GENOBJ-N-FIL_13
1002
{
1000
OWNER
1000
GEN
1002
}
  0
LINE
  5
56D1
  8
AM_0
 10
294.69247924584079
 20
431.38147665411748
 30
0.0
 11
295.95206438210312
 21
395.31167766071258
 31
0.0
  0
ARC
  5
56D2
  8
AM_0
 10
292.69369759180262
 20
431.31167766071258
 30
0.0
 40
2.0
 50
1.9999999999971021
 51
90.0
1001
GENIUS_GENOBJ-N-FIL_13
1002
{
1000
OWNER
1000
GEN
1002
}
1001
GENIUS_GENODEF_13
1002
{
1000
HIER
1070
     0
1002
}
1002
{
1000
MANEDIT
1070
     0
1002
}
1002
{
1000
NOSEL
1070
     0
1002
}
1002
{
1000
BEHIND
1070
     0
1002
}
1002
{
1000
OTHER
1070
     0
1002
}
1002
{
1000
REACTOR
1002
}
  0
LINE
  5
56D3
  8
AM_0
 10
295.95206438210312
 20
395.31167766071258
 30
0.0
 11
199.9520643821028
 21
395.31167766071252
 31
0.0
  0
LINE
  5
56D4
  8
AM_0
 10
200.05682669057819
 20
398.31167766071229
 30
0.0
 11
198.952064382103
 21
398.31167766071229
 31
0.0
  0
LINE
  5
56D5
  8
AM_0
 10
201.1742913143141
 20
430.31167766071218
 30
0.0
 11
198.95206438210289
 21
430.31167766071218
 31
0.0
  0
LINE
  5
56D6
  8
ﾁｭｳｼﾝｾﾝ1
 10
204.95206438210371
 20
385.04697016071248
 30
0.0
 11
204.95206438210371
 21
398.04697016071259
 31
0.0
  0
LINE
  5
56D7
  8
ﾁｭｳｼﾝｾﾝ
 10
247.952064382103
 20
440.60370833394143
 30
0.0
 11
247.952064382103
 21
382.86115501990332
 31
0.0
  0
LINE
  5
56D8
  8
AM_0
 10
196.452064382103
 20
400.81167766071212
 30
0.0
 11
198.95206438210289
 21
400.81167766071212
 31
0.0
  0
LINE
  5
56D9
  8
AM_0
 10
198.95206438210289
 20
427.81167766071189
 30
0.0
 11
196.452064382103
 21
427.81167766071229
 31
0.0
  0
LINE
  5
56DA
  8
AM_0
 10
185.55339328575701
 20
424.81167766071229
 30
0.0
 11
185.55339328575701
 21
403.81167766071229
 31
0.0
  0
LINE
  5
56DB
  8
AM_0
 10
170.55339328575701
 20
406.2800526066971
 30
0.0
 11
170.55339328575701
 21
422.343302714728
 31
0.0
  0
LINE
  5
56DC
  8
AM_0
 10
183.55339328575701
 20
426.31167766071218
 30
0.0
 11
183.55339328575701
 21
402.31167766071229
 31
0.0
  0
LINE
  5
56DD
  8
AM_0
 10
174.05339328575701
 20
414.31167766071218
 30
0.0
 11
174.55339328575701
 21
414.81167766071229
 31
0.0
  0
LINE
  5
56DE
  8
AM_0
 10
181.05339328575701
 20
402.6116776607123
 30
0.0
 11
181.05339328575701
 21
426.01167766071222
 31
0.0
  0
LINE
  5
56DF
  8
AM_0
 10
190.952064382103
 20
402.81167766071229
 30
0.0
 11
190.952064382103
 21
425.81167766071212
 31
0.0
  0
LINE
  5
56E0
  8
AM_0
 10
185.05339328575701
 20
415.01167766071421
 30
0.0
 11
185.05339328575701
 21
413.61167766071122
 31
0.0
  0
LINE
  5
56E1
  8
AM_0
 10
187.15302901232789
 20
423.41167766071197
 30
0.0
 11
186.4030290123288
 21
405.21167766071221
 31
0.0
  0
LINE
  5
56E2
  8
AM_0
 10
186.202064382103
 20
423.41167766071197
 30
0.0
 11
185.55339328575701
 21
407.67059238939618
 31
0.0
  0
LINE
  5
56E3
  8
AM_0
 10
186.9507569726749
 20
424.12733637307639
 30
0.0
 11
186.203496929267
 21
404.49930589954511
 31
0.0
  0
LINE
  5
56E4
  8
AM_0
 10
186.4015964651648
 20
424.12404942188027
 30
0.0
 11
185.65302901232889
 21
404.46167766071233
 31
0.0
  0
LINE
  5
56E5
  8
AM_0
 10
183.55339328575701
 20
402.31167766071229
 30
0.0
 11
181.35339328575679
 21
402.31167766071229
 31
0.0
  0
ARC
  5
56E6
  8
AM_0
 10
195.45206438210309
 20
401.81167766071218
 30
0.0
 40
0.5
 50
0.0
 51
90.000000000013017
  0
ARC
  5
56E7
  8
AM_0
 10
196.45206438210309
 20
401.31167766071218
 30
0.0
 40
0.5
 50
180.0
 51
270.0
  0
LINE
  5
56E8
  8
AM_0
 10
195.952064382103
 20
401.81167766071218
 30
0.0
 11
195.952064382103
 21
401.31167766071218
 31
0.0
  0
LINE
  5
56E9
  8
AM_0
 10
186.952064382103
 20
405.21167766071221
 30
0.0
 11
190.452064382103
 21
405.21167766071221
 31
0.0
  0
LINE
  5
56EA
  8
AM_0
 10
195.952064382103
 20
403.45560633930518
 30
0.0
 11
195.952064382103
 21
413.1677489821202
 31
0.0
  0
LINE
  5
56EB
  8
AM_0
 10
191.452064382103
 20
402.31167766071229
 30
0.0
 11
195.45206438210289
 21
402.31167766071229
 31
0.0
  0
LINE
  5
56EC
  8
AM_0
 10
195.452064382103
 20
402.95560633930518
 30
0.0
 11
190.952064382103
 21
402.95560633930518
 31
0.0
  0
ARC
  5
56ED
  8
AM_0
 10
195.45206438210309
 20
403.45560633930518
 30
0.0
 40
0.5
 50
270.0
 51
0.0
  0
ARC
  5
56EE
  8
AM_0
 10
190.45206438210289
 20
404.7116776607125
 30
0.0
 40
0.5
 50
0.0
 51
90.0
  0
ARC
  5
56EF
  8
AM_0
 10
191.45206438210289
 20
402.81167766071229
 30
0.0
 40
0.5
 50
180.0
 51
270.0
  0
LINE
  5
56F0
  8
AM_0
 10
195.452064382103
 20
413.66774898211997
 30
0.0
 11
190.952064382103
 21
413.66774898211997
 31
0.0
  0
ARC
  5
56F1
  8
AM_0
 10
195.45206438210289
 20
413.1677489821202
 30
0.0
 40
0.5
 50
0.0
 51
90.0
  0
LINE
  5
56F2
  8
AM_0
 10
185.05339328575701
 20
408.16650690841999
 30
0.0
 11
185.05339328575701
 21
409.3387500948532
 31
0.0
  0
LINE
  5
56F3
  8
AM_0
 10
186.4797614407538
 20
405.21167766071221
 30
0.0
 11
186.952064382103
 21
405.21167766071221
 31
0.0
  0
LINE
  5
56F4
  8
AM_0
 10
186.38316894621471
 20
405.13755989397532
 30
0.0
 11
186.4030290123288
 21
405.21167766071221
 31
0.0
  0
ARC
  5
56F5
  8
AM_0
 10
186.4797614407538
 20
405.11167766071219
 30
0.0
 40
0.1000000000000346
 50
90.0
 51
164.99980499355539
  0
ARC
  5
56F6
  8
AM_0
 10
184.753393285757
 20
405.0248446802043
 30
0.0
 40
0.3000000000000043
 50
0.0
 51
90.0
  0
LINE
  5
56F7
  8
AM_0
 10
183.55339328575701
 20
402.91167766071209
 30
0.0
 11
184.77334898891411
 21
402.99300804092343
 31
0.0
  0
LINE
  5
56F8
  8
AM_0
 10
183.55339328575701
 20
404.0679296965522
 30
0.0
 11
184.75339328575691
 21
404.0679296965522
 31
0.0
  0
LINE
  5
56F9
  8
AM_0
 10
185.05339328575701
 20
403.31167766071229
 30
0.0
 11
183.55339328575701
 21
403.31167766071229
 31
0.0
  0
ARC
  5
56FA
  8
AM_0
 10
185.05339328575701
 20
403.81167766071229
 30
0.0
 40
0.5
 50
270.0
 51
0.0
  0
LINE
  5
56FB
  8
AM_0
 10
185.05339328575701
 20
403.29234358828018
 30
0.0
 11
185.05339328575701
 21
403.31167766071229
 31
0.0
  0
LINE
  5
56FC
  8
AM_0
 10
185.05339328575701
 20
403.01167766071228
 30
0.0
 11
185.05339328575701
 21
403.29234358828018
 31
0.0
  0
LINE
  5
56FD
  8
AM_0
 10
184.77334898891411
 20
402.99300804092343
 30
0.0
 11
185.05339328575701
 21
403.01167766071228
 31
0.0
  0
ARC
  5
56FE
  8
AM_0
 10
184.753393285757
 20
403.29234358828018
 30
0.0
 40
0.3000000000000007
 50
273.8140748342816
 51
0.0
  0
LINE
  5
56FF
  8
AM_0
 10
186.1253319536778
 20
404.46167766071233
 30
0.0
 11
186.20206438210391
 21
404.46167766071233
 31
0.0
  0
LINE
  5
5700
  8
AM_0
 10
186.20206438210391
 20
404.46167766071233
 30
0.0
 11
186.22192444821701
 21
404.53579542744859
 31
0.0
  0
LINE
  5
5701
  8
AM_0
 10
185.63316894621479
 20
404.53579542744859
 30
0.0
 11
185.65302901232889
 21
404.46167766071233
 31
0.0
  0
LINE
  5
5702
  8
AM_0
 10
185.65302901232889
 20
404.46167766071233
 30
0.0
 11
185.7297614407538
 21
404.46167766071233
 31
0.0
  0
LINE
  5
5703
  8
AM_0
 10
186.22192444821701
 20
404.53579542744859
 30
0.0
 11
186.38316894621471
 21
405.13755989397532
 31
0.0
  0
LINE
  5
5704
  8
AM_0
 10
185.7297614407538
 20
404.46167766071233
 30
0.0
 11
186.1253319536778
 21
404.46167766071233
 31
0.0
  0
LINE
  5
5705
  8
AM_0
 10
185.55339328575781
 20
404.833518192273
 30
0.0
 11
185.63316894621479
 21
404.53579542744859
 31
0.0
  0
ARC
  5
5706
  8
AM_0
 10
186.1253319536778
 20
404.56167766071229
 30
0.0
 40
0.0999999999999866
 50
270.0
 51
344.99980499343371
  0
ARC
  5
5707
  8
AM_0
 10
185.7297614407538
 20
404.56167766071229
 30
0.0
 40
0.1000000000000014
 50
195.00019500656629
 51
270.0
  0
LINE
  5
5708
  8
AM_0
 10
185.05339328575701
 20
404.36792969655221
 30
0.0
 11
185.05339328575701
 21
405.0248446802043
 31
0.0
  0
ARC
  5
5709
  8
AM_0
 10
184.753393285757
 20
404.36792969655249
 30
0.0
 40
0.3000000000000007
 50
270.0
 51
0.0
  0
LINE
  5
570A
  8
AM_0
 10
183.55339328575701
 20
407.86650690842021
 30
0.0
 11
184.75339328575691
 21
407.86650690842021
 31
0.0
  0
LINE
  5
570B
  8
AM_0
 10
184.75339328575691
 20
405.32484468020431
 30
0.0
 11
183.55339328575701
 21
405.32484468020431
 31
0.0
  0
LINE
  5
570C
  8
AM_0
 10
186.4030290123288
 20
405.21167766071221
 30
0.0
 11
186.4797614407538
 21
405.21167766071221
 31
0.0
  0
ARC
  5
570D
  8
AM_0
 10
184.753393285757
 20
408.16650690842039
 30
0.0
 40
0.3000000000000007
 50
270.0
 51
0.0
  0
LINE
  5
570E
  8
AM_0
 10
184.75339328575691
 20
409.63875009485338
 30
0.0
 11
183.55339328575701
 21
409.63875009485338
 31
0.0
  0
ARC
  5
570F
  8
AM_0
 10
184.753393285757
 20
409.33875009485342
 30
0.0
 40
0.3000000000000043
 50
0.0
 51
90.0
  0
LINE
  5
5710
  8
AM_0
 10
184.75339328575691
 20
413.31167766071121
 30
0.0
 11
183.55339328575701
 21
413.31167766071121
 31
0.0
  0
ARC
  5
5711
  8
AM_0
 10
184.753393285757
 20
413.61167766071122
 30
0.0
 40
0.3000000000000007
 50
270.0
 51
0.0
  0
LINE
  5
5712
  8
AM_0
 10
174.55339328575701
 20
404.178397832065
 30
0.0
 11
181.05339328575701
 21
404.178397832065
 31
0.0
  0
LINE
  5
5713
  8
AM_0
 10
174.55339328575701
 20
403.678397832065
 30
0.0
 11
181.05339328575701
 21
403.678397832065
 31
0.0
  0
LINE
  5
5714
  8
AM_0
 10
181.05339328575701
 20
413.81167766071218
 30
0.0
 11
174.55339328575701
 21
413.81167766071218
 31
0.0
  0
LINE
  5
5715
  8
AM_0
 10
174.05339328575701
 20
413.31167766071212
 30
0.0
 11
181.05339328575701
 21
413.31167766071212
 31
0.0
  0
LINE
  5
5716
  8
AM_0
 10
180.75339328575691
 20
403.31167766071229
 30
0.0
 11
173.91544322093901
 21
403.31167766071229
 31
0.0
  0
LINE
  5
5717
  8
AM_0
 10
181.05339328575701
 20
412.96498959217098
 30
0.0
 11
174.55339328575701
 21
412.96498959217098
 31
0.0
  0
LINE
  5
5718
  8
AM_0
 10
181.05339328575701
 20
404.65836572925338
 30
0.0
 11
174.55339328575701
 21
404.65836572925338
 31
0.0
  0
ARC
  5
5719
  8
AM_0
 10
181.35339328575679
 20
402.6116776607123
 30
0.0
 40
0.2999999999999971
 50
180.0
 51
270.0
  0
ARC
  5
571A
  8
AM_0
 10
180.753393285757
 20
403.01167766071228
 30
0.0
 40
0.2999999999999971
 50
0.0
 51
90.0
  0
ARC
  5
571B
  8
AM_0
 10
182.67839328575701
 20
408.81167766071218
 30
0.0
 40
9.124999999999984
 50
152.92493329271929
 51
207.07506670728071
  0
LINE
  5
571C
  8
AM_0
 10
173.27525882127441
 20
403.54345638111482
 30
0.0
 11
170.91320888609241
 21
405.5118313270998
 31
0.0
  0
LINE
  5
571D
  8
AM_0
 10
174.05339328575701
 20
403.8901102442203
 30
0.0
 11
174.55339328575701
 21
403.31167766071229
 31
0.0
  0
ARC
  5
571E
  8
AM_0
 10
173.9154432209389
 20
404.31167766071218
 30
0.0
 40
1.0
 50
230.19442890774391
 51
270.0
  0
LINE
  5
571F
  8
AM_0
 10
174.55339328575701
 20
403.678397832065
 30
0.0
 11
174.05339328575701
 21
403.8901102442203
 31
0.0
  0
LINE
  5
5720
  8
AM_0
 10
174.05339328575701
 20
404.35238551719141
 30
0.0
 11
174.55339328575701
 21
403.678397832065
 31
0.0
  0
LINE
  5
5721
  8
AM_0
 10
174.55339328575701
 20
404.178397832065
 30
0.0
 11
174.05339328575701
 21
404.35238551719141
 31
0.0
  0
LINE
  5
5722
  8
AM_0
 10
174.05339328575701
 20
404.8901102442203
 30
0.0
 11
174.55339328575701
 21
404.178397832065
 31
0.0
  0
LINE
  5
5723
  8
AM_0
 10
174.55339328575701
 20
404.65836572925338
 30
0.0
 11
174.05339328575701
 21
404.8901102442203
 31
0.0
  0
ARC
  5
5724
  8
AM_0
 10
171.55339328575701
 20
406.28005260669738
 30
0.0
 40
1.0000000000000291
 50
180.0
 51
230.19442890773689
  0
LINE
  5
5725
  8
AM_0
 10
174.55339328575701
 20
413.81167766071218
 30
0.0
 11
174.05339328575701
 21
414.31167766071218
 31
0.0
  0
LINE
  5
5726
  8
AM_0
 10
174.05339328575701
 20
413.31167766071212
 30
0.0
 11
174.55339328575701
 21
413.81167766071218
 31
0.0
  0
LINE
  5
5727
  8
AM_0
 10
174.55339328575701
 20
412.96498959217098
 30
0.0
 11
174.05339328575701
 21
413.31167766071212
 31
0.0
  0
LINE
  5
5728
  8
AM_0
 10
181.35339328575679
 20
426.31167766071218
 30
0.0
 11
183.55339328575701
 21
426.31167766071218
 31
0.0
  0
ARC
  5
5729
  8
AM_0
 10
195.45206438210289
 20
426.81167766071218
 30
0.0
 40
0.5
 50
269.99999999998693
 51
0.0
  0
LINE
  5
572A
  8
AM_0
 10
190.452064382103
 20
423.41167766071197
 30
0.0
 11
187.2297614407538
 21
423.41167766071197
 31
0.0
  0
LINE
  5
572B
  8
AM_0
 10
195.952064382103
 20
415.45560633930518
 30
0.0
 11
195.952064382103
 21
425.16774898212032
 31
0.0
  0
LINE
  5
572C
  8
AM_0
 10
190.952064382103
 20
414.95560633930529
 30
0.0
 11
195.452064382103
 21
414.95560633930529
 31
0.0
  0
ARC
  5
572D
  8
AM_0
 10
195.45206438210289
 20
415.45560633930518
 30
0.0
 40
0.5
 50
270.0
 51
0.0
  0
LINE
  5
572E
  8
AM_0
 10
190.952064382103
 20
425.6677489821202
 30
0.0
 11
195.452064382103
 21
425.6677489821202
 31
0.0
  0
LINE
  5
572F
  8
AM_0
 10
195.45206438210289
 20
426.31167766071218
 30
0.0
 11
191.452064382103
 21
426.31167766071218
 31
0.0
  0
ARC
  5
5730
  8
AM_0
 10
195.45206438210289
 20
425.16774898212032
 30
0.0
 40
0.5
 50
0.0
 51
90.0
  0
ARC
  5
5731
  8
AM_0
 10
190.45206438210289
 20
423.91167766071209
 30
0.0
 40
0.5
 50
270.0
 51
0.0
  0
ARC
  5
5732
  8
AM_0
 10
191.45206438210289
 20
425.81167766071212
 30
0.0
 40
0.5
 50
90.0
 51
180.0
  0
ARC
  5
5733
  8
AM_0
 10
184.753393285757
 20
420.45684841300408
 30
0.0
 40
0.3000000000000114
 50
0.0
 51
90.0
  0
LINE
  5
5734
  8
AM_0
 10
183.55339328575701
 20
415.311677660714
 30
0.0
 11
184.75339328575691
 21
415.311677660714
 31
0.0
  0
ARC
  5
5735
  8
AM_0
 10
184.753393285757
 20
415.0116776607145
 30
0.0
 40
0.2999999999999971
 50
0.0
 51
90.0
  0
LINE
  5
5736
  8
AM_0
 10
183.55339328575701
 20
418.98460522657109
 30
0.0
 11
184.75339328575691
 21
418.98460522657109
 31
0.0
  0
ARC
  5
5737
  8
AM_0
 10
184.753393285757
 20
419.28460522657122
 30
0.0
 40
0.3000000000000007
 50
270.0
 51
0.0
  0
LINE
  5
5738
  8
AM_0
 10
185.05339328575701
 20
419.28460522657122
 30
0.0
 11
185.05339328575701
 21
420.45684841300408
 31
0.0
  0
LINE
  5
5739
  8
AM_0
 10
186.4797614407538
 20
424.1616776607122
 30
0.0
 11
186.8753319536778
 21
424.1616776607122
 31
0.0
  0
LINE
  5
573A
  8
AM_0
 10
186.4797614407538
 20
424.1616776607122
 30
0.0
 11
186.8753319536778
 21
424.1616776607122
 31
0.0
  0
LINE
  5
573B
  8
AM_0
 10
186.97192444821701
 20
424.08755989397588
 30
0.0
 11
187.13316894621479
 21
423.48579542744869
 31
0.0
  0
LINE
  5
573C
  8
AM_0
 10
186.97192444821701
 20
424.08755989397588
 30
0.0
 11
187.13316894621479
 21
423.48579542744869
 31
0.0
  0
ARC
  5
573D
  8
AM_0
 10
187.2297614407538
 20
423.51167766071228
 30
0.0
 40
0.0999999999999943
 50
195.00019500651561
 51
270.0
  0
ARC
  5
573E
  8
AM_0
 10
186.8753319536778
 20
424.06167766071218
 30
0.0
 40
0.0999999999999943
 50
15.000195006505431
 51
90.0
  0
LINE
  5
573F
  8
AM_0
 10
185.5525466972158
 20
423.78667766071231
 30
0.0
 11
185.63316894621479
 21
423.48579542744869
 31
0.0
  0
LINE
  5
5740
  8
AM_0
 10
186.20477503430891
 20
423.45094219381042
 30
0.0
 11
186.38316894621479
 21
424.08755989397588
 31
0.0
  0
LINE
  5
5741
  8
AM_0
 10
186.22192444821701
 20
423.48579542744869
 30
0.0
 11
186.38316894621479
 21
424.08755989397588
 31
0.0
  0
LINE
  5
5742
  8
AM_0
 10
185.05339328575701
 20
423.59851064122108
 30
0.0
 11
185.05339328575701
 21
424.25542562487198
 31
0.0
  0
LINE
  5
5743
  8
AM_0
 10
185.55339328575701
 20
423.78351819227419
 30
0.0
 11
185.63316894621479
 21
423.48579542744869
 31
0.0
  0
LINE
  5
5744
  8
AM_0
 10
183.55339328575701
 20
423.29851064122141
 30
0.0
 11
184.75339328575691
 21
423.29851064122141
 31
0.0
  0
LINE
  5
5745
  8
AM_0
 10
184.75339328575691
 20
420.75684841300409
 30
0.0
 11
183.55339328575701
 21
420.75684841300517
 31
0.0
  0
LINE
  5
5746
  8
AM_0
 10
186.15796421919291
 20
423.41167766071197
 30
0.0
 11
186.20477503430891
 21
423.45094219381042
 31
0.0
  0
LINE
  5
5747
  8
AM_0
 10
185.7297614407538
 20
423.41167766071197
 30
0.0
 11
186.15796421919291
 21
423.41167766071197
 31
0.0
  0
LINE
  5
5748
  8
AM_0
 10
185.7297614407538
 20
423.41167766071197
 30
0.0
 11
186.1253319536778
 21
423.41167766071197
 31
0.0
  0
ARC
  5
5749
  8
AM_0
 10
185.7297614407538
 20
423.51167766071228
 30
0.0
 40
0.0999999999999943
 50
195.00019500651561
 51
270.0
  0
ARC
  5
574A
  8
AM_0
 10
186.1253319536778
 20
423.51167766071228
 30
0.0
 40
0.0999999999999608
 50
270.0
 51
344.99980499348419
  0
ARC
  5
574B
  8
AM_0
 10
184.753393285757
 20
423.59851064122108
 30
0.0
 40
0.3000000000000007
 50
270.0
 51
0.0
  0
LINE
  5
574C
  8
AM_0
 10
183.55339328575701
 20
425.31167766071218
 30
0.0
 11
185.05339328575701
 21
425.31167766071218
 31
0.0
  0
LINE
  5
574D
  8
AM_0
 10
184.75339328575691
 20
424.55542562487221
 30
0.0
 11
183.55339328575701
 21
424.55542562487221
 31
0.0
  0
LINE
  5
574E
  8
AM_0
 10
184.77334898891411
 20
425.63034728050212
 30
0.0
 11
183.55339328575701
 21
425.71167766071221
 31
0.0
  0
ARC
  5
574F
  8
AM_0
 10
185.05339328575701
 20
424.81167766071229
 30
0.0
 40
0.5
 50
0.0
 51
90.0
  0
ARC
  5
5750
  8
AM_0
 10
186.4797614407538
 20
424.06167766071218
 30
0.0
 40
0.0999999999999606
 50
90.0
 51
164.99980499349451
  0
ARC
  5
5751
  8
AM_0
 10
184.753393285757
 20
424.25542562487198
 30
0.0
 40
0.2999999999999971
 50
0.0
 51
90.0
  0
LINE
  5
5752
  8
AM_0
 10
185.05339328575701
 20
425.31167766071218
 30
0.0
 11
185.05339328575701
 21
425.3310117331452
 31
0.0
  0
ARC
  5
5753
  8
AM_0
 10
184.753393285757
 20
425.3310117331452
 30
0.0
 40
0.3000000000000043
 50
0.0
 51
86.185925165718416
  0
ARC
  5
5754
  8
AM_0
 10
196.45206438210289
 20
427.31167766071229
 30
0.0
 40
0.5
 50
90.0
 51
180.0
  0
LINE
  5
5755
  8
AM_0
 10
195.952064382103
 20
427.31167766071229
 30
0.0
 11
195.952064382103
 21
426.81167766071218
 31
0.0
  0
LINE
  5
5756
  8
AM_0
 10
174.55339328575701
 20
423.96498959217109
 30
0.0
 11
181.05339328575701
 21
423.96498959217109
 31
0.0
  0
LINE
  5
5757
  8
AM_0
 10
174.55339328575701
 20
415.65836572925309
 30
0.0
 11
181.05339328575701
 21
415.65836572925309
 31
0.0
  0
LINE
  5
5758
  8
AM_0
 10
173.91544322093901
 20
425.31167766071218
 30
0.0
 11
180.75339328575691
 21
425.31167766071218
 31
0.0
  0
LINE
  5
5759
  8
AM_0
 10
181.05339328575701
 20
415.31167766071229
 30
0.0
 11
174.05339328575701
 21
415.31167766071229
 31
0.0
  0
LINE
  5
575A
  8
AM_0
 10
174.55339328575701
 20
414.81167766071229
 30
0.0
 11
181.05339328575701
 21
414.81167766071229
 31
0.0
  0
LINE
  5
575B
  8
AM_0
 10
181.05339328575701
 20
424.94495748936021
 30
0.0
 11
174.55339328575701
 21
424.94495748936021
 31
0.0
  0
LINE
  5
575C
  8
AM_0
 10
181.05339328575701
 20
424.44495748936021
 30
0.0
 11
174.55339328575701
 21
424.44495748936021
 31
0.0
  0
ARC
  5
575D
  8
AM_0
 10
180.753393285757
 20
425.6116776607123
 30
0.0
 40
0.3000000000000043
 50
270.0
 51
0.0
  0
ARC
  5
575E
  8
AM_0
 10
181.35339328575679
 20
426.01167766071222
 30
0.0
 40
0.2999999999999971
 50
90.0
 51
180.0
  0
ARC
  5
575F
  8
AM_0
 10
182.67839328575701
 20
419.81167766071229
 30
0.0
 40
9.124999999999984
 50
152.92493329271929
 51
207.07506670728071
  0
LINE
  5
5760
  8
AM_0
 10
174.05339328575701
 20
415.31167766071229
 30
0.0
 11
174.55339328575701
 21
415.65836572925309
 31
0.0
  0
LINE
  5
5761
  8
AM_0
 10
174.55339328575701
 20
414.81167766071229
 30
0.0
 11
174.05339328575701
 21
415.31167766071229
 31
0.0
  0
LINE
  5
5762
  8
AM_0
 10
170.91320888609241
 20
423.11152399432558
 30
0.0
 11
173.27525882127441
 21
425.07989894030948
 31
0.0
  0
LINE
  5
5763
  8
AM_0
 10
174.55339328575701
 20
425.31167766071218
 30
0.0
 11
174.05339328575701
 21
424.73324507720508
 31
0.0
  0
ARC
  5
5764
  8
AM_0
 10
173.9154432209389
 20
424.31167766071229
 30
0.0
 40
1.0000000000000411
 50
90.0
 51
129.805571092256
  0
LINE
  5
5765
  8
AM_0
 10
174.05339328575701
 20
423.7332450772052
 30
0.0
 11
174.55339328575701
 21
423.96498959217109
 31
0.0
  0
LINE
  5
5766
  8
AM_0
 10
174.55339328575701
 20
424.44495748936021
 30
0.0
 11
174.05339328575701
 21
423.7332450772052
 31
0.0
  0
LINE
  5
5767
  8
AM_0
 10
174.05339328575701
 20
424.27096980423318
 30
0.0
 11
174.55339328575701
 21
424.44495748936021
 31
0.0
  0
LINE
  5
5768
  8
AM_0
 10
174.55339328575701
 20
424.94495748936021
 30
0.0
 11
174.05339328575701
 21
424.27096980423318
 31
0.0
  0
LINE
  5
5769
  8
AM_0
 10
174.05339328575701
 20
424.73324507720508
 30
0.0
 11
174.55339328575701
 21
424.94495748936021
 31
0.0
  0
ARC
  5
576A
  8
AM_0
 10
171.55339328575701
 20
422.343302714728
 30
0.0
 40
1.0
 50
129.80557109226311
 51
180.0
  0
LINE
  5
576B
  8
AM_0
 10
295.952064382103
 20
391.31167766071258
 30
0.0
 11
275.13755948257062
 21
391.31167766071258
 31
0.0
  0
LINE
  5
576C
  8
AM_0
 10
220.76656928163541
 20
391.31167766071258
 30
0.0
 11
199.95206438210371
 21
391.31167766071258
 31
0.0
  0
LINE
  5
576D
  8
AM_0
 10
289.81628271294198
 20
387.31167766071258
 30
0.0
 11
206.08784605126391
 21
387.31167766071258
 31
0.0
  0
LINE
  5
576E
  8
AM_0
 10
208.85941935441011
 20
389.25274014858479
 30
0.0
 11
208.9520643821036
 21
390.31167766071258
 31
0.0
  0
LINE
  5
576F
  8
AM_0
 10
201.04470940979709
 20
389.25274014858479
 30
0.0
 11
200.95206438210371
 21
390.31167766071258
 31
0.0
  0
ARC
  5
5770
  8
AM_0
 10
204.9520643821036
 20
393.71167766071272
 30
0.0
 40
6.5
 50
241.82726586813479
 51
298.17273413186518
  0
ARC
  5
5771
  8
AM_0
 10
202.6386209267439
 20
389.39218933698112
 30
0.0
 40
1.6000000000000001
 50
184.99999999999969
 51
241.82726586813479
  0
LINE
  5
5772
  8
AM_0
 10
207.2520643821035
 20
387.63220399928429
 30
0.0
 11
204.9520643821036
 21
389.9217636780798
 31
0.0
  0
LINE
  5
5773
  8
AM_0
 10
205.2635643821036
 20
389.61167766071259
 30
0.0
 11
204.64056438210361
 21
389.61167766071259
 31
0.0
  0
LINE
  5
5774
  8
AM_0
 10
202.65206438210359
 20
387.63220399928429
 30
0.0
 11
204.9520643821036
 21
389.9217636780798
 31
0.0
  0
LINE
  5
5775
  8
AM_0
 10
205.2635643821036
 20
387.21914597037772
 30
0.0
 11
205.2635643821036
 21
389.61167766071259
 31
0.0
  0
LINE
  5
5776
  8
AM_0
 10
204.64056438210361
 20
387.21914597037772
 30
0.0
 11
204.64056438210361
 21
389.61167766071259
 31
0.0
  0
ARC
  5
5777
  8
AM_0
 10
207.2655078374633
 20
389.39218933698112
 30
0.0
 40
1.6000000000000001
 50
298.17273413186518
 51
355.00000000000023
  0
LINE
  5
5778
  8
AM_0
 10
295.95206438210312
 20
391.31167766071258
 30
0.0
 11
295.95206438210312
 21
395.31167766071258
 31
0.0
  0
LINE
  5
5779
  8
AM_0
 10
199.9520643821028
 20
395.31167766071252
 30
0.0
 11
199.9520643821038
 21
391.31167766071258
 31
0.0
  0
LINE
  5
577A
  8
AM_0N
 10
208.75206438210361
 20
391.31167766071258
 30
0.0
 11
208.75206438210361
 21
390.31167766071258
 31
0.0
  0
LINE
  5
577B
  8
AM_0N
 10
205.15206438210359
 20
390.31167766071258
 30
0.0
 11
205.51603461636981
 21
391.31167766071258
 31
0.0
  0
LINE
  5
577C
  8
AM_0N
 10
204.75206438210361
 20
390.31167766071258
 30
0.0
 11
205.1160346163698
 21
391.31167766071258
 31
0.0
  0
LINE
  5
577D
  8
AM_0N
 10
200.9520643821036
 20
390.31167766071258
 30
0.0
 11
208.9520643821036
 21
390.31167766071258
 31
0.0
  0
LINE
  5
577E
  8
AM_0N
 10
201.15206438210359
 20
390.31167766071258
 30
0.0
 11
201.15206438210359
 21
391.31167766071258
 31
0.0
  0
LINE
  5
577F
  8
AM_0
 10
220.7665692816353
 20
387.31167766071258
 30
0.0
 11
220.7665692816353
 21
391.31167766071258
 31
0.0
  0
LINE
  5
5780
  8
AM_0
 10
219.1097150321429
 20
391.31167766071258
 30
0.0
 11
220.7665692816353
 21
387.31167766071258
 31
0.0
  0
LINE
  5
5781
  8
AM_0
 10
275.13755948257062
 20
387.31167766071258
 30
0.0
 11
275.13755948257062
 21
391.31167766071258
 31
0.0
  0
LINE
  5
5782
  8
AM_0
 10
276.79441373206322
 20
391.31167766071258
 30
0.0
 11
275.13755948257062
 21
387.31167766071258
 31
0.0
  0
LINE
  5
5783
  8
AM_0
 10
214.452064382103
 20
436.31167766071252
 30
0.0
 11
281.452064382103
 21
436.31167766071252
 31
0.0
  0
LINE
  5
5784
  8
AM_0
 10
214.452064382103
 20
436.31167766071252
 30
0.0
 11
214.452064382103
 21
434.31167766071252
 31
0.0
  0
LINE
  5
5785
  8
AM_0
 10
281.452064382103
 20
436.31167766071252
 30
0.0
 11
281.452064382103
 21
434.31167766071252
 31
0.0
  0
LINE
  5
5786
  8
ﾁｭｳｼﾝｾﾝ1
 10
290.95206438210232
 20
385.04697016071248
 30
0.0
 11
290.95206438210232
 21
398.04697016071259
 31
0.0
  0
LINE
  5
5787
  8
AM_0
 10
287.04470940979593
 20
389.25274014858479
 30
0.0
 11
286.95206438210238
 21
390.31167766071258
 31
0.0
  0
LINE
  5
5788
  8
AM_0
 10
294.859419354409
 20
389.25274014858479
 30
0.0
 11
294.95206438210232
 21
390.31167766071258
 31
0.0
  0
ARC
  5
5789
  8
AM_0
 10
290.95206438210261
 20
393.7116776607125
 30
0.0
 40
6.5
 50
241.82726586813479
 51
298.17273413186518
  0
ARC
  5
578A
  8
AM_0
 10
293.26550783746222
 20
389.39218933698089
 30
0.0
 40
1.6000000000000001
 50
298.17273413186518
 51
355.00000000000023
  0
LINE
  5
578B
  8
AM_0
 10
288.65206438210248
 20
387.63220399928429
 30
0.0
 11
290.95206438210249
 21
389.9217636780798
 31
0.0
  0
LINE
  5
578C
  8
AM_0
 10
290.64056438210241
 20
389.61167766071259
 30
0.0
 11
291.26356438210252
 21
389.61167766071259
 31
0.0
  0
LINE
  5
578D
  8
AM_0
 10
293.25206438210222
 20
387.63220399928429
 30
0.0
 11
290.95206438210249
 21
389.9217636780798
 31
0.0
  0
LINE
  5
578E
  8
AM_0
 10
290.64056438210241
 20
387.21914597037772
 30
0.0
 11
290.64056438210241
 21
389.61167766071259
 31
0.0
  0
LINE
  5
578F
  8
AM_0
 10
291.26356438210252
 20
387.21914597037772
 30
0.0
 11
291.26356438210252
 21
389.61167766071259
 31
0.0
  0
ARC
  5
5790
  8
AM_0
 10
288.63862092674287
 20
389.39218933698089
 30
0.0
 40
1.6000000000000001
 50
184.99999999999969
 51
241.82726586813479
  0
LINE
  5
5791
  8
AM_0N
 10
287.15206438210242
 20
391.31167766071258
 30
0.0
 11
287.15206438210242
 21
390.31167766071258
 31
0.0
  0
LINE
  5
5792
  8
AM_0N
 10
290.75206438210222
 20
390.31167766071258
 30
0.0
 11
290.38809414783628
 21
391.31167766071258
 31
0.0
  0
LINE
  5
5793
  8
AM_0N
 10
291.15206438210242
 20
390.31167766071258
 30
0.0
 11
290.7880941478362
 21
391.31167766071258
 31
0.0
  0
LINE
  5
5794
  8
AM_0N
 10
294.95206438210238
 20
390.31167766071258
 30
0.0
 11
286.95206438210238
 21
390.31167766071258
 31
0.0
  0
LINE
  5
5795
  8
AM_0N
 10
294.75206438210222
 20
390.31167766071258
 30
0.0
 11
294.75206438210222
 21
391.31167766071258
 31
0.0
  0
LINE
  5
5796
  8
AM_0
 10
198.952064382103
 20
398.31167766071229
 30
0.0
 11
198.95206438210289
 21
430.31167766071218
 31
0.0
  0
LINE
  5
5797
  8
ﾁｭｳｼﾝｾﾝ
 10
118.26324950978049
 20
502.31167766071258
 30
0.0
 11
426.31586438210309
 21
502.31167766071258
 31
0.0
  0
LINE
  5
57D9
  8
AM_0
 10
306.95206438210312
 20
445.81167766071229
 30
0.0
 11
306.95206438210312
 21
558.81170766071261
 31
0.0
  0
LINE
  5
57E2
  8
AM_0
 10
297.1578143821032
 20
547.2405676607126
 30
0.0
 11
293.01209438210321
 21
562.72167766071232
 31
0.0
  0
LINE
  5
57E3
  8
AM_0
 10
297.15778438210322
 20
546.33056766071263
 30
0.0
 11
293.01206438210312
 21
561.81167766071235
 31
0.0
  0
LINE
  5
57E4
  8
AM_0
 10
297.15778438210322
 20
544.48058766071267
 30
0.0
 11
293.01206438210312
 21
559.96172766071254
 31
0.0
  0
LINE
  5
57E5
  8
AM_0
 10
298.95206438210312
 20
558.31167766071235
 30
0.0
 11
298.95206438210312
 21
446.31167766071218
 31
0.0
  0
LINE
  5
57E6
  8
AM_0
 10
292.29209438210307
 20
538.31167766071235
 30
0.0
 11
193.3120543821033
 21
538.31167766071235
 31
0.0
  0
LINE
  5
57E7
  8
AM_0
 10
292.29209438210307
 20
536.31167766071246
 30
0.0
 11
193.3120543821033
 21
536.31167766071246
 31
0.0
  0
LINE
  5
57E8
  8
AM_0
 10
259.95206438210329
 20
528.31167766071235
 30
0.0
 11
193.3120543821033
 21
528.31167766071235
 31
0.0
  0
LINE
  5
57E9
  8
AM_0
 10
292.28489438210318
 20
526.31167766071258
 30
0.0
 11
193.3120543821033
 21
526.31167766071258
 31
0.0
  0
LINE
  5
57EA
  8
AM_0
 10
227.39078438210319
 20
518.31167766071258
 30
0.0
 11
193.3120543821033
 21
518.31167766071258
 31
0.0
  0
LINE
  5
57EB
  8
AM_0
 10
227.39078438210319
 20
516.31167766071235
 30
0.0
 11
193.3120543821033
 21
516.31167766071235
 31
0.0
  0
LINE
  5
57EC
  8
AM_0
 10
227.39078438210319
 20
508.31167766071252
 30
0.0
 11
193.3120543821033
 21
508.31167766071252
 31
0.0
  0
LINE
  5
57ED
  8
AM_0
 10
227.39078438210319
 20
506.31167766071258
 30
0.0
 11
193.3120543821033
 21
506.31167766071258
 31
0.0
  0
LINE
  5
57EE
  8
AM_0
 10
192.63205438210341
 20
539.03164766071245
 30
0.0
 11
295.77207438210309
 21
539.03164766071245
 31
0.0
  0
LINE
  5
57EF
  8
AM_0
 10
192.63205438210341
 20
535.68166766071261
 30
0.0
 11
259.97208438210328
 21
535.68166766071261
 31
0.0
  0
LINE
  5
57F0
  8
AM_0
 10
192.4120843821031
 20
528.80166766071227
 30
0.0
 11
259.95206438210329
 21
528.80166766071227
 31
0.0
  0
LINE
  5
57F1
  8
AM_0
 10
192.4120843821031
 20
525.87172766071251
 30
0.0
 11
295.98630438210319
 21
525.87172766071251
 31
0.0
  0
LINE
  5
57F2
  8
AM_0
 10
192.28208438210319
 20
518.65163766071259
 30
0.0
 11
228.61075438210321
 21
518.65163766071259
 31
0.0
  0
LINE
  5
57F3
  8
AM_0
 10
192.28208438210319
 20
515.99172766071229
 30
0.0
 11
228.61075438210321
 21
515.99172766071229
 31
0.0
  0
LINE
  5
57F4
  8
AM_0
 10
192.22208438210299
 20
508.58169766071251
 30
0.0
 11
228.67075438210321
 21
508.58169766071251
 31
0.0
  0
LINE
  5
57F5
  8
AM_0
 10
192.22208438210299
 20
506.05166766071261
 30
0.0
 11
228.67075438210321
 21
506.05166766071261
 31
0.0
  0
LINE
  5
57F6
  8
AM_0
 10
192.22208438210299
 20
498.58169766071222
 30
0.0
 11
228.67075438210321
 21
498.58169766071222
 31
0.0
  0
LINE
  5
57F7
  8
AM_0
 10
227.39078438210319
 20
498.31167766071258
 30
0.0
 11
193.3120543821033
 21
498.31167766071258
 31
0.0
  0
LINE
  5
57F8
  8
AM_0
 10
227.39078438210319
 20
496.31167766071252
 30
0.0
 11
193.3120543821033
 21
496.31167766071252
 31
0.0
  0
LINE
  5
57F9
  8
AM_0
 10
192.22208438210299
 20
496.04165766071247
 30
0.0
 11
228.67075438210321
 21
496.04165766071247
 31
0.0
  0
LINE
  5
57FA
  8
AM_0
 10
192.28208438210319
 20
488.63161766071272
 30
0.0
 11
228.61075438210321
 21
488.63161766071272
 31
0.0
  0
LINE
  5
57FB
  8
AM_0
 10
227.39078438210319
 20
488.31167766071252
 30
0.0
 11
193.3120543821033
 21
488.31167766071252
 31
0.0
  0
LINE
  5
57FC
  8
AM_0
 10
227.39078438210319
 20
486.31167766071252
 30
0.0
 11
193.3120543821033
 21
486.31167766071252
 31
0.0
  0
LINE
  5
57FD
  8
AM_0
 10
192.28208438210319
 20
485.97170766071241
 30
0.0
 11
228.62333438210311
 21
485.97170766071241
 31
0.0
  0
LINE
  5
57FE
  8
AM_0
 10
292.28489438210318
 20
478.31167766071229
 30
0.0
 11
193.3120543821033
 21
478.31167766071229
 31
0.0
  0
LINE
  5
57FF
  8
AM_0
 10
192.4120843821031
 20
478.75161766071261
 30
0.0
 11
295.98630438210319
 21
478.75161766071261
 31
0.0
  0
LINE
  5
5800
  8
AM_0
 10
259.95206438210329
 20
476.31167766071258
 30
0.0
 11
193.3120543821033
 21
476.31167766071258
 31
0.0
  0
LINE
  5
5801
  8
AM_0
 10
192.4120843821031
 20
475.8216876607126
 30
0.0
 11
259.95206438210329
 21
475.8216876607126
 31
0.0
  0
LINE
  5
5802
  8
AM_0
 10
292.29209438210307
 20
468.31167766071218
 30
0.0
 11
247.95206438210309
 21
468.31167766071218
 31
0.0
  0
LINE
  5
5803
  8
AM_0
 10
292.29209438210307
 20
466.31167766071229
 30
0.0
 11
247.95206438210309
 21
466.31167766071229
 31
0.0
  0
LINE
  5
5804
  8
AM_0
 10
192.63205438210341
 20
465.59170766071219
 30
0.0
 11
247.95206438210309
 21
465.59170766071219
 31
0.0
  0
LINE
  5
5805
  8
AM_0
 10
295.77207438210309
 20
468.94167766071229
 30
0.0
 11
277.9321043821032
 21
468.94167766071229
 31
0.0
  0
LINE
  5
5806
  8
AM_0
 10
192.63205438210341
 20
468.94167766071229
 30
0.0
 11
259.97208438210328
 21
468.94167766071229
 31
0.0
  0
LINE
  5
5807
  8
AM_0
 10
247.95206438210309
 20
468.31167766071218
 30
0.0
 11
193.3120543821033
 21
468.31167766071218
 31
0.0
  0
LINE
  5
5808
  8
AM_0
 10
247.95206438210309
 20
466.31167766071229
 30
0.0
 11
193.3120543821033
 21
466.31167766071229
 31
0.0
  0
LINE
  5
5809
  8
AM_0
 10
247.95206438210309
 20
465.59170766071219
 30
0.0
 11
295.77207438210309
 21
465.59170766071219
 31
0.0
  0
LINE
  5
580A
  8
AM_0
 10
190.952064382103
 20
555.31167766071235
 30
0.0
 11
190.952064382103
 21
449.31167766071229
 31
0.0
  0
LINE
  5
580B
  8
AM_0
 10
298.95206438210312
 20
548.31167766071258
 30
0.0
 11
306.95206438210312
 21
548.31167766071258
 31
0.0
  0
LINE
  5
580C
  8
AM_0
 10
298.95206438210312
 20
534.25161766071255
 30
0.0
 11
306.95206438210312
 21
534.25161766071255
 31
0.0
  0
LINE
  5
580D
  8
AM_0
 10
298.95206438210312
 20
558.31167766071235
 30
0.0
 11
306.95206438210312
 21
558.31167766071235
 31
0.0
  0
LINE
  5
580E
  8
AM_0
 10
194.1620843821029
 20
558.5917076607127
 30
0.0
 11
291.0820743821032
 21
558.5917076607127
 31
0.0
  0
LINE
  5
580F
  8
AM_0
 10
190.952064382103
 20
550.41173766071245
 30
0.0
 11
192.19205438210309
 21
556.97173766071228
 31
0.0
  0
LINE
  5
5810
  8
AM_0
 10
196.31211438210309
 20
538.9616976607125
 30
0.0
 11
190.95212438210319
 21
550.41167766071248
 31
0.0
  0
LINE
  5
5811
  8
AM_0
 10
196.31205438210321
 20
465.66164766071228
 30
0.0
 11
190.95212438210319
 21
454.22173766071228
 31
0.0
  0
LINE
  5
5812
  8
AM_0
 10
194.20206438210309
 20
561.44167766071223
 30
0.0
 11
291.0820743821032
 21
561.44167766071223
 31
0.0
  0
LINE
  5
5813
  8
AM_0
 10
194.22208438210291
 20
563.29165766071264
 30
0.0
 11
291.0820743821032
 21
563.29165766071264
 31
0.0
  0
LINE
  5
5814
  8
AM_0
 10
194.24210438210321
 20
564.20168766071276
 30
0.0
 11
291.08213438210322
 21
564.20168766071276
 31
0.0
  0
LINE
  5
5815
  8
AM_0
 10
190.95212438210319
 20
551.75170766071255
 30
0.0
 11
192.23209438210321
 21
559.76165766071244
 31
0.0
  0
LINE
  5
5816
  8
AM_0
 10
190.95212438210319
 20
553.10164766071205
 30
0.0
 11
192.24210438210321
 21
561.59173766071251
 31
0.0
  0
LINE
  5
5817
  8
AM_0
 10
190.952064382103
 20
553.10167766071254
 30
0.0
 11
192.26206438210301
 21
562.48171766071255
 31
0.0
  0
LINE
  5
5818
  8
AM_0
 10
297.15213438210333
 20
541.65163766071259
 30
0.0
 11
293.01212438210308
 21
557.11165766071235
 31
0.0
  0
LINE
  5
5819
  8
AM_0
 10
293.49210438210321
 20
555.31167766071235
 30
0.0
 11
298.95206438210312
 21
555.31167766071235
 31
0.0
  0
LINE
  5
581A
  8
AM_0
 10
298.95206438210312
 20
456.31167766071229
 30
0.0
 11
306.95206438210312
 21
456.31167766071229
 31
0.0
  0
LINE
  5
581B
  8
AM_0
 10
298.95206438210312
 20
446.31167766071218
 30
0.0
 11
306.95206438210312
 21
446.31167766071218
 31
0.0
  0
LINE
  5
581C
  8
AM_0
 10
194.1620843821029
 20
446.03164766071251
 30
0.0
 11
291.0820743821032
 21
446.03164766071251
 31
0.0
  0
LINE
  5
581D
  8
AM_0
 10
190.952064382103
 20
454.22164766071251
 30
0.0
 11
192.1921143821032
 21
447.6616476607125
 31
0.0
  0
LINE
  5
581E
  8
AM_0
 10
193.85831438210309
 20
443.18166766071261
 30
0.0
 11
216.3501943821031
 21
443.18166766071261
 31
0.0
  0
LINE
  5
581F
  8
AM_0
 10
190.952064382103
 20
452.87163766071251
 30
0.0
 11
192.23209438210321
 21
444.87172766071251
 31
0.0
  0
LINE
  5
5820
  8
AM_0
 10
190.952064382103
 20
451.53173766071251
 30
0.0
 11
191.96134438210311
 21
444.8815576607123
 31
0.0
  0
LINE
  5
5821
  8
AM_0
 10
190.95212438210319
 20
451.53170766071253
 30
0.0
 11
191.8775443821032
 21
444.90511766071251
 31
0.0
  0
LINE
  5
5822
  8
AM_0
 10
297.15778438210322
 20
462.99282766071229
 30
0.0
 11
293.01206438210312
 21
447.5116876607126
 31
0.0
  0
LINE
  5
5823
  8
AM_0
 10
293.49411438210308
 20
449.31167766071229
 30
0.0
 11
298.95206438210312
 21
449.31167766071229
 31
0.0
  0
LINE
  5
5824
  8
AM_0
 10
298.95206438210312
 20
470.37172766071228
 30
0.0
 11
306.95206438210312
 21
470.37172766071228
 31
0.0
  0
LINE
  5
5825
  8
AM_0
 10
297.95206438210312
 20
449.31167766071229
 30
0.0
 11
292.22632438210309
 21
440.4947776607126
 31
0.0
  0
LINE
  5
5826
  8
AM_0
 10
279.4656743821032
 20
439.81167766071229
 30
0.0
 11
290.96830438210321
 21
439.81167766071229
 31
0.0
  0
LINE
  5
5827
  8
AM_0
 10
276.93210438210309
 20
529.81167766071235
 30
0.0
 11
276.93210438210309
 21
534.67165766071253
 31
0.0
  0
LINE
  5
5828
  8
AM_0
 10
260.97208438210311
 20
529.81167766071235
 30
0.0
 11
260.97208438210311
 21
534.67165766071253
 31
0.0
  0
LINE
  5
5829
  8
AM_0
 10
276.45206438210329
 20
529.81167766071235
 30
0.0
 11
276.45206438210329
 21
534.81167766071258
 31
0.0
  0
LINE
  5
582A
  8
AM_0
 10
261.45206438210312
 20
529.81167766071235
 30
0.0
 11
261.45206438210312
 21
534.81167766071258
 31
0.0
  0
LINE
  5
582B
  8
AM_0
 10
232.9520643821032
 20
515.31167766071246
 30
0.0
 11
295.95206438210312
 21
515.31167766071246
 31
0.0
  0
LINE
  5
582C
  8
AM_0
 10
232.9520643821032
 20
481.81167766071258
 30
0.0
 11
295.95206438210312
 21
481.81167766071258
 31
0.0
  0
LINE
  5
582D
  8
AM_0
 10
232.9520643821032
 20
522.81167766071258
 30
0.0
 11
295.95206438210312
 21
522.81167766071258
 31
0.0
  0
LINE
  5
582E
  8
AM_0
 10
295.95206438210312
 20
522.81167766071258
 30
0.0
 11
295.95206438210312
 21
481.81167766071258
 31
0.0
  0
LINE
  5
582F
  8
AM_0
 10
232.9520643821032
 20
522.81167766071258
 30
0.0
 11
232.9520643821032
 21
481.81167766071258
 31
0.0
  0
LINE
  5
5830
  8
AM_0
 10
277.95206438210312
 20
528.80166766071227
 30
0.0
 11
295.99778438210319
 21
528.80166766071227
 31
0.0
  0
LINE
  5
5831
  8
AM_0
 10
277.95206438210312
 20
475.83169766071251
 30
0.0
 11
295.98630438210319
 21
475.83169766071251
 31
0.0
  0
LINE
  5
5832
  8
AM_0
 10
276.93210438210309
 20
474.81167766071229
 30
0.0
 11
276.93210438210309
 21
469.95168766071248
 31
0.0
  0
LINE
  5
5833
  8
AM_0
 10
260.97208438210311
 20
474.81167766071229
 30
0.0
 11
260.97208438210311
 21
469.95168766071248
 31
0.0
  0
LINE
  5
5834
  8
AM_0
 10
276.45206438210329
 20
474.81167766071229
 30
0.0
 11
276.45206438210329
 21
469.81167766071252
 31
0.0
  0
LINE
  5
5835
  8
AM_0
 10
261.45206438210312
 20
474.81167766071229
 30
0.0
 11
261.45206438210312
 21
469.81167766071252
 31
0.0
  0
LINE
  5
5836
  8
AM_0
 10
292.28489438210318
 20
476.31167766071258
 30
0.0
 11
277.95206438210312
 21
476.31167766071258
 31
0.0
  0
LINE
  5
5837
  8
AM_0
 10
292.29923438210341
 20
528.31167766071235
 30
0.0
 11
277.95206438210312
 21
528.31167766071235
 31
0.0
  0
LINE
  5
5838
  8
AM_0
 10
277.9321043821032
 20
535.67165766071253
 30
0.0
 11
295.77207438210309
 21
535.67165766071253
 31
0.0
  0
ARC
  5
5876
  8
AM_0
 10
298.60526438210309
 20
547.64443766071236
 30
0.0
 40
1.502775999999999
 50
194.75642999999971
 51
269.87757999999872
  0
ARC
  5
5877
  8
AM_0
 10
298.60526438210309
 20
546.73440766071235
 30
0.0
 40
1.502775999999999
 50
194.75642999999971
 51
269.87757999999872
  0
ARC
  5
5878
  8
AM_0
 10
298.60526438210309
 20
544.8844276607125
 30
0.0
 40
1.502775999999999
 50
194.75642999999971
 51
269.87757999999872
  0
ARC
  5
5879
  8
AM_0
 10
291.07724438210317
 20
562.19692766071216
 30
0.0
 40
2.0047290000000002
 50
15.173495999999471
 51
89.861678000000197
  0
ARC
  5
587A
  8
AM_0
 10
291.07724438210317
 20
561.28689766071216
 30
0.0
 40
2.0047290000000002
 50
15.173495999999471
 51
89.861678000000197
  0
ARC
  5
587B
  8
AM_0
 10
291.07724438210317
 20
559.43691766071254
 30
0.0
 40
2.0047290000000002
 50
15.173495999999471
 51
89.861678000000197
  0
ARC
  5
587C
  8
AM_0
 10
298.60526438210309
 20
462.58889766071252
 30
0.0
 40
1.502775999999999
 50
90.122413000001615
 51
165.2435700000002
  0
ARC
  5
587D
  8
AM_0
 10
193.49668438210321
 20
467.31167766071218
 30
0.0
 40
1.000013899999999
 50
89.69165999999926
 51
270.30834000000078
  0
ARC
  5
587E
  8
AM_0
 10
295.77207438210309
 20
537.35671766071232
 30
0.0
 40
1.6750020000000001
 50
269.999989999999
 51
90.00000299999769
  0
ARC
  5
587F
  8
AM_0
 10
292.29209438210307
 20
537.31167766071235
 30
0.0
 40
1.0
 50
269.999989999999
 51
90.00000299999769
  0
ARC
  5
5880
  8
AM_0
 10
292.29209438210307
 20
467.31167766071218
 30
0.0
 40
1.0
 50
269.999989999999
 51
90.00000299999769
  0
ARC
  5
5881
  8
AM_0
 10
295.77207438210309
 20
467.26662766071252
 30
0.0
 40
1.6750020000000001
 50
269.999989999999
 51
90.00000299999769
  0
ARC
  5
5882
  8
AM_0
 10
192.62467438210339
 20
537.35671766071232
 30
0.0
 40
1.6750160000000001
 50
89.746145000004447
 51
270.25387000000092
  0
ARC
  5
5883
  8
AM_0
 10
193.49668438210321
 20
537.31167766071235
 30
0.0
 40
1.000013899999999
 50
89.69165999999926
 51
270.30834000000078
  0
ARC
  5
5884
  8
AM_0
 10
193.49668438210321
 20
527.31167766071258
 30
0.0
 40
1.000013899999999
 50
89.69165999999926
 51
270.30834000000078
  0
ARC
  5
5885
  8
AM_0
 10
193.49668438210321
 20
517.31167766071235
 30
0.0
 40
1.000013899999999
 50
89.69165999999926
 51
270.30834000000078
  0
ARC
  5
5886
  8
AM_0
 10
193.49668438210321
 20
507.31167766071252
 30
0.0
 40
1.000013899999999
 50
89.69165999999926
 51
270.30834000000078
  0
ARC
  5
5887
  8
AM_0
 10
193.49668438210321
 20
497.31167766071258
 30
0.0
 40
1.000013899999999
 50
89.69165999999926
 51
270.30834000000078
  0
ARC
  5
5888
  8
AM_0
 10
193.49668438210321
 20
487.31167766071252
 30
0.0
 40
1.000013899999999
 50
89.69165999999926
 51
270.30834000000078
  0
ARC
  5
5889
  8
AM_0
 10
193.49668438210321
 20
477.31167766071229
 30
0.0
 40
1.000013899999999
 50
89.69165999999926
 51
270.30834000000078
  0
ARC
  5
588A
  8
AM_0
 10
192.4120843821031
 20
527.3366976607125
 30
0.0
 40
1.465004
 50
90.00000299999769
 51
270.0
  0
ARC
  5
588B
  8
AM_0
 10
192.28208438210319
 20
517.32168766071254
 30
0.0
 40
1.3300049999999981
 50
90.00000299999769
 51
270.0
  0
ARC
  5
588C
  8
AM_0
 10
192.21622438210301
 20
507.31667766071229
 30
0.0
 40
1.2650129999999991
 50
89.735579000001735
 51
270.2644100000025
  0
ARC
  5
588D
  8
AM_0
 10
192.21622438210301
 20
497.31167766071258
 30
0.0
 40
1.2700129999999981
 50
89.736617000001587
 51
270.26336999999921
  0
ARC
  5
588E
  8
AM_0
 10
192.28208438210319
 20
487.30166766071261
 30
0.0
 40
1.3300049999999981
 50
90.00000299999769
 51
270.0
  0
ARC
  5
588F
  8
AM_0
 10
192.4120843821031
 20
477.28664766071228
 30
0.0
 40
1.465004
 50
90.00000299999769
 51
270.0
  0
ARC
  5
5890
  8
AM_0
 10
192.62522438210311
 20
467.26662766071252
 30
0.0
 40
1.675014
 50
89.766498999996756
 51
270.2335099999994
  0
ARC
  5
5891
  8
AM_0
 10
194.15079438210319
 20
556.59755766071271
 30
0.0
 40
1.994108999999999
 50
89.675548000002749
 51
169.18776999999901
  0
ARC
  5
5892
  8
AM_0
 10
194.2023143821032
 20
559.44643766071272
 30
0.0
 40
1.9952829999999959
 50
90.006203999996856
 51
170.90835000000069
  0
ARC
  5
5893
  8
AM_0
 10
194.21665438210309
 20
561.29494766071252
 30
0.0
 40
1.9967330000000001
 50
89.843966999998912
 51
171.45388000000071
  0
ARC
  5
5894
  8
AM_0
 10
194.23856438210291
 20
562.20607766071225
 30
0.0
 40
1.995633
 50
89.899707999995783
 51
172.06112999999939
  0
ARC
  5
5895
  8
AM_0
 10
291.08219438210318
 20
556.59340766071261
 30
0.0
 40
1.9982919999999991
 50
15.03254799999914
 51
90.002632000001341
  0
ARC
  5
5896
  8
AM_0
 10
298.60526438210309
 20
542.03444766071232
 30
0.0
 40
1.502775999999999
 50
194.75642999999971
 51
269.87757999999872
  0
ARC
  5
5897
  8
AM_0
 10
291.07724438210317
 20
448.03640766071231
 30
0.0
 40
2.0047290000000002
 50
270.13832000000423
 51
344.82649999999882
  0
ARC
  5
5898
  8
AM_0
 10
194.1569643821031
 20
448.0309076607125
 30
0.0
 40
1.9992490000000001
 50
190.643100000001
 51
270.14743000000129
  0
ARC
  5
5899
  8
AM_0
 10
194.2082943821033
 20
445.18203766071218
 30
0.0
 40
2.000420099999999
 50
188.9268200000011
 51
269.82270999999599
  0
ARC
  5
589A
  8
AM_0
 10
279.4656743821032
 20
438.31167766071212
 30
0.0
 40
1.5
 50
90.00000299999769
 51
178.50000000000051
  0
ARC
  5
589B
  8
AM_0
 10
290.96830438210321
 20
441.31167766071229
 30
0.0
 40
1.5
 50
269.999989999999
 51
326.99999999999892
  0
ARC
  5
589C
  8
AM_0
 10
193.93869438210319
 20
445.18166766071238
 30
0.0
 40
2.0
 50
188.6296200000007
 51
269.999989999999
  0
ARC
  5
589D
  8
AM_0
 10
193.85831438210309
 20
445.18166766071238
 30
0.0
 40
2.0
 50
187.95043999999999
 51
269.999989999999
  0
ARC
  5
589E
  8
AM_0
 10
216.3501943821031
 20
441.68166766071232
 30
0.0
 40
1.5
 50
1.5000026999989771
 51
90.00000299999769
  0
ARC
  5
589F
  8
AM_0
 10
227.39078438210319
 20
517.31167766071235
 30
0.0
 40
1.0000056999999991
 50
269.999989999999
 51
90.00000299999769
  0
ARC
  5
58A0
  8
AM_0
 10
227.39078438210319
 20
507.31167766071252
 30
0.0
 40
1.0000056999999991
 50
269.999989999999
 51
90.00000299999769
  0
ARC
  5
58A1
  8
AM_0
 10
227.39078438210319
 20
497.31167766071258
 30
0.0
 40
1.0000056999999991
 50
269.999989999999
 51
90.00000299999769
  0
ARC
  5
58A2
  8
AM_0
 10
227.39078438210319
 20
487.31167766071252
 30
0.0
 40
1.0000056999999991
 50
269.999989999999
 51
90.00000299999769
  0
ARC
  5
58A3
  8
AM_0
 10
277.95206438210312
 20
469.81167766071252
 30
0.0
 40
1.5
 50
179.999989999999
 51
270.0
  0
ARC
  5
58A4
  8
AM_0
 10
259.95206438210329
 20
469.81167766071252
 30
0.0
 40
1.5
 50
269.999989999999
 51
0.0000006832462478
  0
ARC
  5
58A5
  8
AM_0
 10
259.97208438210328
 20
469.95168766071248
 30
0.0
 40
1.0
 50
269.999989999999
 51
0.0000006832462478
  0
ARC
  5
58A6
  8
AM_0
 10
277.9321043821032
 20
469.95168766071248
 30
0.0
 40
1.0
 50
179.999989999999
 51
270.0
  0
CIRCLE
  5
58A7
  8
AM_0
 10
266.45206438210312
 20
530.81167766071258
 30
0.0
 40
1.1000000000000001
  0
CIRCLE
  5
58A8
  8
AM_0
 10
266.45206438210312
 20
530.81167766071258
 30
0.0
 40
1.149999999999999
  0
CIRCLE
  5
58A9
  8
AM_0
 10
271.45206438210312
 20
530.81167766071258
 30
0.0
 40
1.0
  0
ARC
  5
58AA
  8
AM_0
 10
259.95206438210329
 20
529.81167766071235
 30
0.0
 40
1.02
 50
269.999989999999
 51
0.0000006832429909
  0
ARC
  5
58AB
  8
AM_0
 10
277.95206438210312
 20
529.81167766071235
 30
0.0
 40
1.02
 50
179.999989999999
 51
270.0
  0
ARC
  5
58AC
  8
AM_0
 10
259.95206438210329
 20
529.81167766071235
 30
0.0
 40
1.5
 50
269.999989999999
 51
0.0000006832462478
  0
ARC
  5
58AD
  8
AM_0
 10
277.95206438210312
 20
529.81167766071235
 30
0.0
 40
1.5
 50
179.999989999999
 51
270.0
  0
CIRCLE
  5
58AE
  8
AM_0
 10
271.45206438210312
 20
473.81167766071252
 30
0.0
 40
1.0
  0
CIRCLE
  5
58AF
  8
AM_0
 10
266.45206438210312
 20
473.81167766071252
 30
0.0
 40
1.149999999999999
  0
CIRCLE
  5
58B0
  8
AM_0
 10
266.45206438210312
 20
473.81167766071252
 30
0.0
 40
1.1000000000000001
  0
ARC
  5
58B1
  8
AM_0
 10
259.95206438210329
 20
474.81167766071229
 30
0.0
 40
1.02
 50
0.0
 51
90.00000299999769
  0
ARC
  5
58B2
  8
AM_0
 10
277.95206438210312
 20
474.81167766071229
 30
0.0
 40
1.02
 50
90.00000299999769
 51
180.00001000000091
  0
ARC
  5
58B3
  8
AM_0
 10
259.95206438210329
 20
474.81167766071229
 30
0.0
 40
1.5
 50
0.0
 51
90.00000299999769
  0
ARC
  5
58B4
  8
AM_0
 10
277.95206438210312
 20
474.81167766071229
 30
0.0
 40
1.5
 50
90.00000299999769
 51
180.00001000000091
  0
ARC
  5
58B5
  8
AM_0
 10
228.61704438210319
 20
487.30166766071261
 30
0.0
 40
1.3300148000000001
 50
269.7294199999987
 51
90.270567000000995
  0
ARC
  5
58B6
  8
AM_0
 10
228.6789943821031
 20
497.31167766071258
 30
0.0
 40
1.2700266
 50
269.62932000000001
 51
90.370669999998199
  0
ARC
  5
58B7
  8
AM_0
 10
228.6789943821031
 20
507.32168766071248
 30
0.0
 40
1.2700266
 50
269.62932000000001
 51
90.370669999998199
  0
ARC
  5
58B8
  8
AM_0
 10
228.61704438210319
 20
517.32668766071276
 30
0.0
 40
1.3350147999999991
 50
269.7304299999999
 51
90.269556000001316
  0
ARC
  5
58B9
  8
AM_0
 10
292.29203438210328
 20
527.31167766071258
 30
0.0
 40
1.0000255999999981
 50
269.5894700000033
 51
90.410530999997775
  0
ARC
  5
58BA
  8
AM_0
 10
295.99204438210307
 20
527.34170766071259
 30
0.0
 40
1.460011199999999
 50
269.77524999999667
 51
90.224750000003354
  0
ARC
  5
58BB
  8
AM_0
 10
292.29203438210328
 20
477.31167766071229
 30
0.0
 40
1.0000255999999981
 50
269.5894700000033
 51
90.410530999997775
  0
ARC
  5
58BC
  8
AM_0
 10
295.99204438210307
 20
477.28164766071251
 30
0.0
 40
1.460011199999999
 50
269.77524999999667
 51
90.224750000003354
  0
ARC
  5
58BD
  8
AM_0
 10
277.9321043821032
 20
534.67165766071253
 30
0.0
 40
1.0
 50
90.00000299999769
 51
180.00001000000091
  0
ARC
  5
58BE
  8
AM_0
 10
277.95206438210312
 20
534.81167766071258
 30
0.0
 40
1.5
 50
90.00000299999769
 51
180.00001000000091
  0
ARC
  5
58BF
  8
AM_0
 10
259.95206438210329
 20
534.81167766071258
 30
0.0
 40
1.5
 50
0.0
 51
90.00000299999769
  0
ARC
  5
58C0
  8
AM_0
 10
259.97208438210328
 20
534.67165766071253
 30
0.0
 40
1.0
 50
0.0
 51
90.00000299999769
  0
POLYLINE
  5
58C3
  8
AM_0
 66
     1
 10
0.0
 20
0.0
 30
0.0
  0
VERTEX
  5
58C4
  8
AM_0
 10
193.3120543821033
 20
502.31167766071258
 30
0.0
 42
0.00039106593
  0
VERTEX
  5
58C5
  8
AM_0
 10
193.30969438210309
 20
502.0005376607125
 30
0.0
 42
0.00040574899
  0
VERTEX
  5
58C6
  8
AM_0
 10
193.30782438210301
 20
501.68942766071251
 30
0.0
 42
0.0003534546
  0
VERTEX
  5
58C7
  8
AM_0
 10
193.30643438210311
 20
501.37832766071227
 30
0.0
 42
0.00034407327
  0
VERTEX
  5
58C8
  8
AM_0
 10
193.30545438210311
 20
501.06718766071248
 30
0.0
 42
0.00045699408
  0
VERTEX
  5
58C9
  8
AM_0
 10
193.3049943821031
 20
500.75607766071261
 30
0.0
 42
0.00035571853
  0
VERTEX
  5
58CA
  8
AM_0
 10
193.3050343821032
 20
500.44497766071231
 30
0.0
 42
0.00038547362
  0
VERTEX
  5
58CB
  8
AM_0
 10
193.3055243821029
 20
500.13383766071252
 30
0.0
 42
0.00035501498
  0
VERTEX
  5
58CC
  8
AM_0
 10
193.30648438210321
 20
499.82273766071251
 30
0.0
 42
0.00040118614
  0
VERTEX
  5
58CD
  8
AM_0
 10
193.307904382103
 20
499.51149766071251
 30
0.0
 42
0.00038319871
  0
VERTEX
  5
58CE
  8
AM_0
 10
193.30981438210321
 20
499.20036766071252
 30
0.0
 42
0.00040742136
  0
VERTEX
  5
58CF
  8
AM_0
 10
193.31221438210321
 20
498.88913766071232
 30
0.0
 42
0.0003578071
  0
VERTEX
  5
58D0
  8
AM_0
 10
193.3151043821031
 20
498.57802766071228
 30
0.0
  0
SEQEND
  5
58D1
  8
AM_0
  0
POLYLINE
  5
58D2
  8
AM_0
 66
     1
 10
0.0
 20
0.0
 30
0.0
  0
VERTEX
  5
58D3
  8
AM_0
 10
193.35611438210319
 20
496.04128766071273
 30
0.0
 42
0.00076695232
  0
VERTEX
  5
58D4
  8
AM_0
 10
193.37091438210311
 20
495.42352766071258
 30
0.0
 42
0.00073263044
  0
VERTEX
  5
58D5
  8
AM_0
 10
193.38755438210339
 20
494.80592766071231
 30
0.0
 42
0.0007652599
  0
VERTEX
  5
58D6
  8
AM_0
 10
193.40604438210309
 20
494.18825766071222
 30
0.0
 42
0.00075144485
  0
VERTEX
  5
58D7
  8
AM_0
 10
193.4264143821033
 20
493.57065766071253
 30
0.0
 42
0.00078594403
  0
VERTEX
  5
58D8
  8
AM_0
 10
193.448664382103
 20
492.95322766071251
 30
0.0
 42
0.00073349202
  0
VERTEX
  5
58D9
  8
AM_0
 10
193.472814382103
 20
492.33584766071232
 30
0.0
 42
0.0007358075
  0
VERTEX
  5
58DA
  8
AM_0
 10
193.49875438210319
 20
491.71844766071251
 30
0.0
 42
0.00078592699
  0
VERTEX
  5
58DB
  8
AM_0
 10
193.52658438210321
 20
491.10105766071229
 30
0.0
 42
0.00074823144
  0
VERTEX
  5
58DC
  8
AM_0
 10
193.55631438210321
 20
490.48366766071268
 30
0.0
 42
0.00074896603
  0
VERTEX
  5
58DD
  8
AM_0
 10
193.58787438210311
 20
489.86653766071248
 30
0.0
 42
0.00076039765
  0
VERTEX
  5
58DE
  8
AM_0
 10
193.6212943821032
 20
489.24950766071248
 30
0.0
 42
0.00075616128
  0
VERTEX
  5
58DF
  8
AM_0
 10
193.65659438210309
 20
488.63247766071231
 30
0.0
  0
SEQEND
  5
58E0
  8
AM_0
  0
POLYLINE
  5
58E1
  8
AM_0
 66
     1
 10
0.0
 20
0.0
 30
0.0
  0
VERTEX
  5
58E2
  8
AM_0
 10
193.83030438210309
 20
485.97109766071247
 30
0.0
 42
0.00073721992
  0
VERTEX
  5
58E3
  8
AM_0
 10
193.87445438210301
 20
485.36868766071268
 30
0.0
 42
0.00074398496
  0
VERTEX
  5
58E4
  8
AM_0
 10
193.92038438210301
 20
484.76641766071231
 30
0.0
 42
0.00073322625
  0
VERTEX
  5
58E5
  8
AM_0
 10
193.96811438210301
 20
484.16408766071231
 30
0.0
 42
0.00073594289
  0
VERTEX
  5
58E6
  8
AM_0
 10
194.0175943821032
 20
483.5620976607126
 30
0.0
 42
0.00074742568
  0
VERTEX
  5
58E7
  8
AM_0
 10
194.0688643821029
 20
482.96023766071261
 30
0.0
 42
0.00073216749
  0
VERTEX
  5
58E8
  8
AM_0
 10
194.1219243821032
 20
482.35842766071249
 30
0.0
 42
0.00074184065
  0
VERTEX
  5
58E9
  8
AM_0
 10
194.17674438210301
 20
481.75689766071258
 30
0.0
 42
0.00072077528
  0
VERTEX
  5
58EA
  8
AM_0
 10
194.23332438210321
 20
481.1556676607126
 30
0.0
 42
0.00074978179
  0
VERTEX
  5
58EB
  8
AM_0
 10
194.29166438210311
 20
480.55446766071248
 30
0.0
 42
0.00074288888
  0
VERTEX
  5
58EC
  8
AM_0
 10
194.3518143821029
 20
479.9534476607123
 30
0.0
 42
0.00072503679
  0
VERTEX
  5
58ED
  8
AM_0
 10
194.413724382103
 20
479.35270766071221
 30
0.0
 42
0.00074640584
  0
VERTEX
  5
58EE
  8
AM_0
 10
194.477394382103
 20
478.75210766071251
 30
0.0
  0
SEQEND
  5
58EF
  8
AM_0
  0
POLYLINE
  5
58F0
  8
AM_0
 66
     1
 10
0.0
 20
0.0
 30
0.0
  0
VERTEX
  5
58F1
  8
AM_0
 10
194.81296438210319
 20
475.8286376607125
 30
0.0
 42
0.0006890001
  0
VERTEX
  5
58F2
  8
AM_0
 10
194.88384438210301
 20
475.25388766071251
 30
0.0
 42
0.00070644651
  0
VERTEX
  5
58F3
  8
AM_0
 10
194.9563443821032
 20
474.67920766071222
 30
0.0
 42
0.0006924559
  0
VERTEX
  5
58F4
  8
AM_0
 10
195.03043438210329
 20
474.10488766071228
 30
0.0
 42
0.00069587797
  0
VERTEX
  5
58F5
  8
AM_0
 10
195.10611438210319
 20
473.53074766071251
 30
0.0
 42
0.00071687041
  0
VERTEX
  5
58F6
  8
AM_0
 10
195.18342438210311
 20
472.95674766071221
 30
0.0
 42
0.00069759113
  0
VERTEX
  5
58F7
  8
AM_0
 10
195.26236438210319
 20
472.38295766071229
 30
0.0
 42
0.00071003142
  0
VERTEX
  5
58F8
  8
AM_0
 10
195.34290438210309
 20
471.80948766071231
 30
0.0
 42
0.00069954544
  0
VERTEX
  5
58F9
  8
AM_0
 10
195.42504438210301
 20
471.23638766071258
 30
0.0
 42
0.0007188852
  0
VERTEX
  5
58FA
  8
AM_0
 10
195.508824382103
 20
470.66335766071228
 30
0.0
 42
0.00071266165
  0
VERTEX
  5
58FB
  8
AM_0
 10
195.59425438210309
 20
470.09059766071221
 30
0.0
 42
0.00071614577
  0
VERTEX
  5
58FC
  8
AM_0
 10
195.681284382103
 20
469.51824766071252
 30
0.0
 42
0.00072290806
  0
VERTEX
  5
58FD
  8
AM_0
 10
195.76999438210291
 20
468.94594766071248
 30
0.0
  0
SEQEND
  5
58FE
  8
AM_0
  0
POLYLINE
  5
58FF
  8
AM_0
 66
     1
 10
0.0
 20
0.0
 30
0.0
  0
VERTEX
  5
5900
  8
AM_0
 10
193.3120543821033
 20
502.31167766071258
 30
0.0
 42
-0.00039106653
  0
VERTEX
  5
5901
  8
AM_0
 10
193.30969438210309
 20
502.62280766071228
 30
0.0
 42
-0.00040574511
  0
VERTEX
  5
5902
  8
AM_0
 10
193.30782438210301
 20
502.93391766071261
 30
0.0
 42
-0.00035346331
  0
VERTEX
  5
5903
  8
AM_0
 10
193.30643438210311
 20
503.24502766071259
 30
0.0
 42
-0.00034406545
  0
VERTEX
  5
5904
  8
AM_0
 10
193.30545438210311
 20
503.55616766071267
 30
0.0
 42
-0.00045699059
  0
VERTEX
  5
5905
  8
AM_0
 10
193.3049943821031
 20
503.86726766071251
 30
0.0
 42
-0.00035573431
  0
VERTEX
  5
5906
  8
AM_0
 10
193.3050343821032
 20
504.17836766071252
 30
0.0
 42
-0.00038545888
  0
VERTEX
  5
5907
  8
AM_0
 10
193.3055243821029
 20
504.48950766071221
 30
0.0
 42
-0.00035501203
  0
VERTEX
  5
5908
  8
AM_0
 10
193.30648438210321
 20
504.80061766071248
 30
0.0
 42
-0.00040120778
  0
VERTEX
  5
5909
  8
AM_0
 10
193.307904382103
 20
505.1118476607125
 30
0.0
 42
-0.00038317821
  0
VERTEX
  5
590A
  8
AM_0
 10
193.30981438210321
 20
505.4229776607126
 30
0.0
 42
-0.00040741862
  0
VERTEX
  5
590B
  8
AM_0
 10
193.31221438210321
 20
505.73420766071251
 30
0.0
 42
-0.00035783324
  0
VERTEX
  5
590C
  8
AM_0
 10
193.3151043821031
 20
506.04531766071273
 30
0.0
  0
SEQEND
  5
590D
  8
AM_0
  0
POLYLINE
  5
590E
  8
AM_0
 66
     1
 10
0.0
 20
0.0
 30
0.0
  0
VERTEX
  5
590F
  8
AM_0
 10
193.35611438210319
 20
508.58205766071251
 30
0.0
 42
-0.00076691987
  0
VERTEX
  5
5910
  8
AM_0
 10
193.37091438210311
 20
509.1998176607126
 30
0.0
 42
-0.00073262795
  0
VERTEX
  5
5911
  8
AM_0
 10
193.38755438210339
 20
509.81741766071252
 30
0.0
 42
-0.0007652954
  0
VERTEX
  5
5912
  8
AM_0
 10
193.40604438210309
 20
510.43508766071261
 30
0.0
 42
-0.00077334627
  0
VERTEX
  5
5913
  8
AM_0
 10
193.4264543821034
 20
511.05268766071248
 30
0.0
 42
-0.00073282897
  0
VERTEX
  5
5914
  8
AM_0
 10
193.44871438210311
 20
511.67010766071252
 30
0.0
 42
-0.0007571179
  0
VERTEX
  5
5915
  8
AM_0
 10
193.472814382103
 20
512.28762766071259
 30
0.0
 42
-0.00073783152
  0
VERTEX
  5
5916
  8
AM_0
 10
193.49875438210319
 20
512.90501766071225
 30
0.0
 42
-0.0007835518
  0
VERTEX
  5
5917
  8
AM_0
 10
193.52658438210321
 20
513.52228766071266
 30
0.0
 42
-0.00074826133
  0
VERTEX
  5
5918
  8
AM_0
 10
193.55631438210321
 20
514.13967766071255
 30
0.0
 42
-0.00074893555
  0
VERTEX
  5
5919
  8
AM_0
 10
193.58787438210311
 20
514.75680766071252
 30
0.0
 42
-0.00076039841
  0
VERTEX
  5
591A
  8
AM_0
 10
193.6212943821032
 20
515.37383766071252
 30
0.0
 42
-0.00075618789
  0
VERTEX
  5
591B
  8
AM_0
 10
193.65659438210309
 20
515.99086766071252
 30
0.0
  0
SEQEND
  5
591C
  8
AM_0
  0
POLYLINE
  5
591D
  8
AM_0
 66
     1
 10
0.0
 20
0.0
 30
0.0
  0
VERTEX
  5
591E
  8
AM_0
 10
193.83030438210309
 20
518.65224766071276
 30
0.0
 42
-0.0007337051
  0
VERTEX
  5
591F
  8
AM_0
 10
193.87444438210321
 20
519.25465766071227
 30
0.0
 42
-0.00075211323
  0
VERTEX
  5
5920
  8
AM_0
 10
193.92038438210301
 20
519.85705766071226
 30
0.0
 42
-0.0007297491
  0
VERTEX
  5
5921
  8
AM_0
 10
193.96811438210301
 20
520.45925766071252
 30
0.0
 42
-0.00073593041
  0
VERTEX
  5
5922
  8
AM_0
 10
194.0175943821032
 20
521.06124766071252
 30
0.0
 42
-0.00074742739
  0
VERTEX
  5
5923
  8
AM_0
 10
194.0688643821029
 20
521.66310766071251
 30
0.0
 42
-0.00073217363
  0
VERTEX
  5
5924
  8
AM_0
 10
194.1219243821032
 20
522.26491766071263
 30
0.0
 42
-0.00073754168
  0
VERTEX
  5
5925
  8
AM_0
 10
194.17674438210301
 20
522.8664576607124
 30
0.0
 42
-0.00073075073
  0
VERTEX
  5
5926
  8
AM_0
 10
194.23332438210321
 20
523.46780766071254
 30
0.0
 42
-0.00074550816
  0
VERTEX
  5
5927
  8
AM_0
 10
194.29166438210311
 20
524.06887766071225
 30
0.0
 42
-0.00074288416
  0
VERTEX
  5
5928
  8
AM_0
 10
194.3518143821029
 20
524.66989766071265
 30
0.0
 42
-0.00072504001
  0
VERTEX
  5
5929
  8
AM_0
 10
194.413724382103
 20
525.2706376607124
 30
0.0
 42
-0.00074640667
  0
VERTEX
  5
592A
  8
AM_0
 10
194.477394382103
 20
525.87124766071236
 30
0.0
  0
SEQEND
  5
592B
  8
AM_0
  0
POLYLINE
  5
592C
  8
AM_0
 66
     1
 10
0.0
 20
0.0
 30
0.0
  0
VERTEX
  5
592D
  8
AM_0
 10
194.81296438210319
 20
528.79470766071245
 30
0.0
 42
-0.00068898283
  0
VERTEX
  5
592E
  8
AM_0
 10
194.88384438210301
 20
529.36945766071256
 30
0.0
 42
-0.00070644357
  0
VERTEX
  5
592F
  8
AM_0
 10
194.9563443821032
 20
529.94414766071259
 30
0.0
 42
-0.00069248074
  0
VERTEX
  5
5930
  8
AM_0
 10
195.03043438210329
 20
530.51845766071256
 30
0.0
 42
-0.0006958566
  0
VERTEX
  5
5931
  8
AM_0
 10
195.10611438210319
 20
531.0925976607125
 30
0.0
 42
-0.00071687219
  0
VERTEX
  5
5932
  8
AM_0
 10
195.18342438210311
 20
531.66659766071245
 30
0.0
 42
-0.00069760022
  0
VERTEX
  5
5933
  8
AM_0
 10
195.26236438210319
 20
532.24038766071249
 30
0.0
 42
-0.00071002302
  0
VERTEX
  5
5934
  8
AM_0
 10
195.34290438210309
 20
532.81385766071253
 30
0.0
 42
-0.00069954889
  0
VERTEX
  5
5935
  8
AM_0
 10
195.42504438210301
 20
533.38695766071271
 30
0.0
 42
-0.00071887947
  0
VERTEX
  5
5936
  8
AM_0
 10
195.508824382103
 20
533.95998766071261
 30
0.0
 42
-0.00071266929
  0
VERTEX
  5
5937
  8
AM_0
 10
195.59425438210309
 20
534.53275766071226
 30
0.0
 42
-0.00071614429
  0
VERTEX
  5
5938
  8
AM_0
 10
195.681284382103
 20
535.10509766071232
 30
0.0
 42
-0.00072288978
  0
VERTEX
  5
5939
  8
AM_0
 10
195.76999438210291
 20
535.67739766071259
 30
0.0
  0
SEQEND
  5
593A
  8
AM_0
  0
LINE
  5
594E
  8
AM_0
 10
183.4520643821032
 20
555.31167766071269
 30
0.0
 11
183.452064382103
 21
449.31167766071241
 31
0.0
  0
LINE
  5
594F
  8
AM_0
 10
183.452064382103
 20
449.31167766071241
 30
0.0
 11
190.952064382103
 21
449.31167766071241
 31
0.0
  0
LINE
  5
5950
  8
AM_0
 10
183.652074382103
 20
459.12173766071271
 30
0.0
 11
189.88205438210309
 21
459.12173766071271
 31
0.0
  0
LINE
  5
5951
  8
AM_0
 10
183.652074382103
 20
545.50161766071255
 30
0.0
 11
189.88205438210309
 21
545.50161766071255
 31
0.0
  0
LINE
  5
5952
  8
AM_0
 10
183.4520643821032
 20
555.31167766071269
 30
0.0
 11
190.9520643821032
 21
555.31167766071269
 31
0.0
  0
LINE
  5
5953
  8
AM_0
 10
175.452064382104
 20
450.25027415194069
 30
0.0
 11
175.4520643821034
 21
487.97256106669778
 31
0.0
  0
LINE
  5
5954
  8
AM_0
 10
166.4520643821032
 20
448.31167766071269
 30
0.0
 11
166.4520643821032
 21
556.31167766071269
 31
0.0
  0
LINE
  5
5955
  8
AM_0
 10
166.4520643821032
 20
448.31167766071258
 30
0.0
 11
183.45206438210309
 21
449.31167766071241
 31
0.0
  0
LINE
  5
5956
  8
AM_0
 10
166.4520643821032
 20
556.31167766071269
 30
0.0
 11
183.45206438210309
 21
555.31167766071269
 31
0.0
  0
LINE
  5
5957
  8
AM_0
 10
175.45206438210391
 20
458.71777446262098
 30
0.0
 11
183.45206438210309
 21
458.71777446262098
 31
0.0
  0
LINE
  5
5958
  8
AM_0
 10
175.452064382104
 20
450.25027415194069
 30
0.0
 11
183.45206438210309
 21
450.25027415194069
 31
0.0
  0
LINE
  5
5959
  8
AM_0
 10
171.95206438210391
 20
467.67080469545272
 30
0.0
 11
175.45206438210391
 21
467.67080469545272
 31
0.0
  0
LINE
  5
595A
  8
AM_0
 10
171.95206438210391
 20
459.17080469545272
 30
0.0
 11
175.452064382104
 21
459.17080469545272
 31
0.0
  0
LINE
  5
595B
  8
AM_0
 10
171.45206438210391
 20
459.6708046954526
 30
0.0
 11
171.45206438210391
 21
467.17080469545272
 31
0.0
  0
ARC
  5
595C
  8
AM_0
 10
171.952064382104
 20
459.6708046954526
 30
0.0
 40
0.5
 50
180.0
 51
270.0
  0
ARC
  5
595D
  8
AM_0
 10
171.952064382104
 20
467.17080469545272
 30
0.0
 40
0.5
 50
90.0
 51
180.0
  0
LINE
  5
595E
  8
AM_0
 10
166.4520643821032
 20
460.03948316757271
 30
0.0
 11
171.45206438210391
 21
460.03948316757248
 31
0.0
  0
LINE
  5
595F
  8
AM_0
 10
166.4520643821032
 20
469.77456566586852
 30
0.0
 11
175.4520643821038
 21
469.77456566586852
 31
0.0
  0
LINE
  5
5960
  8
AM_0
 10
175.452064382104
 20
554.37308116948486
 30
0.0
 11
175.4520643821034
 21
516.65079425473175
 31
0.0
  0
LINE
  5
5961
  8
AM_0
 10
175.45206438210391
 20
545.90558085880411
 30
0.0
 11
183.45206438210309
 21
545.90558085880411
 31
0.0
  0
LINE
  5
5962
  8
AM_0
 10
175.452064382104
 20
554.37308116948486
 30
0.0
 11
183.45206438210309
 21
554.37308116948486
 31
0.0
  0
LINE
  5
5963
  8
AM_0
 10
171.95206438210391
 20
536.95255062597266
 30
0.0
 11
175.45206438210391
 21
536.95255062597266
 31
0.0
  0
LINE
  5
5964
  8
AM_0
 10
171.95206438210391
 20
545.45255062597266
 30
0.0
 11
175.452064382104
 21
545.45255062597266
 31
0.0
  0
LINE
  5
5965
  8
AM_0
 10
171.45206438210391
 20
544.95255062597266
 30
0.0
 11
171.45206438210391
 21
537.45255062597266
 31
0.0
  0
ARC
  5
5966
  8
AM_0
 10
171.952064382104
 20
544.95255062597266
 30
0.0
 40
0.5
 50
90.0
 51
180.0
  0
ARC
  5
5967
  8
AM_0
 10
171.952064382104
 20
537.45255062597266
 30
0.0
 40
0.5
 50
180.0
 51
270.0
  0
LINE
  5
5968
  8
AM_0
 10
166.4520643821032
 20
544.58387215385278
 30
0.0
 11
171.45206438210391
 21
544.58387215385278
 31
0.0
  0
LINE
  5
5969
  8
AM_0
 10
166.4520643821032
 20
534.84878965555686
 30
0.0
 11
175.4520643821038
 21
534.84878965555686
 31
0.0
  0
LINE
  5
596A
  8
AM_0
 10
160.45206438210309
 20
556.31167766071292
 30
0.0
 11
160.45206438210309
 21
448.31167766071258
 31
0.0
  0
LINE
  5
596B
  8
AM_0
 10
166.4520643821032
 20
448.31167766071258
 30
0.0
 11
160.45206438210309
 21
448.31167766071258
 31
0.0
  0
LINE
  5
596C
  8
AM_0
 10
160.45206438210309
 20
556.31167766071292
 30
0.0
 11
166.452064382103
 21
556.31167766071292
 31
0.0
  0
LINE
  5
596D
  8
AM_0
 10
159.45206438210309
 20
498.51167766071268
 30
0.0
 11
159.45206438210309
 21
506.11167766071259
 31
0.0
  0
LINE
  5
596E
  8
AM_0
 10
159.45206438210309
 20
506.11167766071259
 30
0.0
 11
160.45206438210309
 21
506.11167766071259
 31
0.0
  0
LINE
  5
596F
  8
AM_0
 10
160.45206438210309
 20
502.51167766071268
 30
0.0
 11
159.45206438210309
 21
502.87564789497861
 31
0.0
  0
LINE
  5
5970
  8
AM_0
 10
160.45206438210309
 20
502.11167766071259
 30
0.0
 11
159.45206438210309
 21
502.47564789497892
 31
0.0
  0
LINE
  5
5971
  8
AM_0
 10
160.45206438210309
 20
498.51167766071268
 30
0.0
 11
159.45206438210309
 21
498.51167766071268
 31
0.0
  0
LINE
  5
5972
  8
AM_0
 10
158.39312686997499
 20
506.2190326330192
 30
0.0
 11
159.45206438210309
 21
506.31167766071269
 31
0.0
  0
LINE
  5
5973
  8
AM_0
 10
158.39312686997499
 20
498.4043226884063
 30
0.0
 11
159.45206438210309
 21
498.31167766071258
 31
0.0
  0
ARC
  5
5974
  8
AM_0
 10
162.85206438210321
 20
502.31167766071258
 30
0.0
 40
6.5
 50
151.82726586813479
 51
208.1727341318651
  0
ARC
  5
5975
  8
AM_0
 10
158.5325760583716
 20
499.99823420535279
 30
0.0
 40
1.6000000000000001
 50
208.1727341318651
 51
265.00000000000028
  0
ARC
  5
5976
  8
AM_0
 10
158.5325760583716
 20
504.62512111607231
 30
0.0
 40
1.6000000000000001
 50
94.99999999999973
 51
151.82726586813479
  0
LINE
  5
5977
  8
AM_0
 10
159.45206438210309
 20
498.31167766071258
 30
0.0
 11
159.45206438210309
 21
506.31167766071269
 31
0.0
  0
LINE
  5
5978
  8
AM_0
 10
183.45206438210309
 20
487.97256106669789
 30
0.0
 11
175.4520643821038
 21
487.97256106669789
 31
0.0
  0
LINE
  5
5979
  8
AM_0
 10
183.452064382103
 20
516.65079425473209
 30
0.0
 11
175.4520643821034
 21
516.65079425473209
 31
0.0
  0
LINE
  5
597A
  8
AM_0
 10
145.95206438210261
 20
468.3116776607136
 30
0.0
 11
145.95206438210261
 21
457.3116776607128
 31
0.0
  0
LINE
  5
597B
  8
AM_0
 10
160.45206438210241
 20
457.3116776607128
 30
0.0
 11
145.95206438210261
 21
457.31167766071292
 31
0.0
  0
LINE
  5
597C
  8
AM_0
 10
133.95206438210309
 20
462.3116776607136
 30
0.0
 11
133.9520643821028
 21
459.31167766071371
 31
0.0
  0
LINE
  5
597D
  8
AM_0
 10
133.9520643821028
 20
459.31167766071371
 30
0.0
 11
145.95206438210261
 21
459.31167766071371
 31
0.0
  0
LINE
  5
597E
  8
AM_0
 10
133.95206438210261
 20
460.3116776607136
 30
0.0
 11
133.95206438210261
 21
462.48934606686021
 31
0.0
  0
LINE
  5
597F
  8
AM_0
 10
128.45206438210249
 20
462.31167766071371
 30
0.0
 11
129.3520643821027
 21
462.31167766071371
 31
0.0
  0
LINE
  5
5980
  8
AM_0
 10
128.25206438210239
 20
465.31167766071371
 30
0.0
 11
128.25206438210239
 21
462.31167766071371
 31
0.0
  0
LINE
  5
5981
  8
AM_0
 10
129.3520643821027
 20
462.03932592613018
 30
0.0
 11
129.3520643821027
 21
465.58402939529759
 31
0.0
  0
LINE
  5
5982
  8
AM_0
 10
127.95206438210261
 20
465.01167766071399
 30
0.0
 11
129.35206438210091
 21
465.01167766071399
 31
0.0
  0
LINE
  5
5983
  8
AM_0
 10
133.3520643821027
 20
461.4301078003067
 30
0.0
 11
133.3520643821027
 21
460.3116776607136
 31
0.0
  0
LINE
  5
5984
  8
AM_0
 10
133.3520643821027
 20
462.31167766071371
 30
0.0
 11
133.3520643821027
 21
462.21167766071392
 31
0.0
  0
LINE
  5
5985
  8
AM_0
 10
133.3520643821027
 20
462.21167766071392
 30
0.0
 11
133.3520643821027
 21
461.4301078003067
 31
0.0
  0
LINE
  5
5986
  8
AM_0
 10
133.3520643821027
 20
462.31167766071371
 30
0.0
 11
133.3520643821027
 21
462.21167766071392
 31
0.0
  0
LINE
  5
5987
  8
AM_0
 10
133.3520643821027
 20
462.69544033704358
 30
0.0
 11
133.3520643821027
 21
461.4301078003067
 31
0.0
  0
LINE
  5
5988
  8
AM_0
 10
133.3520643821027
 20
460.3116776607136
 30
0.0
 11
133.95206438210261
 21
460.3116776607136
 31
0.0
  0
LINE
  5
5989
  8
AM_0
 10
130.65206438210291
 20
461.4301078003067
 30
0.0
 11
130.65206438210291
 21
464.86163899270701
 31
0.0
  0
LINE
  5
598A
  8
AM_0
 10
130.49102015284529
 20
461.14341617196362
 30
0.0
 11
129.55846710333819
 21
461.68182592613039
 31
0.0
  0
LINE
  5
598B
  8
AM_0
 10
130.9245159741333
 20
460.63625118017097
 30
0.0
 11
133.07961279007219
 21
460.63625118017097
 31
0.0
  0
LINE
  5
598C
  8
AM_0
 10
130.9245159741333
 20
462.22396442044248
 30
0.0
 11
133.07961279007219
 21
462.2239644204426
 31
0.0
  0
LINE
  5
598D
  8
AM_0
 10
129.35206438210139
 20
465.31167766071371
 30
0.0
 11
128.25206438210239
 21
465.31167766071371
 31
0.0
  0
LINE
  5
598E
  8
AM_0
 10
128.25206438210239
 20
465.31167766071371
 30
0.0
 11
127.95206438210261
 21
465.01167766071399
 31
0.0
  0
LINE
  5
598F
  8
AM_0
 10
127.95206438210261
 20
465.01167766071399
 30
0.0
 11
127.95206438210261
 21
462.61167766071372
 31
0.0
  0
LINE
  5
5990
  8
AM_0
 10
128.25206438210239
 20
462.31167766071371
 30
0.0
 11
129.35206438210091
 21
462.31167766071371
 31
0.0
  0
LINE
  5
5991
  8
AM_0
 10
127.95206438210261
 20
462.61167766071372
 30
0.0
 11
128.25206438210239
 21
462.31167766071371
 31
0.0
  0
LINE
  5
5992
  8
AM_0
 10
129.35206438210091
 20
462.61167766071372
 30
0.0
 11
127.95206438210261
 21
462.61167766071372
 31
0.0
  0
ARC
  5
5993
  8
AM_0
 10
132.05928756607611
 20
461.4301078003067
 30
0.0
 40
1.292776816026465
 50
322.11555894629771
 51
0.0
  0
ARC
  5
5994
  8
AM_0
 10
135.41449425816239
 20
463.8116776607136
 30
0.0
 40
4.762429876059711
 50
168.45024695876941
 51
199.4742400054138
  0
ARC
  5
5995
  8
AM_0
 10
131.9448411981293
 20
461.4301078003067
 30
0.0
 40
1.2927768160265549
 50
142.11555894629771
 51
217.8844410536997
  0
ARC
  5
5996
  8
AM_0
 10
128.58963450604321
 20
463.8116776607136
 30
0.0
 40
4.762429876059584
 50
340.52575999458628
 51
347.08714779821958
  0
ARC
  5
5997
  8
AM_0
 10
132.05928756607611
 20
461.4301078003067
 30
0.0
 40
1.2927768160265021
 50
0.0
 51
37.884441053702282
  0
ARC
  5
5998
  8
AM_0
 10
129.7648698245732
 20
462.03932592613029
 30
0.0
 40
0.4128054424705855
 50
180.0
 51
239.99999999999949
  0
ARC
  5
5999
  8
AM_0
 10
130.07821471037479
 20
460.42841617196382
 30
0.0
 40
0.8256108849411369
 50
28.217424594179711
 51
59.999999999999439
  0
LINE
  5
599A
  8
AM_0
 10
129.56715691462591
 20
465.94654646018358
 30
0.0
 11
129.55846710333819
 21
465.94152939529772
 31
0.0
  0
ARC
  5
599B
  8
AM_0
 10
129.7648698245734
 20
465.5840293952977
 30
0.0
 40
0.4128054424705855
 50
119.9999999999924
 51
179.99999999999341
  0
CIRCLE
  5
599C
  8
AM_0
 10
131.95202571409681
 20
502.31167766071292
 30
0.0
 40
5.5
  0
LINE
  5
599D
  8
AM_0
 10
126.45202571409681
 20
499.13625118017001
 30
0.0
 11
131.95202571409729
 21
495.96082469962693
 31
0.0
  0
LINE
  5
599E
  8
AM_0
 10
131.95202571409729
 20
495.96082469962693
 30
0.0
 11
137.45202571409681
 21
499.13625118017018
 31
0.0
  0
LINE
  5
599F
  8
AM_0
 10
137.45202571409681
 20
499.13625118017018
 30
0.0
 11
137.45202571409681
 21
505.48710414125588
 31
0.0
  0
LINE
  5
59A0
  8
AM_0
 10
137.45202571409681
 20
505.48710414125588
 30
0.0
 11
131.95202571409681
 21
508.66253062179879
 31
0.0
  0
LINE
  5
59A1
  8
AM_0
 10
131.95202571409681
 20
508.66253062179879
 30
0.0
 11
126.45202571409681
 21
505.4871041412556
 31
0.0
  0
LINE
  5
59A2
  8
AM_0
 10
126.45202571409681
 20
505.4871041412556
 30
0.0
 11
126.45202571409681
 21
499.13625118017001
 31
0.0
  0
CIRCLE
  5
59A3
  8
AM_0
 10
131.95202571409681
 20
502.31167766071292
 30
0.0
 40
6.4999856554771771
  0
LINE
  5
59A4
  8
AM_0
 10
143.017317944468
 20
468.3116776607136
 30
0.0
 11
145.95206438210261
 21
468.3116776607136
 31
0.0
  0
LINE
  5
59A5
  8
AM_0
 10
143.97148649625581
 20
466.8116776607136
 30
0.0
 11
145.95206438210261
 21
466.8116776607136
 31
0.0
  0
LINE
  5
59A6
  8
AM_0
 10
135.27309352596171
 20
462.3116776607136
 30
0.0
 11
145.95206438210261
 21
462.3116776607136
 31
0.0
  0
ARC
  5
59A7
  8
AM_0
 10
135.27309352596151
 20
467.31167766071371
 30
0.0
 40
5.0
 50
225.0
 51
270.0
1001
GENIUS_GENODEF_13
1002
{
1000
HIER
1070
     0
1002
}
1002
{
1000
MANEDIT
1070
     0
1002
}
1002
{
1000
NOSEL
1070
     0
1002
}
1002
{
1000
BEHIND
1070
     0
1002
}
1002
{
1000
OTHER
1070
     0
1002
}
1002
{
1000
REACTOR
1002
}
1001
GENIUS_GENOBJ-N-FIL_13
1002
{
1000
OWNER
1000
GEN
1002
}
  0
LINE
  5
59A8
  8
AM_0
 10
143.97148649625569
 20
462.3116776607136
 30
0.0
 11
143.97148649625581
 21
466.8116776607136
 31
0.0
  0
LINE
  5
59A9
  8
AM_0
 10
130.45202571409681
 20
495.98713708282048
 30
0.0
 11
130.45202571409709
 21
475.09970280700418
 31
0.0
  0
LINE
  5
59AA
  8
AM_0
 10
133.45202571409681
 20
495.98713708282048
 30
0.0
 11
133.45202571409681
 21
475.09970280700418
 31
0.0
  0
LINE
  5
59AB
  8
AM_0
 10
128.20202571409681
 20
497.00250507721103
 30
0.0
 11
128.20202571409681
 21
469.38274547257822
 31
0.0
  0
ARC
  5
59AC
  8
AM_0
 10
133.20202571409681
 20
469.38274547257822
 30
0.0
 40
5.0
 50
180.0
 51
225.0
1001
GENIUS_GENOBJ-N-FIL_13
1002
{
1000
OWNER
1000
GEN
1002
}
1001
GENIUS_GENODEF_13
1002
{
1000
HIER
1070
     0
1002
}
1002
{
1000
MANEDIT
1070
     0
1002
}
1002
{
1000
NOSEL
1070
     0
1002
}
1002
{
1000
BEHIND
1070
     0
1002
}
1002
{
1000
OTHER
1070
     0
1002
}
1002
{
1000
REACTOR
1002
}
  0
LINE
  5
59AD
  8
AM_0
 10
135.70202571409681
 20
497.00250507721103
 30
0.0
 11
135.70202571409681
 21
472.84259600396518
 31
0.0
  0
ARC
  5
59AE
  8
AM_0
 10
140.70202571409681
 20
481.26719603003841
 30
0.0
 40
5.0
 50
180.0
 51
212.46094411514159
1001
GENIUS_GENODEF_13
1002
{
1000
HIER
1070
     0
1002
}
1002
{
1000
MANEDIT
1070
     0
1002
}
1002
{
1000
NOSEL
1070
     0
1002
}
1002
{
1000
BEHIND
1070
     0
1002
}
1002
{
1000
OTHER
1070
     0
1002
}
1002
{
1000
REACTOR
1002
}
1001
GENIUS_GENOBJ-N-FIL_13
1002
{
1000
OWNER
1000
GEN
1002
}
  0
ARC
  5
59AF
  8
AM_0
 10
140.70202571409681
 20
472.84259600396518
 30
0.0
 40
5.0
 50
180.0
 51
224.2123722808945
1001
GENIUS_GENOBJ-N-FIL_13
1002
{
1000
OWNER
1000
GEN
1002
}
1001
GENIUS_GENODEF_13
1002
{
1000
HIER
1070
     0
1002
}
1002
{
1000
MANEDIT
1070
     0
1002
}
1002
{
1000
NOSEL
1070
     0
1002
}
1002
{
1000
BEHIND
1070
     0
1002
}
1002
{
1000
OTHER
1070
     0
1002
}
1002
{
1000
REACTOR
1002
}
  0
LINE
  5
59B0
  8
AM_0
 10
143.97148649625569
 20
466.8116776607136
 30
0.0
 11
136.48323820332979
 21
478.58357311707277
 31
0.0
  0
LINE
  5
59B1
  8
AM_0
 10
143.97148649625569
 20
462.3116776607136
 30
0.0
 11
137.11822547824539
 21
469.35599653320429
 31
0.0
  0
LINE
  5
59B2
  8
AM_0
 10
129.66649180816421
 20
465.84721156664563
 30
0.0
 11
131.7375596200288
 21
463.776143754781
 31
0.0
  0
ARC
  5
59B3
  8
AM_0
 10
131.95202571409681
 20
475.09970280700418
 30
0.0
 40
1.5
 50
180.0
 51
0.0
  0
LINE
  5
59B4
  8
AM_0
 10
145.95206438210309
 20
536.31167766071201
 30
0.0
 11
145.9520643821034
 21
547.3116776607128
 31
0.0
  0
LINE
  5
59B5
  8
AM_0
 10
160.4520643821034
 20
547.3116776607128
 30
0.0
 11
145.9520643821034
 21
547.3116776607128
 31
0.0
  0
LINE
  5
59B6
  8
AM_0
 10
133.9520643821038
 20
542.31167766071235
 30
0.0
 11
133.9520643821038
 21
545.31167766071235
 31
0.0
  0
LINE
  5
59B7
  8
AM_0
 10
133.9520643821038
 20
545.31167766071235
 30
0.0
 11
145.9520643821034
 21
545.31167766071201
 31
0.0
  0
LINE
  5
59B8
  8
AM_0
 10
133.95206438210349
 20
544.31167766071223
 30
0.0
 11
133.95206438210349
 21
542.13400925456574
 31
0.0
  0
LINE
  5
59B9
  8
AM_0
 10
128.45206438210349
 20
542.31167766071235
 30
0.0
 11
129.35206438210361
 21
542.31167766071235
 31
0.0
  0
LINE
  5
59BA
  8
AM_0
 10
128.2520643821033
 20
539.31167766071235
 30
0.0
 11
128.2520643821033
 21
542.31167766071235
 31
0.0
  0
LINE
  5
59BB
  8
AM_0
 10
129.35206438210361
 20
542.58402939529606
 30
0.0
 11
129.35206438210361
 21
539.03932592612864
 31
0.0
  0
LINE
  5
59BC
  8
AM_0
 10
127.9520643821036
 20
539.61167766071208
 30
0.0
 11
129.35206438210341
 21
539.61167766071196
 31
0.0
  0
LINE
  5
59BD
  8
AM_0
 10
133.35206438210361
 20
543.19324752111925
 30
0.0
 11
133.35206438210361
 21
544.31167766071235
 31
0.0
  0
LINE
  5
59BE
  8
AM_0
 10
133.35206438210361
 20
542.31167766071235
 30
0.0
 11
133.35206438210361
 21
542.41167766071214
 31
0.0
  0
LINE
  5
59BF
  8
AM_0
 10
133.35206438210361
 20
542.41167766071214
 30
0.0
 11
133.35206438210361
 21
543.19324752111925
 31
0.0
  0
LINE
  5
59C0
  8
AM_0
 10
133.35206438210361
 20
542.31167766071235
 30
0.0
 11
133.35206438210361
 21
542.41167766071214
 31
0.0
  0
LINE
  5
59C1
  8
AM_0
 10
133.35206438210361
 20
541.92791498438226
 30
0.0
 11
133.35206438210361
 21
543.19324752111925
 31
0.0
  0
LINE
  5
59C2
  8
AM_0
 10
133.35206438210361
 20
544.31167766071235
 30
0.0
 11
133.95206438210349
 21
544.31167766071223
 31
0.0
  0
LINE
  5
59C3
  8
AM_0
 10
130.65206438210379
 20
543.19324752111925
 30
0.0
 11
130.65206438210359
 21
539.7617163287191
 31
0.0
  0
LINE
  5
59C4
  8
AM_0
 10
130.4910201528462
 20
543.47993914946255
 30
0.0
 11
129.5584671033391
 21
542.9415293952959
 31
0.0
  0
LINE
  5
59C5
  8
AM_0
 10
130.92451597413421
 20
543.98710414125514
 30
0.0
 11
133.07961279007321
 21
543.98710414125514
 31
0.0
  0
LINE
  5
59C6
  8
AM_0
 10
130.92451597413421
 20
542.3993909009838
 30
0.0
 11
133.07961279007321
 21
542.39939090098358
 31
0.0
  0
LINE
  5
59C7
  8
AM_0
 10
129.35206438210361
 20
539.31167766071235
 30
0.0
 11
128.2520643821033
 21
539.31167766071235
 31
0.0
  0
LINE
  5
59C8
  8
AM_0
 10
128.2520643821033
 20
539.31167766071235
 30
0.0
 11
127.9520643821036
 21
539.61167766071208
 31
0.0
  0
LINE
  5
59C9
  8
AM_0
 10
127.9520643821036
 20
539.61167766071208
 30
0.0
 11
127.9520643821036
 21
542.01167766071251
 31
0.0
  0
LINE
  5
59CA
  8
AM_0
 10
128.2520643821033
 20
542.31167766071235
 30
0.0
 11
129.35206438210361
 21
542.31167766071235
 31
0.0
  0
LINE
  5
59CB
  8
AM_0
 10
127.9520643821036
 20
542.01167766071251
 30
0.0
 11
128.2520643821033
 21
542.31167766071235
 31
0.0
  0
LINE
  5
59CC
  8
AM_0
 10
129.35206438210361
 20
542.01167766071205
 30
0.0
 11
127.9520643821036
 21
542.01167766071251
 31
0.0
  0
ARC
  5
59CD
  8
AM_0
 10
132.05928756607699
 20
543.19324752111925
 30
0.0
 40
1.292776816026465
 50
0.0
 51
37.884441053702282
  0
ARC
  5
59CE
  8
AM_0
 10
135.4144942581631
 20
540.81167766071223
 30
0.0
 40
4.762429876059711
 50
160.52575999458611
 51
191.54975304123039
  0
ARC
  5
59CF
  8
AM_0
 10
131.94484119813021
 20
543.19324752111925
 30
0.0
 40
1.2927768160265549
 50
142.11555894629771
 51
217.88444105370229
  0
ARC
  5
59D0
  8
AM_0
 10
128.58963450604381
 20
540.81167766071235
 30
0.0
 40
4.762429876059584
 50
12.912852201780369
 51
19.474240005413812
  0
ARC
  5
59D1
  8
AM_0
 10
132.05928756607699
 20
543.19324752111925
 30
0.0
 40
1.2927768160265021
 50
322.11555894629771
 51
0.0
  0
ARC
  5
59D2
  8
AM_0
 10
129.76486982457411
 20
542.58402939529606
 30
0.0
 40
0.4128054424705855
 50
120.0000000000005
 51
180.0
  0
ARC
  5
59D3
  8
AM_0
 10
130.07821471037551
 20
544.19493914946224
 30
0.0
 40
0.8256108849411369
 50
299.99999999999972
 51
331.7825754058203
  0
LINE
  5
59D4
  8
AM_0
 10
129.56715691462679
 20
538.67680886124242
 30
0.0
 11
129.5584671033391
 21
538.68182592612857
 31
0.0
  0
ARC
  5
59D5
  8
AM_0
 10
129.76486982457411
 20
539.0393259261283
 30
0.0
 40
0.4128054424705855
 50
180.00000000000659
 51
240.00000000000759
  0
LINE
  5
59D6
  8
AM_0
 10
143.01731794446891
 20
536.31167766071223
 30
0.0
 11
145.95206438210309
 21
536.31167766071201
 31
0.0
  0
LINE
  5
59D7
  8
AM_0
 10
143.9714864962566
 20
537.81167766071223
 30
0.0
 11
145.95206438210329
 21
537.81167766071201
 31
0.0
  0
LINE
  5
59D8
  8
AM_0
 10
135.27309352596259
 20
542.31167766071235
 30
0.0
 11
145.95206438210329
 21
542.31167766071201
 31
0.0
  0
ARC
  5
59D9
  8
AM_0
 10
135.27309352596211
 20
537.31167766071235
 30
0.0
 40
5.0
 50
90.0
 51
135.0
1001
GENIUS_GENODEF_13
1002
{
1000
HIER
1070
     0
1002
}
1002
{
1000
MANEDIT
1070
     0
1002
}
1002
{
1000
NOSEL
1070
     0
1002
}
1002
{
1000
BEHIND
1070
     0
1002
}
1002
{
1000
OTHER
1070
     0
1002
}
1002
{
1000
REACTOR
1002
}
1001
GENIUS_GENOBJ-N-FIL_13
1002
{
1000
OWNER
1000
GEN
1002
}
  0
LINE
  5
59DA
  8
AM_0
 10
143.9714864962566
 20
542.31167766071223
 30
0.0
 11
143.9714864962566
 21
537.81167766071223
 31
0.0
  0
LINE
  5
59DB
  8
AM_0
 10
130.45202571409729
 20
508.63621823860558
 30
0.0
 11
130.45202571409769
 21
529.52365251442166
 31
0.0
  0
LINE
  5
59DC
  8
AM_0
 10
133.45202571409709
 20
508.63621823860558
 30
0.0
 11
133.45202571409769
 21
529.52365251442166
 31
0.0
  0
LINE
  5
59DD
  8
AM_0
 10
128.20202571409729
 20
507.62085024421532
 30
0.0
 11
128.2020257140978
 21
535.24060984884784
 31
0.0
  0
ARC
  5
59DE
  8
AM_0
 10
133.20202571409749
 20
535.24060984884761
 30
0.0
 40
5.0
 50
135.0
 51
180.0
1001
GENIUS_GENOBJ-N-FIL_13
1002
{
1000
OWNER
1000
GEN
1002
}
1001
GENIUS_GENODEF_13
1002
{
1000
HIER
1070
     0
1002
}
1002
{
1000
MANEDIT
1070
     0
1002
}
1002
{
1000
NOSEL
1070
     0
1002
}
1002
{
1000
BEHIND
1070
     0
1002
}
1002
{
1000
OTHER
1070
     0
1002
}
1002
{
1000
REACTOR
1002
}
  0
LINE
  5
59DF
  8
AM_0
 10
135.70202571409729
 20
507.62085024421481
 30
0.0
 11
135.70202571409769
 21
531.78075931746082
 31
0.0
  0
ARC
  5
59E0
  8
AM_0
 10
140.70202571409729
 20
523.35615929138771
 30
0.0
 40
5.0
 50
147.53905588485841
 51
180.0
1001
GENIUS_GENODEF_13
1002
{
1000
HIER
1070
     0
1002
}
1002
{
1000
MANEDIT
1070
     0
1002
}
1002
{
1000
NOSEL
1070
     0
1002
}
1002
{
1000
BEHIND
1070
     0
1002
}
1002
{
1000
OTHER
1070
     0
1002
}
1002
{
1000
REACTOR
1002
}
1001
GENIUS_GENOBJ-N-FIL_13
1002
{
1000
OWNER
1000
GEN
1002
}
  0
ARC
  5
59E1
  8
AM_0
 10
140.70202571409749
 20
531.78075931746082
 30
0.0
 40
5.0
 50
135.7876277191055
 51
180.0
1001
GENIUS_GENOBJ-N-FIL_13
1002
{
1000
OWNER
1000
GEN
1002
}
1001
GENIUS_GENODEF_13
1002
{
1000
HIER
1070
     0
1002
}
1002
{
1000
MANEDIT
1070
     0
1002
}
1002
{
1000
NOSEL
1070
     0
1002
}
1002
{
1000
BEHIND
1070
     0
1002
}
1002
{
1000
OTHER
1070
     0
1002
}
1002
{
1000
REACTOR
1002
}
  0
LINE
  5
59E2
  8
AM_0
 10
143.9714864962564
 20
537.81167766071223
 30
0.0
 11
136.4832382033303
 21
526.03978220435351
 31
0.0
  0
LINE
  5
59E3
  8
AM_0
 10
143.9714864962566
 20
542.31167766071223
 30
0.0
 11
137.1182254782463
 21
535.2673587882216
 31
0.0
  0
LINE
  5
59E4
  8
AM_0
 10
129.66649180816489
 20
538.77614375478061
 30
0.0
 11
131.73755962002971
 21
540.84721156664523
 31
0.0
  0
ARC
  5
59E5
  8
AM_0
 10
131.95202571409749
 20
529.52365251442166
 30
0.0
 40
1.5
 50
0.0
 51
180.0
  0
ARC
  5
59E6
  8
AM_0
 10
177.40286256895831
 20
431.31167766071269
 30
0.0
 40
20.0
 50
209.07393874564249
 51
249.97235728825609
1001
GENIUS_GENODEF_13
1002
{
1000
HIER
1070
     0
1002
}
1002
{
1000
MANEDIT
1070
     0
1002
}
1002
{
1000
NOSEL
1070
     0
1002
}
1002
{
1000
BEHIND
1070
     0
1002
}
1002
{
1000
OTHER
1070
     0
1002
}
1002
{
1000
REACTOR
1002
}
1001
GENIUS_GENOBJ-N-FIL_13
1002
{
1000
OWNER
1000
GEN
1002
}
  0
ARC
  5
59E7
  8
AM_0
 10
177.99103879760401
 20
432.31167766071269
 30
0.0
 40
15.0
 50
209.07393874564249
 51
240.27464366407139
1001
GENIUS_GENODEF_13
1002
{
1000
HIER
1070
     0
1002
}
1002
{
1000
MANEDIT
1070
     0
1002
}
1002
{
1000
NOSEL
1070
     0
1002
}
1002
{
1000
BEHIND
1070
     0
1002
}
1002
{
1000
OTHER
1070
     0
1002
}
1002
{
1000
REACTOR
1002
}
1001
GENIUS_GENOBJ-N-FIL_13
1002
{
1000
OWNER
1000
GEN
1002
}
  0
LINE
  5
59E8
  8
AM_0
 10
159.92299567754341
 20
421.59291984613458
 30
0.0
 11
138.95147029100551
 21
459.31167766071371
 31
0.0
  0
LINE
  5
59E9
  8
AM_0
 10
164.88113862904271
 20
425.02260929977928
 30
0.0
 11
146.92850561372009
 21
457.3116776607128
 31
0.0
  0
LINE
  5
5A7D
  8
AM_0
 10
362.95206438210312
 20
566.54280266071225
 30
0.0
 11
362.95206438210312
 21
438.09806266071217
 31
0.0
  0
LINE
  5
5A7E
  8
AM_0
 10
377.88224438210318
 20
577.02989266071211
 30
0.0
 11
385.95206438210312
 21
577.31169266071254
 31
0.0
  0
LINE
  5
5A7F
  8
AM_0
 10
389.95206438210312
 20
572.31169266071254
 30
0.0
 11
389.95206438210312
 21
432.31166266071227
 31
0.0
  0
LINE
  5
5A80
  8
AM_0
 10
385.95203438210319
 20
577.31166266071261
 30
0.0
 11
385.95203438210319
 21
427.31166266071261
 31
0.0
  0
LINE
  5
5A81
  8
AM_0
 10
385.95203438210319
 20
572.31169266071254
 30
0.0
 11
389.95206438210312
 21
572.31169266071254
 31
0.0
  0
LINE
  5
5A82
  8
AM_0
 10
380.95206438210312
 20
561.81169266071231
 30
0.0
 11
380.95206438210312
 21
442.81166266071222
 31
0.0
  0
LINE
  5
5A83
  8
AM_0
 10
367.77759438210319
 20
571.53974266071248
 30
0.0
 11
373.05677438210319
 21
571.72410266071245
 31
0.0
  0
LINE
  5
5A84
  8
AM_0
 10
375.95203438210319
 20
575.03108266071251
 30
0.0
 11
375.95203438210319
 21
542.75205266071259
 31
0.0
  0
LINE
  5
5A85
  8
AM_0
 10
306.95206438210312
 20
534.25163266071252
 30
0.0
 11
322.95206438210312
 21
534.25163266071252
 31
0.0
  0
LINE
  5
5A86
  8
AM_0
 10
330.95206438210317
 20
442.31169266071231
 30
0.0
 11
330.95206438210317
 21
562.31169266071254
 31
0.0
  0
LINE
  5
5A87
  8
AM_0
 10
362.95206438210312
 20
441.47370266071249
 30
0.0
 11
326.89969438210312
 21
442.41776266071219
 31
0.0
  0
LINE
  5
5A88
  8
AM_0
 10
324.95206438210312
 20
444.41709266071229
 30
0.0
 11
324.95206438210312
 21
560.20625266071249
 31
0.0
  0
LINE
  5
5A89
  8
AM_0
 10
306.95203438210319
 20
548.31196266071254
 30
0.0
 11
323.00437438210321
 21
548.73231266071218
 31
0.0
  0
LINE
  5
5A8A
  8
AM_0
 10
306.95206438210312
 20
456.3113526607122
 30
0.0
 11
323.00437438210321
 21
455.89103266071209
 31
0.0
  0
LINE
  5
5A8B
  8
AM_0
 10
306.95206438210312
 20
470.3717426607123
 30
0.0
 11
322.95206438210312
 21
470.3717426607123
 31
0.0
  0
LINE
  5
5A8C
  8
AM_0
 10
306.95203438210319
 20
445.8116926607122
 30
0.0
 11
316.94635438210321
 21
445.54997266071268
 31
0.0
  0
LINE
  5
5A8D
  8
AM_0
 10
317.89969438210312
 20
445.27940266071249
 30
0.0
 11
323.58069438210322
 21
445.13062266071228
 31
0.0
  0
LINE
  5
5A8E
  8
AM_0
 10
315.95206438210312
 20
550.49595266071253
 30
0.0
 11
315.95206438210312
 21
557.34461266071207
 31
0.0
  0
LINE
  5
5A8F
  8
AM_0
 10
306.95203438210319
 20
558.81166266071261
 30
0.0
 11
316.94635438210321
 21
559.07337266071227
 31
0.0
  0
LINE
  5
5A90
  8
AM_0
 10
317.89969438210312
 20
559.34391266071225
 30
0.0
 11
323.58069438210322
 21
559.49269266071258
 31
0.0
  0
LINE
  5
5A91
  8
AM_0
 10
326.89966438210308
 20
562.20555266071256
 30
0.0
 11
362.95206438210312
 21
563.1496426607124
 31
0.0
  0
LINE
  5
5A92
  8
AM_0
 10
367.77759438210319
 20
433.08360266071247
 30
0.0
 11
373.05677438210319
 21
432.89924266071262
 31
0.0
  0
LINE
  5
5A93
  8
AM_0
 10
375.95203438210319
 20
429.59226266071209
 30
0.0
 11
375.95203438210319
 21
461.87129266071219
 31
0.0
  0
LINE
  5
5A94
  8
AM_0
 10
377.88224438210318
 20
427.59349266071251
 30
0.0
 11
385.95206438210312
 21
427.31169266071248
 31
0.0
  0
LINE
  5
5A95
  8
AM_0
 10
385.95203438210319
 20
432.31166266071227
 30
0.0
 11
389.95206438210312
 21
432.31166266071227
 31
0.0
  0
LINE
  5
5A96
  8
AM_0
 10
330.95206438210317
 20
557.83802266071257
 30
0.0
 11
362.95206438210312
 21
557.83802266071257
 31
0.0
  0
LINE
  5
5A97
  8
AM_0
 10
330.95206438210317
 20
446.78532266071232
 30
0.0
 11
362.95206438210312
 21
446.78532266071232
 31
0.0
  0
LINE
  5
5A98
  8
AM_0
 10
315.95206438210312
 20
454.12739266071219
 30
0.0
 11
315.95206438210312
 21
447.27873266071219
 31
0.0
  0
ARC
  5
5A99
  8
AM_0
 10
377.95206438210312
 20
542.75205266071259
 30
0.0
 40
2.0
 50
179.999989999999
 51
271.51463999999908
  0
ARC
  5
5A9A
  8
AM_0
 10
372.95203438210319
 20
574.72227266071252
 30
0.0
 40
3.0
 50
271.9999999999971
 51
0.0
  0
ARC
  5
5A9B
  8
AM_0
 10
367.95203438210319
 20
566.54280266071225
 30
0.0
 40
5.0
 50
91.999998000000545
 51
180.00001000000091
  0
ARC
  5
5A9C
  8
AM_0
 10
377.95206438210312
 20
561.81169266071231
 30
0.0
 40
3.0
 50
0.0
 51
90.00000299999769
  0
ARC
  5
5A9D
  8
AM_0
 10
377.95206438210312
 20
575.03108266071251
 30
0.0
 40
2.0
 50
91.999998000000545
 51
180.00001000000091
  0
ARC
  5
5A9E
  8
AM_0
 10
322.95206438210312
 20
468.3717426607123
 30
0.0
 40
2.0
 50
0.0
 51
90.00000299999769
  0
ARC
  5
5A9F
  8
AM_0
 10
367.95203438210319
 20
438.0805526607125
 30
0.0
 40
5.0
 50
179.999989999999
 51
268.00000999999861
  0
ARC
  5
5AA0
  8
AM_0
 10
313.95206438210329
 20
454.12739266071219
 30
0.0
 40
2.0
 50
0.0
 51
88.499997000000747
  0
ARC
  5
5AA1
  8
AM_0
 10
322.95206438210312
 20
550.73164266071228
 30
0.0
 40
2.0
 50
271.50000000000267
 51
0.0
  0
ARC
  5
5AA2
  8
AM_0
 10
326.95206438210317
 20
560.20625266071249
 30
0.0
 40
2.0
 50
91.500001000001546
 51
180.00001000000091
  0
ARC
  5
5AA3
  8
AM_0
 10
322.95206438210312
 20
453.89170266071238
 30
0.0
 40
2.0
 50
0.0
 51
88.499997000000747
  0
ARC
  5
5AA4
  8
AM_0
 10
323.541424382103
 20
443.6311726607122
 30
0.0
 40
1.5
 50
12.97665300000153
 51
88.499997000000747
  0
ARC
  5
5AA5
  8
AM_0
 10
323.541424382103
 20
560.99220266071245
 30
0.0
 40
1.5
 50
271.50000000000267
 51
347.02334999999908
  0
ARC
  5
5AA6
  8
AM_0
 10
317.95206438210317
 20
447.27873266071219
 30
0.0
 40
2.0
 50
180.00001000000091
 51
268.49999999999721
  0
ARC
  5
5AA7
  8
AM_0
 10
322.95206438210312
 20
536.25163266071252
 30
0.0
 40
2.0
 50
270.0
 51
0.0
  0
ARC
  5
5AA8
  8
AM_0
 10
317.95206438210317
 20
557.34461266071207
 30
0.0
 40
2.0
 50
91.500001000001546
 51
180.00001000000091
  0
ARC
  5
5AA9
  8
AM_0
 10
326.95206438210317
 20
444.41709266071229
 30
0.0
 40
2.0
 50
180.00001000000091
 51
268.49999999999721
  0
ARC
  5
5AAA
  8
AM_0
 10
372.95203438210319
 20
429.9010726607122
 30
0.0
 40
3.0
 50
0.0
 51
88.000000000002899
  0
ARC
  5
5AAB
  8
AM_0
 10
377.95206438210312
 20
442.81166266071222
 30
0.0
 40
3.0
 50
270.0
 51
0.0
  0
ARC
  5
5AAC
  8
AM_0
 10
377.95206438210312
 20
461.87129266071219
 30
0.0
 40
2.0
 50
88.485353000001012
 51
180.00001000000091
  0
ARC
  5
5AAD
  8
AM_0
 10
313.95206438210329
 20
550.49595266071253
 30
0.0
 40
2.0
 50
271.50000000000267
 51
0.0
  0
ARC
  5
5AAE
  8
AM_0
 10
377.95206438210312
 20
429.59226266071209
 30
0.0
 40
2.0
 50
179.999989999999
 51
268.00000999999861
  0
LINE
  5
5AAF
  8
AM_0
 10
398.95206438210312
 20
499.31169266071242
 30
0.0
 11
398.95206438210312
 21
505.31169266071231
 31
0.0
  0
LINE
  5
5AB0
  8
AM_0
 10
396.95204438210368
 20
492.81172266071218
 30
0.0
 11
420.95206438210312
 21
492.81172266071218
 31
0.0
  0
LINE
  5
5AB1
  8
AM_0
 10
396.95204438210328
 20
511.81172266071229
 30
0.0
 11
420.95206438210312
 21
511.81172266071229
 31
0.0
  0
LINE
  5
5AB2
  8
AM_0
 10
420.95206438210312
 20
492.81172266071218
 30
0.0
 11
420.95206438210312
 21
511.81172266071229
 31
0.0
  0
LINE
  5
5AB3
  8
AM_0
 10
398.95206438210312
 20
499.31169266071242
 30
0.0
 11
420.95206438210312
 21
499.31169266071242
 31
0.0
  0
LINE
  5
5AB4
  8
AM_0
 10
398.95206438210312
 20
505.31169266071231
 30
0.0
 11
420.95206438210312
 21
505.31169266071231
 31
0.0
  0
ARC
  5
5AB5
  8
AM_0
 10
398.95206438210312
 20
502.31169266071248
 30
0.0
 40
3.0
 50
89.986014000002498
 51
131.81082736685451
  0
ARC
  5
5AB6
  8
AM_0
 10
398.95206438210312
 20
502.31169266071248
 30
0.0
 40
3.0
 50
228.18917263315251
 51
270.01399000000328
  0
LINE
  5
5AB7
  8
AM_0
 10
392.95204438210328
 20
526.81172266071235
 30
0.0
 11
396.95204438210311
 21
522.81172266071258
 31
0.0
  0
LINE
  5
5AB8
  8
AM_0
 10
390.45204438210322
 20
526.81172266071235
 30
0.0
 11
392.95204438210328
 21
526.81172266071235
 31
0.0
  0
LINE
  5
5AB9
  8
AM_0
 10
396.95204438210311
 20
522.81172266071258
 30
0.0
 11
396.95204438210368
 21
481.81172266071252
 31
0.0
  0
LINE
  5
5ABA
  8
AM_0
 10
392.95204438210328
 20
477.81172266071252
 30
0.0
 11
396.95204438210311
 21
481.81172266071252
 31
0.0
  0
LINE
  5
5ABB
  8
AM_0
 10
390.45204438210322
 20
477.81172266071252
 30
0.0
 11
392.95204438210328
 21
477.81172266071252
 31
0.0
  0
LINE
  5
5ABC
  8
AM_0
 10
389.95204438210322
 20
526.31172266071235
 30
0.0
 11
390.45204438210322
 21
526.81172266071235
 31
0.0
1001
GENIUS_GENFIL_13
1070
     0
1040
0.5
1040
0.5
1040
20.0
1040
0.0
1002
{
1002
}
1001
GENIUS_GENOBJ-N-CHA_13
1002
{
1000
OWNER
1000
GEN
1002
}
1001
GENIUS_GENODEF_13
1002
{
1000
HIER
1070
     0
1002
}
1002
{
1000
MANEDIT
1070
     0
1002
}
1002
{
1000
NOSEL
1070
     0
1002
}
1002
{
1000
BEHIND
1070
     0
1002
}
1002
{
1000
OTHER
1070
     0
1002
}
1002
{
1000
REACTOR
1002
}
  0
LINE
  5
5ABD
  8
AM_0
 10
389.95204438210322
 20
478.31172266071241
 30
0.0
 11
390.45204438210322
 21
477.81172266071252
 31
0.0
1001
GENIUS_GENFIL_13
1070
     0
1040
0.5
1040
0.5
1040
20.0
1040
0.0
1002
{
1002
}
1001
GENIUS_GENODEF_13
1002
{
1000
HIER
1070
     0
1002
}
1002
{
1000
MANEDIT
1070
     0
1002
}
1002
{
1000
NOSEL
1070
     0
1002
}
1002
{
1000
BEHIND
1070
     0
1002
}
1002
{
1000
OTHER
1070
     0
1002
}
1002
{
1000
REACTOR
1002
}
1001
GENIUS_GENOBJ-N-CHA_13
1002
{
1000
OWNER
1000
GEN
1002
}
  0
LINE
  5
5ABE
  8
AM_0
 10
392.95204438210328
 20
526.81172266071235
 30
0.0
 11
392.95204438210328
 21
477.81172266071252
 31
0.0
  0
TEXT
  5
5E59
  8
AM_0
 10
499.09440596611302
 20
507.48703202438008
 30
0.0
 40
10.0
  1
VX02-005BFW~VX02-030BFW
  0
ENDSEC
  0
EOF
