  0
SECTION
  2
HEADER
  9
$ACADVER
  1
AC1009
  9
$INSBASE
 10
0.0
 20
0.0
 30
0.0
  9
$EXTMIN
 10
90.486421770283869
 20
137.16905678193191
 30
-250.41841640509659
  9
$EXTMAX
 10
728.04581635532156
 20
592.39529907594101
 30
8206587.2096418813
  9
$LIMMIN
 10
0.0
 20
0.0
  9
$LIMMAX
 10
853.5
 20
555.00000000000011
  9
$ORTHOMODE
 70
     0
  9
$REGENMODE
 70
     1
  9
$FILLMODE
 70
     1
  9
$QTEXTMODE
 70
     0
  9
$MIRRTEXT
 70
     1
  9
$DRAGMODE
 70
     2
  9
$LTSCALE
 40
3.0
  9
$OSMODE
 70
   551
  9
$ATTMODE
 70
     1
  9
$TEXTSIZE
 40
2.5
  9
$TRACEWID
 40
1.0
  9
$TEXTSTYLE
  7
STANDARD
  9
$CLAYER
  8
AM_0
  9
$CELTYPE
  6
BYLAYER
  9
$CECOLOR
 62
   256
  9
$DIMSCALE
 40
3.0
  9
$DIMASZ
 40
2.5
  9
$DIMEXO
 40
1.0
  9
$DIMDLI
 40
8.0
  9
$DIMRND
 40
0.0
  9
$DIMDLE
 40
0.0
  9
$DIMEXE
 40
0.6
  9
$DIMTP
 40
0.1
  9
$DIMTM
 40
0.1
  9
$DIMTXT
 40
2.5
  9
$DIMCEN
 40
0.0
  9
$DIMTSZ
 40
0.0
  9
$DIMTOL
 70
     0
  9
$DIMLIM
 70
     0
  9
$DIMTIH
 70
     0
  9
$DIMTOH
 70
     0
  9
$DIMSE1
 70
     0
  9
$DIMSE2
 70
     0
  9
$DIMTAD
 70
     1
  9
$DIMZIN
 70
     8
  9
$DIMBLK
  1

  9
$DIMASO
 70
     1
  9
$DIMSHO
 70
     1
  9
$DIMPOST
  1

  9
$DIMAPOST
  1
"
  9
$DIMALT
 70
     0
  9
$DIMALTD
 70
     2
  9
$DIMALTF
 40
0.0393701
  9
$DIMLFAC
 40
1.0
  9
$DIMTOFL
 70
     1
  9
$DIMTVP
 40
0.0
  9
$DIMTIX
 70
     0
  9
$DIMSOXD
 70
     0
  9
$DIMSAH
 70
     0
  9
$DIMBLK1
  1

  9
$DIMBLK2
  1

  9
$DIMSTYLE
  2
AM_ISO
  9
$DIMCLRD
 70
   256
  9
$DIMCLRE
 70
   256
  9
$DIMCLRT
 70
     4
  9
$DIMTFAC
 40
0.71
  9
$DIMGAP
 40
0.8
  9
$LUNITS
 70
     2
  9
$LUPREC
 70
     2
  9
$SKETCHINC
 40
1.0
  9
$FILLETRAD
 40
15.0
  9
$AUNITS
 70
     0
  9
$AUPREC
 70
     0
  9
$MENU
  1
.
  9
$ELEVATION
 40
0.0
  9
$PELEVATION
 40
0.0
  9
$THICKNESS
 40
0.0
  9
$LIMCHECK
 70
     0
  9
$BLIPMODE
 70
     0
  9
$CHAMFERA
 40
6.0
  9
$CHAMFERB
 40
3.0
  9
$SKPOLY
 70
     0
  9
$TDCREATE
 40
2452065.6056192131
  9
$TDUPDATE
 40
2458541.6140168398
  9
$TDINDWG
 40
0.3565644676
  9
$TDUSRTIMER
 40
0.3565642708
  9
$USRTIMER
 70
     1
  9
$ANGBASE
 50
0.0
  9
$ANGDIR
 70
     0
  9
$PDMODE
 70
     0
  9
$PDSIZE
 40
0.0
  9
$PLINEWID
 40
0.0
  9
$COORDS
 70
     1
  9
$SPLFRAME
 70
     0
  9
$SPLINETYPE
 70
     6
  9
$SPLINESEGS
 70
     8
  9
$ATTDIA
 70
     1
  9
$ATTREQ
 70
     1
  9
$HANDLING
 70
     1
  9
$HANDSEED
  5
72E0
  9
$SURFTAB1
 70
     6
  9
$SURFTAB2
 70
     6
  9
$SURFTYPE
 70
     6
  9
$SURFU
 70
     6
  9
$SURFV
 70
     6
  9
$UCSNAME
  2

  9
$UCSORG
 10
0.0
 20
0.0
 30
0.0
  9
$UCSXDIR
 10
1.0
 20
0.0
 30
0.0
  9
$UCSYDIR
 10
0.0
 20
1.0
 30
0.0
  9
$PUCSNAME
  2

  9
$PUCSORG
 10
0.0
 20
0.0
 30
0.0
  9
$PUCSXDIR
 10
1.0
 20
0.0
 30
0.0
  9
$PUCSYDIR
 10
0.0
 20
1.0
 30
0.0
  9
$USERI1
 70
     0
  9
$USERI2
 70
     0
  9
$USERI3
 70
     0
  9
$USERI4
 70
     0
  9
$USERI5
 70
     0
  9
$USERR1
 40
0.0
  9
$USERR2
 40
0.0
  9
$USERR3
 40
0.0
  9
$USERR4
 40
0.0
  9
$USERR5
 40
0.0
  9
$WORLDVIEW
 70
     1
  9
$SHADEDGE
 70
     3
  9
$SHADEDIF
 70
    70
  9
$TILEMODE
 70
     1
  9
$MAXACTVP
 70
    64
  9
$PLIMCHECK
 70
     0
  9
$PEXTMIN
 10
1.0000000000000000E+020
 20
1.0000000000000000E+020
 30
1.0000000000000000E+020
  9
$PEXTMAX
 10
-1.0000000000000000E+020
 20
-1.0000000000000000E+020
 30
-1.0000000000000000E+020
  9
$PLIMMIN
 10
0.0
 20
0.0
  9
$PLIMMAX
 10
420.0
 20
297.0
  9
$UNITMODE
 70
     0
  9
$VISRETAIN
 70
     1
  9
$PLINEGEN
 70
     0
  9
$PSLTSCALE
 70
     1
  0
ENDSEC
  0
SECTION
  2
TABLES
  0
TABLE
  2
VPORT
 70
     1
  0
VPORT
  2
*ACTIVE
 70
     0
 10
0.0
 20
0.0
 11
1.0
 21
1.0
 12
409.2661190628026
 22
364.78217792893651
 13
0.0
 23
0.0
 14
7.5
 24
7.5
 15
30.0
 25
30.0
 16
0.0
 26
0.0
 36
1.0
 17
0.0
 27
0.0
 37
0.0
 40
458.3513652388192
 41
1.7571592210767459
 42
50.0
 43
0.0
 44
0.0
 50
0.0
 51
0.0
 71
     0
 72
   100
 73
     1
 74
     3
 75
     0
 76
     0
 77
     0
 78
     0
  0
ENDTAB
  0
TABLE
  2
LTYPE
 70
    26
  0
LTYPE
  2
CONTINUOUS
 70
     0
  3
Solid line
 72
    65
 73
     0
 40
0.0
  0
LTYPE
  2
AM_ISO02W050
 70
     0
  3
__ __ __ __ __ __ __ __ __ __ __ __ __ __ __
 72
    65
 73
     2
 40
7.5
 49
6.0
 49
-1.5
  0
LTYPE
  2
AM_ISO08W050
 70
     0
  3
____ . ____ . ____ . ____ . ____ . ____ . ____
 72
    65
 73
     4
 40
18.0
 49
12.0
 49
-1.5
 49
3.0
 49
-1.5
  0
LTYPE
  2
AM_ISO09W050
 70
     0
  3
_____ . . _____ . . _____ . . ____ .. ____
 72
    65
 73
     6
 40
22.5
 49
12.0
 49
-1.5
 49
3.0
 49
-1.5
 49
3.0
 49
-1.5
  0
LTYPE
  2
AMCONSTR
 70
     0
  3
_______________________
 72
    65
 73
     2
 40
9999.0
 49
9999.0
 49
0.0
  0
LTYPE
  2
AM_ISO08W050X2
 70
     0
  3
__ . __ . __ . __ . __ . __
 72
    65
 73
     4
 40
9.0
 49
6.0
 49
-0.75
 49
1.5
 49
-0.75
  0
LTYPE
  2
AM_ISO02W050X2
 70
     0
  3
 _ _ _ _ _ _ _ _ _ _ _ _
 72
    65
 73
     2
 40
3.75
 49
3.0
 49
-0.75
  0
LTYPE
  2
AMZIGZAG
 70
     0
  3
/\/-/\/-/\/-/\/-/\/-/\/
 72
    65
 73
     2
 40
11.0001
 49
0.0001
 49
-11.0
  0
LTYPE
  2
ACISOWELD
 70
     0
  3
_ _ _ _ _
 72
    65
 73
     2
 40
2.0
 49
2.0
 49
-1.0
  0
LTYPE
  2
ACISOTGB
 70
     0
  3
__ . . __ . .
 72
    65
 73
     6
 40
9.0
 49
4.0
 49
-1.0
 49
1.0
 49
-1.0
 49
1.0
 49
-1.0
  0
LTYPE
  2
ACISOTGL
 70
     0
  3
_ _ _ _ _
 72
    65
 73
     2
 40
3.0
 49
2.0
 49
-1.0
  0
LTYPE
  2
CENTER
 70
     0
  3
__ . __
 72
    65
 73
     4
 40
7.0
 49
4.0
 49
-1.0
 49
1.0
 49
-1.0
  0
LTYPE
  2
HIDDEN
 70
     0
  3
Hidden __ __ __ __ __ __ __ __ __ __ __ __ __ _
 72
    65
 73
     2
 40
9.5249999999999986
 49
6.3499999999999979
 49
-3.174999999999998
  0
LTYPE
  2
PHANTOM2
 70
     0
  3
Phantom (.5x) ___ _ _ ___ _ _ ___ _ _ ___ _ _
 72
    65
 73
     6
 40
31.75
 49
15.875
 49
-3.174999999999998
 49
3.174999999999998
 49
-3.174999999999998
 49
3.174999999999998
 49
-3.174999999999998
  0
LTYPE
  2
ACANSTGBM
 70
     0
  3
__ . . __ . .
 72
    65
 73
     6
 40
9.0
 49
4.0
 49
-1.0
 49
1.0
 49
-1.0
 49
1.0
 49
-1.0
  0
LTYPE
  2
ACANSTGLM
 70
     0
  3
_ _ _ _ _
 72
    65
 73
     2
 40
3.0
 49
2.0
 49
-1.0
  0
LTYPE
  2
GEN7A
 70
     0
  3
__ . __ . __
 72
    65
 73
     4
 40
7.375
 49
4.75
 49
-0.875
 49
0.875
 49
-0.875
  0
LTYPE
  2
ACJISTGB
 70
     0
  3
__ . . __ . .
 72
    65
 73
     6
 40
9.0
 49
4.0
 49
-1.0
 49
1.0
 49
-1.0
 49
1.0
 49
-1.0
  0
LTYPE
  2
ACJISTGL
 70
     0
  3
_ _ _ _ _
 72
    65
 73
     2
 40
3.0
 49
2.0
 49
-1.0
  0
LTYPE
  2
GEN7
 70
     0
  3
____ . ____ . ____ . ____ . ____ . ____ . ____
 72
    65
 73
     4
 40
14.25
 49
9.75
 49
-1.5
 49
1.5
 49
-1.5
  0
LTYPE
  2
CENTER2
 70
     0
  3
Center (.5x) ___ _ ___ _ ___ _ ___ _ ___ _ ___
 72
    65
 73
     4
 40
1.125
 49
0.75
 49
-0.125
 49
0.125
 49
-0.125
  0
LTYPE
  2
HIDDEN2
 70
     0
  3
Hidden (.5x) _ _ _ _ _ _ _ _ _ _ _ _ _ _ _ _ _
 72
    65
 73
     2
 40
0.1875
 49
0.125
 49
-0.0625
  0
LTYPE
  2
AMZIGZAG2
 70
     0
  3
/\/-/\/-/\/-/\/-/\/-/\/
 72
    65
 73
     2
 40
0.4401
 49
0.0001
 49
-0.4400000000000001
  0
LTYPE
  2
ACANSTGB
 70
     0
  3
__ . . __ . .
 72
    65
 73
     6
 40
0.35433070866
 49
0.15748031496
 49
-0.03937007874
 49
0.03937007874
 49
-0.03937007874
 49
0.03937007874
 49
-0.03937007874
  0
LTYPE
  2
ACANSTGL
 70
     0
  3
_ _ _ _ _
 72
    65
 73
     2
 40
0.11811023622
 49
0.07874015748
 49
-0.03937007874
  0
ENDTAB
  0
TABLE
  2
LAYER
 70
     6
  0
LAYER
  2
0
 70
     0
 62
     7
  6
CONTINUOUS
  0
LAYER
  2
AM_0
 70
     0
 62
     7
  6
CONTINUOUS
  0
LAYER
  2
DEFPOINTS
 70
     0
 62
     7
  6
CONTINUOUS
  0
LAYER
  2
ﾁｭｳｼﾝｾﾝ1
 70
     0
 62
     1
  6
GEN7A
  0
LAYER
  2
AM_0N
 70
     0
 62
     7
  6
CONTINUOUS
  0
LAYER
  2
ﾁｭｳｼﾝｾﾝ
 70
     0
 62
     1
  6
GEN7
  0
ENDTAB
  0
TABLE
  2
STYLE
 70
    10
  0
STYLE
  2
STANDARD
 70
     0
 40
0.0
 41
0.8299999999999999
 50
0.0
 71
     0
 42
2.5
  3
txt.shx
  4
bigfont.shx
  0
STYLE
  2
ANNOTATIVE
 70
     0
 40
0.0
 41
1.0
 50
0.0
 71
     0
 42
0.2
  3
txt
  4

  0
STYLE
  2

 70
     1
 40
0.0
 41
1.0
 50
0.0
 71
     0
 42
2.5
  3
ltypeshp.shx
  4

  0
STYLE
  2
ACISOTS
 70
     0
 40
1.0
 41
1.0
 50
0.0
 71
     0
 42
2.5
  3
isocp.shx
  4
extfont.shx
  0
STYLE
  2
ACISOGDT
 70
     0
 40
0.0
 41
1.0
 50
0.0
 71
     0
 42
2.5
  3
amgdt.shx
  4

  0
STYLE
  2
ACANSTS
 70
     0
 40
1.0
 41
1.0
 50
0.0
 71
     0
 42
2.5
  3
romans.shx
  4
bigfont.shx
  0
STYLE
  2
ACANSGDT
 70
     0
 40
0.0
 41
1.0
 50
0.0
 71
     0
 42
2.5
  3
amgdt.shx
  4

  0
STYLE
  2
ACJISTS
 70
     0
 40
1.0
 41
1.0
 50
0.0
 71
     0
 42
2.5
  3
isocp.shx
  4
bigfont.shx
  0
STYLE
  2
ACJISGDT
 70
     0
 40
0.0
 41
1.0
 50
0.0
 71
     0
 42
2.5
  3
amgdt.shx
  4

  0
STYLE
  2

 70
     1
 40
0.0
 41
1.0
 50
0.0
 71
     0
 42
2.5
  3
genltshp.shx
  4

  0
ENDTAB
  0
TABLE
  2
VIEW
 70
     6
  0
VIEW
  2
AM_VIEW1
 70
     0
 40
277.50000000000011
 10
249.64779005524869
 20
416.25
 41
499.29558011049721
 11
0.0
 21
0.0
 31
1.0
 12
0.0
 22
0.0
 32
0.0
 42
50.0
 43
0.0
 44
0.0
 50
0.0
 71
     0
  0
VIEW
  2
AM_VIEW2
 70
     0
 40
277.50000000000011
 10
603.85220994475117
 20
416.25
 41
499.29558011049721
 11
0.0
 21
0.0
 31
1.0
 12
0.0
 22
0.0
 32
0.0
 42
50.0
 43
0.0
 44
0.0
 50
0.0
 71
     0
  0
VIEW
  2
AM_VIEW3
 70
     0
 40
277.50000000000011
 10
249.64779005524869
 20
138.75
 41
499.29558011049721
 11
0.0
 21
0.0
 31
1.0
 12
0.0
 22
0.0
 32
0.0
 42
50.0
 43
0.0
 44
0.0
 50
0.0
 71
     0
  0
VIEW
  2
AM_VIEW4
 70
     0
 40
277.50000000000011
 10
603.85220994475117
 20
138.75
 41
499.29558011049721
 11
0.0
 21
0.0
 31
1.0
 12
0.0
 22
0.0
 32
0.0
 42
50.0
 43
0.0
 44
0.0
 50
0.0
 71
     0
  0
VIEW
  2
AM_VIEW5
 70
     0
 40
277.50000000000011
 10
426.75
 20
277.50000000000011
 41
499.2955801104971
 11
0.0
 21
0.0
 31
1.0
 12
0.0
 22
0.0
 32
0.0
 42
50.0
 43
0.0
 44
0.0
 50
0.0
 71
     0
  0
VIEW
  2
AM_VIEW6
 70
     0
 40
554.99445000000014
 10
426.75
 20
277.5
 41
998.5811743093924
 11
0.0
 21
0.0
 31
1.0
 12
0.0
 22
0.0
 32
0.0
 42
50.0
 43
0.0
 44
0.0
 50
0.0
 71
     0
  0
ENDTAB
  0
TABLE
  2
UCS
 70
     0
  0
ENDTAB
  0
TABLE
  2
APPID
 70
   101
  0
APPID
  2
ACAD
 70
     0
  0
APPID
  2
ACADANNOTATIVE
 70
     0
  0
APPID
  2
MCAD_NO_VIS
 70
     0
  0
APPID
  2
ACAD_TEMP_GRAPHIC
 70
     0
  0
APPID
  2
ACATTRIBSERVICES
 70
     0
  0
APPID
  2
GENIUS_GENREC_14
 70
     0
  0
APPID
  2
GENIUS_GENOBJ-N-REC_13
 70
     0
  0
APPID
  2
GENIUS_GENODEF_13
 70
     0
  0
APPID
  2
GENIUS_GENOLIS_13
 70
     0
  0
APPID
  2
GENIUS_GENOBJ-N-TIT_13
 70
     0
  0
APPID
  2
GENIUS_GENOENT_13
 70
     0
  0
APPID
  2
GENIUS_GENTITLE_13
 70
     0
  0
APPID
  2
GENIUS_GENOREF_13
 70
     0
  0
APPID
  2
GENIUS_GENSCREG_15
 70
     0
  0
APPID
  2
GENIUS_GENOBJ-N-SDF_13
 70
     0
  0
APPID
  2
GENIUS_GENFIL_13
 70
     0
  0
APPID
  2
GENIUS_GENOBJ-N-CHA_13
 70
     0
  0
APPID
  2
GENIUS_GENDTOL_13
 70
     0
  0
APPID
  2
GENIUS_GENOBJ-N-FIL_13
 70
     0
  0
APPID
  2
AD_DRAW
 70
     0
  0
APPID
  2
DESIGNERASSEMBLIES
 70
     0
  0
APPID
  2
ASURF_PCURVE_APPNAME
 70
     0
  0
APPID
  2
GENIUS_GE3SECT_13
 70
     0
  0
APPID
  2
GENIUS_GENCFG_13
 70
     0
  0
APPID
  2
GENIUS_GE3CFG0_13
 70
     0
  0
APPID
  2
GENIUS_GENCFG0_13
 70
     0
  0
APPID
  2
GENIUS_GENCFG1_13
 70
     0
  0
APPID
  2
GENIUS_GENCFG2_13
 70
     0
  0
APPID
  2
GENIUS_GENCFG3_13
 70
     0
  0
APPID
  2
GENIUS_GENCFG4_13
 70
     0
  0
APPID
  2
GENIUS_GEVCFG0_13
 70
     0
  0
APPID
  2
GENIUS_GENHINW_13
 70
     0
  0
APPID
  2
GENIUS_FIRSTVISTXT_14
 70
     0
  0
APPID
  2
GENIUS_GENOBJ-N-LEADER_13
 70
     0
  0
APPID
  2
GEV_VCCNULL_SWITCH_OFF
 70
     0
  0
APPID
  2
GENIUS_GEFCFG0_13
 70
     0
  0
APPID
  2
GENIUS_GENZVEED_13
 70
     0
  0
APPID
  2
GENIUS_GENSCREG_13
 70
     0
  0
APPID
  2
GENIUS_DUMCFG0_13
 70
     0
  0
APPID
  2
GEVID936201362
 70
     0
  0
APPID
  2
GEVDC
 70
     0
  0
APPID
  2
GEVCON
 70
     0
  0
APPID
  2
VCC
 70
     0
  0
APPID
  2
GEVPT
 70
     0
  0
APPID
  2
GEVIT
 70
     0
  0
APPID
  2
GENBH
 70
     0
  0
APPID
  2
GEVMK
 70
     0
  0
APPID
  2
GENIUS_GENBH_13
 70
     0
  0
APPID
  2
GENIUS_GENOBJ-NBEHI-BHF_13
 70
     0
  0
APPID
  2
GENIUS_GENOBJ-NBEHI-BHB_13
 70
     0
  0
APPID
  2
GENIUS_GENOBJ-F-DESC_13
 70
     0
  0
APPID
  2
GENIUS_GEFDESC_14
 70
     0
  0
APPID
  2
GENIUS_GENOBJ-F-PART_13
 70
     0
  0
APPID
  2
GENIUS_GEFSTDP_13
 70
     0
  0
APPID
  2
GENIUS_GEFPARTINS_13
 70
     0
  0
APPID
  2
GENIUS_GENTRA_14
 70
     0
  0
APPID
  2
GENIUS_GENINF13_13
 70
     0
  0
APPID
  2
GENIUS_GENOBJ-N-INFOPT_13
 70
     0
  0
APPID
  2
GENIUS_GENOBJ-N-RSSYM_13
 70
     0
  0
APPID
  2
GENIUS_GENSYMENT_13
 70
     0
  0
APPID
  2
GENIUS_GENSCSYM_13
 70
     0
  0
APPID
  2
GENIUS_GEFINFNAM_13
 70
     0
  0
APPID
  2
GENIUS_GENOBJ-N-CEN_13
 70
     0
  0
APPID
  2
GENIUS_GENOBJ-N-CRS_13
 70
     0
  0
APPID
  2
GENIUS_GENOBJ-N-CRC_13
 70
     0
  0
APPID
  2
GENIUS_GENCRC_14
 70
     0
  0
APPID
  2
GEVID942827039
 70
     0
  0
APPID
  2
GEVID942827040
 70
     0
  0
APPID
  2
GEVID942827041
 70
     0
  0
APPID
  2
GENIUS_GENOBJ-F-SCPASSM_13
 70
     0
  0
APPID
  2
GENIUS_GENDIMSH_14
 70
     0
  0
APPID
  2
GEVID942827042
 70
     0
  0
APPID
  2
GEVID946020473
 70
     0
  0
APPID
  2
GEVID946020474
 70
     0
  0
APPID
  2
GEVID946020475
 70
     0
  0
APPID
  2
GENIUS_GENOBJ-N-HTC_13
 70
     0
  0
APPID
  2
GENIUS_GENHATCH_13
 70
     0
  0
APPID
  2
GEVID948854295
 70
     0
  0
APPID
  2
GEVID939402019
 70
     0
  0
APPID
  2
GEVID952919491
 70
     0
  0
APPID
  2
GEVID952919492
 70
     0
  0
APPID
  2
GENIUS_GEFWELD_13
 70
     0
  0
APPID
  2
GENIUS_GENOBJ-F-WELS_13
 70
     0
  0
APPID
  2
GEVID952919493
 70
     0
  0
APPID
  2
GENIUS_GENOBJ-N-RSBK_13
 70
     0
  0
APPID
  2
GENIUS_GENOBJ-N-LIB_13
 70
     0
  0
APPID
  2
GENIUS_GENSCALE_13
 70
     0
  0
APPID
  2
GEVID986376691
 70
     0
  0
APPID
  2
DCO15
 70
     0
  0
APPID
  2
GEVID988070561
 70
     0
  0
APPID
  2
GEVID988070562
 70
     0
  0
APPID
  2
GEVID988070563
 70
     0
  0
APPID
  2
ACADM_DIM_EDIT
 70
     0
  0
APPID
  2
AMDT_DM_ADJ
 70
     0
  0
APPID
  2
ACAD_PSEXT
 70
     0
  0
APPID
  2
ACAD_DSTYLE_DIMJAG
 70
     0
  0
APPID
  2
ACAD_DSTYLE_DIMBREAK
 70
     0
  0
APPID
  2
ACAD_NAV_VCDISPLAY
 70
     0
  0
APPID
  2
ACADANNOPO
 70
     0
  0
APPID
  2
ACAD_EXEMPT_FROM_CAD_STANDARDS
 70
     0
  0
APPID
  2
ACAD_MLEADERVER
 70
     0
  0
ENDTAB
  0
TABLE
  2
DIMSTYLE
 70
    23
  0
DIMSTYLE
  2
STANDARD
 70
     0
  3

  4

  5

  6

  7

 40
1.0
 41
0.18
 42
0.0625
 43
0.38
 44
0.18
 45
0.0
 46
0.0
 47
0.0
 48
0.0
140
0.18
141
0.09
142
0.0
143
25.399999999999999
144
1.0
145
0.0
146
1.0
147
0.09
 71
     0
 72
     0
 73
     1
 74
     1
 75
     0
 76
     0
 77
     0
 78
     0
170
     0
171
     2
172
     0
173
     0
174
     0
175
     0
176
     0
177
     0
178
     0
  0
DIMSTYLE
  2
ANNOTATIVE
 70
     0
  3

  4

  5

  6

  7

 40
1.0
 41
0.18
 42
0.0625
 43
0.38
 44
0.18
 45
0.0
 46
0.0
 47
0.0
 48
0.0
140
0.18
141
0.09
142
0.0
143
25.399999999999999
144
1.0
145
0.0
146
1.0
147
0.09
 71
     0
 72
     0
 73
     1
 74
     1
 75
     0
 76
     0
 77
     0
 78
     0
170
     0
171
     2
172
     0
173
     0
174
     0
175
     0
176
     0
177
     0
178
     0
  0
DIMSTYLE
  2
AM_ISO
 70
     0
  3

  4
"
  5

  6

  7

 40
1.0
 41
2.5
 42
1.0
 43
8.0
 44
0.6
 45
0.0
 46
0.0
 47
0.1
 48
0.1
140
2.5
141
0.0
142
0.0
143
0.0393701
144
1.0
145
0.0
146
0.71
147
0.8
 71
     0
 72
     0
 73
     0
 74
     0
 75
     0
 76
     0
 77
     1
 78
     8
170
     0
171
     2
172
     1
173
     0
174
     0
175
     0
176
   256
177
   256
178
     4
  0
DIMSTYLE
  2
AM_ISO$3
 70
     0
  3

  4
"
  5

  6

  7

 40
1.0
 41
2.5
 42
1.0
 43
8.0
 44
0.6
 45
0.0
 46
0.0
 47
0.1
 48
0.1
140
2.5
141
0.0
142
0.0
143
0.0393701
144
1.0
145
0.0
146
0.71
147
0.8
 71
     0
 72
     0
 73
     0
 74
     1
 75
     0
 76
     0
 77
     1
 78
     8
170
     0
171
     2
172
     0
173
     0
174
     0
175
     0
176
   256
177
   256
178
     4
  0
DIMSTYLE
  2
AM_ISO$4
 70
     0
  3

  4
"
  5

  6

  7

 40
1.0
 41
2.5
 42
1.0
 43
8.0
 44
0.6
 45
0.0
 46
0.0
 47
0.1
 48
0.1
140
2.5
141
0.0
142
0.0
143
0.0393701
144
1.0
145
0.0
146
0.71
147
0.8
 71
     0
 72
     0
 73
     0
 74
     1
 75
     0
 76
     0
 77
     1
 78
     8
170
     0
171
     2
172
     0
173
     0
174
     0
175
     0
176
   256
177
   256
178
     4
  0
DIMSTYLE
  2
AM_ISO$6
 70
     0
  3

  4
"
  5

  6

  7

 40
1.0
 41
2.5
 42
1.0
 43
8.0
 44
0.6
 45
0.0
 46
0.0
 47
0.1
 48
0.1
140
2.5
141
0.0
142
0.0
143
0.0393701
144
1.0
145
0.0
146
0.71
147
0.8
 71
     0
 72
     0
 73
     0
 74
     0
 75
     0
 76
     0
 77
     0
 78
     8
170
     0
171
     2
172
     1
173
     0
174
     0
175
     0
176
   256
177
   256
178
     4
  0
DIMSTYLE
  2
AM_ISO$7
 70
     0
  3

  4
"
  5

  6

  7

 40
1.0
 41
2.5
 42
1.0
 43
8.0
 44
0.6
 45
0.0
 46
0.0
 47
0.1
 48
0.1
140
2.5
141
0.0
142
0.0
143
0.0393701
144
1.0
145
0.0
146
0.71
147
0.8
 71
     0
 72
     0
 73
     0
 74
     0
 75
     0
 76
     0
 77
     1
 78
     8
170
     0
171
     2
172
     1
173
     0
174
     0
175
     0
176
   256
177
   256
178
     4
  0
DIMSTYLE
  2
AM_ISO$SF
 70
     0
  3

  4
"
  5

  6

  7

 40
1.0
 41
2.5
 42
1.0
 43
10.0
 44
1.0
 45
0.0
 46
0.0
 47
0.1
 48
0.1
140
3.5
141
0.0
142
0.0
143
0.0393701
144
1.0
145
0.0
146
0.71
147
1.5
 71
     0
 72
     0
 73
     0
 74
     0
 75
     1
 76
     1
 77
     1
 78
     8
170
     0
171
     2
172
     1
173
     0
174
     0
175
     0
176
   256
177
   256
178
     2
  0
DIMSTYLE
  2
AM_ISO$SH
 70
     0
  3

  4
"
  5

  6

  7

 40
1.0
 41
2.5
 42
1.0
 43
10.0
 44
1.0
 45
0.0
 46
0.0
 47
0.1
 48
0.1
140
3.5
141
0.0
142
0.0
143
0.0393701
144
2.0
145
0.0
146
0.71
147
1.5
 71
     0
 72
     0
 73
     0
 74
     0
 75
     1
 76
     1
 77
     1
 78
     8
170
     0
171
     2
172
     1
173
     1
174
     0
175
     0
176
   256
177
   256
178
     2
  0
DIMSTYLE
  2
AM_JIS
 70
     0
  3

  4
"
  5

  6

  7

 40
1.0
 41
2.5
 42
1.0
 43
7.0
 44
1.0
 45
0.0
 46
0.0
 47
0.1
 48
0.1000000001
140
2.5
141
0.0
142
0.0
143
0.0393701
144
1.0
145
0.0
146
0.71
147
1.0
 71
     0
 72
     0
 73
     0
 74
     0
 75
     0
 76
     0
 77
     3
 78
     8
170
     0
171
     2
172
     1
173
     0
174
     0
175
     0
176
   256
177
   256
178
     4
  0
DIMSTYLE
  2
AM_JIS$3
 70
     0
  3

  4
"
  5

  6

  7

 40
1.0
 41
2.5
 42
1.0
 43
7.0
 44
1.0
 45
0.0
 46
0.0
 47
0.1
 48
0.1000000001
140
2.5
141
0.0
142
0.0
143
0.0393701
144
1.0
145
0.0
146
0.71
147
1.0
 71
     0
 72
     0
 73
     0
 74
     1
 75
     0
 76
     0
 77
     3
 78
     8
170
     0
171
     2
172
     0
173
     0
174
     0
175
     0
176
   256
177
   256
178
     4
  0
DIMSTYLE
  2
AM_JIS$4
 70
     0
  3

  4
"
  5

  6

  7

 40
1.0
 41
2.5
 42
1.0
 43
7.0
 44
1.0
 45
0.0
 46
0.0
 47
0.1
 48
0.1000000001
140
2.5
141
0.0
142
0.0
143
0.0393701
144
1.0
145
0.0
146
0.71
147
1.0
 71
     0
 72
     0
 73
     0
 74
     0
 75
     0
 76
     0
 77
     3
 78
     8
170
     0
171
     2
172
     0
173
     0
174
     0
175
     0
176
   256
177
   256
178
     4
  0
DIMSTYLE
  2
AM_JIS$6
 70
     0
  3

  4
"
  5

  6

  7

 40
1.0
 41
2.5
 42
1.0
 43
7.0
 44
1.0
 45
0.0
 46
0.0
 47
0.1
 48
0.1000000001
140
2.5
141
0.0
142
0.0
143
0.0393701
144
1.0
145
0.0
146
0.71
147
1.0
 71
     0
 72
     0
 73
     0
 74
     0
 75
     0
 76
     0
 77
     0
 78
     8
170
     0
171
     2
172
     1
173
     0
174
     0
175
     0
176
   256
177
   256
178
     4
  0
DIMSTYLE
  2
AM_JIS$7
 70
     0
  3

  4
"
  5

  6

  7

 40
1.0
 41
2.5
 42
1.0
 43
7.0
 44
1.0
 45
0.0
 46
0.0
 47
0.1
 48
0.1000000001
140
2.5
141
0.0
142
0.0
143
0.0393701
144
1.0
145
0.0
146
0.71
147
1.0
 71
     0
 72
     0
 73
     0
 74
     0
 75
     0
 76
     0
 77
     3
 78
     8
170
     0
171
     2
172
     1
173
     0
174
     0
175
     0
176
   256
177
   256
178
     4
  0
DIMSTYLE
  2
AM_JIS$SF
 70
     0
  3

  4
"
  5

  6

  7

 40
1.0
 41
2.5
 42
1.0
 43
10.0
 44
1.0
 45
0.0
 46
0.0
 47
0.1
 48
0.1
140
3.5
141
0.0
142
0.0
143
0.0393701
144
1.0
145
0.0
146
0.71
147
1.5
 71
     0
 72
     0
 73
     0
 74
     0
 75
     1
 76
     1
 77
     3
 78
     8
170
     0
171
     2
172
     1
173
     0
174
     0
175
     0
176
   256
177
   256
178
     4
  0
DIMSTYLE
  2
AM_JIS$SH
 70
     0
  3

  4
"
  5

  6

  7

 40
1.0
 41
2.5
 42
1.0
 43
10.0
 44
1.0
 45
0.0
 46
0.0
 47
0.1
 48
0.1
140
3.5
141
0.0
142
0.0
143
0.0393701
144
1.0
145
0.0
146
0.71
147
1.5
 71
     0
 72
     0
 73
     0
 74
     0
 75
     1
 76
     0
 77
     3
 78
     8
170
     0
171
     2
172
     1
173
     1
174
     0
175
     0
176
   256
177
   256
178
     4
  0
DIMSTYLE
  2
AM_ISO$0
 70
     0
  3

  4
"
  5

  6

  7

 40
1.0
 41
2.5
 42
1.0
 43
8.0
 44
0.6
 45
0.0
 46
0.0
 47
0.1
 48
0.1
140
2.5
141
0.0
142
0.0
143
0.0393701
144
1.0
145
0.0
146
0.71
147
0.8
 71
     0
 72
     0
 73
     0
 74
     0
 75
     0
 76
     0
 77
     1
 78
     8
170
     0
171
     2
172
     1
173
     0
174
     0
175
     0
176
   256
177
   256
178
     4
  0
DIMSTYLE
  2
AM_ANSI
 70
     0
  3

  4
mm
  5

  6

  7

 40
1.0
 41
0.12
 42
0.05
 43
0.5
 44
0.1
 45
0.0
 46
0.0
 47
0.1
 48
0.1
140
0.12
141
0.0
142
0.0
143
25.399999999999999
144
1.0
145
0.0
146
0.71
147
0.06
 71
     0
 72
     0
 73
     1
 74
     1
 75
     0
 76
     0
 77
     0
 78
     7
170
     0
171
     2
172
     0
173
     0
174
     0
175
     0
176
   256
177
   256
178
     2
  0
DIMSTYLE
  2
AM_ANSI$3
 70
     0
  3

  4
mm
  5

  6

  7

 40
1.0
 41
0.12
 42
0.05
 43
0.5
 44
0.1
 45
0.0
 46
0.0
 47
0.1
 48
0.1
140
0.12
141
0.0
142
0.0
143
25.399999999999999
144
1.0
145
0.0
146
0.71
147
0.06
 71
     0
 72
     0
 73
     1
 74
     1
 75
     0
 76
     0
 77
     0
 78
     7
170
     0
171
     2
172
     0
173
     0
174
     0
175
     0
176
   256
177
   256
178
     2
  0
DIMSTYLE
  2
AM_ANSI$4
 70
     0
  3

  4
mm
  5

  6

  7

 40
1.0
 41
0.12
 42
0.05
 43
0.5
 44
0.1
 45
0.0
 46
0.0
 47
0.1
 48
0.1
140
0.12
141
0.0
142
0.0
143
25.399999999999999
144
1.0
145
0.0
146
0.71
147
0.06
 71
     0
 72
     0
 73
     1
 74
     1
 75
     0
 76
     0
 77
     0
 78
     7
170
     0
171
     2
172
     0
173
     0
174
     0
175
     0
176
   256
177
   256
178
     2
  0
DIMSTYLE
  2
AM_ANSI$7
 70
     0
  3

  4
mm
  5

  6

  7

 40
1.0
 41
0.12
 42
0.05
 43
0.5
 44
0.1
 45
0.0
 46
0.0
 47
0.1
 48
0.1
140
0.12
141
0.0
142
0.0
143
25.399999999999999
144
1.0
145
0.0
146
0.71
147
0.06
 71
     0
 72
     0
 73
     1
 74
     1
 75
     0
 76
     0
 77
     0
 78
     7
170
     0
171
     2
172
     0
173
     0
174
     0
175
     0
176
   256
177
   256
178
     2
  0
DIMSTYLE
  2
AM_ANSI$SF
 70
     0
  3

  4
mm
  5

  6

  7

 40
1.0
 41
0.12
 42
0.05
 43
0.5
 44
0.1
 45
0.0
 46
0.0
 47
0.1
 48
0.1
140
0.12
141
0.0
142
0.0
143
25.399999999999999
144
1.0
145
0.0
146
0.71
147
0.06
 71
     0
 72
     0
 73
     1
 74
     1
 75
     1
 76
     1
 77
     0
 78
     7
170
     0
171
     2
172
     0
173
     0
174
     0
175
     0
176
   256
177
   256
178
     2
  0
DIMSTYLE
  2
AM_ANSI$SH
 70
     0
  3

  4
mm
  5

  6
GENAXEH
  7

 40
1.0
 41
0.12
 42
0.05
 43
0.5
 44
0.1
 45
0.0
 46
0.0
 47
0.1
 48
0.1
140
0.12
141
0.0
142
0.0
143
25.399999999999999
144
1.0
145
0.0
146
0.71
147
0.06
 71
     0
 72
     0
 73
     1
 74
     1
 75
     1
 76
     1
 77
     0
 78
     7
170
     0
171
     2
172
     0
173
     1
174
     0
175
     0
176
   256
177
   256
178
     2
  0
ENDTAB
  0
ENDSEC
  0
SECTION
  2
BLOCKS
  0
BLOCK
  8
0
  2
$MODEL_SPACE
 70
     0
 10
0.0
 20
0.0
 30
0.0
  3
$MODEL_SPACE
  1

  0
ENDBLK
  5
715D
  8
0
  0
BLOCK
 67
     1
  8
0
  2
$PAPER_SPACE
 70
     0
 10
0.0
 20
0.0
 30
0.0
  3
$PAPER_SPACE
  1

  0
ENDBLK
  5
7159
 67
     1
  8
0
  0
BLOCK
  8
0
  2
GENAXEH
 70
     0
 10
0.0
 20
0.0
 30
0.0
  3
GENAXEH
  1

  0
LINE
  5
73
  8
0
 10
-1.0
 20
0.0
 30
0.0
 11
1.0
 21
0.0
 31
0.0
  0
ENDBLK
  5
75
  8
0
  0
BLOCK
  8
0
  2
_OPEN30
 70
     0
 10
0.0
 20
0.0
 30
0.0
  3
_OPEN30
  1

  0
LINE
  5
31A
  8
0
 62
     0
 10
-1.0
 20
0.26794919
 30
0.0
 11
0.0
 21
0.0
 31
0.0
  0
LINE
  5
31B
  8
0
 62
     0
 10
0.0
 20
0.0
 30
0.0
 11
-1.0
 21
-0.26794919
 31
0.0
  0
LINE
  5
31C
  8
0
 62
     0
 10
0.0
 20
0.0
 30
0.0
 11
-1.0
 21
0.0
 31
0.0
  0
ENDBLK
  5
31E
  8
0
  0
BLOCK
  8
0
  2
_NONE
 70
     0
 10
0.0
 20
0.0
 30
0.0
  3
_NONE
  1

  0
ENDBLK
  5
579
  8
0
  0
BLOCK
  8
0
  2
*U5
 70
     1
 10
0.0
 20
0.0
 30
0.0
  3
*U5
  1

  0
TEXT
  5
7068
  8
AM_0
 10
557.29812594977
 20
500.93056275212678
 30
0.0
 40
10.0
  1
ＶＸ０２－０４０～０６０ＢＦＷ
 41
0.8299999999999999
  0
ENDBLK
  5
706A
  8
0
  0
BLOCK
  8
0
  2
_ACMFILLEDHALF
 70
     0
 10
0.0
 20
0.0
 30
0.0
  3
_ACMFILLEDHALF
  1

  0
TRACE
  5
725E
  8
AM_0
 62
     0
 10
-0.8
 20
0.0
 30
0.0
 11
-1.0
 21
0.166666666
 31
0.0
 12
0.0
 22
0.0
 32
0.0
 13
0.0
 23
0.0
 33
0.0
  0
LINE
  5
725F
  8
AM_0
 62
     0
 10
-1.0
 20
0.0
 30
0.0
 11
-0.8
 21
0.0
 31
0.0
  0
ENDBLK
  5
725D
  8
0
  0
ENDSEC
  0
SECTION
  2
ENTITIES
  0
LINE
  5
6353
  8
AM_0
 10
268.19738380279438
 20
180.8450269062277
 30
0.0
 11
271.19738380279432
 21
180.8450269062277
 31
0.0
  0
LINE
  5
6354
  8
AM_0
 10
268.19738380279432
 20
257.29112590622788
 30
0.0
 11
271.19738380279432
 21
257.29112590622788
 31
0.0
  0
LINE
  5
6355
  8
AM_0
 10
166.40381380279419
 20
162.7848589062279
 30
0.0
 11
263.32355380279432
 21
162.7848589062279
 31
0.0
  0
LINE
  5
6356
  8
AM_0
 10
164.87531380279421
 20
182.3450269062279
 30
0.0
 11
172.19738380279421
 21
182.3450269062279
 31
0.0
  0
LINE
  5
6357
  8
AM_0
 10
172.19738380279421
 20
185.06810890622771
 30
0.0
 11
165.5627938027942
 21
185.06810890622771
 31
0.0
  0
LINE
  5
6358
  8
AM_0
 10
172.19738380279421
 20
183.0681109062277
 30
0.0
 11
165.5627938027942
 21
183.0681109062277
 31
0.0
  0
LINE
  5
6359
  8
AM_0
 10
172.19738380279421
 20
255.06812590622781
 30
0.0
 11
165.5627938027942
 21
255.06812590622781
 31
0.0
  0
LINE
  5
635A
  8
AM_0
 10
172.19738380279421
 20
253.0681129062279
 30
0.0
 11
165.5627938027942
 21
253.0681129062279
 31
0.0
  0
LINE
  5
635B
  8
AM_0
 10
164.87468380279421
 20
255.7911259062279
 30
0.0
 11
172.19738380279421
 21
255.7911259062279
 31
0.0
  0
LINE
  5
635C
  8
AM_0
 10
166.40381380279419
 20
275.3513659062279
 30
0.0
 11
263.32355380279432
 21
275.3513659062279
 31
0.0
  0
ARC
  5
635D
  8
AM_0
 10
164.87468380279421
 20
254.1132169062279
 30
0.0
 40
1.6779127499999991
 50
90.00000299999769
 51
270.0
  0
ARC
  5
635E
  8
AM_0
 10
165.74675380279419
 20
254.06811190622781
 30
0.0
 40
1.0000000199999981
 50
90.00000299999769
 51
270.0
  0
LINE
  5
635F
  8
AM_0
 10
163.19738380279429
 20
272.0681059062278
 30
0.0
 11
163.19738380279429
 21
205.66811090622781
 31
0.0
  0
LINE
  5
6360
  8
AM_0
 10
163.19738380279429
 20
192.46811090622771
 30
0.0
 11
163.19738380279429
 21
169.6278769062279
 31
0.0
  0
LINE
  5
6361
  8
AM_0
 10
168.56285380279439
 20
182.41683490622771
 30
0.0
 11
163.19744380279411
 21
170.97235990622781
 31
0.0
  0
ARC
  5
6362
  8
AM_0
 10
200.1973738027942
 20
161.93846890622771
 30
0.0
 40
2.00000007
 50
270.0
 51
0.0
  0
ARC
  5
6363
  8
AM_0
 10
200.1973738027942
 20
159.18016990622789
 30
0.0
 40
2.00000007
 50
270.0
 51
0.0
  0
LINE
  5
6364
  8
AM_0
 10
202.19738380279429
 20
159.18016990622789
 30
0.0
 11
202.19738380279429
 21
162.7848589062279
 31
0.0
  0
ARC
  5
6365
  8
AM_0
 10
200.1973738027942
 20
160.09069090622791
 30
0.0
 40
2.00000007
 50
270.0
 51
0.0
  0
LINE
  5
6366
  8
AM_0
 10
163.19738380279429
 20
170.9723299062278
 30
0.0
 11
164.4386038027942
 21
164.4129739062279
 31
0.0
  0
LINE
  5
6367
  8
AM_0
 10
163.19738380279429
 20
169.62780190622769
 30
0.0
 11
164.47748380279421
 21
161.62262890622759
 31
0.0
  0
LINE
  5
6368
  8
AM_0
 10
163.1973238027941
 20
168.28327390622781
 30
0.0
 11
164.48840380279429
 21
159.7901539062278
 31
0.0
  0
ARC
  5
6369
  8
AM_0
 10
166.40381380279419
 20
164.78484490622779
 30
0.0
 40
2.00000007
 50
190.71568999999951
 51
270.0
  0
ARC
  5
636A
  8
AM_0
 10
166.4523838027944
 20
161.93846890622771
 30
0.0
 40
2.00000007
 50
189.08497000000031
 51
270.0
  0
LINE
  5
636B
  8
AM_0
 10
155.69739380279421
 20
166.06812490622781
 30
0.0
 11
163.19738380279429
 21
166.06812490622781
 31
0.0
  0
ARC
  5
636C
  8
AM_0
 10
166.4870638027943
 20
159.18016990622789
 30
0.0
 40
2.00000007
 50
187.94403999999901
 51
270.0
  0
LINE
  5
636D
  8
AM_0
 10
163.1973238027941
 20
168.28322890622781
 30
0.0
 11
164.5062238027943
 21
158.90378590622791
 31
0.0
  0
ARC
  5
636E
  8
AM_0
 10
166.46576380279441
 20
160.09069090622791
 30
0.0
 40
2.00000007
 50
188.6433899999989
 51
270.0
  0
LINE
  5
636F
  8
AM_0
 10
166.4523838027944
 20
159.93848590622781
 30
0.0
 11
200.1973738027942
 21
159.93848590622781
 31
0.0
  0
LINE
  5
6370
  8
AM_0
 10
166.46576380279441
 20
158.0906929062279
 30
0.0
 11
200.1973738027942
 21
158.0906929062279
 31
0.0
  0
LINE
  5
6371
  8
AM_0
 10
166.4870638027943
 20
157.1801839062278
 30
0.0
 11
200.1973738027942
 21
157.1801839062278
 31
0.0
  0
POLYLINE
  5
6372
  8
AM_0
 66
     1
 10
0.0
 20
0.0
 30
0.0
  0
VERTEX
  5
6373
  8
AM_0
 10
167.13122277680259
 20
246.0681109062277
 30
0.0
  0
VERTEX
  5
6374
  8
AM_0
 10
168.02009380279429
 20
252.43668190622779
 30
0.0
 42
-1.0
  0
SEQEND
  5
6375
  8
AM_0
  0
LINE
  5
6376
  8
AM_0
 10
164.87468380279421
 20
252.43529890622781
 30
0.0
 11
172.19738380279421
 21
252.43529890622781
 31
0.0
  0
POLYLINE
  5
6377
  8
AM_0
 66
     1
 10
0.0
 20
0.0
 30
0.0
  0
VERTEX
  5
6378
  8
AM_0
 10
167.34057504652989
 20
190.5681109062277
 30
0.0
  0
VERTEX
  5
6379
  8
AM_0
 10
168.02009380279429
 20
185.69953390622791
 30
0.0
 42
-1.0
  0
SEQEND
  5
637A
  8
AM_0
  0
ARC
  5
637B
  8
AM_0
 10
164.87531380279421
 20
184.02294490622771
 30
0.0
 40
1.6779175200000001
 50
90.00000299999769
 51
270.0
  0
ARC
  5
637C
  8
AM_0
 10
165.74675380279419
 20
184.06812490622781
 30
0.0
 40
1.0000000199999981
 50
90.00000299999769
 51
270.0
  0
LINE
  5
637D
  8
AM_0
 10
155.89550380279431
 20
175.8766429062278
 30
0.0
 11
162.12530380279441
 21
175.8766429062278
 31
0.0
  0
LINE
  5
637E
  8
AM_0
 10
164.87531380279421
 20
185.7008779062279
 30
0.0
 11
172.19738380279421
 21
185.7008779062279
 31
0.0
  0
ARC
  5
637F
  8
AM_0
 10
200.1973738027942
 20
276.19775590622783
 30
0.0
 40
2.00000007
 50
0.0
 51
90.00000299999769
  0
ARC
  5
6380
  8
AM_0
 10
200.1973738027942
 20
278.0454559062278
 30
0.0
 40
2.00000007
 50
0.0
 51
90.00000299999769
  0
ARC
  5
6381
  8
AM_0
 10
200.1973738027942
 20
278.95598590622791
 30
0.0
 40
2.00000007
 50
0.0
 51
90.00000299999769
  0
LINE
  5
6382
  8
AM_0
 10
202.19738380279429
 20
278.95598590622791
 30
0.0
 11
202.19738380279429
 21
275.3513659062279
 31
0.0
  0
ARC
  5
6383
  8
AM_0
 10
166.40381380279419
 20
273.35138590622768
 30
0.0
 40
2.00000007
 50
90.00000299999769
 51
169.2843100000004
  0
ARC
  5
6384
  8
AM_0
 10
166.4523838027944
 20
276.19775590622783
 30
0.0
 40
2.00000007
 50
90.00000299999769
 51
170.9150299999996
  0
ARC
  5
6385
  8
AM_0
 10
166.46576380279441
 20
278.0454559062278
 30
0.0
 40
2.00000007
 50
90.00000299999769
 51
171.35661000000101
  0
ARC
  5
6386
  8
AM_0
 10
166.4870638027943
 20
278.95598590622791
 30
0.0
 40
2.00000007
 50
90.00000299999769
 51
172.05596000000091
  0
LINE
  5
6387
  8
AM_0
 10
163.19738380279429
 20
268.50836590622782
 30
0.0
 11
164.47742380279431
 21
276.51350590622781
 31
0.0
  0
LINE
  5
6388
  8
AM_0
 10
163.19738380279429
 20
269.85296590622778
 30
0.0
 11
164.48840380279429
 21
278.34602590622791
 31
0.0
  0
LINE
  5
6389
  8
AM_0
 10
163.19738380279429
 20
269.85296590622778
 30
0.0
 11
164.5062238027943
 21
279.23237590622779
 31
0.0
  0
LINE
  5
638A
  8
AM_0
 10
163.19738380279429
 20
267.16382590622783
 30
0.0
 11
164.43866380279439
 21
273.7232359062279
 31
0.0
  0
LINE
  5
638B
  8
AM_0
 10
155.69739380279421
 20
272.0681059062278
 30
0.0
 11
163.19738380279429
 21
272.0681059062278
 31
0.0
  0
LINE
  5
638C
  8
AM_0
 10
155.89550380279431
 20
262.25951590622788
 30
0.0
 11
162.12530380279441
 21
262.25951590622788
 31
0.0
  0
LINE
  5
638D
  8
AM_0
 10
168.5627938027942
 20
255.71930590622779
 30
0.0
 11
163.19738380279429
 21
267.16379590622768
 31
0.0
  0
LINE
  5
638E
  8
AM_0
 10
166.4523838027944
 20
278.1977659062278
 30
0.0
 11
200.1973738027942
 21
278.1977659062278
 31
0.0
  0
LINE
  5
638F
  8
AM_0
 10
166.46576380279441
 20
280.04546590622778
 30
0.0
 11
200.1973738027942
 21
280.04546590622778
 31
0.0
  0
LINE
  5
6390
  8
AM_0
 10
166.4870638027943
 20
280.95599590622783
 30
0.0
 11
200.1973738027942
 21
280.95599590622783
 31
0.0
  0
ARC
  5
6391
  8
AM_0
 10
268.0194838027943
 20
254.1132169062279
 30
0.0
 40
1.6779127499999991
 50
276.08620038402319
 51
83.913799615976814
  0
LINE
  5
6392
  8
ﾁｭｳｼﾝｾﾝ
 10
220.19738380279429
 20
270.0681109062279
 30
0.0
 11
220.19738380279429
 21
168.0681109062277
 31
0.0
  0
LINE
  5
6393
  8
AM_0
 10
271.19738380279432
 20
275.06810590622791
 30
0.0
 11
271.19738380279432
 21
163.06812490622781
 31
0.0
  0
LINE
  5
6394
  8
AM_0
 10
155.69739380279421
 20
272.0681059062278
 30
0.0
 11
155.69739380279421
 21
246.0681109062277
 31
0.0
  0
LINE
  5
6395
  8
AM_0
 10
155.69739380279421
 20
222.06811090622799
 30
0.0
 11
155.69739380279421
 21
207.56811090622941
 31
0.0
  0
LINE
  5
6396
  8
AM_0
 10
155.69739380279421
 20
190.5681109062271
 30
0.0
 11
155.69739380279421
 21
166.06812490622781
 31
0.0
  0
LINE
  5
6397
  8
AM_0
 10
269.69738380279432
 20
180.8450719062277
 30
0.0
 11
265.25537380279428
 21
164.2672069062279
 31
0.0
  0
LINE
  5
6398
  8
AM_0
 10
271.19738380279432
 20
163.06812490622781
 30
0.0
 11
279.19739380279412
 21
163.06812490622781
 31
0.0
  0
LINE
  5
6399
  8
AM_0
 10
265.73792380279428
 20
166.06812490622781
 30
0.0
 11
271.19738380279432
 21
166.06812490622781
 31
0.0
  0
ARC
  5
639A
  8
AM_0
 10
263.32355380279432
 20
164.78484490622779
 30
0.0
 40
2.00000007
 50
270.0
 51
345.00000000000011
  0
LINE
  5
639B
  8
AM_0
 10
271.19738380279432
 20
251.00554990622791
 30
0.0
 11
279.19739380279412
 21
251.00554990622791
 31
0.0
  0
LINE
  5
639C
  8
AM_0
 10
271.19738380279432
 20
187.1306719062278
 30
0.0
 11
279.19739380279412
 21
187.1306719062278
 31
0.0
  0
LINE
  5
639D
  8
AM_0
 10
271.19738380279432
 20
173.06810890622779
 30
0.0
 11
279.19739380279412
 21
173.06810890622779
 31
0.0
  0
ARC
  5
639E
  8
AM_0
 10
268.0194838027943
 20
184.02294490622771
 30
0.0
 40
1.6779127499999991
 50
276.08620038402319
 51
83.913799615976814
  0
LINE
  5
639F
  8
AM_0
 10
271.19738380279432
 20
275.06810590622791
 30
0.0
 11
279.19739380279412
 21
275.06810590622791
 31
0.0
  0
LINE
  5
63A0
  8
AM_0
 10
271.19738380279432
 20
265.06811590622777
 30
0.0
 11
279.19739380279412
 21
265.06811590622777
 31
0.0
  0
LINE
  5
63A1
  8
AM_0
 10
265.73792380279428
 20
272.0681059062278
 30
0.0
 11
271.19738380279432
 21
272.0681059062278
 31
0.0
  0
ARC
  5
63A2
  8
AM_0
 10
263.32355380279432
 20
273.35138590622768
 30
0.0
 40
2.00000007
 50
14.99999999999995
 51
90.00000299999769
  0
ARC
  5
63A3
  8
AM_0
 10
270.84839380279431
 20
258.79112590622788
 30
0.0
 40
1.5000000299999989
 50
195.0000099999973
 51
270.0
  0
LINE
  5
63A4
  8
AM_0
 10
269.3995438027942
 20
258.40292590622778
 30
0.0
 11
265.25537380279428
 21
273.86900590622781
 31
0.0
  0
LINE
  5
63A5
  8
AM_0
 10
264.19738380279438
 20
173.06811090622779
 30
0.0
 11
176.19738380279421
 21
173.06811090622779
 31
0.0
  0
ARC
  5
63A6
  8
AM_0
 10
194.26845161465971
 20
178.06811090622779
 30
0.0
 40
5.0
 50
225.0
 51
270.0
1001
GENIUS_GENOBJ-N-FIL_13
1002
{
1000
OWNER
1000
GEN
1002
}
1001
GENIUS_GENODEF_13
1002
{
1000
HIER
1070
     0
1002
}
1002
{
1000
MANEDIT
1070
     0
1002
}
1002
{
1000
NOSEL
1070
     0
1002
}
1002
{
1000
BEHIND
1070
     0
1002
}
1002
{
1000
OTHER
1070
     0
1002
}
1002
{
1000
REACTOR
1002
}
  0
LINE
  5
63A7
  8
AM_0
 10
245.46946174143659
 20
178.06811090622779
 30
0.0
 11
194.92530586415199
 21
178.06811090622779
 31
0.0
  0
ARC
  5
63A8
  8
AM_0
 10
245.46946174143659
 20
183.0681109062277
 30
0.0
 40
5.0
 50
270.0
 51
315.0
1001
GENIUS_GENOBJ-N-FIL_13
1002
{
1000
OWNER
1000
GEN
1002
}
1001
GENIUS_GENODEF_13
1002
{
1000
HIER
1070
     0
1002
}
1002
{
1000
MANEDIT
1070
     0
1002
}
1002
{
1000
NOSEL
1070
     0
1002
}
1002
{
1000
BEHIND
1070
     0
1002
}
1002
{
1000
OTHER
1070
     0
1002
}
1002
{
1000
REACTOR
1002
}
  0
ARC
  5
63A9
  8
AM_0
 10
264.19738380279438
 20
177.06811090622759
 30
0.0
 40
4.0
 50
270.0
 51
0.0
1001
GENIUS_GENOBJ-N-FIL_13
1002
{
1000
OWNER
1000
GEN
1002
}
1001
GENIUS_GENODEF_13
1002
{
1000
HIER
1070
     0
1002
}
1002
{
1000
MANEDIT
1070
     0
1002
}
1002
{
1000
NOSEL
1070
     0
1002
}
1002
{
1000
BEHIND
1070
     0
1002
}
1002
{
1000
OTHER
1070
     0
1002
}
1002
{
1000
REACTOR
1002
}
  0
LINE
  5
63AA
  8
AM_0
 10
264.19738380279432
 20
265.06811090622801
 30
0.0
 11
176.19738380279421
 21
265.06811090622779
 31
0.0
  0
ARC
  5
63AB
  8
AM_0
 10
246.12631599092879
 20
260.0681109062279
 30
0.0
 40
5.0
 50
45.0
 51
90.0
1001
GENIUS_GENOBJ-N-FIL_13
1002
{
1000
OWNER
1000
GEN
1002
}
1001
GENIUS_GENODEF_13
1002
{
1000
HIER
1070
     0
1002
}
1002
{
1000
MANEDIT
1070
     0
1002
}
1002
{
1000
NOSEL
1070
     0
1002
}
1002
{
1000
BEHIND
1070
     0
1002
}
1002
{
1000
OTHER
1070
     0
1002
}
1002
{
1000
REACTOR
1002
}
  0
ARC
  5
63AC
  8
AM_0
 10
194.26845161465991
 20
260.0681109062279
 30
0.0
 40
5.0
 50
90.0
 51
135.0
1001
GENIUS_GENODEF_13
1002
{
1000
HIER
1070
     0
1002
}
1002
{
1000
MANEDIT
1070
     0
1002
}
1002
{
1000
NOSEL
1070
     0
1002
}
1002
{
1000
BEHIND
1070
     0
1002
}
1002
{
1000
OTHER
1070
     0
1002
}
1002
{
1000
REACTOR
1002
}
1001
GENIUS_GENOBJ-N-FIL_13
1002
{
1000
OWNER
1000
GEN
1002
}
  0
LINE
  5
63AD
  8
AM_0
 10
245.46946174143639
 20
260.0681109062279
 30
0.0
 11
194.92530586415231
 21
260.0681109062279
 31
0.0
  0
ARC
  5
63AE
  8
AM_0
 10
194.92530586415231
 20
255.06811090622799
 30
0.0
 40
5.0
 50
90.0
 51
135.0
1001
GENIUS_GENODEF_13
1002
{
1000
HIER
1070
     0
1002
}
1002
{
1000
MANEDIT
1070
     0
1002
}
1002
{
1000
NOSEL
1070
     0
1002
}
1002
{
1000
BEHIND
1070
     0
1002
}
1002
{
1000
OTHER
1070
     0
1002
}
1002
{
1000
REACTOR
1002
}
1001
GENIUS_GENOBJ-N-FIL_13
1002
{
1000
OWNER
1000
GEN
1002
}
  0
ARC
  5
63AF
  8
AM_0
 10
176.19738380279421
 20
261.06811090622779
 30
0.0
 40
4.0
 50
90.0
 51
180.0
1001
GENIUS_GENODEF_13
1002
{
1000
HIER
1070
     0
1002
}
1002
{
1000
MANEDIT
1070
     0
1002
}
1002
{
1000
NOSEL
1070
     0
1002
}
1002
{
1000
BEHIND
1070
     0
1002
}
1002
{
1000
OTHER
1070
     0
1002
}
1002
{
1000
REACTOR
1002
}
1001
GENIUS_GENOBJ-N-FIL_13
1002
{
1000
OWNER
1000
GEN
1002
}
  0
LINE
  5
63B0
  8
AM_0
 10
172.19738380279421
 20
261.06811090622779
 30
0.0
 11
172.19738380279421
 21
177.06811090622779
 31
0.0
  0
ARC
  5
63B1
  8
AM_0
 10
177.19738380279421
 20
195.13917871809301
 30
0.0
 40
5.0
 50
180.0
 51
225.0
1001
GENIUS_GENOBJ-N-FIL_13
1002
{
1000
OWNER
1000
GEN
1002
}
1001
GENIUS_GENODEF_13
1002
{
1000
HIER
1070
     0
1002
}
1002
{
1000
MANEDIT
1070
     0
1002
}
1002
{
1000
NOSEL
1070
     0
1002
}
1002
{
1000
BEHIND
1070
     0
1002
}
1002
{
1000
OTHER
1070
     0
1002
}
1002
{
1000
REACTOR
1002
}
  0
ARC
  5
63B2
  8
AM_0
 10
177.19738380279421
 20
242.9970430943626
 30
0.0
 40
5.0
 50
135.0
 51
180.0
1001
GENIUS_GENOBJ-N-FIL_13
1002
{
1000
OWNER
1000
GEN
1002
}
1001
GENIUS_GENODEF_13
1002
{
1000
HIER
1070
     0
1002
}
1002
{
1000
MANEDIT
1070
     0
1002
}
1002
{
1000
NOSEL
1070
     0
1002
}
1002
{
1000
BEHIND
1070
     0
1002
}
1002
{
1000
OTHER
1070
     0
1002
}
1002
{
1000
REACTOR
1002
}
  0
LINE
  5
63B3
  8
AM_0
 10
177.19738380279421
 20
242.34018884487011
 30
0.0
 11
177.19738380279421
 21
195.7960329675854
 31
0.0
  0
ARC
  5
63B4
  8
AM_0
 10
182.19738380279421
 20
195.7960329675854
 30
0.0
 40
5.0
 50
180.0
 51
225.0
1001
GENIUS_GENOBJ-N-FIL_13
1002
{
1000
OWNER
1000
GEN
1002
}
1001
GENIUS_GENODEF_13
1002
{
1000
HIER
1070
     0
1002
}
1002
{
1000
MANEDIT
1070
     0
1002
}
1002
{
1000
NOSEL
1070
     0
1002
}
1002
{
1000
BEHIND
1070
     0
1002
}
1002
{
1000
OTHER
1070
     0
1002
}
1002
{
1000
REACTOR
1002
}
  0
ARC
  5
63B5
  8
AM_0
 10
176.19738380279421
 20
177.06811090622779
 30
0.0
 40
4.0
 50
180.0
 51
270.0
1001
GENIUS_GENODEF_13
1002
{
1000
HIER
1070
     0
1002
}
1002
{
1000
MANEDIT
1070
     0
1002
}
1002
{
1000
NOSEL
1070
     0
1002
}
1002
{
1000
BEHIND
1070
     0
1002
}
1002
{
1000
OTHER
1070
     0
1002
}
1002
{
1000
REACTOR
1002
}
1001
GENIUS_GENOBJ-N-FIL_13
1002
{
1000
OWNER
1000
GEN
1002
}
  0
LINE
  5
63B6
  8
AM_0
 10
268.19738380279432
 20
261.06811090622801
 30
0.0
 11
268.19738380279438
 21
177.06811090622759
 31
0.0
  0
ARC
  5
63B7
  8
AM_0
 10
263.19738380279432
 20
242.9970430943626
 30
0.0
 40
5.0
 50
0.0
 51
45.0
1001
GENIUS_GENOBJ-N-FIL_13
1002
{
1000
OWNER
1000
GEN
1002
}
1001
GENIUS_GENODEF_13
1002
{
1000
HIER
1070
     0
1002
}
1002
{
1000
MANEDIT
1070
     0
1002
}
1002
{
1000
NOSEL
1070
     0
1002
}
1002
{
1000
BEHIND
1070
     0
1002
}
1002
{
1000
OTHER
1070
     0
1002
}
1002
{
1000
REACTOR
1002
}
  0
ARC
  5
63B8
  8
AM_0
 10
263.19738380279438
 20
195.13917871809309
 30
0.0
 40
5.0
 50
315.0
 51
0.0
1001
GENIUS_GENOBJ-N-FIL_13
1002
{
1000
OWNER
1000
GEN
1002
}
1001
GENIUS_GENODEF_13
1002
{
1000
HIER
1070
     0
1002
}
1002
{
1000
MANEDIT
1070
     0
1002
}
1002
{
1000
NOSEL
1070
     0
1002
}
1002
{
1000
BEHIND
1070
     0
1002
}
1002
{
1000
OTHER
1070
     0
1002
}
1002
{
1000
REACTOR
1002
}
  0
LINE
  5
63B9
  8
AM_0
 10
249.6618498968615
 20
263.60364481216072
 30
0.0
 11
266.73291770872709
 21
246.53257700029519
 31
0.0
  0
LINE
  5
63BA
  8
AM_0
 10
249.0049956473691
 20
258.60364481216061
 30
0.0
 11
261.73291770872697
 21
245.87572275080299
 31
0.0
  0
ARC
  5
63BB
  8
AM_0
 10
245.46946174143639
 20
255.06811090622779
 30
0.0
 40
5.0
 50
45.0
 51
90.0
1001
GENIUS_GENOBJ-N-FIL_13
1002
{
1000
OWNER
1000
GEN
1002
}
1001
GENIUS_GENODEF_13
1002
{
1000
HIER
1070
     0
1002
}
1002
{
1000
MANEDIT
1070
     0
1002
}
1002
{
1000
NOSEL
1070
     0
1002
}
1002
{
1000
BEHIND
1070
     0
1002
}
1002
{
1000
OTHER
1070
     0
1002
}
1002
{
1000
REACTOR
1002
}
  0
LINE
  5
63BC
  8
AM_0
 10
263.19738380279421
 20
242.3401888448702
 30
0.0
 11
263.19738380279438
 21
195.7960329675854
 31
0.0
  0
ARC
  5
63BD
  8
AM_0
 10
258.19738380279421
 20
242.3401888448702
 30
0.0
 40
5.0
 50
0.0
 51
45.0
1001
GENIUS_GENODEF_13
1002
{
1000
HIER
1070
     0
1002
}
1002
{
1000
MANEDIT
1070
     0
1002
}
1002
{
1000
NOSEL
1070
     0
1002
}
1002
{
1000
BEHIND
1070
     0
1002
}
1002
{
1000
OTHER
1070
     0
1002
}
1002
{
1000
REACTOR
1002
}
1001
GENIUS_GENOBJ-N-FIL_13
1002
{
1000
OWNER
1000
GEN
1002
}
  0
ARC
  5
63BE
  8
AM_0
 10
264.19738380279432
 20
261.06811090622801
 30
0.0
 40
4.0
 50
0.0
 51
90.0
1001
GENIUS_GENODEF_13
1002
{
1000
HIER
1070
     0
1002
}
1002
{
1000
MANEDIT
1070
     0
1002
}
1002
{
1000
NOSEL
1070
     0
1002
}
1002
{
1000
BEHIND
1070
     0
1002
}
1002
{
1000
OTHER
1070
     0
1002
}
1002
{
1000
REACTOR
1002
}
1001
GENIUS_GENOBJ-N-FIL_13
1002
{
1000
OWNER
1000
GEN
1002
}
  0
LINE
  5
63BF
  8
ﾁｭｳｼﾝｾﾝ1
 10
263.1973838027958
 20
254.0681109062275
 30
0.0
 11
263.19738380279642
 21
266.0681109062275
 31
0.0
  0
LINE
  5
63C0
  8
ﾁｭｳｼﾝｾﾝ1
 10
269.1973838027962
 20
260.06811090622728
 30
0.0
 11
257.19738380279608
 21
260.0681109062279
 31
0.0
  0
LINE
  5
63C1
  8
AM_0
 10
168.69738380279429
 20
247.5681109062279
 30
0.0
 11
171.19738380279421
 21
247.5681109062281
 31
0.0
  0
LINE
  5
63C2
  8
AM_0
 10
171.19738380279429
 20
220.5681109062281
 30
0.0
 11
168.69738380279429
 21
220.56811090622779
 31
0.0
  0
LINE
  5
63C3
  8
AM_0
 10
157.7987127064483
 20
223.56811090622799
 30
0.0
 11
157.7987127064483
 21
244.5681109062277
 31
0.0
  0
LINE
  5
63C4
  8
AM_0
 10
142.7987127064483
 20
242.0997359602429
 30
0.0
 11
142.7987127064483
 21
226.036485852212
 31
0.0
  0
LINE
  5
63C5
  8
AM_0
 10
155.7987127064483
 20
222.06811090622799
 30
0.0
 11
155.7987127064483
 21
246.0681109062277
 31
0.0
  0
LINE
  5
63C6
  8
AM_0
 10
146.2987127064483
 20
234.06811090622799
 30
0.0
 11
146.7987127064483
 21
233.56811090622799
 31
0.0
  0
LINE
  5
63C7
  8
AM_0
 10
153.2987127064483
 20
245.76811090622789
 30
0.0
 11
153.2987127064483
 21
222.36811090622791
 31
0.0
  0
LINE
  5
63C8
  8
AM_0
 10
163.19738380279429
 20
245.56811090622779
 30
0.0
 11
163.19738380279429
 21
222.5681109062279
 31
0.0
  0
LINE
  5
63C9
  8
AM_0
 10
157.2987127064483
 20
233.36811090622601
 30
0.0
 11
157.2987127064483
 21
234.76811090622891
 31
0.0
  0
LINE
  5
63CA
  8
AM_0
 10
159.39834843301921
 20
224.96811090622791
 30
0.0
 11
158.64834843302029
 21
243.16811090622801
 31
0.0
  0
LINE
  5
63CB
  8
AM_0
 10
158.44738380279429
 20
224.96811090622791
 30
0.0
 11
157.7987127064483
 21
240.70919617754399
 31
0.0
  0
LINE
  5
63CC
  8
AM_0
 10
159.1960763933663
 20
224.252452193864
 30
0.0
 11
158.44881634995829
 21
243.88048266739489
 31
0.0
  0
LINE
  5
63CD
  8
AM_0
 10
158.64691588585629
 20
224.25573914505989
 30
0.0
 11
157.89834843302029
 21
243.91811090622801
 31
0.0
  0
LINE
  5
63CE
  8
AM_0
 10
155.7987127064483
 20
246.0681109062277
 30
0.0
 11
153.59871270644831
 21
246.0681109062277
 31
0.0
  0
ARC
  5
63CF
  8
AM_0
 10
167.69738380279429
 20
246.5681109062277
 30
0.0
 40
0.5
 50
269.99999999998693
 51
0.0
  0
ARC
  5
63D0
  8
AM_0
 10
168.69738380279429
 20
247.0681109062279
 30
0.0
 40
0.5
 50
90.0
 51
180.0
  0
LINE
  5
63D1
  8
AM_0
 10
168.19738380279429
 20
246.5681109062277
 30
0.0
 11
168.19738380279429
 21
247.0681109062279
 31
0.0
  0
LINE
  5
63D2
  8
AM_0
 10
159.19738380279429
 20
243.16811090622801
 30
0.0
 11
162.69738380279429
 21
243.16811090622801
 31
0.0
  0
LINE
  5
63D3
  8
AM_0
 10
168.19738380279429
 20
244.9241822276349
 30
0.0
 11
168.19738380279429
 21
235.21203958481999
 31
0.0
  0
LINE
  5
63D4
  8
AM_0
 10
163.69738380279429
 20
246.0681109062277
 30
0.0
 11
167.69738380279409
 21
246.0681109062277
 31
0.0
  0
LINE
  5
63D5
  8
AM_0
 10
167.69738380279429
 20
245.4241822276349
 30
0.0
 11
163.19738380279429
 21
245.4241822276349
 31
0.0
  0
ARC
  5
63D6
  8
AM_0
 10
167.69738380279429
 20
244.9241822276349
 30
0.0
 40
0.5
 50
0.0
 51
90.0
  0
ARC
  5
63D7
  8
AM_0
 10
162.69738380279429
 20
243.66811090622789
 30
0.0
 40
0.5
 50
270.0
 51
0.0
  0
ARC
  5
63D8
  8
AM_0
 10
163.69738380279429
 20
245.56811090622779
 30
0.0
 40
0.5
 50
90.0
 51
180.0
  0
LINE
  5
63D9
  8
AM_0
 10
167.69738380279429
 20
234.71203958481999
 30
0.0
 11
163.19738380279429
 21
234.71203958481999
 31
0.0
  0
ARC
  5
63DA
  8
AM_0
 10
167.69738380279429
 20
235.21203958481991
 30
0.0
 40
0.5
 50
270.0
 51
0.0
  0
LINE
  5
63DB
  8
AM_0
 10
157.2987127064483
 20
240.2132816585198
 30
0.0
 11
157.2987127064483
 21
239.04103847208691
 31
0.0
  0
LINE
  5
63DC
  8
AM_0
 10
158.72508086144521
 20
243.16811090622801
 30
0.0
 11
159.19738380279429
 21
243.16811090622801
 31
0.0
  0
LINE
  5
63DD
  8
AM_0
 10
158.62848836690611
 20
243.2422286729645
 30
0.0
 11
158.64834843302029
 21
243.16811090622801
 31
0.0
  0
ARC
  5
63DE
  8
AM_0
 10
158.72508086144521
 20
243.26811090622789
 30
0.0
 40
0.1000000000000346
 50
195.00019500644621
 51
270.0
  0
ARC
  5
63DF
  8
AM_0
 10
156.9987127064484
 20
243.3549438867359
 30
0.0
 40
0.3000000000000043
 50
270.0
 51
0.0
  0
LINE
  5
63E0
  8
AM_0
 10
155.7987127064483
 20
245.46811090622791
 30
0.0
 11
157.0186684096054
 21
245.38678052601691
 31
0.0
  0
LINE
  5
63E1
  8
AM_0
 10
155.7987127064483
 20
244.31185887038791
 30
0.0
 11
156.9987127064482
 21
244.31185887038791
 31
0.0
  0
LINE
  5
63E2
  8
AM_0
 10
157.2987127064483
 20
245.0681109062279
 30
0.0
 11
155.7987127064483
 21
245.0681109062279
 31
0.0
  0
ARC
  5
63E3
  8
AM_0
 10
157.2987127064483
 20
244.5681109062277
 30
0.0
 40
0.5
 50
0.0
 51
90.0
  0
LINE
  5
63E4
  8
AM_0
 10
157.2987127064483
 20
245.0874449786597
 30
0.0
 11
157.2987127064483
 21
245.0681109062279
 31
0.0
  0
ARC
  5
63E5
  8
AM_0
 10
156.9987127064484
 20
245.0874449786597
 30
0.0
 40
0.3000000000000007
 50
0.0
 51
86.185925165718459
  0
LINE
  5
63E6
  8
AM_0
 10
158.37065137436929
 20
243.91811090622801
 30
0.0
 11
158.44738380279509
 21
243.91811090622801
 31
0.0
  0
LINE
  5
63E7
  8
AM_0
 10
158.44738380279509
 20
243.91811090622801
 30
0.0
 11
158.4672438689083
 21
243.8439931394916
 31
0.0
  0
LINE
  5
63E8
  8
AM_0
 10
157.87848836690611
 20
243.8439931394916
 30
0.0
 11
157.89834843302029
 21
243.91811090622801
 31
0.0
  0
LINE
  5
63E9
  8
AM_0
 10
157.89834843302029
 20
243.91811090622801
 30
0.0
 11
157.97508086144521
 21
243.91811090622801
 31
0.0
  0
LINE
  5
63EA
  8
AM_0
 10
158.4672438689083
 20
243.8439931394916
 30
0.0
 11
158.62848836690611
 21
243.2422286729645
 31
0.0
  0
LINE
  5
63EB
  8
AM_0
 10
157.97508086144521
 20
243.91811090622801
 30
0.0
 11
158.37065137436929
 21
243.91811090622801
 31
0.0
  0
LINE
  5
63EC
  8
AM_0
 10
157.79871270644929
 20
243.54627037466699
 30
0.0
 11
157.87848836690611
 21
243.8439931394916
 31
0.0
  0
ARC
  5
63ED
  8
AM_0
 10
158.37065137436929
 20
243.81811090622779
 30
0.0
 40
0.0999999999999866
 50
15.000195006571049
 51
90.0
  0
ARC
  5
63EE
  8
AM_0
 10
157.97508086144521
 20
243.81811090622779
 30
0.0
 40
0.1000000000000014
 50
90.0
 51
164.99980499342891
  0
LINE
  5
63EF
  8
AM_0
 10
157.2987127064483
 20
244.01185887038801
 30
0.0
 11
157.2987127064483
 21
243.3549438867359
 31
0.0
  0
ARC
  5
63F0
  8
AM_0
 10
156.9987127064484
 20
244.01185887038781
 30
0.0
 40
0.3000000000000007
 50
0.0
 51
90.0
  0
LINE
  5
63F1
  8
AM_0
 10
155.7987127064483
 20
240.51328165851999
 30
0.0
 11
156.9987127064482
 21
240.51328165851999
 31
0.0
  0
LINE
  5
63F2
  8
AM_0
 10
156.9987127064482
 20
243.05494388673591
 30
0.0
 11
155.7987127064483
 21
243.05494388673591
 31
0.0
  0
LINE
  5
63F3
  8
AM_0
 10
158.64834843302029
 20
243.16811090622801
 30
0.0
 11
158.72508086144521
 21
243.16811090622801
 31
0.0
  0
ARC
  5
63F4
  8
AM_0
 10
156.9987127064482
 20
240.2132816585198
 30
0.0
 40
0.3000000000000007
 50
0.0
 51
90.0
  0
LINE
  5
63F5
  8
AM_0
 10
156.9987127064482
 20
238.74103847208701
 30
0.0
 11
155.7987127064483
 21
238.74103847208701
 31
0.0
  0
ARC
  5
63F6
  8
AM_0
 10
156.9987127064482
 20
239.04103847208691
 30
0.0
 40
0.3000000000000043
 50
270.0
 51
0.0
  0
LINE
  5
63F7
  8
AM_0
 10
156.9987127064482
 20
235.06811090622901
 30
0.0
 11
155.7987127064483
 21
235.06811090622901
 31
0.0
  0
ARC
  5
63F8
  8
AM_0
 10
156.9987127064482
 20
234.76811090622891
 30
0.0
 40
0.3000000000000007
 50
0.0
 51
90.0
  0
LINE
  5
63F9
  8
AM_0
 10
146.7987127064483
 20
244.20139073487499
 30
0.0
 11
153.2987127064483
 21
244.20139073487499
 31
0.0
  0
LINE
  5
63FA
  8
AM_0
 10
146.7987127064483
 20
244.70139073487499
 30
0.0
 11
153.2987127064483
 21
244.70139073487499
 31
0.0
  0
LINE
  5
63FB
  8
AM_0
 10
153.2987127064483
 20
234.56811090622799
 30
0.0
 11
146.7987127064483
 21
234.56811090622799
 31
0.0
  0
LINE
  5
63FC
  8
AM_0
 10
146.2987127064483
 20
235.0681109062279
 30
0.0
 11
153.2987127064483
 21
235.0681109062279
 31
0.0
  0
LINE
  5
63FD
  8
AM_0
 10
152.9987127064482
 20
245.0681109062279
 30
0.0
 11
146.1607626416303
 21
245.0681109062279
 31
0.0
  0
LINE
  5
63FE
  8
AM_0
 10
153.2987127064483
 20
235.4147989747689
 30
0.0
 11
146.7987127064483
 21
235.4147989747689
 31
0.0
  0
LINE
  5
63FF
  8
AM_0
 10
153.2987127064483
 20
243.72142283768699
 30
0.0
 11
146.7987127064483
 21
243.72142283768699
 31
0.0
  0
ARC
  5
6400
  8
AM_0
 10
153.59871270644831
 20
245.76811090622789
 30
0.0
 40
0.2999999999999971
 50
90.0
 51
180.0
  0
ARC
  5
6401
  8
AM_0
 10
152.9987127064484
 20
245.36811090622791
 30
0.0
 40
0.2999999999999971
 50
270.0
 51
0.0
  0
ARC
  5
6402
  8
AM_0
 10
154.9237127064483
 20
239.56811090622779
 30
0.0
 40
9.124999999999984
 50
152.92493329272219
 51
207.07506670727781
  0
LINE
  5
6403
  8
AM_0
 10
145.52057824196581
 20
244.8363321858254
 30
0.0
 11
143.15852830678381
 21
242.86795723984039
 31
0.0
  0
LINE
  5
6404
  8
AM_0
 10
146.2987127064483
 20
244.4896783227199
 30
0.0
 11
146.7987127064483
 21
245.0681109062279
 31
0.0
  0
ARC
  5
6405
  8
AM_0
 10
146.1607626416303
 20
244.0681109062277
 30
0.0
 40
1.0
 50
90.0
 51
129.80557109225549
  0
LINE
  5
6406
  8
AM_0
 10
146.7987127064483
 20
244.70139073487499
 30
0.0
 11
146.2987127064483
 21
244.4896783227199
 31
0.0
  0
LINE
  5
6407
  8
AM_0
 10
146.2987127064483
 20
244.0274030497489
 30
0.0
 11
146.7987127064483
 21
244.70139073487499
 31
0.0
  0
LINE
  5
6408
  8
AM_0
 10
146.7987127064483
 20
244.20139073487499
 30
0.0
 11
146.2987127064483
 21
244.0274030497489
 31
0.0
  0
LINE
  5
6409
  8
AM_0
 10
146.2987127064483
 20
243.4896783227199
 30
0.0
 11
146.7987127064483
 21
244.20139073487499
 31
0.0
  0
LINE
  5
640A
  8
AM_0
 10
146.7987127064483
 20
243.72142283768699
 30
0.0
 11
146.2987127064483
 21
243.4896783227199
 31
0.0
  0
ARC
  5
640B
  8
AM_0
 10
143.7987127064483
 20
242.0997359602429
 30
0.0
 40
1.0000000000000291
 50
129.80557109226359
 51
180.0
  0
LINE
  5
640C
  8
AM_0
 10
146.7987127064483
 20
234.56811090622799
 30
0.0
 11
146.2987127064483
 21
234.06811090622799
 31
0.0
  0
LINE
  5
640D
  8
AM_0
 10
146.2987127064483
 20
235.0681109062279
 30
0.0
 11
146.7987127064483
 21
234.56811090622799
 31
0.0
  0
LINE
  5
640E
  8
AM_0
 10
146.7987127064483
 20
235.4147989747689
 30
0.0
 11
146.2987127064483
 21
235.0681109062279
 31
0.0
  0
LINE
  5
640F
  8
AM_0
 10
153.59871270644831
 20
222.06811090622799
 30
0.0
 11
155.7987127064483
 21
222.06811090622799
 31
0.0
  0
ARC
  5
6410
  8
AM_0
 10
167.69738380279429
 20
221.5681109062277
 30
0.0
 40
0.5
 50
0.0
 51
90.000000000006537
  0
LINE
  5
6411
  8
AM_0
 10
162.69738380279429
 20
224.96811090622791
 30
0.0
 11
159.47508086144521
 21
224.96811090622791
 31
0.0
  0
LINE
  5
6412
  8
AM_0
 10
168.19738380279429
 20
232.9241822276349
 30
0.0
 11
168.19738380279429
 21
223.21203958481991
 31
0.0
  0
LINE
  5
6413
  8
AM_0
 10
163.19738380279429
 20
233.4241822276349
 30
0.0
 11
167.69738380279429
 21
233.4241822276349
 31
0.0
  0
ARC
  5
6414
  8
AM_0
 10
167.69738380279429
 20
232.9241822276349
 30
0.0
 40
0.5
 50
0.0
 51
90.0
  0
LINE
  5
6415
  8
AM_0
 10
163.19738380279429
 20
222.71203958481991
 30
0.0
 11
167.69738380279429
 21
222.71203958481991
 31
0.0
  0
LINE
  5
6416
  8
AM_0
 10
167.69738380279409
 20
222.0681109062279
 30
0.0
 11
163.69738380279429
 21
222.0681109062279
 31
0.0
  0
ARC
  5
6417
  8
AM_0
 10
167.69738380279429
 20
223.21203958481991
 30
0.0
 40
0.5
 50
270.0
 51
0.0
  0
ARC
  5
6418
  8
AM_0
 10
162.69738380279429
 20
224.46811090622799
 30
0.0
 40
0.5
 50
0.0
 51
90.0
  0
ARC
  5
6419
  8
AM_0
 10
163.69738380279429
 20
222.5681109062279
 30
0.0
 40
0.5
 50
180.0
 51
270.0
  0
ARC
  5
641A
  8
AM_0
 10
156.9987127064482
 20
227.92294015393591
 30
0.0
 40
0.3000000000000114
 50
270.0
 51
0.0
  0
LINE
  5
641B
  8
AM_0
 10
155.7987127064483
 20
233.06811090622591
 30
0.0
 11
156.9987127064482
 21
233.06811090622591
 31
0.0
  0
ARC
  5
641C
  8
AM_0
 10
156.9987127064482
 20
233.36811090622589
 30
0.0
 40
0.2999999999999971
 50
270.0
 51
0.0
  0
LINE
  5
641D
  8
AM_0
 10
155.7987127064483
 20
229.3951833403689
 30
0.0
 11
156.9987127064482
 21
229.3951833403689
 31
0.0
  0
ARC
  5
641E
  8
AM_0
 10
156.9987127064482
 20
229.09518334036881
 30
0.0
 40
0.3000000000000007
 50
0.0
 51
90.0
  0
LINE
  5
641F
  8
AM_0
 10
157.2987127064483
 20
229.095183340369
 30
0.0
 11
157.2987127064483
 21
227.922940153936
 31
0.0
  0
LINE
  5
6420
  8
AM_0
 10
158.72508086144521
 20
224.21811090622791
 30
0.0
 11
159.12065137436929
 21
224.21811090622791
 31
0.0
  0
LINE
  5
6421
  8
AM_0
 10
158.72508086144521
 20
224.21811090622791
 30
0.0
 11
159.12065137436929
 21
224.21811090622791
 31
0.0
  0
LINE
  5
6422
  8
AM_0
 10
159.2172438689083
 20
224.29222867296451
 30
0.0
 11
159.37848836690611
 21
224.8939931394915
 31
0.0
  0
LINE
  5
6423
  8
AM_0
 10
159.2172438689083
 20
224.29222867296451
 30
0.0
 11
159.37848836690611
 21
224.8939931394915
 31
0.0
  0
ARC
  5
6424
  8
AM_0
 10
159.47508086144521
 20
224.86811090622791
 30
0.0
 40
0.0999999999999943
 50
90.0
 51
164.9998049934859
  0
ARC
  5
6425
  8
AM_0
 10
159.12065137436929
 20
224.3181109062279
 30
0.0
 40
0.0999999999999943
 50
270.0
 51
344.99980499349448
  0
LINE
  5
6426
  8
AM_0
 10
157.7978661179072
 20
224.59311090622771
 30
0.0
 11
157.87848836690611
 21
224.8939931394915
 31
0.0
  0
LINE
  5
6427
  8
AM_0
 10
158.4500944550002
 20
224.92884637312989
 30
0.0
 11
158.62848836690611
 21
224.29222867296451
 31
0.0
  0
LINE
  5
6428
  8
AM_0
 10
158.4672438689083
 20
224.8939931394915
 30
0.0
 11
158.62848836690611
 21
224.29222867296451
 31
0.0
  0
LINE
  5
6429
  8
AM_0
 10
157.2987127064483
 20
224.781277925719
 30
0.0
 11
157.2987127064483
 21
224.1243629420679
 31
0.0
  0
LINE
  5
642A
  8
AM_0
 10
157.7987127064483
 20
224.59627037466589
 30
0.0
 11
157.87848836690611
 21
224.8939931394915
 31
0.0
  0
LINE
  5
642B
  8
AM_0
 10
155.7987127064483
 20
225.08127792571901
 30
0.0
 11
156.9987127064482
 21
225.08127792571901
 31
0.0
  0
LINE
  5
642C
  8
AM_0
 10
156.9987127064482
 20
227.6229401539359
 30
0.0
 11
155.7987127064483
 21
227.62294015393491
 31
0.0
  0
LINE
  5
642D
  8
AM_0
 10
158.40328363988431
 20
224.96811090622791
 30
0.0
 11
158.4500944550002
 21
224.92884637312989
 31
0.0
  0
LINE
  5
642E
  8
AM_0
 10
157.97508086144521
 20
224.96811090622791
 30
0.0
 11
158.40328363988431
 21
224.96811090622791
 31
0.0
  0
LINE
  5
642F
  8
AM_0
 10
157.97508086144521
 20
224.96811090622791
 30
0.0
 11
158.37065137436929
 21
224.96811090622791
 31
0.0
  0
ARC
  5
6430
  8
AM_0
 10
157.97508086144521
 20
224.86811090622791
 30
0.0
 40
0.0999999999999943
 50
90.0
 51
164.9998049934859
  0
ARC
  5
6431
  8
AM_0
 10
158.37065137436929
 20
224.86811090622791
 30
0.0
 40
0.0999999999999608
 50
15.00019500651408
 51
90.0
  0
ARC
  5
6432
  8
AM_0
 10
156.9987127064482
 20
224.78127792571891
 30
0.0
 40
0.3000000000000007
 50
0.0
 51
90.0
  0
LINE
  5
6433
  8
AM_0
 10
155.7987127064483
 20
223.06811090622799
 30
0.0
 11
157.2987127064483
 21
223.06811090622799
 31
0.0
  0
LINE
  5
6434
  8
AM_0
 10
156.9987127064482
 20
223.82436294206801
 30
0.0
 11
155.7987127064483
 21
223.82436294206801
 31
0.0
  0
LINE
  5
6435
  8
AM_0
 10
157.0186684096054
 20
222.7494412864379
 30
0.0
 11
155.7987127064483
 21
222.66811090622801
 31
0.0
  0
ARC
  5
6436
  8
AM_0
 10
157.2987127064483
 20
223.5681109062277
 30
0.0
 40
0.5
 50
270.0
 51
0.0
  0
ARC
  5
6437
  8
AM_0
 10
158.72508086144521
 20
224.3181109062279
 30
0.0
 40
0.0999999999999606
 50
195.00019500650541
 51
270.0
  0
ARC
  5
6438
  8
AM_0
 10
156.9987127064482
 20
224.1243629420679
 30
0.0
 40
0.2999999999999971
 50
270.0
 51
0.0
  0
LINE
  5
6439
  8
AM_0
 10
157.2987127064483
 20
223.06811090622799
 30
0.0
 11
157.2987127064483
 21
223.0487768337949
 31
0.0
  0
ARC
  5
643A
  8
AM_0
 10
156.9987127064482
 20
223.0487768337949
 30
0.0
 40
0.3000000000000043
 50
273.81407483428148
 51
0.0
  0
ARC
  5
643B
  8
AM_0
 10
168.69738380279429
 20
221.0681109062277
 30
0.0
 40
0.5
 50
180.0
 51
270.0
  0
LINE
  5
643C
  8
AM_0
 10
168.19738380279429
 20
221.0681109062277
 30
0.0
 11
168.19738380279429
 21
221.5681109062277
 31
0.0
  0
LINE
  5
643D
  8
AM_0
 10
146.7987127064483
 20
224.4147989747689
 30
0.0
 11
153.2987127064483
 21
224.4147989747689
 31
0.0
  0
LINE
  5
643E
  8
AM_0
 10
146.7987127064483
 20
232.7214228376869
 30
0.0
 11
153.2987127064483
 21
232.7214228376869
 31
0.0
  0
LINE
  5
643F
  8
AM_0
 10
146.1607626416303
 20
223.06811090622799
 30
0.0
 11
152.9987127064482
 21
223.06811090622799
 31
0.0
  0
LINE
  5
6440
  8
AM_0
 10
153.2987127064483
 20
233.0681109062279
 30
0.0
 11
146.2987127064483
 21
233.0681109062279
 31
0.0
  0
LINE
  5
6441
  8
AM_0
 10
146.7987127064483
 20
233.56811090622799
 30
0.0
 11
153.2987127064483
 21
233.56811090622799
 31
0.0
  0
LINE
  5
6442
  8
AM_0
 10
153.2987127064483
 20
223.4348310775799
 30
0.0
 11
146.7987127064483
 21
223.4348310775799
 31
0.0
  0
LINE
  5
6443
  8
AM_0
 10
153.2987127064483
 20
223.9348310775799
 30
0.0
 11
146.7987127064483
 21
223.9348310775799
 31
0.0
  0
ARC
  5
6444
  8
AM_0
 10
152.9987127064482
 20
222.76811090622789
 30
0.0
 40
0.3000000000000043
 50
0.0
 51
90.0
  0
ARC
  5
6445
  8
AM_0
 10
153.59871270644831
 20
222.36811090622791
 30
0.0
 40
0.2999999999999971
 50
180.0
 51
270.0
  0
ARC
  5
6446
  8
AM_0
 10
154.9237127064483
 20
228.5681109062279
 30
0.0
 40
9.124999999999984
 50
152.92493329272219
 51
207.07506670727781
  0
LINE
  5
6447
  8
AM_0
 10
146.2987127064483
 20
233.0681109062279
 30
0.0
 11
146.7987127064483
 21
232.7214228376869
 31
0.0
  0
LINE
  5
6448
  8
AM_0
 10
146.7987127064483
 20
233.56811090622799
 30
0.0
 11
146.2987127064483
 21
233.0681109062279
 31
0.0
  0
LINE
  5
6449
  8
AM_0
 10
143.15852830678381
 20
225.2682645726145
 30
0.0
 11
145.52057824196581
 21
223.29988962663049
 31
0.0
  0
LINE
  5
644A
  8
AM_0
 10
146.7987127064483
 20
223.06811090622799
 30
0.0
 11
146.2987127064483
 21
223.646543489735
 31
0.0
  0
ARC
  5
644B
  8
AM_0
 10
146.1607626416303
 20
224.0681109062279
 30
0.0
 40
1.0000000000000411
 50
230.19442890774451
 51
270.0
  0
LINE
  5
644C
  8
AM_0
 10
146.2987127064483
 20
224.646543489735
 30
0.0
 11
146.7987127064483
 21
224.4147989747689
 31
0.0
  0
LINE
  5
644D
  8
AM_0
 10
146.7987127064483
 20
223.9348310775799
 30
0.0
 11
146.2987127064483
 21
224.646543489735
 31
0.0
  0
LINE
  5
644E
  8
AM_0
 10
146.2987127064483
 20
224.10881876270699
 30
0.0
 11
146.7987127064483
 21
223.9348310775799
 31
0.0
  0
LINE
  5
644F
  8
AM_0
 10
146.7987127064483
 20
223.4348310775799
 30
0.0
 11
146.2987127064483
 21
224.10881876270699
 31
0.0
  0
LINE
  5
6450
  8
AM_0
 10
146.2987127064483
 20
223.646543489735
 30
0.0
 11
146.7987127064483
 21
223.4348310775799
 31
0.0
  0
ARC
  5
6451
  8
AM_0
 10
143.7987127064483
 20
226.036485852212
 30
0.0
 40
1.0
 50
180.0
 51
230.19442890773641
  0
CIRCLE
  5
6452
  8
AM_0
 10
177.19738380279259
 20
260.06811090622762
 30
0.0
 40
4.0
  0
LINE
  5
6453
  8
AM_0
 10
176.8858838027927
 20
257.78930250050308
 30
0.0
 11
177.50888380279261
 21
257.78930250050308
 31
0.0
  0
LINE
  5
6454
  8
AM_0
 10
176.8858838027927
 20
262.34691931195192
 30
0.0
 11
177.50888380279261
 21
262.34691931195192
 31
0.0
  0
LINE
  5
6455
  8
AM_0
 10
176.8858838027927
 20
257.78930250050308
 30
0.0
 11
176.8858838027927
 21
259.75661090622759
 31
0.0
  0
LINE
  5
6456
  8
AM_0
 10
176.8858838027927
 20
260.37961090622758
 30
0.0
 11
176.8858838027927
 21
262.34691931195192
 31
0.0
  0
LINE
  5
6457
  8
AM_0
 10
176.8858838027927
 20
260.37961090622758
 30
0.0
 11
174.91857539706811
 21
260.37961090622758
 31
0.0
  0
LINE
  5
6458
  8
AM_0
 10
176.8858838027927
 20
259.75661090622759
 30
0.0
 11
174.91857539706811
 21
259.75661090622759
 31
0.0
  0
LINE
  5
6459
  8
AM_0
 10
174.91857539706811
 20
260.37961090622758
 30
0.0
 11
174.91857539706811
 21
259.75661090622759
 31
0.0
  0
LINE
  5
645A
  8
AM_0
 10
177.50888380279261
 20
257.78930250050308
 30
0.0
 11
177.50888380279261
 21
259.75661090622759
 31
0.0
  0
LINE
  5
645B
  8
AM_0
 10
177.50888380279261
 20
260.37961090622758
 30
0.0
 11
177.50888380279261
 21
262.34691931195192
 31
0.0
  0
LINE
  5
645C
  8
AM_0
 10
179.47619220851701
 20
259.75661090622759
 30
0.0
 11
177.50888380279261
 21
259.75661090622759
 31
0.0
  0
LINE
  5
645D
  8
AM_0
 10
179.47619220851701
 20
260.37961090622758
 30
0.0
 11
177.50888380279261
 21
260.37961090622758
 31
0.0
  0
LINE
  5
645E
  8
AM_0
 10
179.47619220851701
 20
260.37961090622758
 30
0.0
 11
179.47619220851701
 21
259.75661090622759
 31
0.0
  0
CIRCLE
  5
645F
  8
AM_0
 10
263.1973838027962
 20
260.0681109062275
 30
0.0
 40
4.0
  0
LINE
  5
6460
  8
AM_0
 10
262.88588380279612
 20
257.78930250050308
 30
0.0
 11
263.50888380279628
 21
257.78930250050308
 31
0.0
  0
LINE
  5
6461
  8
AM_0
 10
262.88588380279612
 20
262.34691931195192
 30
0.0
 11
263.50888380279628
 21
262.34691931195192
 31
0.0
  0
LINE
  5
6462
  8
AM_0
 10
262.88588380279612
 20
257.78930250050308
 30
0.0
 11
262.88588380279612
 21
259.75661090622759
 31
0.0
  0
LINE
  5
6463
  8
AM_0
 10
262.88588380279612
 20
260.37961090622758
 30
0.0
 11
262.88588380279612
 21
262.34691931195192
 31
0.0
  0
LINE
  5
6464
  8
AM_0
 10
262.88588380279612
 20
260.37961090622758
 30
0.0
 11
260.91857539707178
 21
260.37961090622758
 31
0.0
  0
LINE
  5
6465
  8
AM_0
 10
262.88588380279612
 20
259.75661090622759
 30
0.0
 11
260.91857539707178
 21
259.75661090622759
 31
0.0
  0
LINE
  5
6466
  8
AM_0
 10
260.91857539707178
 20
260.37961090622758
 30
0.0
 11
260.91857539707178
 21
259.75661090622759
 31
0.0
  0
LINE
  5
6467
  8
AM_0
 10
263.50888380279628
 20
257.78930250050308
 30
0.0
 11
263.50888380279628
 21
259.75661090622759
 31
0.0
  0
LINE
  5
6468
  8
AM_0
 10
263.50888380279628
 20
260.37961090622758
 30
0.0
 11
263.50888380279628
 21
262.34691931195192
 31
0.0
  0
LINE
  5
6469
  8
AM_0
 10
265.4761922085205
 20
259.75661090622759
 30
0.0
 11
263.50888380279628
 21
259.75661090622759
 31
0.0
  0
LINE
  5
646A
  8
AM_0
 10
265.4761922085205
 20
260.37961090622758
 30
0.0
 11
263.50888380279628
 21
260.37961090622758
 31
0.0
  0
LINE
  5
646B
  8
AM_0
 10
265.4761922085205
 20
260.37961090622758
 30
0.0
 11
265.4761922085205
 21
259.75661090622759
 31
0.0
  0
LINE
  5
646C
  8
AM_0
 10
190.7329177087272
 20
263.60364481216072
 30
0.0
 11
173.66184989686161
 21
246.53257700029539
 31
0.0
  0
LINE
  5
646D
  8
AM_0
 10
191.38977195821951
 20
258.60364481216072
 30
0.0
 11
178.6618498968615
 21
245.87572275080279
 31
0.0
  0
ARC
  5
646E
  8
AM_0
 10
182.19738380279421
 20
242.34018884487011
 30
0.0
 40
5.0
 50
135.0
 51
180.0
1001
GENIUS_GENOBJ-N-FIL_13
1002
{
1000
OWNER
1000
GEN
1002
}
1001
GENIUS_GENODEF_13
1002
{
1000
HIER
1070
     0
1002
}
1002
{
1000
MANEDIT
1070
     0
1002
}
1002
{
1000
NOSEL
1070
     0
1002
}
1002
{
1000
BEHIND
1070
     0
1002
}
1002
{
1000
OTHER
1070
     0
1002
}
1002
{
1000
REACTOR
1002
}
  0
LINE
  5
646F
  8
AM_0
 10
249.6618498968615
 20
174.53257700029491
 30
0.0
 11
266.7329177087272
 21
191.6036448121605
 31
0.0
  0
ARC
  5
6470
  8
AM_0
 10
246.12631599092879
 20
178.06811090622779
 30
0.0
 40
5.0
 50
270.0
 51
315.0
1001
GENIUS_GENODEF_13
1002
{
1000
HIER
1070
     0
1002
}
1002
{
1000
MANEDIT
1070
     0
1002
}
1002
{
1000
NOSEL
1070
     0
1002
}
1002
{
1000
BEHIND
1070
     0
1002
}
1002
{
1000
OTHER
1070
     0
1002
}
1002
{
1000
REACTOR
1002
}
1001
GENIUS_GENOBJ-N-FIL_13
1002
{
1000
OWNER
1000
GEN
1002
}
  0
LINE
  5
6471
  8
AM_0
 10
249.0049956473693
 20
179.53257700029491
 30
0.0
 11
261.7329177087272
 21
192.26049906165269
 31
0.0
  0
ARC
  5
6472
  8
AM_0
 10
258.19738380279438
 20
195.7960329675854
 30
0.0
 40
5.0
 50
315.0
 51
0.0
1001
GENIUS_GENOBJ-N-FIL_13
1002
{
1000
OWNER
1000
GEN
1002
}
1001
GENIUS_GENODEF_13
1002
{
1000
HIER
1070
     0
1002
}
1002
{
1000
MANEDIT
1070
     0
1002
}
1002
{
1000
NOSEL
1070
     0
1002
}
1002
{
1000
BEHIND
1070
     0
1002
}
1002
{
1000
OTHER
1070
     0
1002
}
1002
{
1000
REACTOR
1002
}
  0
LINE
  5
6473
  8
AM_0
 10
190.732917708727
 20
174.53257700029491
 30
0.0
 11
173.66184989686161
 21
191.6036448121603
 31
0.0
  0
LINE
  5
6474
  8
AM_0
 10
191.3897719582194
 20
179.53257700029511
 30
0.0
 11
178.6618498968615
 21
192.26049906165269
 31
0.0
  0
ARC
  5
6475
  8
AM_0
 10
194.92530586415199
 20
183.0681109062277
 30
0.0
 40
5.0
 50
225.0
 51
270.0
1001
GENIUS_GENOBJ-N-FIL_13
1002
{
1000
OWNER
1000
GEN
1002
}
1001
GENIUS_GENODEF_13
1002
{
1000
HIER
1070
     0
1002
}
1002
{
1000
MANEDIT
1070
     0
1002
}
1002
{
1000
NOSEL
1070
     0
1002
}
1002
{
1000
BEHIND
1070
     0
1002
}
1002
{
1000
OTHER
1070
     0
1002
}
1002
{
1000
REACTOR
1002
}
  0
CIRCLE
  5
6476
  8
AM_0
 10
177.1973838027925
 20
178.06811090622821
 30
0.0
 40
4.0
  0
LINE
  5
6477
  8
AM_0
 10
176.88588380279251
 20
180.34691931195249
 30
0.0
 11
177.5088838027925
 21
180.34691931195249
 31
0.0
  0
LINE
  5
6478
  8
AM_0
 10
176.88588380279251
 20
175.78930250050379
 30
0.0
 11
177.5088838027925
 21
175.78930250050379
 31
0.0
  0
LINE
  5
6479
  8
AM_0
 10
176.88588380279251
 20
180.34691931195249
 30
0.0
 11
176.88588380279251
 21
178.37961090622809
 31
0.0
  0
LINE
  5
647A
  8
AM_0
 10
176.88588380279251
 20
177.7566109062281
 30
0.0
 11
176.88588380279251
 21
175.78930250050379
 31
0.0
  0
LINE
  5
647B
  8
AM_0
 10
176.88588380279251
 20
177.7566109062281
 30
0.0
 11
174.91857539706811
 21
177.7566109062281
 31
0.0
  0
LINE
  5
647C
  8
AM_0
 10
176.88588380279251
 20
178.37961090622809
 30
0.0
 11
174.91857539706811
 21
178.37961090622809
 31
0.0
  0
LINE
  5
647D
  8
AM_0
 10
174.91857539706811
 20
177.7566109062281
 30
0.0
 11
174.91857539706811
 21
178.37961090622809
 31
0.0
  0
LINE
  5
647E
  8
AM_0
 10
177.5088838027925
 20
180.34691931195249
 30
0.0
 11
177.5088838027925
 21
178.37961090622809
 31
0.0
  0
LINE
  5
647F
  8
AM_0
 10
177.5088838027925
 20
177.7566109062281
 30
0.0
 11
177.5088838027925
 21
175.78930250050379
 31
0.0
  0
LINE
  5
6480
  8
AM_0
 10
179.47619220851681
 20
178.37961090622809
 30
0.0
 11
177.5088838027925
 21
178.37961090622809
 31
0.0
  0
LINE
  5
6481
  8
AM_0
 10
179.47619220851681
 20
177.7566109062281
 30
0.0
 11
177.5088838027925
 21
177.7566109062281
 31
0.0
  0
LINE
  5
6482
  8
AM_0
 10
179.47619220851681
 20
177.7566109062281
 30
0.0
 11
179.47619220851681
 21
178.37961090622809
 31
0.0
  0
CIRCLE
  5
6483
  8
AM_0
 10
263.19738380279603
 20
178.06811090622799
 30
0.0
 40
4.0
  0
LINE
  5
6484
  8
AM_0
 10
262.88588380279612
 20
180.34691931195229
 30
0.0
 11
263.50888380279599
 21
180.34691931195229
 31
0.0
  0
LINE
  5
6485
  8
AM_0
 10
262.88588380279612
 20
175.78930250050351
 30
0.0
 11
263.50888380279599
 21
175.78930250050351
 31
0.0
  0
LINE
  5
6486
  8
AM_0
 10
262.88588380279612
 20
180.34691931195229
 30
0.0
 11
262.88588380279612
 21
178.3796109062279
 31
0.0
  0
LINE
  5
6487
  8
AM_0
 10
262.88588380279612
 20
177.75661090622799
 30
0.0
 11
262.88588380279612
 21
175.78930250050351
 31
0.0
  0
LINE
  5
6488
  8
AM_0
 10
262.88588380279612
 20
177.75661090622799
 30
0.0
 11
260.91857539707172
 21
177.75661090622799
 31
0.0
  0
LINE
  5
6489
  8
AM_0
 10
262.88588380279612
 20
178.3796109062279
 30
0.0
 11
260.91857539707172
 21
178.3796109062279
 31
0.0
  0
LINE
  5
648A
  8
AM_0
 10
260.91857539707172
 20
177.75661090622799
 30
0.0
 11
260.91857539707172
 21
178.3796109062279
 31
0.0
  0
LINE
  5
648B
  8
AM_0
 10
263.50888380279599
 20
180.34691931195229
 30
0.0
 11
263.50888380279599
 21
178.3796109062279
 31
0.0
  0
LINE
  5
648C
  8
AM_0
 10
263.50888380279599
 20
177.75661090622799
 30
0.0
 11
263.50888380279599
 21
175.78930250050351
 31
0.0
  0
LINE
  5
648D
  8
AM_0
 10
265.47619220852039
 20
178.3796109062279
 30
0.0
 11
263.50888380279599
 21
178.3796109062279
 31
0.0
  0
LINE
  5
648E
  8
AM_0
 10
265.47619220852039
 20
177.75661090622799
 30
0.0
 11
263.50888380279599
 21
177.75661090622799
 31
0.0
  0
LINE
  5
648F
  8
AM_0
 10
265.47619220852039
 20
177.75661090622799
 30
0.0
 11
265.47619220852039
 21
178.3796109062279
 31
0.0
  0
LINE
  5
6490
  8
AM_0
 10
172.19738380279421
 20
188.06811090622779
 30
0.0
 11
171.19738380279429
 21
188.06811090622779
 31
0.0
  0
LINE
  5
6491
  8
AM_0
 10
172.19738380279421
 20
250.06811090622779
 30
0.0
 11
171.19738380279429
 21
250.06811090622779
 31
0.0
  0
LINE
  5
6492
  8
AM_0
 10
171.19738380279429
 20
188.06811090622779
 30
0.0
 11
171.19738380279429
 21
250.06811090622779
 31
0.0
  0
LINE
  5
6493
  8
ﾁｭｳｼﾝｾﾝ1
 10
177.1973838027923
 20
254.06811090622759
 30
0.0
 11
177.1973838027929
 21
266.06811090622762
 31
0.0
  0
LINE
  5
6494
  8
ﾁｭｳｼﾝｾﾝ1
 10
183.1973838027925
 20
260.06811090622739
 30
0.0
 11
171.19738380279259
 21
260.0681109062279
 31
0.0
  0
LINE
  5
6495
  8
ﾁｭｳｼﾝｾﾝ1
 10
177.1973838027921
 20
172.0681109062281
 30
0.0
 11
177.1973838027927
 21
184.06811090622821
 31
0.0
  0
LINE
  5
6496
  8
ﾁｭｳｼﾝｾﾝ1
 10
183.1973838027925
 20
178.0681109062279
 30
0.0
 11
171.1973838027925
 21
178.0681109062285
 31
0.0
  0
LINE
  5
6497
  8
ﾁｭｳｼﾝｾﾝ1
 10
263.19738380279568
 20
172.06811090622799
 30
0.0
 11
263.19738380279642
 21
184.06811090622799
 31
0.0
  0
LINE
  5
6498
  8
ﾁｭｳｼﾝｾﾝ1
 10
269.19738380279603
 20
178.06811090622779
 30
0.0
 11
257.19738380279603
 21
178.06811090622841
 31
0.0
  0
LINE
  5
649C
  8
AM_0
 10
135.09493154291201
 20
196.0681109062277
 30
0.0
 11
144.19738380279429
 21
196.0681109062277
 31
0.0
  0
ARC
  5
649D
  8
AM_0
 10
135.09493154291201
 20
186.0681109062277
 30
0.0
 40
10.0
 50
90.0
 51
149.99999999999869
1001
GENIUS_GENOBJ-N-FIL_13
1002
{
1000
OWNER
1000
GEN
1002
}
1001
GENIUS_GENODEF_13
1002
{
1000
HIER
1070
     0
1002
}
1002
{
1000
MANEDIT
1070
     0
1002
}
1002
{
1000
NOSEL
1070
     0
1002
}
1002
{
1000
BEHIND
1070
     0
1002
}
1002
{
1000
OTHER
1070
     0
1002
}
1002
{
1000
REACTOR
1002
}
  0
LINE
  5
649E
  8
AM_0
 10
137.4043326196705
 20
202.0681109062277
 30
0.0
 11
144.19738380279429
 21
202.06811090622759
 31
0.0
  0
ARC
  5
649F
  8
AM_0
 10
137.40433261967041
 20
182.06811090622759
 30
0.0
 40
20.0
 50
90.0
 51
149.99999999999869
1001
GENIUS_GENODEF_13
1002
{
1000
HIER
1070
     0
1002
}
1002
{
1000
MANEDIT
1070
     0
1002
}
1002
{
1000
NOSEL
1070
     0
1002
}
1002
{
1000
BEHIND
1070
     0
1002
}
1002
{
1000
OTHER
1070
     0
1002
}
1002
{
1000
REACTOR
1002
}
1001
GENIUS_GENOBJ-N-FIL_13
1002
{
1000
OWNER
1000
GEN
1002
}
  0
LINE
  5
64A0
  8
AM_0
 10
161.07238380279529
 20
192.67805685010359
 30
0.0
 11
161.0830934073403
 21
192.46811090622771
 31
0.0
  0
LINE
  5
64A1
  8
AM_0
 10
161.0830934073403
 20
192.46811090622771
 30
0.0
 11
161.1193987945413
 21
191.75639753234049
 31
0.0
  0
LINE
  5
64A2
  8
AM_0
 10
161.07238380279529
 20
196.43538839774459
 30
0.0
 11
161.3184100254752
 21
192.46811090622771
 31
0.0
  0
LINE
  5
64A3
  8
AM_0
 10
161.79071296682429
 20
192.46811090622771
 30
0.0
 11
161.39514245390029
 21
192.46811090622771
 31
0.0
  0
LINE
  5
64A4
  8
AM_0
 10
161.2985499593612
 20
192.39399313949221
 30
0.0
 11
161.13730546136341
 21
191.79222867296409
 31
0.0
  0
LINE
  5
64A5
  8
AM_0
 10
161.3184100254752
 20
192.46811090622771
 30
0.0
 11
161.2985499593612
 21
192.39399313949221
 31
0.0
  0
LINE
  5
64A6
  8
AM_0
 10
159.57238380279529
 20
190.0681109062277
 30
0.0
 11
159.57238380279529
 21
190.36811090622871
 31
0.0
  0
LINE
  5
64A7
  8
AM_0
 10
149.07238380279429
 20
193.5681109062277
 30
0.0
 11
149.07238380279429
 21
193.7356959653637
 31
0.0
  0
LINE
  5
64A8
  8
AM_0
 10
149.07238380279429
 20
199.0681109062277
 30
0.0
 11
149.07238380279429
 21
193.7491358738186
 31
0.0
  0
LINE
  5
64A9
  8
AM_0
 10
151.80657127578431
 20
190.5681109062258
 30
0.0
 11
151.57238380279131
 21
190.5681109062258
 31
0.0
  0
LINE
  5
64AA
  8
AM_0
 10
151.42246063598509
 20
190.74801870639411
 30
0.0
 11
151.57238380279131
 21
190.5681109062258
 31
0.0
  0
LINE
  5
64AB
  8
AM_0
 10
149.07238380279429
 20
193.5681109062277
 30
0.0
 11
149.18827316299539
 21
193.42904367398671
 31
0.0
  0
LINE
  5
64AC
  8
AM_0
 10
159.57238380279529
 20
190.56811090622861
 30
0.0
 11
160.8723838027953
 21
190.56811090622861
 31
0.0
  0
LINE
  5
64AD
  8
AM_0
 10
160.57238380279429
 20
190.53960717486271
 30
0.0
 11
160.57238380279529
 21
190.56811090622861
 31
0.0
  0
LINE
  5
64AE
  8
AM_0
 10
151.57238380279219
 20
191.5359196980917
 30
0.0
 11
157.5723838027952
 21
191.5359196980917
 31
0.0
  0
LINE
  5
64AF
  8
AM_0
 10
157.5723838027952
 20
191.0359196980917
 30
0.0
 11
151.57238380279131
 21
191.0359196980917
 31
0.0
  0
LINE
  5
64B0
  8
AM_0
 10
151.57238380279131
 20
191.0359196980917
 30
0.0
 11
152.07238380279131
 21
190.5681109062277
 31
0.0
  0
LINE
  5
64B1
  8
AM_0
 10
152.07238380279131
 20
191.0359196980917
 30
0.0
 11
151.57238380279219
 21
191.5359196980917
 31
0.0
  0
LINE
  5
64B2
  8
AM_0
 10
151.57238380279219
 20
192.20689497406079
 30
0.0
 11
152.07238380279131
 21
191.5359196980917
 31
0.0
  0
LINE
  5
64B3
  8
AM_0
 10
152.07238380279131
 20
192.25637321473769
 30
0.0
 11
151.57238380279219
 21
192.20689497406079
 31
0.0
  0
LINE
  5
64B4
  8
AM_0
 10
157.5723838027952
 20
197.9779170711698
 30
0.0
 11
157.5723838027952
 21
199.0681109062277
 31
0.0
  0
LINE
  5
64B5
  8
AM_0
 10
151.57238380279131
 20
198.0681109062277
 30
0.0
 11
157.5723838027952
 21
198.0681109062277
 31
0.0
  0
LINE
  5
64B6
  8
AM_0
 10
152.07238380279131
 20
197.3798485977178
 30
0.0
 11
151.57238380279131
 21
198.0681109062277
 31
0.0
  0
LINE
  5
64B7
  8
AM_0
 10
151.57238380279131
 20
198.0681109062277
 30
0.0
 11
152.0723838027923
 21
198.5681109062277
 31
0.0
  0
LINE
  5
64B8
  8
AM_0
 10
151.57238380279219
 20
199.0681109062277
 30
0.0
 11
152.0723838027923
 21
198.5681109062277
 31
0.0
  0
LINE
  5
64B9
  8
AM_0
 10
152.0723838027923
 20
198.5681109062277
 30
0.0
 11
157.5723838027952
 21
198.5681109062277
 31
0.0
  0
LINE
  5
64BA
  8
AM_0
 10
152.07238380279131
 20
197.3798485977178
 30
0.0
 11
157.5723838027952
 21
197.3798485977178
 31
0.0
  0
LINE
  5
64BB
  8
AM_0
 10
152.07238380279131
 20
192.25637321473769
 30
0.0
 11
157.5723838027952
 21
192.2563732147388
 31
0.0
  0
LINE
  5
64BC
  8
AM_0
 10
160.57238380279429
 20
198.61811090622871
 30
0.0
 11
160.57238380279529
 21
199.0681109062277
 31
0.0
  0
LINE
  5
64BD
  8
AM_0
 10
159.57238380279529
 20
190.36811090622871
 30
0.0
 11
159.57238380279529
 21
199.0681109062298
 31
0.0
  0
LINE
  5
64BE
  8
AM_0
 10
160.27238380279431
 20
192.11060621819581
 30
0.0
 11
159.57238380279529
 21
192.11060621819581
 31
0.0
  0
LINE
  5
64BF
  8
AM_0
 10
160.57238380279429
 20
191.4054953609058
 30
0.0
 11
160.57238380279429
 21
191.81060621819569
 31
0.0
  0
LINE
  5
64C0
  8
AM_0
 10
159.57238380279529
 20
191.10549536090579
 30
0.0
 11
160.27238380279431
 21
191.10549536090579
 31
0.0
  0
LINE
  5
64C1
  8
AM_0
 10
160.27238380279431
 20
195.4842064035968
 30
0.0
 11
159.57238380279529
 21
195.4842064035968
 31
0.0
  0
LINE
  5
64C2
  8
AM_0
 10
160.57238380279429
 20
194.38429013730479
 30
0.0
 11
160.57238380279429
 21
195.1842064035967
 31
0.0
  0
LINE
  5
64C3
  8
AM_0
 10
159.57238380279529
 20
194.08429013730469
 30
0.0
 11
160.27238380279431
 21
194.08429013730469
 31
0.0
  0
LINE
  5
64C4
  8
AM_0
 10
159.57238380279529
 20
198.3181109062277
 30
0.0
 11
160.27238380279431
 21
198.3181109062277
 31
0.0
  0
LINE
  5
64C5
  8
AM_0
 10
161.07238380279529
 20
199.06811090622759
 30
0.0
 11
161.07238380279529
 21
190.7681109062288
 31
0.0
  0
LINE
  5
64C6
  8
AM_0
 10
157.77238380279431
 20
190.0681109062277
 30
0.0
 11
159.57238380279529
 21
190.0681109062277
 31
0.0
  0
LINE
  5
64C7
  8
AM_0
 10
149.18827316299539
 20
193.42904367398671
 30
0.0
 11
151.42246063598509
 21
190.74801870639411
 31
0.0
  0
LINE
  5
64C8
  8
AM_0
 10
160.30223491850089
 20
190.2410960177998
 30
0.0
 11
159.57238380279529
 21
190.1681109062288
 31
0.0
  0
LINE
  5
64C9
  8
AM_0
 10
157.3723838027953
 20
190.5681109062277
 30
0.0
 11
151.80657127578431
 21
190.5681109062258
 31
0.0
  0
LINE
  5
64CA
  8
AM_0
 10
157.5723838027952
 20
197.9779170711698
 30
0.0
 11
157.5723838027952
 21
190.36811090622771
 31
0.0
  0
LINE
  5
64CB
  8
AM_0
 10
157.5723838027952
 20
190.36811090622771
 30
0.0
 11
157.57238380279429
 21
190.26811090622769
 31
0.0
  0
LINE
  5
64CC
  8
AM_0
 10
165.19738380279429
 20
190.76811090622789
 30
0.0
 11
165.19738380279429
 21
197.3798485977178
 31
0.0
  0
LINE
  5
64CD
  8
AM_0
 10
161.69738380279529
 20
199.06811090622759
 30
0.0
 11
162.0701376608053
 21
191.75197255870771
 31
0.0
  0
LINE
  5
64CE
  8
AM_0
 10
162.24641917257031
 20
199.06811090622759
 30
0.0
 11
162.6193987945413
 21
191.75639753234049
 31
0.0
  0
LINE
  5
64CF
  8
AM_0
 10
161.88730546136341
 20
192.3939931394913
 30
0.0
 11
161.86744539525029
 21
192.46811090622771
 31
0.0
  0
LINE
  5
64D0
  8
AM_0
 10
162.8184100254752
 20
192.46811090622771
 30
0.0
 11
162.7985499593612
 21
192.39399313949221
 31
0.0
  0
LINE
  5
64D1
  8
AM_0
 10
162.54071296682429
 20
191.71811090622759
 30
0.0
 11
162.14514245390029
 21
191.71811090622759
 31
0.0
  0
LINE
  5
64D2
  8
AM_0
 10
162.04854995936111
 20
191.79222867296431
 30
0.0
 11
161.88730546136341
 21
192.3939931394913
 31
0.0
  0
LINE
  5
64D3
  8
AM_0
 10
162.7985499593612
 20
192.39399313949221
 30
0.0
 11
162.63730546136341
 21
191.79222867296409
 31
0.0
  0
LINE
  5
64D4
  8
AM_0
 10
161.4581538664473
 20
199.06811090622759
 30
0.0
 11
161.86744539525029
 21
192.46811090622771
 31
0.0
  0
LINE
  5
64D5
  8
AM_0
 10
162.40911849667231
 20
199.06811090622759
 30
0.0
 11
162.8184100254752
 21
192.46811090622771
 31
0.0
  0
LINE
  5
64D6
  8
AM_0
 10
162.89514245390029
 20
192.46811090622771
 30
0.0
 11
164.69738380279429
 21
192.46811090622771
 31
0.0
  0
LINE
  5
64D7
  8
AM_0
 10
165.19738380279429
 20
197.3798485977178
 30
0.0
 11
165.19738380279429
 21
199.06811090622861
 31
0.0
  0
LINE
  5
64D8
  8
AM_0
 10
165.39738380279431
 20
190.56811090622759
 30
0.0
 11
168.9973838027943
 21
190.56811090622759
 31
0.0
  0
LINE
  5
64D9
  8
AM_0
 10
168.9973838027943
 20
197.3798485977178
 30
0.0
 11
165.19738380279429
 21
197.3798485977178
 31
0.0
  0
LINE
  5
64DA
  8
AM_0
 10
165.19738380279429
 20
192.2563732147388
 30
0.0
 11
168.9973838027943
 21
192.2563732147388
 31
0.0
  0
LINE
  5
64DB
  8
AM_0
 10
144.19738380279429
 20
199.0681109062277
 30
0.0
 11
144.19738380279429
 21
194.8181109062277
 31
0.0
  0
LINE
  5
64DC
  8
AM_0
 10
149.07238380279429
 20
194.76697454259181
 30
0.0
 11
144.19738380279429
 21
194.8181109062277
 31
0.0
  0
LINE
  5
64DD
  8
AM_0
 10
144.19738380279429
 20
203.3181109062279
 30
0.0
 11
149.07238380279429
 21
203.36924726986479
 31
0.0
  0
LINE
  5
64DE
  8
AM_0
 10
144.19738380279429
 20
203.3181109062279
 30
0.0
 11
144.19738380279429
 21
199.0681109062277
 31
0.0
  0
LINE
  5
64DF
  8
AM_0
 10
168.9973838027943
 20
205.8798485977178
 30
0.0
 11
165.19738380279429
 21
205.8798485977178
 31
0.0
  0
LINE
  5
64E0
  8
AM_0
 10
165.19738380279429
 20
200.7563732147388
 30
0.0
 11
168.9973838027943
 21
200.7563732147388
 31
0.0
  0
LINE
  5
64E1
  8
AM_0
 10
168.9973838027943
 20
207.5681109062277
 30
0.0
 11
165.39738380279431
 21
207.5681109062277
 31
0.0
  0
LINE
  5
64E2
  8
AM_0
 10
165.19738380279429
 20
199.06811090622861
 30
0.0
 11
165.19738380279429
 21
200.7563732147388
 31
0.0
  0
LINE
  5
64E3
  8
AM_0
 10
164.69738380279429
 20
205.66811090622781
 30
0.0
 11
162.1491162312204
 21
205.66811090622781
 31
0.0
  0
LINE
  5
64E4
  8
AM_0
 10
162.07238380279429
 20
205.66811090622781
 30
0.0
 11
162.40911849667231
 21
199.06811090622759
 31
0.0
  0
LINE
  5
64E5
  8
AM_0
 10
161.1214191725694
 20
205.66811090622781
 30
0.0
 11
161.4581538664473
 21
199.06811090622759
 31
0.0
  0
LINE
  5
64E6
  8
AM_0
 10
161.89127923868341
 20
206.3439931394912
 30
0.0
 11
162.0525237366812
 21
205.74222867296419
 31
0.0
  0
LINE
  5
64E7
  8
AM_0
 10
161.14127923868341
 20
205.74222867296419
 30
0.0
 11
161.3025237366812
 21
206.34399313949109
 31
0.0
  0
LINE
  5
64E8
  8
AM_0
 10
161.3991162312204
 20
206.4181109062277
 30
0.0
 11
161.7946867441444
 21
206.4181109062277
 31
0.0
  0
LINE
  5
64E9
  8
AM_0
 10
162.0525237366812
 20
205.74222867296419
 30
0.0
 11
162.07238380279429
 21
205.66811090622781
 31
0.0
  0
LINE
  5
64EA
  8
AM_0
 10
161.1214191725694
 20
205.66811090622781
 30
0.0
 11
161.14127923868341
 21
205.74222867296419
 31
0.0
  0
LINE
  5
64EB
  8
AM_0
 10
161.87337257186141
 20
206.3798242801148
 30
0.0
 11
162.24641917257031
 21
199.06811090622759
 31
0.0
  0
LINE
  5
64EC
  8
AM_0
 10
161.3241114381253
 20
206.38424925374869
 30
0.0
 11
161.69738380279529
 21
199.06811090622759
 31
0.0
  0
LINE
  5
64ED
  8
AM_0
 10
165.19738380279429
 20
200.7563732147388
 30
0.0
 11
165.19738380279429
 21
207.36811090622851
 31
0.0
  0
LINE
  5
64EE
  8
AM_0
 10
157.57238380279429
 20
207.86811090622871
 30
0.0
 11
157.5723838027952
 21
207.7681109062288
 31
0.0
  0
LINE
  5
64EF
  8
AM_0
 10
157.5723838027952
 20
207.7681109062288
 30
0.0
 11
157.5723838027952
 21
200.15830474128671
 31
0.0
  0
LINE
  5
64F0
  8
AM_0
 10
151.80657127578431
 20
207.5681109062308
 30
0.0
 11
157.37238380279541
 21
207.5681109062287
 31
0.0
  0
LINE
  5
64F1
  8
AM_0
 10
159.57238380279529
 20
207.96811090622771
 30
0.0
 11
160.30223491850089
 21
207.89512579465679
 31
0.0
  0
LINE
  5
64F2
  8
AM_0
 10
151.42246063598529
 20
207.38820310606241
 30
0.0
 11
149.1882731629955
 21
204.7071781384698
 31
0.0
  0
LINE
  5
64F3
  8
AM_0
 10
159.57238380279529
 20
208.06811090622779
 30
0.0
 11
157.77238380279431
 21
208.06811090622779
 31
0.0
  0
LINE
  5
64F4
  8
AM_0
 10
161.07238380279529
 20
207.3681109062278
 30
0.0
 11
161.07238380279529
 21
199.06811090622759
 31
0.0
  0
LINE
  5
64F5
  8
AM_0
 10
160.27238380279431
 20
199.8181109062277
 30
0.0
 11
159.57238380279529
 21
199.8181109062277
 31
0.0
  0
LINE
  5
64F6
  8
AM_0
 10
160.27238380279431
 20
204.05193167515171
 30
0.0
 11
159.57238380279529
 21
204.05193167515171
 31
0.0
  0
LINE
  5
64F7
  8
AM_0
 10
160.57238380279429
 20
202.95201540885981
 30
0.0
 11
160.57238380279429
 21
203.7519316751517
 31
0.0
  0
LINE
  5
64F8
  8
AM_0
 10
159.57238380279529
 20
202.65201540885971
 30
0.0
 11
160.27238380279431
 21
202.65201540885971
 31
0.0
  0
LINE
  5
64F9
  8
AM_0
 10
160.27238380279431
 20
207.03072645155081
 30
0.0
 11
159.57238380279529
 21
207.03072645155081
 31
0.0
  0
LINE
  5
64FA
  8
AM_0
 10
160.57238380279429
 20
206.32561559426071
 30
0.0
 11
160.57238380279429
 21
206.73072645155079
 31
0.0
  0
LINE
  5
64FB
  8
AM_0
 10
159.57238380279529
 20
206.02561559426081
 30
0.0
 11
160.27238380279431
 21
206.02561559426081
 31
0.0
  0
LINE
  5
64FC
  8
AM_0
 10
159.57238380279529
 20
199.0681109062298
 30
0.0
 11
159.57238380279529
 21
207.7681109062278
 31
0.0
  0
LINE
  5
64FD
  8
AM_0
 10
160.57238380279529
 20
199.0681109062277
 30
0.0
 11
160.57238380279429
 21
199.51811090622769
 31
0.0
  0
LINE
  5
64FE
  8
AM_0
 10
157.5723838027952
 20
205.8798485977178
 30
0.0
 11
152.07238380279131
 21
205.8798485977178
 31
0.0
  0
LINE
  5
64FF
  8
AM_0
 10
157.5723838027952
 20
200.7563732147388
 30
0.0
 11
152.07238380279131
 21
200.75637321473781
 31
0.0
  0
LINE
  5
6500
  8
AM_0
 10
157.5723838027952
 20
199.5681109062277
 30
0.0
 11
152.0723838027923
 21
199.5681109062277
 31
0.0
  0
LINE
  5
6501
  8
AM_0
 10
152.0723838027923
 20
199.5681109062277
 30
0.0
 11
151.57238380279219
 21
199.0681109062277
 31
0.0
  0
LINE
  5
6502
  8
AM_0
 10
152.0723838027923
 20
199.5681109062277
 30
0.0
 11
151.57238380279131
 21
200.06811090622779
 31
0.0
  0
LINE
  5
6503
  8
AM_0
 10
151.57238380279131
 20
200.06811090622779
 30
0.0
 11
152.07238380279131
 21
200.75637321473781
 31
0.0
  0
LINE
  5
6504
  8
AM_0
 10
157.5723838027952
 20
200.06811090622779
 30
0.0
 11
151.57238380279131
 21
200.06811090622779
 31
0.0
  0
LINE
  5
6505
  8
AM_0
 10
157.5723838027952
 20
199.0681109062277
 30
0.0
 11
157.5723838027952
 21
200.15830474128671
 31
0.0
  0
LINE
  5
6506
  8
AM_0
 10
151.57238380279239
 20
205.9293268383957
 30
0.0
 11
152.07238380279131
 21
205.8798485977178
 31
0.0
  0
LINE
  5
6507
  8
AM_0
 10
152.07238380279131
 20
206.60030211436481
 30
0.0
 11
151.57238380279239
 21
205.9293268383957
 31
0.0
  0
LINE
  5
6508
  8
AM_0
 10
151.57238380279239
 20
206.60030211436481
 30
0.0
 11
152.07238380279131
 21
207.10030211436481
 31
0.0
  0
LINE
  5
6509
  8
AM_0
 10
152.07238380279131
 20
207.5681109062279
 30
0.0
 11
151.57238380279131
 21
207.10030211436481
 31
0.0
  0
LINE
  5
650A
  8
AM_0
 10
151.57238380279131
 20
207.10030211436481
 30
0.0
 11
157.5723838027952
 21
207.10030211436481
 31
0.0
  0
LINE
  5
650B
  8
AM_0
 10
157.5723838027952
 20
206.60030211436481
 30
0.0
 11
151.57238380279239
 21
206.60030211436481
 31
0.0
  0
LINE
  5
650C
  8
AM_0
 10
160.57238380279529
 20
207.5681109062279
 30
0.0
 11
160.57238380279429
 21
207.59661463759369
 31
0.0
  0
LINE
  5
650D
  8
AM_0
 10
160.87238380279541
 20
207.5681109062277
 30
0.0
 11
159.57238380279529
 21
207.5681109062279
 31
0.0
  0
LINE
  5
650E
  8
AM_0
 10
149.1882731629955
 20
204.7071781384698
 30
0.0
 11
149.07238380279429
 21
204.5681109062277
 31
0.0
  0
LINE
  5
650F
  8
AM_0
 10
151.57238380279131
 20
207.5681109062308
 30
0.0
 11
151.42246063598529
 21
207.38820310606241
 31
0.0
  0
LINE
  5
6510
  8
AM_0
 10
151.57238380279131
 20
207.5681109062308
 30
0.0
 11
151.80657127578431
 21
207.5681109062308
 31
0.0
  0
LINE
  5
6511
  8
AM_0
 10
149.07238380279429
 20
204.3870859386378
 30
0.0
 11
149.07238380279429
 21
199.0681109062277
 31
0.0
  0
LINE
  5
6512
  8
AM_0
 10
149.07238380279429
 20
204.40052584709181
 30
0.0
 11
149.07238380279429
 21
204.5681109062277
 31
0.0
  0
LINE
  5
6513
  8
AM_0
 10
159.57238380279529
 20
207.7681109062278
 30
0.0
 11
159.57238380279529
 21
208.06811090622779
 31
0.0
  0
ARC
  5
6514
  8
AM_0
 10
161.79071296682429
 20
192.3681109062278
 30
0.0
 40
0.0999999999999643
 50
15.000195006510941
 51
90.0
  0
ARC
  5
6515
  8
AM_0
 10
158.38488380279131
 20
194.8181109062277
 30
0.0
 40
6.8125000000000382
 50
157.91171016505959
 51
202.0882898349403
  0
ARC
  5
6516
  8
AM_0
 10
168.9973838027943
 20
190.3681109062278
 30
0.0
 40
0.1999999999999993
 50
0.0
 51
90.0
  0
ARC
  5
6517
  8
AM_0
 10
168.9973838027943
 20
207.76811090622769
 30
0.0
 40
0.2000000000000028
 50
270.0
 51
0.0
  0
ARC
  5
6518
  8
AM_0
 10
158.38488380279131
 20
203.3181109062279
 30
0.0
 40
6.8125000000000382
 50
157.91171016505959
 51
202.0882898349403
  0
ARC
  5
6519
  8
AM_0
 10
161.04071296682429
 20
191.8181109062277
 30
0.0
 40
0.1000000000000547
 50
288.4639767572973
 51
344.99980499348823
  0
ARC
  5
651A
  8
AM_0
 10
161.39514245390029
 20
192.36811090622871
 30
0.0
 40
0.1000000000000014
 50
90.0
 51
164.9998049934859
  0
ARC
  5
651B
  8
AM_0
 10
151.80657127578431
 20
191.0681109062258
 30
0.0
 40
0.499999999999975
 50
219.8055710921862
 51
270.0
  0
ARC
  5
651C
  8
AM_0
 10
149.57238380279429
 20
193.74913587381869
 30
0.0
 40
0.5
 50
180.00000000000981
 51
219.80557109222789
  0
ARC
  5
651D
  8
AM_0
 10
160.27238380279431
 20
191.8106062181958
 30
0.0
 40
0.3000000000000007
 50
0.0
 51
90.0
  0
ARC
  5
651E
  8
AM_0
 10
160.27238380279431
 20
191.4054953609058
 30
0.0
 40
0.3000000000000043
 50
270.0
 51
0.0
  0
ARC
  5
651F
  8
AM_0
 10
160.27238380279431
 20
195.1842064035967
 30
0.0
 40
0.3000000000000007
 50
0.0
 51
90.0
  0
ARC
  5
6520
  8
AM_0
 10
160.27238380279431
 20
194.38429013730479
 30
0.0
 40
0.2999999999999971
 50
270.0
 51
0.0
  0
ARC
  5
6521
  8
AM_0
 10
160.27238380279431
 20
198.61811090622871
 30
0.0
 40
0.2999999999999971
 50
270.0
 51
0.0
  0
ARC
  5
6522
  8
AM_0
 10
160.27238380279431
 20
190.53960717486279
 30
0.0
 40
0.3000000000000302
 50
275.71059313755632
 51
0.0
  0
ARC
  5
6523
  8
AM_0
 10
157.77238380279431
 20
190.26811090622769
 30
0.0
 40
0.1999999999999993
 50
180.0
 51
270.0
  0
ARC
  5
6524
  8
AM_0
 10
160.8723838027953
 20
190.7681109062288
 30
0.0
 40
0.1999999999999957
 50
270.0
 51
0.0
  0
ARC
  5
6525
  8
AM_0
 10
157.3723838027953
 20
190.3681109062278
 30
0.0
 40
0.1999999999999993
 50
359.99999999997061
 51
90.0
  0
ARC
  5
6526
  8
AM_0
 10
162.89514245390029
 20
192.36811090622871
 30
0.0
 40
0.1000000000000014
 50
90.0
 51
164.9998049934859
  0
ARC
  5
6527
  8
AM_0
 10
162.54071296682429
 20
191.8181109062277
 30
0.0
 40
0.1000000000000014
 50
270.0
 51
344.99980499348823
  0
ARC
  5
6528
  8
AM_0
 10
162.14514245390029
 20
191.8181109062277
 30
0.0
 40
0.1000000000000311
 50
195.00019500644621
 51
270.0
  0
ARC
  5
6529
  8
AM_0
 10
164.69738380279429
 20
191.96811090622771
 30
0.0
 40
0.5
 50
359.99999999997721
 51
90.0
  0
ARC
  5
652A
  8
AM_0
 10
168.9973838027943
 20
197.17984859771769
 30
0.0
 40
0.1999999999999993
 50
0.0
 51
90.0
  0
ARC
  5
652B
  8
AM_0
 10
168.9973838027943
 20
192.4563732147387
 30
0.0
 40
0.2000000000000028
 50
270.0
 51
0.0
  0
ARC
  5
652C
  8
AM_0
 10
165.39738380279431
 20
190.76811090622761
 30
0.0
 40
0.1999999999999993
 50
179.99999999994131
 51
270.0
  0
ARC
  5
652D
  8
AM_0
 10
165.39738380279431
 20
207.36811090622871
 30
0.0
 40
0.2000000000000028
 50
90.0
 51
180.00000000005531
  0
ARC
  5
652E
  8
AM_0
 10
168.9973838027943
 20
205.67984859771781
 30
0.0
 40
0.1999999999999993
 50
0.0
 51
90.0
  0
ARC
  5
652F
  8
AM_0
 10
168.9973838027943
 20
200.95637321473771
 30
0.0
 40
0.2000000000000028
 50
270.0
 51
0.0
  0
ARC
  5
6530
  8
AM_0
 10
164.69738380279429
 20
206.1681109062277
 30
0.0
 40
0.5
 50
270.0
 51
0.0000000000227982
  0
ARC
  5
6531
  8
AM_0
 10
161.39911623122029
 20
206.31811090622779
 30
0.0
 40
0.1000000000000014
 50
90.0
 51
164.99980499355379
  0
ARC
  5
6532
  8
AM_0
 10
161.79468674414429
 20
206.31811090622779
 30
0.0
 40
0.0999999999999608
 50
15.00019500651408
 51
90.0
  0
ARC
  5
6533
  8
AM_0
 10
162.14911623122029
 20
205.7681109062278
 30
0.0
 40
0.0999999999999608
 50
195.0001950065141
 51
270.0
  0
ARC
  5
6534
  8
AM_0
 10
161.04468674414429
 20
205.7681109062278
 30
0.0
 40
0.0999999999999803
 50
286.0794827387204
 51
344.9998049934859
  0
ARC
  5
6535
  8
AM_0
 10
157.3723838027953
 20
207.7681109062288
 30
0.0
 40
0.1999999999999957
 50
270.0
 51
0.000000000029312
  0
ARC
  5
6536
  8
AM_0
 10
160.8723838027953
 20
207.3681109062278
 30
0.0
 40
0.1999999999999993
 50
0.0
 51
90.0
  0
ARC
  5
6537
  8
AM_0
 10
157.77238380279431
 20
207.86811090622871
 30
0.0
 40
0.2000000000000028
 50
90.0
 51
180.0
  0
ARC
  5
6538
  8
AM_0
 10
160.27238380279431
 20
207.5966146375938
 30
0.0
 40
0.3000000000000007
 50
0.0
 51
84.289406862443698
  0
ARC
  5
6539
  8
AM_0
 10
160.27238380279431
 20
199.51811090622769
 30
0.0
 40
0.3000000000000007
 50
0.0
 51
90.0
  0
ARC
  5
653A
  8
AM_0
 10
160.27238380279431
 20
203.75193167515181
 30
0.0
 40
0.3000000000000007
 50
0.0
 51
90.0
  0
ARC
  5
653B
  8
AM_0
 10
160.27238380279431
 20
202.95201540885981
 30
0.0
 40
0.2999999999999971
 50
270.0
 51
0.0
  0
ARC
  5
653C
  8
AM_0
 10
160.27238380279431
 20
206.73072645155079
 30
0.0
 40
0.3000000000000007
 50
0.0
 51
90.0
  0
ARC
  5
653D
  8
AM_0
 10
160.27238380279431
 20
206.32561559426071
 30
0.0
 40
0.3000000000000043
 50
270.0
 51
0.0
  0
ARC
  5
653E
  8
AM_0
 10
149.57238380279429
 20
204.3870859386378
 30
0.0
 40
0.5000000000000059
 50
140.19442890777211
 51
179.99999999998701
  0
ARC
  5
653F
  8
AM_0
 10
151.80657127578431
 20
207.0681109062308
 30
0.0
 40
0.5
 50
90.0
 51
140.1944289078138
  0
LINE
  5
6540
  8
AM_0
 10
169.39738380279431
 20
190.0681109062277
 30
0.0
 11
171.19738380279429
 21
190.0681109062277
 31
0.0
  0
LINE
  5
6541
  8
AM_0
 10
169.19738380279429
 20
190.26811090622761
 30
0.0
 11
169.19738380279429
 21
207.86811090622871
 31
0.0
  0
LINE
  5
6542
  8
AM_0
 10
171.19738380279429
 20
208.0681109062277
 30
0.0
 11
169.39738380279431
 21
208.06811090622779
 31
0.0
  0
ARC
  5
6543
  8
AM_0
 10
169.39738380279431
 20
190.26811090622761
 30
0.0
 40
0.1999999999999993
 50
180.0
 51
270.0
  0
ARC
  5
6544
  8
AM_0
 10
169.39738380279431
 20
207.86811090622871
 30
0.0
 40
0.2000000000000028
 50
90.0
 51
180.0
  0
LINE
  5
6545
  8
ﾁｭｳｼﾝｾﾝ1
 10
141.19738380279429
 20
234.0681109062277
 30
0.0
 11
174.49532994128461
 21
234.0681109062277
 31
0.0
  0
POLYLINE
  5
6546
  8
AM_0
 66
     1
 10
0.0
 20
0.0
 30
0.0
  0
VERTEX
  5
6547
  8
AM_0
  6
CONTINUOUS
 10
165.560629549487
 20
222.0681109062279
 30
0.0
  0
VERTEX
  5
6548
  8
AM_0
  6
CONTINUOUS
 10
165.5655538027944
 20
215.3356339062278
 30
0.0
 42
-1.0
  0
SEQEND
  5
6549
  8
AM_0
  0
LINE
  5
654A
  8
AM_0
 10
171.19738380279429
 20
215.06811190622761
 30
0.0
 11
165.5627938027942
 21
215.06811190622781
 31
0.0
  0
LINE
  5
654B
  8
AM_0
 10
171.19738380279429
 20
213.0681109062277
 30
0.0
 11
165.5627938027942
 21
213.0681109062277
 31
0.0
  0
ARC
  5
654C
  8
AM_0
 10
164.46629380279421
 20
214.06420390622779
 30
0.0
 40
1.26892095
 50
90.00000299999769
 51
270.0
  0
ARC
  5
654D
  8
AM_0
 10
165.74675380279419
 20
214.0681099062279
 30
0.0
 40
1.0000000199999981
 50
90.00000299999769
 51
270.0
  0
LINE
  5
654E
  8
AM_0
 10
164.46629380279421
 20
215.33312590622771
 30
0.0
 11
171.19738380279429
 21
215.33312590622771
 31
0.0
  0
LINE
  5
654F
  8
AM_0
 10
164.46629380279421
 20
212.79528190622781
 30
0.0
 11
171.19738380279429
 21
212.79528190622781
 31
0.0
  0
POLYLINE
  5
6550
  8
AM_0
 66
     1
 10
0.0
 20
0.0
 30
0.0
  0
VERTEX
  5
6551
  8
AM_0
 10
165.60614380279421
 20
212.79877990622791
 30
0.0
  0
VERTEX
  5
6552
  8
AM_0
 10
165.81691484770121
 20
207.5681109062277
 30
0.0
 42
-1.0
  0
SEQEND
  5
6553
  8
AM_0
  0
LINE
  5
6554
  8
AM_0
 10
147.69739380279509
 20
271.12951441499968
 30
0.0
 11
147.69739380279481
 21
245.0681109062279
 31
0.0
  0
LINE
  5
6555
  8
AM_0
 10
138.69739380279429
 20
273.06811090622762
 30
0.0
 11
138.6973938027941
 21
202.06811090622759
 31
0.0
  0
LINE
  5
6556
  8
AM_0
 10
138.69739380279429
 20
196.0681109062277
 30
0.0
 11
138.69739380279429
 21
165.0681109062277
 31
0.0
  0
LINE
  5
6557
  8
AM_0
 10
138.69739380279429
 20
273.06811090622779
 30
0.0
 11
155.69739380279429
 21
272.06811090622767
 31
0.0
  0
LINE
  5
6558
  8
AM_0
 10
138.69739380279429
 20
165.06811090622779
 30
0.0
 11
155.69739380279429
 21
166.06811090622779
 31
0.0
  0
LINE
  5
6559
  8
AM_0
 10
147.69739380279501
 20
262.66201410431921
 30
0.0
 11
155.69739380279421
 21
262.66201410431921
 31
0.0
  0
LINE
  5
655A
  8
AM_0
 10
147.69739380279509
 20
271.12951441499968
 30
0.0
 11
155.69739380279429
 21
271.12951441499968
 31
0.0
  0
LINE
  5
655B
  8
AM_0
 10
144.19739380279481
 20
253.7089838714877
 30
0.0
 11
147.69739380279501
 21
253.7089838714877
 31
0.0
  0
LINE
  5
655C
  8
AM_0
 10
144.19739380279481
 20
262.20898387148787
 30
0.0
 11
147.69739380279501
 21
262.20898387148787
 31
0.0
  0
LINE
  5
655D
  8
AM_0
 10
143.69739380279501
 20
261.70898387148787
 30
0.0
 11
143.69739380279501
 21
254.2089838714877
 31
0.0
  0
ARC
  5
655E
  8
AM_0
 10
144.19739380279481
 20
261.70898387148787
 30
0.0
 40
0.5
 50
90.0
 51
180.0
  0
ARC
  5
655F
  8
AM_0
 10
144.19739380279481
 20
254.2089838714877
 30
0.0
 40
0.5
 50
180.0
 51
270.0
  0
LINE
  5
6560
  8
AM_0
 10
138.69739380279429
 20
261.34030539936782
 30
0.0
 11
143.69739380279501
 21
261.34030539936788
 31
0.0
  0
LINE
  5
6561
  8
AM_0
 10
138.69739380279429
 20
251.6052229010719
 30
0.0
 11
147.69739380279501
 21
251.6052229010719
 31
0.0
  0
LINE
  5
6562
  8
AM_0
 10
147.69739380279509
 20
167.0067073974555
 30
0.0
 11
147.69739380279481
 21
194.78139751461961
 31
0.0
  0
LINE
  5
6563
  8
AM_0
 10
147.69739380279501
 20
175.4742077081363
 30
0.0
 11
155.69739380279421
 21
175.4742077081363
 31
0.0
  0
LINE
  5
6564
  8
AM_0
 10
147.69739380279509
 20
167.0067073974555
 30
0.0
 11
155.69739380279429
 21
167.0067073974555
 31
0.0
  0
LINE
  5
6565
  8
AM_0
 10
144.19739380279481
 20
184.42723794096759
 30
0.0
 11
147.69739380279501
 21
184.42723794096759
 31
0.0
  0
LINE
  5
6566
  8
AM_0
 10
144.19739380279481
 20
175.92723794096759
 30
0.0
 11
147.69739380279501
 21
175.92723794096759
 31
0.0
  0
LINE
  5
6567
  8
AM_0
 10
143.69739380279501
 20
176.42723794096759
 30
0.0
 11
143.69739380279501
 21
183.92723794096759
 31
0.0
  0
ARC
  5
6568
  8
AM_0
 10
144.19739380279481
 20
176.42723794096759
 30
0.0
 40
0.5
 50
180.0
 51
270.0
  0
ARC
  5
6569
  8
AM_0
 10
144.19739380279481
 20
183.92723794096759
 30
0.0
 40
0.5
 50
90.0
 51
180.0
  0
LINE
  5
656A
  8
AM_0
 10
138.69739380279429
 20
176.79591641308761
 30
0.0
 11
143.69739380279501
 21
176.7959164130875
 31
0.0
  0
LINE
  5
656B
  8
AM_0
 10
138.69739380279429
 20
186.53099891138351
 30
0.0
 11
147.69739380279501
 21
186.53099891138351
 31
0.0
  0
LINE
  5
656C
  8
AM_0
 10
103.78680905145841
 20
255.05852175115371
 30
0.0
 11
103.78680905145841
 21
248.5469168521951
 31
0.0
  0
LINE
  5
656D
  8
AM_0
 10
100.697393802794
 20
208.0681109062277
 30
0.0
 11
100.697393802794
 21
202.5681109062277
 31
0.0
  0
LINE
  5
656E
  8
AM_0
 10
106.197393802794
 20
215.5681109062277
 30
0.0
 11
106.197393802794
 21
222.56811090622759
 31
0.0
  0
LINE
  5
656F
  8
AM_0
 10
117.8973938027941
 20
202.5681109062277
 30
0.0
 11
100.697393802794
 21
202.5681109062277
 31
0.0
  0
LINE
  5
6570
  8
AM_0
 10
132.69739380279401
 20
165.06811090622759
 30
0.0
 11
132.69739380279401
 21
195.7764481884152
 31
0.0
  0
LINE
  5
6571
  8
AM_0
 10
132.69739380279401
 20
201.50633939995069
 30
0.0
 11
132.69739380279401
 21
273.06811090622779
 31
0.0
  0
LINE
  5
6572
  8
AM_0
 10
100.697393802794
 20
217.5681109062277
 30
0.0
 11
101.5973938027939
 21
217.5681109062277
 31
0.0
  0
LINE
  5
6573
  8
AM_0
 10
118.197393802794
 20
210.5681109062277
 30
0.0
 11
118.197393802794
 21
213.1526205908317
 31
0.0
  0
LINE
  5
6574
  8
AM_0
 10
98.497393802793795
 20
220.5681109062277
 30
0.0
 11
98.497393802793795
 21
217.5681109062277
 31
0.0
  0
LINE
  5
6575
  8
AM_0
 10
101.5973938027939
 20
217.29575917164411
 30
0.0
 11
101.597393802794
 21
220.8404626408115
 31
0.0
  0
LINE
  5
6576
  8
AM_0
 10
98.197393802793954
 20
220.26811090622769
 30
0.0
 11
101.5973938027941
 21
220.26811090622769
 31
0.0
  0
LINE
  5
6577
  8
AM_0
 10
105.5973938027939
 20
216.68654104582049
 30
0.0
 11
105.5973938027939
 21
215.5681109062277
 31
0.0
  0
LINE
  5
6578
  8
AM_0
 10
105.5973938027939
 20
217.5681109062277
 30
0.0
 11
105.5973938027939
 21
217.46811090622771
 31
0.0
  0
LINE
  5
6579
  8
AM_0
 10
105.5973938027939
 20
217.46811090622771
 30
0.0
 11
105.5973938027939
 21
216.68654104582049
 31
0.0
  0
LINE
  5
657A
  8
AM_0
 10
100.697393802794
 20
202.5681109062277
 30
0.0
 11
100.697393802794
 21
194.33057689680541
 31
0.0
  0
LINE
  5
657B
  8
AM_0
 10
118.0509471933874
 20
213.50617398142509
 30
0.0
 11
117.6958800671991
 21
213.86124110761321
 31
0.0
  0
LINE
  5
657C
  8
AM_0
 10
100.697393802794
 20
220.5681109062277
 30
0.0
 11
100.697393802794
 21
243.80564491565011
 31
0.0
  0
LINE
  5
657D
  8
AM_0
 10
132.69739380279401
 20
264.0681109062279
 30
0.0
 11
108.9273851021614
 21
264.0681109062279
 31
0.0
  0
LINE
  5
657E
  8
AM_0
 10
100.697393802794
 20
208.99451408194869
 30
0.0
 11
100.697393802794
 21
217.5681109062277
 31
0.0
  0
LINE
  5
657F
  8
AM_0
 10
138.69739380279429
 20
273.06811090622779
 30
0.0
 11
132.69739380279401
 21
273.06811090622779
 31
0.0
  0
LINE
  5
6580
  8
AM_0
 10
132.69739380279401
 20
165.06811090622759
 30
0.0
 11
138.69739380279401
 21
165.06811090622759
 31
0.0
  0
LINE
  5
6581
  8
AM_0
 10
132.69739380279401
 20
174.06811090622759
 30
0.0
 11
123.197393802794
 21
174.06811090622759
 31
0.0
  0
LINE
  5
6582
  8
AM_0
 10
100.74297054375729
 20
244.32658944865079
 30
0.0
 11
103.3124139914197
 21
258.89862735991449
 31
0.0
  0
LINE
  5
6583
  8
AM_0
 10
100.697393802794
 20
208.99451408194869
 30
0.0
 11
100.697393802794
 21
208.0681109062277
 31
0.0
  0
LINE
  5
6584
  8
AM_0
 10
123.197393802794
 20
174.13673335661349
 30
0.0
 11
120.6346065038969
 21
174.13673335661349
 31
0.0
  0
LINE
  5
6585
  8
AM_0
 10
106.74123231049521
 20
174.06811090622759
 30
0.0
 11
107.697393802794
 21
174.06811090622759
 31
0.0
  0
LINE
  5
6586
  8
AM_0
 10
100.74297054375729
 20
193.8096323638045
 30
0.0
 11
103.78680905145841
 21
176.5471663732269
 31
0.0
  0
LINE
  5
6587
  8
AM_0
 10
100.697393802794
 20
194.0681109062277
 30
0.0
 11
100.74297054375729
 21
193.8096323638045
 31
0.0
  0
LINE
  5
6588
  8
AM_0
 10
100.697393802794
 20
194.33057689680541
 30
0.0
 11
100.697393802794
 21
194.0681109062277
 31
0.0
  0
LINE
  5
6589
  8
AM_0
 10
111.74739380279409
 20
190.06705451785561
 30
0.0
 11
116.6473938027941
 21
190.06705451785561
 31
0.0
  0
LINE
  5
658A
  8
AM_0
 10
111.74739380279409
 20
188.8540341994231
 30
0.0
 11
116.6473938027941
 21
188.8540341994231
 31
0.0
  0
LINE
  5
658B
  8
AM_0
 10
110.9473938027941
 20
189.2670545178556
 30
0.0
 11
110.9473938027941
 21
183.6259230974093
 31
0.0
  0
LINE
  5
658C
  8
AM_0
 10
110.9473938027941
 20
181.79451722847651
 30
0.0
 11
110.9473938027941
 21
183.6259230974093
 31
0.0
  0
LINE
  5
658D
  8
AM_0
 10
107.0973938027939
 20
175.10482056855361
 30
0.0
 11
107.0973938027939
 21
181.7273849466807
 31
0.0
  0
LINE
  5
658E
  8
AM_0
 10
117.447393802794
 20
189.2670545178556
 30
0.0
 11
117.447393802794
 21
187.5016789118541
 31
0.0
  0
LINE
  5
658F
  8
AM_0
 10
121.29739380279401
 20
181.7273849466807
 30
0.0
 11
121.29739380279401
 21
175.10482056855361
 31
0.0
  0
LINE
  5
6590
  8
AM_0
 10
112.83255840156779
 20
179.50854952836269
 30
0.0
 11
107.697393802794
 21
177.71853427313829
 31
0.0
  0
LINE
  5
6591
  8
AM_0
 10
120.697393802794
 20
177.71853427313829
 30
0.0
 11
119.0573575766481
 21
178.2902179665146
 31
0.0
  0
LINE
  5
6592
  8
AM_0
 10
111.68702039742099
 20
177.52441950317959
 30
0.0
 11
107.697393802794
 21
176.13371579161071
 31
0.0
  0
LINE
  5
6593
  8
AM_0
 10
120.697393802794
 20
176.13371579161071
 30
0.0
 11
118.29565658762461
 21
176.97091315335061
 31
0.0
  0
LINE
  5
6594
  8
AM_0
 10
120.697393802794
 20
177.71853427313829
 30
0.0
 11
120.697393802794
 21
174.8493931242935
 31
0.0
  0
LINE
  5
6595
  8
AM_0
 10
120.697393802794
 20
174.8493931242935
 30
0.0
 11
120.697393802794
 21
172.83015050617291
 31
0.0
  0
LINE
  5
6596
  8
AM_0
 10
114.1973515409679
 20
170.5643663069572
 30
0.0
 11
120.697393802794
 21
172.83015050617291
 31
0.0
  0
LINE
  5
6597
  8
AM_0
 10
107.697393802794
 20
172.83015050617291
 30
0.0
 11
107.697393802794
 21
174.8493931242935
 31
0.0
  0
LINE
  5
6598
  8
AM_0
 10
107.697393802794
 20
172.83015050617291
 30
0.0
 11
114.1973515409679
 21
170.5643957702051
 31
0.0
  0
LINE
  5
6599
  8
AM_0
 10
107.697393802794
 20
174.8493931242935
 30
0.0
 11
107.697393802794
 21
177.71853427313829
 31
0.0
  0
LINE
  5
659A
  8
AM_0
 10
100.1973551347871
 20
272.56811090622762
 30
0.0
 11
100.19733268238831
 21
299.56811090622762
 31
0.0
  0
LINE
  5
659B
  8
AM_0
 10
100.19733268238831
 20
299.56811090622762
 30
0.0
 11
108.19733268239111
 21
299.56811090622762
 31
0.0
  0
LINE
  5
659C
  8
AM_0
 10
108.19733268239111
 20
299.56811090622762
 30
0.0
 11
109.697328027212
 21
305.16616974421618
 31
0.0
  0
LINE
  5
659D
  8
AM_0
 10
109.697328027212
 20
305.16616974421618
 30
0.0
 11
109.6973132638516
 21
322.91976202410672
 31
0.0
  0
LINE
  5
659E
  8
AM_0
 10
100.19733268238831
 20
299.56811090622762
 30
0.0
 11
98.697328027179395
 21
305.16620449105761
 31
0.0
  0
LINE
  5
659F
  8
AM_0
 10
98.697328027179395
 20
305.16620449105761
 30
0.0
 11
98.697313263855463
 21
322.91975287683317
 31
0.0
  0
LINE
  5
65A0
  8
AM_0
 10
104.1973551347884
 20
322.91975287683317
 30
0.0
 11
104.1973551347884
 21
305.16620449105761
 31
0.0
  0
LINE
  5
65A2
  8
AM_0
 10
108.19733268239111
 20
299.56811090622762
 30
0.0
 11
108.1973551347898
 21
272.56811090622762
 31
0.0
  0
LINE
  5
65A3
  8
AM_0
 10
118.197393802794
 20
248.5469168521951
 30
0.0
 11
118.197393802794
 21
202.86811090622771
 31
0.0
  0
LINE
  5
65A4
  8
AM_0
 10
106.197393802794
 20
213.1526205908317
 30
0.0
 11
106.197393802794
 21
210.5681109062277
 31
0.0
  0
LINE
  5
65A5
  8
AM_0
 10
106.69890753838899
 20
213.86124110761321
 30
0.0
 11
106.34384041220081
 21
213.50617398142509
 31
0.0
  0
LINE
  5
65A6
  8
AM_0
 10
117.697393802794
 20
210.0681109062277
 30
0.0
 11
106.697393802794
 21
210.0681109062277
 31
0.0
  0
LINE
  5
65A7
  8
AM_0
 10
97.697355966293131
 20
271.56810550102063
 30
0.0
 11
97.697382992328585
 21
266.56810550102063
 31
0.0
  0
LINE
  5
65A8
  8
AM_0
 10
110.6973559664245
 20
271.56811631143461
 30
0.0
 11
110.6973818942442
 21
266.771293658064
 31
0.0
  0
LINE
  5
65A9
  8
AM_0
 10
101.3178970548749
 20
264.56811090622762
 30
0.0
 11
100.74633515350951
 21
265.224694728288
 31
0.0
  0
LINE
  5
65AA
  8
AM_0
 10
98.697382992314047
 20
265.56811090622762
 30
0.0
 11
109.6973818942442
 21
265.56811090622762
 31
0.0
  0
LINE
  5
65AB
  8
AM_0
 10
110.6973818942442
 20
266.771293658064
 30
0.0
 11
110.6973818942442
 21
266.56811090622762
 31
0.0
  0
LINE
  5
65AC
  8
AM_0
 10
110.6973818942442
 20
266.771293658064
 30
0.0
 11
110.69738299246001
 21
266.56811631143472
 31
0.0
  0
LINE
  5
65AD
  8
AM_0
 10
98.69735596627855
 20
272.56811090622762
 30
0.0
 11
109.6973559664393
 21
272.56811090622762
 31
0.0
  0
LINE
  5
65AE
  8
AM_0
 10
108.7048297649562
 20
264.59869797651322
 30
0.0
 11
115.8276294983017
 21
247.61745865776641
 31
0.0
  0
LINE
  5
65AF
  8
AM_0
 10
101.3178970548749
 20
264.56811090622762
 30
0.0
 11
107.8946121301851
 21
245.8735702758255
 31
0.0
  0
LINE
  5
65B0
  8
AM_0
 10
105.5973938027939
 20
217.5681109062277
 30
0.0
 11
105.5973938027939
 21
217.46811090622771
 31
0.0
  0
LINE
  5
65B1
  8
AM_0
 10
105.5973938027939
 20
217.46811090622771
 30
0.0
 11
105.5973938027939
 21
216.68654104582049
 31
0.0
  0
LINE
  5
65B2
  8
AM_0
 10
105.5973938027939
 20
215.5681109062277
 30
0.0
 11
106.197393802794
 21
215.5681109062277
 31
0.0
  0
LINE
  5
65B3
  8
AM_0
 10
102.8973938027941
 20
216.68654104582049
 30
0.0
 11
102.8973938027941
 21
221.449680766635
 31
0.0
  0
LINE
  5
65B4
  8
AM_0
 10
102.7363495735365
 20
216.39984941747761
 30
0.0
 11
101.80379652402939
 21
216.93825917164409
 31
0.0
  0
LINE
  5
65B5
  8
AM_0
 10
105.5973938027939
 20
222.56811090622759
 30
0.0
 11
105.5973938027939
 21
217.5681109062277
 31
0.0
  0
LINE
  5
65B6
  8
AM_0
 10
103.16984539482451
 20
215.89268442568479
 30
0.0
 11
105.3249422107634
 21
215.89268442568479
 31
0.0
  0
LINE
  5
65B7
  8
AM_0
 10
103.16984539482451
 20
217.4803976659563
 30
0.0
 11
105.3249422107634
 21
217.4803976659563
 31
0.0
  0
LINE
  5
65B8
  8
AM_0
 10
101.5973938027941
 20
220.5681109062277
 30
0.0
 11
98.497393802793795
 21
220.5681109062277
 31
0.0
  0
LINE
  5
65B9
  8
AM_0
 10
98.497393802793795
 20
220.5681109062277
 30
0.0
 11
98.197393802793954
 21
220.26811090622769
 31
0.0
  0
LINE
  5
65BA
  8
AM_0
 10
98.197393802793954
 20
220.26811090622769
 30
0.0
 11
98.197393802793854
 21
217.8681109062278
 31
0.0
  0
LINE
  5
65BB
  8
AM_0
 10
98.497393802793795
 20
217.5681109062277
 30
0.0
 11
100.697393802794
 21
217.5681109062277
 31
0.0
  0
LINE
  5
65BC
  8
AM_0
 10
98.197393802793954
 20
217.8681109062278
 30
0.0
 11
98.497393802793795
 21
217.5681109062277
 31
0.0
  0
LINE
  5
65BD
  8
AM_0
 10
101.5973938027939
 20
217.8681109062278
 30
0.0
 11
98.197393802793954
 21
217.8681109062278
 31
0.0
  0
ARC
  5
65BE
  8
AM_0
 10
100.197393802794
 20
219.0681109062277
 30
0.0
 40
18.000000000000082
 50
344.79096035988778
 51
15.209039640109051
  0
ARC
  5
65BF
  8
AM_0
 10
104.3046169867675
 20
216.68654104582049
 30
0.0
 40
1.292776816026465
 50
322.11555894630823
 51
0.0
  0
ARC
  5
65C0
  8
AM_0
 10
124.197393802794
 20
219.0681109062277
 30
0.0
 40
17.999999999999918
 50
164.7909603598878
 51
195.2090396401122
  0
ARC
  5
65C1
  8
AM_0
 10
111.5012066538625
 20
175.8185229998931
 30
0.0
 40
6.001601094213977
 50
95.294644622328306
 51
137.203637805271
  0
ARC
  5
65C2
  8
AM_0
 10
111.5012066538625
 20
177.6499288688259
 30
0.0
 40
6.0016010942139628
 50
95.294644622328306
 51
137.203637805271
  0
ARC
  5
65C3
  8
AM_0
 10
107.9671254879912
 20
176.31540865697741
 30
0.0
 40
1.4906229315522701
 50
234.3051223779035
 51
259.5747650501786
  0
ARC
  5
65C4
  8
AM_0
 10
116.8935809517256
 20
177.6499288688259
 30
0.0
 40
6.0016010942138758
 50
42.796362194728943
 51
44.995924864879747
  0
ARC
  5
65C5
  8
AM_0
 10
116.8935809517256
 20
175.8185229998931
 30
0.0
 40
6.0016010942138758
 50
42.796362194728943
 51
53.897278316401213
  0
ARC
  5
65C6
  8
AM_0
 10
120.427662117597
 20
176.31540865697741
 30
0.0
 40
1.490622931552253
 50
280.42523494982129
 51
305.6948776220961
  0
ARC
  5
65C7
  8
AM_0
 10
104.197320208835
 20
314.56811090622767
 30
0.0
 40
10.0
 50
56.63303467623421
 51
123.3670606147017
  0
ARC
  5
65C8
  8
AM_0
 10
101.4473341993218
 20
318.48710451722718
 30
0.0
 40
5.2164151124522951
 50
58.184480448431877
 51
121.8155195515681
  0
ARC
  5
65C9
  8
AM_0
 10
106.9473415729564
 20
318.48622962646721
 30
0.0
 40
5.217140387381062
 50
58.190058295970758
 51
121.8101322873589
  0
ARC
  5
65CA
  8
AM_0
 10
101.4473415809839
 20
306.5341585054004
 30
0.0
 40
3.0714610092699122
 50
206.44737672421971
 51
333.55262327578032
  0
ARC
  5
65CB
  8
AM_0
 10
106.9473502123551
 20
306.5324183007051
 30
0.0
 40
3.070669812974502
 50
206.41845794672921
 51
333.58081810520508
  0
ARC
  5
65CC
  8
AM_0
 10
107.6598236788536
 20
219.0681109062277
 30
0.0
 40
4.762429876059711
 50
160.52575999458611
 51
199.4742400054138
  0
ARC
  5
65CD
  8
AM_0
 10
104.1901706188205
 20
216.68654104582049
 30
0.0
 40
1.292776816026556
 50
142.11555894629831
 51
217.8844410536918
  0
ARC
  5
65CE
  8
AM_0
 10
100.8349639267344
 20
219.0681109062277
 30
0.0
 40
4.762429876059584
 50
340.52575999458628
 51
19.474240005411509
  0
ARC
  5
65CF
  8
AM_0
 10
104.3046169867675
 20
216.68654104582049
 30
0.0
 40
1.2927768160265021
 50
0.0
 51
37.884441053701622
  0
ARC
  5
65D0
  8
AM_0
 10
113.9299419600904
 20
184.14321608081431
 30
8206336.7530117426
 40
12.9134744604336
 50
271.18655406403423
 51
287.92670513354869
  0
LINE
  5
65D1
  8
AM_0
 10
117.904710889489
 20
171.85667732499871
 30
8206336.7530117426
 11
118.3172916566902
 21
172.0099190103914
 31
8206336.7530117426
  0
LINE
  5
65D2
  8
AM_0
 10
118.3172916566902
 20
172.0099190103914
 30
8206336.7530117426
 11
118.7197834009466
 21
172.1888883730972
 31
8206336.7530117426
  0
ARC
  5
65D3
  8
AM_0
 10
116.2160217601909
 20
177.47368893681951
 30
8206336.7530117426
 40
5.8479004225482916
 50
295.35002817212552
 51
303.56705104006159
  0
LINE
  5
65D4
  8
AM_0
 10
119.4493988362008
 20
172.60098824455719
 30
8206336.7530117426
 11
119.76394171545191
 21
172.8332616997277
 31
8206336.7530117426
  0
LINE
  5
65D5
  8
AM_0
 10
119.76394171545191
 20
172.8332616997277
 30
8206336.7530117426
 11
120.0531308636493
 21
173.09613257576629
 31
8206336.7530117426
  0
ARC
  5
65D6
  8
AM_0
 10
118.1742479002712
 20
174.9618169659737
 30
8206336.7530117426
 40
2.647825416060579
 50
315.20195107610181
 51
327.66908745373388
  0
LINE
  5
65D7
  8
AM_0
 10
120.411589980117
 20
173.54573792450481
 30
8206336.7530117426
 11
120.5405059363963
 21
173.7852696897408
 31
8206336.7530117426
  0
LINE
  5
65D8
  8
AM_0
 10
120.5405059363963
 20
173.7852696897408
 30
8206336.7530117426
 11
120.6346065038969
 21
174.03992867822521
 31
8206336.7530117426
  0
ARC
  5
65D9
  8
AM_0
 10
119.035786264948
 20
174.4950173428285
 30
8206336.7530117426
 40
1.6623272388802151
 50
344.11151119415172
 51
352.55958186686132
  0
LINE
  5
65DA
  8
AM_0
 10
120.684116807276
 20
174.27975407993389
 30
8206336.7530117426
 11
120.69402147171689
 21
174.38061983365461
 31
8206336.7530117426
  0
LINE
  5
65DB
  8
AM_0
 10
120.69402147171689
 20
174.38061983365461
 30
8206336.7530117426
 11
120.697393802794
 21
174.48191854739321
 31
8206336.7530117426
  0
ARC
  5
65DC
  8
AM_0
 10
119.1023003841246
 20
174.47894239589499
 30
8206336.7530117426
 40
1.595096195143147
 50
0.1069032823798332
 51
11.47976002760999
  0
LINE
  5
65DD
  8
AM_0
 10
120.66548679318301
 20
174.79640124723679
 30
8206336.7530117426
 11
120.62485488299779
 21
174.95697512276121
 31
8206336.7530117426
  0
LINE
  5
65DE
  8
AM_0
 10
120.62485488299779
 20
174.95697512276121
 30
8206336.7530117426
 11
120.5692148184641
 21
175.1129434161839
 31
8206336.7530117426
  0
ARC
  5
65DF
  8
AM_0
 10
118.69374052481039
 20
174.33756063479899
 30
8206336.7530117426
 40
2.029438908620818
 50
22.461811304462358
 51
32.14428943579172
  0
LINE
  5
65E0
  8
AM_0
 10
120.4120885678071
 20
175.41733018750611
 30
8206336.7530117426
 11
120.28979982127269
 21
175.5946407802281
 31
8206336.7530117426
  0
LINE
  5
65E1
  8
AM_0
 10
120.28979982127269
 20
175.5946407802281
 30
8206336.7530117426
 11
120.1529462209346
 21
175.76102270261751
 31
8206336.7530117426
  0
ARC
  5
65E2
  8
AM_0
 10
117.6547882347506
 20
173.51801101680471
 30
8206336.7530117426
 40
3.357364255874967
 50
41.919595935553367
 51
50.918621528346122
  0
LINE
  5
65E3
  8
AM_0
 10
119.77134973975799
 20
176.12416951968751
 30
8206336.7530117426
 11
119.3522111223578
 21
176.4268659973132
 31
8206336.7530117426
  0
LINE
  5
65E4
  8
AM_0
 10
119.3522111223578
 20
176.4268659973132
 30
8206336.7530117426
 11
118.90305744246029
 21
176.68421769856769
 31
8206336.7530117426
  0
ARC
  5
65E5
  8
AM_0
 10
115.5718317594328
 20
170.1566074042982
 30
8206336.7530117426
 40
7.3284896605723491
 50
62.963482965305928
 51
68.223671679106289
  0
ARC
  5
65E6
  8
AM_0
 10
114.46484564551341
 20
184.1432160808674
 30
8206336.7530117426
 40
12.91347446048893
 50
252.07329486645801
 51
268.8130708325474
  0
LINE
  5
65E7
  8
AM_0
 10
110.4900767160991
 20
171.85667732499871
 30
8206336.7530117426
 11
110.07749594889791
 21
172.0099190103914
 31
8206336.7530117426
  0
LINE
  5
65E8
  8
AM_0
 10
110.07749594889791
 20
172.0099190103914
 30
8206336.7530117426
 11
109.6750042046412
 21
172.1888883730972
 31
8206336.7530117426
  0
ARC
  5
65E9
  8
AM_0
 10
112.1787658454022
 20
177.47368893682801
 30
8206336.7530117426
 40
5.8479004225582418
 50
236.43294895995331
 51
244.64997182786749
  0
LINE
  5
65EA
  8
AM_0
 10
108.94538876938731
 20
172.60098824455719
 30
8206336.7530117426
 11
108.6308458901362
 21
172.8332616997277
 31
8206336.7530117426
  0
LINE
  5
65EB
  8
AM_0
 10
108.6308458901362
 20
172.8332616997277
 30
8206336.7530117426
 11
108.34165674193881
 21
173.09613257576629
 31
8206336.7530117426
  0
ARC
  5
65EC
  8
AM_0
 10
110.2205397053167
 20
174.96181696597321
 30
8206336.7530117426
 40
2.6478254160599781
 50
212.3309125462558
 51
224.79804892389021
  0
LINE
  5
65ED
  8
AM_0
 10
107.98319762547111
 20
173.54573792450481
 30
8206336.7530117426
 11
107.85428166919171
 21
173.7852696897408
 31
8206336.7530117426
  0
LINE
  5
65EE
  8
AM_0
 10
107.85428166919171
 20
173.7852696897408
 30
8206336.7530117426
 11
107.760181101691
 21
174.03992867822521
 31
8206336.7530117426
  0
ARC
  5
65EF
  8
AM_0
 10
109.35900134066971
 20
174.49501734283501
 30
8206336.7530117426
 40
1.6623272389105701
 50
187.4404181332275
 51
195.88848880578911
  0
LINE
  5
65F0
  8
AM_0
 10
107.71067079831199
 20
174.27975407993389
 30
8206336.7530117426
 11
107.7007661338712
 21
174.38061983365461
 31
8206336.7530117426
  0
LINE
  5
65F1
  8
AM_0
 10
107.7007661338712
 20
174.38061983365461
 30
8206336.7530117426
 11
107.697393802794
 21
174.48191854739321
 31
8206336.7530117426
  0
ARC
  5
65F2
  8
AM_0
 10
109.2924872214605
 20
174.47894239589499
 30
8206336.7530117426
 40
1.5950961951403351
 50
168.52023997236881
 51
179.8930967176201
  0
LINE
  5
65F3
  8
AM_0
 10
107.7293008124049
 20
174.79640124723679
 30
8206336.7530117426
 11
107.7699327225903
 21
174.95697512276121
 31
8206336.7530117426
  0
LINE
  5
65F4
  8
AM_0
 10
107.7699327225903
 20
174.95697512276121
 30
8206336.7530117426
 11
107.8255727871237
 21
175.1129434161839
 31
8206336.7530117426
  0
ARC
  5
65F5
  8
AM_0
 10
109.70104708078721
 20
174.33756063479311
 30
8206336.7530117426
 40
2.02943890863216
 50
147.8557105642179
 51
157.538188695488
  0
LINE
  5
65F6
  8
AM_0
 10
107.9826990377807
 20
175.41733018750611
 30
8206336.7530117426
 11
108.1049877843154
 21
175.5946407802281
 31
8206336.7530117426
  0
LINE
  5
65F7
  8
AM_0
 10
108.1049877843154
 20
175.5946407802281
 30
8206336.7530117426
 11
108.2418413846535
 21
175.76102270261751
 31
8206336.7530117426
  0
ARC
  5
65F8
  8
AM_0
 10
110.73999937084611
 20
173.51801101679621
 30
8206336.7530117426
 40
3.3573642558870951
 50
129.08137847167879
 51
138.08040406443681
  0
LINE
  5
65F9
  8
AM_0
 10
108.62343786583
 20
176.12416951968751
 30
8206336.7530117426
 11
109.04257648322999
 21
176.4268659973132
 31
8206336.7530117426
  0
LINE
  5
65FA
  8
AM_0
 10
109.04257648322999
 20
176.4268659973132
 30
8206336.7530117426
 11
109.4917301631278
 21
176.68421769856769
 31
8206336.7530117426
  0
ARC
  5
65FB
  8
AM_0
 10
112.8229558461542
 20
170.15660740430221
 30
8206336.7530117426
 40
7.3284896605682359
 50
109.0382363849763
 51
117.0365170347013
  0
LINE
  5
65FC
  8
AM_0
 10
110.4324093013765
 20
177.08423671903211
 30
8206336.7530117426
 11
111.1089071959438
 21
177.29111656865049
 31
8206336.7530117426
  0
LINE
  5
65FD
  8
AM_0
 10
111.1089071959438
 20
177.29111656865049
 30
8206336.7530117426
 11
111.65569657367899
 21
177.41621789020269
 31
8206336.7530117426
  0
ARC
  5
65FE
  8
AM_0
 10
117.8973938027941
 20
202.86811090622771
 30
0.0
 40
0.2999999999999972
 50
270.0
 51
0.0
  0
ARC
  5
65FF
  8
AM_0
 10
118.0494334577922
 20
214.2147944982066
 30
0.0
 40
0.4999999999998723
 50
164.79096035990051
 51
225.00000000001839
  0
ARC
  5
6600
  8
AM_0
 10
103.6973938027941
 20
194.33057689680541
 30
0.0
 40
3.0
 50
180.0
 51
190.00000000000171
  0
ARC
  5
6601
  8
AM_0
 10
103.6973938027941
 20
243.80564491565011
 30
0.0
 40
2.999999999999992
 50
169.9999999999981
 51
180.0
  0
ARC
  5
6602
  8
AM_0
 10
106.74123231049521
 20
177.06811090622759
 30
0.0
 40
2.9999999999999631
 50
190.00000000000171
 51
270.0
  0
ARC
  5
6603
  8
AM_0
 10
111.74739380279409
 20
189.2670545178556
 30
0.0
 40
0.7999999999998977
 50
90.0
 51
180.0
  0
ARC
  5
6604
  8
AM_0
 10
111.74739380279409
 20
188.05403419942311
 30
0.0
 40
0.7999999999999972
 50
90.0
 51
180.0
  0
ARC
  5
6605
  8
AM_0
 10
116.6473938027941
 20
189.2670545178556
 30
0.0
 40
0.8000000000000112
 50
0.0
 51
90.0
  0
ARC
  5
6606
  8
AM_0
 10
116.6473938027941
 20
188.05403419942311
 30
0.0
 40
0.8000000000000112
 50
0.0
 51
90.0
  0
ARC
  5
6607
  8
AM_0
 10
106.697393802794
 20
210.5681109062277
 30
0.0
 40
0.5
 50
180.0
 51
270.0
  0
ARC
  5
6608
  8
AM_0
 10
117.697393802794
 20
210.5681109062277
 30
0.0
 40
0.5
 50
270.0
 51
0.0
  0
ARC
  5
6609
  8
AM_0
 10
117.697393802794
 20
213.1526205908317
 30
0.0
 40
0.5
 50
0.0
 51
45.0
  0
ARC
  5
660A
  8
AM_0
 10
106.3453541477956
 20
214.2147944982066
 30
0.0
 40
0.5000000000001048
 50
314.99999999998278
 51
15.20903964009948
  0
ARC
  5
660B
  8
AM_0
 10
106.697393802794
 20
213.1526205908317
 30
0.0
 40
0.499999999999984
 50
134.99999999999079
 51
180.0
  0
ARC
  5
660C
  8
AM_0
 10
98.69735596627855
 20
271.56811090622762
 30
0.0
 40
1.0
 50
90.0
 51
180.00030969555451
  0
ARC
  5
660D
  8
AM_0
 10
109.6973559664393
 20
271.56811090622762
 30
0.0
 40
0.9999999999999992
 50
0.0003096955479991
 51
90.0
  0
ARC
  5
660E
  8
AM_0
 10
98.697382992314047
 20
266.56811090622762
 30
0.0
 40
0.9999999999999992
 50
180.00030969555451
 51
270.0
  0
ARC
  5
660F
  8
AM_0
 10
109.6973818942442
 20
266.56811090622762
 30
0.0
 40
1.0
 50
270.0
 51
0.0
  0
ARC
  5
6610
  8
AM_0
 10
109.17762368132949
 20
264.96811090622771
 30
0.0
 40
0.5999999999999944
 50
90.0
 51
218.00194433773009
  0
ARC
  5
6611
  8
AM_0
 10
99.992082089473129
 20
264.56811090622762
 30
0.0
 40
0.9999999999999468
 50
41.039853109576811
 51
90.0
  0
ARC
  5
6612
  8
AM_0
 10
102.0101992452646
 20
217.29575917164411
 30
0.0
 40
0.4128054424705854
 50
180.0
 51
239.9999999999998
  0
ARC
  5
6613
  8
AM_0
 10
102.323544131066
 20
215.68484941747761
 30
0.0
 40
0.8256108849411369
 50
28.217424594177551
 51
59.999999999999851
  0
LINE
  5
6614
  8
AM_0
 10
101.4871281324256
 20
248.5469168521949
 30
0.0
 11
106.95413228219439
 21
248.5469168521949
 31
0.0
  0
LINE
  5
6615
  8
AM_0
 10
115.4377672241081
 20
248.5469168521949
 30
0.0
 11
118.197393802794
 21
248.5469168521949
 31
0.0
  0
LINE
  5
6616
  8
AM_0
 10
105.5973938027944
 20
222.56811090622759
 30
0.0
 11
106.19739380279429
 21
222.56811090622759
 31
0.0
  0
LINE
  5
6617
  8
AM_0
 10
102.7363495735367
 20
221.73637239497791
 30
0.0
 11
101.80379652402949
 21
221.19796264081151
 31
0.0
  0
LINE
  5
6618
  8
AM_0
 10
103.1698453948249
 20
222.2435373867707
 30
0.0
 11
105.3249422107636
 21
222.2435373867705
 31
0.0
  0
LINE
  5
6619
  8
AM_0
 10
103.1698453948247
 20
220.65582414649921
 30
0.0
 11
105.3249422107635
 21
220.65582414649899
 31
0.0
  0
ARC
  5
661A
  8
AM_0
 10
104.3046169867677
 20
221.4496807666348
 30
0.0
 40
1.292776816026465
 50
359.99999999999352
 51
37.88444105369058
  0
ARC
  5
661B
  8
AM_0
 10
104.1901706188207
 20
221.449680766635
 30
0.0
 40
1.292776816026556
 50
142.11555894629831
 51
217.8844410536918
  0
ARC
  5
661C
  8
AM_0
 10
104.3046169867677
 20
221.4496807666348
 30
0.0
 40
1.2927768160265021
 50
322.11555894628992
 51
359.99999999999352
  0
ARC
  5
661D
  8
AM_0
 10
102.0101992452647
 20
220.8404626408115
 30
0.0
 40
0.4128054424705854
 50
119.9999999999924
 51
179.99999999999341
  0
ARC
  5
661E
  8
AM_0
 10
102.3235441310662
 20
222.45137239497799
 30
0.0
 40
0.8256108849411369
 50
300.0
 51
331.7825754058203
  0
LINE
  5
661F
  8
AM_0
 10
118.19739380279449
 20
227.56811090622719
 30
0.0
 11
118.19739380279439
 21
224.98360122162319
 31
0.0
  0
LINE
  5
6620
  8
AM_0
 10
118.0509471933877
 20
224.63004783102991
 30
0.0
 11
117.6958800671993
 21
224.27498070484151
 31
0.0
  0
LINE
  5
6621
  8
AM_0
 10
106.19739380279439
 20
224.9836012216239
 30
0.0
 11
106.19739380279439
 21
227.56811090622799
 31
0.0
  0
LINE
  5
6622
  8
AM_0
 10
106.69890753838941
 20
224.27498070484239
 30
0.0
 11
106.3438404122012
 21
224.6300478310304
 31
0.0
  0
LINE
  5
6623
  8
AM_0
 10
117.69739380279449
 20
228.06811090622719
 30
0.0
 11
117.2168159169471
 21
228.06811090622719
 31
0.0
  0
LINE
  5
6624
  8
AM_0
 10
107.1779716886419
 20
228.06811090622779
 30
0.0
 11
106.69739380279449
 21
228.06811090622779
 31
0.0
  0
ARC
  5
6625
  8
AM_0
 10
118.0494334577927
 20
223.92142731424829
 30
0.0
 40
0.4999999999998723
 50
134.99999999997351
 51
195.20903964009699
  0
ARC
  5
6626
  8
AM_0
 10
106.69739380279449
 20
227.5681109062277
 30
0.0
 40
0.5
 50
89.999999999993477
 51
179.99999999999659
  0
ARC
  5
6627
  8
AM_0
 10
117.69739380279449
 20
227.56811090622719
 30
0.0
 40
0.5
 50
359.99999999999682
 51
89.999999999993477
  0
ARC
  5
6628
  8
AM_0
 10
117.69739380279439
 20
224.98360122162319
 30
0.0
 40
0.5
 50
314.99999999999193
 51
359.99999999999682
  0
ARC
  5
6629
  8
AM_0
 10
106.345354147796
 20
223.92142731424889
 30
0.0
 40
0.5000000000001048
 50
344.79096035989738
 51
45.000000000009209
  0
ARC
  5
662A
  8
AM_0
 10
106.69739380279439
 20
224.9836012216239
 30
0.0
 40
0.499999999999984
 50
179.99999999999659
 51
225.0000000000081
  0
LINE
  5
662B
  8
AM_0
 10
108.1779716886419
 20
244.21426230404961
 30
0.0
 11
108.1779716886419
 21
229.06811090622779
 31
0.0
  0
ARC
  5
662C
  8
AM_0
 10
107.1779716886419
 20
229.06811090622779
 30
0.0
 40
1.0
 50
269.99999999999352
 51
0.0
1001
GENIUS_GENODEF_13
1002
{
1000
HIER
1070
     0
1002
}
1002
{
1000
MANEDIT
1070
     0
1002
}
1002
{
1000
NOSEL
1070
     0
1002
}
1002
{
1000
BEHIND
1070
     0
1002
}
1002
{
1000
OTHER
1070
     0
1002
}
1002
{
1000
REACTOR
1002
}
1001
GENIUS_GENOBJ-N-FIL_13
1002
{
1000
OWNER
1000
GEN
1002
}
  0
ARC
  5
662D
  8
AM_0
 10
103.1779716886419
 20
244.21426230404961
 30
0.0
 40
5.0
 50
0.0
 51
19.38180569902201
1001
GENIUS_GENOBJ-N-FIL_13
1002
{
1000
OWNER
1000
GEN
1002
}
1001
GENIUS_GENODEF_13
1002
{
1000
HIER
1070
     0
1002
}
1002
{
1000
MANEDIT
1070
     0
1002
}
1002
{
1000
NOSEL
1070
     0
1002
}
1002
{
1000
BEHIND
1070
     0
1002
}
1002
{
1000
OTHER
1070
     0
1002
}
1002
{
1000
REACTOR
1002
}
  0
LINE
  5
662E
  8
AM_0
 10
116.2168159169473
 20
245.68344776896629
 30
0.0
 11
116.2168159169473
 21
229.06811090622719
 31
0.0
  0
ARC
  5
662F
  8
AM_0
 10
117.2168159169473
 20
229.06811090622719
 30
0.0
 40
1.0
 50
180.0
 51
269.99999999999352
1001
GENIUS_GENOBJ-N-FIL_13
1002
{
1000
OWNER
1000
GEN
1002
}
1001
GENIUS_GENODEF_13
1002
{
1000
HIER
1070
     0
1002
}
1002
{
1000
MANEDIT
1070
     0
1002
}
1002
{
1000
NOSEL
1070
     0
1002
}
1002
{
1000
BEHIND
1070
     0
1002
}
1002
{
1000
OTHER
1070
     0
1002
}
1002
{
1000
REACTOR
1002
}
  0
ARC
  5
6630
  8
AM_0
 10
111.2168159169472
 20
245.68344776896629
 30
0.0
 40
5.0
 50
0.0
 51
22.755667319206839
1001
GENIUS_GENODEF_13
1002
{
1000
HIER
1070
     0
1002
}
1002
{
1000
MANEDIT
1070
     0
1002
}
1002
{
1000
NOSEL
1070
     0
1002
}
1002
{
1000
BEHIND
1070
     0
1002
}
1002
{
1000
OTHER
1070
     0
1002
}
1002
{
1000
REACTOR
1002
}
1001
GENIUS_GENOBJ-N-FIL_13
1002
{
1000
OWNER
1000
GEN
1002
}
  0
LINE
  5
6631
  8
AM_0
 10
106.9239326494521
 20
224.0499555937796
 30
0.0
 11
117.4708549561374
 21
224.0499555937796
 31
0.0
  0
LINE
  5
6632
  8
AM_0
 10
106.9239326494518
 20
214.086266218676
 30
0.0
 11
117.47085495613619
 21
214.086266218676
 31
0.0
  0
LINE
  5
6633
  8
AM_0
 10
103.78680905145841
 20
183.0777000613017
 30
0.0
 11
103.78680905145841
 21
202.5681109062277
 31
0.0
  0
LINE
  5
6634
  8
AM_0
 10
106.74123231049521
 20
174.06811090622759
 30
0.0
 11
106.74123231049521
 21
202.5681109062277
 31
0.0
  0
LINE
  5
664F
  8
AM_0
 10
117.07569189040299
 20
174.85787231432241
 30
0.0
 11
126.4346775050676
 21
191.0681109062277
 31
0.0
  0
LINE
  5
6650
  8
AM_0
 10
111.8795394676965
 20
177.85787231432241
 30
0.0
 11
120.08382454398161
 21
192.0681109062277
 31
0.0
  0
POLYLINE
  5
6651
  8
AM_0
 66
     1
 10
0.0
 20
0.0
 30
0.0
 70
     8
  0
VERTEX
  5
706B
  8
AM_0
 10
111.88
 20
177.858
 30
0.0
 70
    32
  0
VERTEX
  5
706C
  8
AM_0
 10
111.83499999999999
 20
177.779
 30
0.0
 70
    32
  0
VERTEX
  5
706D
  8
AM_0
 10
111.792
 20
177.69900000000001
 30
0.0
 70
    32
  0
VERTEX
  5
706E
  8
AM_0
 10
111.751
 20
177.61799999999999
 30
0.0
 70
    32
  0
VERTEX
  5
706F
  8
AM_0
 10
111.711
 20
177.53700000000001
 30
0.0
 70
    32
  0
VERTEX
  5
7070
  8
AM_0
 10
111.673
 20
177.45500000000001
 30
0.0
 70
    32
  0
VERTEX
  5
7071
  8
AM_0
 10
111.637
 20
177.37200000000001
 30
0.0
 70
    32
  0
VERTEX
  5
7072
  8
AM_0
 10
111.602
 20
177.28899999999999
 30
0.0
 70
    32
  0
VERTEX
  5
7073
  8
AM_0
 10
111.569
 20
177.20500000000001
 30
0.0
 70
    32
  0
VERTEX
  5
7074
  8
AM_0
 10
111.538
 20
177.12
 30
0.0
 70
    32
  0
VERTEX
  5
7075
  8
AM_0
 10
111.508
 20
177.035
 30
0.0
 70
    32
  0
VERTEX
  5
7076
  8
AM_0
 10
111.48099999999999
 20
176.94999999999999
 30
0.0
 70
    32
  0
VERTEX
  5
7077
  8
AM_0
 10
111.455
 20
176.864
 30
0.0
 70
    32
  0
VERTEX
  5
7078
  8
AM_0
 10
111.431
 20
176.77799999999999
 30
0.0
 70
    32
  0
VERTEX
  5
7079
  8
AM_0
 10
111.40900000000001
 20
176.69200000000001
 30
0.0
 70
    32
  0
VERTEX
  5
707A
  8
AM_0
 10
111.389
 20
176.60599999999999
 30
0.0
 70
    32
  0
VERTEX
  5
707B
  8
AM_0
 10
111.37
 20
176.51900000000001
 30
0.0
 70
    32
  0
VERTEX
  5
707C
  8
AM_0
 10
111.354
 20
176.43199999999999
 30
0.0
 70
    32
  0
VERTEX
  5
707D
  8
AM_0
 10
111.339
 20
176.346
 30
0.0
 70
    32
  0
VERTEX
  5
707E
  8
AM_0
 10
111.32599999999999
 20
176.25899999999999
 30
0.0
 70
    32
  0
VERTEX
  5
707F
  8
AM_0
 10
111.315
 20
176.172
 30
0.0
 70
    32
  0
VERTEX
  5
7080
  8
AM_0
 10
111.306
 20
176.08600000000001
 30
0.0
 70
    32
  0
VERTEX
  5
7081
  8
AM_0
 10
111.29900000000001
 20
175.999
 30
0.0
 70
    32
  0
VERTEX
  5
7082
  8
AM_0
 10
111.294
 20
175.91300000000001
 30
0.0
 70
    32
  0
VERTEX
  5
7083
  8
AM_0
 10
111.291
 20
175.827
 30
0.0
 70
    32
  0
VERTEX
  5
7084
  8
AM_0
 10
111.29000000000001
 20
175.74199999999999
 30
0.0
 70
    32
  0
VERTEX
  5
7085
  8
AM_0
 10
111.29000000000001
 20
175.65600000000001
 30
0.0
 70
    32
  0
VERTEX
  5
7086
  8
AM_0
 10
111.29300000000001
 20
175.572
 30
0.0
 70
    32
  0
VERTEX
  5
7087
  8
AM_0
 10
111.297
 20
175.48699999999999
 30
0.0
 70
    32
  0
VERTEX
  5
7088
  8
AM_0
 10
111.304
 20
175.40299999999999
 30
0.0
 70
    32
  0
VERTEX
  5
7089
  8
AM_0
 10
111.312
 20
175.31999999999999
 30
0.0
 70
    32
  0
VERTEX
  5
708A
  8
AM_0
 10
111.322
 20
175.238
 30
0.0
 70
    32
  0
VERTEX
  5
708B
  8
AM_0
 10
111.334
 20
175.15600000000001
 30
0.0
 70
    32
  0
VERTEX
  5
708C
  8
AM_0
 10
111.348
 20
175.07400000000001
 30
0.0
 70
    32
  0
VERTEX
  5
708D
  8
AM_0
 10
111.364
 20
174.994
 30
0.0
 70
    32
  0
VERTEX
  5
708E
  8
AM_0
 10
111.38200000000001
 20
174.91399999999999
 30
0.0
 70
    32
  0
VERTEX
  5
708F
  8
AM_0
 10
111.401
 20
174.83600000000001
 30
0.0
 70
    32
  0
VERTEX
  5
7090
  8
AM_0
 10
111.423
 20
174.75800000000001
 30
0.0
 70
    32
  0
VERTEX
  5
7091
  8
AM_0
 10
111.446
 20
174.68100000000001
 30
0.0
 70
    32
  0
VERTEX
  5
7092
  8
AM_0
 10
111.471
 20
174.60499999999999
 30
0.0
 70
    32
  0
VERTEX
  5
7093
  8
AM_0
 10
111.498
 20
174.53
 30
0.0
 70
    32
  0
VERTEX
  5
7094
  8
AM_0
 10
111.527
 20
174.45699999999999
 30
0.0
 70
    32
  0
VERTEX
  5
7095
  8
AM_0
 10
111.557
 20
174.38399999999999
 30
0.0
 70
    32
  0
VERTEX
  5
7096
  8
AM_0
 10
111.589
 20
174.31299999999999
 30
0.0
 70
    32
  0
VERTEX
  5
7097
  8
AM_0
 10
111.623
 20
174.24299999999999
 30
0.0
 70
    32
  0
VERTEX
  5
7098
  8
AM_0
 10
111.65900000000001
 20
174.17400000000001
 30
0.0
 70
    32
  0
VERTEX
  5
7099
  8
AM_0
 10
111.697
 20
174.10599999999999
 30
0.0
 70
    32
  0
VERTEX
  5
709A
  8
AM_0
 10
111.736
 20
174.03999999999999
 30
0.0
 70
    32
  0
VERTEX
  5
709B
  8
AM_0
 10
111.776
 20
173.97499999999999
 30
0.0
 70
    32
  0
VERTEX
  5
709C
  8
AM_0
 10
111.819
 20
173.91200000000001
 30
0.0
 70
    32
  0
VERTEX
  5
709D
  8
AM_0
 10
111.863
 20
173.84999999999999
 30
0.0
 70
    32
  0
VERTEX
  5
709E
  8
AM_0
 10
111.908
 20
173.78999999999999
 30
0.0
 70
    32
  0
VERTEX
  5
709F
  8
AM_0
 10
111.955
 20
173.73099999999999
 30
0.0
 70
    32
  0
VERTEX
  5
70A0
  8
AM_0
 10
112.004
 20
173.67400000000001
 30
0.0
 70
    32
  0
VERTEX
  5
70A1
  8
AM_0
 10
112.054
 20
173.61799999999999
 30
0.0
 70
    32
  0
VERTEX
  5
70A2
  8
AM_0
 10
112.10599999999999
 20
173.56399999999999
 30
0.0
 70
    32
  0
VERTEX
  5
70A3
  8
AM_0
 10
112.15900000000001
 20
173.512
 30
0.0
 70
    32
  0
VERTEX
  5
70A4
  8
AM_0
 10
112.21299999999999
 20
173.46100000000001
 30
0.0
 70
    32
  0
VERTEX
  5
70A5
  8
AM_0
 10
112.26900000000001
 20
173.41200000000001
 30
0.0
 70
    32
  0
VERTEX
  5
70A6
  8
AM_0
 10
112.32599999999999
 20
173.36500000000001
 30
0.0
 70
    32
  0
VERTEX
  5
70A7
  8
AM_0
 10
112.384
 20
173.31999999999999
 30
0.0
 70
    32
  0
VERTEX
  5
70A8
  8
AM_0
 10
112.444
 20
173.27699999999999
 30
0.0
 70
    32
  0
VERTEX
  5
70A9
  8
AM_0
 10
112.505
 20
173.23500000000001
 30
0.0
 70
    32
  0
VERTEX
  5
70AA
  8
AM_0
 10
112.56699999999999
 20
173.196
 30
0.0
 70
    32
  0
VERTEX
  5
70AB
  8
AM_0
 10
112.63
 20
173.15799999999999
 30
0.0
 70
    32
  0
VERTEX
  5
70AC
  8
AM_0
 10
112.694
 20
173.12200000000001
 30
0.0
 70
    32
  0
VERTEX
  5
70AD
  8
AM_0
 10
112.76000000000001
 20
173.08799999999999
 30
0.0
 70
    32
  0
VERTEX
  5
70AE
  8
AM_0
 10
112.82599999999999
 20
173.05600000000001
 30
0.0
 70
    32
  0
VERTEX
  5
70AF
  8
AM_0
 10
112.89400000000001
 20
173.02600000000001
 30
0.0
 70
    32
  0
VERTEX
  5
70B0
  8
AM_0
 10
112.962
 20
172.99799999999999
 30
0.0
 70
    32
  0
VERTEX
  5
70B1
  8
AM_0
 10
113.03100000000001
 20
172.97200000000001
 30
0.0
 70
    32
  0
VERTEX
  5
70B2
  8
AM_0
 10
113.101
 20
172.94800000000001
 30
0.0
 70
    32
  0
VERTEX
  5
70B3
  8
AM_0
 10
113.172
 20
172.92699999999999
 30
0.0
 70
    32
  0
VERTEX
  5
70B4
  8
AM_0
 10
113.244
 20
172.90700000000001
 30
0.0
 70
    32
  0
VERTEX
  5
70B5
  8
AM_0
 10
113.31699999999999
 20
172.88900000000001
 30
0.0
 70
    32
  0
VERTEX
  5
70B6
  8
AM_0
 10
113.39
 20
172.874
 30
0.0
 70
    32
  0
VERTEX
  5
70B7
  8
AM_0
 10
113.464
 20
172.86000000000001
 30
0.0
 70
    32
  0
VERTEX
  5
70B8
  8
AM_0
 10
113.538
 20
172.84899999999999
 30
0.0
 70
    32
  0
VERTEX
  5
70B9
  8
AM_0
 10
113.613
 20
172.839
 30
0.0
 70
    32
  0
VERTEX
  5
70BA
  8
AM_0
 10
113.68899999999999
 20
172.83199999999999
 30
0.0
 70
    32
  0
VERTEX
  5
70BB
  8
AM_0
 10
113.765
 20
172.827
 30
0.0
 70
    32
  0
VERTEX
  5
70BC
  8
AM_0
 10
113.84099999999999
 20
172.82400000000001
 30
0.0
 70
    32
  0
VERTEX
  5
70BD
  8
AM_0
 10
113.91800000000001
 20
172.82400000000001
 30
0.0
 70
    32
  0
VERTEX
  5
70BE
  8
AM_0
 10
113.995
 20
172.82499999999999
 30
0.0
 70
    32
  0
VERTEX
  5
70BF
  8
AM_0
 10
114.07299999999999
 20
172.82900000000001
 30
0.0
 70
    32
  0
VERTEX
  5
70C0
  8
AM_0
 10
114.151
 20
172.834
 30
0.0
 70
    32
  0
VERTEX
  5
70C1
  8
AM_0
 10
114.229
 20
172.84200000000001
 30
0.0
 70
    32
  0
VERTEX
  5
70C2
  8
AM_0
 10
114.307
 20
172.852
 30
0.0
 70
    32
  0
VERTEX
  5
70C3
  8
AM_0
 10
114.38500000000001
 20
172.864
 30
0.0
 70
    32
  0
VERTEX
  5
70C4
  8
AM_0
 10
114.46299999999999
 20
172.87799999999999
 30
0.0
 70
    32
  0
VERTEX
  5
70C5
  8
AM_0
 10
114.541
 20
172.89400000000001
 30
0.0
 70
    32
  0
VERTEX
  5
70C6
  8
AM_0
 10
114.619
 20
172.91200000000001
 30
0.0
 70
    32
  0
VERTEX
  5
70C7
  8
AM_0
 10
114.69799999999999
 20
172.93299999999999
 30
0.0
 70
    32
  0
VERTEX
  5
70C8
  8
AM_0
 10
114.776
 20
172.95500000000001
 30
0.0
 70
    32
  0
VERTEX
  5
70C9
  8
AM_0
 10
114.85299999999999
 20
172.97900000000001
 30
0.0
 70
    32
  0
VERTEX
  5
70CA
  8
AM_0
 10
114.931
 20
173.00599999999989
 30
0.0
 70
    32
  0
VERTEX
  5
70CB
  8
AM_0
 10
115.008
 20
173.03399999999999
 30
0.0
 70
    32
  0
VERTEX
  5
70CC
  8
AM_0
 10
115.08499999999999
 20
173.065
 30
0.0
 70
    32
  0
VERTEX
  5
70CD
  8
AM_0
 10
115.16200000000001
 20
173.09700000000001
 30
0.0
 70
    32
  0
VERTEX
  5
70CE
  8
AM_0
 10
115.238
 20
173.13200000000001
 30
0.0
 70
    32
  0
VERTEX
  5
70CF
  8
AM_0
 10
115.31399999999999
 20
173.16800000000001
 30
0.0
 70
    32
  0
VERTEX
  5
70D0
  8
AM_0
 10
115.389
 20
173.20699999999999
 30
0.0
 70
    32
  0
VERTEX
  5
70D1
  8
AM_0
 10
115.464
 20
173.24700000000001
 30
0.0
 70
    32
  0
VERTEX
  5
70D2
  8
AM_0
 10
115.538
 20
173.28899999999999
 30
0.0
 70
    32
  0
VERTEX
  5
70D3
  8
AM_0
 10
115.611
 20
173.333
 30
0.0
 70
    32
  0
VERTEX
  5
70D4
  8
AM_0
 10
115.684
 20
173.37899999999999
 30
0.0
 70
    32
  0
VERTEX
  5
70D5
  8
AM_0
 10
115.756
 20
173.42599999999999
 30
0.0
 70
    32
  0
VERTEX
  5
70D6
  8
AM_0
 10
115.827
 20
173.47499999999999
 30
0.0
 70
    32
  0
VERTEX
  5
70D7
  8
AM_0
 10
115.898
 20
173.52600000000001
 30
0.0
 70
    32
  0
VERTEX
  5
70D8
  8
AM_0
 10
115.968
 20
173.57900000000001
 30
0.0
 70
    32
  0
VERTEX
  5
70D9
  8
AM_0
 10
116.036
 20
173.63399999999999
 30
0.0
 70
    32
  0
VERTEX
  5
70DA
  8
AM_0
 10
116.104
 20
173.69
 30
0.0
 70
    32
  0
VERTEX
  5
70DB
  8
AM_0
 10
116.17100000000001
 20
173.74700000000001
 30
0.0
 70
    32
  0
VERTEX
  5
70DC
  8
AM_0
 10
116.23699999999999
 20
173.80699999999999
 30
0.0
 70
    32
  0
VERTEX
  5
70DD
  8
AM_0
 10
116.301
 20
173.86699999999999
 30
0.0
 70
    32
  0
VERTEX
  5
70DE
  8
AM_0
 10
116.36499999999999
 20
173.93000000000001
 30
0.0
 70
    32
  0
VERTEX
  5
70DF
  8
AM_0
 10
116.42700000000001
 20
173.994
 30
0.0
 70
    32
  0
VERTEX
  5
70E0
  8
AM_0
 10
116.489
 20
174.059
 30
0.0
 70
    32
  0
VERTEX
  5
70E1
  8
AM_0
 10
116.54900000000001
 20
174.125
 30
0.0
 70
    32
  0
VERTEX
  5
70E2
  8
AM_0
 10
116.608
 20
174.19300000000001
 30
0.0
 70
    32
  0
VERTEX
  5
70E3
  8
AM_0
 10
116.66500000000001
 20
174.262
 30
0.0
 70
    32
  0
VERTEX
  5
70E4
  8
AM_0
 10
116.72199999999999
 20
174.333
 30
0.0
 70
    32
  0
VERTEX
  5
70E5
  8
AM_0
 10
116.776
 20
174.405
 30
0.0
 70
    32
  0
VERTEX
  5
70E6
  8
AM_0
 10
116.83
 20
174.477
 30
0.0
 70
    32
  0
VERTEX
  5
70E7
  8
AM_0
 10
116.88200000000001
 20
174.55099999999999
 30
0.0
 70
    32
  0
VERTEX
  5
70E8
  8
AM_0
 10
116.93300000000001
 20
174.62700000000001
 30
0.0
 70
    32
  0
VERTEX
  5
70E9
  8
AM_0
 10
116.982
 20
174.703
 30
0.0
 70
    32
  0
VERTEX
  5
70EA
  8
AM_0
 10
117.03
 20
174.78
 30
0.0
 70
    32
  0
VERTEX
  5
70EB
  8
AM_0
 10
117.07599999999999
 20
174.858
 30
0.0
 70
    32
  0
SEQEND
  5
70EC
  8
AM_0
  0
LINE
  5
6659
  8
AM_0
 10
131.69739380279401
 20
272.8681109062278
 30
0.0
 11
131.69739380279401
 21
265.26811090622772
 31
0.0
1001
GENIUS_GENOREF_13
1005
0
  0
LINE
  5
665A
  8
AM_0
 10
131.69739380279401
 20
265.26811090622772
 30
0.0
 11
132.69739380279401
 21
265.26811090622772
 31
0.0
1001
GENIUS_GENOREF_13
1005
0
  0
LINE
  5
665B
  8
AM_0
 10
132.69739380279401
 20
268.8681109062278
 30
0.0
 11
131.69739380279401
 21
268.50414067196152
 31
0.0
1001
GENIUS_GENOREF_13
1005
0
  0
LINE
  5
665C
  8
AM_0
 10
132.69739380279401
 20
269.26811090622772
 30
0.0
 11
131.69739380279401
 21
268.9041406719615
 31
0.0
1001
GENIUS_GENOREF_13
1005
0
  0
LINE
  5
665D
  8
AM_0
 10
132.69739380279401
 20
272.8681109062278
 30
0.0
 11
131.69739380279401
 21
272.8681109062278
 31
0.0
1001
GENIUS_GENOREF_13
1005
0
  0
LINE
  5
665E
  8
AM_0N
 10
130.6384562906662
 20
265.16075593392122
 30
0.0
 11
131.69739380279401
 21
265.06811090622767
 31
0.0
  0
LINE
  5
665F
  8
AM_0N
 10
130.6384562906662
 20
272.97546587853418
 30
0.0
 11
131.69739380279401
 21
273.06811090622779
 31
0.0
  0
ARC
  5
6660
  8
AM_0N
 10
135.09739380279399
 20
269.06811090622767
 30
0.0
 40
6.5
 50
151.82726586813479
 51
208.1727341318651
  0
ARC
  5
6661
  8
AM_0N
 10
130.77790547906241
 20
271.3815543615874
 30
0.0
 40
1.6000000000000001
 50
94.999999999999758
 51
151.82726586813479
  0
ARC
  5
6662
  8
AM_0N
 10
130.77790547906241
 20
266.75466745086811
 30
0.0
 40
1.6000000000000001
 50
208.1727341318651
 51
265.00000000000028
  0
LINE
  5
6663
  8
AM_0N
 10
131.69739380279401
 20
273.06811090622779
 30
0.0
 11
131.69739380279401
 21
265.06811090622767
 31
0.0
  0
LINE
  5
6664
  8
AM_0
 10
131.69739380279401
 20
195.47325509993749
 30
0.0
 11
131.69739380279401
 21
190.0056109062277
 31
0.0
1001
GENIUS_GENOREF_13
1005
0
  0
LINE
  5
6665
  8
AM_0
 10
131.69739380279401
 20
190.2056109062278
 30
0.0
 11
132.69739380279401
 21
190.2056109062278
 31
0.0
1001
GENIUS_GENOREF_13
1005
0
  0
LINE
  5
6666
  8
AM_0
 10
132.69739380279401
 20
193.8056109062278
 30
0.0
 11
131.69739380279401
 21
193.44164067196161
 31
0.0
1001
GENIUS_GENOREF_13
1005
0
  0
LINE
  5
6667
  8
AM_0
 10
132.69739380279401
 20
194.2056109062278
 30
0.0
 11
131.69739380279401
 21
193.84164067196161
 31
0.0
1001
GENIUS_GENOREF_13
1005
0
  0
LINE
  5
6668
  8
AM_0N
 10
130.6384562906662
 20
190.09825593392131
 30
0.0
 11
131.69739380279401
 21
190.0056109062277
 31
0.0
  0
ARC
  5
6669
  8
AM_0N
 10
135.09739380279399
 20
194.0056109062277
 30
0.0
 40
6.5
 50
182.900769989091
 51
208.1727341318651
  0
ARC
  5
666A
  8
AM_0N
 10
130.7779054790625
 20
191.69216745086811
 30
0.0
 40
1.6000000000000001
 50
208.1727341318651
 51
265.00000000000028
  0
ARC
  5
666B
  8
AM_0
 10
638.01344146551446
 20
314.5681109062279
 30
0.0
 40
9.9999999999999964
 50
71.805182709315133
 51
90.0
  0
ARC
  5
666C
  8
AM_0
 10
638.01344146551446
 20
314.5681109062279
 30
0.0
 40
10.0
 50
90.0
 51
108.1948172906848
  0
LINE
  5
6672
  8
AM_0
 10
531.01344146551446
 20
173.06811090622779
 30
0.0
 11
554.85649284710905
 21
173.90072860750439
 31
0.0
  0
LINE
  5
6673
  8
AM_0
 10
553.0134694655145
 20
264.299852999628
 30
0.0
 11
531.01344146551446
 21
265.06811090622801
 31
0.0
  0
LINE
  5
6674
  8
AM_0
 10
531.01344146551446
 20
265.06811090622801
 30
0.0
 11
531.01344146551446
 21
173.06811090622759
 31
0.0
  0
LINE
  5
6675
  8
ﾁｭｳｼﾝｾﾝ1
 10
520.01344146551457
 20
178.0681109062285
 30
0.0
 11
535.84096447805121
 21
178.06811090622841
 31
0.0
  0
LINE
  5
6676
  8
AM_0
 10
527.01344146551446
 20
265.06811090622801
 30
0.0
 11
527.01344146551446
 21
244.25360600669549
 31
0.0
  0
LINE
  5
6677
  8
AM_0
 10
527.01344146551446
 20
193.8826158057602
 30
0.0
 11
527.01344146551446
 21
173.06811090622861
 31
0.0
  0
LINE
  5
6678
  8
AM_0
 10
523.0134414655148
 20
258.93232923706728
 30
0.0
 11
523.01344146551457
 21
179.20389257538841
 31
0.0
  0
LINE
  5
6679
  8
AM_0
 10
524.95450395338685
 20
181.97546587853489
 30
0.0
 11
526.01344146551446
 21
182.06811090622841
 31
0.0
  0
LINE
  5
667A
  8
AM_0
 10
524.95450395338685
 20
174.16075593392199
 30
0.0
 11
526.01344146551446
 21
174.06811090622841
 31
0.0
  0
ARC
  5
667B
  8
AM_0
 10
529.41344146551478
 20
178.06811090622841
 30
0.0
 40
6.5
 50
151.82726586813479
 51
208.1727341318651
  0
ARC
  5
667C
  8
AM_0
 10
525.09395314178323
 20
175.75466745086871
 30
0.0
 40
1.6000000000000001
 50
208.1727341318651
 51
265.00000000000028
  0
LINE
  5
667D
  8
AM_0
 10
523.33396780408657
 20
180.36811090622831
 30
0.0
 11
525.62352748288174
 21
178.06811090622841
 31
0.0
  0
LINE
  5
667E
  8
AM_0
 10
525.31344146551453
 20
178.37961090622841
 30
0.0
 11
525.31344146551453
 21
177.75661090622839
 31
0.0
  0
LINE
  5
667F
  8
AM_0
 10
523.33396780408657
 20
175.7681109062284
 30
0.0
 11
525.62352748288174
 21
178.06811090622841
 31
0.0
  0
LINE
  5
6680
  8
AM_0
 10
522.92090977517967
 20
178.37961090622841
 30
0.0
 11
525.31344146551453
 21
178.37961090622841
 31
0.0
  0
LINE
  5
6681
  8
AM_0
 10
522.92090977517967
 20
177.75661090622839
 30
0.0
 11
525.31344146551453
 21
177.75661090622839
 31
0.0
  0
ARC
  5
6682
  8
AM_0
 10
525.09395314178323
 20
180.38155436158809
 30
0.0
 40
1.6000000000000001
 50
94.999999999999758
 51
151.82726586813479
  0
LINE
  5
6683
  8
AM_0
 10
527.01344146551446
 20
265.06811090622801
 30
0.0
 11
531.01344146551446
 21
265.06811090622801
 31
0.0
  0
LINE
  5
6684
  8
AM_0
 10
526.01344146551435
 20
264.06811090622767
 30
0.0
 11
527.0134414655148
 21
265.06811090622801
 31
0.0
  0
LINE
  5
6685
  8
AM_0
 10
531.01344146551446
 20
173.06811090622759
 30
0.0
 11
527.01344146551446
 21
173.06811090622861
 31
0.0
  0
LINE
  5
6686
  8
AM_0N
 10
527.01344146551446
 20
181.86811090622851
 30
0.0
 11
526.01344146551446
 21
181.86811090622851
 31
0.0
  0
LINE
  5
6687
  8
AM_0N
 10
526.01344146551446
 20
178.2681109062284
 30
0.0
 11
527.01344146551446
 21
178.63208114049451
 31
0.0
  0
LINE
  5
6688
  8
AM_0N
 10
526.01344146551446
 20
177.86811090622851
 30
0.0
 11
527.01344146551446
 21
178.23208114049461
 31
0.0
  0
LINE
  5
6689
  8
AM_0N
 10
526.01344146551446
 20
174.06811090622841
 30
0.0
 11
526.01344146551446
 21
182.06811090622841
 31
0.0
  0
LINE
  5
668A
  8
AM_0N
 10
526.01344146551446
 20
174.2681109062284
 30
0.0
 11
527.01344146551446
 21
174.2681109062284
 31
0.0
  0
LINE
  5
668B
  8
AM_0
 10
523.01344146551457
 20
193.88261580576011
 30
0.0
 11
527.01344146551446
 21
193.8826158057602
 31
0.0
  0
LINE
  5
668C
  8
AM_0
 10
527.01344146551446
 20
192.22576155626771
 30
0.0
 11
523.01344146551457
 21
193.88261580576011
 31
0.0
  0
LINE
  5
668D
  8
AM_0
 10
523.0134414655148
 20
244.25360600669549
 30
0.0
 11
527.01344146551446
 21
244.25360600669549
 31
0.0
  0
LINE
  5
668E
  8
AM_0
 10
527.01344146551446
 20
245.910460256188
 30
0.0
 11
523.0134414655148
 21
244.25360600669549
 31
0.0
  0
LINE
  5
668F
  8
ﾁｭｳｼﾝｾﾝ1
 10
520.01344146551457
 20
260.0681109062271
 30
0.0
 11
535.84096447805121
 21
260.06811090622728
 31
0.0
  0
LINE
  5
6690
  8
AM_0
 10
524.95450395338685
 20
256.16075593392088
 30
0.0
 11
526.01344146551446
 21
256.06811090622728
 31
0.0
  0
LINE
  5
6691
  8
AM_0
 10
524.95450395338685
 20
263.97546587853373
 30
0.0
 11
526.01344146551446
 21
264.06811090622728
 31
0.0
  0
ARC
  5
6692
  8
AM_0
 10
529.41344146551478
 20
260.06811090622728
 30
0.0
 40
6.5
 50
151.82726586813479
 51
208.1727341318651
  0
ARC
  5
6693
  8
AM_0
 10
525.09395314178323
 20
262.38155436158701
 30
0.0
 40
1.6000000000000001
 50
94.999999999999758
 51
151.82726586813479
  0
LINE
  5
6694
  8
AM_0
 10
523.33396780408657
 20
257.76811090622732
 30
0.0
 11
525.62352748288174
 21
260.06811090622728
 31
0.0
  0
LINE
  5
6695
  8
AM_0
 10
525.31344146551453
 20
259.75661090622731
 30
0.0
 11
525.31344146551453
 21
260.3796109062273
 31
0.0
  0
LINE
  5
6696
  8
AM_0
 10
523.33396780408657
 20
262.36811090622717
 30
0.0
 11
525.62352748288174
 21
260.06811090622728
 31
0.0
  0
LINE
  5
6697
  8
AM_0
 10
522.92090977517967
 20
259.75661090622731
 30
0.0
 11
525.31344146551453
 21
259.75661090622731
 31
0.0
  0
LINE
  5
6698
  8
AM_0
 10
522.92090977517967
 20
260.3796109062273
 30
0.0
 11
525.31344146551453
 21
260.3796109062273
 31
0.0
  0
ARC
  5
6699
  8
AM_0
 10
525.09395314178323
 20
257.7546674508676
 30
0.0
 40
1.6000000000000001
 50
208.1727341318651
 51
265.00000000000028
  0
LINE
  5
669A
  8
AM_0N
 10
527.01344146551446
 20
256.26811090622721
 30
0.0
 11
526.01344146551446
 21
256.26811090622721
 31
0.0
  0
LINE
  5
669B
  8
AM_0N
 10
526.01344146551446
 20
259.86811090622729
 30
0.0
 11
527.01344146551446
 21
259.50414067196112
 31
0.0
  0
LINE
  5
669C
  8
AM_0N
 10
526.01344146551446
 20
260.26811090622721
 30
0.0
 11
527.01344146551446
 21
259.9041406719611
 31
0.0
  0
LINE
  5
669D
  8
AM_0N
 10
526.01344146551446
 20
264.06811090622728
 30
0.0
 11
526.01344146551446
 21
256.06811090622728
 31
0.0
  0
LINE
  5
669E
  8
AM_0N
 10
526.01344146551446
 20
263.86811090622717
 30
0.0
 11
527.01344146551446
 21
263.86811090622717
 31
0.0
  0
CIRCLE
  5
669F
  8
AM_0
 10
638.01344146551446
 20
239.0681269062276
 30
0.0
 40
33.499999999999893
  0
CIRCLE
  5
66A0
  8
AM_0
 10
638.01344146551446
 20
239.0681269062276
 30
0.0
 40
28.49999999999994
  0
LINE
  5
66A6
  8
AM_0
 10
390.19733380279371
 20
251.06809690622779
 30
0.0
 11
424.19738380279398
 21
251.06809690622779
 31
0.0
  0
LINE
  5
66A7
  8
AM_0
 10
424.19738380279398
 20
254.06809690622779
 30
0.0
 11
424.19738380279398
 21
227.06809690622779
 31
0.0
  0
LINE
  5
66A8
  8
AM_0
 10
390.19733380279382
 20
227.06809690622779
 30
0.0
 11
424.19738380279398
 21
227.06809690622779
 31
0.0
  0
LINE
  5
66A9
  8
ﾁｭｳｼﾝｾﾝ
 10
427.9098538027942
 20
239.06809690622779
 30
0.0
 11
294.87512380279418
 21
239.06809690622779
 31
0.0
  0
LINE
  5
66AA
  8
AM_0
 10
392.19734380279419
 20
254.06809690622779
 30
0.0
 11
392.19734380279419
 21
251.06809690622779
 31
0.0
  0
LINE
  5
66AB
  8
AM_0
 10
642.01342546551439
 20
254.06809690622779
 30
0.0
 11
642.01342546551439
 21
247.06809790622779
 31
0.0
  0
LINE
  5
66AC
  8
AM_0
 10
634.01342446551439
 20
254.06809690622779
 30
0.0
 11
634.01342446551439
 21
247.06809790622779
 31
0.0
  0
LINE
  5
66AD
  8
AM_0
 10
634.01342446551439
 20
254.06809690622779
 30
0.0
 11
642.01342546551439
 21
254.06809690622779
 31
0.0
  0
LINE
  5
66AE
  8
AM_0
 10
634.01342446551439
 20
247.06809790622779
 30
0.0
 11
642.01342546551439
 21
247.06809790622779
 31
0.0
  0
LINE
  5
66AF
  8
AM_0
 10
392.19734380279419
 20
254.06809690622779
 30
0.0
 11
424.19738380279398
 21
254.06809690622779
 31
0.0
  0
LINE
  5
66B0
  8
AM_0
 10
305.19734380279419
 20
268.73524090622777
 30
0.0
 11
305.19734380279419
 21
249.0961429062279
 31
0.0
  0
LINE
  5
66B1
  8
ﾁｭｳｼﾝｾﾝ
 10
90.508578930471558
 20
219.0681109062277
 30
0.0
 11
324.17129380279431
 21
219.0681109062277
 31
0.0
  0
LINE
  5
66B2
  8
AM_0
 10
279.19739380279412
 20
275.06809690622771
 30
0.0
 11
305.32826380279408
 21
275.7523639062278
 31
0.0
  0
LINE
  5
66B3
  8
AM_0
 10
279.19739380279412
 20
163.0680949062278
 30
0.0
 11
302.275883802794
 21
162.46376890622781
 31
0.0
  0
LINE
  5
66B4
  8
AM_0
 10
279.19739380279412
 20
163.06810990622779
 30
0.0
 11
279.19739380279412
 21
275.06809690622771
 31
0.0
  0
LINE
  5
66B5
  8
AM_0
 10
312.19739380279418
 20
290.06809690622782
 30
0.0
 11
317.19734380279419
 21
290.06809690622782
 31
0.0
  0
LINE
  5
66B6
  8
AM_0
 10
310.1974138027943
 20
288.06809890622787
 30
0.0
 11
310.1974138027943
 21
272.73527290622781
 31
0.0
  0
LINE
  5
66B7
  8
AM_0
 10
307.19741380279419
 20
270.73524190622783
 30
0.0
 11
308.19734380279419
 21
270.73524190622783
 31
0.0
  0
LINE
  5
66B8
  8
AM_0
 10
305.19734380279419
 20
156.19802290622769
 30
0.0
 11
310.1974138027943
 21
156.19802290622769
 31
0.0
  0
LINE
  5
66B9
  8
AM_0
 10
305.19734380279419
 20
169.8523519062278
 30
0.0
 11
310.1974138027943
 21
169.8523519062278
 31
0.0
  0
LINE
  5
66BA
  8
AM_0
 10
305.19734380279419
 20
247.0961569062278
 30
0.0
 11
310.1974138027943
 21
247.0961569062278
 31
0.0
  0
LINE
  5
66BB
  8
AM_0
 10
307.19741380279419
 20
262.5624529062278
 30
0.0
 11
308.19734380279419
 21
262.5624529062278
 31
0.0
  0
LINE
  5
66BC
  8
AM_0
 10
310.1974138027943
 20
260.56242190622783
 30
0.0
 11
310.1974138027943
 21
150.06810790622779
 31
0.0
  0
LINE
  5
66BD
  8
AM_0
 10
305.19734380279419
 20
167.85236590622779
 30
0.0
 11
305.19734380279419
 21
156.06811090622779
 31
0.0
  0
LINE
  5
66BE
  8
AM_0
 10
279.19739380279412
 20
265.06809790622782
 30
0.0
 11
305.19734380279419
 21
265.06809790622782
 31
0.0
  0
LINE
  5
66BF
  8
AM_0
 10
279.19739380279412
 20
251.00510890622789
 30
0.0
 11
305.19734380279419
 21
251.00510890622789
 31
0.0
  0
LINE
  5
66C0
  8
AM_0
 10
279.19739380279412
 20
187.13109790622781
 30
0.0
 11
310.1974138027943
 21
187.13109790622781
 31
0.0
  0
LINE
  5
66C1
  8
AM_0
 10
279.19739380279412
 20
173.06809390622769
 30
0.0
 11
310.1974138027943
 21
173.06809390622769
 31
0.0
  0
LINE
  5
66C2
  8
AM_0
 10
312.19739380279418
 20
148.0680949062278
 30
0.0
 11
317.19734380279419
 21
148.0680949062278
 31
0.0
  0
LINE
  5
66C3
  8
AM_0
 10
377.90960380279398
 20
271.29871990622769
 30
0.0
 11
380.19733380279382
 21
268.57227539086631
 31
0.0
  0
LINE
  5
66C4
  8
AM_0
 10
377.19734380279419
 20
156.56809390622769
 30
0.0
 11
377.19734380279419
 21
324.06811390622778
 31
0.0
  0
LINE
  5
66C5
  8
AM_0
 10
367.19738380279398
 20
158.84867290622779
 30
0.0
 11
367.19738380279398
 21
191.91376690622781
 31
0.0
  0
LINE
  5
66C6
  8
AM_0
 10
349.19738380279409
 20
303.14206390622797
 30
0.0
 11
349.19738380279409
 21
257.91294490622789
 31
0.0
  0
LINE
  5
66C7
  8
AM_0
 10
377.19734380279419
 20
309.06808390622768
 30
0.0
 11
381.19736380279397
 21
309.06808390622768
 31
0.0
  0
LINE
  5
66C8
  8
AM_0
 10
369.12755380279418
 20
323.78629390622768
 30
0.0
 11
377.19734380279419
 21
324.06811390622778
 31
0.0
  0
LINE
  5
66C9
  8
AM_0
 10
354.52286380279401
 20
308.13901390622777
 30
0.0
 11
364.30208380279402
 21
308.4805039062278
 31
0.0
  0
LINE
  5
66CA
  8
ﾁｭｳｼﾝｾﾝ
 10
548.03761096551455
 20
239.0681269062276
 30
0.0
 11
727.98927196551483
 21
239.0681269062276
 31
0.0
  0
LINE
  5
66CB
  8
ﾁｭｳｼﾝｾﾝ
 10
676.98878659130446
 20
219.0681109062279
 30
0.0
 11
599.03809633972469
 21
219.0681109062279
 31
0.0
  0
LINE
  5
66CC
  8
ﾁｭｳｼﾝｾﾝ
 10
638.01344146551446
 20
328.56640718143927
 30
0.0
 11
638.01344146551446
 21
137.2048129062278
 31
0.0
  0
LINE
  5
66CD
  8
AM_0
 10
690.01345546551465
 20
234.0681109062277
 30
0.0
 11
690.01345546551465
 21
217.06810990622779
 31
0.0
  0
LINE
  5
66CE
  8
AM_0
 10
317.19734380279419
 20
290.06809690622782
 30
0.0
 11
317.19734380279419
 21
145.56810790622779
 31
0.0
  0
LINE
  5
66CF
  8
AM_0
 10
571.07550946551476
 20
250.8710599062278
 30
0.0
 11
571.07550946551476
 21
250.8710599062278
 31
0.0
  0
LINE
  5
66D0
  8
AM_0
 10
377.19734380279419
 20
169.06810990622779
 30
0.0
 11
381.19736380279397
 21
169.06810990622779
 31
0.0
  0
LINE
  5
66D1
  8
AM_0
 10
693.6916954655145
 20
278.05442590622778
 30
0.0
 11
693.6916954655145
 21
278.05442590622778
 31
0.0
  0
LINE
  5
66D2
  8
AM_0
 10
704.9514154655144
 20
250.8710599062278
 30
0.0
 11
704.9514154655144
 21
250.8710599062278
 31
0.0
  0
LINE
  5
66D3
  8
AM_0
 10
381.19736380279397
 20
250.8710599062278
 30
0.0
 11
381.19736380279397
 21
169.06810990622779
 31
0.0
  0
LINE
  5
66D4
  8
AM_0
 10
582.33521446551481
 20
278.05442590622778
 30
0.0
 11
582.33521446551481
 21
278.05442590622778
 31
0.0
  0
LINE
  5
66D5
  8
AM_0
 10
367.19738380279398
 20
281.01975790622788
 30
0.0
 11
367.19738380279398
 21
321.78748390622798
 31
0.0
  0
LINE
  5
66D7
  8
ﾁｭｳｼﾝｾﾝ1
 10
558.11038572837344
 20
159.16504433251879
 30
0.0
 11
576.49516941466436
 21
177.54981326792421
 31
0.0
  0
LINE
  5
66D8
  8
AM_0
 10
553.0134694655145
 20
269.06809690622771
 30
0.0
 11
555.28110946551465
 21
312.33751390622768
 31
0.0
  0
LINE
  5
66D9
  8
AM_0
 10
608.01343846551458
 20
324.06811390622778
 30
0.0
 11
638.01344146551446
 21
324.06811390622778
 31
0.0
  0
LINE
  5
66DA
  8
AM_0
 10
600.01343746551447
 20
214.06810990622779
 30
0.0
 11
578.97956446551473
 21
214.06810990622779
 31
0.0
  0
LINE
  5
66DB
  8
AM_0
 10
553.0134694655145
 20
269.06809690622771
 30
0.0
 11
553.0134694655145
 21
239.06809690622779
 31
0.0
  0
LINE
  5
66DC
  8
AM_0
 10
608.01345346551454
 20
324.06811390622778
 30
0.0
 11
564.7440274655147
 21
321.80044390622783
 31
0.0
  0
LINE
  5
66DD
  8
AM_0
 10
354.19736380279397
 20
252.91296190622779
 30
0.0
 11
368.42813380279398
 21
252.91296190622779
 31
0.0
  0
LINE
  5
66DE
  8
AM_0
 10
371.19734380279419
 20
174.78676990622779
 30
0.0
 11
371.19734380279419
 21
305.84944390622798
 31
0.0
  0
LINE
  5
66DF
  8
AM_0
 10
369.12758380279399
 20
156.84989290622769
 30
0.0
 11
377.19737380279412
 21
156.56809390622769
 31
0.0
  0
LINE
  5
66E0
  8
AM_0
 10
317.19740380279399
 20
290.06809690622782
 30
0.0
 11
346.27589380279397
 21
290.82954190622769
 31
0.0
  0
LINE
  5
66E1
  8
AM_0
 10
553.01343946551458
 20
209.06809690622779
 30
0.0
 11
555.26820946551436
 21
166.0447489062278
 31
0.0
  0
LINE
  5
66E2
  8
AM_0
 10
553.0134694655145
 20
209.06809690622779
 30
0.0
 11
553.0134694655145
 21
239.06809690622779
 31
0.0
  0
LINE
  5
66E3
  8
AM_0
 10
565.25449546551465
 20
156.56809390622769
 30
0.0
 11
594.46415146551465
 21
156.56809390622769
 31
0.0
  0
LINE
  5
66E4
  8
AM_0
 10
681.56272846551474
 20
156.56809390622769
 30
0.0
 11
710.77239946551447
 21
156.56809390622769
 31
0.0
  0
LINE
  5
66E5
  8
AM_0
 10
723.01344346551434
 20
209.06809690622779
 30
0.0
 11
723.01344346551434
 21
239.06809690622779
 31
0.0
  0
LINE
  5
66E7
  8
AM_0
 10
668.01344146551446
 20
324.06811390622778
 30
0.0
 11
638.01344146551446
 21
324.06811390622778
 31
0.0
  0
LINE
  5
66E8
  8
AM_0
 10
317.19734380279419
 20
267.86512390622778
 30
0.0
 11
347.5156438027941
 21
267.86512390622778
 31
0.0
  0
LINE
  5
66E9
  8
AM_0
 10
317.19734380279419
 20
145.56810790622779
 30
0.0
 11
353.19734380279419
 21
144.06810790622779
 31
0.0
  0
LINE
  5
66EA
  8
AM_0
 10
353.19734380279419
 20
159.47857090622779
 30
0.0
 11
353.19734380279419
 21
144.06810790622779
 31
0.0
  0
LINE
  5
66EB
  8
AM_0
 10
354.1712038027942
 20
160.47823390622781
 30
0.0
 11
367.19738380279398
 21
160.81933090622769
 31
0.0
  0
LINE
  5
66EC
  8
AM_0
 10
350.64554380279418
 20
278.79676690622767
 30
0.0
 11
367.6828138027941
 21
278.79676690622767
 31
0.0
  0
LINE
  5
66ED
  8
AM_0
 10
586.01343946551458
 20
234.0681109062277
 30
0.0
 11
586.01343946551458
 21
217.06810990622779
 31
0.0
  0
LINE
  5
66EE
  8
AM_0
 10
575.21216746551465
 20
241.06811290622781
 30
0.0
 11
583.24119046551448
 21
241.06811290622781
 31
0.0
  0
LINE
  5
66EF
  8
AM_0
 10
671.01344146551446
 20
233.3018456088931
 30
0.0
 11
671.01344146551446
 21
219.0681109062277
 31
0.0
  0
LINE
  5
66F0
  8
AM_0
 10
575.21216746551465
 20
237.0681109062279
 30
0.0
 11
583.01343946551458
 21
237.0681109062279
 31
0.0
  0
LINE
  5
66F1
  8
AM_0
 10
680.62333546551474
 20
285.21351490622789
 30
0.0
 11
661.40269246551475
 21
265.99287190622789
 31
0.0
  0
LINE
  5
66F2
  8
AM_0
 10
684.15885646551465
 20
281.67799090622782
 30
0.0
 11
664.9382314655146
 21
262.45734790622782
 31
0.0
  0
LINE
  5
66F3
  8
AM_0
 10
595.40357446551445
 20
285.21351490622789
 30
0.0
 11
614.62421746551445
 21
265.99287190622789
 31
0.0
  0
LINE
  5
66F4
  8
AM_0
 10
609.88616446551453
 20
144.16298890622781
 30
0.0
 11
666.14073046551448
 21
144.16298890622781
 31
0.0
  0
LINE
  5
66F5
  8
AM_0
 10
676.01345746551453
 20
214.06810990622779
 30
0.0
 11
697.04734546551447
 21
214.06810990622779
 31
0.0
  0
LINE
  5
66F6
  8
AM_0
 10
640.01345446551454
 20
301.86937390622768
 30
0.0
 11
640.01345446551454
 21
293.84037490622779
 31
0.0
  0
LINE
  5
66F7
  8
AM_0
 10
636.01344046551435
 20
301.86937390622768
 30
0.0
 11
636.01344046551435
 21
293.84037490622779
 31
0.0
  0
LINE
  5
66F8
  8
AM_0
 10
591.86805346551455
 20
281.67796090622761
 30
0.0
 11
611.08868146551447
 21
262.45734790622782
 31
0.0
  0
LINE
  5
66F9
  8
AM_0
 10
700.81472746551447
 20
241.06811290622781
 30
0.0
 11
692.78570446551464
 21
241.06811290622781
 31
0.0
  0
LINE
  5
66FA
  8
AM_0
 10
700.81472746551447
 20
237.0681109062279
 30
0.0
 11
693.01345546551465
 21
237.0681109062279
 31
0.0
  0
LINE
  5
66FB
  8
AM_0
 10
594.46415146551465
 20
156.56810890622771
 30
0.0
 11
597.06223546551473
 21
161.06810890622771
 31
0.0
  0
LINE
  5
66FC
  8
AM_0
 10
681.5627434655147
 20
156.56809390622769
 30
0.0
 11
678.96465946551439
 21
161.06810890622771
 31
0.0
  0
LINE
  5
66FD
  8
AM_0
 10
317.19734380279419
 20
156.19802290622769
 30
0.0
 11
353.19734380279419
 21
156.19802290622769
 31
0.0
  0
LINE
  5
66FE
  8
AM_0
 10
349.19738380279409
 20
285.30177190622771
 30
0.0
 11
365.52650380279402
 21
293.3715949062277
 31
0.0
  0
LINE
  5
66FF
  8
AM_0
 10
351.19736380279397
 20
281.72526490622778
 30
0.0
 11
364.65344380279441
 21
281.72526490622778
 31
0.0
  0
LINE
  5
6700
  8
AM_0
 10
723.01344346551434
 20
269.06809690622771
 30
0.0
 11
723.01344346551434
 21
239.06809690622779
 31
0.0
  0
LINE
  5
6701
  8
AM_0
 10
723.01344346551434
 20
269.06809690622771
 30
0.0
 11
720.74578846551469
 21
312.33751390622768
 31
0.0
  0
LINE
  5
6702
  8
AM_0
 10
723.01345846551453
 20
209.06809690622779
 30
0.0
 11
720.7586974655145
 21
166.0447489062278
 31
0.0
  0
LINE
  5
6703
  8
AM_0
 10
668.01345646551465
 20
324.06811390622778
 30
0.0
 11
711.28286746551453
 21
321.80047390622798
 31
0.0
  0
LINE
  5
6704
  8
AM_0
 10
597.06223546551473
 20
161.06812390622781
 30
0.0
 11
678.96465946551439
 21
161.06812390622781
 31
0.0
  0
LINE
  5
6705
  8
AM_0
 10
377.19734380279419
 20
277.69273090622789
 30
0.0
 11
381.19736380279397
 21
277.69273090622789
 31
0.0
  0
LINE
  5
6706
  8
AM_0
 10
377.19734380279419
 20
250.8710599062278
 30
0.0
 11
381.19736380279397
 21
250.8710599062278
 31
0.0
  0
LINE
  5
6707
  8
AM_0
 10
381.19736380279397
 20
277.69273090622789
 30
0.0
 11
381.19736380279397
 21
309.06808390622768
 31
0.0
  0
LINE
  5
6709
  8
AM_0
 10
605.01343846551447
 20
233.30186277769641
 30
0.0
 11
605.01343846551447
 21
219.0681109062277
 31
0.0
  0
LINE
  5
670A
  8
AM_0
 10
671.8907284655146
 20
151.16298790622781
 30
0.0
 11
669.01572946551426
 21
146.18334490622789
 31
0.0
  0
LINE
  5
670B
  8
AM_0
 10
669.01572946551426
 20
146.18334490622789
 30
0.0
 11
663.26574346551445
 21
146.18334490622789
 31
0.0
  0
LINE
  5
670C
  8
AM_0
 10
663.26572846551437
 20
146.18334490622789
 30
0.0
 11
660.39072946551448
 21
151.16297290622771
 31
0.0
  0
LINE
  5
670D
  8
AM_0
 10
660.39072946551448
 20
151.16298790622781
 30
0.0
 11
663.26572846551437
 21
156.14263390622759
 31
0.0
  0
LINE
  5
670E
  8
AM_0
 10
669.01572946551426
 20
156.14263390622759
 30
0.0
 11
663.26574346551445
 21
156.14263390622759
 31
0.0
  0
LINE
  5
670F
  8
AM_0
 10
671.8907284655146
 20
151.16298790622781
 30
0.0
 11
669.01574446551433
 21
156.14263390622759
 31
0.0
  0
LINE
  5
6710
  8
AM_0
 10
615.63616546551452
 20
151.16298790622781
 30
0.0
 11
612.76116646551475
 21
156.14263390622759
 31
0.0
  0
LINE
  5
6711
  8
AM_0
 10
612.76115146551444
 20
156.14263390622759
 30
0.0
 11
607.01118046551437
 21
156.14263390622759
 31
0.0
  0
LINE
  5
6712
  8
AM_0
 10
604.13615146551479
 20
151.16298790622781
 30
0.0
 11
607.01115046551445
 21
156.14263390622759
 31
0.0
  0
LINE
  5
6713
  8
AM_0
 10
607.01115046551445
 20
146.18334490622789
 30
0.0
 11
604.13615146551479
 21
151.16297290622771
 31
0.0
  0
LINE
  5
6714
  8
AM_0
 10
612.76115146551444
 20
146.18334490622789
 30
0.0
 11
607.01118046551437
 21
146.18334490622789
 31
0.0
  0
LINE
  5
6715
  8
AM_0
 10
615.63615046551445
 20
151.16298790622781
 30
0.0
 11
612.76115146551444
 21
146.18334490622789
 31
0.0
  0
LINE
  5
6716
  8
AM_0
 10
585.4520074655145
 20
263.81211490622781
 30
0.0
 11
582.57700546551428
 21
258.83244190622781
 31
0.0
  0
LINE
  5
6717
  8
AM_0
 10
582.57700546551428
 20
258.83244190622781
 30
0.0
 11
576.8270074655145
 21
258.83244190622781
 31
0.0
  0
LINE
  5
6718
  8
AM_0
 10
576.8270074655145
 20
258.83247190622791
 30
0.0
 11
573.9520054655145
 21
263.81208490622782
 31
0.0
  0
LINE
  5
6719
  8
AM_0
 10
573.9520054655145
 20
263.81208490622782
 30
0.0
 11
576.8270074655145
 21
268.79176090622781
 31
0.0
  0
LINE
  5
671A
  8
AM_0
 10
582.57700546551428
 20
268.79173090622788
 30
0.0
 11
576.8270074655145
 21
268.79173090622788
 31
0.0
  0
LINE
  5
671B
  8
AM_0
 10
585.45197746551457
 20
263.81211490622781
 30
0.0
 11
582.57700546551428
 21
268.79173090622788
 31
0.0
  0
LINE
  5
671C
  8
AM_0
 10
702.07493446551473
 20
263.8120249062278
 30
0.0
 11
699.19995046551446
 21
258.8323789062278
 31
0.0
  0
LINE
  5
671D
  8
AM_0
 10
699.19995046551446
 20
258.8323789062278
 30
0.0
 11
693.44994946551446
 21
258.8323789062278
 31
0.0
  0
LINE
  5
671E
  8
AM_0
 10
693.44993446551473
 20
258.83240890622773
 30
0.0
 11
690.5749354655145
 21
263.8120249062278
 31
0.0
  0
LINE
  5
671F
  8
AM_0
 10
690.57495046551458
 20
263.8120249062278
 30
0.0
 11
693.44994946551446
 21
268.7916679062277
 31
0.0
  0
LINE
  5
6720
  8
AM_0
 10
699.19995046551446
 20
268.79170090622779
 30
0.0
 11
693.44994946551446
 21
268.79170090622779
 31
0.0
  0
LINE
  5
6721
  8
AM_0
 10
702.07493446551473
 20
263.81205490622779
 30
0.0
 11
699.19995046551446
 21
268.79170090622779
 31
0.0
  0
ARC
  5
6722
  8
AM_0
 10
638.01344146551446
 20
239.06809690622779
 30
0.0
 40
12.0000003
 50
109.4712200000001
 51
70.528788999999307
  0
CIRCLE
  5
6723
  8
AM_0
 62
     2
 10
638.01344146551446
 20
239.06809690622779
 30
0.0
 40
4.0000001999999979
  0
CIRCLE
  5
6724
  8
AM_0
 10
638.01344146551446
 20
239.06809690622779
 30
0.0
 40
3.0
  0
ARC
  5
6725
  8
AM_0
 10
305.19734380279419
 20
280.75065490622791
 30
0.0
 40
5.0000001000000003
 50
271.50000000000267
 51
0.0
  0
ARC
  5
6726
  8
AM_0
 10
312.19739380279418
 20
288.06809890622787
 30
0.0
 40
2.00000007
 50
90.00000299999769
 51
180.00000999999941
  0
ARC
  5
6727
  8
AM_0
 10
302.19734380279419
 20
159.46480690622781
 30
0.0
 40
3.0
 50
0.0
 51
88.499997000000747
  0
ARC
  5
6728
  8
AM_0
 10
307.19741380279419
 20
268.73524090622777
 30
0.0
 40
2.00000007
 50
90.00000299999769
 51
180.00000999999941
  0
ARC
  5
6729
  8
AM_0
 10
308.19734380279419
 20
272.73527290622781
 30
0.0
 40
2.00000007
 50
270.0
 51
0.0
  0
ARC
  5
672A
  8
AM_0
 10
307.19741380279419
 20
264.56245090622792
 30
0.0
 40
2.00000007
 50
179.99999000000059
 51
270.0
  0
ARC
  5
672B
  8
AM_0
 10
308.19734380279419
 20
260.56242190622783
 30
0.0
 40
2.00000007
 50
0.0
 51
90.00000299999769
  0
ARC
  5
672C
  8
AM_0
 10
303.19739380279418
 20
249.0961429062279
 30
0.0
 40
2.00000007
 50
270.0
 51
0.0
  0
ARC
  5
672D
  8
AM_0
 10
303.19739380279418
 20
167.85236590622779
 30
0.0
 40
2.00000007
 50
0.0
 51
90.00000299999769
  0
ARC
  5
672E
  8
AM_0
 10
307.19741380279419
 20
154.1980369062278
 30
0.0
 40
2.00000007
 50
90.00000299999769
 51
110.7662300000012
  0
ARC
  5
672F
  8
AM_0
 10
312.19739380279418
 20
150.06810790622779
 30
0.0
 40
2.00000007
 50
179.99999000000059
 51
270.0
  0
ARC
  5
6730
  8
AM_0
 10
354.19736380279397
 20
159.47857090622779
 30
0.0
 40
1.0000000199999981
 50
91.500001000001546
 51
180.00000999999941
  0
ARC
  5
6731
  8
AM_0
 10
570.72819046551433
 20
248.90145490622791
 30
0.0
 40
2.00000007
 50
351.68540999999948
 51
79.999998000000929
  0
ARC
  5
6732
  8
AM_0
 10
638.01344146551446
 20
239.06809690622779
 30
0.0
 40
66.000003000000007
 50
34.109953999997551
 51
145.8900400000021
  0
ARC
  5
6733
  8
AM_0
 10
705.29870446551456
 20
248.90145490622791
 30
0.0
 40
2.00000007
 50
99.999999999998593
 51
188.31459000000041
  0
ARC
  5
6734
  8
AM_0
 10
580.88401246551473
 20
277.7621299062277
 30
0.0
 40
3.0
 50
265.15681999999839
 51
325.89004999999969
  0
ARC
  5
6735
  8
AM_0
 10
705.29870446551456
 20
248.90145490622791
 30
0.0
 40
2.00000007
 50
8.3145874000007272
 51
99.999999999998593
  0
ARC
  5
6736
  8
AM_0
 10
696.32490346551447
 20
263.81208490622782
 30
0.0
 40
11.000000399999999
 50
311.14394000000323
 51
94.843180000001595
  0
ARC
  5
6737
  8
AM_0
 10
346.19741380279419
 20
293.8285339062279
 30
0.0
 40
3.0
 50
271.50000000000267
 51
0.0
  0
ARC
  5
6738
  8
AM_0
 10
583.4823724655148
 20
279.69273190622772
 30
0.0
 40
2.00000007
 50
235.00000000000259
 51
323.31459000000137
  0
ARC
  5
6739
  8
AM_0
 10
354.19736380279397
 20
303.14206390622797
 30
0.0
 40
5.0000001000000003
 50
91.999998000000545
 51
180.00000999999941
  0
ARC
  5
673A
  8
AM_0
 10
570.49067146551454
 20
253.26928390622771
 30
0.0
 40
3.0
 50
348.12283999999642
 51
48.856062999999523
  0
ARC
  5
673B
  8
AM_0
 10
705.53623846551454
 20
253.26928390622771
 30
0.0
 40
3.0
 50
131.14394000000331
 51
191.87716000000279
  0
ARC
  5
673C
  8
AM_0
 10
368.19734380279419
 20
174.78676990622779
 30
0.0
 40
3.0
 50
270.0
 51
0.0
  0
ARC
  5
673D
  8
AM_0
 10
579.70200646551473
 20
263.81208490622782
 30
0.0
 40
11.000000399999999
 50
85.1568180000002
 51
228.8560599999966
  0
ARC
  5
673E
  8
AM_0
 10
638.01344146551446
 20
239.06809690622779
 30
0.0
 40
70.000001999999995
 50
30.534626999999471
 51
149.4653700000006
  0
ARC
  5
673F
  8
AM_0
 10
638.01344146551446
 20
239.06809690622779
 30
0.0
 40
66.000003000000007
 50
0.0
 51
11.877162000000441
  0
ARC
  5
6740
  8
AM_0
 10
638.01344146551446
 20
219.0681109062277
 30
0.0
 40
71.000000999999983
 50
301.50671999999952
 51
305.22420999999957
  0
ARC
  5
6741
  8
AM_0
 10
692.54454046551427
 20
279.69273190622772
 30
0.0
 40
2.00000007
 50
304.99999999999739
 51
36.685413999996868
  0
ARC
  5
6742
  8
AM_0
 10
638.01344146551446
 20
239.06809690622779
 30
0.0
 40
52.000007999999987
 50
137.75567000000359
 51
174.78408999999999
  0
ARC
  5
6743
  8
AM_0
 10
678.50201146551456
 20
287.33482090622778
 30
0.0
 40
3.0
 50
315.0
 51
50.008388000003357
  0
ARC
  5
6744
  8
AM_0
 10
638.01344146551446
 20
239.06809690622779
 30
0.0
 40
52.000007999999987
 50
5.2159077000001099
 51
42.244334000004017
  0
ARC
  5
6745
  8
AM_0
 10
369.19736380279397
 20
321.78748390622798
 30
0.0
 40
2.00000007
 50
91.999998000000545
 51
180.00000999999941
  0
ARC
  5
6746
  8
AM_0
 10
570.72819046551433
 20
248.90145490622791
 30
0.0
 40
2.00000007
 50
79.999998000000929
 51
171.68540999999939
  0
ARC
  5
6747
  8
AM_0
 10
638.01344146551446
 20
239.06809690622779
 30
0.0
 40
66.000003000000007
 50
168.1228399999963
 51
0.000010017912262
  0
ARC
  5
6748
  8
AM_0
 10
583.4823724655148
 20
279.69273190622772
 30
0.0
 40
2.00000007
 50
143.31457999999611
 51
235.00000999999719
  0
ARC
  5
6749
  8
AM_0
 10
693.01345546551465
 20
217.06810990622779
 30
0.0
 40
3.0
 50
179.99999000000059
 51
270.0
  0
ARC
  5
674A
  8
AM_0
 10
686.28018046551449
 20
279.55665490622778
 30
0.0
 40
3.0
 50
39.991611000003481
 51
135.0
  0
ARC
  5
674B
  8
AM_0
 10
638.01344146551446
 20
239.06809690622779
 30
0.0
 40
70.000001999999995
 50
0.0
 51
15.45248699999985
  0
ARC
  5
674C
  8
AM_0
 10
695.14289746551447
 20
277.7621299062277
 30
0.0
 40
3.0
 50
214.1099599999979
 51
274.84318000000161
  0
ARC
  5
674D
  8
AM_0
 10
354.19736380279397
 20
257.91294490622789
 30
0.0
 40
5.0000001000000003
 50
179.99999000000059
 51
270.0
  0
ARC
  5
674E
  8
AM_0
 10
638.01344146551446
 20
239.06809690622779
 30
0.0
 40
70.000001999999995
 50
164.54750999999871
 51
0.000010017912262
  0
ARC
  5
674F
  8
AM_0
 10
369.19736380279397
 20
158.84867290622779
 30
0.0
 40
2.00000007
 50
179.99999000000059
 51
268.00000999999872
  0
ARC
  5
6750
  8
AM_0
 10
368.19734380279419
 20
305.84944390622798
 30
0.0
 40
3.0
 50
0.0
 51
90.00000299999769
  0
ARC
  5
6751
  8
ﾁｭｳｼﾝｾﾝ1
 10
638.01344146551446
 20
239.06809690622779
 30
0.0
 40
100.000011
 50
216.97202531710639
 51
233.0279746828935
  0
CIRCLE
  5
6753
  8
AM_0
 10
567.30277546551429
 20
309.77878390622772
 30
0.0
 40
6.0000002999999991
  0
ARC
  5
6754
  8
AM_0
 10
565.26740446551446
 20
311.8141639062278
 30
0.0
 40
10.000000200000001
 50
92.999999000001623
 51
176.9999900000002
  0
CIRCLE
  5
6755
  8
AM_0
 10
567.30277546551429
 20
168.35743090622771
 30
0.0
 40
6.0000002999999991
  0
CIRCLE
  5
6757
  8
AM_0
 10
708.72411946551449
 20
168.35743090622771
 30
0.0
 40
6.0000002999999991
  0
CIRCLE
  5
6759
  8
AM_0
 10
708.72411946551449
 20
309.77878390622772
 30
0.0
 40
6.0000002999999991
  0
ARC
  5
675A
  8
AM_0
 10
710.75950546551474
 20
311.8141639062278
 30
0.0
 40
10.000000200000001
 50
3.0000001000004741
 51
86.999998999996933
  0
ARC
  5
675B
  8
AM_0
 10
583.01343946551458
 20
217.06810990622779
 30
0.0
 40
3.0
 50
270.0
 51
0.0
  0
ARC
  5
675C
  8
AM_0
 10
616.74552646551456
 20
268.1142109062277
 30
0.0
 40
3.0
 50
225.0
 51
273.99790033610373
  0
ARC
  5
675D
  8
AM_0
 10
575.21216746551465
 20
244.06811290622781
 30
0.0
 40
3.0
 50
175.4479299999995
 51
270.0
  0
ARC
  5
675E
  8
AM_0
 10
575.21216746551465
 20
234.0681109062277
 30
0.0
 40
3.0
 50
90.00000299999769
 51
184.55207000000041
  0
ARC
  5
675F
  8
AM_0
 10
638.01344146551446
 20
239.06809690622779
 30
0.0
 40
52.000007999999987
 50
47.755664999999361
 51
84.78409399999758
  0
ARC
  5
6760
  8
AM_0
 10
659.28136846551445
 20
268.1142109062277
 30
0.0
 40
3.0
 50
266.00184817577963
 51
315.0
  0
ARC
  5
6761
  8
AM_0
 10
589.74671446551451
 20
279.55665490622778
 30
0.0
 40
3.0
 50
45.000001000003223
 51
140.00838999999601
  0
ARC
  5
6762
  8
AM_0
 10
667.0595524655148
 20
260.3360119062279
 30
0.0
 40
3.0
 50
135.0
 51
183.99797167042081
  0
ARC
  5
6763
  8
AM_0
 10
597.52488346551445
 20
287.33482090622778
 30
0.0
 40
3.0
 50
129.99160999999941
 51
225.0
  0
ARC
  5
6764
  8
AM_0
 10
370.19738380279398
 20
281.01975790622788
 30
0.0
 40
3.0
 50
179.99999000000059
 51
270.0
  0
ARC
  5
6765
  8
AM_0
 10
370.19738380279398
 20
191.91376690622781
 30
0.0
 40
3.0
 50
90.00000299999769
 51
180.00000999999941
  0
ARC
  5
6766
  8
AM_0
 10
598.29594046551449
 20
154.27211890622769
 30
0.0
 40
5.0000001000000003
 50
344.9836399999993
 51
56.872543000003567
  0
ARC
  5
6767
  8
AM_0
 10
609.88616446551453
 20
151.16298790622781
 30
0.0
 40
7.0000007999999987
 50
164.9194399999995
 51
270.0
  0
ARC
  5
6768
  8
AM_0
 10
677.73095446551451
 20
154.27211890622769
 30
0.0
 40
5.0000001000000003
 50
121.5067300000014
 51
195.01635000000289
  0
ARC
  5
6769
  8
AM_0
 10
578.97956446551473
 20
217.06810990622779
 30
0.0
 40
3.0
 50
200.43878000000441
 51
270.0
  0
ARC
  5
676A
  8
AM_0
 10
697.04734546551447
 20
217.06810990622779
 30
0.0
 40
3.0
 50
270.0
 51
339.56121999999561
  0
ARC
  5
676B
  8
AM_0
 10
600.01343746551447
 20
219.0681109062277
 30
0.0
 40
5.0000001000000003
 50
270.0
 51
0.0
  0
ARC
  5
676C
  8
AM_0
 10
676.01345746551453
 20
219.0681109062277
 30
0.0
 40
5.0000001000000003
 50
179.99999000000059
 51
270.0
  0
ARC
  5
676D
  8
AM_0
 10
364.19738380279398
 20
311.47870390622779
 30
0.0
 40
3.0
 50
271.9999999999971
 51
0.0
  0
ARC
  5
676F
  8
AM_0
 10
643.01345446551454
 20
293.84037490622779
 30
0.0
 40
3.0
 50
179.99999000000059
 51
264.78408999999982
  0
ARC
  5
6770
  8
AM_0
 10
583.24119046551448
 20
244.06811290622781
 30
0.0
 40
3.0
 50
270.0
 51
354.78408999999999
  0
ARC
  5
6771
  8
AM_0
 10
583.01343946551458
 20
234.0681109062277
 30
0.0
 40
3.0
 50
0.0
 51
90.00000299999769
  0
ARC
  5
6772
  8
AM_0
 10
693.01345546551465
 20
234.0681109062277
 30
0.0
 40
3.0
 50
90.00000299999769
 51
180.00000999999941
  0
ARC
  5
6773
  8
AM_0
 10
633.01344046551446
 20
293.84037490622779
 30
0.0
 40
3.0
 50
275.21591000000018
 51
0.0
  0
ARC
  5
6774
  8
AM_0
 10
643.01345446551454
 20
301.86937390622768
 30
0.0
 40
3.0
 50
85.447926999998117
 51
180.00000999999941
  0
ARC
  5
6775
  8
AM_0
 10
692.78570446551464
 20
244.06811290622781
 30
0.0
 40
3.0
 50
185.21590999999989
 51
270.0
  0
ARC
  5
6776
  8
AM_0
 10
608.96734246551455
 20
260.3360119062279
 30
0.0
 40
3.0
 50
356.0023394636645
 51
45.000001000003223
  0
ARC
  5
6777
  8
AM_0
 10
633.01344046551446
 20
301.86937390622768
 30
0.0
 40
3.0
 50
0.0
 51
94.552071000002115
  0
ARC
  5
6778
  8
AM_0
 10
700.81472746551447
 20
234.0681109062277
 30
0.0
 40
3.0
 50
355.44792999999947
 51
90.00000299999769
  0
ARC
  5
6779
  8
AM_0
 10
700.81472746551447
 20
244.06811290622781
 30
0.0
 40
3.0
 50
270.0
 51
4.5520713999997291
  0
ARC
  5
677A
  8
AM_0
 10
692.54454046551427
 20
279.69273190622772
 30
0.0
 40
2.00000007
 50
216.6854200000038
 51
304.99999999999739
  0
ARC
  5
677B
  8
AM_0
 10
364.65344380279441
 20
278.72526490622778
 30
0.0
 40
3.0
 50
22.48353600000565
 51
90.00000299999769
  0
ARC
  5
677C
  8
AM_0
 10
364.19738380279398
 20
296.06107990622797
 30
0.0
 40
3.0
 50
296.29843000000261
 51
0.0
  0
ARC
  5
677D
  8
AM_0
 10
351.19736380279397
 20
283.7252629062279
 30
0.0
 40
2.00000007
 50
179.99999000000059
 51
270.0
  0
ARC
  5
677E
  8
AM_0
 10
375.611483802794
 20
269.37037390622771
 30
0.0
 40
3.0
 50
39.999999000003022
 51
58.086796999996537
  0
ARC
  5
677F
  8
AM_0
 10
565.25449546551465
 20
166.56811090622779
 30
0.0
 40
10.000000200000001
 50
183.00000999999969
 51
270.0
  0
ARC
  5
6780
  8
AM_0
 10
710.77239946551447
 20
166.56811090622779
 30
0.0
 40
10.000000200000001
 50
270.0
 51
356.99999999999949
  0
ARC
  5
6781
  8
AM_0
 10
638.01344146551446
 20
219.0681109062277
 30
0.0
 40
71.000000999999983
 50
234.7757900000008
 51
238.4932699999986
  0
ARC
  5
6782
  8
AM_0
 10
666.14073046551448
 20
151.16298790622781
 30
0.0
 40
7.0000007999999987
 50
270.000020000002
 51
15.08055899999613
  0
CIRCLE
  5
6783
  8
AM_0
 10
666.14073046551448
 20
151.16298790622781
 30
0.0
 40
4.979646299999998
  0
CIRCLE
  5
6784
  8
AM_0
 10
609.88616446551453
 20
151.16298790622781
 30
0.0
 40
4.979646299999998
  0
CIRCLE
  5
6785
  8
AM_0
 10
579.70200646551473
 20
263.81208490622782
 30
0.0
 40
4.979646299999998
  0
CIRCLE
  5
6786
  8
AM_0
 10
696.32494846551469
 20
263.8120249062278
 30
0.0
 40
4.979646299999998
  0
ARC
  5
679D
  8
AM_0
 10
638.01344146551446
 20
239.06809690622779
 30
0.0
 40
52.000007999999987
 50
95.215910999999593
 51
132.24432999999581
  0
LINE
  5
67A1
  8
AM_0
 10
385.19733380279382
 20
272.5680939062276
 30
0.0
 11
390.19733380279371
 21
267.56809390622777
 31
0.0
  0
LINE
  5
67A2
  8
AM_0
 10
380.69733380279399
 20
272.5680939062276
 30
0.0
 11
385.19733380279399
 21
272.5680939062276
 31
0.0
  0
LINE
  5
67A3
  8
AM_0
 10
380.19733380279382
 20
272.06809390622772
 30
0.0
 11
380.19733380279371
 21
250.87105990622771
 31
0.0
  0
LINE
  5
67A4
  8
AM_0
 10
390.19733380279371
 20
267.56809390622777
 30
0.0
 11
390.19733380279382
 21
210.5680939062278
 31
0.0
  0
LINE
  5
67A5
  8
AM_0
 10
381.1973638027938
 20
205.56809390622769
 30
0.0
 11
385.19733380279382
 21
205.56809390622769
 31
0.0
  0
LINE
  5
67A6
  8
AM_0
 10
385.19733380279382
 20
205.56809390622769
 30
0.0
 11
390.19733380279382
 21
210.5680939062278
 31
0.0
  0
LINE
  5
67A7
  8
AM_0
 10
380.69733380279399
 20
272.5680939062276
 30
0.0
 11
380.19733380279382
 21
272.06809390622772
 31
0.0
1001
GENIUS_GENFIL_13
1070
     0
1040
0.5
1040
0.5
1040
20.0
1040
0.0
1002
{
1002
}
1001
GENIUS_GENOBJ-N-CHA_13
1002
{
1000
OWNER
1000
GEN
1002
}
1001
GENIUS_GENODEF_13
1002
{
1000
HIER
1070
     0
1002
}
1002
{
1000
MANEDIT
1070
     0
1002
}
1002
{
1000
NOSEL
1070
     0
1002
}
1002
{
1000
BEHIND
1070
     0
1002
}
1002
{
1000
OTHER
1070
     0
1002
}
1002
{
1000
REACTOR
1002
}
  0
LINE
  5
67A8
  8
AM_0
 10
385.19733380279399
 20
272.5680939062276
 30
0.0
 11
385.19733380279382
 21
205.56809390622769
 31
0.0
  0
LINE
  5
6941
  8
ﾁｭｳｼﾝｾﾝ1
 10
717.9165240392233
 20
159.16507116908639
 30
0.0
 11
699.53175510381766
 21
177.5498548553775
 31
0.0
  0
ARC
  5
6942
  8
ﾁｭｳｼﾝｾﾝ1
 10
638.01347146551427
 20
239.0681269062278
 30
0.0
 40
100.000011
 50
306.97202531710639
 51
323.0279746828935
  0
LINE
  5
6943
  8
ﾁｭｳｼﾝｾﾝ1
 10
717.91649720265593
 20
318.97120947993642
 30
0.0
 11
699.53171351636479
 21
300.58644054453089
 31
0.0
  0
ARC
  5
6944
  8
ﾁｭｳｼﾝｾﾝ1
 10
638.01344146551446
 20
239.0681569062275
 30
0.0
 40
100.000011
 50
36.972025317106343
 51
53.027974682893507
  0
LINE
  5
6945
  8
ﾁｭｳｼﾝｾﾝ1
 10
558.11035889180573
 20
318.97118264336882
 30
0.0
 11
576.49512782721115
 21
300.58639895707768
 31
0.0
  0
ARC
  5
6946
  8
ﾁｭｳｼﾝｾﾝ1
 10
638.01341146551465
 20
239.06812690622741
 30
0.0
 40
100.000011
 50
126.9720253171063
 51
143.0279746828935
  0
LINE
  5
6C68
  8
ﾁｭｳｼﾝｾﾝ
 10
91.401242890608373
 20
507.35952276089853
 30
0.0
 11
426.3884838027941
 21
507.35952276089853
 31
0.0
  0
LINE
  5
6CAC
  8
AM_0
 10
279.19741380279407
 20
451.35952276089859
 30
0.0
 11
279.19741380279407
 21
563.35952276089836
 31
0.0
  0
LINE
  5
6CFE
  8
AM_0
 10
250.22360365183451
 20
441.35952276089853
 30
0.0
 11
250.4781529258573
 21
451.07949276089829
 31
0.0
  0
LINE
  5
6CFF
  8
AM_0
 10
190.1711716565938
 20
441.35952276089853
 30
0.0
 11
189.91668961545511
 21
451.07949276089829
 31
0.0
  0
LINE
  5
6D00
  8
AM_0
 10
186.6974138027939
 20
439.35952276089859
 30
0.0
 11
253.69741380279399
 21
439.35952276089859
 31
0.0
  0
LINE
  5
6D01
  8
AM_0
 10
186.6974138027939
 20
438.35952276089853
 30
0.0
 11
186.6974138027939
 21
439.35952276089859
 31
0.0
  0
LINE
  5
6D02
  8
AM_0
 10
253.69741380279399
 20
438.35952276089853
 30
0.0
 11
253.69741380279399
 21
439.35952276089859
 31
0.0
  0
LINE
  5
6D03
  8
AM_0
 10
172.1974138027939
 20
400.35952276089853
 30
0.0
 11
173.45699893905621
 21
436.42932175430337
 31
0.0
  0
LINE
  5
6D04
  8
AM_0
 10
175.45578059309449
 20
438.35952276089853
 30
0.0
 11
264.93904701249352
 21
438.35952276089853
 31
0.0
  0
ARC
  5
6D05
  8
AM_0
 10
175.45578059309449
 20
436.35952276089853
 30
0.0
 40
2.0
 50
90.0
 51
178.0000000000029
1001
GENIUS_GENODEF_13
1002
{
1000
HIER
1070
     0
1002
}
1002
{
1000
MANEDIT
1070
     0
1002
}
1002
{
1000
NOSEL
1070
     0
1002
}
1002
{
1000
BEHIND
1070
     0
1002
}
1002
{
1000
OTHER
1070
     0
1002
}
1002
{
1000
REACTOR
1002
}
1001
GENIUS_GENOBJ-N-FIL_13
1002
{
1000
OWNER
1000
GEN
1002
}
  0
LINE
  5
6D06
  8
AM_0
 10
266.93782866653169
 20
436.42932175430337
 30
0.0
 11
268.19741380279407
 21
400.35952276089853
 31
0.0
  0
ARC
  5
6D07
  8
AM_0
 10
264.93904701249357
 20
436.35952276089853
 30
0.0
 40
2.0
 50
1.9999999999971021
 51
90.0
1001
GENIUS_GENOBJ-N-FIL_13
1002
{
1000
OWNER
1000
GEN
1002
}
1001
GENIUS_GENODEF_13
1002
{
1000
HIER
1070
     0
1002
}
1002
{
1000
MANEDIT
1070
     0
1002
}
1002
{
1000
NOSEL
1070
     0
1002
}
1002
{
1000
BEHIND
1070
     0
1002
}
1002
{
1000
OTHER
1070
     0
1002
}
1002
{
1000
REACTOR
1002
}
  0
LINE
  5
6D08
  8
AM_0
 10
268.19741380279407
 20
400.35952276089853
 30
0.0
 11
172.19741380279359
 21
400.35952276089853
 31
0.0
  0
LINE
  5
6D09
  8
AM_0
 10
172.3021761112692
 20
403.3595227608983
 30
0.0
 11
171.1974138027939
 21
403.3595227608983
 31
0.0
  0
LINE
  5
6D0A
  8
AM_0
 10
173.41964073500509
 20
435.3595227608983
 30
0.0
 11
171.1974138027939
 21
435.3595227608983
 31
0.0
  0
LINE
  5
6D0B
  8
ﾁｭｳｼﾝｾﾝ1
 10
177.19741380279461
 20
390.0948152608986
 30
0.0
 11
177.19741380279461
 21
403.0948152608986
 31
0.0
  0
LINE
  5
6D0C
  8
ﾁｭｳｼﾝｾﾝ
 10
220.19741380279399
 20
445.65155343412761
 30
0.0
 11
220.19741380279399
 21
387.90900012008927
 31
0.0
  0
LINE
  5
6D0D
  8
AM_0
 10
168.6974138027939
 20
405.8595227608983
 30
0.0
 11
171.1974138027939
 21
405.85952276089802
 31
0.0
  0
LINE
  5
6D0E
  8
AM_0
 10
171.1974138027939
 20
432.85952276089819
 30
0.0
 11
168.6974138027939
 21
432.85952276089841
 31
0.0
  0
LINE
  5
6D0F
  8
AM_0
 10
157.798742706448
 20
429.85952276089819
 30
0.0
 11
157.798742706448
 21
408.85952276089819
 31
0.0
  0
LINE
  5
6D10
  8
AM_0
 10
142.798742706448
 20
411.32789770688311
 30
0.0
 11
142.798742706448
 21
427.39114781491429
 31
0.0
  0
LINE
  5
6D11
  8
AM_0
 10
155.798742706448
 20
431.3595227608983
 30
0.0
 11
155.798742706448
 21
407.3595227608983
 31
0.0
  0
LINE
  5
6D12
  8
AM_0
 10
146.298742706448
 20
419.3595227608983
 30
0.0
 11
146.798742706448
 21
419.8595227608983
 31
0.0
  0
LINE
  5
6D13
  8
AM_0
 10
153.298742706448
 20
407.65952276089831
 30
0.0
 11
153.298742706448
 21
431.05952276089818
 31
0.0
  0
LINE
  5
6D14
  8
AM_0
 10
163.1974138027939
 20
407.85952276089841
 30
0.0
 11
163.1974138027939
 21
430.8595227608983
 31
0.0
  0
LINE
  5
6D15
  8
AM_0
 10
157.298742706448
 20
420.05952276090011
 30
0.0
 11
157.298742706448
 21
418.65952276089718
 31
0.0
  0
LINE
  5
6D16
  8
AM_0
 10
159.39837843301879
 20
428.45952276089821
 30
0.0
 11
158.6483784330199
 21
410.25952276089828
 31
0.0
  0
LINE
  5
6D17
  8
AM_0
 10
158.4474138027939
 20
428.45952276089821
 30
0.0
 11
157.798742706448
 21
412.7184374895823
 31
0.0
  0
LINE
  5
6D18
  8
AM_0
 10
159.19610639336599
 20
429.1751814732624
 30
0.0
 11
158.44884634995799
 21
409.54715099973129
 31
0.0
  0
LINE
  5
6D19
  8
AM_0
 10
158.6469458858559
 20
429.17189452206628
 30
0.0
 11
157.8983784330199
 21
409.50952276089822
 31
0.0
  0
LINE
  5
6D1A
  8
AM_0
 10
155.798742706448
 20
407.3595227608983
 30
0.0
 11
153.59874270644801
 21
407.3595227608983
 31
0.0
  0
ARC
  5
6D1B
  8
AM_0
 10
167.69741380279399
 20
406.8595227608983
 30
0.0
 40
0.5
 50
0.0
 51
90.000000000013017
  0
ARC
  5
6D1C
  8
AM_0
 10
168.69741380279399
 20
406.3595227608983
 30
0.0
 40
0.5
 50
180.0
 51
270.0
  0
LINE
  5
6D1D
  8
AM_0
 10
168.1974138027939
 20
406.8595227608983
 30
0.0
 11
168.1974138027939
 21
406.3595227608983
 31
0.0
  0
LINE
  5
6D1E
  8
AM_0
 10
159.1974138027939
 20
410.25952276089828
 30
0.0
 11
162.6974138027939
 21
410.25952276089828
 31
0.0
  0
LINE
  5
6D1F
  8
AM_0
 10
168.1974138027939
 20
408.5034514394913
 30
0.0
 11
168.1974138027939
 21
418.2155940823061
 31
0.0
  0
LINE
  5
6D20
  8
AM_0
 10
163.6974138027939
 20
407.3595227608983
 30
0.0
 11
167.6974138027939
 21
407.3595227608983
 31
0.0
  0
LINE
  5
6D21
  8
AM_0
 10
167.6974138027939
 20
408.0034514394913
 30
0.0
 11
163.1974138027939
 21
408.0034514394913
 31
0.0
  0
ARC
  5
6D22
  8
AM_0
 10
167.69741380279399
 20
408.5034514394913
 30
0.0
 40
0.5
 50
270.0
 51
0.0
  0
ARC
  5
6D23
  8
AM_0
 10
162.6974138027939
 20
409.75952276089851
 30
0.0
 40
0.5
 50
0.0
 51
90.0
  0
ARC
  5
6D24
  8
AM_0
 10
163.6974138027939
 20
407.85952276089841
 30
0.0
 40
0.5
 50
180.0
 51
270.0
  0
LINE
  5
6D25
  8
AM_0
 10
167.6974138027939
 20
418.7155940823061
 30
0.0
 11
163.1974138027939
 21
418.7155940823061
 31
0.0
  0
ARC
  5
6D26
  8
AM_0
 10
167.6974138027939
 20
418.21559408230632
 30
0.0
 40
0.5
 50
0.0
 51
90.0
  0
LINE
  5
6D27
  8
AM_0
 10
157.298742706448
 20
413.21435200860628
 30
0.0
 11
157.298742706448
 21
414.38659519503921
 31
0.0
  0
LINE
  5
6D28
  8
AM_0
 10
158.7251108614449
 20
410.25952276089828
 30
0.0
 11
159.1974138027939
 21
410.25952276089828
 31
0.0
  0
LINE
  5
6D29
  8
AM_0
 10
158.62851836690569
 20
410.18540499416162
 30
0.0
 11
158.6483784330199
 21
410.25952276089828
 31
0.0
  0
ARC
  5
6D2A
  8
AM_0
 10
158.7251108614449
 20
410.1595227608982
 30
0.0
 40
0.1000000000000346
 50
90.0
 51
164.99980499355539
  0
ARC
  5
6D2B
  8
AM_0
 10
156.9987427064479
 20
410.07268978039031
 30
0.0
 40
0.3000000000000043
 50
0.0
 51
90.0
  0
LINE
  5
6D2C
  8
AM_0
 10
155.798742706448
 20
407.95952276089821
 30
0.0
 11
157.01869840960501
 21
408.04085314110938
 31
0.0
  0
LINE
  5
6D2D
  8
AM_0
 10
155.798742706448
 20
409.11577479673832
 30
0.0
 11
156.99874270644781
 21
409.11577479673832
 31
0.0
  0
LINE
  5
6D2E
  8
AM_0
 10
157.298742706448
 20
408.3595227608983
 30
0.0
 11
155.798742706448
 21
408.3595227608983
 31
0.0
  0
ARC
  5
6D2F
  8
AM_0
 10
157.298742706448
 20
408.85952276089819
 30
0.0
 40
0.5
 50
270.0
 51
0.0
  0
LINE
  5
6D30
  8
AM_0
 10
157.298742706448
 20
408.3401886884663
 30
0.0
 11
157.298742706448
 21
408.3595227608983
 31
0.0
  0
LINE
  5
6D31
  8
AM_0
 10
157.298742706448
 20
408.05952276089829
 30
0.0
 11
157.298742706448
 21
408.3401886884663
 31
0.0
  0
LINE
  5
6D32
  8
AM_0
 10
157.01869840960501
 20
408.04085314110938
 30
0.0
 11
157.298742706448
 21
408.05952276089829
 31
0.0
  0
ARC
  5
6D33
  8
AM_0
 10
156.9987427064479
 20
408.3401886884663
 30
0.0
 40
0.3000000000000007
 50
273.8140748342816
 51
0.0
  0
LINE
  5
6D34
  8
AM_0
 10
158.3706813743689
 20
409.50952276089822
 30
0.0
 11
158.44741380279481
 21
409.50952276089822
 31
0.0
  0
LINE
  5
6D35
  8
AM_0
 10
158.44741380279481
 20
409.50952276089822
 30
0.0
 11
158.46727386890791
 21
409.5836405276346
 31
0.0
  0
LINE
  5
6D36
  8
AM_0
 10
157.87851836690569
 20
409.5836405276346
 30
0.0
 11
157.8983784330199
 21
409.50952276089822
 31
0.0
  0
LINE
  5
6D37
  8
AM_0
 10
157.8983784330199
 20
409.50952276089822
 30
0.0
 11
157.9751108614449
 21
409.50952276089822
 31
0.0
  0
LINE
  5
6D38
  8
AM_0
 10
158.46727386890791
 20
409.5836405276346
 30
0.0
 11
158.62851836690569
 21
410.18540499416162
 31
0.0
  0
LINE
  5
6D39
  8
AM_0
 10
157.9751108614449
 20
409.50952276089822
 30
0.0
 11
158.3706813743689
 21
409.50952276089822
 31
0.0
  0
LINE
  5
6D3A
  8
AM_0
 10
157.79874270644891
 20
409.8813632924593
 30
0.0
 11
157.87851836690569
 21
409.5836405276346
 31
0.0
  0
ARC
  5
6D3B
  8
AM_0
 10
158.3706813743689
 20
409.6095227608983
 30
0.0
 40
0.0999999999999866
 50
270.0
 51
344.99980499343371
  0
ARC
  5
6D3C
  8
AM_0
 10
157.9751108614449
 20
409.6095227608983
 30
0.0
 40
0.1000000000000014
 50
195.00019500656629
 51
270.0
  0
LINE
  5
6D3D
  8
AM_0
 10
157.298742706448
 20
409.41577479673828
 30
0.0
 11
157.298742706448
 21
410.07268978039031
 31
0.0
  0
ARC
  5
6D3E
  8
AM_0
 10
156.9987427064479
 20
409.41577479673828
 30
0.0
 40
0.3000000000000007
 50
270.0
 51
0.0
  0
LINE
  5
6D3F
  8
AM_0
 10
155.798742706448
 20
412.91435200860627
 30
0.0
 11
156.99874270644781
 21
412.91435200860627
 31
0.0
  0
LINE
  5
6D40
  8
AM_0
 10
156.99874270644781
 20
410.37268978039032
 30
0.0
 11
155.798742706448
 21
410.37268978039032
 31
0.0
  0
LINE
  5
6D41
  8
AM_0
 10
158.6483784330199
 20
410.25952276089828
 30
0.0
 11
158.7251108614449
 21
410.25952276089828
 31
0.0
  0
ARC
  5
6D42
  8
AM_0
 10
156.9987427064479
 20
413.21435200860651
 30
0.0
 40
0.3000000000000007
 50
270.0
 51
0.0
  0
LINE
  5
6D43
  8
AM_0
 10
156.99874270644781
 20
414.68659519503939
 30
0.0
 11
155.798742706448
 21
414.68659519503939
 31
0.0
  0
ARC
  5
6D44
  8
AM_0
 10
156.9987427064479
 20
414.38659519503921
 30
0.0
 40
0.3000000000000043
 50
0.0
 51
90.0
  0
LINE
  5
6D45
  8
AM_0
 10
156.99874270644781
 20
418.35952276089722
 30
0.0
 11
155.798742706448
 21
418.35952276089722
 31
0.0
  0
ARC
  5
6D46
  8
AM_0
 10
156.9987427064479
 20
418.65952276089729
 30
0.0
 40
0.3000000000000007
 50
270.0
 51
0.0
  0
LINE
  5
6D47
  8
AM_0
 10
146.798742706448
 20
409.2262429322513
 30
0.0
 11
153.298742706448
 21
409.2262429322513
 31
0.0
  0
LINE
  5
6D48
  8
AM_0
 10
146.798742706448
 20
408.72624293225113
 30
0.0
 11
153.298742706448
 21
408.72624293225113
 31
0.0
  0
LINE
  5
6D49
  8
AM_0
 10
153.298742706448
 20
418.8595227608983
 30
0.0
 11
146.798742706448
 21
418.8595227608983
 31
0.0
  0
LINE
  5
6D4A
  8
AM_0
 10
146.298742706448
 20
418.3595227608983
 30
0.0
 11
153.298742706448
 21
418.3595227608983
 31
0.0
  0
LINE
  5
6D4B
  8
AM_0
 10
152.99874270644781
 20
408.3595227608983
 30
0.0
 11
146.16079264162991
 21
408.3595227608983
 31
0.0
  0
LINE
  5
6D4C
  8
AM_0
 10
153.298742706448
 20
418.0128346923571
 30
0.0
 11
146.798742706448
 21
418.0128346923571
 31
0.0
  0
LINE
  5
6D4D
  8
AM_0
 10
153.298742706448
 20
409.70621082943939
 30
0.0
 11
146.798742706448
 21
409.70621082943939
 31
0.0
  0
ARC
  5
6D4E
  8
AM_0
 10
153.59874270644801
 20
407.65952276089831
 30
0.0
 40
0.2999999999999971
 50
180.0
 51
270.0
  0
ARC
  5
6D4F
  8
AM_0
 10
152.9987427064479
 20
408.05952276089829
 30
0.0
 40
0.2999999999999971
 50
0.0
 51
90.0
  0
ARC
  5
6D50
  8
AM_0
 10
154.923742706448
 20
413.8595227608983
 30
0.0
 40
9.124999999999984
 50
152.92493329271929
 51
207.07506670728071
  0
LINE
  5
6D51
  8
AM_0
 10
145.5206082419655
 20
408.59130148130077
 30
0.0
 11
143.15855830678339
 21
410.55967642728569
 31
0.0
  0
LINE
  5
6D52
  8
AM_0
 10
146.298742706448
 20
408.93795534440642
 30
0.0
 11
146.798742706448
 21
408.3595227608983
 31
0.0
  0
ARC
  5
6D53
  8
AM_0
 10
146.16079264162991
 20
409.3595227608983
 30
0.0
 40
1.0
 50
230.19442890774391
 51
270.0
  0
LINE
  5
6D54
  8
AM_0
 10
146.798742706448
 20
408.72624293225113
 30
0.0
 11
146.298742706448
 21
408.93795534440642
 31
0.0
  0
LINE
  5
6D55
  8
AM_0
 10
146.298742706448
 20
409.40023061737742
 30
0.0
 11
146.798742706448
 21
408.72624293225113
 31
0.0
  0
LINE
  5
6D56
  8
AM_0
 10
146.798742706448
 20
409.2262429322513
 30
0.0
 11
146.298742706448
 21
409.40023061737742
 31
0.0
  0
LINE
  5
6D57
  8
AM_0
 10
146.298742706448
 20
409.93795534440619
 30
0.0
 11
146.798742706448
 21
409.2262429322513
 31
0.0
  0
LINE
  5
6D58
  8
AM_0
 10
146.798742706448
 20
409.70621082943939
 30
0.0
 11
146.298742706448
 21
409.93795534440619
 31
0.0
  0
ARC
  5
6D59
  8
AM_0
 10
143.798742706448
 20
411.32789770688339
 30
0.0
 40
1.0000000000000291
 50
180.0
 51
230.19442890773689
  0
LINE
  5
6D5A
  8
AM_0
 10
146.798742706448
 20
418.8595227608983
 30
0.0
 11
146.298742706448
 21
419.3595227608983
 31
0.0
  0
LINE
  5
6D5B
  8
AM_0
 10
146.298742706448
 20
418.3595227608983
 30
0.0
 11
146.798742706448
 21
418.8595227608983
 31
0.0
  0
LINE
  5
6D5C
  8
AM_0
 10
146.798742706448
 20
418.0128346923571
 30
0.0
 11
146.298742706448
 21
418.3595227608983
 31
0.0
  0
LINE
  5
6D5D
  8
AM_0
 10
153.59874270644801
 20
431.3595227608983
 30
0.0
 11
155.798742706448
 21
431.3595227608983
 31
0.0
  0
ARC
  5
6D5E
  8
AM_0
 10
167.6974138027939
 20
431.8595227608983
 30
0.0
 40
0.5
 50
269.99999999998693
 51
0.0
  0
LINE
  5
6D5F
  8
AM_0
 10
162.6974138027939
 20
428.45952276089821
 30
0.0
 11
159.4751108614449
 21
428.45952276089821
 31
0.0
  0
LINE
  5
6D60
  8
AM_0
 10
168.1974138027939
 20
420.5034514394913
 30
0.0
 11
168.1974138027939
 21
430.21559408230632
 31
0.0
  0
LINE
  5
6D61
  8
AM_0
 10
163.1974138027939
 20
420.0034514394913
 30
0.0
 11
167.6974138027939
 21
420.0034514394913
 31
0.0
  0
ARC
  5
6D62
  8
AM_0
 10
167.6974138027939
 20
420.5034514394913
 30
0.0
 40
0.5
 50
270.0
 51
0.0
  0
LINE
  5
6D63
  8
AM_0
 10
163.1974138027939
 20
430.71559408230632
 30
0.0
 11
167.6974138027939
 21
430.71559408230632
 31
0.0
  0
LINE
  5
6D64
  8
AM_0
 10
167.6974138027939
 20
431.3595227608983
 30
0.0
 11
163.6974138027939
 21
431.3595227608983
 31
0.0
  0
ARC
  5
6D65
  8
AM_0
 10
167.6974138027939
 20
430.21559408230632
 30
0.0
 40
0.5
 50
0.0
 51
90.0
  0
ARC
  5
6D66
  8
AM_0
 10
162.6974138027939
 20
428.95952276089821
 30
0.0
 40
0.5
 50
270.0
 51
0.0
  0
ARC
  5
6D67
  8
AM_0
 10
163.6974138027939
 20
430.8595227608983
 30
0.0
 40
0.5
 50
90.0
 51
180.0
  0
ARC
  5
6D68
  8
AM_0
 10
156.9987427064479
 20
425.50469351319032
 30
0.0
 40
0.3000000000000114
 50
0.0
 51
90.0
  0
LINE
  5
6D69
  8
AM_0
 10
155.798742706448
 20
420.35952276090012
 30
0.0
 11
156.99874270644781
 21
420.35952276090012
 31
0.0
  0
ARC
  5
6D6A
  8
AM_0
 10
156.9987427064479
 20
420.05952276090051
 30
0.0
 40
0.2999999999999971
 50
0.0
 51
90.0
  0
LINE
  5
6D6B
  8
AM_0
 10
155.798742706448
 20
424.03245032675699
 30
0.0
 11
156.99874270644781
 21
424.03245032675699
 31
0.0
  0
ARC
  5
6D6C
  8
AM_0
 10
156.9987427064479
 20
424.33245032675723
 30
0.0
 40
0.3000000000000007
 50
270.0
 51
0.0
  0
LINE
  5
6D6D
  8
AM_0
 10
157.298742706448
 20
424.33245032675723
 30
0.0
 11
157.298742706448
 21
425.50469351319032
 31
0.0
  0
LINE
  5
6D6E
  8
AM_0
 10
158.7251108614449
 20
429.20952276089821
 30
0.0
 11
159.1206813743689
 21
429.20952276089821
 31
0.0
  0
LINE
  5
6D6F
  8
AM_0
 10
158.7251108614449
 20
429.20952276089821
 30
0.0
 11
159.1206813743689
 21
429.20952276089821
 31
0.0
  0
LINE
  5
6D70
  8
AM_0
 10
159.21727386890791
 20
429.13540499416177
 30
0.0
 11
159.37851836690569
 21
428.53364052763459
 31
0.0
  0
LINE
  5
6D71
  8
AM_0
 10
159.21727386890791
 20
429.13540499416177
 30
0.0
 11
159.37851836690569
 21
428.53364052763459
 31
0.0
  0
ARC
  5
6D72
  8
AM_0
 10
159.4751108614449
 20
428.55952276089829
 30
0.0
 40
0.0999999999999943
 50
195.00019500651879
 51
270.0
  0
ARC
  5
6D73
  8
AM_0
 10
159.1206813743689
 20
429.1095227608983
 30
0.0
 40
0.0999999999999943
 50
15.000195006505431
 51
90.0
  0
LINE
  5
6D74
  8
AM_0
 10
157.79789611790679
 20
428.83452276089838
 30
0.0
 11
157.87851836690569
 21
428.53364052763459
 31
0.0
  0
LINE
  5
6D75
  8
AM_0
 10
158.45012445499981
 20
428.49878729399632
 30
0.0
 11
158.62851836690569
 21
429.13540499416177
 31
0.0
  0
LINE
  5
6D76
  8
AM_0
 10
158.46727386890791
 20
428.53364052763459
 30
0.0
 11
158.62851836690569
 21
429.13540499416177
 31
0.0
  0
LINE
  5
6D77
  8
AM_0
 10
157.298742706448
 20
428.64635574140721
 30
0.0
 11
157.298742706448
 21
429.30327072505821
 31
0.0
  0
LINE
  5
6D78
  8
AM_0
 10
157.798742706448
 20
428.8313632924602
 30
0.0
 11
157.87851836690569
 21
428.53364052763459
 31
0.0
  0
LINE
  5
6D79
  8
AM_0
 10
155.798742706448
 20
428.34635574140742
 30
0.0
 11
156.99874270644781
 21
428.34635574140742
 31
0.0
  0
LINE
  5
6D7A
  8
AM_0
 10
156.99874270644781
 20
425.80469351319027
 30
0.0
 11
155.798742706448
 21
425.80469351319118
 31
0.0
  0
LINE
  5
6D7B
  8
AM_0
 10
158.403313639884
 20
428.45952276089821
 30
0.0
 11
158.45012445499981
 21
428.49878729399632
 31
0.0
  0
LINE
  5
6D7C
  8
AM_0
 10
157.9751108614449
 20
428.45952276089821
 30
0.0
 11
158.403313639884
 21
428.45952276089821
 31
0.0
  0
LINE
  5
6D7D
  8
AM_0
 10
157.9751108614449
 20
428.45952276089821
 30
0.0
 11
158.3706813743689
 21
428.45952276089821
 31
0.0
  0
ARC
  5
6D7E
  8
AM_0
 10
157.9751108614449
 20
428.55952276089829
 30
0.0
 40
0.0999999999999943
 50
195.00019500651879
 51
270.0
  0
ARC
  5
6D7F
  8
AM_0
 10
158.3706813743689
 20
428.55952276089829
 30
0.0
 40
0.0999999999999608
 50
270.0
 51
344.99980499348112
  0
ARC
  5
6D80
  8
AM_0
 10
156.9987427064479
 20
428.64635574140721
 30
0.0
 40
0.3000000000000007
 50
270.0
 51
0.0
  0
LINE
  5
6D81
  8
AM_0
 10
155.798742706448
 20
430.3595227608983
 30
0.0
 11
157.298742706448
 21
430.3595227608983
 31
0.0
  0
LINE
  5
6D82
  8
AM_0
 10
156.99874270644781
 20
429.60327072505811
 30
0.0
 11
155.798742706448
 21
429.60327072505811
 31
0.0
  0
LINE
  5
6D83
  8
AM_0
 10
157.01869840960501
 20
430.6781923806883
 30
0.0
 11
155.798742706448
 21
430.75952276089828
 31
0.0
  0
ARC
  5
6D84
  8
AM_0
 10
157.298742706448
 20
429.85952276089819
 30
0.0
 40
0.5
 50
0.0
 51
90.0
  0
ARC
  5
6D85
  8
AM_0
 10
158.7251108614449
 20
429.1095227608983
 30
0.0
 40
0.0999999999999606
 50
90.0
 51
164.99980499349451
  0
ARC
  5
6D86
  8
AM_0
 10
156.9987427064479
 20
429.30327072505821
 30
0.0
 40
0.2999999999999971
 50
0.0
 51
90.0
  0
LINE
  5
6D87
  8
AM_0
 10
157.298742706448
 20
430.3595227608983
 30
0.0
 11
157.298742706448
 21
430.3788568333311
 31
0.0
  0
ARC
  5
6D88
  8
AM_0
 10
156.9987427064479
 20
430.3788568333311
 30
0.0
 40
0.3000000000000043
 50
0.0
 51
86.185925165718416
  0
ARC
  5
6D89
  8
AM_0
 10
168.6974138027939
 20
432.3595227608983
 30
0.0
 40
0.5
 50
90.0
 51
180.0
  0
LINE
  5
6D8A
  8
AM_0
 10
168.1974138027939
 20
432.3595227608983
 30
0.0
 11
168.1974138027939
 21
431.8595227608983
 31
0.0
  0
LINE
  5
6D8B
  8
AM_0
 10
146.798742706448
 20
429.0128346923571
 30
0.0
 11
153.298742706448
 21
429.0128346923571
 31
0.0
  0
LINE
  5
6D8C
  8
AM_0
 10
146.798742706448
 20
420.70621082943921
 30
0.0
 11
153.298742706448
 21
420.70621082943921
 31
0.0
  0
LINE
  5
6D8D
  8
AM_0
 10
146.16079264162991
 20
430.3595227608983
 30
0.0
 11
152.99874270644781
 21
430.3595227608983
 31
0.0
  0
LINE
  5
6D8E
  8
AM_0
 10
153.298742706448
 20
420.35952276089841
 30
0.0
 11
146.298742706448
 21
420.35952276089841
 31
0.0
  0
LINE
  5
6D8F
  8
AM_0
 10
146.798742706448
 20
419.8595227608983
 30
0.0
 11
153.298742706448
 21
419.8595227608983
 31
0.0
  0
LINE
  5
6D90
  8
AM_0
 10
153.298742706448
 20
429.99280258954627
 30
0.0
 11
146.798742706448
 21
429.99280258954627
 31
0.0
  0
LINE
  5
6D91
  8
AM_0
 10
153.298742706448
 20
429.49280258954627
 30
0.0
 11
146.798742706448
 21
429.49280258954627
 31
0.0
  0
ARC
  5
6D92
  8
AM_0
 10
152.9987427064479
 20
430.6595227608982
 30
0.0
 40
0.3000000000000043
 50
270.0
 51
0.0
  0
ARC
  5
6D93
  8
AM_0
 10
153.59874270644801
 20
431.05952276089829
 30
0.0
 40
0.2999999999999971
 50
90.0
 51
180.0
  0
ARC
  5
6D94
  8
AM_0
 10
154.923742706448
 20
424.85952276089841
 30
0.0
 40
9.124999999999984
 50
152.92493329271929
 51
207.07506670728071
  0
LINE
  5
6D95
  8
AM_0
 10
146.298742706448
 20
420.35952276089841
 30
0.0
 11
146.798742706448
 21
420.70621082943921
 31
0.0
  0
LINE
  5
6D96
  8
AM_0
 10
146.798742706448
 20
419.8595227608983
 30
0.0
 11
146.298742706448
 21
420.35952276089841
 31
0.0
  0
LINE
  5
6D97
  8
AM_0
 10
143.15855830678339
 20
428.15936909451159
 30
0.0
 11
145.5206082419655
 21
430.1277440404956
 31
0.0
  0
LINE
  5
6D98
  8
AM_0
 10
146.798742706448
 20
430.3595227608983
 30
0.0
 11
146.298742706448
 21
429.78109017739121
 31
0.0
  0
ARC
  5
6D99
  8
AM_0
 10
146.16079264162991
 20
429.3595227608983
 30
0.0
 40
1.0000000000000411
 50
90.0
 51
129.805571092256
  0
LINE
  5
6D9A
  8
AM_0
 10
146.298742706448
 20
428.78109017739121
 30
0.0
 11
146.798742706448
 21
429.0128346923571
 31
0.0
  0
LINE
  5
6D9B
  8
AM_0
 10
146.798742706448
 20
429.49280258954627
 30
0.0
 11
146.298742706448
 21
428.78109017739121
 31
0.0
  0
LINE
  5
6D9C
  8
AM_0
 10
146.298742706448
 20
429.31881490441941
 30
0.0
 11
146.798742706448
 21
429.49280258954627
 31
0.0
  0
LINE
  5
6D9D
  8
AM_0
 10
146.798742706448
 20
429.99280258954627
 30
0.0
 11
146.298742706448
 21
429.31881490441941
 31
0.0
  0
LINE
  5
6D9E
  8
AM_0
 10
146.298742706448
 20
429.78109017739121
 30
0.0
 11
146.798742706448
 21
429.99280258954627
 31
0.0
  0
ARC
  5
6D9F
  8
AM_0
 10
143.798742706448
 20
427.39114781491429
 30
0.0
 40
1.0
 50
129.80557109226311
 51
180.0
  0
LINE
  5
6DA0
  8
AM_0
 10
268.19741380279402
 20
396.3595227608987
 30
0.0
 11
247.38290890326161
 21
396.3595227608987
 31
0.0
  0
LINE
  5
6DA1
  8
AM_0
 10
193.0119187023264
 20
396.3595227608987
 30
0.0
 11
172.19741380279461
 21
396.3595227608987
 31
0.0
  0
LINE
  5
6DA2
  8
AM_0
 10
262.061632133633
 20
392.35952276089859
 30
0.0
 11
178.33319547195481
 21
392.35952276089859
 31
0.0
  0
LINE
  5
6DA3
  8
AM_0
 10
181.10476877510101
 20
394.3005852487708
 30
0.0
 11
181.19741380279461
 21
395.35952276089859
 31
0.0
  0
LINE
  5
6DA4
  8
AM_0
 10
173.29005883048791
 20
394.3005852487708
 30
0.0
 11
173.19741380279461
 21
395.35952276089859
 31
0.0
  0
ARC
  5
6DA5
  8
AM_0
 10
177.19741380279461
 20
398.75952276089862
 30
0.0
 40
6.5
 50
241.82726586813479
 51
298.17273413186518
  0
ARC
  5
6DA6
  8
AM_0
 10
174.88397034743491
 20
394.44003443716701
 30
0.0
 40
1.6000000000000001
 50
184.99999999999969
 51
241.82726586813479
  0
LINE
  5
6DA7
  8
AM_0
 10
179.49741380279451
 20
392.6800490994703
 30
0.0
 11
177.19741380279461
 21
394.96960877826569
 31
0.0
  0
LINE
  5
6DA8
  8
AM_0
 10
177.50891380279461
 20
394.6595227608986
 30
0.0
 11
176.88591380279451
 21
394.6595227608986
 31
0.0
  0
LINE
  5
6DA9
  8
AM_0
 10
174.8974138027946
 20
392.6800490994703
 30
0.0
 11
177.19741380279461
 21
394.96960877826569
 31
0.0
  0
LINE
  5
6DAA
  8
AM_0
 10
177.50891380279461
 20
392.26699107056402
 30
0.0
 11
177.50891380279461
 21
394.6595227608986
 31
0.0
  0
LINE
  5
6DAB
  8
AM_0
 10
176.88591380279451
 20
392.26699107056402
 30
0.0
 11
176.88591380279451
 21
394.6595227608986
 31
0.0
  0
ARC
  5
6DAC
  8
AM_0
 10
179.5108572581542
 20
394.44003443716701
 30
0.0
 40
1.6000000000000001
 50
298.17273413186518
 51
355.00000000000023
  0
LINE
  5
6DAD
  8
AM_0
 10
268.19741380279407
 20
396.3595227608987
 30
0.0
 11
268.19741380279407
 21
400.35952276089853
 31
0.0
  0
LINE
  5
6DAE
  8
AM_0
 10
172.19741380279359
 20
400.35952276089853
 30
0.0
 11
172.19741380279481
 21
396.3595227608987
 31
0.0
  0
LINE
  5
6DAF
  8
AM_0N
 10
180.9974138027944
 20
396.3595227608987
 30
0.0
 11
180.9974138027944
 21
395.35952276089859
 31
0.0
  0
LINE
  5
6DB0
  8
AM_0N
 10
177.3974138027946
 20
395.35952276089859
 30
0.0
 11
177.76138403706079
 21
396.3595227608987
 31
0.0
  0
LINE
  5
6DB1
  8
AM_0N
 10
176.99741380279451
 20
395.35952276089859
 30
0.0
 11
177.3613840370607
 21
396.3595227608987
 31
0.0
  0
LINE
  5
6DB2
  8
AM_0N
 10
173.19741380279461
 20
395.35952276089859
 30
0.0
 11
181.19741380279461
 21
395.35952276089859
 31
0.0
  0
LINE
  5
6DB3
  8
AM_0N
 10
173.3974138027946
 20
395.35952276089859
 30
0.0
 11
173.3974138027946
 21
396.3595227608987
 31
0.0
  0
LINE
  5
6DB4
  8
AM_0
 10
193.01191870232611
 20
392.35952276089859
 30
0.0
 11
193.01191870232611
 21
396.3595227608987
 31
0.0
  0
LINE
  5
6DB5
  8
AM_0
 10
191.3550644528336
 20
396.3595227608987
 30
0.0
 11
193.01191870232611
 21
392.35952276089859
 31
0.0
  0
LINE
  5
6DB6
  8
AM_0
 10
247.38290890326161
 20
392.35952276089859
 30
0.0
 11
247.38290890326161
 21
396.3595227608987
 31
0.0
  0
LINE
  5
6DB7
  8
AM_0
 10
249.03976315275409
 20
396.3595227608987
 30
0.0
 11
247.38290890326161
 21
392.35952276089859
 31
0.0
  0
LINE
  5
6DB8
  8
AM_0
 10
186.6974138027939
 20
441.35952276089853
 30
0.0
 11
253.69741380279399
 21
441.35952276089853
 31
0.0
  0
LINE
  5
6DB9
  8
AM_0
 10
186.6974138027939
 20
441.35952276089853
 30
0.0
 11
186.6974138027939
 21
439.35952276089859
 31
0.0
  0
LINE
  5
6DBA
  8
AM_0
 10
253.69741380279399
 20
441.35952276089853
 30
0.0
 11
253.69741380279399
 21
439.35952276089859
 31
0.0
  0
LINE
  5
6DBB
  8
ﾁｭｳｼﾝｾﾝ1
 10
263.19741380279328
 20
390.0948152608986
 30
0.0
 11
263.19741380279328
 21
403.0948152608986
 31
0.0
  0
LINE
  5
6DBC
  8
AM_0
 10
259.29005883048688
 20
394.3005852487708
 30
0.0
 11
259.19741380279339
 21
395.35952276089859
 31
0.0
  0
LINE
  5
6DBD
  8
AM_0
 10
267.1047687750999
 20
394.3005852487708
 30
0.0
 11
267.19741380279328
 21
395.35952276089859
 31
0.0
  0
ARC
  5
6DBE
  8
AM_0
 10
263.19741380279362
 20
398.75952276089851
 30
0.0
 40
6.5
 50
241.82726586813479
 51
298.17273413186518
  0
ARC
  5
6DBF
  8
AM_0
 10
265.51085725815318
 20
394.44003443716701
 30
0.0
 40
1.6000000000000001
 50
298.17273413186518
 51
355.00000000000023
  0
LINE
  5
6DC0
  8
AM_0
 10
260.89741380279338
 20
392.6800490994703
 30
0.0
 11
263.19741380279339
 21
394.96960877826569
 31
0.0
  0
LINE
  5
6DC1
  8
AM_0
 10
262.88591380279343
 20
394.6595227608986
 30
0.0
 11
263.50891380279342
 21
394.6595227608986
 31
0.0
  0
LINE
  5
6DC2
  8
AM_0
 10
265.4974138027934
 20
392.6800490994703
 30
0.0
 11
263.19741380279339
 21
394.96960877826569
 31
0.0
  0
LINE
  5
6DC3
  8
AM_0
 10
262.88591380279343
 20
392.26699107056402
 30
0.0
 11
262.88591380279343
 21
394.6595227608986
 31
0.0
  0
LINE
  5
6DC4
  8
AM_0
 10
263.50891380279342
 20
392.26699107056402
 30
0.0
 11
263.50891380279342
 21
394.6595227608986
 31
0.0
  0
ARC
  5
6DC5
  8
AM_0
 10
260.88397034743389
 20
394.44003443716701
 30
0.0
 40
1.6000000000000001
 50
184.99999999999969
 51
241.82726586813479
  0
LINE
  5
6DC6
  8
AM_0N
 10
259.39741380279332
 20
396.3595227608987
 30
0.0
 11
259.39741380279332
 21
395.35952276089859
 31
0.0
  0
LINE
  5
6DC7
  8
AM_0N
 10
262.99741380279329
 20
395.35952276089859
 30
0.0
 11
262.63344356852718
 21
396.3595227608987
 31
0.0
  0
LINE
  5
6DC8
  8
AM_0N
 10
263.39741380279332
 20
395.35952276089859
 30
0.0
 11
263.03344356852722
 21
396.3595227608987
 31
0.0
  0
LINE
  5
6DC9
  8
AM_0N
 10
267.19741380279339
 20
395.35952276089859
 30
0.0
 11
259.19741380279339
 21
395.35952276089859
 31
0.0
  0
LINE
  5
6DCA
  8
AM_0N
 10
266.99741380279329
 20
395.35952276089859
 30
0.0
 11
266.99741380279329
 21
396.3595227608987
 31
0.0
  0
LINE
  5
6DCB
  8
AM_0
 10
171.1974138027939
 20
403.3595227608983
 30
0.0
 11
171.1974138027939
 21
435.3595227608983
 31
0.0
  0
LINE
  5
6DCC
  8
AM_0
 10
269.4031638027941
 20
552.2884127608985
 30
0.0
 11
265.25744380279428
 21
567.76952276089833
 31
0.0
  0
LINE
  5
6DCD
  8
AM_0
 10
269.40313380279417
 20
551.37841276089864
 30
0.0
 11
265.25741380279408
 21
566.85952276089836
 31
0.0
  0
LINE
  5
6DCE
  8
AM_0
 10
269.40313380279417
 20
549.52843276089845
 30
0.0
 11
265.25741380279408
 21
565.00957276089855
 31
0.0
  0
LINE
  5
6DCF
  8
AM_0
 10
271.19741380279407
 20
563.35952276089836
 30
0.0
 11
271.19741380279407
 21
451.3595227608983
 31
0.0
  0
LINE
  5
6DD0
  8
AM_0
 10
264.53744380279409
 20
543.35952276089859
 30
0.0
 11
165.5574038027942
 21
543.35952276089859
 31
0.0
  0
LINE
  5
6DD1
  8
AM_0
 10
264.53744380279409
 20
541.35952276089836
 30
0.0
 11
165.5574038027942
 21
541.35952276089836
 31
0.0
  0
LINE
  5
6DD2
  8
AM_0
 10
232.1974138027943
 20
533.35952276089836
 30
0.0
 11
165.5574038027942
 21
533.35952276089836
 31
0.0
  0
LINE
  5
6DD3
  8
AM_0
 10
264.5302438027943
 20
531.35952276089859
 30
0.0
 11
165.5574038027942
 21
531.35952276089859
 31
0.0
  0
LINE
  5
6DD4
  8
AM_0
 10
199.63613380279401
 20
523.35952276089859
 30
0.0
 11
165.5574038027942
 21
523.35952276089859
 31
0.0
  0
LINE
  5
6DD5
  8
AM_0
 10
199.63613380279401
 20
521.35952276089836
 30
0.0
 11
165.5574038027942
 21
521.35952276089836
 31
0.0
  0
LINE
  5
6DD6
  8
AM_0
 10
199.63613380279401
 20
513.35952276089836
 30
0.0
 11
165.5574038027942
 21
513.35952276089836
 31
0.0
  0
LINE
  5
6DD7
  8
AM_0
 10
199.63613380279401
 20
511.35952276089853
 30
0.0
 11
165.5574038027942
 21
511.35952276089853
 31
0.0
  0
LINE
  5
6DD8
  8
AM_0
 10
164.8774038027943
 20
544.07949276089835
 30
0.0
 11
268.0174238027941
 21
544.07949276089835
 31
0.0
  0
LINE
  5
6DD9
  8
AM_0
 10
164.8774038027943
 20
540.72951276089861
 30
0.0
 11
232.2174338027942
 21
540.72951276089861
 31
0.0
  0
LINE
  5
6DDA
  8
AM_0
 10
164.65743380279409
 20
533.84951276089851
 30
0.0
 11
232.1974138027943
 21
533.84951276089851
 31
0.0
  0
LINE
  5
6DDB
  8
AM_0
 10
164.65743380279409
 20
530.91957276089852
 30
0.0
 11
268.23165380279409
 21
530.91957276089852
 31
0.0
  0
LINE
  5
6DDC
  8
AM_0
 10
164.52743380279409
 20
523.69948276089849
 30
0.0
 11
200.85610380279411
 21
523.69948276089849
 31
0.0
  0
LINE
  5
6DDD
  8
AM_0
 10
164.52743380279409
 20
521.03957276089852
 30
0.0
 11
200.85610380279411
 21
521.03957276089852
 31
0.0
  0
LINE
  5
6DDE
  8
AM_0
 10
164.46743380279401
 20
513.62954276089852
 30
0.0
 11
200.9161038027942
 21
513.62954276089852
 31
0.0
  0
LINE
  5
6DDF
  8
AM_0
 10
164.46743380279401
 20
511.09951276089851
 30
0.0
 11
200.9161038027942
 21
511.09951276089851
 31
0.0
  0
LINE
  5
6DE0
  8
AM_0
 10
164.46743380279401
 20
503.62954276089852
 30
0.0
 11
200.9161038027942
 21
503.62954276089852
 31
0.0
  0
LINE
  5
6DE1
  8
AM_0
 10
199.63613380279401
 20
503.35952276089853
 30
0.0
 11
165.5574038027942
 21
503.35952276089853
 31
0.0
  0
LINE
  5
6DE2
  8
AM_0
 10
199.63613380279401
 20
501.35952276089859
 30
0.0
 11
165.5574038027942
 21
501.35952276089859
 31
0.0
  0
LINE
  5
6DE3
  8
AM_0
 10
164.46743380279401
 20
501.08950276089848
 30
0.0
 11
200.9161038027942
 21
501.08950276089848
 31
0.0
  0
LINE
  5
6DE4
  8
AM_0
 10
164.52743380279409
 20
493.67946276089862
 30
0.0
 11
200.85610380279411
 21
493.67946276089862
 31
0.0
  0
LINE
  5
6DE5
  8
AM_0
 10
199.63613380279401
 20
493.35952276089859
 30
0.0
 11
165.5574038027942
 21
493.35952276089859
 31
0.0
  0
LINE
  5
6DE6
  8
AM_0
 10
199.63613380279401
 20
491.35952276089853
 30
0.0
 11
165.5574038027942
 21
491.35952276089853
 31
0.0
  0
LINE
  5
6DE7
  8
AM_0
 10
164.52743380279409
 20
491.01955276089848
 30
0.0
 11
200.8686838027941
 21
491.01955276089848
 31
0.0
  0
LINE
  5
6DE8
  8
AM_0
 10
264.5302438027943
 20
483.35952276089853
 30
0.0
 11
165.5574038027942
 21
483.35952276089853
 31
0.0
  0
LINE
  5
6DE9
  8
AM_0
 10
164.65743380279409
 20
483.79946276089851
 30
0.0
 11
268.23165380279409
 21
483.79946276089851
 31
0.0
  0
LINE
  5
6DEA
  8
AM_0
 10
232.1974138027943
 20
481.35952276089859
 30
0.0
 11
165.5574038027942
 21
481.35952276089859
 31
0.0
  0
LINE
  5
6DEB
  8
AM_0
 10
164.65743380279409
 20
480.86953276089861
 30
0.0
 11
232.1974138027943
 21
480.86953276089861
 31
0.0
  0
LINE
  5
6DEC
  8
AM_0
 10
264.53744380279409
 20
473.35952276089853
 30
0.0
 11
220.1974138027941
 21
473.35952276089853
 31
0.0
  0
LINE
  5
6DED
  8
AM_0
 10
264.53744380279409
 20
471.3595227608983
 30
0.0
 11
220.1974138027941
 21
471.3595227608983
 31
0.0
  0
LINE
  5
6DEE
  8
AM_0
 10
164.8774038027943
 20
470.63955276089831
 30
0.0
 11
220.1974138027941
 21
470.63955276089831
 31
0.0
  0
LINE
  5
6DEF
  8
AM_0
 10
268.0174238027941
 20
473.98952276089852
 30
0.0
 11
250.1774538027941
 21
473.98952276089852
 31
0.0
  0
LINE
  5
6DF0
  8
AM_0
 10
164.8774038027943
 20
473.98952276089852
 30
0.0
 11
232.2174338027942
 21
473.98952276089852
 31
0.0
  0
LINE
  5
6DF1
  8
AM_0
 10
220.1974138027941
 20
473.35952276089853
 30
0.0
 11
165.5574038027942
 21
473.35952276089853
 31
0.0
  0
LINE
  5
6DF2
  8
AM_0
 10
220.1974138027941
 20
471.3595227608983
 30
0.0
 11
165.5574038027942
 21
471.3595227608983
 31
0.0
  0
LINE
  5
6DF3
  8
AM_0
 10
220.1974138027941
 20
470.63955276089831
 30
0.0
 11
268.0174238027941
 21
470.63955276089831
 31
0.0
  0
LINE
  5
6DF4
  8
AM_0
 10
163.1974138027941
 20
560.35952276089859
 30
0.0
 11
163.1974138027941
 21
454.35952276089853
 31
0.0
  0
LINE
  5
6DF5
  8
AM_0
 10
271.19741380279407
 20
553.35952276089847
 30
0.0
 11
279.19741380279407
 21
553.35952276089847
 31
0.0
  0
LINE
  5
6DF6
  8
AM_0
 10
271.19741380279407
 20
539.29946276089845
 30
0.0
 11
279.19741380279407
 21
539.29946276089845
 31
0.0
  0
LINE
  5
6DF7
  8
AM_0
 10
271.19741380279407
 20
563.35952276089836
 30
0.0
 11
279.19741380279407
 21
563.35952276089836
 31
0.0
  0
LINE
  5
6DF8
  8
AM_0
 10
166.40743380279409
 20
563.6395527608986
 30
0.0
 11
263.3274238027941
 21
563.6395527608986
 31
0.0
  0
LINE
  5
6DF9
  8
AM_0
 10
163.1974138027941
 20
555.45958276089846
 30
0.0
 11
164.43740380279411
 21
562.01958276089852
 31
0.0
  0
LINE
  5
6DFA
  8
AM_0
 10
168.5574638027941
 20
544.00954276089851
 30
0.0
 11
163.19747380279409
 21
555.45952276089838
 31
0.0
  0
LINE
  5
6DFB
  8
AM_0
 10
168.5574038027942
 20
470.7094927608984
 30
0.0
 11
163.19747380279409
 21
459.26958276089829
 31
0.0
  0
LINE
  5
6DFC
  8
AM_0
 10
166.4474138027941
 20
566.48952276089835
 30
0.0
 11
263.3274238027941
 21
566.48952276089835
 31
0.0
  0
LINE
  5
6DFD
  8
AM_0
 10
166.46743380279401
 20
568.33950276089854
 30
0.0
 11
263.3274238027941
 21
568.33950276089854
 31
0.0
  0
LINE
  5
6DFE
  8
AM_0
 10
166.48745380279411
 20
569.24953276089855
 30
0.0
 11
263.32748380279418
 21
569.24953276089855
 31
0.0
  0
LINE
  5
6DFF
  8
AM_0
 10
163.19747380279409
 20
556.79955276089845
 30
0.0
 11
164.47744380279411
 21
564.80950276089845
 31
0.0
  0
LINE
  5
6E00
  8
AM_0
 10
163.19747380279409
 20
558.1494927608984
 30
0.0
 11
164.48745380279419
 21
566.63958276089852
 31
0.0
  0
LINE
  5
6E01
  8
AM_0
 10
163.1974138027941
 20
558.14952276089855
 30
0.0
 11
164.5074138027941
 21
567.52956276089833
 31
0.0
  0
LINE
  5
6E02
  8
AM_0
 10
269.39748380279428
 20
546.6994827608986
 30
0.0
 11
265.25747380279398
 21
562.15950276089859
 31
0.0
  0
LINE
  5
6E03
  8
AM_0
 10
265.73745380279428
 20
560.35952276089859
 30
0.0
 11
271.19741380279407
 21
560.35952276089859
 31
0.0
  0
LINE
  5
6E04
  8
AM_0
 10
271.19741380279407
 20
461.3595227608983
 30
0.0
 11
279.19741380279407
 21
461.3595227608983
 31
0.0
  0
LINE
  5
6E05
  8
AM_0
 10
271.19741380279407
 20
451.3595227608983
 30
0.0
 11
279.19741380279407
 21
451.3595227608983
 31
0.0
  0
LINE
  5
6E06
  8
AM_0
 10
166.40743380279409
 20
451.07949276089829
 30
0.0
 11
263.3274238027941
 21
451.07949276089829
 31
0.0
  0
LINE
  5
6E07
  8
AM_0
 10
163.1974138027941
 20
459.26949276089852
 30
0.0
 11
164.4374638027941
 21
452.70949276089851
 31
0.0
  0
LINE
  5
6E08
  8
AM_0
 10
166.1036638027941
 20
448.22951276089861
 30
0.0
 11
188.595543802794
 21
448.22951276089861
 31
0.0
  0
LINE
  5
6E09
  8
AM_0
 10
163.1974138027941
 20
457.91948276089852
 30
0.0
 11
164.47744380279411
 21
449.9195727608984
 31
0.0
  0
LINE
  5
6E0A
  8
AM_0
 10
163.1974138027941
 20
456.57958276089852
 30
0.0
 11
164.20669380279409
 21
449.92940276089848
 31
0.0
  0
LINE
  5
6E0B
  8
AM_0
 10
163.19747380279409
 20
456.57955276089859
 30
0.0
 11
164.1228938027941
 21
449.95296276089852
 31
0.0
  0
LINE
  5
6E0C
  8
AM_0
 10
269.40313380279417
 20
468.04067276089847
 30
0.0
 11
265.25741380279408
 21
452.55953276089861
 31
0.0
  0
LINE
  5
6E0D
  8
AM_0
 10
265.73946380279409
 20
454.35952276089853
 30
0.0
 11
271.19741380279407
 21
454.35952276089853
 31
0.0
  0
LINE
  5
6E0E
  8
AM_0
 10
271.19741380279407
 20
475.41957276089852
 30
0.0
 11
279.19741380279407
 21
475.41957276089852
 31
0.0
  0
LINE
  5
6E0F
  8
AM_0
 10
270.19741380279407
 20
454.35952276089853
 30
0.0
 11
264.4716738027941
 21
445.5426227608985
 31
0.0
  0
LINE
  5
6E10
  8
AM_0
 10
251.7110238027941
 20
444.8595227608983
 30
0.0
 11
263.21365380279428
 21
444.8595227608983
 31
0.0
  0
LINE
  5
6E11
  8
AM_0
 10
249.1774538027941
 20
534.85952276089859
 30
0.0
 11
249.1774538027941
 21
539.71950276089854
 31
0.0
  0
LINE
  5
6E12
  8
AM_0
 10
233.21743380279401
 20
534.85952276089859
 30
0.0
 11
233.21743380279401
 21
539.71950276089854
 31
0.0
  0
LINE
  5
6E13
  8
AM_0
 10
248.6974138027941
 20
534.85952276089859
 30
0.0
 11
248.6974138027941
 21
539.85952276089859
 31
0.0
  0
LINE
  5
6E14
  8
AM_0
 10
233.6974138027941
 20
534.85952276089859
 30
0.0
 11
233.6974138027941
 21
539.85952276089859
 31
0.0
  0
LINE
  5
6E15
  8
AM_0
 10
205.1974138027941
 20
520.35952276089836
 30
0.0
 11
268.19741380279407
 21
520.35952276089836
 31
0.0
  0
LINE
  5
6E16
  8
AM_0
 10
205.1974138027941
 20
486.85952276089841
 30
0.0
 11
268.19741380279407
 21
486.85952276089841
 31
0.0
  0
LINE
  5
6E17
  8
AM_0
 10
205.1974138027941
 20
527.85952276089859
 30
0.0
 11
268.19741380279407
 21
527.85952276089859
 31
0.0
  0
LINE
  5
6E18
  8
AM_0
 10
268.19741380279407
 20
527.85952276089859
 30
0.0
 11
268.19741380279407
 21
486.85952276089841
 31
0.0
  0
LINE
  5
6E19
  8
AM_0
 10
205.1974138027941
 20
527.85952276089859
 30
0.0
 11
205.1974138027941
 21
486.85952276089841
 31
0.0
  0
LINE
  5
6E1A
  8
AM_0
 10
250.1974138027941
 20
533.84951276089851
 30
0.0
 11
268.24313380279409
 21
533.84951276089851
 31
0.0
  0
LINE
  5
6E1B
  8
AM_0
 10
250.1974138027941
 20
480.87954276089852
 30
0.0
 11
268.23165380279409
 21
480.87954276089852
 31
0.0
  0
LINE
  5
6E1C
  8
AM_0
 10
249.1774538027941
 20
479.8595227608983
 30
0.0
 11
249.1774538027941
 21
474.99953276089838
 31
0.0
  0
LINE
  5
6E1D
  8
AM_0
 10
233.21743380279401
 20
479.8595227608983
 30
0.0
 11
233.21743380279401
 21
474.99953276089838
 31
0.0
  0
LINE
  5
6E1E
  8
AM_0
 10
248.6974138027941
 20
479.8595227608983
 30
0.0
 11
248.6974138027941
 21
474.85952276089853
 31
0.0
  0
LINE
  5
6E1F
  8
AM_0
 10
233.6974138027941
 20
479.8595227608983
 30
0.0
 11
233.6974138027941
 21
474.85952276089853
 31
0.0
  0
LINE
  5
6E20
  8
AM_0
 10
264.5302438027943
 20
481.35952276089859
 30
0.0
 11
250.1974138027941
 21
481.35952276089859
 31
0.0
  0
LINE
  5
6E21
  8
AM_0
 10
264.54458380279431
 20
533.35952276089836
 30
0.0
 11
250.1974138027941
 21
533.35952276089836
 31
0.0
  0
LINE
  5
6E22
  8
AM_0
 10
250.1774538027941
 20
540.71950276089854
 30
0.0
 11
268.0174238027941
 21
540.71950276089854
 31
0.0
  0
ARC
  5
6E23
  8
AM_0
 10
270.8506138027941
 20
552.69228276089837
 30
0.0
 40
1.502775999999999
 50
194.75642999999971
 51
269.87757999999872
  0
ARC
  5
6E24
  8
AM_0
 10
270.8506138027941
 20
551.78225276089836
 30
0.0
 40
1.502775999999999
 50
194.75642999999971
 51
269.87757999999872
  0
ARC
  5
6E25
  8
AM_0
 10
270.8506138027941
 20
549.93227276089863
 30
0.0
 40
1.502775999999999
 50
194.75642999999971
 51
269.87757999999872
  0
ARC
  5
6E26
  8
AM_0
 10
263.3225938027943
 20
567.24477276089829
 30
0.0
 40
2.0047290000000002
 50
15.173495999996319
 51
89.861678000000197
  0
ARC
  5
6E27
  8
AM_0
 10
263.3225938027943
 20
566.33474276089828
 30
0.0
 40
2.0047290000000002
 50
15.173495999996319
 51
89.861678000000197
  0
ARC
  5
6E28
  8
AM_0
 10
263.3225938027943
 20
564.48476276089855
 30
0.0
 40
2.0047290000000002
 50
15.173495999996319
 51
89.861678000000197
  0
ARC
  5
6E29
  8
AM_0
 10
270.8506138027941
 20
467.63674276089853
 30
0.0
 40
1.502775999999999
 50
90.122413000001615
 51
165.2435700000002
  0
ARC
  5
6E2A
  8
AM_0
 10
165.74203380279411
 20
472.3595227608983
 30
0.0
 40
1.000013899999999
 50
89.69165999999926
 51
270.30834000000078
  0
ARC
  5
6E2B
  8
AM_0
 10
268.0174238027941
 20
542.40456276089833
 30
0.0
 40
1.6750020000000001
 50
269.999989999999
 51
90.00000299999769
  0
ARC
  5
6E2C
  8
AM_0
 10
264.53744380279409
 20
542.35952276089836
 30
0.0
 40
1.0
 50
269.999989999999
 51
90.00000299999769
  0
ARC
  5
6E2D
  8
AM_0
 10
264.53744380279409
 20
472.3595227608983
 30
0.0
 40
1.0
 50
269.999989999999
 51
90.00000299999769
  0
ARC
  5
6E2E
  8
AM_0
 10
268.0174238027941
 20
472.31447276089852
 30
0.0
 40
1.6750020000000001
 50
269.999989999999
 51
90.00000299999769
  0
ARC
  5
6E2F
  8
AM_0
 10
164.87002380279429
 20
542.40456276089833
 30
0.0
 40
1.6750160000000001
 50
89.746145000004447
 51
270.25387000000092
  0
ARC
  5
6E30
  8
AM_0
 10
165.74203380279411
 20
542.35952276089836
 30
0.0
 40
1.000013899999999
 50
89.69165999999926
 51
270.30834000000078
  0
ARC
  5
6E31
  8
AM_0
 10
165.74203380279411
 20
532.35952276089847
 30
0.0
 40
1.000013899999999
 50
89.69165999999926
 51
270.30834000000078
  0
ARC
  5
6E32
  8
AM_0
 10
165.74203380279411
 20
522.35952276089859
 30
0.0
 40
1.000013899999999
 50
89.69165999999926
 51
270.30834000000078
  0
ARC
  5
6E33
  8
AM_0
 10
165.74203380279411
 20
512.35952276089836
 30
0.0
 40
1.000013899999999
 50
89.69165999999926
 51
270.30834000000078
  0
ARC
  5
6E34
  8
AM_0
 10
165.74203380279411
 20
502.35952276089859
 30
0.0
 40
1.000013899999999
 50
89.69165999999926
 51
270.30834000000078
  0
ARC
  5
6E35
  8
AM_0
 10
165.74203380279411
 20
492.35952276089853
 30
0.0
 40
1.000013899999999
 50
89.69165999999926
 51
270.30834000000078
  0
ARC
  5
6E36
  8
AM_0
 10
165.74203380279411
 20
482.35952276089853
 30
0.0
 40
1.000013899999999
 50
89.69165999999926
 51
270.30834000000078
  0
ARC
  5
6E37
  8
AM_0
 10
164.65743380279409
 20
532.38454276089851
 30
0.0
 40
1.465004
 50
90.00000299999769
 51
270.0
  0
ARC
  5
6E38
  8
AM_0
 10
164.52743380279409
 20
522.36953276089855
 30
0.0
 40
1.3300049999999981
 50
90.00000299999769
 51
270.0
  0
ARC
  5
6E39
  8
AM_0
 10
164.46157380279411
 20
512.36452276089835
 30
0.0
 40
1.2650129999999991
 50
89.735579000001735
 51
270.2644100000025
  0
ARC
  5
6E3A
  8
AM_0
 10
164.46157380279411
 20
502.35952276089859
 30
0.0
 40
1.2700129999999981
 50
89.736617000001587
 51
270.26336999999921
  0
ARC
  5
6E3B
  8
AM_0
 10
164.52743380279409
 20
492.34951276089851
 30
0.0
 40
1.3300049999999981
 50
90.00000299999769
 51
270.0
  0
ARC
  5
6E3C
  8
AM_0
 10
164.65743380279409
 20
482.33449276089829
 30
0.0
 40
1.465004
 50
90.00000299999769
 51
270.0
  0
ARC
  5
6E3D
  8
AM_0
 10
164.87057380279401
 20
472.31447276089852
 30
0.0
 40
1.675014
 50
89.766498999996756
 51
270.2335099999994
  0
ARC
  5
6E3E
  8
AM_0
 10
166.39614380279411
 20
561.64540276089861
 30
0.0
 40
1.994108999999999
 50
89.675548000002749
 51
169.18776999999901
  0
ARC
  5
6E3F
  8
AM_0
 10
166.4476638027941
 20
564.4942827608985
 30
0.0
 40
1.995282999999997
 50
90.006203999996856
 51
170.90835000000069
  0
ARC
  5
6E40
  8
AM_0
 10
166.4620038027941
 20
566.34279276089853
 30
0.0
 40
1.9967330000000001
 50
89.843966999998912
 51
171.4538799999975
  0
ARC
  5
6E41
  8
AM_0
 10
166.48391380279401
 20
567.25392276089849
 30
0.0
 40
1.995633
 50
89.899707999995783
 51
172.06112999999939
  0
ARC
  5
6E42
  8
AM_0
 10
263.32754380279408
 20
561.64125276089862
 30
0.0
 40
1.9982919999999991
 50
15.032547999996
 51
90.002632000001341
  0
ARC
  5
6E43
  8
AM_0
 10
270.8506138027941
 20
547.08229276089833
 30
0.0
 40
1.502775999999999
 50
194.75642999999971
 51
269.87757999999872
  0
ARC
  5
6E44
  8
AM_0
 10
263.3225938027943
 20
453.08425276089832
 30
0.0
 40
2.0047290000000002
 50
270.13832000000423
 51
344.82650000000189
  0
ARC
  5
6E45
  8
AM_0
 10
166.40231380279411
 20
453.07875276089851
 30
0.0
 40
1.9992490000000001
 50
190.643100000001
 51
270.14743000000129
  0
ARC
  5
6E46
  8
AM_0
 10
166.45364380279409
 20
450.22988276089831
 30
0.0
 40
2.000420099999999
 50
188.9268200000011
 51
269.82270999999599
  0
ARC
  5
6E47
  8
AM_0
 10
251.7110238027941
 20
443.3595227608983
 30
0.0
 40
1.5
 50
90.00000299999769
 51
178.50000000000381
  0
ARC
  5
6E48
  8
AM_0
 10
263.21365380279428
 20
446.35952276089819
 30
0.0
 40
1.5
 50
269.999989999999
 51
326.99999999999892
  0
ARC
  5
6E49
  8
AM_0
 10
166.18404380279409
 20
450.22951276089861
 30
0.0
 40
2.0
 50
188.62962000000439
 51
269.999989999999
  0
ARC
  5
6E4A
  8
AM_0
 10
166.1036638027941
 20
450.22951276089861
 30
0.0
 40
2.0
 50
187.9504400000034
 51
269.999989999999
  0
ARC
  5
6E4B
  8
AM_0
 10
188.595543802794
 20
446.72951276089861
 30
0.0
 40
1.5
 50
1.5000027000022329
 51
90.00000299999769
  0
ARC
  5
6E4C
  8
AM_0
 10
199.63613380279401
 20
522.35952276089859
 30
0.0
 40
1.0000056999999991
 50
269.999989999999
 51
90.00000299999769
  0
ARC
  5
6E4D
  8
AM_0
 10
199.63613380279401
 20
512.35952276089836
 30
0.0
 40
1.0000056999999991
 50
269.999989999999
 51
90.00000299999769
  0
ARC
  5
6E4E
  8
AM_0
 10
199.63613380279401
 20
502.35952276089859
 30
0.0
 40
1.0000056999999991
 50
269.999989999999
 51
90.00000299999769
  0
ARC
  5
6E4F
  8
AM_0
 10
199.63613380279401
 20
492.35952276089853
 30
0.0
 40
1.0000056999999991
 50
269.999989999999
 51
90.00000299999769
  0
ARC
  5
6E50
  8
AM_0
 10
250.1974138027941
 20
474.85952276089853
 30
0.0
 40
1.5
 50
179.999989999999
 51
270.0
  0
ARC
  5
6E51
  8
AM_0
 10
232.1974138027943
 20
474.85952276089853
 30
0.0
 40
1.5
 50
269.999989999999
 51
0.0000006832495047
  0
ARC
  5
6E52
  8
AM_0
 10
232.2174338027942
 20
474.99953276089838
 30
0.0
 40
1.0
 50
269.999989999999
 51
0.0000006832495047
  0
ARC
  5
6E53
  8
AM_0
 10
250.1774538027941
 20
474.99953276089838
 30
0.0
 40
1.0
 50
179.999989999999
 51
270.0
  0
CIRCLE
  5
6E54
  8
AM_0
 10
238.6974138027941
 20
535.85952276089859
 30
0.0
 40
1.1000000000000001
  0
CIRCLE
  5
6E55
  8
AM_0
 10
238.6974138027941
 20
535.85952276089859
 30
0.0
 40
1.149999999999999
  0
CIRCLE
  5
6E56
  8
AM_0
 10
243.6974138027941
 20
535.85952276089859
 30
0.0
 40
1.0
  0
ARC
  5
6E57
  8
AM_0
 10
232.1974138027943
 20
534.85952276089859
 30
0.0
 40
1.02
 50
269.999989999999
 51
0.0000006832429909
  0
ARC
  5
6E58
  8
AM_0
 10
250.1974138027941
 20
534.85952276089859
 30
0.0
 40
1.02
 50
179.999989999999
 51
270.0
  0
ARC
  5
6E59
  8
AM_0
 10
232.1974138027943
 20
534.85952276089859
 30
0.0
 40
1.5
 50
269.999989999999
 51
0.0000006832495047
  0
ARC
  5
6E5A
  8
AM_0
 10
250.1974138027941
 20
534.85952276089859
 30
0.0
 40
1.5
 50
179.999989999999
 51
270.0
  0
CIRCLE
  5
6E5B
  8
AM_0
 10
243.6974138027941
 20
478.85952276089853
 30
0.0
 40
1.0
  0
CIRCLE
  5
6E5C
  8
AM_0
 10
238.6974138027941
 20
478.85952276089853
 30
0.0
 40
1.149999999999999
  0
CIRCLE
  5
6E5D
  8
AM_0
 10
238.6974138027941
 20
478.85952276089853
 30
0.0
 40
1.1000000000000001
  0
ARC
  5
6E5E
  8
AM_0
 10
232.1974138027943
 20
479.8595227608983
 30
0.0
 40
1.02
 50
0.0
 51
90.00000299999769
  0
ARC
  5
6E5F
  8
AM_0
 10
250.1974138027941
 20
479.8595227608983
 30
0.0
 40
1.02
 50
90.00000299999769
 51
180.00001000000091
  0
ARC
  5
6E60
  8
AM_0
 10
232.1974138027943
 20
479.8595227608983
 30
0.0
 40
1.5
 50
0.0
 51
90.00000299999769
  0
ARC
  5
6E61
  8
AM_0
 10
250.1974138027941
 20
479.8595227608983
 30
0.0
 40
1.5
 50
90.00000299999769
 51
180.00001000000091
  0
ARC
  5
6E62
  8
AM_0
 10
200.8623938027942
 20
492.34951276089851
 30
0.0
 40
1.3300148000000001
 50
269.7294199999987
 51
90.270567000000995
  0
ARC
  5
6E63
  8
AM_0
 10
200.92434380279411
 20
502.35952276089859
 30
0.0
 40
1.2700266
 50
269.62932000000001
 51
90.370669999998213
  0
ARC
  5
6E64
  8
AM_0
 10
200.92434380279411
 20
512.36953276089855
 30
0.0
 40
1.2700266
 50
269.62932000000001
 51
90.370669999998213
  0
ARC
  5
6E65
  8
AM_0
 10
200.8623938027942
 20
522.37453276089855
 30
0.0
 40
1.3350147999999991
 50
269.7304299999999
 51
90.269556000001344
  0
ARC
  5
6E66
  8
AM_0
 10
264.53738380279412
 20
532.35952276089847
 30
0.0
 40
1.0000255999999981
 50
269.5894700000033
 51
90.410530999997775
  0
ARC
  5
6E67
  8
AM_0
 10
268.23739380279409
 20
532.3895527608986
 30
0.0
 40
1.460011199999999
 50
269.77524999999667
 51
90.224750000003354
  0
ARC
  5
6E68
  8
AM_0
 10
264.53738380279412
 20
482.35952276089853
 30
0.0
 40
1.0000255999999981
 50
269.5894700000033
 51
90.410530999997775
  0
ARC
  5
6E69
  8
AM_0
 10
268.23739380279409
 20
482.3294927608984
 30
0.0
 40
1.460011199999999
 50
269.77524999999667
 51
90.224750000003354
  0
ARC
  5
6E6A
  8
AM_0
 10
250.1774538027941
 20
539.71950276089854
 30
0.0
 40
1.0
 50
90.00000299999769
 51
180.00001000000091
  0
ARC
  5
6E6B
  8
AM_0
 10
250.1974138027941
 20
539.85952276089859
 30
0.0
 40
1.5
 50
90.00000299999769
 51
180.00001000000091
  0
ARC
  5
6E6C
  8
AM_0
 10
232.1974138027943
 20
539.85952276089859
 30
0.0
 40
1.5
 50
0.0
 51
90.00000299999769
  0
ARC
  5
6E6D
  8
AM_0
 10
232.2174338027942
 20
539.71950276089854
 30
0.0
 40
1.0
 50
0.0
 51
90.00000299999769
  0
POLYLINE
  5
6E6E
  8
AM_0
 66
     1
 10
0.0
 20
0.0
 30
0.0
  0
VERTEX
  5
6E6F
  8
AM_0
 10
165.5574038027942
 20
507.35952276089853
 30
0.0
 42
0.00039106593
  0
VERTEX
  5
6E70
  8
AM_0
 10
165.5550438027941
 20
507.04838276089862
 30
0.0
 42
0.00040574899
  0
VERTEX
  5
6E71
  8
AM_0
 10
165.55317380279399
 20
506.73727276089858
 30
0.0
 42
0.0003534546
  0
VERTEX
  5
6E72
  8
AM_0
 10
165.55178380279409
 20
506.42617276089851
 30
0.0
 42
0.00034407327
  0
VERTEX
  5
6E73
  8
AM_0
 10
165.55080380279409
 20
506.11503276089837
 30
0.0
 42
0.00045699408
  0
VERTEX
  5
6E74
  8
AM_0
 10
165.55034380279409
 20
505.8039227608985
 30
0.0
 42
0.00035571853
  0
VERTEX
  5
6E75
  8
AM_0
 10
165.5503838027941
 20
505.49282276089849
 30
0.0
 42
0.00038547362
  0
VERTEX
  5
6E76
  8
AM_0
 10
165.550873802794
 20
505.18168276089852
 30
0.0
 42
0.00035501498
  0
VERTEX
  5
6E77
  8
AM_0
 10
165.55183380279411
 20
504.87058276089829
 30
0.0
 42
0.00040118614
  0
VERTEX
  5
6E78
  8
AM_0
 10
165.5532538027941
 20
504.55934276089829
 30
0.0
 42
0.00038319871
  0
VERTEX
  5
6E79
  8
AM_0
 10
165.55516380279411
 20
504.24821276089858
 30
0.0
 42
0.00040742136
  0
VERTEX
  5
6E7A
  8
AM_0
 10
165.55756380279431
 20
503.9369827608985
 30
0.0
 42
0.0003578071
  0
VERTEX
  5
6E7B
  8
AM_0
 10
165.56045380279409
 20
503.62587276089829
 30
0.0
  0
SEQEND
  5
6E7C
  8
AM_0
  0
POLYLINE
  5
6E7D
  8
AM_0
 66
     1
 10
0.0
 20
0.0
 30
0.0
  0
VERTEX
  5
6E7E
  8
AM_0
 10
165.60146380279409
 20
501.08913276089862
 30
0.0
 42
0.00076695232
  0
VERTEX
  5
6E7F
  8
AM_0
 10
165.61626380279401
 20
500.47137276089859
 30
0.0
 42
0.00073263044
  0
VERTEX
  5
6E80
  8
AM_0
 10
165.63290380279429
 20
499.85377276089849
 30
0.0
 42
0.0007652599
  0
VERTEX
  5
6E81
  8
AM_0
 10
165.6513938027941
 20
499.23610276089852
 30
0.0
 42
0.00075144485
  0
VERTEX
  5
6E82
  8
AM_0
 10
165.67176380279429
 20
498.61850276089848
 30
0.0
 42
0.00078594403
  0
VERTEX
  5
6E83
  8
AM_0
 10
165.69401380279399
 20
498.00107276089852
 30
0.0
 42
0.00073349202
  0
VERTEX
  5
6E84
  8
AM_0
 10
165.71816380279401
 20
497.38369276089821
 30
0.0
 42
0.0007358075
  0
VERTEX
  5
6E85
  8
AM_0
 10
165.74410380279409
 20
496.7662927608983
 30
0.0
 42
0.00078592699
  0
VERTEX
  5
6E86
  8
AM_0
 10
165.77193380279411
 20
496.14890276089852
 30
0.0
 42
0.00074823144
  0
VERTEX
  5
6E87
  8
AM_0
 10
165.80166380279411
 20
495.53151276089858
 30
0.0
 42
0.00074896603
  0
VERTEX
  5
6E88
  8
AM_0
 10
165.83322380279409
 20
494.91438276089849
 30
0.0
 42
0.00076039765
  0
VERTEX
  5
6E89
  8
AM_0
 10
165.8666438027943
 20
494.29735276089849
 30
0.0
 42
0.00075616128
  0
VERTEX
  5
6E8A
  8
AM_0
 10
165.90194380279411
 20
493.68032276089849
 30
0.0
  0
SEQEND
  5
6E8B
  8
AM_0
  0
POLYLINE
  5
6E8C
  8
AM_0
 66
     1
 10
0.0
 20
0.0
 30
0.0
  0
VERTEX
  5
6E8D
  8
AM_0
 10
166.07565380279411
 20
491.01894276089848
 30
0.0
 42
0.00073721992
  0
VERTEX
  5
6E8E
  8
AM_0
 10
166.119803802794
 20
490.41653276089858
 30
0.0
 42
0.00074398496
  0
VERTEX
  5
6E8F
  8
AM_0
 10
166.16573380279411
 20
489.81426276089849
 30
0.0
 42
0.00073322625
  0
VERTEX
  5
6E90
  8
AM_0
 10
166.21346380279411
 20
489.21193276089849
 30
0.0
 42
0.00073594289
  0
VERTEX
  5
6E91
  8
AM_0
 10
166.2629438027941
 20
488.60994276089872
 30
0.0
 42
0.00074742568
  0
VERTEX
  5
6E92
  8
AM_0
 10
166.31421380279409
 20
488.00808276089862
 30
0.0
 42
0.00073216749
  0
VERTEX
  5
6E93
  8
AM_0
 10
166.36727380279419
 20
487.40627276089839
 30
0.0
 42
0.00074184065
  0
VERTEX
  5
6E94
  8
AM_0
 10
166.422093802794
 20
486.80474276089859
 30
0.0
 42
0.00072077528
  0
VERTEX
  5
6E95
  8
AM_0
 10
166.4786738027943
 20
486.20351276089872
 30
0.0
 42
0.00074978179
  0
VERTEX
  5
6E96
  8
AM_0
 10
166.53701380279401
 20
485.60231276089849
 30
0.0
 42
0.00074288888
  0
VERTEX
  5
6E97
  8
AM_0
 10
166.597163802794
 20
485.00129276089831
 30
0.0
 42
0.00072503679
  0
VERTEX
  5
6E98
  8
AM_0
 10
166.6590738027941
 20
484.40055276089828
 30
0.0
 42
0.00074640584
  0
VERTEX
  5
6E99
  8
AM_0
 10
166.7227438027941
 20
483.79995276089841
 30
0.0
  0
SEQEND
  5
6E9A
  8
AM_0
  0
POLYLINE
  5
6E9B
  8
AM_0
 66
     1
 10
0.0
 20
0.0
 30
0.0
  0
VERTEX
  5
6E9C
  8
AM_0
 10
167.05831380279409
 20
480.87648276089851
 30
0.0
 42
0.0006890001
  0
VERTEX
  5
6E9D
  8
AM_0
 10
167.12919380279399
 20
480.30173276089829
 30
0.0
 42
0.00070644651
  0
VERTEX
  5
6E9E
  8
AM_0
 10
167.2016938027941
 20
479.72705276089852
 30
0.0
 42
0.0006924559
  0
VERTEX
  5
6E9F
  8
AM_0
 10
167.27578380279419
 20
479.15273276089852
 30
0.0
 42
0.00069587797
  0
VERTEX
  5
6EA0
  8
AM_0
 10
167.35146380279409
 20
478.5785927608984
 30
0.0
 42
0.00071687041
  0
VERTEX
  5
6EA1
  8
AM_0
 10
167.42877380279401
 20
478.00459276089822
 30
0.0
 42
0.00069759113
  0
VERTEX
  5
6EA2
  8
AM_0
 10
167.50771380279409
 20
477.43080276089847
 30
0.0
 42
0.00071003142
  0
VERTEX
  5
6EA3
  8
AM_0
 10
167.5882538027941
 20
476.8573327608982
 30
0.0
 42
0.00069954544
  0
VERTEX
  5
6EA4
  8
AM_0
 10
167.67039380279411
 20
476.28423276089859
 30
0.0
 42
0.0007188852
  0
VERTEX
  5
6EA5
  8
AM_0
 10
167.7541738027939
 20
475.71120276089829
 30
0.0
 42
0.00071266165
  0
VERTEX
  5
6EA6
  8
AM_0
 10
167.8396038027941
 20
475.13844276089827
 30
0.0
 42
0.00071614577
  0
VERTEX
  5
6EA7
  8
AM_0
 10
167.92663380279399
 20
474.56609276089853
 30
0.0
 42
0.00072290806
  0
VERTEX
  5
6EA8
  8
AM_0
 10
168.01534380279401
 20
473.9937927608986
 30
0.0
  0
SEQEND
  5
6EA9
  8
AM_0
  0
POLYLINE
  5
6EAA
  8
AM_0
 66
     1
 10
0.0
 20
0.0
 30
0.0
  0
VERTEX
  5
6EAB
  8
AM_0
 10
165.5574038027942
 20
507.35952276089853
 30
0.0
 42
-0.00039106653
  0
VERTEX
  5
6EAC
  8
AM_0
 10
165.5550438027941
 20
507.67065276089852
 30
0.0
 42
-0.00040574511
  0
VERTEX
  5
6EAD
  8
AM_0
 10
165.55317380279399
 20
507.9817627608985
 30
0.0
 42
-0.00035346331
  0
VERTEX
  5
6EAE
  8
AM_0
 10
165.55178380279409
 20
508.2928727608986
 30
0.0
 42
-0.00034406545
  0
VERTEX
  5
6EAF
  8
AM_0
 10
165.55080380279409
 20
508.60401276089863
 30
0.0
 42
-0.00045699059
  0
VERTEX
  5
6EB0
  8
AM_0
 10
165.55034380279409
 20
508.91511276089841
 30
0.0
 42
-0.00035573431
  0
VERTEX
  5
6EB1
  8
AM_0
 10
165.5503838027941
 20
509.22621276089848
 30
0.0
 42
-0.00038545888
  0
VERTEX
  5
6EB2
  8
AM_0
 10
165.550873802794
 20
509.53735276089827
 30
0.0
 42
-0.00035501203
  0
VERTEX
  5
6EB3
  8
AM_0
 10
165.55183380279411
 20
509.84846276089849
 30
0.0
 42
-0.00040120778
  0
VERTEX
  5
6EB4
  8
AM_0
 10
165.5532538027941
 20
510.15969276089839
 30
0.0
 42
-0.00038317821
  0
VERTEX
  5
6EB5
  8
AM_0
 10
165.55516380279411
 20
510.47082276089861
 30
0.0
 42
-0.00040741862
  0
VERTEX
  5
6EB6
  8
AM_0
 10
165.55756380279431
 20
510.78205276089852
 30
0.0
 42
-0.00035783324
  0
VERTEX
  5
6EB7
  8
AM_0
 10
165.56045380279409
 20
511.09316276089862
 30
0.0
  0
SEQEND
  5
6EB8
  8
AM_0
  0
POLYLINE
  5
6EB9
  8
AM_0
 66
     1
 10
0.0
 20
0.0
 30
0.0
  0
VERTEX
  5
6EBA
  8
AM_0
 10
165.60146380279409
 20
513.62990276089852
 30
0.0
 42
-0.00076691987
  0
VERTEX
  5
6EBB
  8
AM_0
 10
165.61626380279401
 20
514.24766276089861
 30
0.0
 42
-0.00073262795
  0
VERTEX
  5
6EBC
  8
AM_0
 10
165.63290380279429
 20
514.86526276089853
 30
0.0
 42
-0.0007652954
  0
VERTEX
  5
6EBD
  8
AM_0
 10
165.6513938027941
 20
515.48293276089862
 30
0.0
 42
-0.00077334627
  0
VERTEX
  5
6EBE
  8
AM_0
 10
165.6718038027943
 20
516.10053276089855
 30
0.0
 42
-0.00073282897
  0
VERTEX
  5
6EBF
  8
AM_0
 10
165.69406380279401
 20
516.71795276089836
 30
0.0
 42
-0.0007571179
  0
VERTEX
  5
6EC0
  8
AM_0
 10
165.71816380279401
 20
517.3354727608986
 30
0.0
 42
-0.00073783152
  0
VERTEX
  5
6EC1
  8
AM_0
 10
165.74410380279409
 20
517.95286276089826
 30
0.0
 42
-0.0007835518
  0
VERTEX
  5
6EC2
  8
AM_0
 10
165.77193380279411
 20
518.57013276089856
 30
0.0
 42
-0.00074826133
  0
VERTEX
  5
6EC3
  8
AM_0
 10
165.80166380279411
 20
519.18752276089845
 30
0.0
 42
-0.00074893555
  0
VERTEX
  5
6EC4
  8
AM_0
 10
165.83322380279409
 20
519.80465276089853
 30
0.0
 42
-0.00076039841
  0
VERTEX
  5
6EC5
  8
AM_0
 10
165.8666438027943
 20
520.42168276089853
 30
0.0
 42
-0.00075618789
  0
VERTEX
  5
6EC6
  8
AM_0
 10
165.90194380279411
 20
521.03871276089853
 30
0.0
  0
SEQEND
  5
6EC7
  8
AM_0
  0
POLYLINE
  5
6EC8
  8
AM_0
 66
     1
 10
0.0
 20
0.0
 30
0.0
  0
VERTEX
  5
6EC9
  8
AM_0
 10
166.07565380279411
 20
523.70009276089854
 30
0.0
 42
-0.0007337051
  0
VERTEX
  5
6ECA
  8
AM_0
 10
166.11979380279431
 20
524.30250276089851
 30
0.0
 42
-0.00075211323
  0
VERTEX
  5
6ECB
  8
AM_0
 10
166.16573380279411
 20
524.90490276089861
 30
0.0
 42
-0.0007297491
  0
VERTEX
  5
6ECC
  8
AM_0
 10
166.21346380279411
 20
525.50710276089853
 30
0.0
 42
-0.00073593041
  0
VERTEX
  5
6ECD
  8
AM_0
 10
166.2629438027941
 20
526.10909276089853
 30
0.0
 42
-0.00074742739
  0
VERTEX
  5
6ECE
  8
AM_0
 10
166.31421380279409
 20
526.71095276089852
 30
0.0
 42
-0.00073217363
  0
VERTEX
  5
6ECF
  8
AM_0
 10
166.36727380279419
 20
527.31276276089864
 30
0.0
 42
-0.00073754168
  0
VERTEX
  5
6ED0
  8
AM_0
 10
166.422093802794
 20
527.91430276089852
 30
0.0
 42
-0.00073075073
  0
VERTEX
  5
6ED1
  8
AM_0
 10
166.4786738027943
 20
528.51565276089855
 30
0.0
 42
-0.00074550816
  0
VERTEX
  5
6ED2
  8
AM_0
 10
166.53701380279401
 20
529.1167227608986
 30
0.0
 42
-0.00074288416
  0
VERTEX
  5
6ED3
  8
AM_0
 10
166.597163802794
 20
529.71774276089855
 30
0.0
 42
-0.00072504001
  0
VERTEX
  5
6ED4
  8
AM_0
 10
166.6590738027941
 20
530.31848276089852
 30
0.0
 42
-0.00074640667
  0
VERTEX
  5
6ED5
  8
AM_0
 10
166.7227438027941
 20
530.91909276089848
 30
0.0
  0
SEQEND
  5
6ED6
  8
AM_0
  0
POLYLINE
  5
6ED7
  8
AM_0
 66
     1
 10
0.0
 20
0.0
 30
0.0
  0
VERTEX
  5
6ED8
  8
AM_0
 10
167.05831380279409
 20
533.84255276089846
 30
0.0
 42
-0.00068898283
  0
VERTEX
  5
6ED9
  8
AM_0
 10
167.12919380279399
 20
534.41730276089845
 30
0.0
 42
-0.00070644357
  0
VERTEX
  5
6EDA
  8
AM_0
 10
167.2016938027941
 20
534.99199276089848
 30
0.0
 42
-0.00069248074
  0
VERTEX
  5
6EDB
  8
AM_0
 10
167.27578380279419
 20
535.56630276089857
 30
0.0
 42
-0.0006958566
  0
VERTEX
  5
6EDC
  8
AM_0
 10
167.35146380279409
 20
536.14044276089862
 30
0.0
 42
-0.00071687219
  0
VERTEX
  5
6EDD
  8
AM_0
 10
167.42877380279401
 20
536.71444276089858
 30
0.0
 42
-0.00069760022
  0
VERTEX
  5
6EDE
  8
AM_0
 10
167.50771380279409
 20
537.28823276089838
 30
0.0
 42
-0.00071002302
  0
VERTEX
  5
6EDF
  8
AM_0
 10
167.5882538027941
 20
537.86170276089854
 30
0.0
 42
-0.00069954889
  0
VERTEX
  5
6EE0
  8
AM_0
 10
167.67039380279411
 20
538.43480276089861
 30
0.0
 42
-0.00071887947
  0
VERTEX
  5
6EE1
  8
AM_0
 10
167.7541738027939
 20
539.00783276089862
 30
0.0
 42
-0.00071266929
  0
VERTEX
  5
6EE2
  8
AM_0
 10
167.8396038027941
 20
539.58060276089816
 30
0.0
 42
-0.00071614429
  0
VERTEX
  5
6EE3
  8
AM_0
 10
167.92663380279399
 20
540.15294276089833
 30
0.0
 42
-0.00072288978
  0
VERTEX
  5
6EE4
  8
AM_0
 10
168.01534380279401
 20
540.7252427608986
 30
0.0
  0
SEQEND
  5
6EE5
  8
AM_0
  0
LINE
  5
6EE6
  8
AM_0
 10
155.6974138027941
 20
560.3595227608987
 30
0.0
 11
155.6974138027939
 21
454.35952276089859
 31
0.0
  0
LINE
  5
6EE7
  8
AM_0
 10
155.6974138027939
 20
454.35952276089859
 30
0.0
 11
163.1974138027941
 21
454.35952276089859
 31
0.0
  0
LINE
  5
6EE8
  8
AM_0
 10
155.8974238027939
 20
464.16958276089872
 30
0.0
 11
162.12740380279399
 21
464.16958276089872
 31
0.0
  0
LINE
  5
6EE9
  8
AM_0
 10
155.8974238027939
 20
550.54946276089845
 30
0.0
 11
162.12740380279399
 21
550.54946276089845
 31
0.0
  0
LINE
  5
6EEA
  8
AM_0
 10
155.6974138027941
 20
560.3595227608987
 30
0.0
 11
163.1974138027941
 21
560.3595227608987
 31
0.0
  0
LINE
  5
6EEB
  8
AM_0
 10
147.69741380279501
 20
455.2981192521267
 30
0.0
 11
147.69741380279461
 21
493.02040616688402
 31
0.0
  0
LINE
  5
6EEC
  8
AM_0
 10
138.6974138027941
 20
453.35952276089881
 30
0.0
 11
138.6974138027941
 21
561.35952276089881
 31
0.0
  0
LINE
  5
6EED
  8
AM_0
 10
138.6974138027941
 20
453.35952276089853
 30
0.0
 11
155.6974138027941
 21
454.35952276089859
 31
0.0
  0
LINE
  5
6EEE
  8
AM_0
 10
138.6974138027941
 20
561.35952276089847
 30
0.0
 11
155.6974138027941
 21
560.3595227608987
 31
0.0
  0
LINE
  5
6EEF
  8
AM_0
 10
147.69741380279481
 20
463.7656195628071
 30
0.0
 11
155.6974138027941
 21
463.76561956280739
 31
0.0
  0
LINE
  5
6EF0
  8
AM_0
 10
147.69741380279501
 20
455.2981192521267
 30
0.0
 11
155.6974138027941
 21
455.2981192521267
 31
0.0
  0
LINE
  5
6EF1
  8
AM_0
 10
144.19741380279481
 20
472.71864979563861
 30
0.0
 11
147.69741380279481
 21
472.71864979563861
 31
0.0
  0
LINE
  5
6EF2
  8
AM_0
 10
144.19741380279481
 20
464.21864979563861
 30
0.0
 11
147.69741380279501
 21
464.21864979563861
 31
0.0
  0
LINE
  5
6EF3
  8
AM_0
 10
143.69741380279481
 20
464.7186497956385
 30
0.0
 11
143.69741380279481
 21
472.2186497956385
 31
0.0
  0
ARC
  5
6EF4
  8
AM_0
 10
144.1974138027949
 20
464.7186497956385
 30
0.0
 40
0.5
 50
180.0
 51
270.0
  0
ARC
  5
6EF5
  8
AM_0
 10
144.1974138027949
 20
472.2186497956385
 30
0.0
 40
0.5
 50
90.0
 51
180.0
  0
LINE
  5
6EF6
  8
AM_0
 10
138.6974138027941
 20
465.08732826775861
 30
0.0
 11
143.69741380279481
 21
465.08732826775849
 31
0.0
  0
LINE
  5
6EF7
  8
AM_0
 10
138.6974138027941
 20
474.82241076605447
 30
0.0
 11
147.69741380279481
 21
474.82241076605447
 31
0.0
  0
LINE
  5
6EF8
  8
AM_0
 10
147.69741380279501
 20
559.42092626967087
 30
0.0
 11
147.69741380279461
 21
521.69863935491799
 31
0.0
  0
LINE
  5
6EF9
  8
AM_0
 10
147.69741380279481
 20
550.95342595899024
 30
0.0
 11
155.6974138027941
 21
550.95342595899024
 31
0.0
  0
LINE
  5
6EFA
  8
AM_0
 10
147.69741380279501
 20
559.42092626967087
 30
0.0
 11
155.6974138027941
 21
559.42092626967087
 31
0.0
  0
LINE
  5
6EFB
  8
AM_0
 10
144.19741380279481
 20
542.0003957261589
 30
0.0
 11
147.69741380279481
 21
542.0003957261589
 31
0.0
  0
LINE
  5
6EFC
  8
AM_0
 10
144.19741380279481
 20
550.5003957261589
 30
0.0
 11
147.69741380279501
 21
550.5003957261589
 31
0.0
  0
LINE
  5
6EFD
  8
AM_0
 10
143.69741380279481
 20
550.0003957261589
 30
0.0
 11
143.69741380279481
 21
542.5003957261589
 31
0.0
  0
ARC
  5
6EFE
  8
AM_0
 10
144.1974138027949
 20
550.00039572615844
 30
0.0
 40
0.5
 50
90.0
 51
180.0
  0
ARC
  5
6EFF
  8
AM_0
 10
144.1974138027949
 20
542.50039572615844
 30
0.0
 40
0.5
 50
180.0
 51
270.0
  0
LINE
  5
6F00
  8
AM_0
 10
138.6974138027941
 20
549.6317172540389
 30
0.0
 11
143.69741380279481
 21
549.63171725403913
 31
0.0
  0
LINE
  5
6F01
  8
AM_0
 10
138.6974138027941
 20
539.89663475574275
 30
0.0
 11
147.69741380279481
 21
539.89663475574275
 31
0.0
  0
LINE
  5
6F02
  8
AM_0
 10
132.6974138027941
 20
561.35952276089893
 30
0.0
 11
132.6974138027941
 21
453.35952276089853
 31
0.0
  0
LINE
  5
6F03
  8
AM_0
 10
138.6974138027941
 20
453.35952276089853
 30
0.0
 11
132.6974138027941
 21
453.35952276089853
 31
0.0
  0
LINE
  5
6F04
  8
AM_0
 10
132.6974138027941
 20
561.35952276089893
 30
0.0
 11
138.6974138027939
 21
561.35952276089893
 31
0.0
  0
LINE
  5
6F05
  8
AM_0
 10
131.6974138027941
 20
503.55952276089852
 30
0.0
 11
131.6974138027941
 21
511.1595227608986
 31
0.0
  0
LINE
  5
6F06
  8
AM_0
 10
131.6974138027941
 20
511.1595227608986
 30
0.0
 11
132.6974138027941
 21
511.1595227608986
 31
0.0
  0
LINE
  5
6F07
  8
AM_0
 10
132.6974138027941
 20
507.55952276089852
 30
0.0
 11
131.6974138027941
 21
507.92349299516479
 31
0.0
  0
LINE
  5
6F08
  8
AM_0
 10
132.6974138027941
 20
507.15952276089871
 30
0.0
 11
131.6974138027941
 21
507.52349299516487
 31
0.0
  0
LINE
  5
6F09
  8
AM_0
 10
132.6974138027941
 20
503.55952276089852
 30
0.0
 11
131.6974138027941
 21
503.55952276089852
 31
0.0
  0
LINE
  5
6F0A
  8
AM_0
 10
130.63847629066601
 20
511.26687773320532
 30
0.0
 11
131.6974138027941
 21
511.35952276089853
 31
0.0
  0
LINE
  5
6F0B
  8
AM_0
 10
130.63847629066601
 20
503.45216778859231
 30
0.0
 11
131.6974138027941
 21
503.35952276089853
 31
0.0
  0
ARC
  5
6F0C
  8
AM_0
 10
135.09741380279411
 20
507.35952276089853
 30
0.0
 40
6.5
 50
151.82726586813479
 51
208.1727341318651
  0
ARC
  5
6F0D
  8
AM_0
 10
130.7779254790627
 20
505.04607930553908
 30
0.0
 40
1.6000000000000001
 50
208.1727341318651
 51
265.00000000000028
  0
ARC
  5
6F0E
  8
AM_0
 10
130.7779254790627
 20
509.67296621625837
 30
0.0
 40
1.6000000000000001
 50
94.99999999999973
 51
151.82726586813479
  0
LINE
  5
6F0F
  8
AM_0
 10
131.6974138027941
 20
503.35952276089853
 30
0.0
 11
131.6974138027941
 21
511.35952276089853
 31
0.0
  0
LINE
  5
6F10
  8
AM_0
 10
155.6974138027941
 20
493.02040616688407
 30
0.0
 11
147.69741380279481
 21
493.02040616688407
 31
0.0
  0
LINE
  5
6F11
  8
AM_0
 10
155.6974138027939
 20
521.6986393549181
 30
0.0
 11
147.69741380279461
 21
521.6986393549181
 31
0.0
  0
LINE
  5
6F12
  8
AM_0
 10
118.1974138027936
 20
473.35952276089972
 30
0.0
 11
118.1974138027936
 21
462.35952276089881
 31
0.0
  0
LINE
  5
6F13
  8
AM_0
 10
132.69741380279359
 20
462.35952276089881
 30
0.0
 11
118.1974138027936
 21
462.35952276089881
 31
0.0
  0
LINE
  5
6F14
  8
AM_0
 10
106.1974138027941
 20
467.35952276089972
 30
0.0
 11
106.1974138027939
 21
464.35952276089961
 31
0.0
  0
LINE
  5
6F15
  8
AM_0
 10
106.1974138027939
 20
464.35952276089961
 30
0.0
 11
118.1974138027936
 21
464.35952276089961
 31
0.0
  0
LINE
  5
6F16
  8
AM_0
 10
106.1974138027937
 20
465.35952276089989
 30
0.0
 11
106.1974138027937
 21
467.53719116704627
 31
0.0
  0
LINE
  5
6F17
  8
AM_0
 10
100.6974138027936
 20
467.35952276089989
 30
0.0
 11
101.5974138027937
 21
467.35952276089989
 31
0.0
  0
LINE
  5
6F18
  8
AM_0
 10
100.4974138027934
 20
470.35952276089989
 30
0.0
 11
100.4974138027934
 21
467.35952276089989
 31
0.0
  0
LINE
  5
6F19
  8
AM_0
 10
101.5974138027937
 20
467.08717102631618
 30
0.0
 11
101.5974138027937
 21
470.6318744954836
 31
0.0
  0
LINE
  5
6F1A
  8
AM_0
 10
100.1974138027937
 20
470.05952276089988
 30
0.0
 11
101.59741380279191
 21
470.05952276089988
 31
0.0
  0
LINE
  5
6F1B
  8
AM_0
 10
105.5974138027937
 20
466.47795290049282
 30
0.0
 11
105.5974138027937
 21
465.35952276089989
 31
0.0
  0
LINE
  5
6F1C
  8
AM_0
 10
105.5974138027937
 20
467.35952276089989
 30
0.0
 11
105.5974138027937
 21
467.25952276089998
 31
0.0
  0
LINE
  5
6F1D
  8
AM_0
 10
105.5974138027937
 20
467.25952276089998
 30
0.0
 11
105.5974138027937
 21
466.47795290049282
 31
0.0
  0
LINE
  5
6F1E
  8
AM_0
 10
105.5974138027937
 20
467.35952276089989
 30
0.0
 11
105.5974138027937
 21
467.25952276089998
 31
0.0
  0
LINE
  5
6F1F
  8
AM_0
 10
105.5974138027937
 20
467.74328543722959
 30
0.0
 11
105.5974138027937
 21
466.47795290049282
 31
0.0
  0
LINE
  5
6F20
  8
AM_0
 10
105.5974138027937
 20
465.35952276089989
 30
0.0
 11
106.1974138027937
 21
465.35952276089989
 31
0.0
  0
LINE
  5
6F21
  8
AM_0
 10
102.89741380279391
 20
466.47795290049282
 30
0.0
 11
102.89741380279391
 21
469.9094840928928
 31
0.0
  0
LINE
  5
6F22
  8
AM_0
 10
102.73636957353629
 20
466.19126127214957
 30
0.0
 11
101.8038165240292
 21
466.7296710263164
 31
0.0
  0
LINE
  5
6F23
  8
AM_0
 10
103.1698653948243
 20
465.68409628035693
 30
0.0
 11
105.3249622107633
 21
465.68409628035693
 31
0.0
  0
LINE
  5
6F24
  8
AM_0
 10
103.1698653948243
 20
467.27180952062849
 30
0.0
 11
105.3249622107633
 21
467.27180952062872
 31
0.0
  0
LINE
  5
6F25
  8
AM_0
 10
101.5974138027924
 20
470.35952276089989
 30
0.0
 11
100.4974138027934
 21
470.35952276089989
 31
0.0
  0
LINE
  5
6F26
  8
AM_0
 10
100.4974138027934
 20
470.35952276089989
 30
0.0
 11
100.1974138027937
 21
470.05952276089988
 31
0.0
  0
LINE
  5
6F27
  8
AM_0
 10
100.1974138027937
 20
470.05952276089988
 30
0.0
 11
100.1974138027937
 21
467.6595227608999
 31
0.0
  0
LINE
  5
6F28
  8
AM_0
 10
100.4974138027934
 20
467.35952276089989
 30
0.0
 11
101.59741380279191
 21
467.35952276089989
 31
0.0
  0
LINE
  5
6F29
  8
AM_0
 10
100.1974138027937
 20
467.6595227608999
 30
0.0
 11
100.4974138027934
 21
467.35952276089989
 31
0.0
  0
LINE
  5
6F2A
  8
AM_0
 10
101.59741380279191
 20
467.6595227608999
 30
0.0
 11
100.1974138027937
 21
467.6595227608999
 31
0.0
  0
ARC
  5
6F2B
  8
AM_0
 10
104.30463698676709
 20
466.47795290049282
 30
0.0
 40
1.292776816026465
 50
322.11555894629771
 51
0.0
  0
ARC
  5
6F2C
  8
AM_0
 10
107.65984367885341
 20
468.85952276089989
 30
0.0
 40
4.762429876059711
 50
168.45024695876941
 51
199.4742400054138
  0
ARC
  5
6F2D
  8
AM_0
 10
104.1901906188203
 20
466.47795290049282
 30
0.0
 40
1.292776816026556
 50
142.11555894629771
 51
217.88444105370229
  0
ARC
  5
6F2E
  8
AM_0
 10
100.8349839267342
 20
468.85952276089989
 30
0.0
 40
4.762429876059584
 50
340.52575999458628
 51
347.08714779821958
  0
ARC
  5
6F2F
  8
AM_0
 10
104.30463698676709
 20
466.47795290049282
 30
0.0
 40
1.2927768160265021
 50
0.0
 51
37.884441053702282
  0
ARC
  5
6F30
  8
AM_0
 10
102.0102192452642
 20
467.08717102631618
 30
0.0
 40
0.4128054424705854
 50
180.0
 51
239.99999999999949
  0
ARC
  5
6F31
  8
AM_0
 10
102.32356413106579
 20
465.47626127214971
 30
0.0
 40
0.8256108849411369
 50
28.217424594179711
 51
59.999999999999439
  0
LINE
  5
6F32
  8
AM_0
 10
101.8125063353169
 20
470.99439156036959
 30
0.0
 11
101.8038165240292
 21
470.98937449548367
 31
0.0
  0
ARC
  5
6F33
  8
AM_0
 10
102.01021924526439
 20
470.6318744954836
 30
0.0
 40
0.4128054424705854
 50
119.9999999999924
 51
179.99999999999341
  0
CIRCLE
  5
6F34
  8
AM_0
 10
104.1973751347879
 20
507.35952276089893
 30
0.0
 40
5.5
  0
LINE
  5
6F35
  8
AM_0
 10
98.69737513478789
 20
504.18409628035602
 30
0.0
 11
104.1973751347883
 21
501.00866979981282
 31
0.0
  0
LINE
  5
6F36
  8
AM_0
 10
104.1973751347883
 20
501.00866979981282
 30
0.0
 11
109.6973751347879
 21
504.18409628035619
 31
0.0
  0
LINE
  5
6F37
  8
AM_0
 10
109.6973751347879
 20
504.18409628035619
 30
0.0
 11
109.6973751347879
 21
510.53494924144178
 31
0.0
  0
LINE
  5
6F38
  8
AM_0
 10
109.6973751347879
 20
510.53494924144178
 30
0.0
 11
104.1973751347879
 21
513.71037572198497
 31
0.0
  0
LINE
  5
6F39
  8
AM_0
 10
104.1973751347879
 20
513.71037572198497
 30
0.0
 11
98.69737513478789
 21
510.53494924144172
 31
0.0
  0
LINE
  5
6F3A
  8
AM_0
 10
98.69737513478789
 20
510.53494924144172
 30
0.0
 11
98.69737513478789
 21
504.18409628035602
 31
0.0
  0
CIRCLE
  5
6F3B
  8
AM_0
 10
104.1973751347879
 20
507.35952276089893
 30
0.0
 40
6.4999856554771771
  0
LINE
  5
6F3C
  8
AM_0
 10
115.262667365159
 20
473.35952276089961
 30
0.0
 11
118.1974138027936
 21
473.35952276089961
 31
0.0
  0
LINE
  5
6F3D
  8
AM_0
 10
116.21683591694691
 20
471.85952276089972
 30
0.0
 11
118.1974138027936
 21
471.85952276089972
 31
0.0
  0
LINE
  5
6F3E
  8
AM_0
 10
107.5184429466527
 20
467.35952276089972
 30
0.0
 11
118.1974138027936
 21
467.35952276089972
 31
0.0
  0
ARC
  5
6F3F
  8
AM_0
 10
107.5184429466525
 20
472.35952276089961
 30
0.0
 40
5.0
 50
225.0
 51
270.0
1001
GENIUS_GENODEF_13
1002
{
1000
HIER
1070
     0
1002
}
1002
{
1000
MANEDIT
1070
     0
1002
}
1002
{
1000
NOSEL
1070
     0
1002
}
1002
{
1000
BEHIND
1070
     0
1002
}
1002
{
1000
OTHER
1070
     0
1002
}
1002
{
1000
REACTOR
1002
}
1001
GENIUS_GENOBJ-N-FIL_13
1002
{
1000
OWNER
1000
GEN
1002
}
  0
LINE
  5
6F40
  8
AM_0
 10
116.21683591694671
 20
467.35952276089972
 30
0.0
 11
116.21683591694691
 21
471.85952276089972
 31
0.0
  0
LINE
  5
6F41
  8
AM_0
 10
102.6973751347878
 20
501.03498218300649
 30
0.0
 11
102.6973751347881
 21
480.14754790719019
 31
0.0
  0
LINE
  5
6F42
  8
AM_0
 10
105.6973751347878
 20
501.03498218300649
 30
0.0
 11
105.6973751347878
 21
480.14754790719019
 31
0.0
  0
LINE
  5
6F43
  8
AM_0
 10
100.4473751347878
 20
502.05035017739692
 30
0.0
 11
100.4473751347878
 21
474.43059057276429
 31
0.0
  0
ARC
  5
6F44
  8
AM_0
 10
105.4473751347879
 20
474.43059057276429
 30
0.0
 40
5.0
 50
180.0
 51
225.0
1001
GENIUS_GENOBJ-N-FIL_13
1002
{
1000
OWNER
1000
GEN
1002
}
1001
GENIUS_GENODEF_13
1002
{
1000
HIER
1070
     0
1002
}
1002
{
1000
MANEDIT
1070
     0
1002
}
1002
{
1000
NOSEL
1070
     0
1002
}
1002
{
1000
BEHIND
1070
     0
1002
}
1002
{
1000
OTHER
1070
     0
1002
}
1002
{
1000
REACTOR
1002
}
  0
LINE
  5
6F45
  8
AM_0
 10
107.9473751347878
 20
502.05035017739692
 30
0.0
 11
107.9473751347878
 21
477.89044110415119
 31
0.0
  0
ARC
  5
6F46
  8
AM_0
 10
112.9473751347878
 20
486.3150411302243
 30
0.0
 40
5.0
 50
180.0
 51
212.46094411514159
1001
GENIUS_GENODEF_13
1002
{
1000
HIER
1070
     0
1002
}
1002
{
1000
MANEDIT
1070
     0
1002
}
1002
{
1000
NOSEL
1070
     0
1002
}
1002
{
1000
BEHIND
1070
     0
1002
}
1002
{
1000
OTHER
1070
     0
1002
}
1002
{
1000
REACTOR
1002
}
1001
GENIUS_GENOBJ-N-FIL_13
1002
{
1000
OWNER
1000
GEN
1002
}
  0
ARC
  5
6F47
  8
AM_0
 10
112.9473751347878
 20
477.89044110415119
 30
0.0
 40
5.0
 50
180.0
 51
224.2123722808945
1001
GENIUS_GENOBJ-N-FIL_13
1002
{
1000
OWNER
1000
GEN
1002
}
1001
GENIUS_GENODEF_13
1002
{
1000
HIER
1070
     0
1002
}
1002
{
1000
MANEDIT
1070
     0
1002
}
1002
{
1000
NOSEL
1070
     0
1002
}
1002
{
1000
BEHIND
1070
     0
1002
}
1002
{
1000
OTHER
1070
     0
1002
}
1002
{
1000
REACTOR
1002
}
  0
LINE
  5
6F48
  8
AM_0
 10
116.21683591694671
 20
471.85952276089972
 30
0.0
 11
108.7285876240208
 21
483.63141821725873
 31
0.0
  0
LINE
  5
6F49
  8
AM_0
 10
116.21683591694671
 20
467.35952276089972
 30
0.0
 11
109.36357489893641
 21
474.4038416333903
 31
0.0
  0
LINE
  5
6F4A
  8
AM_0
 10
101.9118412288552
 20
470.89505666683169
 30
0.0
 11
103.9829090407198
 21
468.82398885496701
 31
0.0
  0
ARC
  5
6F4B
  8
AM_0
 10
104.1973751347879
 20
480.14754790719019
 30
0.0
 40
1.5
 50
180.0
 51
0.0
  0
LINE
  5
6F4C
  8
AM_0
 10
118.1974138027941
 20
541.35952276089802
 30
0.0
 11
118.1974138027946
 21
552.35952276089904
 31
0.0
  0
LINE
  5
6F4D
  8
AM_0
 10
132.69741380279461
 20
552.3595227608987
 30
0.0
 11
118.1974138027946
 21
552.35952276089904
 31
0.0
  0
LINE
  5
6F4E
  8
AM_0
 10
106.1974138027948
 20
547.35952276089824
 30
0.0
 11
106.1974138027948
 21
550.35952276089824
 31
0.0
  0
LINE
  5
6F4F
  8
AM_0
 10
106.1974138027948
 20
550.35952276089824
 30
0.0
 11
118.1974138027946
 21
550.35952276089802
 31
0.0
  0
LINE
  5
6F50
  8
AM_0
 10
106.1974138027946
 20
549.35952276089824
 30
0.0
 11
106.1974138027946
 21
547.18185435475175
 31
0.0
  0
LINE
  5
6F51
  8
AM_0
 10
100.6974138027945
 20
547.35952276089824
 30
0.0
 11
101.5974138027947
 21
547.35952276089824
 31
0.0
  0
LINE
  5
6F52
  8
AM_0
 10
100.4974138027943
 20
544.35952276089847
 30
0.0
 11
100.4974138027943
 21
547.35952276089824
 31
0.0
  0
LINE
  5
6F53
  8
AM_0
 10
101.5974138027947
 20
547.63187449548195
 30
0.0
 11
101.5974138027947
 21
544.08717102631465
 31
0.0
  0
LINE
  5
6F54
  8
AM_0
 10
100.1974138027946
 20
544.65952276089831
 30
0.0
 11
101.59741380279441
 21
544.65952276089831
 31
0.0
  0
LINE
  5
6F55
  8
AM_0
 10
105.5974138027947
 20
548.24109262130548
 30
0.0
 11
105.5974138027947
 21
549.35952276089836
 31
0.0
  0
LINE
  5
6F56
  8
AM_0
 10
105.5974138027947
 20
547.35952276089824
 30
0.0
 11
105.5974138027947
 21
547.45952276089827
 31
0.0
  0
LINE
  5
6F57
  8
AM_0
 10
105.5974138027947
 20
547.45952276089827
 30
0.0
 11
105.5974138027947
 21
548.24109262130548
 31
0.0
  0
LINE
  5
6F58
  8
AM_0
 10
105.5974138027947
 20
547.35952276089824
 30
0.0
 11
105.5974138027947
 21
547.45952276089827
 31
0.0
  0
LINE
  5
6F59
  8
AM_0
 10
105.5974138027947
 20
546.97576008456861
 30
0.0
 11
105.5974138027947
 21
548.24109262130548
 31
0.0
  0
LINE
  5
6F5A
  8
AM_0
 10
105.5974138027947
 20
549.35952276089836
 30
0.0
 11
106.1974138027946
 21
549.35952276089824
 31
0.0
  0
LINE
  5
6F5B
  8
AM_0
 10
102.8974138027948
 20
548.24109262130548
 30
0.0
 11
102.8974138027946
 21
544.80956142890511
 31
0.0
  0
LINE
  5
6F5C
  8
AM_0
 10
102.7363695735372
 20
548.52778424964845
 30
0.0
 11
101.8038165240301
 21
547.98937449548191
 31
0.0
  0
LINE
  5
6F5D
  8
AM_0
 10
103.16986539482519
 20
549.03494924144115
 30
0.0
 11
105.3249622107643
 21
549.03494924144115
 31
0.0
  0
LINE
  5
6F5E
  8
AM_0
 10
103.16986539482519
 20
547.4472360011697
 30
0.0
 11
105.3249622107643
 21
547.4472360011697
 31
0.0
  0
LINE
  5
6F5F
  8
AM_0
 10
101.5974138027947
 20
544.35952276089847
 30
0.0
 11
100.4974138027943
 21
544.35952276089847
 31
0.0
  0
LINE
  5
6F60
  8
AM_0
 10
100.4974138027943
 20
544.35952276089847
 30
0.0
 11
100.1974138027946
 21
544.65952276089831
 31
0.0
  0
LINE
  5
6F61
  8
AM_0
 10
100.1974138027946
 20
544.65952276089831
 30
0.0
 11
100.1974138027946
 21
547.05952276089852
 31
0.0
  0
LINE
  5
6F62
  8
AM_0
 10
100.4974138027943
 20
547.35952276089824
 30
0.0
 11
101.5974138027947
 21
547.35952276089824
 31
0.0
  0
LINE
  5
6F63
  8
AM_0
 10
100.1974138027946
 20
547.05952276089852
 30
0.0
 11
100.4974138027943
 21
547.35952276089824
 31
0.0
  0
LINE
  5
6F64
  8
AM_0
 10
101.5974138027947
 20
547.0595227608984
 30
0.0
 11
100.1974138027946
 21
547.05952276089852
 31
0.0
  0
ARC
  5
6F65
  8
AM_0
 10
104.304636986768
 20
548.24109262130548
 30
0.0
 40
1.292776816026465
 50
0.0
 51
37.884441053702282
  0
ARC
  5
6F66
  8
AM_0
 10
107.6598436788541
 20
545.85952276089824
 30
0.0
 40
4.762429876059711
 50
160.52575999458611
 51
191.5497530412305
  0
ARC
  5
6F67
  8
AM_0
 10
104.19019061882121
 20
548.24109262130548
 30
0.0
 40
1.292776816026556
 50
142.11555894629771
 51
217.88444105370229
  0
ARC
  5
6F68
  8
AM_0
 10
100.83498392673491
 20
545.85952276089824
 30
0.0
 40
4.762429876059584
 50
12.912852201780369
 51
19.474240005413812
  0
ARC
  5
6F69
  8
AM_0
 10
104.304636986768
 20
548.24109262130548
 30
0.0
 40
1.2927768160265021
 50
322.11555894629771
 51
0.0
  0
ARC
  5
6F6A
  8
AM_0
 10
102.01021924526511
 20
547.63187449548195
 30
0.0
 40
0.4128054424705854
 50
120.0000000000005
 51
180.0
  0
ARC
  5
6F6B
  8
AM_0
 10
102.3235641310665
 20
549.24278424964848
 30
0.0
 40
0.8256108849411369
 50
299.99999999999972
 51
331.7825754058203
  0
LINE
  5
6F6C
  8
AM_0
 10
101.81250633531781
 20
543.72465396142843
 30
0.0
 11
101.8038165240301
 21
543.72967102631446
 31
0.0
  0
ARC
  5
6F6D
  8
AM_0
 10
102.01021924526511
 20
544.08717102631454
 30
0.0
 40
0.4128054424705854
 50
180.00000000000659
 51
240.00000000000759
  0
LINE
  5
6F6E
  8
AM_0
 10
115.2626673651599
 20
541.35952276089824
 30
0.0
 11
118.1974138027941
 21
541.35952276089802
 31
0.0
  0
LINE
  5
6F6F
  8
AM_0
 10
116.2168359169476
 20
542.85952276089824
 30
0.0
 11
118.1974138027943
 21
542.85952276089802
 31
0.0
  0
LINE
  5
6F70
  8
AM_0
 10
107.51844294665359
 20
547.35952276089824
 30
0.0
 11
118.1974138027943
 21
547.35952276089802
 31
0.0
  0
ARC
  5
6F71
  8
AM_0
 10
107.5184429466532
 20
542.35952276089824
 30
0.0
 40
5.0
 50
90.0
 51
135.0
1001
GENIUS_GENODEF_13
1002
{
1000
HIER
1070
     0
1002
}
1002
{
1000
MANEDIT
1070
     0
1002
}
1002
{
1000
NOSEL
1070
     0
1002
}
1002
{
1000
BEHIND
1070
     0
1002
}
1002
{
1000
OTHER
1070
     0
1002
}
1002
{
1000
REACTOR
1002
}
1001
GENIUS_GENOBJ-N-FIL_13
1002
{
1000
OWNER
1000
GEN
1002
}
  0
LINE
  5
6F72
  8
AM_0
 10
116.2168359169476
 20
547.35952276089824
 30
0.0
 11
116.2168359169476
 21
542.85952276089824
 31
0.0
  0
LINE
  5
6F73
  8
AM_0
 10
102.6973751347883
 20
513.68406333879182
 30
0.0
 11
102.6973751347888
 21
534.57149761460767
 31
0.0
  0
LINE
  5
6F74
  8
AM_0
 10
105.6973751347881
 20
513.6840633387917
 30
0.0
 11
105.6973751347888
 21
534.57149761460767
 31
0.0
  0
LINE
  5
6F75
  8
AM_0
 10
100.4473751347883
 20
512.66869534440116
 30
0.0
 11
100.4473751347888
 21
540.28845494903385
 31
0.0
  0
ARC
  5
6F76
  8
AM_0
 10
105.4473751347885
 20
540.28845494903362
 30
0.0
 40
5.0
 50
135.0
 51
180.0
1001
GENIUS_GENOBJ-N-FIL_13
1002
{
1000
OWNER
1000
GEN
1002
}
1001
GENIUS_GENODEF_13
1002
{
1000
HIER
1070
     0
1002
}
1002
{
1000
MANEDIT
1070
     0
1002
}
1002
{
1000
NOSEL
1070
     0
1002
}
1002
{
1000
BEHIND
1070
     0
1002
}
1002
{
1000
OTHER
1070
     0
1002
}
1002
{
1000
REACTOR
1002
}
  0
LINE
  5
6F77
  8
AM_0
 10
107.9473751347883
 20
512.66869534440093
 30
0.0
 11
107.9473751347888
 21
536.82860441764683
 31
0.0
  0
ARC
  5
6F78
  8
AM_0
 10
112.9473751347883
 20
528.40400439157361
 30
0.0
 40
5.0
 50
147.53905588485841
 51
180.0
1001
GENIUS_GENODEF_13
1002
{
1000
HIER
1070
     0
1002
}
1002
{
1000
MANEDIT
1070
     0
1002
}
1002
{
1000
NOSEL
1070
     0
1002
}
1002
{
1000
BEHIND
1070
     0
1002
}
1002
{
1000
OTHER
1070
     0
1002
}
1002
{
1000
REACTOR
1002
}
1001
GENIUS_GENOBJ-N-FIL_13
1002
{
1000
OWNER
1000
GEN
1002
}
  0
ARC
  5
6F79
  8
AM_0
 10
112.9473751347885
 20
536.82860441764672
 30
0.0
 40
5.0
 50
135.7876277191055
 51
180.0
1001
GENIUS_GENOBJ-N-FIL_13
1002
{
1000
OWNER
1000
GEN
1002
}
1001
GENIUS_GENODEF_13
1002
{
1000
HIER
1070
     0
1002
}
1002
{
1000
MANEDIT
1070
     0
1002
}
1002
{
1000
NOSEL
1070
     0
1002
}
1002
{
1000
BEHIND
1070
     0
1002
}
1002
{
1000
OTHER
1070
     0
1002
}
1002
{
1000
REACTOR
1002
}
  0
LINE
  5
6F7A
  8
AM_0
 10
116.2168359169474
 20
542.85952276089824
 30
0.0
 11
108.7285876240213
 21
531.08762730453952
 31
0.0
  0
LINE
  5
6F7B
  8
AM_0
 10
116.2168359169476
 20
547.35952276089824
 30
0.0
 11
109.3635748989373
 21
540.31520388840772
 31
0.0
  0
LINE
  5
6F7C
  8
AM_0
 10
101.91184122885591
 20
543.82398885496661
 30
0.0
 11
103.9829090407207
 21
545.89505666683124
 31
0.0
  0
ARC
  5
6F7D
  8
AM_0
 10
104.1973751347885
 20
534.57149761460767
 30
0.0
 40
1.5
 50
0.0
 51
180.0
  0
ARC
  5
6F7E
  8
AM_0
 10
149.64821198964921
 20
436.35952276089859
 30
0.0
 40
20.0
 50
209.07393874564249
 51
249.97235728825609
1001
GENIUS_GENODEF_13
1002
{
1000
HIER
1070
     0
1002
}
1002
{
1000
MANEDIT
1070
     0
1002
}
1002
{
1000
NOSEL
1070
     0
1002
}
1002
{
1000
BEHIND
1070
     0
1002
}
1002
{
1000
OTHER
1070
     0
1002
}
1002
{
1000
REACTOR
1002
}
1001
GENIUS_GENOBJ-N-FIL_13
1002
{
1000
OWNER
1000
GEN
1002
}
  0
ARC
  5
6F7F
  8
AM_0
 10
150.23638821829491
 20
437.35952276089859
 30
0.0
 40
15.0
 50
209.07393874564249
 51
240.27464366407139
1001
GENIUS_GENODEF_13
1002
{
1000
HIER
1070
     0
1002
}
1002
{
1000
MANEDIT
1070
     0
1002
}
1002
{
1000
NOSEL
1070
     0
1002
}
1002
{
1000
BEHIND
1070
     0
1002
}
1002
{
1000
OTHER
1070
     0
1002
}
1002
{
1000
REACTOR
1002
}
1001
GENIUS_GENOBJ-N-FIL_13
1002
{
1000
OWNER
1000
GEN
1002
}
  0
LINE
  5
6F80
  8
AM_0
 10
132.1683450982344
 20
426.64076494632081
 30
0.0
 11
111.19681971169641
 21
464.35952276089961
 31
0.0
  0
LINE
  5
6F81
  8
AM_0
 10
137.12648804973369
 20
430.07045439996517
 30
0.0
 11
119.17385503441101
 21
462.35952276089881
 31
0.0
  0
LINE
  5
6FDA
  8
AM_0
 10
424.19738380279398
 20
519.35952276089859
 30
0.0
 11
424.19738380279398
 21
495.35952276089841
 31
0.0
  0
LINE
  5
6FDB
  8
AM_0
 10
390.19733380279371
 20
519.35952276089847
 30
0.0
 11
424.19738380279398
 21
519.35952276089859
 31
0.0
  0
LINE
  5
6FDC
  8
AM_0
 10
390.19733380279371
 20
495.35952276089841
 30
0.0
 11
424.19738380279398
 21
495.35952276089841
 31
0.0
  0
LINE
  5
6FDD
  8
AM_0
 10
392.19738380279398
 20
511.3594927608986
 30
0.0
 11
392.19738380279398
 21
503.35952276089853
 31
0.0
  0
LINE
  5
6FDE
  8
AM_0
 10
392.19738380279398
 20
503.35952276089853
 30
0.0
 11
424.19738380279398
 21
503.35952276089853
 31
0.0
  0
LINE
  5
6FDF
  8
AM_0
 10
392.19738380279398
 20
511.3594927608986
 30
0.0
 11
424.19738380279398
 21
511.3594927608986
 31
0.0
  0
ARC
  5
6FE0
  8
AM_0
 10
392.19738380279398
 20
507.3594927608986
 30
0.0
 40
3.9999962
 50
90.00000299999769
 51
120.0008584236235
  0
ARC
  5
6FE1
  8
AM_0
 10
392.19738380279398
 20
507.3594927608986
 30
0.0
 40
3.9999962
 50
239.99914157637639
 51
270.0
  0
LINE
  5
6FE2
  8
AM_0
 10
385.19733380279382
 20
540.85951976089848
 30
0.0
 11
390.19733380279371
 21
535.85951976089871
 31
0.0
  0
LINE
  5
6FE3
  8
AM_0
 10
381.19741380279402
 20
540.85951976089848
 30
0.0
 11
385.19733380279399
 21
540.85951976089848
 31
0.0
  0
LINE
  5
6FE4
  8
AM_0
 10
390.19733380279371
 20
535.85951976089871
 30
0.0
 11
390.19733380279382
 21
478.85951976089848
 31
0.0
  0
LINE
  5
6FE5
  8
AM_0
 10
381.19741380279402
 20
473.85951976089848
 30
0.0
 11
385.19733380279382
 21
473.85951976089848
 31
0.0
  0
LINE
  5
6FE6
  8
AM_0
 10
385.19733380279382
 20
473.85951976089848
 30
0.0
 11
390.19733380279382
 21
478.85951976089848
 31
0.0
  0
LINE
  5
6FE7
  8
AM_0
 10
385.19733380279399
 20
540.85951976089848
 30
0.0
 11
385.19733380279382
 21
473.85951976089848
 31
0.0
  0
LINE
  5
6FE8
  8
AM_0
 10
317.19738380279398
 20
578.35952276089847
 30
0.0
 11
317.19738380279398
 21
436.35952276089853
 31
0.0
  0
LINE
  5
6FE9
  8
AM_0
 10
317.19741380279402
 20
436.35952276089853
 30
0.0
 11
312.145073802794
 21
436.49181276089848
 31
0.0
  0
LINE
  5
6FEA
  8
AM_0
 10
317.19738380279398
 20
578.35952276089847
 30
0.0
 11
312.145073802794
 21
578.22722276089837
 31
0.0
  0
LINE
  5
6FEB
  8
AM_0
 10
310.19741380279407
 20
438.49114276089858
 30
0.0
 11
310.19741380279407
 21
576.22789276089873
 31
0.0
  0
LINE
  5
6FEC
  8
AM_0
 10
305.19741380279402
 20
450.67867276089851
 30
0.0
 11
279.197443802794
 21
451.35952276089859
 31
0.0
  0
LINE
  5
6FED
  8
AM_0
 10
279.19741380279407
 20
461.35921276089857
 30
0.0
 11
310.19741380279407
 21
461.35921276089857
 31
0.0
  0
LINE
  5
6FEE
  8
AM_0
 10
307.19738380279398
 20
442.14824276089831
 30
0.0
 11
308.19741380279407
 21
442.14824276089831
 31
0.0
  0
LINE
  5
6FEF
  8
AM_0
 10
305.19738380279398
 20
444.14824276089871
 30
0.0
 11
305.19738380279398
 21
459.35921276089852
 31
0.0
  0
LINE
  5
6FF0
  8
AM_0
 10
305.19738380279398
 20
570.57082276089852
 30
0.0
 11
305.19738380279398
 21
555.35982276089851
 31
0.0
  0
LINE
  5
6FF1
  8
AM_0
 10
305.19741380279402
 20
564.04033276089854
 30
0.0
 11
279.197443802794
 21
563.35952276089836
 31
0.0
  0
LINE
  5
6FF2
  8
AM_0
 10
279.19741380279407
 20
553.35982276089851
 30
0.0
 11
310.19741380279407
 21
553.35982276089851
 31
0.0
  0
LINE
  5
6FF3
  8
AM_0
 10
307.19738380279398
 20
572.57082276089852
 30
0.0
 11
308.19741380279407
 21
572.57082276089852
 31
0.0
  0
LINE
  5
6FF4
  8
AM_0
 10
279.19741380279407
 20
475.41958276089849
 30
0.0
 11
310.19741380279407
 21
475.41958276089849
 31
0.0
  0
LINE
  5
6FF5
  8
AM_0
 10
279.19741380279407
 20
539.29946276089845
 30
0.0
 11
310.19741380279407
 21
539.29946276089845
 31
0.0
  0
LINE
  5
6FF6
  8
AM_0
 10
364.74022380279399
 20
445.19744276089858
 30
0.0
 11
351.65453380279411
 21
452.92650276089842
 31
0.0
  0
LINE
  5
6FF7
  8
AM_0
 10
348.22097380279411
 20
579.17189276089834
 30
0.0
 11
317.19738380279398
 21
578.35952276089847
 31
0.0
  0
LINE
  5
6FF8
  8
AM_0
 10
350.19738380279421
 20
459.66140276089851
 30
0.0
 11
365.19738380279421
 21
459.66140276089851
 31
0.0
  0
LINE
  5
6FF9
  8
AM_0
 10
364.74019380279401
 20
448.68166276089858
 30
0.0
 11
351.65459380279401
 21
456.41069276089848
 31
0.0
  0
LINE
  5
6FFA
  8
AM_0
 10
364.74022380279399
 20
569.52160276089865
 30
0.0
 11
351.65456380279397
 21
561.79253276089855
 31
0.0
  0
LINE
  5
6FFB
  8
AM_0
 10
364.74022380279399
 20
566.03737276089828
 30
0.0
 11
351.65456380279397
 21
558.30831276089873
 31
0.0
  0
LINE
  5
6FFC
  8
AM_0
 10
367.19738380279398
 20
465.40786276089858
 30
0.0
 11
367.19738380279398
 21
424.6401327608985
 31
0.0
  0
LINE
  5
6FFD
  8
AM_0
 10
381.19741380279402
 20
577.35952276089847
 30
0.0
 11
381.19741380279402
 21
437.35952276089853
 31
0.0
  0
LINE
  5
6FFE
  8
AM_0
 10
371.19738380279432
 20
440.57817276089838
 30
0.0
 11
371.19738380279432
 21
574.14086276089847
 31
0.0
  0
LINE
  5
6FFF
  8
AM_0
 10
367.19738380279398
 20
549.31118276089853
 30
0.0
 11
367.19738380279398
 21
590.07891276089856
 31
0.0
  0
LINE
  5
7000
  8
AM_0
 10
369.12755380279401
 20
592.07775276089853
 30
0.0
 11
377.19738380279398
 21
592.35955276089874
 31
0.0
  0
LINE
  5
7001
  8
AM_0
 10
348.22100380279397
 20
435.54711276089859
 30
0.0
 11
317.19738380279398
 21
436.35949276089849
 31
0.0
  0
LINE
  5
7002
  8
AM_0
 10
352.1188938027941
 20
433.97158276089851
 30
0.0
 11
364.2759338027941
 21
433.65325276089851
 31
0.0
  0
LINE
  5
7003
  8
AM_0
 10
377.19738380279398
 20
422.35952276089859
 30
0.0
 11
377.19738380279398
 21
592.35955276089874
 31
0.0
  0
LINE
  5
7004
  8
AM_0
 10
377.19738380279398
 20
437.35952276089853
 30
0.0
 11
381.19741380279402
 21
437.35952276089853
 31
0.0
  0
LINE
  5
7005
  8
AM_0
 10
377.19738380279398
 20
577.35952276089847
 30
0.0
 11
381.19741380279402
 21
577.35952276089847
 31
0.0
  0
LINE
  5
7006
  8
AM_0
 10
352.11886380279401
 20
580.74746276089854
 30
0.0
 11
364.27590380279412
 21
581.06582276089853
 31
0.0
  0
LINE
  5
7007
  8
AM_0
 10
349.19738380279421
 20
577.74849276089844
 30
0.0
 11
349.19738380279421
 21
436.97054276089858
 31
0.0
  0
LINE
  5
7008
  8
AM_0
 10
369.12755380279401
 20
422.6413227608985
 30
0.0
 11
377.197353802794
 21
422.35952276089859
 31
0.0
  0
LINE
  5
7009
  8
AM_0
 10
350.19738380279421
 20
555.05764276089849
 30
0.0
 11
365.19738380279421
 21
555.05764276089849
 31
0.0
  0
ARC
  5
700A
  8
AM_0
 10
312.19741380279407
 20
438.49114276089858
 30
0.0
 40
2.0
 50
180.00001000000091
 51
268.5000000000004
  0
ARC
  5
700B
  8
AM_0
 10
312.19741380279407
 20
576.22789276089873
 30
0.0
 40
2.0
 50
91.500001000001546
 51
180.00001000000091
  0
ARC
  5
700C
  8
AM_0
 10
307.19738380279398
 20
444.14824276089871
 30
0.0
 40
2.0
 50
180.00001000000091
 51
270.0
  0
ARC
  5
700D
  8
AM_0
 10
303.19738380279398
 20
459.35921276089852
 30
0.0
 40
2.0
 50
0.0
 51
90.000003000000945
  0
ARC
  5
700E
  8
AM_0
 10
308.19741380279407
 20
440.14824276089848
 30
0.0
 40
2.0
 50
0.0
 51
90.000003000000945
  0
ARC
  5
700F
  8
AM_0
 10
308.19741380279407
 20
574.57082276089852
 30
0.0
 40
2.0
 50
270.0
 51
0.0
  0
ARC
  5
7010
  8
AM_0
 10
307.19738380279398
 20
570.57082276089852
 30
0.0
 40
2.0
 50
90.000003000000945
 51
180.00001000000091
  0
ARC
  5
7011
  8
AM_0
 10
303.19738380279398
 20
555.35982276089851
 30
0.0
 40
2.0
 50
270.0
 51
0.0
  0
ARC
  5
7012
  8
AM_0
 10
365.19738380279421
 20
557.0576427608986
 30
0.0
 40
2.0
 50
270.0
 51
0.0
  0
ARC
  5
7013
  8
AM_0
 10
365.19738380279421
 20
457.66140276089851
 30
0.0
 40
2.0
 50
0.0
 51
90.000003000000945
  0
ARC
  5
7014
  8
AM_0
 10
354.19738380279398
 20
457.23159276089848
 30
0.0
 40
5.0
 50
179.999989999999
 51
239.431710000001
  0
ARC
  5
7015
  8
AM_0
 10
354.19738380279398
 20
460.71584276089828
 30
0.0
 40
5.0
 50
179.999989999999
 51
239.431710000001
  0
ARC
  5
7016
  8
AM_0
 10
362.19738380279398
 20
444.37655276089851
 30
0.0
 40
5.0
 50
0.0
 51
59.431709000000481
  0
ARC
  5
7017
  8
AM_0
 10
350.19738380279421
 20
460.66140276089851
 30
0.0
 40
1.0
 50
179.999989999999
 51
270.0
  0
ARC
  5
7018
  8
AM_0
 10
354.19738380279398
 20
557.48745276089858
 30
0.0
 40
5.0
 50
120.5682899999989
 51
180.00001000000091
  0
ARC
  5
7019
  8
AM_0
 10
354.19738380279398
 20
554.00319276089851
 30
0.0
 40
5.0
 50
120.5682899999989
 51
180.00001000000091
  0
ARC
  5
701A
  8
AM_0
 10
362.19738380279398
 20
573.82674276089847
 30
0.0
 40
5.0
 50
300.56828999999891
 51
0.0
  0
ARC
  5
701B
  8
AM_0
 10
350.19738380279421
 20
554.0576427608986
 30
0.0
 40
1.0
 50
90.000003000000945
 51
180.00001000000091
  0
ARC
  5
701C
  8
AM_0
 10
362.19738380279398
 20
440.89229276089839
 30
0.0
 40
5.0
 50
0.0
 51
59.431709000000481
  0
ARC
  5
701D
  8
AM_0
 10
368.19738380279398
 20
440.57817276089838
 30
0.0
 40
3.0
 50
270.0
 51
0.0
  0
ARC
  5
701E
  8
AM_0
 10
370.19738380279398
 20
549.31118276089853
 30
0.0
 40
3.0
 50
179.999989999999
 51
270.0
  0
ARC
  5
701F
  8
AM_0
 10
368.19738380279398
 20
574.14086276089847
 30
0.0
 40
3.0
 50
0.0
 51
90.000003000000945
  0
ARC
  5
7020
  8
AM_0
 10
369.19741380279402
 20
590.07891276089856
 30
0.0
 40
2.0
 50
91.999998000000545
 51
180.00001000000091
  0
ARC
  5
7021
  8
AM_0
 10
348.14245380279402
 20
432.5481527608984
 30
0.0
 40
3.0
 50
47.481952000001627
 51
88.499997000000747
  0
ARC
  5
7022
  8
AM_0
 10
364.19738380279398
 20
430.65426276089852
 30
0.0
 40
3.0
 50
0.0
 51
88.499997000000747
  0
ARC
  5
7023
  8
AM_0
 10
364.19738380279398
 20
584.06478276089854
 30
0.0
 40
3.0
 50
271.49999999999949
 51
0.0
  0
ARC
  5
7024
  8
AM_0
 10
352.19738380279398
 20
577.74849276089844
 30
0.0
 40
3.0
 50
91.500001000001546
 51
180.00001000000091
  0
ARC
  5
7025
  8
AM_0
 10
369.19741380279402
 20
424.6401327608985
 30
0.0
 40
2.0
 50
179.999989999999
 51
268.00000999999861
  0
ARC
  5
7026
  8
AM_0
 10
352.19738380279398
 20
436.97054276089858
 30
0.0
 40
3.0
 50
179.999989999999
 51
268.50000999999878
  0
ARC
  5
7027
  8
AM_0
 10
348.14245380279402
 20
582.17086276089844
 30
0.0
 40
3.0
 50
271.49999999999949
 51
312.51811999999887
  0
ARC
  5
7028
  8
AM_0
 10
370.19738380279398
 20
465.40786276089858
 30
0.0
 40
3.0
 50
90.000003000000945
 51
180.00001000000091
  0
ARC
  5
7029
  8
AM_0
 10
362.19738380279398
 20
570.34249276089849
 30
0.0
 40
5.0
 50
300.56828999999891
 51
0.0
  0
TEXT
  5
7283
  8
AM_0
 10
492.09400934902737
 20
521.17933504482755
 30
0.0
 40
10.0
  1
VX02-040BFW~VX02-060BFW
  0
ENDSEC
  0
EOF
