  0
SECTION
  2
HEADER
  9
$ACADVER
  1
AC1009
  9
$INSBASE
 10
0.0
 20
0.0
 30
0.0
  9
$EXTMIN
 10
90.486421770283869
 20
137.16905330910751
 30
-250.41841640509659
  9
$EXTMAX
 10
725.18067352972037
 20
592.39528407777141
 30
8206587.2096418813
  9
$LIMMIN
 10
0.0
 20
0.0
  9
$LIMMAX
 10
853.5
 20
555.00000000000011
  9
$ORTHOMODE
 70
     0
  9
$REGENMODE
 70
     1
  9
$FILLMODE
 70
     1
  9
$QTEXTMODE
 70
     0
  9
$MIRRTEXT
 70
     1
  9
$DRAGMODE
 70
     2
  9
$LTSCALE
 40
3.0
  9
$OSMODE
 70
   551
  9
$ATTMODE
 70
     1
  9
$TEXTSIZE
 40
2.5
  9
$TRACEWID
 40
1.0
  9
$TEXTSTYLE
  7
STANDARD
  9
$CLAYER
  8
AM_0
  9
$CELTYPE
  6
BYLAYER
  9
$CECOLOR
 62
   256
  9
$DIMSCALE
 40
3.0
  9
$DIMASZ
 40
2.5
  9
$DIMEXO
 40
1.0
  9
$DIMDLI
 40
8.0
  9
$DIMRND
 40
0.0
  9
$DIMDLE
 40
0.0
  9
$DIMEXE
 40
0.6
  9
$DIMTP
 40
0.1
  9
$DIMTM
 40
0.1
  9
$DIMTXT
 40
2.5
  9
$DIMCEN
 40
0.0
  9
$DIMTSZ
 40
0.0
  9
$DIMTOL
 70
     0
  9
$DIMLIM
 70
     0
  9
$DIMTIH
 70
     0
  9
$DIMTOH
 70
     0
  9
$DIMSE1
 70
     0
  9
$DIMSE2
 70
     0
  9
$DIMTAD
 70
     1
  9
$DIMZIN
 70
     8
  9
$DIMBLK
  1

  9
$DIMASO
 70
     1
  9
$DIMSHO
 70
     1
  9
$DIMPOST
  1

  9
$DIMAPOST
  1
"
  9
$DIMALT
 70
     0
  9
$DIMALTD
 70
     2
  9
$DIMALTF
 40
0.0393701
  9
$DIMLFAC
 40
1.0
  9
$DIMTOFL
 70
     1
  9
$DIMTVP
 40
0.0
  9
$DIMTIX
 70
     0
  9
$DIMSOXD
 70
     0
  9
$DIMSAH
 70
     0
  9
$DIMBLK1
  1

  9
$DIMBLK2
  1

  9
$DIMSTYLE
  2
AM_ISO
  9
$DIMCLRD
 70
   256
  9
$DIMCLRE
 70
   256
  9
$DIMCLRT
 70
     4
  9
$DIMTFAC
 40
0.71
  9
$DIMGAP
 40
0.8
  9
$LUNITS
 70
     2
  9
$LUPREC
 70
     2
  9
$SKETCHINC
 40
1.0
  9
$FILLETRAD
 40
15.0
  9
$AUNITS
 70
     0
  9
$AUPREC
 70
     0
  9
$MENU
  1
.
  9
$ELEVATION
 40
0.0
  9
$PELEVATION
 40
0.0
  9
$THICKNESS
 40
0.0
  9
$LIMCHECK
 70
     0
  9
$BLIPMODE
 70
     0
  9
$CHAMFERA
 40
6.0
  9
$CHAMFERB
 40
3.0
  9
$SKPOLY
 70
     0
  9
$TDCREATE
 40
2452065.6056192131
  9
$TDUPDATE
 40
2458541.6144016562
  9
$TDINDWG
 40
0.4220967477
  9
$TDUSRTIMER
 40
0.4220965509
  9
$USRTIMER
 70
     1
  9
$ANGBASE
 50
0.0
  9
$ANGDIR
 70
     0
  9
$PDMODE
 70
     0
  9
$PDSIZE
 40
0.0
  9
$PLINEWID
 40
0.0
  9
$COORDS
 70
     1
  9
$SPLFRAME
 70
     0
  9
$SPLINETYPE
 70
     6
  9
$SPLINESEGS
 70
     8
  9
$ATTDIA
 70
     1
  9
$ATTREQ
 70
     1
  9
$HANDLING
 70
     1
  9
$HANDSEED
  5
7244
  9
$SURFTAB1
 70
     6
  9
$SURFTAB2
 70
     6
  9
$SURFTYPE
 70
     6
  9
$SURFU
 70
     6
  9
$SURFV
 70
     6
  9
$UCSNAME
  2

  9
$UCSORG
 10
0.0
 20
0.0
 30
0.0
  9
$UCSXDIR
 10
1.0
 20
0.0
 30
0.0
  9
$UCSYDIR
 10
0.0
 20
1.0
 30
0.0
  9
$PUCSNAME
  2

  9
$PUCSORG
 10
0.0
 20
0.0
 30
0.0
  9
$PUCSXDIR
 10
1.0
 20
0.0
 30
0.0
  9
$PUCSYDIR
 10
0.0
 20
1.0
 30
0.0
  9
$USERI1
 70
     0
  9
$USERI2
 70
     0
  9
$USERI3
 70
     0
  9
$USERI4
 70
     0
  9
$USERI5
 70
     0
  9
$USERR1
 40
0.0
  9
$USERR2
 40
0.0
  9
$USERR3
 40
0.0
  9
$USERR4
 40
0.0
  9
$USERR5
 40
0.0
  9
$WORLDVIEW
 70
     1
  9
$SHADEDGE
 70
     3
  9
$SHADEDIF
 70
    70
  9
$TILEMODE
 70
     1
  9
$MAXACTVP
 70
    64
  9
$PLIMCHECK
 70
     0
  9
$PEXTMIN
 10
1.0000000000000000E+020
 20
1.0000000000000000E+020
 30
1.0000000000000000E+020
  9
$PEXTMAX
 10
-1.0000000000000000E+020
 20
-1.0000000000000000E+020
 30
-1.0000000000000000E+020
  9
$PLIMMIN
 10
0.0
 20
0.0
  9
$PLIMMAX
 10
420.0
 20
297.0
  9
$UNITMODE
 70
     0
  9
$VISRETAIN
 70
     1
  9
$PLINEGEN
 70
     0
  9
$PSLTSCALE
 70
     1
  0
ENDSEC
  0
SECTION
  2
TABLES
  0
TABLE
  2
VPORT
 70
     1
  0
VPORT
  2
*ACTIVE
 70
     0
 10
0.0
 20
0.0
 11
1.0
 21
1.0
 12
407.83354765000212
 22
364.78216869343959
 13
0.0
 23
0.0
 14
7.5
 24
7.5
 15
30.0
 25
30.0
 16
0.0
 26
0.0
 36
1.0
 17
0.0
 27
0.0
 37
0.0
 40
458.35135363435268
 41
1.7571592210767459
 42
50.0
 43
0.0
 44
0.0
 50
0.0
 51
0.0
 71
     0
 72
   100
 73
     1
 74
     3
 75
     0
 76
     0
 77
     0
 78
     0
  0
ENDTAB
  0
TABLE
  2
LTYPE
 70
    26
  0
LTYPE
  2
CONTINUOUS
 70
     0
  3
Solid line
 72
    65
 73
     0
 40
0.0
  0
LTYPE
  2
AM_ISO02W050
 70
     0
  3
__ __ __ __ __ __ __ __ __ __ __ __ __ __ __
 72
    65
 73
     2
 40
7.5
 49
6.0
 49
-1.5
  0
LTYPE
  2
AM_ISO08W050
 70
     0
  3
____ . ____ . ____ . ____ . ____ . ____ . ____
 72
    65
 73
     4
 40
18.0
 49
12.0
 49
-1.5
 49
3.0
 49
-1.5
  0
LTYPE
  2
AM_ISO09W050
 70
     0
  3
_____ . . _____ . . _____ . . ____ .. ____
 72
    65
 73
     6
 40
22.5
 49
12.0
 49
-1.5
 49
3.0
 49
-1.5
 49
3.0
 49
-1.5
  0
LTYPE
  2
AMCONSTR
 70
     0
  3
_______________________
 72
    65
 73
     2
 40
9999.0
 49
9999.0
 49
0.0
  0
LTYPE
  2
AM_ISO08W050X2
 70
     0
  3
__ . __ . __ . __ . __ . __
 72
    65
 73
     4
 40
9.0
 49
6.0
 49
-0.75
 49
1.5
 49
-0.75
  0
LTYPE
  2
AM_ISO02W050X2
 70
     0
  3
 _ _ _ _ _ _ _ _ _ _ _ _
 72
    65
 73
     2
 40
3.75
 49
3.0
 49
-0.75
  0
LTYPE
  2
AMZIGZAG
 70
     0
  3
/\/-/\/-/\/-/\/-/\/-/\/
 72
    65
 73
     2
 40
11.0001
 49
0.0001
 49
-11.0
  0
LTYPE
  2
ACISOWELD
 70
     0
  3
_ _ _ _ _
 72
    65
 73
     2
 40
2.0
 49
2.0
 49
-1.0
  0
LTYPE
  2
ACISOTGB
 70
     0
  3
__ . . __ . .
 72
    65
 73
     6
 40
9.0
 49
4.0
 49
-1.0
 49
1.0
 49
-1.0
 49
1.0
 49
-1.0
  0
LTYPE
  2
ACISOTGL
 70
     0
  3
_ _ _ _ _
 72
    65
 73
     2
 40
3.0
 49
2.0
 49
-1.0
  0
LTYPE
  2
CENTER
 70
     0
  3
__ . __
 72
    65
 73
     4
 40
7.0
 49
4.0
 49
-1.0
 49
1.0
 49
-1.0
  0
LTYPE
  2
HIDDEN
 70
     0
  3
Hidden __ __ __ __ __ __ __ __ __ __ __ __ __ _
 72
    65
 73
     2
 40
9.5249999999999986
 49
6.3499999999999979
 49
-3.174999999999998
  0
LTYPE
  2
PHANTOM2
 70
     0
  3
Phantom (.5x) ___ _ _ ___ _ _ ___ _ _ ___ _ _
 72
    65
 73
     6
 40
31.75
 49
15.875
 49
-3.174999999999998
 49
3.174999999999998
 49
-3.174999999999998
 49
3.174999999999998
 49
-3.174999999999998
  0
LTYPE
  2
ACANSTGBM
 70
     0
  3
__ . . __ . .
 72
    65
 73
     6
 40
9.0
 49
4.0
 49
-1.0
 49
1.0
 49
-1.0
 49
1.0
 49
-1.0
  0
LTYPE
  2
ACANSTGLM
 70
     0
  3
_ _ _ _ _
 72
    65
 73
     2
 40
3.0
 49
2.0
 49
-1.0
  0
LTYPE
  2
GEN7A
 70
     0
  3
__ . __ . __
 72
    65
 73
     4
 40
7.375
 49
4.75
 49
-0.875
 49
0.875
 49
-0.875
  0
LTYPE
  2
ACJISTGB
 70
     0
  3
__ . . __ . .
 72
    65
 73
     6
 40
9.0
 49
4.0
 49
-1.0
 49
1.0
 49
-1.0
 49
1.0
 49
-1.0
  0
LTYPE
  2
ACJISTGL
 70
     0
  3
_ _ _ _ _
 72
    65
 73
     2
 40
3.0
 49
2.0
 49
-1.0
  0
LTYPE
  2
GEN7
 70
     0
  3
____ . ____ . ____ . ____ . ____ . ____ . ____
 72
    65
 73
     4
 40
14.25
 49
9.75
 49
-1.5
 49
1.5
 49
-1.5
  0
LTYPE
  2
CENTER2
 70
     0
  3
Center (.5x) ___ _ ___ _ ___ _ ___ _ ___ _ ___
 72
    65
 73
     4
 40
1.125
 49
0.75
 49
-0.125
 49
0.125
 49
-0.125
  0
LTYPE
  2
HIDDEN2
 70
     0
  3
Hidden (.5x) _ _ _ _ _ _ _ _ _ _ _ _ _ _ _ _ _
 72
    65
 73
     2
 40
0.1875
 49
0.125
 49
-0.0625
  0
LTYPE
  2
AMZIGZAG2
 70
     0
  3
/\/-/\/-/\/-/\/-/\/-/\/
 72
    65
 73
     2
 40
0.4401
 49
0.0001
 49
-0.4400000000000001
  0
LTYPE
  2
ACANSTGB
 70
     0
  3
__ . . __ . .
 72
    65
 73
     6
 40
0.35433070866
 49
0.15748031496
 49
-0.03937007874
 49
0.03937007874
 49
-0.03937007874
 49
0.03937007874
 49
-0.03937007874
  0
LTYPE
  2
ACANSTGL
 70
     0
  3
_ _ _ _ _
 72
    65
 73
     2
 40
0.11811023622
 49
0.07874015748
 49
-0.03937007874
  0
ENDTAB
  0
TABLE
  2
LAYER
 70
     7
  0
LAYER
  2
0
 70
     0
 62
     7
  6
CONTINUOUS
  0
LAYER
  2
AM_0
 70
     0
 62
     7
  6
CONTINUOUS
  0
LAYER
  2
AM_5
 70
     0
 62
     2
  6
CONTINUOUS
  0
LAYER
  2
DEFPOINTS
 70
     0
 62
     7
  6
CONTINUOUS
  0
LAYER
  2
ﾁｭｳｼﾝｾﾝ1
 70
     0
 62
     1
  6
GEN7A
  0
LAYER
  2
AM_0N
 70
     0
 62
     7
  6
CONTINUOUS
  0
LAYER
  2
ﾁｭｳｼﾝｾﾝ
 70
     0
 62
     1
  6
GEN7
  0
ENDTAB
  0
TABLE
  2
STYLE
 70
    10
  0
STYLE
  2
STANDARD
 70
     0
 40
0.0
 41
0.8299999999999999
 50
0.0
 71
     0
 42
2.5
  3
txt.shx
  4
bigfont.shx
  0
STYLE
  2
ANNOTATIVE
 70
     0
 40
0.0
 41
1.0
 50
0.0
 71
     0
 42
0.2
  3
txt
  4

  0
STYLE
  2

 70
     1
 40
0.0
 41
1.0
 50
0.0
 71
     0
 42
2.5
  3
ltypeshp.shx
  4

  0
STYLE
  2
ACISOTS
 70
     0
 40
1.0
 41
1.0
 50
0.0
 71
     0
 42
2.5
  3
isocp.shx
  4
extfont.shx
  0
STYLE
  2
ACISOGDT
 70
     0
 40
0.0
 41
1.0
 50
0.0
 71
     0
 42
2.5
  3
amgdt.shx
  4

  0
STYLE
  2
ACANSTS
 70
     0
 40
1.0
 41
1.0
 50
0.0
 71
     0
 42
2.5
  3
romans.shx
  4
bigfont.shx
  0
STYLE
  2
ACANSGDT
 70
     0
 40
0.0
 41
1.0
 50
0.0
 71
     0
 42
2.5
  3
amgdt.shx
  4

  0
STYLE
  2
ACJISTS
 70
     0
 40
1.0
 41
1.0
 50
0.0
 71
     0
 42
2.5
  3
isocp.shx
  4
bigfont.shx
  0
STYLE
  2
ACJISGDT
 70
     0
 40
0.0
 41
1.0
 50
0.0
 71
     0
 42
2.5
  3
amgdt.shx
  4

  0
STYLE
  2

 70
     1
 40
0.0
 41
1.0
 50
0.0
 71
     0
 42
2.5
  3
genltshp.shx
  4

  0
ENDTAB
  0
TABLE
  2
VIEW
 70
     6
  0
VIEW
  2
AM_VIEW1
 70
     0
 40
277.50000000000011
 10
249.64779005524869
 20
416.25
 41
499.29558011049721
 11
0.0
 21
0.0
 31
1.0
 12
0.0
 22
0.0
 32
0.0
 42
50.0
 43
0.0
 44
0.0
 50
0.0
 71
     0
  0
VIEW
  2
AM_VIEW2
 70
     0
 40
277.50000000000011
 10
603.85220994475117
 20
416.25
 41
499.29558011049721
 11
0.0
 21
0.0
 31
1.0
 12
0.0
 22
0.0
 32
0.0
 42
50.0
 43
0.0
 44
0.0
 50
0.0
 71
     0
  0
VIEW
  2
AM_VIEW3
 70
     0
 40
277.50000000000011
 10
249.64779005524869
 20
138.75
 41
499.29558011049721
 11
0.0
 21
0.0
 31
1.0
 12
0.0
 22
0.0
 32
0.0
 42
50.0
 43
0.0
 44
0.0
 50
0.0
 71
     0
  0
VIEW
  2
AM_VIEW4
 70
     0
 40
277.50000000000011
 10
603.85220994475117
 20
138.75
 41
499.29558011049721
 11
0.0
 21
0.0
 31
1.0
 12
0.0
 22
0.0
 32
0.0
 42
50.0
 43
0.0
 44
0.0
 50
0.0
 71
     0
  0
VIEW
  2
AM_VIEW5
 70
     0
 40
277.50000000000011
 10
426.75
 20
277.50000000000011
 41
499.2955801104971
 11
0.0
 21
0.0
 31
1.0
 12
0.0
 22
0.0
 32
0.0
 42
50.0
 43
0.0
 44
0.0
 50
0.0
 71
     0
  0
VIEW
  2
AM_VIEW6
 70
     0
 40
554.99445000000014
 10
426.75
 20
277.5
 41
998.5811743093924
 11
0.0
 21
0.0
 31
1.0
 12
0.0
 22
0.0
 32
0.0
 42
50.0
 43
0.0
 44
0.0
 50
0.0
 71
     0
  0
ENDTAB
  0
TABLE
  2
UCS
 70
     0
  0
ENDTAB
  0
TABLE
  2
APPID
 70
   101
  0
APPID
  2
ACAD
 70
     0
  0
APPID
  2
ACADANNOTATIVE
 70
     0
  0
APPID
  2
MCAD_NO_VIS
 70
     0
  0
APPID
  2
ACAD_TEMP_GRAPHIC
 70
     0
  0
APPID
  2
ACATTRIBSERVICES
 70
     0
  0
APPID
  2
GENIUS_GENREC_14
 70
     0
  0
APPID
  2
GENIUS_GENOBJ-N-REC_13
 70
     0
  0
APPID
  2
GENIUS_GENODEF_13
 70
     0
  0
APPID
  2
GENIUS_GENOLIS_13
 70
     0
  0
APPID
  2
GENIUS_GENOBJ-N-TIT_13
 70
     0
  0
APPID
  2
GENIUS_GENOENT_13
 70
     0
  0
APPID
  2
GENIUS_GENTITLE_13
 70
     0
  0
APPID
  2
GENIUS_GENOREF_13
 70
     0
  0
APPID
  2
GENIUS_GENSCREG_15
 70
     0
  0
APPID
  2
GENIUS_GENOBJ-N-SDF_13
 70
     0
  0
APPID
  2
GENIUS_GENFIL_13
 70
     0
  0
APPID
  2
GENIUS_GENOBJ-N-CHA_13
 70
     0
  0
APPID
  2
GENIUS_GENDTOL_13
 70
     0
  0
APPID
  2
GENIUS_GENOBJ-N-FIL_13
 70
     0
  0
APPID
  2
AD_DRAW
 70
     0
  0
APPID
  2
DESIGNERASSEMBLIES
 70
     0
  0
APPID
  2
ASURF_PCURVE_APPNAME
 70
     0
  0
APPID
  2
GENIUS_GE3SECT_13
 70
     0
  0
APPID
  2
GENIUS_GENCFG_13
 70
     0
  0
APPID
  2
GENIUS_GE3CFG0_13
 70
     0
  0
APPID
  2
GENIUS_GENCFG0_13
 70
     0
  0
APPID
  2
GENIUS_GENCFG1_13
 70
     0
  0
APPID
  2
GENIUS_GENCFG2_13
 70
     0
  0
APPID
  2
GENIUS_GENCFG3_13
 70
     0
  0
APPID
  2
GENIUS_GENCFG4_13
 70
     0
  0
APPID
  2
GENIUS_GEVCFG0_13
 70
     0
  0
APPID
  2
GENIUS_GENHINW_13
 70
     0
  0
APPID
  2
GENIUS_FIRSTVISTXT_14
 70
     0
  0
APPID
  2
GENIUS_GENOBJ-N-LEADER_13
 70
     0
  0
APPID
  2
GEV_VCCNULL_SWITCH_OFF
 70
     0
  0
APPID
  2
GENIUS_GEFCFG0_13
 70
     0
  0
APPID
  2
GENIUS_GENZVEED_13
 70
     0
  0
APPID
  2
GENIUS_GENSCREG_13
 70
     0
  0
APPID
  2
GENIUS_DUMCFG0_13
 70
     0
  0
APPID
  2
GEVID936201362
 70
     0
  0
APPID
  2
GEVDC
 70
     0
  0
APPID
  2
GEVCON
 70
     0
  0
APPID
  2
VCC
 70
     0
  0
APPID
  2
GEVPT
 70
     0
  0
APPID
  2
GEVIT
 70
     0
  0
APPID
  2
GENBH
 70
     0
  0
APPID
  2
GEVMK
 70
     0
  0
APPID
  2
GENIUS_GENBH_13
 70
     0
  0
APPID
  2
GENIUS_GENOBJ-NBEHI-BHF_13
 70
     0
  0
APPID
  2
GENIUS_GENOBJ-NBEHI-BHB_13
 70
     0
  0
APPID
  2
GENIUS_GENOBJ-F-DESC_13
 70
     0
  0
APPID
  2
GENIUS_GEFDESC_14
 70
     0
  0
APPID
  2
GENIUS_GENOBJ-F-PART_13
 70
     0
  0
APPID
  2
GENIUS_GEFSTDP_13
 70
     0
  0
APPID
  2
GENIUS_GEFPARTINS_13
 70
     0
  0
APPID
  2
GENIUS_GENTRA_14
 70
     0
  0
APPID
  2
GENIUS_GENINF13_13
 70
     0
  0
APPID
  2
GENIUS_GENOBJ-N-INFOPT_13
 70
     0
  0
APPID
  2
GENIUS_GENOBJ-N-RSSYM_13
 70
     0
  0
APPID
  2
GENIUS_GENSYMENT_13
 70
     0
  0
APPID
  2
GENIUS_GENSCSYM_13
 70
     0
  0
APPID
  2
GENIUS_GEFINFNAM_13
 70
     0
  0
APPID
  2
GENIUS_GENOBJ-N-CEN_13
 70
     0
  0
APPID
  2
GENIUS_GENOBJ-N-CRS_13
 70
     0
  0
APPID
  2
GENIUS_GENOBJ-N-CRC_13
 70
     0
  0
APPID
  2
GENIUS_GENCRC_14
 70
     0
  0
APPID
  2
GEVID942827039
 70
     0
  0
APPID
  2
GEVID942827040
 70
     0
  0
APPID
  2
GEVID942827041
 70
     0
  0
APPID
  2
GENIUS_GENOBJ-F-SCPASSM_13
 70
     0
  0
APPID
  2
GENIUS_GENDIMSH_14
 70
     0
  0
APPID
  2
GEVID942827042
 70
     0
  0
APPID
  2
GEVID946020473
 70
     0
  0
APPID
  2
GEVID946020474
 70
     0
  0
APPID
  2
GEVID946020475
 70
     0
  0
APPID
  2
GENIUS_GENOBJ-N-HTC_13
 70
     0
  0
APPID
  2
GENIUS_GENHATCH_13
 70
     0
  0
APPID
  2
GEVID948854295
 70
     0
  0
APPID
  2
GEVID939402019
 70
     0
  0
APPID
  2
GEVID952919491
 70
     0
  0
APPID
  2
GEVID952919492
 70
     0
  0
APPID
  2
GENIUS_GEFWELD_13
 70
     0
  0
APPID
  2
GENIUS_GENOBJ-F-WELS_13
 70
     0
  0
APPID
  2
GEVID952919493
 70
     0
  0
APPID
  2
GENIUS_GENOBJ-N-RSBK_13
 70
     0
  0
APPID
  2
GENIUS_GENOBJ-N-LIB_13
 70
     0
  0
APPID
  2
GENIUS_GENSCALE_13
 70
     0
  0
APPID
  2
GEVID986376691
 70
     0
  0
APPID
  2
DCO15
 70
     0
  0
APPID
  2
GEVID988070561
 70
     0
  0
APPID
  2
GEVID988070562
 70
     0
  0
APPID
  2
GEVID988070563
 70
     0
  0
APPID
  2
ACADM_DIM_EDIT
 70
     0
  0
APPID
  2
AMDT_DM_ADJ
 70
     0
  0
APPID
  2
ACAD_PSEXT
 70
     0
  0
APPID
  2
ACAD_DSTYLE_DIMJAG
 70
     0
  0
APPID
  2
ACAD_DSTYLE_DIMBREAK
 70
     0
  0
APPID
  2
ACAD_NAV_VCDISPLAY
 70
     0
  0
APPID
  2
ACADANNOPO
 70
     0
  0
APPID
  2
ACAD_EXEMPT_FROM_CAD_STANDARDS
 70
     0
  0
APPID
  2
ACAD_MLEADERVER
 70
     0
  0
ENDTAB
  0
TABLE
  2
DIMSTYLE
 70
    23
  0
DIMSTYLE
  2
STANDARD
 70
     0
  3

  4

  5

  6

  7

 40
1.0
 41
0.18
 42
0.0625
 43
0.38
 44
0.18
 45
0.0
 46
0.0
 47
0.0
 48
0.0
140
0.18
141
0.09
142
0.0
143
25.399999999999999
144
1.0
145
0.0
146
1.0
147
0.09
 71
     0
 72
     0
 73
     1
 74
     1
 75
     0
 76
     0
 77
     0
 78
     0
170
     0
171
     2
172
     0
173
     0
174
     0
175
     0
176
     0
177
     0
178
     0
  0
DIMSTYLE
  2
ANNOTATIVE
 70
     0
  3

  4

  5

  6

  7

 40
1.0
 41
0.18
 42
0.0625
 43
0.38
 44
0.18
 45
0.0
 46
0.0
 47
0.0
 48
0.0
140
0.18
141
0.09
142
0.0
143
25.399999999999999
144
1.0
145
0.0
146
1.0
147
0.09
 71
     0
 72
     0
 73
     1
 74
     1
 75
     0
 76
     0
 77
     0
 78
     0
170
     0
171
     2
172
     0
173
     0
174
     0
175
     0
176
     0
177
     0
178
     0
  0
DIMSTYLE
  2
AM_ISO
 70
     0
  3

  4
"
  5

  6

  7

 40
1.0
 41
2.5
 42
1.0
 43
8.0
 44
0.6
 45
0.0
 46
0.0
 47
0.1
 48
0.1
140
2.5
141
0.0
142
0.0
143
0.0393701
144
1.0
145
0.0
146
0.71
147
0.8
 71
     0
 72
     0
 73
     0
 74
     0
 75
     0
 76
     0
 77
     1
 78
     8
170
     0
171
     2
172
     1
173
     0
174
     0
175
     0
176
   256
177
   256
178
     4
  0
DIMSTYLE
  2
AM_ISO$3
 70
     0
  3

  4
"
  5

  6

  7

 40
1.0
 41
2.5
 42
1.0
 43
8.0
 44
0.6
 45
0.0
 46
0.0
 47
0.1
 48
0.1
140
2.5
141
0.0
142
0.0
143
0.0393701
144
1.0
145
0.0
146
0.71
147
0.8
 71
     0
 72
     0
 73
     0
 74
     1
 75
     0
 76
     0
 77
     1
 78
     8
170
     0
171
     2
172
     0
173
     0
174
     0
175
     0
176
   256
177
   256
178
     4
  0
DIMSTYLE
  2
AM_ISO$4
 70
     0
  3

  4
"
  5

  6

  7

 40
1.0
 41
2.5
 42
1.0
 43
8.0
 44
0.6
 45
0.0
 46
0.0
 47
0.1
 48
0.1
140
2.5
141
0.0
142
0.0
143
0.0393701
144
1.0
145
0.0
146
0.71
147
0.8
 71
     0
 72
     0
 73
     0
 74
     1
 75
     0
 76
     0
 77
     1
 78
     8
170
     0
171
     2
172
     0
173
     0
174
     0
175
     0
176
   256
177
   256
178
     4
  0
DIMSTYLE
  2
AM_ISO$6
 70
     0
  3

  4
"
  5

  6

  7

 40
1.0
 41
2.5
 42
1.0
 43
8.0
 44
0.6
 45
0.0
 46
0.0
 47
0.1
 48
0.1
140
2.5
141
0.0
142
0.0
143
0.0393701
144
1.0
145
0.0
146
0.71
147
0.8
 71
     0
 72
     0
 73
     0
 74
     0
 75
     0
 76
     0
 77
     0
 78
     8
170
     0
171
     2
172
     1
173
     0
174
     0
175
     0
176
   256
177
   256
178
     4
  0
DIMSTYLE
  2
AM_ISO$7
 70
     0
  3

  4
"
  5

  6

  7

 40
1.0
 41
2.5
 42
1.0
 43
8.0
 44
0.6
 45
0.0
 46
0.0
 47
0.1
 48
0.1
140
2.5
141
0.0
142
0.0
143
0.0393701
144
1.0
145
0.0
146
0.71
147
0.8
 71
     0
 72
     0
 73
     0
 74
     0
 75
     0
 76
     0
 77
     1
 78
     8
170
     0
171
     2
172
     1
173
     0
174
     0
175
     0
176
   256
177
   256
178
     4
  0
DIMSTYLE
  2
AM_ISO$SF
 70
     0
  3

  4
"
  5

  6

  7

 40
1.0
 41
2.5
 42
1.0
 43
10.0
 44
1.0
 45
0.0
 46
0.0
 47
0.1
 48
0.1
140
3.5
141
0.0
142
0.0
143
0.0393701
144
1.0
145
0.0
146
0.71
147
1.5
 71
     0
 72
     0
 73
     0
 74
     0
 75
     1
 76
     1
 77
     1
 78
     8
170
     0
171
     2
172
     1
173
     0
174
     0
175
     0
176
   256
177
   256
178
     2
  0
DIMSTYLE
  2
AM_ISO$SH
 70
     0
  3

  4
"
  5

  6

  7

 40
1.0
 41
2.5
 42
1.0
 43
10.0
 44
1.0
 45
0.0
 46
0.0
 47
0.1
 48
0.1
140
3.5
141
0.0
142
0.0
143
0.0393701
144
2.0
145
0.0
146
0.71
147
1.5
 71
     0
 72
     0
 73
     0
 74
     0
 75
     1
 76
     1
 77
     1
 78
     8
170
     0
171
     2
172
     1
173
     1
174
     0
175
     0
176
   256
177
   256
178
     2
  0
DIMSTYLE
  2
AM_JIS
 70
     0
  3

  4
"
  5

  6

  7

 40
1.0
 41
2.5
 42
1.0
 43
7.0
 44
1.0
 45
0.0
 46
0.0
 47
0.1
 48
0.1000000001
140
2.5
141
0.0
142
0.0
143
0.0393701
144
1.0
145
0.0
146
0.71
147
1.0
 71
     0
 72
     0
 73
     0
 74
     0
 75
     0
 76
     0
 77
     3
 78
     8
170
     0
171
     2
172
     1
173
     0
174
     0
175
     0
176
   256
177
   256
178
     4
  0
DIMSTYLE
  2
AM_JIS$3
 70
     0
  3

  4
"
  5

  6

  7

 40
1.0
 41
2.5
 42
1.0
 43
7.0
 44
1.0
 45
0.0
 46
0.0
 47
0.1
 48
0.1000000001
140
2.5
141
0.0
142
0.0
143
0.0393701
144
1.0
145
0.0
146
0.71
147
1.0
 71
     0
 72
     0
 73
     0
 74
     1
 75
     0
 76
     0
 77
     3
 78
     8
170
     0
171
     2
172
     0
173
     0
174
     0
175
     0
176
   256
177
   256
178
     4
  0
DIMSTYLE
  2
AM_JIS$4
 70
     0
  3

  4
"
  5

  6

  7

 40
1.0
 41
2.5
 42
1.0
 43
7.0
 44
1.0
 45
0.0
 46
0.0
 47
0.1
 48
0.1000000001
140
2.5
141
0.0
142
0.0
143
0.0393701
144
1.0
145
0.0
146
0.71
147
1.0
 71
     0
 72
     0
 73
     0
 74
     0
 75
     0
 76
     0
 77
     3
 78
     8
170
     0
171
     2
172
     0
173
     0
174
     0
175
     0
176
   256
177
   256
178
     4
  0
DIMSTYLE
  2
AM_JIS$6
 70
     0
  3

  4
"
  5

  6

  7

 40
1.0
 41
2.5
 42
1.0
 43
7.0
 44
1.0
 45
0.0
 46
0.0
 47
0.1
 48
0.1000000001
140
2.5
141
0.0
142
0.0
143
0.0393701
144
1.0
145
0.0
146
0.71
147
1.0
 71
     0
 72
     0
 73
     0
 74
     0
 75
     0
 76
     0
 77
     0
 78
     8
170
     0
171
     2
172
     1
173
     0
174
     0
175
     0
176
   256
177
   256
178
     4
  0
DIMSTYLE
  2
AM_JIS$7
 70
     0
  3

  4
"
  5

  6

  7

 40
1.0
 41
2.5
 42
1.0
 43
7.0
 44
1.0
 45
0.0
 46
0.0
 47
0.1
 48
0.1000000001
140
2.5
141
0.0
142
0.0
143
0.0393701
144
1.0
145
0.0
146
0.71
147
1.0
 71
     0
 72
     0
 73
     0
 74
     0
 75
     0
 76
     0
 77
     3
 78
     8
170
     0
171
     2
172
     1
173
     0
174
     0
175
     0
176
   256
177
   256
178
     4
  0
DIMSTYLE
  2
AM_JIS$SF
 70
     0
  3

  4
"
  5

  6

  7

 40
1.0
 41
2.5
 42
1.0
 43
10.0
 44
1.0
 45
0.0
 46
0.0
 47
0.1
 48
0.1
140
3.5
141
0.0
142
0.0
143
0.0393701
144
1.0
145
0.0
146
0.71
147
1.5
 71
     0
 72
     0
 73
     0
 74
     0
 75
     1
 76
     1
 77
     3
 78
     8
170
     0
171
     2
172
     1
173
     0
174
     0
175
     0
176
   256
177
   256
178
     4
  0
DIMSTYLE
  2
AM_JIS$SH
 70
     0
  3

  4
"
  5

  6

  7

 40
1.0
 41
2.5
 42
1.0
 43
10.0
 44
1.0
 45
0.0
 46
0.0
 47
0.1
 48
0.1
140
3.5
141
0.0
142
0.0
143
0.0393701
144
1.0
145
0.0
146
0.71
147
1.5
 71
     0
 72
     0
 73
     0
 74
     0
 75
     1
 76
     0
 77
     3
 78
     8
170
     0
171
     2
172
     1
173
     1
174
     0
175
     0
176
   256
177
   256
178
     4
  0
DIMSTYLE
  2
AM_ISO$0
 70
     0
  3

  4
"
  5

  6

  7

 40
1.0
 41
2.5
 42
1.0
 43
8.0
 44
0.6
 45
0.0
 46
0.0
 47
0.1
 48
0.1
140
2.5
141
0.0
142
0.0
143
0.0393701
144
1.0
145
0.0
146
0.71
147
0.8
 71
     0
 72
     0
 73
     0
 74
     0
 75
     0
 76
     0
 77
     1
 78
     8
170
     0
171
     2
172
     1
173
     0
174
     0
175
     0
176
   256
177
   256
178
     4
  0
DIMSTYLE
  2
AM_ANSI
 70
     0
  3

  4
mm
  5

  6

  7

 40
1.0
 41
0.12
 42
0.05
 43
0.5
 44
0.1
 45
0.0
 46
0.0
 47
0.1
 48
0.1
140
0.12
141
0.0
142
0.0
143
25.399999999999999
144
1.0
145
0.0
146
0.71
147
0.06
 71
     0
 72
     0
 73
     1
 74
     1
 75
     0
 76
     0
 77
     0
 78
     7
170
     0
171
     2
172
     0
173
     0
174
     0
175
     0
176
   256
177
   256
178
     2
  0
DIMSTYLE
  2
AM_ANSI$3
 70
     0
  3

  4
mm
  5

  6

  7

 40
1.0
 41
0.12
 42
0.05
 43
0.5
 44
0.1
 45
0.0
 46
0.0
 47
0.1
 48
0.1
140
0.12
141
0.0
142
0.0
143
25.399999999999999
144
1.0
145
0.0
146
0.71
147
0.06
 71
     0
 72
     0
 73
     1
 74
     1
 75
     0
 76
     0
 77
     0
 78
     7
170
     0
171
     2
172
     0
173
     0
174
     0
175
     0
176
   256
177
   256
178
     2
  0
DIMSTYLE
  2
AM_ANSI$4
 70
     0
  3

  4
mm
  5

  6

  7

 40
1.0
 41
0.12
 42
0.05
 43
0.5
 44
0.1
 45
0.0
 46
0.0
 47
0.1
 48
0.1
140
0.12
141
0.0
142
0.0
143
25.399999999999999
144
1.0
145
0.0
146
0.71
147
0.06
 71
     0
 72
     0
 73
     1
 74
     1
 75
     0
 76
     0
 77
     0
 78
     7
170
     0
171
     2
172
     0
173
     0
174
     0
175
     0
176
   256
177
   256
178
     2
  0
DIMSTYLE
  2
AM_ANSI$7
 70
     0
  3

  4
mm
  5

  6

  7

 40
1.0
 41
0.12
 42
0.05
 43
0.5
 44
0.1
 45
0.0
 46
0.0
 47
0.1
 48
0.1
140
0.12
141
0.0
142
0.0
143
25.399999999999999
144
1.0
145
0.0
146
0.71
147
0.06
 71
     0
 72
     0
 73
     1
 74
     1
 75
     0
 76
     0
 77
     0
 78
     7
170
     0
171
     2
172
     0
173
     0
174
     0
175
     0
176
   256
177
   256
178
     2
  0
DIMSTYLE
  2
AM_ANSI$SF
 70
     0
  3

  4
mm
  5

  6

  7

 40
1.0
 41
0.12
 42
0.05
 43
0.5
 44
0.1
 45
0.0
 46
0.0
 47
0.1
 48
0.1
140
0.12
141
0.0
142
0.0
143
25.399999999999999
144
1.0
145
0.0
146
0.71
147
0.06
 71
     0
 72
     0
 73
     1
 74
     1
 75
     1
 76
     1
 77
     0
 78
     7
170
     0
171
     2
172
     0
173
     0
174
     0
175
     0
176
   256
177
   256
178
     2
  0
DIMSTYLE
  2
AM_ANSI$SH
 70
     0
  3

  4
mm
  5

  6
GENAXEH
  7

 40
1.0
 41
0.12
 42
0.05
 43
0.5
 44
0.1
 45
0.0
 46
0.0
 47
0.1
 48
0.1
140
0.12
141
0.0
142
0.0
143
25.399999999999999
144
1.0
145
0.0
146
0.71
147
0.06
 71
     0
 72
     0
 73
     1
 74
     1
 75
     1
 76
     1
 77
     0
 78
     7
170
     0
171
     2
172
     0
173
     1
174
     0
175
     0
176
   256
177
   256
178
     2
  0
ENDTAB
  0
ENDSEC
  0
SECTION
  2
BLOCKS
  0
BLOCK
  8
0
  2
$MODEL_SPACE
 70
     0
 10
0.0
 20
0.0
 30
0.0
  3
$MODEL_SPACE
  1

  0
ENDBLK
  5
70BE
  8
0
  0
BLOCK
 67
     1
  8
0
  2
$PAPER_SPACE
 70
     0
 10
0.0
 20
0.0
 30
0.0
  3
$PAPER_SPACE
  1

  0
ENDBLK
  5
70BA
 67
     1
  8
0
  0
BLOCK
  8
0
  2
GENAXEH
 70
     0
 10
0.0
 20
0.0
 30
0.0
  3
GENAXEH
  1

  0
LINE
  5
73
  8
0
 10
-1.0
 20
0.0
 30
0.0
 11
1.0
 21
0.0
 31
0.0
  0
ENDBLK
  5
75
  8
0
  0
BLOCK
  8
0
  2
_OPEN30
 70
     0
 10
0.0
 20
0.0
 30
0.0
  3
_OPEN30
  1

  0
LINE
  5
31A
  8
0
 62
     0
 10
-1.0
 20
0.26794919
 30
0.0
 11
0.0
 21
0.0
 31
0.0
  0
LINE
  5
31B
  8
0
 62
     0
 10
0.0
 20
0.0
 30
0.0
 11
-1.0
 21
-0.26794919
 31
0.0
  0
LINE
  5
31C
  8
0
 62
     0
 10
0.0
 20
0.0
 30
0.0
 11
-1.0
 21
0.0
 31
0.0
  0
ENDBLK
  5
31E
  8
0
  0
BLOCK
  8
0
  2
_NONE
 70
     0
 10
0.0
 20
0.0
 30
0.0
  3
_NONE
  1

  0
ENDBLK
  5
579
  8
0
  0
BLOCK
  8
0
  2
*U5
 70
     1
 10
0.0
 20
0.0
 30
0.0
  3
*U5
  1

  0
TEXT
  5
6FC9
  8
AM_0
 10
543.6902856583489
 20
500.93054775212693
 30
0.0
 40
10.0
  1
ＶＸ０２－０８０～１００ＢＦＷ
 41
0.8299999999999999
  0
ENDBLK
  5
6FCB
  8
0
  0
BLOCK
  8
0
  2
_ACMFILLEDHALF
 70
     0
 10
0.0
 20
0.0
 30
0.0
  3
_ACMFILLEDHALF
  1

  0
TRACE
  5
71C0
  8
AM_0
 62
     0
 10
-0.8
 20
0.0
 30
0.0
 11
-1.0
 21
0.166666666
 31
0.0
 12
0.0
 22
0.0
 32
0.0
 13
0.0
 23
0.0
 33
0.0
  0
LINE
  5
71C1
  8
AM_0
 62
     0
 10
-1.0
 20
0.0
 30
0.0
 11
-0.8
 21
0.0
 31
0.0
  0
ENDBLK
  5
71BF
  8
0
  0
ENDSEC
  0
SECTION
  2
ENTITIES
  0
LINE
  5
459B
  8
AM_0
 10
392.19734380279402
 20
256.06814290622771
 30
0.0
 11
392.19734380279402
 21
253.06814290622759
 31
0.0
  0
LINE
  5
459C
  8
AM_0
 10
392.19734380279402
 20
256.06814290622771
 30
0.0
 11
424.19738380279398
 21
256.06814290622771
 31
0.0
  0
LINE
  5
459D
  8
AM_0
 10
390.19733380279382
 20
225.06812590622781
 30
0.0
 11
424.19738380279398
 21
225.06812590622781
 31
0.0
  0
LINE
  5
459F
  8
AM_0
 10
390.19733380279371
 20
253.06814290622779
 30
0.0
 11
424.19738380279398
 21
253.06814290622759
 31
0.0
  0
LINE
  5
45A0
  8
AM_0
 10
424.19738380279398
 20
256.06814290622771
 30
0.0
 11
424.19738380279398
 21
225.06812590622781
 31
0.0
  0
LINE
  5
45A2
  8
AM_0
 10
631.17849605106005
 20
256.0680765278529
 30
0.0
 11
639.17848205106009
 21
256.0680765278529
 31
0.0
  0
LINE
  5
45A3
  8
AM_0
 10
631.17849605106005
 20
249.0680565278528
 30
0.0
 11
639.17848205106009
 21
249.0680565278528
 31
0.0
  0
LINE
  5
45A4
  8
AM_0
 10
639.17848205106009
 20
249.0680565278528
 30
0.0
 11
639.17848205106009
 21
256.0680765278529
 31
0.0
  0
LINE
  5
45AB
  8
AM_0
 10
631.17849605106005
 20
249.0680565278528
 30
0.0
 11
631.17849605106005
 21
256.0680765278529
 31
0.0
  0
CIRCLE
  5
46CC
  8
AM_5
 10
635.17849805106005
 20
239.0680305278529
 30
0.0
 40
4.0000001999999979
  0
ARC
  5
46CD
  8
AM_0
 10
635.17849805106005
 20
239.0680305278529
 30
0.0
 40
14.000001299999999
 50
106.60154000000141
 51
73.398451999997818
  0
CIRCLE
  5
46CE
  8
AM_0
 10
635.17849805106005
 20
239.0680305278529
 30
0.0
 40
3.0
  0
LINE
  5
6230
  8
AM_0
 10
268.19738380279438
 20
180.8450269062277
 30
0.0
 11
271.19738380279432
 21
180.8450269062277
 31
0.0
  0
LINE
  5
6231
  8
AM_0
 10
268.19738380279432
 20
257.29112590622788
 30
0.0
 11
271.19738380279432
 21
257.29112590622788
 31
0.0
  0
LINE
  5
6232
  8
AM_0
 10
166.40381380279419
 20
162.7848589062279
 30
0.0
 11
263.32355380279432
 21
162.7848589062279
 31
0.0
  0
LINE
  5
6233
  8
AM_0
 10
164.87531380279421
 20
182.3450269062279
 30
0.0
 11
172.19738380279421
 21
182.3450269062279
 31
0.0
  0
LINE
  5
6234
  8
AM_0
 10
172.19738380279421
 20
185.06810890622771
 30
0.0
 11
165.5627938027942
 21
185.06810890622771
 31
0.0
  0
LINE
  5
6235
  8
AM_0
 10
172.19738380279421
 20
183.0681109062277
 30
0.0
 11
165.5627938027942
 21
183.0681109062277
 31
0.0
  0
LINE
  5
6236
  8
AM_0
 10
172.19738380279421
 20
255.06812590622781
 30
0.0
 11
165.5627938027942
 21
255.06812590622781
 31
0.0
  0
LINE
  5
6237
  8
AM_0
 10
172.19738380279421
 20
253.0681129062279
 30
0.0
 11
165.5627938027942
 21
253.0681129062279
 31
0.0
  0
LINE
  5
6238
  8
AM_0
 10
164.87468380279421
 20
255.7911259062279
 30
0.0
 11
172.19738380279421
 21
255.7911259062279
 31
0.0
  0
LINE
  5
6239
  8
AM_0
 10
166.40381380279419
 20
275.3513659062279
 30
0.0
 11
263.32355380279432
 21
275.3513659062279
 31
0.0
  0
ARC
  5
623A
  8
AM_0
 10
164.87468380279421
 20
254.1132169062279
 30
0.0
 40
1.6779127499999991
 50
90.00000299999769
 51
270.0
  0
ARC
  5
623B
  8
AM_0
 10
165.74675380279419
 20
254.06811190622781
 30
0.0
 40
1.0000000199999981
 50
90.00000299999769
 51
270.0
  0
LINE
  5
623C
  8
AM_0
 10
163.19738380279429
 20
272.0681059062278
 30
0.0
 11
163.19738380279429
 21
205.66811090622781
 31
0.0
  0
LINE
  5
623D
  8
AM_0
 10
163.19738380279429
 20
192.46811090622771
 30
0.0
 11
163.19738380279429
 21
169.6278769062279
 31
0.0
  0
LINE
  5
623E
  8
AM_0
 10
168.56285380279439
 20
182.41683490622771
 30
0.0
 11
163.19744380279411
 21
170.97235990622781
 31
0.0
  0
ARC
  5
623F
  8
AM_0
 10
200.1973738027942
 20
161.93846890622771
 30
0.0
 40
2.00000007
 50
270.0
 51
0.0
  0
ARC
  5
6240
  8
AM_0
 10
200.1973738027942
 20
159.18016990622789
 30
0.0
 40
2.00000007
 50
270.0
 51
0.0
  0
LINE
  5
6241
  8
AM_0
 10
202.19738380279429
 20
159.18016990622789
 30
0.0
 11
202.19738380279429
 21
162.7848589062279
 31
0.0
  0
ARC
  5
6242
  8
AM_0
 10
200.1973738027942
 20
160.09069090622791
 30
0.0
 40
2.00000007
 50
270.0
 51
0.0
  0
LINE
  5
6243
  8
AM_0
 10
163.19738380279429
 20
170.9723299062278
 30
0.0
 11
164.4386038027942
 21
164.4129739062279
 31
0.0
  0
LINE
  5
6244
  8
AM_0
 10
163.19738380279429
 20
169.62780190622769
 30
0.0
 11
164.47748380279421
 21
161.62262890622759
 31
0.0
  0
LINE
  5
6245
  8
AM_0
 10
163.1973238027941
 20
168.28327390622781
 30
0.0
 11
164.48840380279429
 21
159.7901539062278
 31
0.0
  0
ARC
  5
6246
  8
AM_0
 10
166.40381380279419
 20
164.78484490622779
 30
0.0
 40
2.00000007
 50
190.71568999999951
 51
270.0
  0
ARC
  5
6247
  8
AM_0
 10
166.4523838027944
 20
161.93846890622771
 30
0.0
 40
2.00000007
 50
189.08497000000031
 51
270.0
  0
LINE
  5
6248
  8
AM_0
 10
155.69739380279421
 20
166.06812490622781
 30
0.0
 11
163.19738380279429
 21
166.06812490622781
 31
0.0
  0
ARC
  5
6249
  8
AM_0
 10
166.4870638027943
 20
159.18016990622789
 30
0.0
 40
2.00000007
 50
187.94403999999901
 51
270.0
  0
LINE
  5
624A
  8
AM_0
 10
163.1973238027941
 20
168.28322890622781
 30
0.0
 11
164.5062238027943
 21
158.90378590622791
 31
0.0
  0
ARC
  5
624B
  8
AM_0
 10
166.46576380279441
 20
160.09069090622791
 30
0.0
 40
2.00000007
 50
188.6433899999989
 51
270.0
  0
LINE
  5
624C
  8
AM_0
 10
166.4523838027944
 20
159.93848590622781
 30
0.0
 11
200.1973738027942
 21
159.93848590622781
 31
0.0
  0
LINE
  5
624D
  8
AM_0
 10
166.46576380279441
 20
158.0906929062279
 30
0.0
 11
200.1973738027942
 21
158.0906929062279
 31
0.0
  0
LINE
  5
624E
  8
AM_0
 10
166.4870638027943
 20
157.1801839062278
 30
0.0
 11
200.1973738027942
 21
157.1801839062278
 31
0.0
  0
POLYLINE
  5
624F
  8
AM_0
 66
     1
 10
0.0
 20
0.0
 30
0.0
  0
VERTEX
  5
6250
  8
AM_0
 10
167.13122277680259
 20
246.0681109062277
 30
0.0
  0
VERTEX
  5
6251
  8
AM_0
 10
168.02009380279429
 20
252.43668190622779
 30
0.0
 42
-1.0
  0
SEQEND
  5
6252
  8
AM_0
  0
LINE
  5
6253
  8
AM_0
 10
164.87468380279421
 20
252.43529890622781
 30
0.0
 11
172.19738380279421
 21
252.43529890622781
 31
0.0
  0
POLYLINE
  5
6254
  8
AM_0
 66
     1
 10
0.0
 20
0.0
 30
0.0
  0
VERTEX
  5
6255
  8
AM_0
 10
167.34057504652989
 20
190.5681109062277
 30
0.0
  0
VERTEX
  5
6256
  8
AM_0
 10
168.02009380279429
 20
185.69953390622791
 30
0.0
 42
-1.0
  0
SEQEND
  5
6257
  8
AM_0
  0
ARC
  5
6258
  8
AM_0
 10
164.87531380279421
 20
184.02294490622771
 30
0.0
 40
1.6779175200000001
 50
90.00000299999769
 51
270.0
  0
ARC
  5
6259
  8
AM_0
 10
165.74675380279419
 20
184.06812490622781
 30
0.0
 40
1.0000000199999981
 50
90.00000299999769
 51
270.0
  0
LINE
  5
625A
  8
AM_0
 10
155.89550380279431
 20
175.8766429062278
 30
0.0
 11
162.12530380279441
 21
175.8766429062278
 31
0.0
  0
LINE
  5
625B
  8
AM_0
 10
164.87531380279421
 20
185.7008779062279
 30
0.0
 11
172.19738380279421
 21
185.7008779062279
 31
0.0
  0
ARC
  5
625C
  8
AM_0
 10
200.1973738027942
 20
276.19775590622783
 30
0.0
 40
2.00000007
 50
0.0
 51
90.00000299999769
  0
ARC
  5
625D
  8
AM_0
 10
200.1973738027942
 20
278.0454559062278
 30
0.0
 40
2.00000007
 50
0.0
 51
90.00000299999769
  0
ARC
  5
625E
  8
AM_0
 10
200.1973738027942
 20
278.95598590622791
 30
0.0
 40
2.00000007
 50
0.0
 51
90.00000299999769
  0
LINE
  5
625F
  8
AM_0
 10
202.19738380279429
 20
278.95598590622791
 30
0.0
 11
202.19738380279429
 21
275.3513659062279
 31
0.0
  0
ARC
  5
6260
  8
AM_0
 10
166.40381380279419
 20
273.35138590622768
 30
0.0
 40
2.00000007
 50
90.00000299999769
 51
169.2843100000004
  0
ARC
  5
6261
  8
AM_0
 10
166.4523838027944
 20
276.19775590622783
 30
0.0
 40
2.00000007
 50
90.00000299999769
 51
170.9150299999996
  0
ARC
  5
6262
  8
AM_0
 10
166.46576380279441
 20
278.0454559062278
 30
0.0
 40
2.00000007
 50
90.00000299999769
 51
171.35661000000101
  0
ARC
  5
6263
  8
AM_0
 10
166.4870638027943
 20
278.95598590622791
 30
0.0
 40
2.00000007
 50
90.00000299999769
 51
172.05596000000091
  0
LINE
  5
6264
  8
AM_0
 10
163.19738380279429
 20
268.50836590622782
 30
0.0
 11
164.47742380279431
 21
276.51350590622781
 31
0.0
  0
LINE
  5
6265
  8
AM_0
 10
163.19738380279429
 20
269.85296590622778
 30
0.0
 11
164.48840380279429
 21
278.34602590622791
 31
0.0
  0
LINE
  5
6266
  8
AM_0
 10
163.19738380279429
 20
269.85296590622778
 30
0.0
 11
164.5062238027943
 21
279.23237590622779
 31
0.0
  0
LINE
  5
6267
  8
AM_0
 10
163.19738380279429
 20
267.16382590622783
 30
0.0
 11
164.43866380279439
 21
273.7232359062279
 31
0.0
  0
LINE
  5
6268
  8
AM_0
 10
155.69739380279421
 20
272.0681059062278
 30
0.0
 11
163.19738380279429
 21
272.0681059062278
 31
0.0
  0
LINE
  5
6269
  8
AM_0
 10
155.89550380279431
 20
262.25951590622788
 30
0.0
 11
162.12530380279441
 21
262.25951590622788
 31
0.0
  0
LINE
  5
626A
  8
AM_0
 10
168.5627938027942
 20
255.71930590622779
 30
0.0
 11
163.19738380279429
 21
267.16379590622768
 31
0.0
  0
LINE
  5
626B
  8
AM_0
 10
166.4523838027944
 20
278.1977659062278
 30
0.0
 11
200.1973738027942
 21
278.1977659062278
 31
0.0
  0
LINE
  5
626C
  8
AM_0
 10
166.46576380279441
 20
280.04546590622778
 30
0.0
 11
200.1973738027942
 21
280.04546590622778
 31
0.0
  0
LINE
  5
626D
  8
AM_0
 10
166.4870638027943
 20
280.95599590622783
 30
0.0
 11
200.1973738027942
 21
280.95599590622783
 31
0.0
  0
ARC
  5
626E
  8
AM_0
 10
268.0194838027943
 20
254.1132169062279
 30
0.0
 40
1.6779127499999991
 50
276.08620038402319
 51
83.913799615976814
  0
LINE
  5
626F
  8
ﾁｭｳｼﾝｾﾝ
 10
220.19738380279429
 20
270.0681109062279
 30
0.0
 11
220.19738380279429
 21
168.0681109062277
 31
0.0
  0
LINE
  5
6270
  8
AM_0
 10
271.19738380279432
 20
275.06810590622791
 30
0.0
 11
271.19738380279432
 21
163.06812490622781
 31
0.0
  0
LINE
  5
6271
  8
AM_0
 10
155.69739380279421
 20
272.0681059062278
 30
0.0
 11
155.69739380279421
 21
246.0681109062277
 31
0.0
  0
LINE
  5
6272
  8
AM_0
 10
155.69739380279421
 20
222.06811090622799
 30
0.0
 11
155.69739380279421
 21
207.56811090622941
 31
0.0
  0
LINE
  5
6273
  8
AM_0
 10
155.69739380279421
 20
190.5681109062271
 30
0.0
 11
155.69739380279421
 21
166.06812490622781
 31
0.0
  0
LINE
  5
6274
  8
AM_0
 10
269.69738380279432
 20
180.8450719062277
 30
0.0
 11
265.25537380279428
 21
164.2672069062279
 31
0.0
  0
LINE
  5
6275
  8
AM_0
 10
271.19738380279432
 20
163.06812490622781
 30
0.0
 11
279.19739380279412
 21
163.06812490622781
 31
0.0
  0
LINE
  5
6276
  8
AM_0
 10
265.73792380279428
 20
166.06812490622781
 30
0.0
 11
271.19738380279432
 21
166.06812490622781
 31
0.0
  0
ARC
  5
6277
  8
AM_0
 10
263.32355380279432
 20
164.78484490622779
 30
0.0
 40
2.00000007
 50
270.0
 51
345.00000000000091
  0
LINE
  5
6278
  8
AM_0
 10
271.19738380279432
 20
251.00554990622791
 30
0.0
 11
279.19739380279412
 21
251.00554990622791
 31
0.0
  0
LINE
  5
6279
  8
AM_0
 10
271.19738380279432
 20
187.1306719062278
 30
0.0
 11
279.19739380279412
 21
187.1306719062278
 31
0.0
  0
LINE
  5
627A
  8
AM_0
 10
271.19738380279432
 20
173.06810890622779
 30
0.0
 11
279.19739380279412
 21
173.06810890622779
 31
0.0
  0
ARC
  5
627B
  8
AM_0
 10
268.0194838027943
 20
184.02294490622771
 30
0.0
 40
1.6779127499999991
 50
276.08620038402319
 51
83.913799615976814
  0
LINE
  5
627C
  8
AM_0
 10
271.19738380279432
 20
275.06810590622791
 30
0.0
 11
279.19739380279412
 21
275.06810590622791
 31
0.0
  0
LINE
  5
627D
  8
AM_0
 10
271.19738380279432
 20
265.06811590622777
 30
0.0
 11
279.19739380279412
 21
265.06811590622777
 31
0.0
  0
LINE
  5
627E
  8
AM_0
 10
265.73792380279428
 20
272.0681059062278
 30
0.0
 11
271.19738380279432
 21
272.0681059062278
 31
0.0
  0
ARC
  5
627F
  8
AM_0
 10
263.32355380279432
 20
273.35138590622768
 30
0.0
 40
2.00000007
 50
14.99999999999995
 51
90.00000299999769
  0
ARC
  5
6280
  8
AM_0
 10
270.84839380279431
 20
258.79112590622788
 30
0.0
 40
1.5000000299999989
 50
195.0000099999958
 51
270.0
  0
LINE
  5
6281
  8
AM_0
 10
269.3995438027942
 20
258.40292590622778
 30
0.0
 11
265.25537380279428
 21
273.86900590622781
 31
0.0
  0
LINE
  5
6282
  8
AM_0
 10
264.19738380279438
 20
173.06811090622779
 30
0.0
 11
176.19738380279421
 21
173.06811090622779
 31
0.0
  0
ARC
  5
6283
  8
AM_0
 10
194.26845161465971
 20
178.06811090622779
 30
0.0
 40
5.0
 50
225.0
 51
270.0
1001
GENIUS_GENOBJ-N-FIL_13
1002
{
1000
OWNER
1000
GEN
1002
}
1001
GENIUS_GENODEF_13
1002
{
1000
HIER
1070
     0
1002
}
1002
{
1000
MANEDIT
1070
     0
1002
}
1002
{
1000
NOSEL
1070
     0
1002
}
1002
{
1000
BEHIND
1070
     0
1002
}
1002
{
1000
OTHER
1070
     0
1002
}
1002
{
1000
REACTOR
1002
}
  0
LINE
  5
6284
  8
AM_0
 10
245.46946174143659
 20
178.06811090622779
 30
0.0
 11
194.92530586415199
 21
178.06811090622779
 31
0.0
  0
ARC
  5
6285
  8
AM_0
 10
245.46946174143659
 20
183.0681109062277
 30
0.0
 40
5.0
 50
270.0
 51
315.0
1001
GENIUS_GENOBJ-N-FIL_13
1002
{
1000
OWNER
1000
GEN
1002
}
1001
GENIUS_GENODEF_13
1002
{
1000
HIER
1070
     0
1002
}
1002
{
1000
MANEDIT
1070
     0
1002
}
1002
{
1000
NOSEL
1070
     0
1002
}
1002
{
1000
BEHIND
1070
     0
1002
}
1002
{
1000
OTHER
1070
     0
1002
}
1002
{
1000
REACTOR
1002
}
  0
ARC
  5
6286
  8
AM_0
 10
264.19738380279438
 20
177.06811090622759
 30
0.0
 40
4.0
 50
270.0
 51
0.0
1001
GENIUS_GENOBJ-N-FIL_13
1002
{
1000
OWNER
1000
GEN
1002
}
1001
GENIUS_GENODEF_13
1002
{
1000
HIER
1070
     0
1002
}
1002
{
1000
MANEDIT
1070
     0
1002
}
1002
{
1000
NOSEL
1070
     0
1002
}
1002
{
1000
BEHIND
1070
     0
1002
}
1002
{
1000
OTHER
1070
     0
1002
}
1002
{
1000
REACTOR
1002
}
  0
LINE
  5
6287
  8
AM_0
 10
264.19738380279432
 20
265.06811090622801
 30
0.0
 11
176.19738380279421
 21
265.06811090622779
 31
0.0
  0
ARC
  5
6288
  8
AM_0
 10
246.12631599092879
 20
260.0681109062279
 30
0.0
 40
5.0
 50
45.0
 51
90.0
1001
GENIUS_GENOBJ-N-FIL_13
1002
{
1000
OWNER
1000
GEN
1002
}
1001
GENIUS_GENODEF_13
1002
{
1000
HIER
1070
     0
1002
}
1002
{
1000
MANEDIT
1070
     0
1002
}
1002
{
1000
NOSEL
1070
     0
1002
}
1002
{
1000
BEHIND
1070
     0
1002
}
1002
{
1000
OTHER
1070
     0
1002
}
1002
{
1000
REACTOR
1002
}
  0
ARC
  5
6289
  8
AM_0
 10
194.26845161465991
 20
260.0681109062279
 30
0.0
 40
5.0
 50
90.0
 51
135.0
1001
GENIUS_GENODEF_13
1002
{
1000
HIER
1070
     0
1002
}
1002
{
1000
MANEDIT
1070
     0
1002
}
1002
{
1000
NOSEL
1070
     0
1002
}
1002
{
1000
BEHIND
1070
     0
1002
}
1002
{
1000
OTHER
1070
     0
1002
}
1002
{
1000
REACTOR
1002
}
1001
GENIUS_GENOBJ-N-FIL_13
1002
{
1000
OWNER
1000
GEN
1002
}
  0
LINE
  5
628A
  8
AM_0
 10
245.46946174143639
 20
260.0681109062279
 30
0.0
 11
194.92530586415231
 21
260.0681109062279
 31
0.0
  0
ARC
  5
628B
  8
AM_0
 10
194.92530586415231
 20
255.06811090622799
 30
0.0
 40
5.0
 50
90.0
 51
135.0
1001
GENIUS_GENODEF_13
1002
{
1000
HIER
1070
     0
1002
}
1002
{
1000
MANEDIT
1070
     0
1002
}
1002
{
1000
NOSEL
1070
     0
1002
}
1002
{
1000
BEHIND
1070
     0
1002
}
1002
{
1000
OTHER
1070
     0
1002
}
1002
{
1000
REACTOR
1002
}
1001
GENIUS_GENOBJ-N-FIL_13
1002
{
1000
OWNER
1000
GEN
1002
}
  0
ARC
  5
628C
  8
AM_0
 10
176.19738380279421
 20
261.06811090622779
 30
0.0
 40
4.0
 50
90.0
 51
180.0
1001
GENIUS_GENODEF_13
1002
{
1000
HIER
1070
     0
1002
}
1002
{
1000
MANEDIT
1070
     0
1002
}
1002
{
1000
NOSEL
1070
     0
1002
}
1002
{
1000
BEHIND
1070
     0
1002
}
1002
{
1000
OTHER
1070
     0
1002
}
1002
{
1000
REACTOR
1002
}
1001
GENIUS_GENOBJ-N-FIL_13
1002
{
1000
OWNER
1000
GEN
1002
}
  0
LINE
  5
628D
  8
AM_0
 10
172.19738380279421
 20
261.06811090622779
 30
0.0
 11
172.19738380279421
 21
177.06811090622779
 31
0.0
  0
ARC
  5
628E
  8
AM_0
 10
177.19738380279421
 20
195.13917871809301
 30
0.0
 40
5.0
 50
180.0
 51
225.0
1001
GENIUS_GENOBJ-N-FIL_13
1002
{
1000
OWNER
1000
GEN
1002
}
1001
GENIUS_GENODEF_13
1002
{
1000
HIER
1070
     0
1002
}
1002
{
1000
MANEDIT
1070
     0
1002
}
1002
{
1000
NOSEL
1070
     0
1002
}
1002
{
1000
BEHIND
1070
     0
1002
}
1002
{
1000
OTHER
1070
     0
1002
}
1002
{
1000
REACTOR
1002
}
  0
ARC
  5
628F
  8
AM_0
 10
177.19738380279421
 20
242.9970430943626
 30
0.0
 40
5.0
 50
135.0
 51
180.0
1001
GENIUS_GENOBJ-N-FIL_13
1002
{
1000
OWNER
1000
GEN
1002
}
1001
GENIUS_GENODEF_13
1002
{
1000
HIER
1070
     0
1002
}
1002
{
1000
MANEDIT
1070
     0
1002
}
1002
{
1000
NOSEL
1070
     0
1002
}
1002
{
1000
BEHIND
1070
     0
1002
}
1002
{
1000
OTHER
1070
     0
1002
}
1002
{
1000
REACTOR
1002
}
  0
LINE
  5
6290
  8
AM_0
 10
177.19738380279421
 20
242.34018884487011
 30
0.0
 11
177.19738380279421
 21
195.7960329675854
 31
0.0
  0
ARC
  5
6291
  8
AM_0
 10
182.19738380279421
 20
195.7960329675854
 30
0.0
 40
5.0
 50
180.0
 51
225.0
1001
GENIUS_GENOBJ-N-FIL_13
1002
{
1000
OWNER
1000
GEN
1002
}
1001
GENIUS_GENODEF_13
1002
{
1000
HIER
1070
     0
1002
}
1002
{
1000
MANEDIT
1070
     0
1002
}
1002
{
1000
NOSEL
1070
     0
1002
}
1002
{
1000
BEHIND
1070
     0
1002
}
1002
{
1000
OTHER
1070
     0
1002
}
1002
{
1000
REACTOR
1002
}
  0
ARC
  5
6292
  8
AM_0
 10
176.19738380279421
 20
177.06811090622779
 30
0.0
 40
4.0
 50
180.0
 51
270.0
1001
GENIUS_GENODEF_13
1002
{
1000
HIER
1070
     0
1002
}
1002
{
1000
MANEDIT
1070
     0
1002
}
1002
{
1000
NOSEL
1070
     0
1002
}
1002
{
1000
BEHIND
1070
     0
1002
}
1002
{
1000
OTHER
1070
     0
1002
}
1002
{
1000
REACTOR
1002
}
1001
GENIUS_GENOBJ-N-FIL_13
1002
{
1000
OWNER
1000
GEN
1002
}
  0
LINE
  5
6293
  8
AM_0
 10
268.19738380279432
 20
261.06811090622801
 30
0.0
 11
268.19738380279438
 21
177.06811090622759
 31
0.0
  0
ARC
  5
6294
  8
AM_0
 10
263.19738380279432
 20
242.9970430943626
 30
0.0
 40
5.0
 50
0.0
 51
45.0
1001
GENIUS_GENOBJ-N-FIL_13
1002
{
1000
OWNER
1000
GEN
1002
}
1001
GENIUS_GENODEF_13
1002
{
1000
HIER
1070
     0
1002
}
1002
{
1000
MANEDIT
1070
     0
1002
}
1002
{
1000
NOSEL
1070
     0
1002
}
1002
{
1000
BEHIND
1070
     0
1002
}
1002
{
1000
OTHER
1070
     0
1002
}
1002
{
1000
REACTOR
1002
}
  0
ARC
  5
6295
  8
AM_0
 10
263.19738380279438
 20
195.13917871809309
 30
0.0
 40
5.0
 50
315.0
 51
0.0
1001
GENIUS_GENOBJ-N-FIL_13
1002
{
1000
OWNER
1000
GEN
1002
}
1001
GENIUS_GENODEF_13
1002
{
1000
HIER
1070
     0
1002
}
1002
{
1000
MANEDIT
1070
     0
1002
}
1002
{
1000
NOSEL
1070
     0
1002
}
1002
{
1000
BEHIND
1070
     0
1002
}
1002
{
1000
OTHER
1070
     0
1002
}
1002
{
1000
REACTOR
1002
}
  0
LINE
  5
6296
  8
AM_0
 10
249.6618498968615
 20
263.60364481216072
 30
0.0
 11
266.73291770872709
 21
246.53257700029519
 31
0.0
  0
LINE
  5
6297
  8
AM_0
 10
249.0049956473691
 20
258.60364481216061
 30
0.0
 11
261.73291770872697
 21
245.87572275080299
 31
0.0
  0
ARC
  5
6298
  8
AM_0
 10
245.46946174143639
 20
255.06811090622779
 30
0.0
 40
5.0
 50
45.0
 51
90.0
1001
GENIUS_GENOBJ-N-FIL_13
1002
{
1000
OWNER
1000
GEN
1002
}
1001
GENIUS_GENODEF_13
1002
{
1000
HIER
1070
     0
1002
}
1002
{
1000
MANEDIT
1070
     0
1002
}
1002
{
1000
NOSEL
1070
     0
1002
}
1002
{
1000
BEHIND
1070
     0
1002
}
1002
{
1000
OTHER
1070
     0
1002
}
1002
{
1000
REACTOR
1002
}
  0
LINE
  5
6299
  8
AM_0
 10
263.19738380279421
 20
242.3401888448702
 30
0.0
 11
263.19738380279438
 21
195.7960329675854
 31
0.0
  0
ARC
  5
629A
  8
AM_0
 10
258.19738380279421
 20
242.3401888448702
 30
0.0
 40
5.0
 50
0.0
 51
45.0
1001
GENIUS_GENODEF_13
1002
{
1000
HIER
1070
     0
1002
}
1002
{
1000
MANEDIT
1070
     0
1002
}
1002
{
1000
NOSEL
1070
     0
1002
}
1002
{
1000
BEHIND
1070
     0
1002
}
1002
{
1000
OTHER
1070
     0
1002
}
1002
{
1000
REACTOR
1002
}
1001
GENIUS_GENOBJ-N-FIL_13
1002
{
1000
OWNER
1000
GEN
1002
}
  0
ARC
  5
629B
  8
AM_0
 10
264.19738380279432
 20
261.06811090622801
 30
0.0
 40
4.0
 50
0.0
 51
90.0
1001
GENIUS_GENODEF_13
1002
{
1000
HIER
1070
     0
1002
}
1002
{
1000
MANEDIT
1070
     0
1002
}
1002
{
1000
NOSEL
1070
     0
1002
}
1002
{
1000
BEHIND
1070
     0
1002
}
1002
{
1000
OTHER
1070
     0
1002
}
1002
{
1000
REACTOR
1002
}
1001
GENIUS_GENOBJ-N-FIL_13
1002
{
1000
OWNER
1000
GEN
1002
}
  0
LINE
  5
629C
  8
ﾁｭｳｼﾝｾﾝ1
 10
263.1973838027958
 20
254.0681109062275
 30
0.0
 11
263.19738380279642
 21
266.0681109062275
 31
0.0
  0
LINE
  5
629D
  8
ﾁｭｳｼﾝｾﾝ1
 10
269.1973838027962
 20
260.06811090622728
 30
0.0
 11
257.19738380279608
 21
260.0681109062279
 31
0.0
  0
LINE
  5
629E
  8
AM_0
 10
168.69738380279429
 20
247.5681109062279
 30
0.0
 11
171.19738380279421
 21
247.5681109062281
 31
0.0
  0
LINE
  5
629F
  8
AM_0
 10
171.19738380279429
 20
220.5681109062281
 30
0.0
 11
168.69738380279429
 21
220.56811090622779
 31
0.0
  0
LINE
  5
62A0
  8
AM_0
 10
157.7987127064483
 20
223.56811090622799
 30
0.0
 11
157.7987127064483
 21
244.5681109062277
 31
0.0
  0
LINE
  5
62A1
  8
AM_0
 10
142.7987127064483
 20
242.0997359602429
 30
0.0
 11
142.7987127064483
 21
226.036485852212
 31
0.0
  0
LINE
  5
62A2
  8
AM_0
 10
155.7987127064483
 20
222.06811090622799
 30
0.0
 11
155.7987127064483
 21
246.0681109062277
 31
0.0
  0
LINE
  5
62A3
  8
AM_0
 10
146.2987127064483
 20
234.06811090622799
 30
0.0
 11
146.7987127064483
 21
233.56811090622799
 31
0.0
  0
LINE
  5
62A4
  8
AM_0
 10
153.2987127064483
 20
245.76811090622789
 30
0.0
 11
153.2987127064483
 21
222.36811090622791
 31
0.0
  0
LINE
  5
62A5
  8
AM_0
 10
163.19738380279429
 20
245.56811090622779
 30
0.0
 11
163.19738380279429
 21
222.5681109062279
 31
0.0
  0
LINE
  5
62A6
  8
AM_0
 10
157.2987127064483
 20
233.36811090622601
 30
0.0
 11
157.2987127064483
 21
234.76811090622891
 31
0.0
  0
LINE
  5
62A7
  8
AM_0
 10
159.39834843301921
 20
224.96811090622791
 30
0.0
 11
158.64834843302029
 21
243.16811090622801
 31
0.0
  0
LINE
  5
62A8
  8
AM_0
 10
158.44738380279429
 20
224.96811090622791
 30
0.0
 11
157.7987127064483
 21
240.70919617754399
 31
0.0
  0
LINE
  5
62A9
  8
AM_0
 10
159.1960763933663
 20
224.252452193864
 30
0.0
 11
158.44881634995829
 21
243.88048266739489
 31
0.0
  0
LINE
  5
62AA
  8
AM_0
 10
158.64691588585629
 20
224.25573914505989
 30
0.0
 11
157.89834843302029
 21
243.91811090622801
 31
0.0
  0
LINE
  5
62AB
  8
AM_0
 10
155.7987127064483
 20
246.0681109062277
 30
0.0
 11
153.59871270644831
 21
246.0681109062277
 31
0.0
  0
ARC
  5
62AC
  8
AM_0
 10
167.69738380279429
 20
246.5681109062277
 30
0.0
 40
0.5
 50
269.99999999998693
 51
0.0
  0
ARC
  5
62AD
  8
AM_0
 10
168.69738380279429
 20
247.0681109062279
 30
0.0
 40
0.5
 50
90.0
 51
180.0
  0
LINE
  5
62AE
  8
AM_0
 10
168.19738380279429
 20
246.5681109062277
 30
0.0
 11
168.19738380279429
 21
247.0681109062279
 31
0.0
  0
LINE
  5
62AF
  8
AM_0
 10
159.19738380279429
 20
243.16811090622801
 30
0.0
 11
162.69738380279429
 21
243.16811090622801
 31
0.0
  0
LINE
  5
62B0
  8
AM_0
 10
168.19738380279429
 20
244.9241822276349
 30
0.0
 11
168.19738380279429
 21
235.21203958481999
 31
0.0
  0
LINE
  5
62B1
  8
AM_0
 10
163.69738380279429
 20
246.0681109062277
 30
0.0
 11
167.69738380279409
 21
246.0681109062277
 31
0.0
  0
LINE
  5
62B2
  8
AM_0
 10
167.69738380279429
 20
245.4241822276349
 30
0.0
 11
163.19738380279429
 21
245.4241822276349
 31
0.0
  0
ARC
  5
62B3
  8
AM_0
 10
167.69738380279429
 20
244.9241822276349
 30
0.0
 40
0.5
 50
0.0
 51
90.0
  0
ARC
  5
62B4
  8
AM_0
 10
162.69738380279429
 20
243.66811090622789
 30
0.0
 40
0.5
 50
270.0
 51
0.0
  0
ARC
  5
62B5
  8
AM_0
 10
163.69738380279429
 20
245.56811090622779
 30
0.0
 40
0.5
 50
90.0
 51
180.0
  0
LINE
  5
62B6
  8
AM_0
 10
167.69738380279429
 20
234.71203958481999
 30
0.0
 11
163.19738380279429
 21
234.71203958481999
 31
0.0
  0
ARC
  5
62B7
  8
AM_0
 10
167.69738380279429
 20
235.21203958481991
 30
0.0
 40
0.5
 50
270.0
 51
0.0
  0
LINE
  5
62B8
  8
AM_0
 10
157.2987127064483
 20
240.2132816585198
 30
0.0
 11
157.2987127064483
 21
239.04103847208691
 31
0.0
  0
LINE
  5
62B9
  8
AM_0
 10
158.72508086144521
 20
243.16811090622801
 30
0.0
 11
159.19738380279429
 21
243.16811090622801
 31
0.0
  0
LINE
  5
62BA
  8
AM_0
 10
158.62848836690611
 20
243.2422286729645
 30
0.0
 11
158.64834843302029
 21
243.16811090622801
 31
0.0
  0
ARC
  5
62BB
  8
AM_0
 10
158.72508086144521
 20
243.26811090622789
 30
0.0
 40
0.1000000000000346
 50
195.0001950064478
 51
270.0
  0
ARC
  5
62BC
  8
AM_0
 10
156.9987127064484
 20
243.3549438867359
 30
0.0
 40
0.3000000000000043
 50
270.0
 51
0.0
  0
LINE
  5
62BD
  8
AM_0
 10
155.7987127064483
 20
245.46811090622791
 30
0.0
 11
157.0186684096054
 21
245.38678052601691
 31
0.0
  0
LINE
  5
62BE
  8
AM_0
 10
155.7987127064483
 20
244.31185887038791
 30
0.0
 11
156.9987127064482
 21
244.31185887038791
 31
0.0
  0
LINE
  5
62BF
  8
AM_0
 10
157.2987127064483
 20
245.0681109062279
 30
0.0
 11
155.7987127064483
 21
245.0681109062279
 31
0.0
  0
ARC
  5
62C0
  8
AM_0
 10
157.2987127064483
 20
244.5681109062277
 30
0.0
 40
0.5
 50
0.0
 51
90.0
  0
LINE
  5
62C1
  8
AM_0
 10
157.2987127064483
 20
245.0874449786597
 30
0.0
 11
157.2987127064483
 21
245.0681109062279
 31
0.0
  0
ARC
  5
62C2
  8
AM_0
 10
156.9987127064484
 20
245.0874449786597
 30
0.0
 40
0.3000000000000007
 50
0.0
 51
86.185925165718459
  0
LINE
  5
62C3
  8
AM_0
 10
158.37065137436929
 20
243.91811090622801
 30
0.0
 11
158.44738380279509
 21
243.91811090622801
 31
0.0
  0
LINE
  5
62C4
  8
AM_0
 10
158.44738380279509
 20
243.91811090622801
 30
0.0
 11
158.4672438689083
 21
243.8439931394916
 31
0.0
  0
LINE
  5
62C5
  8
AM_0
 10
157.87848836690611
 20
243.8439931394916
 30
0.0
 11
157.89834843302029
 21
243.91811090622801
 31
0.0
  0
LINE
  5
62C6
  8
AM_0
 10
157.89834843302029
 20
243.91811090622801
 30
0.0
 11
157.97508086144521
 21
243.91811090622801
 31
0.0
  0
LINE
  5
62C7
  8
AM_0
 10
158.4672438689083
 20
243.8439931394916
 30
0.0
 11
158.62848836690611
 21
243.2422286729645
 31
0.0
  0
LINE
  5
62C8
  8
AM_0
 10
157.97508086144521
 20
243.91811090622801
 30
0.0
 11
158.37065137436929
 21
243.91811090622801
 31
0.0
  0
LINE
  5
62C9
  8
AM_0
 10
157.79871270644929
 20
243.54627037466699
 30
0.0
 11
157.87848836690611
 21
243.8439931394916
 31
0.0
  0
ARC
  5
62CA
  8
AM_0
 10
158.37065137436929
 20
243.81811090622779
 30
0.0
 40
0.0999999999999866
 50
15.00019500657263
 51
90.0
  0
ARC
  5
62CB
  8
AM_0
 10
157.97508086144521
 20
243.81811090622779
 30
0.0
 40
0.1000000000000014
 50
90.0
 51
164.99980499342729
  0
LINE
  5
62CC
  8
AM_0
 10
157.2987127064483
 20
244.01185887038801
 30
0.0
 11
157.2987127064483
 21
243.3549438867359
 31
0.0
  0
ARC
  5
62CD
  8
AM_0
 10
156.9987127064484
 20
244.01185887038781
 30
0.0
 40
0.3000000000000007
 50
0.0
 51
90.0
  0
LINE
  5
62CE
  8
AM_0
 10
155.7987127064483
 20
240.51328165851999
 30
0.0
 11
156.9987127064482
 21
240.51328165851999
 31
0.0
  0
LINE
  5
62CF
  8
AM_0
 10
156.9987127064482
 20
243.05494388673591
 30
0.0
 11
155.7987127064483
 21
243.05494388673591
 31
0.0
  0
LINE
  5
62D0
  8
AM_0
 10
158.64834843302029
 20
243.16811090622801
 30
0.0
 11
158.72508086144521
 21
243.16811090622801
 31
0.0
  0
ARC
  5
62D1
  8
AM_0
 10
156.9987127064482
 20
240.2132816585198
 30
0.0
 40
0.3000000000000007
 50
0.0
 51
90.0
  0
LINE
  5
62D2
  8
AM_0
 10
156.9987127064482
 20
238.74103847208701
 30
0.0
 11
155.7987127064483
 21
238.74103847208701
 31
0.0
  0
ARC
  5
62D3
  8
AM_0
 10
156.9987127064482
 20
239.04103847208691
 30
0.0
 40
0.3000000000000043
 50
270.0
 51
0.0
  0
LINE
  5
62D4
  8
AM_0
 10
156.9987127064482
 20
235.06811090622901
 30
0.0
 11
155.7987127064483
 21
235.06811090622901
 31
0.0
  0
ARC
  5
62D5
  8
AM_0
 10
156.9987127064482
 20
234.76811090622891
 30
0.0
 40
0.3000000000000007
 50
0.0
 51
90.0
  0
LINE
  5
62D6
  8
AM_0
 10
146.7987127064483
 20
244.20139073487499
 30
0.0
 11
153.2987127064483
 21
244.20139073487499
 31
0.0
  0
LINE
  5
62D7
  8
AM_0
 10
146.7987127064483
 20
244.70139073487499
 30
0.0
 11
153.2987127064483
 21
244.70139073487499
 31
0.0
  0
LINE
  5
62D8
  8
AM_0
 10
153.2987127064483
 20
234.56811090622799
 30
0.0
 11
146.7987127064483
 21
234.56811090622799
 31
0.0
  0
LINE
  5
62D9
  8
AM_0
 10
146.2987127064483
 20
235.0681109062279
 30
0.0
 11
153.2987127064483
 21
235.0681109062279
 31
0.0
  0
LINE
  5
62DA
  8
AM_0
 10
152.9987127064482
 20
245.0681109062279
 30
0.0
 11
146.1607626416303
 21
245.0681109062279
 31
0.0
  0
LINE
  5
62DB
  8
AM_0
 10
153.2987127064483
 20
235.4147989747689
 30
0.0
 11
146.7987127064483
 21
235.4147989747689
 31
0.0
  0
LINE
  5
62DC
  8
AM_0
 10
153.2987127064483
 20
243.72142283768699
 30
0.0
 11
146.7987127064483
 21
243.72142283768699
 31
0.0
  0
ARC
  5
62DD
  8
AM_0
 10
153.59871270644831
 20
245.76811090622789
 30
0.0
 40
0.2999999999999971
 50
90.0
 51
180.0
  0
ARC
  5
62DE
  8
AM_0
 10
152.9987127064484
 20
245.36811090622791
 30
0.0
 40
0.2999999999999971
 50
270.0
 51
0.0
  0
ARC
  5
62DF
  8
AM_0
 10
154.9237127064483
 20
239.56811090622779
 30
0.0
 40
9.124999999999984
 50
152.92493329272219
 51
207.07506670727781
  0
LINE
  5
62E0
  8
AM_0
 10
145.52057824196581
 20
244.8363321858254
 30
0.0
 11
143.15852830678381
 21
242.86795723984039
 31
0.0
  0
LINE
  5
62E1
  8
AM_0
 10
146.2987127064483
 20
244.4896783227199
 30
0.0
 11
146.7987127064483
 21
245.0681109062279
 31
0.0
  0
ARC
  5
62E2
  8
AM_0
 10
146.1607626416303
 20
244.0681109062277
 30
0.0
 40
1.0
 50
90.0
 51
129.80557109225549
  0
LINE
  5
62E3
  8
AM_0
 10
146.7987127064483
 20
244.70139073487499
 30
0.0
 11
146.2987127064483
 21
244.4896783227199
 31
0.0
  0
LINE
  5
62E4
  8
AM_0
 10
146.2987127064483
 20
244.0274030497489
 30
0.0
 11
146.7987127064483
 21
244.70139073487499
 31
0.0
  0
LINE
  5
62E5
  8
AM_0
 10
146.7987127064483
 20
244.20139073487499
 30
0.0
 11
146.2987127064483
 21
244.0274030497489
 31
0.0
  0
LINE
  5
62E6
  8
AM_0
 10
146.2987127064483
 20
243.4896783227199
 30
0.0
 11
146.7987127064483
 21
244.20139073487499
 31
0.0
  0
LINE
  5
62E7
  8
AM_0
 10
146.7987127064483
 20
243.72142283768699
 30
0.0
 11
146.2987127064483
 21
243.4896783227199
 31
0.0
  0
ARC
  5
62E8
  8
AM_0
 10
143.7987127064483
 20
242.0997359602429
 30
0.0
 40
1.0000000000000291
 50
129.80557109226359
 51
180.0
  0
LINE
  5
62E9
  8
AM_0
 10
146.7987127064483
 20
234.56811090622799
 30
0.0
 11
146.2987127064483
 21
234.06811090622799
 31
0.0
  0
LINE
  5
62EA
  8
AM_0
 10
146.2987127064483
 20
235.0681109062279
 30
0.0
 11
146.7987127064483
 21
234.56811090622799
 31
0.0
  0
LINE
  5
62EB
  8
AM_0
 10
146.7987127064483
 20
235.4147989747689
 30
0.0
 11
146.2987127064483
 21
235.0681109062279
 31
0.0
  0
LINE
  5
62EC
  8
AM_0
 10
153.59871270644831
 20
222.06811090622799
 30
0.0
 11
155.7987127064483
 21
222.06811090622799
 31
0.0
  0
ARC
  5
62ED
  8
AM_0
 10
167.69738380279429
 20
221.5681109062277
 30
0.0
 40
0.5
 50
0.0
 51
90.000000000006537
  0
LINE
  5
62EE
  8
AM_0
 10
162.69738380279429
 20
224.96811090622791
 30
0.0
 11
159.47508086144521
 21
224.96811090622791
 31
0.0
  0
LINE
  5
62EF
  8
AM_0
 10
168.19738380279429
 20
232.9241822276349
 30
0.0
 11
168.19738380279429
 21
223.21203958481991
 31
0.0
  0
LINE
  5
62F0
  8
AM_0
 10
163.19738380279429
 20
233.4241822276349
 30
0.0
 11
167.69738380279429
 21
233.4241822276349
 31
0.0
  0
ARC
  5
62F1
  8
AM_0
 10
167.69738380279429
 20
232.9241822276349
 30
0.0
 40
0.5
 50
0.0
 51
90.0
  0
LINE
  5
62F2
  8
AM_0
 10
163.19738380279429
 20
222.71203958481991
 30
0.0
 11
167.69738380279429
 21
222.71203958481991
 31
0.0
  0
LINE
  5
62F3
  8
AM_0
 10
167.69738380279409
 20
222.0681109062279
 30
0.0
 11
163.69738380279429
 21
222.0681109062279
 31
0.0
  0
ARC
  5
62F4
  8
AM_0
 10
167.69738380279429
 20
223.21203958481991
 30
0.0
 40
0.5
 50
270.0
 51
0.0
  0
ARC
  5
62F5
  8
AM_0
 10
162.69738380279429
 20
224.46811090622799
 30
0.0
 40
0.5
 50
0.0
 51
90.0
  0
ARC
  5
62F6
  8
AM_0
 10
163.69738380279429
 20
222.5681109062279
 30
0.0
 40
0.5
 50
180.0
 51
270.0
  0
ARC
  5
62F7
  8
AM_0
 10
156.9987127064482
 20
227.92294015393591
 30
0.0
 40
0.3000000000000114
 50
270.0
 51
0.0
  0
LINE
  5
62F8
  8
AM_0
 10
155.7987127064483
 20
233.06811090622591
 30
0.0
 11
156.9987127064482
 21
233.06811090622591
 31
0.0
  0
ARC
  5
62F9
  8
AM_0
 10
156.9987127064482
 20
233.36811090622589
 30
0.0
 40
0.2999999999999971
 50
270.0
 51
0.0
  0
LINE
  5
62FA
  8
AM_0
 10
155.7987127064483
 20
229.3951833403689
 30
0.0
 11
156.9987127064482
 21
229.3951833403689
 31
0.0
  0
ARC
  5
62FB
  8
AM_0
 10
156.9987127064482
 20
229.09518334036881
 30
0.0
 40
0.3000000000000007
 50
0.0
 51
90.0
  0
LINE
  5
62FC
  8
AM_0
 10
157.2987127064483
 20
229.095183340369
 30
0.0
 11
157.2987127064483
 21
227.922940153936
 31
0.0
  0
LINE
  5
62FD
  8
AM_0
 10
158.72508086144521
 20
224.21811090622791
 30
0.0
 11
159.12065137436929
 21
224.21811090622791
 31
0.0
  0
LINE
  5
62FE
  8
AM_0
 10
158.72508086144521
 20
224.21811090622791
 30
0.0
 11
159.12065137436929
 21
224.21811090622791
 31
0.0
  0
LINE
  5
62FF
  8
AM_0
 10
159.2172438689083
 20
224.29222867296451
 30
0.0
 11
159.37848836690611
 21
224.8939931394915
 31
0.0
  0
LINE
  5
6300
  8
AM_0
 10
159.2172438689083
 20
224.29222867296451
 30
0.0
 11
159.37848836690611
 21
224.8939931394915
 31
0.0
  0
ARC
  5
6301
  8
AM_0
 10
159.47508086144521
 20
224.86811090622791
 30
0.0
 40
0.0999999999999943
 50
90.0
 51
164.9998049934874
  0
ARC
  5
6302
  8
AM_0
 10
159.12065137436929
 20
224.3181109062279
 30
0.0
 40
0.0999999999999943
 50
270.0
 51
344.99980499349448
  0
LINE
  5
6303
  8
AM_0
 10
157.7978661179072
 20
224.59311090622771
 30
0.0
 11
157.87848836690611
 21
224.8939931394915
 31
0.0
  0
LINE
  5
6304
  8
AM_0
 10
158.4500944550002
 20
224.92884637312989
 30
0.0
 11
158.62848836690611
 21
224.29222867296451
 31
0.0
  0
LINE
  5
6305
  8
AM_0
 10
158.4672438689083
 20
224.8939931394915
 30
0.0
 11
158.62848836690611
 21
224.29222867296451
 31
0.0
  0
LINE
  5
6306
  8
AM_0
 10
157.2987127064483
 20
224.781277925719
 30
0.0
 11
157.2987127064483
 21
224.1243629420679
 31
0.0
  0
LINE
  5
6307
  8
AM_0
 10
157.7987127064483
 20
224.59627037466589
 30
0.0
 11
157.87848836690611
 21
224.8939931394915
 31
0.0
  0
LINE
  5
6308
  8
AM_0
 10
155.7987127064483
 20
225.08127792571901
 30
0.0
 11
156.9987127064482
 21
225.08127792571901
 31
0.0
  0
LINE
  5
6309
  8
AM_0
 10
156.9987127064482
 20
227.6229401539359
 30
0.0
 11
155.7987127064483
 21
227.62294015393491
 31
0.0
  0
LINE
  5
630A
  8
AM_0
 10
158.40328363988431
 20
224.96811090622791
 30
0.0
 11
158.4500944550002
 21
224.92884637312989
 31
0.0
  0
LINE
  5
630B
  8
AM_0
 10
157.97508086144521
 20
224.96811090622791
 30
0.0
 11
158.40328363988431
 21
224.96811090622791
 31
0.0
  0
LINE
  5
630C
  8
AM_0
 10
157.97508086144521
 20
224.96811090622791
 30
0.0
 11
158.37065137436929
 21
224.96811090622791
 31
0.0
  0
ARC
  5
630D
  8
AM_0
 10
157.97508086144521
 20
224.86811090622791
 30
0.0
 40
0.0999999999999943
 50
90.0
 51
164.9998049934874
  0
ARC
  5
630E
  8
AM_0
 10
158.37065137436929
 20
224.86811090622791
 30
0.0
 40
0.0999999999999608
 50
15.000195006512509
 51
90.0
  0
ARC
  5
630F
  8
AM_0
 10
156.9987127064482
 20
224.78127792571891
 30
0.0
 40
0.3000000000000007
 50
0.0
 51
90.0
  0
LINE
  5
6310
  8
AM_0
 10
155.7987127064483
 20
223.06811090622799
 30
0.0
 11
157.2987127064483
 21
223.06811090622799
 31
0.0
  0
LINE
  5
6311
  8
AM_0
 10
156.9987127064482
 20
223.82436294206801
 30
0.0
 11
155.7987127064483
 21
223.82436294206801
 31
0.0
  0
LINE
  5
6312
  8
AM_0
 10
157.0186684096054
 20
222.7494412864379
 30
0.0
 11
155.7987127064483
 21
222.66811090622801
 31
0.0
  0
ARC
  5
6313
  8
AM_0
 10
157.2987127064483
 20
223.5681109062277
 30
0.0
 40
0.5
 50
270.0
 51
0.0
  0
ARC
  5
6314
  8
AM_0
 10
158.72508086144521
 20
224.3181109062279
 30
0.0
 40
0.0999999999999606
 50
195.00019500650541
 51
270.0
  0
ARC
  5
6315
  8
AM_0
 10
156.9987127064482
 20
224.1243629420679
 30
0.0
 40
0.2999999999999971
 50
270.0
 51
0.0
  0
LINE
  5
6316
  8
AM_0
 10
157.2987127064483
 20
223.06811090622799
 30
0.0
 11
157.2987127064483
 21
223.0487768337949
 31
0.0
  0
ARC
  5
6317
  8
AM_0
 10
156.9987127064482
 20
223.0487768337949
 30
0.0
 40
0.3000000000000043
 50
273.81407483428148
 51
0.0
  0
ARC
  5
6318
  8
AM_0
 10
168.69738380279429
 20
221.0681109062277
 30
0.0
 40
0.5
 50
180.0
 51
270.0
  0
LINE
  5
6319
  8
AM_0
 10
168.19738380279429
 20
221.0681109062277
 30
0.0
 11
168.19738380279429
 21
221.5681109062277
 31
0.0
  0
LINE
  5
631A
  8
AM_0
 10
146.7987127064483
 20
224.4147989747689
 30
0.0
 11
153.2987127064483
 21
224.4147989747689
 31
0.0
  0
LINE
  5
631B
  8
AM_0
 10
146.7987127064483
 20
232.7214228376869
 30
0.0
 11
153.2987127064483
 21
232.7214228376869
 31
0.0
  0
LINE
  5
631C
  8
AM_0
 10
146.1607626416303
 20
223.06811090622799
 30
0.0
 11
152.9987127064482
 21
223.06811090622799
 31
0.0
  0
LINE
  5
631D
  8
AM_0
 10
153.2987127064483
 20
233.0681109062279
 30
0.0
 11
146.2987127064483
 21
233.0681109062279
 31
0.0
  0
LINE
  5
631E
  8
AM_0
 10
146.7987127064483
 20
233.56811090622799
 30
0.0
 11
153.2987127064483
 21
233.56811090622799
 31
0.0
  0
LINE
  5
631F
  8
AM_0
 10
153.2987127064483
 20
223.4348310775799
 30
0.0
 11
146.7987127064483
 21
223.4348310775799
 31
0.0
  0
LINE
  5
6320
  8
AM_0
 10
153.2987127064483
 20
223.9348310775799
 30
0.0
 11
146.7987127064483
 21
223.9348310775799
 31
0.0
  0
ARC
  5
6321
  8
AM_0
 10
152.9987127064482
 20
222.76811090622789
 30
0.0
 40
0.3000000000000043
 50
0.0
 51
90.0
  0
ARC
  5
6322
  8
AM_0
 10
153.59871270644831
 20
222.36811090622791
 30
0.0
 40
0.2999999999999971
 50
180.0
 51
270.0
  0
ARC
  5
6323
  8
AM_0
 10
154.9237127064483
 20
228.5681109062279
 30
0.0
 40
9.124999999999984
 50
152.92493329272219
 51
207.07506670727781
  0
LINE
  5
6324
  8
AM_0
 10
146.2987127064483
 20
233.0681109062279
 30
0.0
 11
146.7987127064483
 21
232.7214228376869
 31
0.0
  0
LINE
  5
6325
  8
AM_0
 10
146.7987127064483
 20
233.56811090622799
 30
0.0
 11
146.2987127064483
 21
233.0681109062279
 31
0.0
  0
LINE
  5
6326
  8
AM_0
 10
143.15852830678381
 20
225.2682645726145
 30
0.0
 11
145.52057824196581
 21
223.29988962663049
 31
0.0
  0
LINE
  5
6327
  8
AM_0
 10
146.7987127064483
 20
223.06811090622799
 30
0.0
 11
146.2987127064483
 21
223.646543489735
 31
0.0
  0
ARC
  5
6328
  8
AM_0
 10
146.1607626416303
 20
224.0681109062279
 30
0.0
 40
1.0000000000000411
 50
230.19442890774451
 51
270.0
  0
LINE
  5
6329
  8
AM_0
 10
146.2987127064483
 20
224.646543489735
 30
0.0
 11
146.7987127064483
 21
224.4147989747689
 31
0.0
  0
LINE
  5
632A
  8
AM_0
 10
146.7987127064483
 20
223.9348310775799
 30
0.0
 11
146.2987127064483
 21
224.646543489735
 31
0.0
  0
LINE
  5
632B
  8
AM_0
 10
146.2987127064483
 20
224.10881876270699
 30
0.0
 11
146.7987127064483
 21
223.9348310775799
 31
0.0
  0
LINE
  5
632C
  8
AM_0
 10
146.7987127064483
 20
223.4348310775799
 30
0.0
 11
146.2987127064483
 21
224.10881876270699
 31
0.0
  0
LINE
  5
632D
  8
AM_0
 10
146.2987127064483
 20
223.646543489735
 30
0.0
 11
146.7987127064483
 21
223.4348310775799
 31
0.0
  0
ARC
  5
632E
  8
AM_0
 10
143.7987127064483
 20
226.036485852212
 30
0.0
 40
1.0
 50
180.0
 51
230.19442890773641
  0
CIRCLE
  5
632F
  8
AM_0
 10
177.19738380279259
 20
260.06811090622762
 30
0.0
 40
4.0
  0
LINE
  5
6330
  8
AM_0
 10
176.8858838027927
 20
257.78930250050308
 30
0.0
 11
177.50888380279261
 21
257.78930250050308
 31
0.0
  0
LINE
  5
6331
  8
AM_0
 10
176.8858838027927
 20
262.34691931195192
 30
0.0
 11
177.50888380279261
 21
262.34691931195192
 31
0.0
  0
LINE
  5
6332
  8
AM_0
 10
176.8858838027927
 20
257.78930250050308
 30
0.0
 11
176.8858838027927
 21
259.75661090622759
 31
0.0
  0
LINE
  5
6333
  8
AM_0
 10
176.8858838027927
 20
260.37961090622758
 30
0.0
 11
176.8858838027927
 21
262.34691931195192
 31
0.0
  0
LINE
  5
6334
  8
AM_0
 10
176.8858838027927
 20
260.37961090622758
 30
0.0
 11
174.91857539706811
 21
260.37961090622758
 31
0.0
  0
LINE
  5
6335
  8
AM_0
 10
176.8858838027927
 20
259.75661090622759
 30
0.0
 11
174.91857539706811
 21
259.75661090622759
 31
0.0
  0
LINE
  5
6336
  8
AM_0
 10
174.91857539706811
 20
260.37961090622758
 30
0.0
 11
174.91857539706811
 21
259.75661090622759
 31
0.0
  0
LINE
  5
6337
  8
AM_0
 10
177.50888380279261
 20
257.78930250050308
 30
0.0
 11
177.50888380279261
 21
259.75661090622759
 31
0.0
  0
LINE
  5
6338
  8
AM_0
 10
177.50888380279261
 20
260.37961090622758
 30
0.0
 11
177.50888380279261
 21
262.34691931195192
 31
0.0
  0
LINE
  5
6339
  8
AM_0
 10
179.47619220851701
 20
259.75661090622759
 30
0.0
 11
177.50888380279261
 21
259.75661090622759
 31
0.0
  0
LINE
  5
633A
  8
AM_0
 10
179.47619220851701
 20
260.37961090622758
 30
0.0
 11
177.50888380279261
 21
260.37961090622758
 31
0.0
  0
LINE
  5
633B
  8
AM_0
 10
179.47619220851701
 20
260.37961090622758
 30
0.0
 11
179.47619220851701
 21
259.75661090622759
 31
0.0
  0
CIRCLE
  5
633C
  8
AM_0
 10
263.1973838027962
 20
260.0681109062275
 30
0.0
 40
4.0
  0
LINE
  5
633D
  8
AM_0
 10
262.88588380279612
 20
257.78930250050308
 30
0.0
 11
263.50888380279628
 21
257.78930250050308
 31
0.0
  0
LINE
  5
633E
  8
AM_0
 10
262.88588380279612
 20
262.34691931195192
 30
0.0
 11
263.50888380279628
 21
262.34691931195192
 31
0.0
  0
LINE
  5
633F
  8
AM_0
 10
262.88588380279612
 20
257.78930250050308
 30
0.0
 11
262.88588380279612
 21
259.75661090622759
 31
0.0
  0
LINE
  5
6340
  8
AM_0
 10
262.88588380279612
 20
260.37961090622758
 30
0.0
 11
262.88588380279612
 21
262.34691931195192
 31
0.0
  0
LINE
  5
6341
  8
AM_0
 10
262.88588380279612
 20
260.37961090622758
 30
0.0
 11
260.91857539707178
 21
260.37961090622758
 31
0.0
  0
LINE
  5
6342
  8
AM_0
 10
262.88588380279612
 20
259.75661090622759
 30
0.0
 11
260.91857539707178
 21
259.75661090622759
 31
0.0
  0
LINE
  5
6343
  8
AM_0
 10
260.91857539707178
 20
260.37961090622758
 30
0.0
 11
260.91857539707178
 21
259.75661090622759
 31
0.0
  0
LINE
  5
6344
  8
AM_0
 10
263.50888380279628
 20
257.78930250050308
 30
0.0
 11
263.50888380279628
 21
259.75661090622759
 31
0.0
  0
LINE
  5
6345
  8
AM_0
 10
263.50888380279628
 20
260.37961090622758
 30
0.0
 11
263.50888380279628
 21
262.34691931195192
 31
0.0
  0
LINE
  5
6346
  8
AM_0
 10
265.4761922085205
 20
259.75661090622759
 30
0.0
 11
263.50888380279628
 21
259.75661090622759
 31
0.0
  0
LINE
  5
6347
  8
AM_0
 10
265.4761922085205
 20
260.37961090622758
 30
0.0
 11
263.50888380279628
 21
260.37961090622758
 31
0.0
  0
LINE
  5
6348
  8
AM_0
 10
265.4761922085205
 20
260.37961090622758
 30
0.0
 11
265.4761922085205
 21
259.75661090622759
 31
0.0
  0
LINE
  5
6349
  8
AM_0
 10
190.7329177087272
 20
263.60364481216072
 30
0.0
 11
173.66184989686161
 21
246.53257700029539
 31
0.0
  0
LINE
  5
634A
  8
AM_0
 10
191.38977195821951
 20
258.60364481216072
 30
0.0
 11
178.6618498968615
 21
245.87572275080279
 31
0.0
  0
ARC
  5
634B
  8
AM_0
 10
182.19738380279421
 20
242.34018884487011
 30
0.0
 40
5.0
 50
135.0
 51
180.0
1001
GENIUS_GENOBJ-N-FIL_13
1002
{
1000
OWNER
1000
GEN
1002
}
1001
GENIUS_GENODEF_13
1002
{
1000
HIER
1070
     0
1002
}
1002
{
1000
MANEDIT
1070
     0
1002
}
1002
{
1000
NOSEL
1070
     0
1002
}
1002
{
1000
BEHIND
1070
     0
1002
}
1002
{
1000
OTHER
1070
     0
1002
}
1002
{
1000
REACTOR
1002
}
  0
LINE
  5
634C
  8
AM_0
 10
249.6618498968615
 20
174.53257700029491
 30
0.0
 11
266.7329177087272
 21
191.6036448121605
 31
0.0
  0
ARC
  5
634D
  8
AM_0
 10
246.12631599092879
 20
178.06811090622779
 30
0.0
 40
5.0
 50
270.0
 51
315.0
1001
GENIUS_GENODEF_13
1002
{
1000
HIER
1070
     0
1002
}
1002
{
1000
MANEDIT
1070
     0
1002
}
1002
{
1000
NOSEL
1070
     0
1002
}
1002
{
1000
BEHIND
1070
     0
1002
}
1002
{
1000
OTHER
1070
     0
1002
}
1002
{
1000
REACTOR
1002
}
1001
GENIUS_GENOBJ-N-FIL_13
1002
{
1000
OWNER
1000
GEN
1002
}
  0
LINE
  5
634E
  8
AM_0
 10
249.0049956473693
 20
179.53257700029491
 30
0.0
 11
261.7329177087272
 21
192.26049906165269
 31
0.0
  0
ARC
  5
634F
  8
AM_0
 10
258.19738380279438
 20
195.7960329675854
 30
0.0
 40
5.0
 50
315.0
 51
0.0
1001
GENIUS_GENOBJ-N-FIL_13
1002
{
1000
OWNER
1000
GEN
1002
}
1001
GENIUS_GENODEF_13
1002
{
1000
HIER
1070
     0
1002
}
1002
{
1000
MANEDIT
1070
     0
1002
}
1002
{
1000
NOSEL
1070
     0
1002
}
1002
{
1000
BEHIND
1070
     0
1002
}
1002
{
1000
OTHER
1070
     0
1002
}
1002
{
1000
REACTOR
1002
}
  0
LINE
  5
6350
  8
AM_0
 10
190.732917708727
 20
174.53257700029491
 30
0.0
 11
173.66184989686161
 21
191.6036448121603
 31
0.0
  0
LINE
  5
6351
  8
AM_0
 10
191.3897719582194
 20
179.53257700029511
 30
0.0
 11
178.6618498968615
 21
192.26049906165269
 31
0.0
  0
ARC
  5
6352
  8
AM_0
 10
194.92530586415199
 20
183.0681109062277
 30
0.0
 40
5.0
 50
225.0
 51
270.0
1001
GENIUS_GENOBJ-N-FIL_13
1002
{
1000
OWNER
1000
GEN
1002
}
1001
GENIUS_GENODEF_13
1002
{
1000
HIER
1070
     0
1002
}
1002
{
1000
MANEDIT
1070
     0
1002
}
1002
{
1000
NOSEL
1070
     0
1002
}
1002
{
1000
BEHIND
1070
     0
1002
}
1002
{
1000
OTHER
1070
     0
1002
}
1002
{
1000
REACTOR
1002
}
  0
CIRCLE
  5
6353
  8
AM_0
 10
177.1973838027925
 20
178.06811090622821
 30
0.0
 40
4.0
  0
LINE
  5
6354
  8
AM_0
 10
176.88588380279251
 20
180.34691931195249
 30
0.0
 11
177.5088838027925
 21
180.34691931195249
 31
0.0
  0
LINE
  5
6355
  8
AM_0
 10
176.88588380279251
 20
175.78930250050379
 30
0.0
 11
177.5088838027925
 21
175.78930250050379
 31
0.0
  0
LINE
  5
6356
  8
AM_0
 10
176.88588380279251
 20
180.34691931195249
 30
0.0
 11
176.88588380279251
 21
178.37961090622809
 31
0.0
  0
LINE
  5
6357
  8
AM_0
 10
176.88588380279251
 20
177.7566109062281
 30
0.0
 11
176.88588380279251
 21
175.78930250050379
 31
0.0
  0
LINE
  5
6358
  8
AM_0
 10
176.88588380279251
 20
177.7566109062281
 30
0.0
 11
174.91857539706811
 21
177.7566109062281
 31
0.0
  0
LINE
  5
6359
  8
AM_0
 10
176.88588380279251
 20
178.37961090622809
 30
0.0
 11
174.91857539706811
 21
178.37961090622809
 31
0.0
  0
LINE
  5
635A
  8
AM_0
 10
174.91857539706811
 20
177.7566109062281
 30
0.0
 11
174.91857539706811
 21
178.37961090622809
 31
0.0
  0
LINE
  5
635B
  8
AM_0
 10
177.5088838027925
 20
180.34691931195249
 30
0.0
 11
177.5088838027925
 21
178.37961090622809
 31
0.0
  0
LINE
  5
635C
  8
AM_0
 10
177.5088838027925
 20
177.7566109062281
 30
0.0
 11
177.5088838027925
 21
175.78930250050379
 31
0.0
  0
LINE
  5
635D
  8
AM_0
 10
179.47619220851681
 20
178.37961090622809
 30
0.0
 11
177.5088838027925
 21
178.37961090622809
 31
0.0
  0
LINE
  5
635E
  8
AM_0
 10
179.47619220851681
 20
177.7566109062281
 30
0.0
 11
177.5088838027925
 21
177.7566109062281
 31
0.0
  0
LINE
  5
635F
  8
AM_0
 10
179.47619220851681
 20
177.7566109062281
 30
0.0
 11
179.47619220851681
 21
178.37961090622809
 31
0.0
  0
CIRCLE
  5
6360
  8
AM_0
 10
263.19738380279603
 20
178.06811090622799
 30
0.0
 40
4.0
  0
LINE
  5
6361
  8
AM_0
 10
262.88588380279612
 20
180.34691931195229
 30
0.0
 11
263.50888380279599
 21
180.34691931195229
 31
0.0
  0
LINE
  5
6362
  8
AM_0
 10
262.88588380279612
 20
175.78930250050351
 30
0.0
 11
263.50888380279599
 21
175.78930250050351
 31
0.0
  0
LINE
  5
6363
  8
AM_0
 10
262.88588380279612
 20
180.34691931195229
 30
0.0
 11
262.88588380279612
 21
178.3796109062279
 31
0.0
  0
LINE
  5
6364
  8
AM_0
 10
262.88588380279612
 20
177.75661090622799
 30
0.0
 11
262.88588380279612
 21
175.78930250050351
 31
0.0
  0
LINE
  5
6365
  8
AM_0
 10
262.88588380279612
 20
177.75661090622799
 30
0.0
 11
260.91857539707172
 21
177.75661090622799
 31
0.0
  0
LINE
  5
6366
  8
AM_0
 10
262.88588380279612
 20
178.3796109062279
 30
0.0
 11
260.91857539707172
 21
178.3796109062279
 31
0.0
  0
LINE
  5
6367
  8
AM_0
 10
260.91857539707172
 20
177.75661090622799
 30
0.0
 11
260.91857539707172
 21
178.3796109062279
 31
0.0
  0
LINE
  5
6368
  8
AM_0
 10
263.50888380279599
 20
180.34691931195229
 30
0.0
 11
263.50888380279599
 21
178.3796109062279
 31
0.0
  0
LINE
  5
6369
  8
AM_0
 10
263.50888380279599
 20
177.75661090622799
 30
0.0
 11
263.50888380279599
 21
175.78930250050351
 31
0.0
  0
LINE
  5
636A
  8
AM_0
 10
265.47619220852039
 20
178.3796109062279
 30
0.0
 11
263.50888380279599
 21
178.3796109062279
 31
0.0
  0
LINE
  5
636B
  8
AM_0
 10
265.47619220852039
 20
177.75661090622799
 30
0.0
 11
263.50888380279599
 21
177.75661090622799
 31
0.0
  0
LINE
  5
636C
  8
AM_0
 10
265.47619220852039
 20
177.75661090622799
 30
0.0
 11
265.47619220852039
 21
178.3796109062279
 31
0.0
  0
LINE
  5
636D
  8
AM_0
 10
172.19738380279421
 20
188.06811090622779
 30
0.0
 11
171.19738380279429
 21
188.06811090622779
 31
0.0
  0
LINE
  5
636E
  8
AM_0
 10
172.19738380279421
 20
250.06811090622779
 30
0.0
 11
171.19738380279429
 21
250.06811090622779
 31
0.0
  0
LINE
  5
636F
  8
AM_0
 10
171.19738380279429
 20
188.06811090622779
 30
0.0
 11
171.19738380279429
 21
250.06811090622779
 31
0.0
  0
LINE
  5
6370
  8
ﾁｭｳｼﾝｾﾝ1
 10
177.1973838027923
 20
254.06811090622759
 30
0.0
 11
177.1973838027929
 21
266.06811090622762
 31
0.0
  0
LINE
  5
6371
  8
ﾁｭｳｼﾝｾﾝ1
 10
183.1973838027925
 20
260.06811090622739
 30
0.0
 11
171.19738380279259
 21
260.0681109062279
 31
0.0
  0
LINE
  5
6372
  8
ﾁｭｳｼﾝｾﾝ1
 10
177.1973838027921
 20
172.0681109062281
 30
0.0
 11
177.1973838027927
 21
184.06811090622821
 31
0.0
  0
LINE
  5
6373
  8
ﾁｭｳｼﾝｾﾝ1
 10
183.1973838027925
 20
178.0681109062279
 30
0.0
 11
171.1973838027925
 21
178.0681109062285
 31
0.0
  0
LINE
  5
6374
  8
ﾁｭｳｼﾝｾﾝ1
 10
263.19738380279568
 20
172.06811090622799
 30
0.0
 11
263.19738380279642
 21
184.06811090622799
 31
0.0
  0
LINE
  5
6375
  8
ﾁｭｳｼﾝｾﾝ1
 10
269.19738380279603
 20
178.06811090622779
 30
0.0
 11
257.19738380279603
 21
178.06811090622841
 31
0.0
  0
LINE
  5
6379
  8
AM_0
 10
135.09493154291201
 20
196.0681109062277
 30
0.0
 11
144.19738380279429
 21
196.0681109062277
 31
0.0
  0
ARC
  5
637A
  8
AM_0
 10
135.09493154291201
 20
186.0681109062277
 30
0.0
 40
10.0
 50
90.0
 51
149.99999999999869
1001
GENIUS_GENOBJ-N-FIL_13
1002
{
1000
OWNER
1000
GEN
1002
}
1001
GENIUS_GENODEF_13
1002
{
1000
HIER
1070
     0
1002
}
1002
{
1000
MANEDIT
1070
     0
1002
}
1002
{
1000
NOSEL
1070
     0
1002
}
1002
{
1000
BEHIND
1070
     0
1002
}
1002
{
1000
OTHER
1070
     0
1002
}
1002
{
1000
REACTOR
1002
}
  0
LINE
  5
637B
  8
AM_0
 10
137.4043326196705
 20
202.0681109062277
 30
0.0
 11
144.19738380279429
 21
202.06811090622759
 31
0.0
  0
ARC
  5
637C
  8
AM_0
 10
137.40433261967041
 20
182.06811090622759
 30
0.0
 40
20.0
 50
90.0
 51
149.99999999999869
1001
GENIUS_GENODEF_13
1002
{
1000
HIER
1070
     0
1002
}
1002
{
1000
MANEDIT
1070
     0
1002
}
1002
{
1000
NOSEL
1070
     0
1002
}
1002
{
1000
BEHIND
1070
     0
1002
}
1002
{
1000
OTHER
1070
     0
1002
}
1002
{
1000
REACTOR
1002
}
1001
GENIUS_GENOBJ-N-FIL_13
1002
{
1000
OWNER
1000
GEN
1002
}
  0
LINE
  5
637D
  8
AM_0
 10
161.07238380279529
 20
192.67805685010359
 30
0.0
 11
161.0830934073403
 21
192.46811090622771
 31
0.0
  0
LINE
  5
637E
  8
AM_0
 10
161.0830934073403
 20
192.46811090622771
 30
0.0
 11
161.1193987945413
 21
191.75639753234049
 31
0.0
  0
LINE
  5
637F
  8
AM_0
 10
161.07238380279529
 20
196.43538839774459
 30
0.0
 11
161.3184100254752
 21
192.46811090622771
 31
0.0
  0
LINE
  5
6380
  8
AM_0
 10
161.79071296682429
 20
192.46811090622771
 30
0.0
 11
161.39514245390029
 21
192.46811090622771
 31
0.0
  0
LINE
  5
6381
  8
AM_0
 10
161.2985499593612
 20
192.39399313949221
 30
0.0
 11
161.13730546136341
 21
191.79222867296409
 31
0.0
  0
LINE
  5
6382
  8
AM_0
 10
161.3184100254752
 20
192.46811090622771
 30
0.0
 11
161.2985499593612
 21
192.39399313949221
 31
0.0
  0
LINE
  5
6383
  8
AM_0
 10
159.57238380279529
 20
190.0681109062277
 30
0.0
 11
159.57238380279529
 21
190.36811090622871
 31
0.0
  0
LINE
  5
6384
  8
AM_0
 10
149.07238380279429
 20
193.5681109062277
 30
0.0
 11
149.07238380279429
 21
193.7356959653637
 31
0.0
  0
LINE
  5
6385
  8
AM_0
 10
149.07238380279429
 20
199.0681109062277
 30
0.0
 11
149.07238380279429
 21
193.7491358738186
 31
0.0
  0
LINE
  5
6386
  8
AM_0
 10
151.80657127578431
 20
190.5681109062258
 30
0.0
 11
151.57238380279131
 21
190.5681109062258
 31
0.0
  0
LINE
  5
6387
  8
AM_0
 10
151.42246063598509
 20
190.74801870639411
 30
0.0
 11
151.57238380279131
 21
190.5681109062258
 31
0.0
  0
LINE
  5
6388
  8
AM_0
 10
149.07238380279429
 20
193.5681109062277
 30
0.0
 11
149.18827316299539
 21
193.42904367398671
 31
0.0
  0
LINE
  5
6389
  8
AM_0
 10
159.57238380279529
 20
190.56811090622861
 30
0.0
 11
160.8723838027953
 21
190.56811090622861
 31
0.0
  0
LINE
  5
638A
  8
AM_0
 10
160.57238380279429
 20
190.53960717486271
 30
0.0
 11
160.57238380279529
 21
190.56811090622861
 31
0.0
  0
LINE
  5
638B
  8
AM_0
 10
151.57238380279219
 20
191.5359196980917
 30
0.0
 11
157.5723838027952
 21
191.5359196980917
 31
0.0
  0
LINE
  5
638C
  8
AM_0
 10
157.5723838027952
 20
191.0359196980917
 30
0.0
 11
151.57238380279131
 21
191.0359196980917
 31
0.0
  0
LINE
  5
638D
  8
AM_0
 10
151.57238380279131
 20
191.0359196980917
 30
0.0
 11
152.07238380279131
 21
190.5681109062277
 31
0.0
  0
LINE
  5
638E
  8
AM_0
 10
152.07238380279131
 20
191.0359196980917
 30
0.0
 11
151.57238380279219
 21
191.5359196980917
 31
0.0
  0
LINE
  5
638F
  8
AM_0
 10
151.57238380279219
 20
192.20689497406079
 30
0.0
 11
152.07238380279131
 21
191.5359196980917
 31
0.0
  0
LINE
  5
6390
  8
AM_0
 10
152.07238380279131
 20
192.25637321473769
 30
0.0
 11
151.57238380279219
 21
192.20689497406079
 31
0.0
  0
LINE
  5
6391
  8
AM_0
 10
157.5723838027952
 20
197.9779170711698
 30
0.0
 11
157.5723838027952
 21
199.0681109062277
 31
0.0
  0
LINE
  5
6392
  8
AM_0
 10
151.57238380279131
 20
198.0681109062277
 30
0.0
 11
157.5723838027952
 21
198.0681109062277
 31
0.0
  0
LINE
  5
6393
  8
AM_0
 10
152.07238380279131
 20
197.3798485977178
 30
0.0
 11
151.57238380279131
 21
198.0681109062277
 31
0.0
  0
LINE
  5
6394
  8
AM_0
 10
151.57238380279131
 20
198.0681109062277
 30
0.0
 11
152.0723838027923
 21
198.5681109062277
 31
0.0
  0
LINE
  5
6395
  8
AM_0
 10
151.57238380279219
 20
199.0681109062277
 30
0.0
 11
152.0723838027923
 21
198.5681109062277
 31
0.0
  0
LINE
  5
6396
  8
AM_0
 10
152.0723838027923
 20
198.5681109062277
 30
0.0
 11
157.5723838027952
 21
198.5681109062277
 31
0.0
  0
LINE
  5
6397
  8
AM_0
 10
152.07238380279131
 20
197.3798485977178
 30
0.0
 11
157.5723838027952
 21
197.3798485977178
 31
0.0
  0
LINE
  5
6398
  8
AM_0
 10
152.07238380279131
 20
192.25637321473769
 30
0.0
 11
157.5723838027952
 21
192.2563732147388
 31
0.0
  0
LINE
  5
6399
  8
AM_0
 10
160.57238380279429
 20
198.61811090622871
 30
0.0
 11
160.57238380279529
 21
199.0681109062277
 31
0.0
  0
LINE
  5
639A
  8
AM_0
 10
159.57238380279529
 20
190.36811090622871
 30
0.0
 11
159.57238380279529
 21
199.0681109062298
 31
0.0
  0
LINE
  5
639B
  8
AM_0
 10
160.27238380279431
 20
192.11060621819581
 30
0.0
 11
159.57238380279529
 21
192.11060621819581
 31
0.0
  0
LINE
  5
639C
  8
AM_0
 10
160.57238380279429
 20
191.4054953609058
 30
0.0
 11
160.57238380279429
 21
191.81060621819569
 31
0.0
  0
LINE
  5
639D
  8
AM_0
 10
159.57238380279529
 20
191.10549536090579
 30
0.0
 11
160.27238380279431
 21
191.10549536090579
 31
0.0
  0
LINE
  5
639E
  8
AM_0
 10
160.27238380279431
 20
195.4842064035968
 30
0.0
 11
159.57238380279529
 21
195.4842064035968
 31
0.0
  0
LINE
  5
639F
  8
AM_0
 10
160.57238380279429
 20
194.38429013730479
 30
0.0
 11
160.57238380279429
 21
195.1842064035967
 31
0.0
  0
LINE
  5
63A0
  8
AM_0
 10
159.57238380279529
 20
194.08429013730469
 30
0.0
 11
160.27238380279431
 21
194.08429013730469
 31
0.0
  0
LINE
  5
63A1
  8
AM_0
 10
159.57238380279529
 20
198.3181109062277
 30
0.0
 11
160.27238380279431
 21
198.3181109062277
 31
0.0
  0
LINE
  5
63A2
  8
AM_0
 10
161.07238380279529
 20
199.06811090622759
 30
0.0
 11
161.07238380279529
 21
190.7681109062288
 31
0.0
  0
LINE
  5
63A3
  8
AM_0
 10
157.77238380279431
 20
190.0681109062277
 30
0.0
 11
159.57238380279529
 21
190.0681109062277
 31
0.0
  0
LINE
  5
63A4
  8
AM_0
 10
149.18827316299539
 20
193.42904367398671
 30
0.0
 11
151.42246063598509
 21
190.74801870639411
 31
0.0
  0
LINE
  5
63A5
  8
AM_0
 10
160.30223491850089
 20
190.2410960177998
 30
0.0
 11
159.57238380279529
 21
190.1681109062288
 31
0.0
  0
LINE
  5
63A6
  8
AM_0
 10
157.3723838027953
 20
190.5681109062277
 30
0.0
 11
151.80657127578431
 21
190.5681109062258
 31
0.0
  0
LINE
  5
63A7
  8
AM_0
 10
157.5723838027952
 20
197.9779170711698
 30
0.0
 11
157.5723838027952
 21
190.36811090622771
 31
0.0
  0
LINE
  5
63A8
  8
AM_0
 10
157.5723838027952
 20
190.36811090622771
 30
0.0
 11
157.57238380279429
 21
190.26811090622769
 31
0.0
  0
LINE
  5
63A9
  8
AM_0
 10
165.19738380279429
 20
190.76811090622789
 30
0.0
 11
165.19738380279429
 21
197.3798485977178
 31
0.0
  0
LINE
  5
63AA
  8
AM_0
 10
161.69738380279529
 20
199.06811090622759
 30
0.0
 11
162.0701376608053
 21
191.75197255870771
 31
0.0
  0
LINE
  5
63AB
  8
AM_0
 10
162.24641917257031
 20
199.06811090622759
 30
0.0
 11
162.6193987945413
 21
191.75639753234049
 31
0.0
  0
LINE
  5
63AC
  8
AM_0
 10
161.88730546136341
 20
192.3939931394913
 30
0.0
 11
161.86744539525029
 21
192.46811090622771
 31
0.0
  0
LINE
  5
63AD
  8
AM_0
 10
162.8184100254752
 20
192.46811090622771
 30
0.0
 11
162.7985499593612
 21
192.39399313949221
 31
0.0
  0
LINE
  5
63AE
  8
AM_0
 10
162.54071296682429
 20
191.71811090622759
 30
0.0
 11
162.14514245390029
 21
191.71811090622759
 31
0.0
  0
LINE
  5
63AF
  8
AM_0
 10
162.04854995936111
 20
191.79222867296431
 30
0.0
 11
161.88730546136341
 21
192.3939931394913
 31
0.0
  0
LINE
  5
63B0
  8
AM_0
 10
162.7985499593612
 20
192.39399313949221
 30
0.0
 11
162.63730546136341
 21
191.79222867296409
 31
0.0
  0
LINE
  5
63B1
  8
AM_0
 10
161.4581538664473
 20
199.06811090622759
 30
0.0
 11
161.86744539525029
 21
192.46811090622771
 31
0.0
  0
LINE
  5
63B2
  8
AM_0
 10
162.40911849667231
 20
199.06811090622759
 30
0.0
 11
162.8184100254752
 21
192.46811090622771
 31
0.0
  0
LINE
  5
63B3
  8
AM_0
 10
162.89514245390029
 20
192.46811090622771
 30
0.0
 11
164.69738380279429
 21
192.46811090622771
 31
0.0
  0
LINE
  5
63B4
  8
AM_0
 10
165.19738380279429
 20
197.3798485977178
 30
0.0
 11
165.19738380279429
 21
199.06811090622861
 31
0.0
  0
LINE
  5
63B5
  8
AM_0
 10
165.39738380279431
 20
190.56811090622759
 30
0.0
 11
168.9973838027943
 21
190.56811090622759
 31
0.0
  0
LINE
  5
63B6
  8
AM_0
 10
168.9973838027943
 20
197.3798485977178
 30
0.0
 11
165.19738380279429
 21
197.3798485977178
 31
0.0
  0
LINE
  5
63B7
  8
AM_0
 10
165.19738380279429
 20
192.2563732147388
 30
0.0
 11
168.9973838027943
 21
192.2563732147388
 31
0.0
  0
LINE
  5
63B8
  8
AM_0
 10
144.19738380279429
 20
199.0681109062277
 30
0.0
 11
144.19738380279429
 21
194.8181109062277
 31
0.0
  0
LINE
  5
63B9
  8
AM_0
 10
149.07238380279429
 20
194.76697454259181
 30
0.0
 11
144.19738380279429
 21
194.8181109062277
 31
0.0
  0
LINE
  5
63BA
  8
AM_0
 10
144.19738380279429
 20
203.3181109062279
 30
0.0
 11
149.07238380279429
 21
203.36924726986479
 31
0.0
  0
LINE
  5
63BB
  8
AM_0
 10
144.19738380279429
 20
203.3181109062279
 30
0.0
 11
144.19738380279429
 21
199.0681109062277
 31
0.0
  0
LINE
  5
63BC
  8
AM_0
 10
168.9973838027943
 20
205.8798485977178
 30
0.0
 11
165.19738380279429
 21
205.8798485977178
 31
0.0
  0
LINE
  5
63BD
  8
AM_0
 10
165.19738380279429
 20
200.7563732147388
 30
0.0
 11
168.9973838027943
 21
200.7563732147388
 31
0.0
  0
LINE
  5
63BE
  8
AM_0
 10
168.9973838027943
 20
207.5681109062277
 30
0.0
 11
165.39738380279431
 21
207.5681109062277
 31
0.0
  0
LINE
  5
63BF
  8
AM_0
 10
165.19738380279429
 20
199.06811090622861
 30
0.0
 11
165.19738380279429
 21
200.7563732147388
 31
0.0
  0
LINE
  5
63C0
  8
AM_0
 10
164.69738380279429
 20
205.66811090622781
 30
0.0
 11
162.1491162312204
 21
205.66811090622781
 31
0.0
  0
LINE
  5
63C1
  8
AM_0
 10
162.07238380279429
 20
205.66811090622781
 30
0.0
 11
162.40911849667231
 21
199.06811090622759
 31
0.0
  0
LINE
  5
63C2
  8
AM_0
 10
161.1214191725694
 20
205.66811090622781
 30
0.0
 11
161.4581538664473
 21
199.06811090622759
 31
0.0
  0
LINE
  5
63C3
  8
AM_0
 10
161.89127923868341
 20
206.3439931394912
 30
0.0
 11
162.0525237366812
 21
205.74222867296419
 31
0.0
  0
LINE
  5
63C4
  8
AM_0
 10
161.14127923868341
 20
205.74222867296419
 30
0.0
 11
161.3025237366812
 21
206.34399313949109
 31
0.0
  0
LINE
  5
63C5
  8
AM_0
 10
161.3991162312204
 20
206.4181109062277
 30
0.0
 11
161.7946867441444
 21
206.4181109062277
 31
0.0
  0
LINE
  5
63C6
  8
AM_0
 10
162.0525237366812
 20
205.74222867296419
 30
0.0
 11
162.07238380279429
 21
205.66811090622781
 31
0.0
  0
LINE
  5
63C7
  8
AM_0
 10
161.1214191725694
 20
205.66811090622781
 30
0.0
 11
161.14127923868341
 21
205.74222867296419
 31
0.0
  0
LINE
  5
63C8
  8
AM_0
 10
161.87337257186141
 20
206.3798242801148
 30
0.0
 11
162.24641917257031
 21
199.06811090622759
 31
0.0
  0
LINE
  5
63C9
  8
AM_0
 10
161.3241114381253
 20
206.38424925374869
 30
0.0
 11
161.69738380279529
 21
199.06811090622759
 31
0.0
  0
LINE
  5
63CA
  8
AM_0
 10
165.19738380279429
 20
200.7563732147388
 30
0.0
 11
165.19738380279429
 21
207.36811090622851
 31
0.0
  0
LINE
  5
63CB
  8
AM_0
 10
157.57238380279429
 20
207.86811090622871
 30
0.0
 11
157.5723838027952
 21
207.7681109062288
 31
0.0
  0
LINE
  5
63CC
  8
AM_0
 10
157.5723838027952
 20
207.7681109062288
 30
0.0
 11
157.5723838027952
 21
200.15830474128671
 31
0.0
  0
LINE
  5
63CD
  8
AM_0
 10
151.80657127578431
 20
207.5681109062308
 30
0.0
 11
157.37238380279541
 21
207.5681109062287
 31
0.0
  0
LINE
  5
63CE
  8
AM_0
 10
159.57238380279529
 20
207.96811090622771
 30
0.0
 11
160.30223491850089
 21
207.89512579465679
 31
0.0
  0
LINE
  5
63CF
  8
AM_0
 10
151.42246063598529
 20
207.38820310606241
 30
0.0
 11
149.1882731629955
 21
204.7071781384698
 31
0.0
  0
LINE
  5
63D0
  8
AM_0
 10
159.57238380279529
 20
208.06811090622779
 30
0.0
 11
157.77238380279431
 21
208.06811090622779
 31
0.0
  0
LINE
  5
63D1
  8
AM_0
 10
161.07238380279529
 20
207.3681109062278
 30
0.0
 11
161.07238380279529
 21
199.06811090622759
 31
0.0
  0
LINE
  5
63D2
  8
AM_0
 10
160.27238380279431
 20
199.8181109062277
 30
0.0
 11
159.57238380279529
 21
199.8181109062277
 31
0.0
  0
LINE
  5
63D3
  8
AM_0
 10
160.27238380279431
 20
204.05193167515171
 30
0.0
 11
159.57238380279529
 21
204.05193167515171
 31
0.0
  0
LINE
  5
63D4
  8
AM_0
 10
160.57238380279429
 20
202.95201540885981
 30
0.0
 11
160.57238380279429
 21
203.7519316751517
 31
0.0
  0
LINE
  5
63D5
  8
AM_0
 10
159.57238380279529
 20
202.65201540885971
 30
0.0
 11
160.27238380279431
 21
202.65201540885971
 31
0.0
  0
LINE
  5
63D6
  8
AM_0
 10
160.27238380279431
 20
207.03072645155081
 30
0.0
 11
159.57238380279529
 21
207.03072645155081
 31
0.0
  0
LINE
  5
63D7
  8
AM_0
 10
160.57238380279429
 20
206.32561559426071
 30
0.0
 11
160.57238380279429
 21
206.73072645155079
 31
0.0
  0
LINE
  5
63D8
  8
AM_0
 10
159.57238380279529
 20
206.02561559426081
 30
0.0
 11
160.27238380279431
 21
206.02561559426081
 31
0.0
  0
LINE
  5
63D9
  8
AM_0
 10
159.57238380279529
 20
199.0681109062298
 30
0.0
 11
159.57238380279529
 21
207.7681109062278
 31
0.0
  0
LINE
  5
63DA
  8
AM_0
 10
160.57238380279529
 20
199.0681109062277
 30
0.0
 11
160.57238380279429
 21
199.51811090622769
 31
0.0
  0
LINE
  5
63DB
  8
AM_0
 10
157.5723838027952
 20
205.8798485977178
 30
0.0
 11
152.07238380279131
 21
205.8798485977178
 31
0.0
  0
LINE
  5
63DC
  8
AM_0
 10
157.5723838027952
 20
200.7563732147388
 30
0.0
 11
152.07238380279131
 21
200.75637321473781
 31
0.0
  0
LINE
  5
63DD
  8
AM_0
 10
157.5723838027952
 20
199.5681109062277
 30
0.0
 11
152.0723838027923
 21
199.5681109062277
 31
0.0
  0
LINE
  5
63DE
  8
AM_0
 10
152.0723838027923
 20
199.5681109062277
 30
0.0
 11
151.57238380279219
 21
199.0681109062277
 31
0.0
  0
LINE
  5
63DF
  8
AM_0
 10
152.0723838027923
 20
199.5681109062277
 30
0.0
 11
151.57238380279131
 21
200.06811090622779
 31
0.0
  0
LINE
  5
63E0
  8
AM_0
 10
151.57238380279131
 20
200.06811090622779
 30
0.0
 11
152.07238380279131
 21
200.75637321473781
 31
0.0
  0
LINE
  5
63E1
  8
AM_0
 10
157.5723838027952
 20
200.06811090622779
 30
0.0
 11
151.57238380279131
 21
200.06811090622779
 31
0.0
  0
LINE
  5
63E2
  8
AM_0
 10
157.5723838027952
 20
199.0681109062277
 30
0.0
 11
157.5723838027952
 21
200.15830474128671
 31
0.0
  0
LINE
  5
63E3
  8
AM_0
 10
151.57238380279239
 20
205.9293268383957
 30
0.0
 11
152.07238380279131
 21
205.8798485977178
 31
0.0
  0
LINE
  5
63E4
  8
AM_0
 10
152.07238380279131
 20
206.60030211436481
 30
0.0
 11
151.57238380279239
 21
205.9293268383957
 31
0.0
  0
LINE
  5
63E5
  8
AM_0
 10
151.57238380279239
 20
206.60030211436481
 30
0.0
 11
152.07238380279131
 21
207.10030211436481
 31
0.0
  0
LINE
  5
63E6
  8
AM_0
 10
152.07238380279131
 20
207.5681109062279
 30
0.0
 11
151.57238380279131
 21
207.10030211436481
 31
0.0
  0
LINE
  5
63E7
  8
AM_0
 10
151.57238380279131
 20
207.10030211436481
 30
0.0
 11
157.5723838027952
 21
207.10030211436481
 31
0.0
  0
LINE
  5
63E8
  8
AM_0
 10
157.5723838027952
 20
206.60030211436481
 30
0.0
 11
151.57238380279239
 21
206.60030211436481
 31
0.0
  0
LINE
  5
63E9
  8
AM_0
 10
160.57238380279529
 20
207.5681109062279
 30
0.0
 11
160.57238380279429
 21
207.59661463759369
 31
0.0
  0
LINE
  5
63EA
  8
AM_0
 10
160.87238380279541
 20
207.5681109062277
 30
0.0
 11
159.57238380279529
 21
207.5681109062279
 31
0.0
  0
LINE
  5
63EB
  8
AM_0
 10
149.1882731629955
 20
204.7071781384698
 30
0.0
 11
149.07238380279429
 21
204.5681109062277
 31
0.0
  0
LINE
  5
63EC
  8
AM_0
 10
151.57238380279131
 20
207.5681109062308
 30
0.0
 11
151.42246063598529
 21
207.38820310606241
 31
0.0
  0
LINE
  5
63ED
  8
AM_0
 10
151.57238380279131
 20
207.5681109062308
 30
0.0
 11
151.80657127578431
 21
207.5681109062308
 31
0.0
  0
LINE
  5
63EE
  8
AM_0
 10
149.07238380279429
 20
204.3870859386378
 30
0.0
 11
149.07238380279429
 21
199.0681109062277
 31
0.0
  0
LINE
  5
63EF
  8
AM_0
 10
149.07238380279429
 20
204.40052584709181
 30
0.0
 11
149.07238380279429
 21
204.5681109062277
 31
0.0
  0
LINE
  5
63F0
  8
AM_0
 10
159.57238380279529
 20
207.7681109062278
 30
0.0
 11
159.57238380279529
 21
208.06811090622779
 31
0.0
  0
ARC
  5
63F1
  8
AM_0
 10
161.79071296682429
 20
192.3681109062278
 30
0.0
 40
0.0999999999999643
 50
15.000195006510941
 51
90.0
  0
ARC
  5
63F2
  8
AM_0
 10
158.38488380279131
 20
194.8181109062277
 30
0.0
 40
6.8125000000000382
 50
157.91171016506121
 51
202.08828983493879
  0
ARC
  5
63F3
  8
AM_0
 10
168.9973838027943
 20
190.3681109062278
 30
0.0
 40
0.1999999999999993
 50
0.0
 51
90.0
  0
ARC
  5
63F4
  8
AM_0
 10
168.9973838027943
 20
207.76811090622769
 30
0.0
 40
0.2000000000000028
 50
270.0
 51
0.0
  0
ARC
  5
63F5
  8
AM_0
 10
158.38488380279131
 20
203.3181109062279
 30
0.0
 40
6.8125000000000382
 50
157.91171016506121
 51
202.08828983493879
  0
ARC
  5
63F6
  8
AM_0
 10
161.04071296682429
 20
191.8181109062277
 30
0.0
 40
0.1000000000000547
 50
288.4639767572973
 51
344.99980499348908
  0
ARC
  5
63F7
  8
AM_0
 10
161.39514245390029
 20
192.36811090622871
 30
0.0
 40
0.1000000000000014
 50
90.0
 51
164.9998049934874
  0
ARC
  5
63F8
  8
AM_0
 10
151.80657127578431
 20
191.0681109062258
 30
0.0
 40
0.499999999999975
 50
219.8055710921862
 51
270.0
  0
ARC
  5
63F9
  8
AM_0
 10
149.57238380279429
 20
193.74913587381869
 30
0.0
 40
0.5
 50
180.00000000000981
 51
219.80557109222659
  0
ARC
  5
63FA
  8
AM_0
 10
160.27238380279431
 20
191.8106062181958
 30
0.0
 40
0.3000000000000007
 50
0.0
 51
90.0
  0
ARC
  5
63FB
  8
AM_0
 10
160.27238380279431
 20
191.4054953609058
 30
0.0
 40
0.3000000000000043
 50
270.0
 51
0.0
  0
ARC
  5
63FC
  8
AM_0
 10
160.27238380279431
 20
195.1842064035967
 30
0.0
 40
0.3000000000000007
 50
0.0
 51
90.0
  0
ARC
  5
63FD
  8
AM_0
 10
160.27238380279431
 20
194.38429013730479
 30
0.0
 40
0.2999999999999971
 50
270.0
 51
0.0
  0
ARC
  5
63FE
  8
AM_0
 10
160.27238380279431
 20
198.61811090622871
 30
0.0
 40
0.2999999999999971
 50
270.0
 51
0.0
  0
ARC
  5
63FF
  8
AM_0
 10
160.27238380279431
 20
190.53960717486279
 30
0.0
 40
0.3000000000000302
 50
275.71059313755632
 51
0.0
  0
ARC
  5
6400
  8
AM_0
 10
157.77238380279431
 20
190.26811090622769
 30
0.0
 40
0.1999999999999993
 50
180.0
 51
270.0
  0
ARC
  5
6401
  8
AM_0
 10
160.8723838027953
 20
190.7681109062288
 30
0.0
 40
0.1999999999999957
 50
270.0
 51
0.0
  0
ARC
  5
6402
  8
AM_0
 10
157.3723838027953
 20
190.3681109062278
 30
0.0
 40
0.1999999999999993
 50
359.99999999997061
 51
90.0
  0
ARC
  5
6403
  8
AM_0
 10
162.89514245390029
 20
192.36811090622871
 30
0.0
 40
0.1000000000000014
 50
90.0
 51
164.9998049934874
  0
ARC
  5
6404
  8
AM_0
 10
162.54071296682429
 20
191.8181109062277
 30
0.0
 40
0.1000000000000014
 50
270.0
 51
344.99980499348908
  0
ARC
  5
6405
  8
AM_0
 10
162.14514245390029
 20
191.8181109062277
 30
0.0
 40
0.1000000000000311
 50
195.0001950064478
 51
270.0
  0
ARC
  5
6406
  8
AM_0
 10
164.69738380279429
 20
191.96811090622771
 30
0.0
 40
0.5
 50
359.99999999997721
 51
90.0
  0
ARC
  5
6407
  8
AM_0
 10
168.9973838027943
 20
197.17984859771769
 30
0.0
 40
0.1999999999999993
 50
0.0
 51
90.0
  0
ARC
  5
6408
  8
AM_0
 10
168.9973838027943
 20
192.4563732147387
 30
0.0
 40
0.2000000000000028
 50
270.0
 51
0.0
  0
ARC
  5
6409
  8
AM_0
 10
165.39738380279431
 20
190.76811090622761
 30
0.0
 40
0.1999999999999993
 50
179.99999999994131
 51
270.0
  0
ARC
  5
640A
  8
AM_0
 10
165.39738380279431
 20
207.36811090622871
 30
0.0
 40
0.2000000000000028
 50
90.0
 51
180.00000000005531
  0
ARC
  5
640B
  8
AM_0
 10
168.9973838027943
 20
205.67984859771781
 30
0.0
 40
0.1999999999999993
 50
0.0
 51
90.0
  0
ARC
  5
640C
  8
AM_0
 10
168.9973838027943
 20
200.95637321473771
 30
0.0
 40
0.2000000000000028
 50
270.0
 51
0.0
  0
ARC
  5
640D
  8
AM_0
 10
164.69738380279429
 20
206.1681109062277
 30
0.0
 40
0.5
 50
270.0
 51
0.0000000000227982
  0
ARC
  5
640E
  8
AM_0
 10
161.39911623122029
 20
206.31811090622779
 30
0.0
 40
0.1000000000000014
 50
90.0
 51
164.9998049935522
  0
ARC
  5
640F
  8
AM_0
 10
161.79468674414429
 20
206.31811090622779
 30
0.0
 40
0.0999999999999608
 50
15.000195006512509
 51
90.0
  0
ARC
  5
6410
  8
AM_0
 10
162.14911623122029
 20
205.7681109062278
 30
0.0
 40
0.0999999999999608
 50
195.00019500651251
 51
270.0
  0
ARC
  5
6411
  8
AM_0
 10
161.04468674414429
 20
205.7681109062278
 30
0.0
 40
0.0999999999999803
 50
286.0794827387204
 51
344.99980499348749
  0
ARC
  5
6412
  8
AM_0
 10
157.3723838027953
 20
207.7681109062288
 30
0.0
 40
0.1999999999999957
 50
270.0
 51
0.000000000029312
  0
ARC
  5
6413
  8
AM_0
 10
160.8723838027953
 20
207.3681109062278
 30
0.0
 40
0.1999999999999993
 50
0.0
 51
90.0
  0
ARC
  5
6414
  8
AM_0
 10
157.77238380279431
 20
207.86811090622871
 30
0.0
 40
0.2000000000000028
 50
90.0
 51
180.0
  0
ARC
  5
6415
  8
AM_0
 10
160.27238380279431
 20
207.5966146375938
 30
0.0
 40
0.3000000000000007
 50
0.0
 51
84.289406862443698
  0
ARC
  5
6416
  8
AM_0
 10
160.27238380279431
 20
199.51811090622769
 30
0.0
 40
0.3000000000000007
 50
0.0
 51
90.0
  0
ARC
  5
6417
  8
AM_0
 10
160.27238380279431
 20
203.75193167515181
 30
0.0
 40
0.3000000000000007
 50
0.0
 51
90.0
  0
ARC
  5
6418
  8
AM_0
 10
160.27238380279431
 20
202.95201540885981
 30
0.0
 40
0.2999999999999971
 50
270.0
 51
0.0
  0
ARC
  5
6419
  8
AM_0
 10
160.27238380279431
 20
206.73072645155079
 30
0.0
 40
0.3000000000000007
 50
0.0
 51
90.0
  0
ARC
  5
641A
  8
AM_0
 10
160.27238380279431
 20
206.32561559426071
 30
0.0
 40
0.3000000000000043
 50
270.0
 51
0.0
  0
ARC
  5
641B
  8
AM_0
 10
149.57238380279429
 20
204.3870859386378
 30
0.0
 40
0.5000000000000059
 50
140.1944289077733
 51
179.99999999998701
  0
ARC
  5
641C
  8
AM_0
 10
151.80657127578431
 20
207.0681109062308
 30
0.0
 40
0.5
 50
90.0
 51
140.1944289078138
  0
LINE
  5
641D
  8
AM_0
 10
169.39738380279431
 20
190.0681109062277
 30
0.0
 11
171.19738380279429
 21
190.0681109062277
 31
0.0
  0
LINE
  5
641E
  8
AM_0
 10
169.19738380279429
 20
190.26811090622761
 30
0.0
 11
169.19738380279429
 21
207.86811090622871
 31
0.0
  0
LINE
  5
641F
  8
AM_0
 10
171.19738380279429
 20
208.0681109062277
 30
0.0
 11
169.39738380279431
 21
208.06811090622779
 31
0.0
  0
ARC
  5
6420
  8
AM_0
 10
169.39738380279431
 20
190.26811090622761
 30
0.0
 40
0.1999999999999993
 50
180.0
 51
270.0
  0
ARC
  5
6421
  8
AM_0
 10
169.39738380279431
 20
207.86811090622871
 30
0.0
 40
0.2000000000000028
 50
90.0
 51
180.0
  0
LINE
  5
6422
  8
ﾁｭｳｼﾝｾﾝ1
 10
141.19738380279429
 20
234.0681109062277
 30
0.0
 11
174.49532994128461
 21
234.0681109062277
 31
0.0
  0
POLYLINE
  5
6423
  8
AM_0
 66
     1
 10
0.0
 20
0.0
 30
0.0
  0
VERTEX
  5
6424
  8
AM_0
  6
CONTINUOUS
 10
165.560629549487
 20
222.0681109062279
 30
0.0
  0
VERTEX
  5
6425
  8
AM_0
  6
CONTINUOUS
 10
165.5655538027944
 20
215.3356339062278
 30
0.0
 42
-1.0
  0
SEQEND
  5
6426
  8
AM_0
  0
LINE
  5
6427
  8
AM_0
 10
171.19738380279429
 20
215.06811190622761
 30
0.0
 11
165.5627938027942
 21
215.06811190622781
 31
0.0
  0
LINE
  5
6428
  8
AM_0
 10
171.19738380279429
 20
213.0681109062277
 30
0.0
 11
165.5627938027942
 21
213.0681109062277
 31
0.0
  0
ARC
  5
6429
  8
AM_0
 10
164.46629380279421
 20
214.06420390622779
 30
0.0
 40
1.26892095
 50
90.00000299999769
 51
270.0
  0
ARC
  5
642A
  8
AM_0
 10
165.74675380279419
 20
214.0681099062279
 30
0.0
 40
1.0000000199999981
 50
90.00000299999769
 51
270.0
  0
LINE
  5
642B
  8
AM_0
 10
164.46629380279421
 20
215.33312590622771
 30
0.0
 11
171.19738380279429
 21
215.33312590622771
 31
0.0
  0
LINE
  5
642C
  8
AM_0
 10
164.46629380279421
 20
212.79528190622781
 30
0.0
 11
171.19738380279429
 21
212.79528190622781
 31
0.0
  0
POLYLINE
  5
642D
  8
AM_0
 66
     1
 10
0.0
 20
0.0
 30
0.0
  0
VERTEX
  5
642E
  8
AM_0
 10
165.60614380279421
 20
212.79877990622791
 30
0.0
  0
VERTEX
  5
642F
  8
AM_0
 10
165.81691484770121
 20
207.5681109062277
 30
0.0
 42
-1.0
  0
SEQEND
  5
6430
  8
AM_0
  0
LINE
  5
6431
  8
AM_0
 10
147.69739380279509
 20
271.12951441499968
 30
0.0
 11
147.69739380279481
 21
245.0681109062279
 31
0.0
  0
LINE
  5
6432
  8
AM_0
 10
138.69739380279429
 20
273.06811090622762
 30
0.0
 11
138.6973938027941
 21
202.06811090622759
 31
0.0
  0
LINE
  5
6433
  8
AM_0
 10
138.69739380279429
 20
196.0681109062277
 30
0.0
 11
138.69739380279429
 21
165.0681109062277
 31
0.0
  0
LINE
  5
6434
  8
AM_0
 10
138.69739380279429
 20
273.06811090622779
 30
0.0
 11
155.69739380279429
 21
272.06811090622767
 31
0.0
  0
LINE
  5
6435
  8
AM_0
 10
138.69739380279429
 20
165.06811090622779
 30
0.0
 11
155.69739380279429
 21
166.06811090622779
 31
0.0
  0
LINE
  5
6436
  8
AM_0
 10
147.69739380279501
 20
262.66201410431921
 30
0.0
 11
155.69739380279421
 21
262.66201410431921
 31
0.0
  0
LINE
  5
6437
  8
AM_0
 10
147.69739380279509
 20
271.12951441499968
 30
0.0
 11
155.69739380279429
 21
271.12951441499968
 31
0.0
  0
LINE
  5
6438
  8
AM_0
 10
144.19739380279481
 20
253.7089838714877
 30
0.0
 11
147.69739380279501
 21
253.7089838714877
 31
0.0
  0
LINE
  5
6439
  8
AM_0
 10
144.19739380279481
 20
262.20898387148787
 30
0.0
 11
147.69739380279501
 21
262.20898387148787
 31
0.0
  0
LINE
  5
643A
  8
AM_0
 10
143.69739380279501
 20
261.70898387148787
 30
0.0
 11
143.69739380279501
 21
254.2089838714877
 31
0.0
  0
ARC
  5
643B
  8
AM_0
 10
144.19739380279481
 20
261.70898387148787
 30
0.0
 40
0.5
 50
90.0
 51
180.0
  0
ARC
  5
643C
  8
AM_0
 10
144.19739380279481
 20
254.2089838714877
 30
0.0
 40
0.5
 50
180.0
 51
270.0
  0
LINE
  5
643D
  8
AM_0
 10
138.69739380279429
 20
261.34030539936782
 30
0.0
 11
143.69739380279501
 21
261.34030539936788
 31
0.0
  0
LINE
  5
643E
  8
AM_0
 10
138.69739380279429
 20
251.6052229010719
 30
0.0
 11
147.69739380279501
 21
251.6052229010719
 31
0.0
  0
LINE
  5
643F
  8
AM_0
 10
147.69739380279509
 20
167.0067073974555
 30
0.0
 11
147.69739380279481
 21
194.78139751461961
 31
0.0
  0
LINE
  5
6440
  8
AM_0
 10
147.69739380279501
 20
175.4742077081363
 30
0.0
 11
155.69739380279421
 21
175.4742077081363
 31
0.0
  0
LINE
  5
6441
  8
AM_0
 10
147.69739380279509
 20
167.0067073974555
 30
0.0
 11
155.69739380279429
 21
167.0067073974555
 31
0.0
  0
LINE
  5
6442
  8
AM_0
 10
144.19739380279481
 20
184.42723794096759
 30
0.0
 11
147.69739380279501
 21
184.42723794096759
 31
0.0
  0
LINE
  5
6443
  8
AM_0
 10
144.19739380279481
 20
175.92723794096759
 30
0.0
 11
147.69739380279501
 21
175.92723794096759
 31
0.0
  0
LINE
  5
6444
  8
AM_0
 10
143.69739380279501
 20
176.42723794096759
 30
0.0
 11
143.69739380279501
 21
183.92723794096759
 31
0.0
  0
ARC
  5
6445
  8
AM_0
 10
144.19739380279481
 20
176.42723794096759
 30
0.0
 40
0.5
 50
180.0
 51
270.0
  0
ARC
  5
6446
  8
AM_0
 10
144.19739380279481
 20
183.92723794096759
 30
0.0
 40
0.5
 50
90.0
 51
180.0
  0
LINE
  5
6447
  8
AM_0
 10
138.69739380279429
 20
176.79591641308761
 30
0.0
 11
143.69739380279501
 21
176.7959164130875
 31
0.0
  0
LINE
  5
6448
  8
AM_0
 10
138.69739380279429
 20
186.53099891138351
 30
0.0
 11
147.69739380279501
 21
186.53099891138351
 31
0.0
  0
LINE
  5
6449
  8
AM_0
 10
103.78680905145841
 20
255.05852175115371
 30
0.0
 11
103.78680905145841
 21
248.5469168521951
 31
0.0
  0
LINE
  5
644A
  8
AM_0
 10
100.697393802794
 20
208.0681109062277
 30
0.0
 11
100.697393802794
 21
202.5681109062277
 31
0.0
  0
LINE
  5
644B
  8
AM_0
 10
106.197393802794
 20
215.5681109062277
 30
0.0
 11
106.197393802794
 21
222.56811090622759
 31
0.0
  0
LINE
  5
644C
  8
AM_0
 10
117.8973938027941
 20
202.5681109062277
 30
0.0
 11
100.697393802794
 21
202.5681109062277
 31
0.0
  0
LINE
  5
644D
  8
AM_0
 10
132.69739380279401
 20
165.06811090622759
 30
0.0
 11
132.69739380279401
 21
195.7764481884152
 31
0.0
  0
LINE
  5
644E
  8
AM_0
 10
132.69739380279401
 20
201.50633939995069
 30
0.0
 11
132.69739380279401
 21
273.06811090622779
 31
0.0
  0
LINE
  5
644F
  8
AM_0
 10
100.697393802794
 20
217.5681109062277
 30
0.0
 11
101.5973938027939
 21
217.5681109062277
 31
0.0
  0
LINE
  5
6450
  8
AM_0
 10
118.197393802794
 20
210.5681109062277
 30
0.0
 11
118.197393802794
 21
213.1526205908317
 31
0.0
  0
LINE
  5
6451
  8
AM_0
 10
98.497393802793795
 20
220.5681109062277
 30
0.0
 11
98.497393802793795
 21
217.5681109062277
 31
0.0
  0
LINE
  5
6452
  8
AM_0
 10
101.5973938027939
 20
217.29575917164411
 30
0.0
 11
101.597393802794
 21
220.8404626408115
 31
0.0
  0
LINE
  5
6453
  8
AM_0
 10
98.197393802793954
 20
220.26811090622769
 30
0.0
 11
101.5973938027941
 21
220.26811090622769
 31
0.0
  0
LINE
  5
6454
  8
AM_0
 10
105.5973938027939
 20
216.68654104582049
 30
0.0
 11
105.5973938027939
 21
215.5681109062277
 31
0.0
  0
LINE
  5
6455
  8
AM_0
 10
105.5973938027939
 20
217.5681109062277
 30
0.0
 11
105.5973938027939
 21
217.46811090622771
 31
0.0
  0
LINE
  5
6456
  8
AM_0
 10
105.5973938027939
 20
217.46811090622771
 30
0.0
 11
105.5973938027939
 21
216.68654104582049
 31
0.0
  0
LINE
  5
6457
  8
AM_0
 10
100.697393802794
 20
202.5681109062277
 30
0.0
 11
100.697393802794
 21
194.33057689680541
 31
0.0
  0
LINE
  5
6458
  8
AM_0
 10
118.0509471933874
 20
213.50617398142509
 30
0.0
 11
117.6958800671991
 21
213.86124110761321
 31
0.0
  0
LINE
  5
6459
  8
AM_0
 10
100.697393802794
 20
220.5681109062277
 30
0.0
 11
100.697393802794
 21
243.80564491565011
 31
0.0
  0
LINE
  5
645A
  8
AM_0
 10
132.69739380279401
 20
264.0681109062279
 30
0.0
 11
108.9273851021614
 21
264.0681109062279
 31
0.0
  0
LINE
  5
645B
  8
AM_0
 10
100.697393802794
 20
208.99451408194869
 30
0.0
 11
100.697393802794
 21
217.5681109062277
 31
0.0
  0
LINE
  5
645C
  8
AM_0
 10
138.69739380279429
 20
273.06811090622779
 30
0.0
 11
132.69739380279401
 21
273.06811090622779
 31
0.0
  0
LINE
  5
645D
  8
AM_0
 10
132.69739380279401
 20
165.06811090622759
 30
0.0
 11
138.69739380279401
 21
165.06811090622759
 31
0.0
  0
LINE
  5
645E
  8
AM_0
 10
132.69739380279401
 20
174.06811090622759
 30
0.0
 11
123.197393802794
 21
174.06811090622759
 31
0.0
  0
LINE
  5
645F
  8
AM_0
 10
100.74297054375729
 20
244.32658944865079
 30
0.0
 11
103.3124139914197
 21
258.89862735991449
 31
0.0
  0
LINE
  5
6460
  8
AM_0
 10
100.697393802794
 20
208.99451408194869
 30
0.0
 11
100.697393802794
 21
208.0681109062277
 31
0.0
  0
LINE
  5
6461
  8
AM_0
 10
123.197393802794
 20
174.13673335661349
 30
0.0
 11
120.6346065038969
 21
174.13673335661349
 31
0.0
  0
LINE
  5
6462
  8
AM_0
 10
106.74123231049521
 20
174.06811090622759
 30
0.0
 11
107.697393802794
 21
174.06811090622759
 31
0.0
  0
LINE
  5
6463
  8
AM_0
 10
100.74297054375729
 20
193.8096323638045
 30
0.0
 11
103.78680905145841
 21
176.5471663732269
 31
0.0
  0
LINE
  5
6464
  8
AM_0
 10
100.697393802794
 20
194.0681109062277
 30
0.0
 11
100.74297054375729
 21
193.8096323638045
 31
0.0
  0
LINE
  5
6465
  8
AM_0
 10
100.697393802794
 20
194.33057689680541
 30
0.0
 11
100.697393802794
 21
194.0681109062277
 31
0.0
  0
LINE
  5
6466
  8
AM_0
 10
111.74739380279409
 20
190.06705451785561
 30
0.0
 11
116.6473938027941
 21
190.06705451785561
 31
0.0
  0
LINE
  5
6467
  8
AM_0
 10
111.74739380279409
 20
188.8540341994231
 30
0.0
 11
116.6473938027941
 21
188.8540341994231
 31
0.0
  0
LINE
  5
6468
  8
AM_0
 10
110.9473938027941
 20
189.2670545178556
 30
0.0
 11
110.9473938027941
 21
183.6259230974093
 31
0.0
  0
LINE
  5
6469
  8
AM_0
 10
110.9473938027941
 20
181.79451722847651
 30
0.0
 11
110.9473938027941
 21
183.6259230974093
 31
0.0
  0
LINE
  5
646A
  8
AM_0
 10
107.0973938027939
 20
175.10482056855361
 30
0.0
 11
107.0973938027939
 21
181.7273849466807
 31
0.0
  0
LINE
  5
646B
  8
AM_0
 10
117.447393802794
 20
189.2670545178556
 30
0.0
 11
117.447393802794
 21
187.5016789118541
 31
0.0
  0
LINE
  5
646C
  8
AM_0
 10
121.29739380279401
 20
181.7273849466807
 30
0.0
 11
121.29739380279401
 21
175.10482056855361
 31
0.0
  0
LINE
  5
646D
  8
AM_0
 10
112.83255840156779
 20
179.50854952836269
 30
0.0
 11
107.697393802794
 21
177.71853427313829
 31
0.0
  0
LINE
  5
646E
  8
AM_0
 10
120.697393802794
 20
177.71853427313829
 30
0.0
 11
119.0573575766481
 21
178.2902179665146
 31
0.0
  0
LINE
  5
646F
  8
AM_0
 10
111.68702039742099
 20
177.52441950317959
 30
0.0
 11
107.697393802794
 21
176.13371579161071
 31
0.0
  0
LINE
  5
6470
  8
AM_0
 10
120.697393802794
 20
176.13371579161071
 30
0.0
 11
118.29565658762461
 21
176.97091315335061
 31
0.0
  0
LINE
  5
6471
  8
AM_0
 10
120.697393802794
 20
177.71853427313829
 30
0.0
 11
120.697393802794
 21
174.8493931242935
 31
0.0
  0
LINE
  5
6472
  8
AM_0
 10
120.697393802794
 20
174.8493931242935
 30
0.0
 11
120.697393802794
 21
172.83015050617291
 31
0.0
  0
LINE
  5
6473
  8
AM_0
 10
114.1973515409679
 20
170.5643663069572
 30
0.0
 11
120.697393802794
 21
172.83015050617291
 31
0.0
  0
LINE
  5
6474
  8
AM_0
 10
107.697393802794
 20
172.83015050617291
 30
0.0
 11
107.697393802794
 21
174.8493931242935
 31
0.0
  0
LINE
  5
6475
  8
AM_0
 10
107.697393802794
 20
172.83015050617291
 30
0.0
 11
114.1973515409679
 21
170.5643957702051
 31
0.0
  0
LINE
  5
6476
  8
AM_0
 10
107.697393802794
 20
174.8493931242935
 30
0.0
 11
107.697393802794
 21
177.71853427313829
 31
0.0
  0
LINE
  5
6477
  8
AM_0
 10
100.1973551347871
 20
272.56811090622762
 30
0.0
 11
100.19733268238831
 21
299.56811090622762
 31
0.0
  0
LINE
  5
6478
  8
AM_0
 10
100.19733268238831
 20
299.56811090622762
 30
0.0
 11
108.19733268239111
 21
299.56811090622762
 31
0.0
  0
LINE
  5
6479
  8
AM_0
 10
108.19733268239111
 20
299.56811090622762
 30
0.0
 11
109.697328027212
 21
305.16616974421618
 31
0.0
  0
LINE
  5
647A
  8
AM_0
 10
109.697328027212
 20
305.16616974421618
 30
0.0
 11
109.6973132638516
 21
322.91976202410672
 31
0.0
  0
LINE
  5
647B
  8
AM_0
 10
100.19733268238831
 20
299.56811090622762
 30
0.0
 11
98.697328027179395
 21
305.16620449105761
 31
0.0
  0
LINE
  5
647C
  8
AM_0
 10
98.697328027179395
 20
305.16620449105761
 30
0.0
 11
98.697313263855463
 21
322.91975287683317
 31
0.0
  0
LINE
  5
647D
  8
AM_0
 10
104.1973551347884
 20
322.91975287683317
 30
0.0
 11
104.1973551347884
 21
305.16620449105761
 31
0.0
  0
LINE
  5
647F
  8
AM_0
 10
108.19733268239111
 20
299.56811090622762
 30
0.0
 11
108.1973551347898
 21
272.56811090622762
 31
0.0
  0
LINE
  5
6480
  8
AM_0
 10
118.197393802794
 20
248.5469168521951
 30
0.0
 11
118.197393802794
 21
202.86811090622771
 31
0.0
  0
LINE
  5
6481
  8
AM_0
 10
106.197393802794
 20
213.1526205908317
 30
0.0
 11
106.197393802794
 21
210.5681109062277
 31
0.0
  0
LINE
  5
6482
  8
AM_0
 10
106.69890753838899
 20
213.86124110761321
 30
0.0
 11
106.34384041220081
 21
213.50617398142509
 31
0.0
  0
LINE
  5
6483
  8
AM_0
 10
117.697393802794
 20
210.0681109062277
 30
0.0
 11
106.697393802794
 21
210.0681109062277
 31
0.0
  0
LINE
  5
6484
  8
AM_0
 10
97.697355966293131
 20
271.56810550102063
 30
0.0
 11
97.697382992328585
 21
266.56810550102063
 31
0.0
  0
LINE
  5
6485
  8
AM_0
 10
110.6973559664245
 20
271.56811631143461
 30
0.0
 11
110.6973818942442
 21
266.771293658064
 31
0.0
  0
LINE
  5
6486
  8
AM_0
 10
101.3178970548749
 20
264.56811090622762
 30
0.0
 11
100.74633515350951
 21
265.224694728288
 31
0.0
  0
LINE
  5
6487
  8
AM_0
 10
98.697382992314047
 20
265.56811090622762
 30
0.0
 11
109.6973818942442
 21
265.56811090622762
 31
0.0
  0
LINE
  5
6488
  8
AM_0
 10
110.6973818942442
 20
266.771293658064
 30
0.0
 11
110.6973818942442
 21
266.56811090622762
 31
0.0
  0
LINE
  5
6489
  8
AM_0
 10
110.6973818942442
 20
266.771293658064
 30
0.0
 11
110.69738299246001
 21
266.56811631143472
 31
0.0
  0
LINE
  5
648A
  8
AM_0
 10
98.69735596627855
 20
272.56811090622762
 30
0.0
 11
109.6973559664393
 21
272.56811090622762
 31
0.0
  0
LINE
  5
648B
  8
AM_0
 10
108.7048297649562
 20
264.59869797651322
 30
0.0
 11
115.8276294983017
 21
247.61745865776641
 31
0.0
  0
LINE
  5
648C
  8
AM_0
 10
101.3178970548749
 20
264.56811090622762
 30
0.0
 11
107.8946121301851
 21
245.8735702758255
 31
0.0
  0
LINE
  5
648D
  8
AM_0
 10
105.5973938027939
 20
217.5681109062277
 30
0.0
 11
105.5973938027939
 21
217.46811090622771
 31
0.0
  0
LINE
  5
648E
  8
AM_0
 10
105.5973938027939
 20
217.46811090622771
 30
0.0
 11
105.5973938027939
 21
216.68654104582049
 31
0.0
  0
LINE
  5
648F
  8
AM_0
 10
105.5973938027939
 20
215.5681109062277
 30
0.0
 11
106.197393802794
 21
215.5681109062277
 31
0.0
  0
LINE
  5
6490
  8
AM_0
 10
102.8973938027941
 20
216.68654104582049
 30
0.0
 11
102.8973938027941
 21
221.449680766635
 31
0.0
  0
LINE
  5
6491
  8
AM_0
 10
102.7363495735365
 20
216.39984941747761
 30
0.0
 11
101.80379652402939
 21
216.93825917164409
 31
0.0
  0
LINE
  5
6492
  8
AM_0
 10
105.5973938027939
 20
222.56811090622759
 30
0.0
 11
105.5973938027939
 21
217.5681109062277
 31
0.0
  0
LINE
  5
6493
  8
AM_0
 10
103.16984539482451
 20
215.89268442568479
 30
0.0
 11
105.3249422107634
 21
215.89268442568479
 31
0.0
  0
LINE
  5
6494
  8
AM_0
 10
103.16984539482451
 20
217.4803976659563
 30
0.0
 11
105.3249422107634
 21
217.4803976659563
 31
0.0
  0
LINE
  5
6495
  8
AM_0
 10
101.5973938027941
 20
220.5681109062277
 30
0.0
 11
98.497393802793795
 21
220.5681109062277
 31
0.0
  0
LINE
  5
6496
  8
AM_0
 10
98.497393802793795
 20
220.5681109062277
 30
0.0
 11
98.197393802793954
 21
220.26811090622769
 31
0.0
  0
LINE
  5
6497
  8
AM_0
 10
98.197393802793954
 20
220.26811090622769
 30
0.0
 11
98.197393802793854
 21
217.8681109062278
 31
0.0
  0
LINE
  5
6498
  8
AM_0
 10
98.497393802793795
 20
217.5681109062277
 30
0.0
 11
100.697393802794
 21
217.5681109062277
 31
0.0
  0
LINE
  5
6499
  8
AM_0
 10
98.197393802793954
 20
217.8681109062278
 30
0.0
 11
98.497393802793795
 21
217.5681109062277
 31
0.0
  0
LINE
  5
649A
  8
AM_0
 10
101.5973938027939
 20
217.8681109062278
 30
0.0
 11
98.197393802793954
 21
217.8681109062278
 31
0.0
  0
ARC
  5
649B
  8
AM_0
 10
100.197393802794
 20
219.0681109062277
 30
0.0
 40
18.000000000000082
 50
344.79096035988692
 51
15.209039640110619
  0
ARC
  5
649C
  8
AM_0
 10
104.3046169867675
 20
216.68654104582049
 30
0.0
 40
1.292776816026465
 50
322.11555894630879
 51
0.0
  0
ARC
  5
649D
  8
AM_0
 10
124.197393802794
 20
219.0681109062277
 30
0.0
 40
17.999999999999918
 50
164.79096035988701
 51
195.2090396401122
  0
ARC
  5
649E
  8
AM_0
 10
111.5012066538625
 20
175.8185229998931
 30
0.0
 40
6.001601094213977
 50
95.294644622328306
 51
137.203637805271
  0
ARC
  5
649F
  8
AM_0
 10
111.5012066538625
 20
177.6499288688259
 30
0.0
 40
6.0016010942139628
 50
95.294644622328306
 51
137.203637805271
  0
ARC
  5
64A0
  8
AM_0
 10
107.9671254879912
 20
176.31540865697741
 30
0.0
 40
1.4906229315522701
 50
234.3051223779039
 51
259.5747650501786
  0
ARC
  5
64A1
  8
AM_0
 10
116.8935809517256
 20
177.6499288688259
 30
0.0
 40
6.0016010942138758
 50
42.796362194728943
 51
44.995924864879747
  0
ARC
  5
64A2
  8
AM_0
 10
116.8935809517256
 20
175.8185229998931
 30
0.0
 40
6.0016010942138758
 50
42.796362194728943
 51
53.897278316401213
  0
ARC
  5
64A3
  8
AM_0
 10
120.427662117597
 20
176.31540865697741
 30
0.0
 40
1.490622931552253
 50
280.42523494982129
 51
305.6948776220961
  0
ARC
  5
64A4
  8
AM_0
 10
104.197320208835
 20
314.56811090622767
 30
0.0
 40
10.0
 50
56.63303467623421
 51
123.3670606147017
  0
ARC
  5
64A5
  8
AM_0
 10
101.4473341993218
 20
318.48710451722718
 30
0.0
 40
5.2164151124522951
 50
58.184480448431877
 51
121.8155195515681
  0
ARC
  5
64A6
  8
AM_0
 10
106.9473415729564
 20
318.48622962646721
 30
0.0
 40
5.217140387381062
 50
58.19005829597031
 51
121.8101322873589
  0
ARC
  5
64A7
  8
AM_0
 10
101.4473415809839
 20
306.5341585054004
 30
0.0
 40
3.0714610092699122
 50
206.4473767242211
 51
333.55262327577879
  0
ARC
  5
64A8
  8
AM_0
 10
106.9473502123551
 20
306.5324183007051
 30
0.0
 40
3.070669812974502
 50
206.4184579467277
 51
333.58081810520349
  0
ARC
  5
64A9
  8
AM_0
 10
107.6598236788536
 20
219.0681109062277
 30
0.0
 40
4.762429876059711
 50
160.52575999458611
 51
199.4742400054138
  0
ARC
  5
64AA
  8
AM_0
 10
104.1901706188205
 20
216.68654104582049
 30
0.0
 40
1.292776816026556
 50
142.11555894629831
 51
217.88444105369121
  0
ARC
  5
64AB
  8
AM_0
 10
100.8349639267344
 20
219.0681109062277
 30
0.0
 40
4.762429876059584
 50
340.52575999458628
 51
19.474240005413041
  0
ARC
  5
64AC
  8
AM_0
 10
104.3046169867675
 20
216.68654104582049
 30
0.0
 40
1.2927768160265021
 50
0.0
 51
37.884441053701622
  0
ARC
  5
64AD
  8
AM_0
 10
113.9299419600904
 20
184.14321608081431
 30
8206336.7530117426
 40
12.9134744604336
 50
271.18655406403423
 51
287.92670513354869
  0
LINE
  5
64AE
  8
AM_0
 10
117.904710889489
 20
171.85667732499871
 30
8206336.7530117426
 11
118.3172916566902
 21
172.0099190103914
 31
8206336.7530117426
  0
LINE
  5
64AF
  8
AM_0
 10
118.3172916566902
 20
172.0099190103914
 30
8206336.7530117426
 11
118.7197834009466
 21
172.1888883730972
 31
8206336.7530117426
  0
ARC
  5
64B0
  8
AM_0
 10
116.2160217601909
 20
177.47368893681951
 30
8206336.7530117426
 40
5.8479004225482916
 50
295.35002817212552
 51
303.56705104006198
  0
LINE
  5
64B1
  8
AM_0
 10
119.4493988362008
 20
172.60098824455719
 30
8206336.7530117426
 11
119.76394171545191
 21
172.8332616997277
 31
8206336.7530117426
  0
LINE
  5
64B2
  8
AM_0
 10
119.76394171545191
 20
172.8332616997277
 30
8206336.7530117426
 11
120.0531308636493
 21
173.09613257576629
 31
8206336.7530117426
  0
ARC
  5
64B3
  8
AM_0
 10
118.1742479002712
 20
174.9618169659737
 30
8206336.7530117426
 40
2.647825416060579
 50
315.20195107610112
 51
327.66908745373388
  0
LINE
  5
64B4
  8
AM_0
 10
120.411589980117
 20
173.54573792450481
 30
8206336.7530117426
 11
120.5405059363963
 21
173.7852696897408
 31
8206336.7530117426
  0
LINE
  5
64B5
  8
AM_0
 10
120.5405059363963
 20
173.7852696897408
 30
8206336.7530117426
 11
120.6346065038969
 21
174.03992867822521
 31
8206336.7530117426
  0
ARC
  5
64B6
  8
AM_0
 10
119.035786264948
 20
174.4950173428285
 30
8206336.7530117426
 40
1.6623272388802151
 50
344.11151119415172
 51
352.55958186686132
  0
LINE
  5
64B7
  8
AM_0
 10
120.684116807276
 20
174.27975407993389
 30
8206336.7530117426
 11
120.69402147171689
 21
174.38061983365461
 31
8206336.7530117426
  0
LINE
  5
64B8
  8
AM_0
 10
120.69402147171689
 20
174.38061983365461
 30
8206336.7530117426
 11
120.697393802794
 21
174.48191854739321
 31
8206336.7530117426
  0
ARC
  5
64B9
  8
AM_0
 10
119.1023003841246
 20
174.47894239589499
 30
8206336.7530117426
 40
1.595096195143147
 50
0.1069032823798332
 51
11.47976002760999
  0
LINE
  5
64BA
  8
AM_0
 10
120.66548679318301
 20
174.79640124723679
 30
8206336.7530117426
 11
120.62485488299779
 21
174.95697512276121
 31
8206336.7530117426
  0
LINE
  5
64BB
  8
AM_0
 10
120.62485488299779
 20
174.95697512276121
 30
8206336.7530117426
 11
120.5692148184641
 21
175.1129434161839
 31
8206336.7530117426
  0
ARC
  5
64BC
  8
AM_0
 10
118.69374052481039
 20
174.33756063479899
 30
8206336.7530117426
 40
2.029438908620818
 50
22.461811304463868
 51
32.144289435793091
  0
LINE
  5
64BD
  8
AM_0
 10
120.4120885678071
 20
175.41733018750611
 30
8206336.7530117426
 11
120.28979982127269
 21
175.5946407802281
 31
8206336.7530117426
  0
LINE
  5
64BE
  8
AM_0
 10
120.28979982127269
 20
175.5946407802281
 30
8206336.7530117426
 11
120.1529462209346
 21
175.76102270261751
 31
8206336.7530117426
  0
ARC
  5
64BF
  8
AM_0
 10
117.6547882347506
 20
173.51801101680471
 30
8206336.7530117426
 40
3.357364255874967
 50
41.919595935552167
 51
50.918621528346122
  0
LINE
  5
64C0
  8
AM_0
 10
119.77134973975799
 20
176.12416951968751
 30
8206336.7530117426
 11
119.3522111223578
 21
176.4268659973132
 31
8206336.7530117426
  0
LINE
  5
64C1
  8
AM_0
 10
119.3522111223578
 20
176.4268659973132
 30
8206336.7530117426
 11
118.90305744246029
 21
176.68421769856769
 31
8206336.7530117426
  0
ARC
  5
64C2
  8
AM_0
 10
115.5718317594328
 20
170.1566074042982
 30
8206336.7530117426
 40
7.3284896605723491
 50
62.963482965305928
 51
68.223671679106289
  0
ARC
  5
64C3
  8
AM_0
 10
114.46484564551341
 20
184.1432160808674
 30
8206336.7530117426
 40
12.91347446048893
 50
252.07329486645801
 51
268.8130708325474
  0
LINE
  5
64C4
  8
AM_0
 10
110.4900767160991
 20
171.85667732499871
 30
8206336.7530117426
 11
110.07749594889791
 21
172.0099190103914
 31
8206336.7530117426
  0
LINE
  5
64C5
  8
AM_0
 10
110.07749594889791
 20
172.0099190103914
 30
8206336.7530117426
 11
109.6750042046412
 21
172.1888883730972
 31
8206336.7530117426
  0
ARC
  5
64C6
  8
AM_0
 10
112.1787658454022
 20
177.47368893682801
 30
8206336.7530117426
 40
5.8479004225582418
 50
236.43294895995371
 51
244.64997182786749
  0
LINE
  5
64C7
  8
AM_0
 10
108.94538876938731
 20
172.60098824455719
 30
8206336.7530117426
 11
108.6308458901362
 21
172.8332616997277
 31
8206336.7530117426
  0
LINE
  5
64C8
  8
AM_0
 10
108.6308458901362
 20
172.8332616997277
 30
8206336.7530117426
 11
108.34165674193881
 21
173.09613257576629
 31
8206336.7530117426
  0
ARC
  5
64C9
  8
AM_0
 10
110.2205397053167
 20
174.96181696597321
 30
8206336.7530117426
 40
2.6478254160599781
 50
212.3309125462558
 51
224.79804892389021
  0
LINE
  5
64CA
  8
AM_0
 10
107.98319762547111
 20
173.54573792450481
 30
8206336.7530117426
 11
107.85428166919171
 21
173.7852696897408
 31
8206336.7530117426
  0
LINE
  5
64CB
  8
AM_0
 10
107.85428166919171
 20
173.7852696897408
 30
8206336.7530117426
 11
107.760181101691
 21
174.03992867822521
 31
8206336.7530117426
  0
ARC
  5
64CC
  8
AM_0
 10
109.35900134066971
 20
174.49501734283501
 30
8206336.7530117426
 40
1.6623272389105701
 50
187.4404181332275
 51
195.8884888057907
  0
LINE
  5
64CD
  8
AM_0
 10
107.71067079831199
 20
174.27975407993389
 30
8206336.7530117426
 11
107.7007661338712
 21
174.38061983365461
 31
8206336.7530117426
  0
LINE
  5
64CE
  8
AM_0
 10
107.7007661338712
 20
174.38061983365461
 30
8206336.7530117426
 11
107.697393802794
 21
174.48191854739321
 31
8206336.7530117426
  0
ARC
  5
64CF
  8
AM_0
 10
109.2924872214605
 20
174.47894239589499
 30
8206336.7530117426
 40
1.5950961951403351
 50
168.52023997236711
 51
179.8930967176201
  0
LINE
  5
64D0
  8
AM_0
 10
107.7293008124049
 20
174.79640124723679
 30
8206336.7530117426
 11
107.7699327225903
 21
174.95697512276121
 31
8206336.7530117426
  0
LINE
  5
64D1
  8
AM_0
 10
107.7699327225903
 20
174.95697512276121
 30
8206336.7530117426
 11
107.8255727871237
 21
175.1129434161839
 31
8206336.7530117426
  0
ARC
  5
64D2
  8
AM_0
 10
109.70104708078721
 20
174.33756063479311
 30
8206336.7530117426
 40
2.02943890863216
 50
147.8557105642179
 51
157.5381886954865
  0
LINE
  5
64D3
  8
AM_0
 10
107.9826990377807
 20
175.41733018750611
 30
8206336.7530117426
 11
108.1049877843154
 21
175.5946407802281
 31
8206336.7530117426
  0
LINE
  5
64D4
  8
AM_0
 10
108.1049877843154
 20
175.5946407802281
 30
8206336.7530117426
 11
108.2418413846535
 21
175.76102270261751
 31
8206336.7530117426
  0
ARC
  5
64D5
  8
AM_0
 10
110.73999937084611
 20
173.51801101679621
 30
8206336.7530117426
 40
3.3573642558870951
 50
129.08137847167879
 51
138.080404064438
  0
LINE
  5
64D6
  8
AM_0
 10
108.62343786583
 20
176.12416951968751
 30
8206336.7530117426
 11
109.04257648322999
 21
176.4268659973132
 31
8206336.7530117426
  0
LINE
  5
64D7
  8
AM_0
 10
109.04257648322999
 20
176.4268659973132
 30
8206336.7530117426
 11
109.4917301631278
 21
176.68421769856769
 31
8206336.7530117426
  0
ARC
  5
64D8
  8
AM_0
 10
112.8229558461542
 20
170.15660740430221
 30
8206336.7530117426
 40
7.3284896605682359
 50
109.0382363849763
 51
117.0365170347013
  0
LINE
  5
64D9
  8
AM_0
 10
110.4324093013765
 20
177.08423671903211
 30
8206336.7530117426
 11
111.1089071959438
 21
177.29111656865049
 31
8206336.7530117426
  0
LINE
  5
64DA
  8
AM_0
 10
111.1089071959438
 20
177.29111656865049
 30
8206336.7530117426
 11
111.65569657367899
 21
177.41621789020269
 31
8206336.7530117426
  0
ARC
  5
64DB
  8
AM_0
 10
117.8973938027941
 20
202.86811090622771
 30
0.0
 40
0.2999999999999972
 50
270.0
 51
0.0
  0
ARC
  5
64DC
  8
AM_0
 10
118.0494334577922
 20
214.2147944982066
 30
0.0
 40
0.4999999999998723
 50
164.79096035990131
 51
225.00000000001839
  0
ARC
  5
64DD
  8
AM_0
 10
103.6973938027941
 20
194.33057689680541
 30
0.0
 40
3.0
 50
180.0
 51
190.00000000000171
  0
ARC
  5
64DE
  8
AM_0
 10
103.6973938027941
 20
243.80564491565011
 30
0.0
 40
2.999999999999992
 50
169.9999999999981
 51
180.0
  0
ARC
  5
64DF
  8
AM_0
 10
106.74123231049521
 20
177.06811090622759
 30
0.0
 40
2.9999999999999631
 50
190.00000000000171
 51
270.0
  0
ARC
  5
64E0
  8
AM_0
 10
111.74739380279409
 20
189.2670545178556
 30
0.0
 40
0.7999999999998977
 50
90.0
 51
180.0
  0
ARC
  5
64E1
  8
AM_0
 10
111.74739380279409
 20
188.05403419942311
 30
0.0
 40
0.7999999999999972
 50
90.0
 51
180.0
  0
ARC
  5
64E2
  8
AM_0
 10
116.6473938027941
 20
189.2670545178556
 30
0.0
 40
0.8000000000000112
 50
0.0
 51
90.0
  0
ARC
  5
64E3
  8
AM_0
 10
116.6473938027941
 20
188.05403419942311
 30
0.0
 40
0.8000000000000112
 50
0.0
 51
90.0
  0
ARC
  5
64E4
  8
AM_0
 10
106.697393802794
 20
210.5681109062277
 30
0.0
 40
0.5
 50
180.0
 51
270.0
  0
ARC
  5
64E5
  8
AM_0
 10
117.697393802794
 20
210.5681109062277
 30
0.0
 40
0.5
 50
270.0
 51
0.0
  0
ARC
  5
64E6
  8
AM_0
 10
117.697393802794
 20
213.1526205908317
 30
0.0
 40
0.5
 50
0.0
 51
45.0
  0
ARC
  5
64E7
  8
AM_0
 10
106.3453541477956
 20
214.2147944982066
 30
0.0
 40
0.5000000000001048
 50
314.99999999998209
 51
15.2090396400987
  0
ARC
  5
64E8
  8
AM_0
 10
106.697393802794
 20
213.1526205908317
 30
0.0
 40
0.499999999999984
 50
134.99999999999079
 51
180.0
  0
ARC
  5
64E9
  8
AM_0
 10
98.69735596627855
 20
271.56811090622762
 30
0.0
 40
1.0
 50
90.0
 51
180.00030969555451
  0
ARC
  5
64EA
  8
AM_0
 10
109.6973559664393
 20
271.56811090622762
 30
0.0
 40
0.9999999999999992
 50
0.0003096955479991
 51
90.0
  0
ARC
  5
64EB
  8
AM_0
 10
98.697382992314047
 20
266.56811090622762
 30
0.0
 40
0.9999999999999992
 50
180.00030969555451
 51
270.0
  0
ARC
  5
64EC
  8
AM_0
 10
109.6973818942442
 20
266.56811090622762
 30
0.0
 40
1.0
 50
270.0
 51
0.0
  0
ARC
  5
64ED
  8
AM_0
 10
109.17762368132949
 20
264.96811090622771
 30
0.0
 40
0.5999999999999944
 50
90.0
 51
218.00194433773009
  0
ARC
  5
64EE
  8
AM_0
 10
99.992082089473129
 20
264.56811090622762
 30
0.0
 40
0.9999999999999468
 50
41.039853109575589
 51
90.0
  0
ARC
  5
64EF
  8
AM_0
 10
102.0101992452646
 20
217.29575917164411
 30
0.0
 40
0.4128054424705854
 50
180.0
 51
239.9999999999998
  0
ARC
  5
64F0
  8
AM_0
 10
102.323544131066
 20
215.68484941747761
 30
0.0
 40
0.8256108849411369
 50
28.217424594178969
 51
59.999999999999851
  0
LINE
  5
64F1
  8
AM_0
 10
101.4871281324256
 20
248.5469168521949
 30
0.0
 11
106.95413228219439
 21
248.5469168521949
 31
0.0
  0
LINE
  5
64F2
  8
AM_0
 10
115.4377672241081
 20
248.5469168521949
 30
0.0
 11
118.197393802794
 21
248.5469168521949
 31
0.0
  0
LINE
  5
64F3
  8
AM_0
 10
105.5973938027944
 20
222.56811090622759
 30
0.0
 11
106.19739380279429
 21
222.56811090622759
 31
0.0
  0
LINE
  5
64F4
  8
AM_0
 10
102.7363495735367
 20
221.73637239497791
 30
0.0
 11
101.80379652402949
 21
221.19796264081151
 31
0.0
  0
LINE
  5
64F5
  8
AM_0
 10
103.1698453948249
 20
222.2435373867707
 30
0.0
 11
105.3249422107636
 21
222.2435373867705
 31
0.0
  0
LINE
  5
64F6
  8
AM_0
 10
103.1698453948247
 20
220.65582414649921
 30
0.0
 11
105.3249422107635
 21
220.65582414649899
 31
0.0
  0
ARC
  5
64F7
  8
AM_0
 10
104.3046169867677
 20
221.4496807666348
 30
0.0
 40
1.292776816026465
 50
359.99999999999352
 51
37.88444105369058
  0
ARC
  5
64F8
  8
AM_0
 10
104.1901706188207
 20
221.449680766635
 30
0.0
 40
1.292776816026556
 50
142.11555894629831
 51
217.88444105369121
  0
ARC
  5
64F9
  8
AM_0
 10
104.3046169867677
 20
221.4496807666348
 30
0.0
 40
1.2927768160265021
 50
322.11555894628862
 51
359.99999999999352
  0
ARC
  5
64FA
  8
AM_0
 10
102.0101992452647
 20
220.8404626408115
 30
0.0
 40
0.4128054424705854
 50
119.9999999999924
 51
179.99999999999341
  0
ARC
  5
64FB
  8
AM_0
 10
102.3235441310662
 20
222.45137239497799
 30
0.0
 40
0.8256108849411369
 50
300.0
 51
331.7825754058203
  0
LINE
  5
64FC
  8
AM_0
 10
118.19739380279449
 20
227.56811090622719
 30
0.0
 11
118.19739380279439
 21
224.98360122162319
 31
0.0
  0
LINE
  5
64FD
  8
AM_0
 10
118.0509471933877
 20
224.63004783102991
 30
0.0
 11
117.6958800671993
 21
224.27498070484151
 31
0.0
  0
LINE
  5
64FE
  8
AM_0
 10
106.19739380279439
 20
224.9836012216239
 30
0.0
 11
106.19739380279439
 21
227.56811090622799
 31
0.0
  0
LINE
  5
64FF
  8
AM_0
 10
106.69890753838941
 20
224.27498070484239
 30
0.0
 11
106.3438404122012
 21
224.6300478310304
 31
0.0
  0
LINE
  5
6500
  8
AM_0
 10
117.69739380279449
 20
228.06811090622719
 30
0.0
 11
117.2168159169471
 21
228.06811090622719
 31
0.0
  0
LINE
  5
6501
  8
AM_0
 10
107.1779716886419
 20
228.06811090622779
 30
0.0
 11
106.69739380279449
 21
228.06811090622779
 31
0.0
  0
ARC
  5
6502
  8
AM_0
 10
118.0494334577927
 20
223.92142731424829
 30
0.0
 40
0.4999999999998723
 50
134.99999999997291
 51
195.20903964009699
  0
ARC
  5
6503
  8
AM_0
 10
106.69739380279449
 20
227.5681109062277
 30
0.0
 40
0.5
 50
89.999999999993477
 51
179.99999999999659
  0
ARC
  5
6504
  8
AM_0
 10
117.69739380279449
 20
227.56811090622719
 30
0.0
 40
0.5
 50
359.99999999999682
 51
89.999999999993477
  0
ARC
  5
6505
  8
AM_0
 10
117.69739380279439
 20
224.98360122162319
 30
0.0
 40
0.5
 50
314.99999999999147
 51
359.99999999999682
  0
ARC
  5
6506
  8
AM_0
 10
106.345354147796
 20
223.92142731424889
 30
0.0
 40
0.5000000000001048
 50
344.79096035989892
 51
45.000000000009209
  0
ARC
  5
6507
  8
AM_0
 10
106.69739380279439
 20
224.9836012216239
 30
0.0
 40
0.499999999999984
 50
179.99999999999659
 51
225.0000000000087
  0
LINE
  5
6508
  8
AM_0
 10
108.1779716886419
 20
244.21426230404961
 30
0.0
 11
108.1779716886419
 21
229.06811090622779
 31
0.0
  0
ARC
  5
6509
  8
AM_0
 10
107.1779716886419
 20
229.06811090622779
 30
0.0
 40
1.0
 50
269.99999999999352
 51
0.0
1001
GENIUS_GENODEF_13
1002
{
1000
HIER
1070
     0
1002
}
1002
{
1000
MANEDIT
1070
     0
1002
}
1002
{
1000
NOSEL
1070
     0
1002
}
1002
{
1000
BEHIND
1070
     0
1002
}
1002
{
1000
OTHER
1070
     0
1002
}
1002
{
1000
REACTOR
1002
}
1001
GENIUS_GENOBJ-N-FIL_13
1002
{
1000
OWNER
1000
GEN
1002
}
  0
ARC
  5
650A
  8
AM_0
 10
103.1779716886419
 20
244.21426230404961
 30
0.0
 40
5.0
 50
0.0
 51
19.381805699023541
1001
GENIUS_GENOBJ-N-FIL_13
1002
{
1000
OWNER
1000
GEN
1002
}
1001
GENIUS_GENODEF_13
1002
{
1000
HIER
1070
     0
1002
}
1002
{
1000
MANEDIT
1070
     0
1002
}
1002
{
1000
NOSEL
1070
     0
1002
}
1002
{
1000
BEHIND
1070
     0
1002
}
1002
{
1000
OTHER
1070
     0
1002
}
1002
{
1000
REACTOR
1002
}
  0
LINE
  5
650B
  8
AM_0
 10
116.2168159169473
 20
245.68344776896629
 30
0.0
 11
116.2168159169473
 21
229.06811090622719
 31
0.0
  0
ARC
  5
650C
  8
AM_0
 10
117.2168159169473
 20
229.06811090622719
 30
0.0
 40
1.0
 50
180.0
 51
269.99999999999352
1001
GENIUS_GENOBJ-N-FIL_13
1002
{
1000
OWNER
1000
GEN
1002
}
1001
GENIUS_GENODEF_13
1002
{
1000
HIER
1070
     0
1002
}
1002
{
1000
MANEDIT
1070
     0
1002
}
1002
{
1000
NOSEL
1070
     0
1002
}
1002
{
1000
BEHIND
1070
     0
1002
}
1002
{
1000
OTHER
1070
     0
1002
}
1002
{
1000
REACTOR
1002
}
  0
ARC
  5
650D
  8
AM_0
 10
111.2168159169472
 20
245.68344776896629
 30
0.0
 40
5.0
 50
0.0
 51
22.755667319206839
1001
GENIUS_GENODEF_13
1002
{
1000
HIER
1070
     0
1002
}
1002
{
1000
MANEDIT
1070
     0
1002
}
1002
{
1000
NOSEL
1070
     0
1002
}
1002
{
1000
BEHIND
1070
     0
1002
}
1002
{
1000
OTHER
1070
     0
1002
}
1002
{
1000
REACTOR
1002
}
1001
GENIUS_GENOBJ-N-FIL_13
1002
{
1000
OWNER
1000
GEN
1002
}
  0
LINE
  5
650E
  8
AM_0
 10
106.9239326494521
 20
224.0499555937796
 30
0.0
 11
117.4708549561374
 21
224.0499555937796
 31
0.0
  0
LINE
  5
650F
  8
AM_0
 10
106.9239326494518
 20
214.086266218676
 30
0.0
 11
117.47085495613619
 21
214.086266218676
 31
0.0
  0
LINE
  5
6510
  8
AM_0
 10
103.78680905145841
 20
183.0777000613017
 30
0.0
 11
103.78680905145841
 21
202.5681109062277
 31
0.0
  0
LINE
  5
6511
  8
AM_0
 10
106.74123231049521
 20
174.06811090622759
 30
0.0
 11
106.74123231049521
 21
202.5681109062277
 31
0.0
  0
LINE
  5
652C
  8
AM_0
 10
117.07569189040299
 20
174.85787231432241
 30
0.0
 11
126.4346775050676
 21
191.0681109062277
 31
0.0
  0
LINE
  5
652D
  8
AM_0
 10
111.8795394676965
 20
177.85787231432241
 30
0.0
 11
120.08382454398161
 21
192.0681109062277
 31
0.0
  0
POLYLINE
  5
652E
  8
AM_0
 66
     1
 10
0.0
 20
0.0
 30
0.0
 70
     8
  0
VERTEX
  5
6FCC
  8
AM_0
 10
111.88
 20
177.858
 30
0.0
 70
    32
  0
VERTEX
  5
6FCD
  8
AM_0
 10
111.83499999999999
 20
177.779
 30
0.0
 70
    32
  0
VERTEX
  5
6FCE
  8
AM_0
 10
111.792
 20
177.69900000000001
 30
0.0
 70
    32
  0
VERTEX
  5
6FCF
  8
AM_0
 10
111.751
 20
177.61799999999999
 30
0.0
 70
    32
  0
VERTEX
  5
6FD0
  8
AM_0
 10
111.711
 20
177.53700000000001
 30
0.0
 70
    32
  0
VERTEX
  5
6FD1
  8
AM_0
 10
111.673
 20
177.45500000000001
 30
0.0
 70
    32
  0
VERTEX
  5
6FD2
  8
AM_0
 10
111.637
 20
177.37200000000001
 30
0.0
 70
    32
  0
VERTEX
  5
6FD3
  8
AM_0
 10
111.602
 20
177.28899999999999
 30
0.0
 70
    32
  0
VERTEX
  5
6FD4
  8
AM_0
 10
111.569
 20
177.20500000000001
 30
0.0
 70
    32
  0
VERTEX
  5
6FD5
  8
AM_0
 10
111.538
 20
177.12
 30
0.0
 70
    32
  0
VERTEX
  5
6FD6
  8
AM_0
 10
111.508
 20
177.035
 30
0.0
 70
    32
  0
VERTEX
  5
6FD7
  8
AM_0
 10
111.48099999999999
 20
176.94999999999999
 30
0.0
 70
    32
  0
VERTEX
  5
6FD8
  8
AM_0
 10
111.455
 20
176.864
 30
0.0
 70
    32
  0
VERTEX
  5
6FD9
  8
AM_0
 10
111.431
 20
176.77799999999999
 30
0.0
 70
    32
  0
VERTEX
  5
6FDA
  8
AM_0
 10
111.40900000000001
 20
176.69200000000001
 30
0.0
 70
    32
  0
VERTEX
  5
6FDB
  8
AM_0
 10
111.389
 20
176.60599999999999
 30
0.0
 70
    32
  0
VERTEX
  5
6FDC
  8
AM_0
 10
111.37
 20
176.51900000000001
 30
0.0
 70
    32
  0
VERTEX
  5
6FDD
  8
AM_0
 10
111.354
 20
176.43199999999999
 30
0.0
 70
    32
  0
VERTEX
  5
6FDE
  8
AM_0
 10
111.339
 20
176.346
 30
0.0
 70
    32
  0
VERTEX
  5
6FDF
  8
AM_0
 10
111.32599999999999
 20
176.25899999999999
 30
0.0
 70
    32
  0
VERTEX
  5
6FE0
  8
AM_0
 10
111.315
 20
176.172
 30
0.0
 70
    32
  0
VERTEX
  5
6FE1
  8
AM_0
 10
111.306
 20
176.08600000000001
 30
0.0
 70
    32
  0
VERTEX
  5
6FE2
  8
AM_0
 10
111.29900000000001
 20
175.999
 30
0.0
 70
    32
  0
VERTEX
  5
6FE3
  8
AM_0
 10
111.294
 20
175.91300000000001
 30
0.0
 70
    32
  0
VERTEX
  5
6FE4
  8
AM_0
 10
111.291
 20
175.827
 30
0.0
 70
    32
  0
VERTEX
  5
6FE5
  8
AM_0
 10
111.29000000000001
 20
175.74199999999999
 30
0.0
 70
    32
  0
VERTEX
  5
6FE6
  8
AM_0
 10
111.29000000000001
 20
175.65600000000001
 30
0.0
 70
    32
  0
VERTEX
  5
6FE7
  8
AM_0
 10
111.29300000000001
 20
175.572
 30
0.0
 70
    32
  0
VERTEX
  5
6FE8
  8
AM_0
 10
111.297
 20
175.48699999999999
 30
0.0
 70
    32
  0
VERTEX
  5
6FE9
  8
AM_0
 10
111.304
 20
175.40299999999999
 30
0.0
 70
    32
  0
VERTEX
  5
6FEA
  8
AM_0
 10
111.312
 20
175.31999999999999
 30
0.0
 70
    32
  0
VERTEX
  5
6FEB
  8
AM_0
 10
111.322
 20
175.238
 30
0.0
 70
    32
  0
VERTEX
  5
6FEC
  8
AM_0
 10
111.334
 20
175.15600000000001
 30
0.0
 70
    32
  0
VERTEX
  5
6FED
  8
AM_0
 10
111.348
 20
175.07400000000001
 30
0.0
 70
    32
  0
VERTEX
  5
6FEE
  8
AM_0
 10
111.364
 20
174.994
 30
0.0
 70
    32
  0
VERTEX
  5
6FEF
  8
AM_0
 10
111.38200000000001
 20
174.91399999999999
 30
0.0
 70
    32
  0
VERTEX
  5
6FF0
  8
AM_0
 10
111.401
 20
174.83600000000001
 30
0.0
 70
    32
  0
VERTEX
  5
6FF1
  8
AM_0
 10
111.423
 20
174.75800000000001
 30
0.0
 70
    32
  0
VERTEX
  5
6FF2
  8
AM_0
 10
111.446
 20
174.68100000000001
 30
0.0
 70
    32
  0
VERTEX
  5
6FF3
  8
AM_0
 10
111.471
 20
174.60499999999999
 30
0.0
 70
    32
  0
VERTEX
  5
6FF4
  8
AM_0
 10
111.498
 20
174.53
 30
0.0
 70
    32
  0
VERTEX
  5
6FF5
  8
AM_0
 10
111.527
 20
174.45699999999999
 30
0.0
 70
    32
  0
VERTEX
  5
6FF6
  8
AM_0
 10
111.557
 20
174.38399999999999
 30
0.0
 70
    32
  0
VERTEX
  5
6FF7
  8
AM_0
 10
111.589
 20
174.31299999999999
 30
0.0
 70
    32
  0
VERTEX
  5
6FF8
  8
AM_0
 10
111.623
 20
174.24299999999999
 30
0.0
 70
    32
  0
VERTEX
  5
6FF9
  8
AM_0
 10
111.65900000000001
 20
174.17400000000001
 30
0.0
 70
    32
  0
VERTEX
  5
6FFA
  8
AM_0
 10
111.697
 20
174.10599999999999
 30
0.0
 70
    32
  0
VERTEX
  5
6FFB
  8
AM_0
 10
111.736
 20
174.03999999999999
 30
0.0
 70
    32
  0
VERTEX
  5
6FFC
  8
AM_0
 10
111.776
 20
173.97499999999999
 30
0.0
 70
    32
  0
VERTEX
  5
6FFD
  8
AM_0
 10
111.819
 20
173.91200000000001
 30
0.0
 70
    32
  0
VERTEX
  5
6FFE
  8
AM_0
 10
111.863
 20
173.84999999999999
 30
0.0
 70
    32
  0
VERTEX
  5
6FFF
  8
AM_0
 10
111.908
 20
173.78999999999999
 30
0.0
 70
    32
  0
VERTEX
  5
7000
  8
AM_0
 10
111.955
 20
173.73099999999999
 30
0.0
 70
    32
  0
VERTEX
  5
7001
  8
AM_0
 10
112.004
 20
173.67400000000001
 30
0.0
 70
    32
  0
VERTEX
  5
7002
  8
AM_0
 10
112.054
 20
173.61799999999999
 30
0.0
 70
    32
  0
VERTEX
  5
7003
  8
AM_0
 10
112.10599999999999
 20
173.56399999999999
 30
0.0
 70
    32
  0
VERTEX
  5
7004
  8
AM_0
 10
112.15900000000001
 20
173.512
 30
0.0
 70
    32
  0
VERTEX
  5
7005
  8
AM_0
 10
112.21299999999999
 20
173.46100000000001
 30
0.0
 70
    32
  0
VERTEX
  5
7006
  8
AM_0
 10
112.26900000000001
 20
173.41200000000001
 30
0.0
 70
    32
  0
VERTEX
  5
7007
  8
AM_0
 10
112.32599999999999
 20
173.36500000000001
 30
0.0
 70
    32
  0
VERTEX
  5
7008
  8
AM_0
 10
112.384
 20
173.31999999999999
 30
0.0
 70
    32
  0
VERTEX
  5
7009
  8
AM_0
 10
112.444
 20
173.27699999999999
 30
0.0
 70
    32
  0
VERTEX
  5
700A
  8
AM_0
 10
112.505
 20
173.23500000000001
 30
0.0
 70
    32
  0
VERTEX
  5
700B
  8
AM_0
 10
112.56699999999999
 20
173.196
 30
0.0
 70
    32
  0
VERTEX
  5
700C
  8
AM_0
 10
112.63
 20
173.15799999999999
 30
0.0
 70
    32
  0
VERTEX
  5
700D
  8
AM_0
 10
112.694
 20
173.12200000000001
 30
0.0
 70
    32
  0
VERTEX
  5
700E
  8
AM_0
 10
112.76000000000001
 20
173.08799999999999
 30
0.0
 70
    32
  0
VERTEX
  5
700F
  8
AM_0
 10
112.82599999999999
 20
173.05600000000001
 30
0.0
 70
    32
  0
VERTEX
  5
7010
  8
AM_0
 10
112.89400000000001
 20
173.02600000000001
 30
0.0
 70
    32
  0
VERTEX
  5
7011
  8
AM_0
 10
112.962
 20
172.99799999999999
 30
0.0
 70
    32
  0
VERTEX
  5
7012
  8
AM_0
 10
113.03100000000001
 20
172.97200000000001
 30
0.0
 70
    32
  0
VERTEX
  5
7013
  8
AM_0
 10
113.101
 20
172.94800000000001
 30
0.0
 70
    32
  0
VERTEX
  5
7014
  8
AM_0
 10
113.172
 20
172.92699999999999
 30
0.0
 70
    32
  0
VERTEX
  5
7015
  8
AM_0
 10
113.244
 20
172.90700000000001
 30
0.0
 70
    32
  0
VERTEX
  5
7016
  8
AM_0
 10
113.31699999999999
 20
172.88900000000001
 30
0.0
 70
    32
  0
VERTEX
  5
7017
  8
AM_0
 10
113.39
 20
172.874
 30
0.0
 70
    32
  0
VERTEX
  5
7018
  8
AM_0
 10
113.464
 20
172.86000000000001
 30
0.0
 70
    32
  0
VERTEX
  5
7019
  8
AM_0
 10
113.538
 20
172.84899999999999
 30
0.0
 70
    32
  0
VERTEX
  5
701A
  8
AM_0
 10
113.613
 20
172.839
 30
0.0
 70
    32
  0
VERTEX
  5
701B
  8
AM_0
 10
113.68899999999999
 20
172.83199999999999
 30
0.0
 70
    32
  0
VERTEX
  5
701C
  8
AM_0
 10
113.765
 20
172.827
 30
0.0
 70
    32
  0
VERTEX
  5
701D
  8
AM_0
 10
113.84099999999999
 20
172.82400000000001
 30
0.0
 70
    32
  0
VERTEX
  5
701E
  8
AM_0
 10
113.91800000000001
 20
172.82400000000001
 30
0.0
 70
    32
  0
VERTEX
  5
701F
  8
AM_0
 10
113.995
 20
172.82499999999999
 30
0.0
 70
    32
  0
VERTEX
  5
7020
  8
AM_0
 10
114.07299999999999
 20
172.82900000000001
 30
0.0
 70
    32
  0
VERTEX
  5
7021
  8
AM_0
 10
114.151
 20
172.834
 30
0.0
 70
    32
  0
VERTEX
  5
7022
  8
AM_0
 10
114.229
 20
172.84200000000001
 30
0.0
 70
    32
  0
VERTEX
  5
7023
  8
AM_0
 10
114.307
 20
172.852
 30
0.0
 70
    32
  0
VERTEX
  5
7024
  8
AM_0
 10
114.38500000000001
 20
172.864
 30
0.0
 70
    32
  0
VERTEX
  5
7025
  8
AM_0
 10
114.46299999999999
 20
172.87799999999999
 30
0.0
 70
    32
  0
VERTEX
  5
7026
  8
AM_0
 10
114.541
 20
172.89400000000001
 30
0.0
 70
    32
  0
VERTEX
  5
7027
  8
AM_0
 10
114.619
 20
172.91200000000001
 30
0.0
 70
    32
  0
VERTEX
  5
7028
  8
AM_0
 10
114.69799999999999
 20
172.93299999999999
 30
0.0
 70
    32
  0
VERTEX
  5
7029
  8
AM_0
 10
114.776
 20
172.95500000000001
 30
0.0
 70
    32
  0
VERTEX
  5
702A
  8
AM_0
 10
114.85299999999999
 20
172.97900000000001
 30
0.0
 70
    32
  0
VERTEX
  5
702B
  8
AM_0
 10
114.931
 20
173.00599999999989
 30
0.0
 70
    32
  0
VERTEX
  5
702C
  8
AM_0
 10
115.008
 20
173.03399999999999
 30
0.0
 70
    32
  0
VERTEX
  5
702D
  8
AM_0
 10
115.08499999999999
 20
173.065
 30
0.0
 70
    32
  0
VERTEX
  5
702E
  8
AM_0
 10
115.16200000000001
 20
173.09700000000001
 30
0.0
 70
    32
  0
VERTEX
  5
702F
  8
AM_0
 10
115.238
 20
173.13200000000001
 30
0.0
 70
    32
  0
VERTEX
  5
7030
  8
AM_0
 10
115.31399999999999
 20
173.16800000000001
 30
0.0
 70
    32
  0
VERTEX
  5
7031
  8
AM_0
 10
115.389
 20
173.20699999999999
 30
0.0
 70
    32
  0
VERTEX
  5
7032
  8
AM_0
 10
115.464
 20
173.24700000000001
 30
0.0
 70
    32
  0
VERTEX
  5
7033
  8
AM_0
 10
115.538
 20
173.28899999999999
 30
0.0
 70
    32
  0
VERTEX
  5
7034
  8
AM_0
 10
115.611
 20
173.333
 30
0.0
 70
    32
  0
VERTEX
  5
7035
  8
AM_0
 10
115.684
 20
173.37899999999999
 30
0.0
 70
    32
  0
VERTEX
  5
7036
  8
AM_0
 10
115.756
 20
173.42599999999999
 30
0.0
 70
    32
  0
VERTEX
  5
7037
  8
AM_0
 10
115.827
 20
173.47499999999999
 30
0.0
 70
    32
  0
VERTEX
  5
7038
  8
AM_0
 10
115.898
 20
173.52600000000001
 30
0.0
 70
    32
  0
VERTEX
  5
7039
  8
AM_0
 10
115.968
 20
173.57900000000001
 30
0.0
 70
    32
  0
VERTEX
  5
703A
  8
AM_0
 10
116.036
 20
173.63399999999999
 30
0.0
 70
    32
  0
VERTEX
  5
703B
  8
AM_0
 10
116.104
 20
173.69
 30
0.0
 70
    32
  0
VERTEX
  5
703C
  8
AM_0
 10
116.17100000000001
 20
173.74700000000001
 30
0.0
 70
    32
  0
VERTEX
  5
703D
  8
AM_0
 10
116.23699999999999
 20
173.80699999999999
 30
0.0
 70
    32
  0
VERTEX
  5
703E
  8
AM_0
 10
116.301
 20
173.86699999999999
 30
0.0
 70
    32
  0
VERTEX
  5
703F
  8
AM_0
 10
116.36499999999999
 20
173.93000000000001
 30
0.0
 70
    32
  0
VERTEX
  5
7040
  8
AM_0
 10
116.42700000000001
 20
173.994
 30
0.0
 70
    32
  0
VERTEX
  5
7041
  8
AM_0
 10
116.489
 20
174.059
 30
0.0
 70
    32
  0
VERTEX
  5
7042
  8
AM_0
 10
116.54900000000001
 20
174.125
 30
0.0
 70
    32
  0
VERTEX
  5
7043
  8
AM_0
 10
116.608
 20
174.19300000000001
 30
0.0
 70
    32
  0
VERTEX
  5
7044
  8
AM_0
 10
116.66500000000001
 20
174.262
 30
0.0
 70
    32
  0
VERTEX
  5
7045
  8
AM_0
 10
116.72199999999999
 20
174.333
 30
0.0
 70
    32
  0
VERTEX
  5
7046
  8
AM_0
 10
116.776
 20
174.405
 30
0.0
 70
    32
  0
VERTEX
  5
7047
  8
AM_0
 10
116.83
 20
174.477
 30
0.0
 70
    32
  0
VERTEX
  5
7048
  8
AM_0
 10
116.88200000000001
 20
174.55099999999999
 30
0.0
 70
    32
  0
VERTEX
  5
7049
  8
AM_0
 10
116.93300000000001
 20
174.62700000000001
 30
0.0
 70
    32
  0
VERTEX
  5
704A
  8
AM_0
 10
116.982
 20
174.703
 30
0.0
 70
    32
  0
VERTEX
  5
704B
  8
AM_0
 10
117.03
 20
174.78
 30
0.0
 70
    32
  0
VERTEX
  5
704C
  8
AM_0
 10
117.07599999999999
 20
174.858
 30
0.0
 70
    32
  0
SEQEND
  5
704D
  8
AM_0
  0
LINE
  5
6536
  8
AM_0
 10
131.69739380279401
 20
272.8681109062278
 30
0.0
 11
131.69739380279401
 21
265.26811090622772
 31
0.0
1001
GENIUS_GENOREF_13
1005
0
  0
LINE
  5
6537
  8
AM_0
 10
131.69739380279401
 20
265.26811090622772
 30
0.0
 11
132.69739380279401
 21
265.26811090622772
 31
0.0
1001
GENIUS_GENOREF_13
1005
0
  0
LINE
  5
6538
  8
AM_0
 10
132.69739380279401
 20
268.8681109062278
 30
0.0
 11
131.69739380279401
 21
268.50414067196152
 31
0.0
1001
GENIUS_GENOREF_13
1005
0
  0
LINE
  5
6539
  8
AM_0
 10
132.69739380279401
 20
269.26811090622772
 30
0.0
 11
131.69739380279401
 21
268.9041406719615
 31
0.0
1001
GENIUS_GENOREF_13
1005
0
  0
LINE
  5
653A
  8
AM_0
 10
132.69739380279401
 20
272.8681109062278
 30
0.0
 11
131.69739380279401
 21
272.8681109062278
 31
0.0
1001
GENIUS_GENOREF_13
1005
0
  0
LINE
  5
653B
  8
AM_0N
 10
130.6384562906662
 20
265.16075593392122
 30
0.0
 11
131.69739380279401
 21
265.06811090622767
 31
0.0
  0
LINE
  5
653C
  8
AM_0N
 10
130.6384562906662
 20
272.97546587853418
 30
0.0
 11
131.69739380279401
 21
273.06811090622779
 31
0.0
  0
ARC
  5
653D
  8
AM_0N
 10
135.09739380279399
 20
269.06811090622767
 30
0.0
 40
6.5
 50
151.82726586813479
 51
208.1727341318651
  0
ARC
  5
653E
  8
AM_0N
 10
130.77790547906241
 20
271.3815543615874
 30
0.0
 40
1.6000000000000001
 50
94.999999999999758
 51
151.82726586813479
  0
ARC
  5
653F
  8
AM_0N
 10
130.77790547906241
 20
266.75466745086811
 30
0.0
 40
1.6000000000000001
 50
208.1727341318651
 51
265.00000000000028
  0
LINE
  5
6540
  8
AM_0N
 10
131.69739380279401
 20
273.06811090622779
 30
0.0
 11
131.69739380279401
 21
265.06811090622767
 31
0.0
  0
LINE
  5
6541
  8
AM_0
 10
131.69739380279401
 20
195.47325509993749
 30
0.0
 11
131.69739380279401
 21
190.0056109062277
 31
0.0
1001
GENIUS_GENOREF_13
1005
0
  0
LINE
  5
6542
  8
AM_0
 10
131.69739380279401
 20
190.2056109062278
 30
0.0
 11
132.69739380279401
 21
190.2056109062278
 31
0.0
1001
GENIUS_GENOREF_13
1005
0
  0
LINE
  5
6543
  8
AM_0
 10
132.69739380279401
 20
193.8056109062278
 30
0.0
 11
131.69739380279401
 21
193.44164067196161
 31
0.0
1001
GENIUS_GENOREF_13
1005
0
  0
LINE
  5
6544
  8
AM_0
 10
132.69739380279401
 20
194.2056109062278
 30
0.0
 11
131.69739380279401
 21
193.84164067196161
 31
0.0
1001
GENIUS_GENOREF_13
1005
0
  0
LINE
  5
6545
  8
AM_0N
 10
130.6384562906662
 20
190.09825593392131
 30
0.0
 11
131.69739380279401
 21
190.0056109062277
 31
0.0
  0
ARC
  5
6546
  8
AM_0N
 10
135.09739380279399
 20
194.0056109062277
 30
0.0
 40
6.5
 50
182.900769989091
 51
208.1727341318651
  0
ARC
  5
6547
  8
AM_0N
 10
130.7779054790625
 20
191.69216745086811
 30
0.0
 40
1.6000000000000001
 50
208.1727341318651
 51
265.00000000000028
  0
ARC
  5
6548
  8
AM_0
 10
635.17844953975964
 20
314.5681109062279
 30
0.0
 40
9.9999999999999964
 50
71.805182709315133
 51
90.0
  0
ARC
  5
6549
  8
AM_0
 10
635.17844953975964
 20
314.5681109062279
 30
0.0
 40
10.0
 50
90.0
 51
108.1948172906848
  0
LINE
  5
654F
  8
AM_0
 10
528.17844953975964
 20
173.06811090622779
 30
0.0
 11
552.021500921354
 21
173.90072860750439
 31
0.0
  0
LINE
  5
6550
  8
AM_0
 10
550.17847753975946
 20
264.299852999628
 30
0.0
 11
528.17844953975964
 21
265.06811090622801
 31
0.0
  0
LINE
  5
6551
  8
AM_0
 10
528.17844953975964
 20
265.06811090622801
 30
0.0
 11
528.17844953975964
 21
173.06811090622759
 31
0.0
  0
LINE
  5
6552
  8
ﾁｭｳｼﾝｾﾝ1
 10
517.17844953975953
 20
178.0681109062285
 30
0.0
 11
533.00597255229616
 21
178.06811090622841
 31
0.0
  0
LINE
  5
6553
  8
AM_0
 10
524.17844953975964
 20
265.06811090622801
 30
0.0
 11
524.17844953975964
 21
244.25360600669549
 31
0.0
  0
LINE
  5
6554
  8
AM_0
 10
524.17844953975964
 20
193.8826158057602
 30
0.0
 11
524.17844953975964
 21
173.06811090622861
 31
0.0
  0
LINE
  5
6555
  8
AM_0
 10
520.17844953975975
 20
258.93232923706728
 30
0.0
 11
520.17844953975953
 21
179.20389257538841
 31
0.0
  0
LINE
  5
6556
  8
AM_0
 10
522.1195120276318
 20
181.97546587853489
 30
0.0
 11
523.17844953975964
 21
182.06811090622841
 31
0.0
  0
LINE
  5
6557
  8
AM_0
 10
522.1195120276318
 20
174.16075593392199
 30
0.0
 11
523.17844953975964
 21
174.06811090622841
 31
0.0
  0
ARC
  5
6558
  8
AM_0
 10
526.5784495397595
 20
178.06811090622841
 30
0.0
 40
6.5
 50
151.82726586813479
 51
208.1727341318651
  0
ARC
  5
6559
  8
AM_0
 10
522.25896121602796
 20
175.75466745086871
 30
0.0
 40
1.6000000000000001
 50
208.1727341318651
 51
265.00000000000028
  0
LINE
  5
655A
  8
AM_0
 10
520.49897587833118
 20
180.36811090622831
 30
0.0
 11
522.78853555712681
 21
178.06811090622841
 31
0.0
  0
LINE
  5
655B
  8
AM_0
 10
522.47844953975959
 20
178.37961090622841
 30
0.0
 11
522.47844953975959
 21
177.75661090622839
 31
0.0
  0
LINE
  5
655C
  8
AM_0
 10
520.49897587833118
 20
175.7681109062284
 30
0.0
 11
522.78853555712681
 21
178.06811090622841
 31
0.0
  0
LINE
  5
655D
  8
AM_0
 10
520.08591784942485
 20
178.37961090622841
 30
0.0
 11
522.47844953975959
 21
178.37961090622841
 31
0.0
  0
LINE
  5
655E
  8
AM_0
 10
520.08591784942485
 20
177.75661090622839
 30
0.0
 11
522.47844953975959
 21
177.75661090622839
 31
0.0
  0
ARC
  5
655F
  8
AM_0
 10
522.25896121602796
 20
180.38155436158809
 30
0.0
 40
1.6000000000000001
 50
94.999999999999758
 51
151.82726586813479
  0
LINE
  5
6560
  8
AM_0
 10
524.17844953975964
 20
265.06811090622801
 30
0.0
 11
528.17844953975964
 21
265.06811090622801
 31
0.0
  0
LINE
  5
6561
  8
AM_0
 10
523.17844953975941
 20
264.06811090622767
 30
0.0
 11
524.17844953975975
 21
265.06811090622801
 31
0.0
  0
LINE
  5
6562
  8
AM_0
 10
528.17844953975964
 20
173.06811090622759
 30
0.0
 11
524.17844953975964
 21
173.06811090622861
 31
0.0
  0
LINE
  5
6563
  8
AM_0N
 10
524.17844953975964
 20
181.86811090622851
 30
0.0
 11
523.17844953975964
 21
181.86811090622851
 31
0.0
  0
LINE
  5
6564
  8
AM_0N
 10
523.17844953975964
 20
178.2681109062284
 30
0.0
 11
524.17844953975964
 21
178.63208114049451
 31
0.0
  0
LINE
  5
6565
  8
AM_0N
 10
523.17844953975964
 20
177.86811090622851
 30
0.0
 11
524.17844953975964
 21
178.23208114049461
 31
0.0
  0
LINE
  5
6566
  8
AM_0N
 10
523.17844953975964
 20
174.06811090622841
 30
0.0
 11
523.17844953975964
 21
182.06811090622841
 31
0.0
  0
LINE
  5
6567
  8
AM_0N
 10
523.17844953975964
 20
174.2681109062284
 30
0.0
 11
524.17844953975964
 21
174.2681109062284
 31
0.0
  0
LINE
  5
6568
  8
AM_0
 10
520.17844953975953
 20
193.88261580576011
 30
0.0
 11
524.17844953975964
 21
193.8826158057602
 31
0.0
  0
LINE
  5
6569
  8
AM_0
 10
524.17844953975964
 20
192.22576155626771
 30
0.0
 11
520.17844953975953
 21
193.88261580576011
 31
0.0
  0
LINE
  5
656A
  8
AM_0
 10
520.17844953975975
 20
244.25360600669549
 30
0.0
 11
524.17844953975964
 21
244.25360600669549
 31
0.0
  0
LINE
  5
656B
  8
AM_0
 10
524.17844953975964
 20
245.910460256188
 30
0.0
 11
520.17844953975975
 21
244.25360600669549
 31
0.0
  0
LINE
  5
656C
  8
ﾁｭｳｼﾝｾﾝ1
 10
517.17844953975975
 20
260.0681109062271
 30
0.0
 11
533.00597255229616
 21
260.06811090622728
 31
0.0
  0
LINE
  5
656D
  8
AM_0
 10
522.1195120276318
 20
256.16075593392088
 30
0.0
 11
523.17844953975964
 21
256.06811090622728
 31
0.0
  0
LINE
  5
656E
  8
AM_0
 10
522.1195120276318
 20
263.97546587853373
 30
0.0
 11
523.17844953975964
 21
264.06811090622728
 31
0.0
  0
ARC
  5
656F
  8
AM_0
 10
526.5784495397595
 20
260.06811090622728
 30
0.0
 40
6.5
 50
151.82726586813479
 51
208.1727341318651
  0
ARC
  5
6570
  8
AM_0
 10
522.25896121602796
 20
262.38155436158701
 30
0.0
 40
1.6000000000000001
 50
94.999999999999758
 51
151.82726586813479
  0
LINE
  5
6571
  8
AM_0
 10
520.49897587833118
 20
257.76811090622732
 30
0.0
 11
522.78853555712681
 21
260.06811090622728
 31
0.0
  0
LINE
  5
6572
  8
AM_0
 10
522.47844953975959
 20
259.75661090622731
 30
0.0
 11
522.47844953975959
 21
260.3796109062273
 31
0.0
  0
LINE
  5
6573
  8
AM_0
 10
520.49897587833118
 20
262.36811090622717
 30
0.0
 11
522.78853555712681
 21
260.06811090622728
 31
0.0
  0
LINE
  5
6574
  8
AM_0
 10
520.08591784942485
 20
259.75661090622731
 30
0.0
 11
522.47844953975959
 21
259.75661090622731
 31
0.0
  0
LINE
  5
6575
  8
AM_0
 10
520.08591784942485
 20
260.3796109062273
 30
0.0
 11
522.47844953975959
 21
260.3796109062273
 31
0.0
  0
ARC
  5
6576
  8
AM_0
 10
522.25896121602796
 20
257.7546674508676
 30
0.0
 40
1.6000000000000001
 50
208.1727341318651
 51
265.00000000000028
  0
LINE
  5
6577
  8
AM_0N
 10
524.17844953975964
 20
256.26811090622721
 30
0.0
 11
523.17844953975964
 21
256.26811090622721
 31
0.0
  0
LINE
  5
6578
  8
AM_0N
 10
523.17844953975964
 20
259.86811090622729
 30
0.0
 11
524.17844953975964
 21
259.50414067196112
 31
0.0
  0
LINE
  5
6579
  8
AM_0N
 10
523.17844953975964
 20
260.26811090622721
 30
0.0
 11
524.17844953975964
 21
259.9041406719611
 31
0.0
  0
LINE
  5
657A
  8
AM_0N
 10
523.17844953975964
 20
264.06811090622728
 30
0.0
 11
523.17844953975964
 21
256.06811090622728
 31
0.0
  0
LINE
  5
657B
  8
AM_0N
 10
523.17844953975964
 20
263.86811090622717
 30
0.0
 11
524.17844953975964
 21
263.86811090622717
 31
0.0
  0
CIRCLE
  5
657C
  8
AM_0
 10
635.17844953975964
 20
239.0681269062276
 30
0.0
 40
33.499999999999893
  0
CIRCLE
  5
657D
  8
AM_0
 10
635.17844953975964
 20
239.0681269062276
 30
0.0
 40
28.49999999999994
  0
LINE
  5
6586
  8
ﾁｭｳｼﾝｾﾝ
 10
427.9098538027942
 20
239.06809690622779
 30
0.0
 11
294.87512380279418
 21
239.06809690622779
 31
0.0
  0
LINE
  5
658D
  8
AM_0
 10
305.19734380279419
 20
268.73524090622777
 30
0.0
 11
305.19734380279419
 21
249.0961429062279
 31
0.0
  0
LINE
  5
658E
  8
ﾁｭｳｼﾝｾﾝ
 10
90.508578930471558
 20
219.0681109062277
 30
0.0
 11
324.17129380279431
 21
219.0681109062277
 31
0.0
  0
LINE
  5
658F
  8
AM_0
 10
279.19739380279412
 20
275.06809690622771
 30
0.0
 11
305.32826380279408
 21
275.7523639062278
 31
0.0
  0
LINE
  5
6590
  8
AM_0
 10
279.19739380279412
 20
163.0680949062278
 30
0.0
 11
302.275883802794
 21
162.46376890622781
 31
0.0
  0
LINE
  5
6591
  8
AM_0
 10
279.19739380279412
 20
163.06810990622779
 30
0.0
 11
279.19739380279412
 21
275.06809690622771
 31
0.0
  0
LINE
  5
6592
  8
AM_0
 10
312.19739380279418
 20
290.06809690622782
 30
0.0
 11
317.19734380279419
 21
290.06809690622782
 31
0.0
  0
LINE
  5
6593
  8
AM_0
 10
310.1974138027943
 20
288.06809890622787
 30
0.0
 11
310.1974138027943
 21
272.73527290622781
 31
0.0
  0
LINE
  5
6594
  8
AM_0
 10
307.19741380279419
 20
270.73524190622783
 30
0.0
 11
308.19734380279419
 21
270.73524190622783
 31
0.0
  0
LINE
  5
6595
  8
AM_0
 10
305.19734380279419
 20
156.19802290622769
 30
0.0
 11
310.1974138027943
 21
156.19802290622769
 31
0.0
  0
LINE
  5
6596
  8
AM_0
 10
305.19734380279419
 20
169.8523519062278
 30
0.0
 11
310.1974138027943
 21
169.8523519062278
 31
0.0
  0
LINE
  5
6597
  8
AM_0
 10
305.19734380279419
 20
247.0961569062278
 30
0.0
 11
310.1974138027943
 21
247.0961569062278
 31
0.0
  0
LINE
  5
6598
  8
AM_0
 10
307.19741380279419
 20
262.5624529062278
 30
0.0
 11
308.19734380279419
 21
262.5624529062278
 31
0.0
  0
LINE
  5
6599
  8
AM_0
 10
310.1974138027943
 20
260.56242190622783
 30
0.0
 11
310.1974138027943
 21
150.06810790622779
 31
0.0
  0
LINE
  5
659A
  8
AM_0
 10
305.19734380279419
 20
167.85236590622779
 30
0.0
 11
305.19734380279419
 21
156.06811090622779
 31
0.0
  0
LINE
  5
659B
  8
AM_0
 10
279.19739380279412
 20
265.06809790622782
 30
0.0
 11
305.19734380279419
 21
265.06809790622782
 31
0.0
  0
LINE
  5
659C
  8
AM_0
 10
279.19739380279412
 20
251.00510890622789
 30
0.0
 11
305.19734380279419
 21
251.00510890622789
 31
0.0
  0
LINE
  5
659D
  8
AM_0
 10
279.19739380279412
 20
187.13109790622781
 30
0.0
 11
310.1974138027943
 21
187.13109790622781
 31
0.0
  0
LINE
  5
659E
  8
AM_0
 10
279.19739380279412
 20
173.06809390622769
 30
0.0
 11
310.1974138027943
 21
173.06809390622769
 31
0.0
  0
LINE
  5
659F
  8
AM_0
 10
312.19739380279418
 20
148.0680949062278
 30
0.0
 11
317.19734380279419
 21
148.0680949062278
 31
0.0
  0
LINE
  5
65A0
  8
AM_0
 10
377.90960380279398
 20
271.29871990622769
 30
0.0
 11
380.19733380279382
 21
268.57227539086631
 31
0.0
  0
LINE
  5
65A1
  8
AM_0
 10
377.19734380279419
 20
156.56809390622769
 30
0.0
 11
377.19734380279419
 21
324.06811390622778
 31
0.0
  0
LINE
  5
65A2
  8
AM_0
 10
367.19738380279398
 20
158.84867290622779
 30
0.0
 11
367.19738380279398
 21
191.91376690622781
 31
0.0
  0
LINE
  5
65A3
  8
AM_0
 10
349.19738380279409
 20
303.14206390622797
 30
0.0
 11
349.19738380279409
 21
257.91294490622789
 31
0.0
  0
LINE
  5
65A4
  8
AM_0
 10
377.19734380279419
 20
309.06808390622768
 30
0.0
 11
381.19736380279397
 21
309.06808390622768
 31
0.0
  0
LINE
  5
65A5
  8
AM_0
 10
369.12755380279418
 20
323.78629390622768
 30
0.0
 11
377.19734380279419
 21
324.06811390622778
 31
0.0
  0
LINE
  5
65A6
  8
AM_0
 10
354.52286380279401
 20
308.13901390622777
 30
0.0
 11
364.30208380279402
 21
308.4805039062278
 31
0.0
  0
LINE
  5
65A7
  8
ﾁｭｳｼﾝｾﾝ
 10
545.2026190397595
 20
239.0681269062276
 30
0.0
 11
725.15428003975956
 21
239.0681269062276
 31
0.0
  0
LINE
  5
65A8
  8
ﾁｭｳｼﾝｾﾝ
 10
674.15379466554964
 20
219.0681109062279
 30
0.0
 11
596.20310441396964
 21
219.0681109062279
 31
0.0
  0
LINE
  5
65A9
  8
ﾁｭｳｼﾝｾﾝ
 10
635.17844953975964
 20
328.56640718143927
 30
0.0
 11
635.17844953975964
 21
137.2048129062278
 31
0.0
  0
LINE
  5
65AA
  8
AM_0
 10
687.17846353975949
 20
234.0681109062277
 30
0.0
 11
687.17846353975949
 21
217.06810990622779
 31
0.0
  0
LINE
  5
65AB
  8
AM_0
 10
317.19734380279419
 20
290.06809690622782
 30
0.0
 11
317.19734380279419
 21
145.56810790622779
 31
0.0
  0
LINE
  5
65AC
  8
AM_0
 10
568.24051753975959
 20
250.8710599062278
 30
0.0
 11
568.24051753975959
 21
250.8710599062278
 31
0.0
  0
LINE
  5
65AD
  8
AM_0
 10
377.19734380279419
 20
169.06810990622779
 30
0.0
 11
381.19736380279397
 21
169.06810990622779
 31
0.0
  0
LINE
  5
65AE
  8
AM_0
 10
690.85670353975945
 20
278.05442590622778
 30
0.0
 11
690.85670353975945
 21
278.05442590622778
 31
0.0
  0
LINE
  5
65AF
  8
AM_0
 10
702.11642353975935
 20
250.8710599062278
 30
0.0
 11
702.11642353975935
 21
250.8710599062278
 31
0.0
  0
LINE
  5
65B0
  8
AM_0
 10
381.19736380279397
 20
250.8710599062278
 30
0.0
 11
381.19736380279397
 21
169.06810990622779
 31
0.0
  0
LINE
  5
65B1
  8
AM_0
 10
579.50022253975965
 20
278.05442590622778
 30
0.0
 11
579.50022253975965
 21
278.05442590622778
 31
0.0
  0
LINE
  5
65B2
  8
AM_0
 10
367.19738380279398
 20
281.01975790622788
 30
0.0
 11
367.19738380279398
 21
321.78748390622798
 31
0.0
  0
LINE
  5
65B4
  8
ﾁｭｳｼﾝｾﾝ1
 10
555.27539380261828
 20
159.16504433251879
 30
0.0
 11
573.66017748890954
 21
177.54981326792421
 31
0.0
  0
LINE
  5
65B5
  8
AM_0
 10
550.17847753975946
 20
269.06809690622771
 30
0.0
 11
552.4461175397596
 21
312.33751390622768
 31
0.0
  0
LINE
  5
65B6
  8
AM_0
 10
605.17844653975965
 20
324.06811390622778
 30
0.0
 11
635.17844953975964
 21
324.06811390622778
 31
0.0
  0
LINE
  5
65B7
  8
AM_0
 10
597.17844553975942
 20
214.06810990622779
 30
0.0
 11
576.14457253975945
 21
214.06810990622779
 31
0.0
  0
LINE
  5
65B8
  8
AM_0
 10
550.17847753975946
 20
269.06809690622771
 30
0.0
 11
550.17847753975946
 21
239.06809690622779
 31
0.0
  0
LINE
  5
65B9
  8
AM_0
 10
605.17846153975961
 20
324.06811390622778
 30
0.0
 11
561.90903553975966
 21
321.80044390622783
 31
0.0
  0
LINE
  5
65BA
  8
AM_0
 10
354.19736380279397
 20
252.91296190622779
 30
0.0
 11
368.42813380279398
 21
252.91296190622779
 31
0.0
  0
LINE
  5
65BB
  8
AM_0
 10
371.19734380279419
 20
174.78676990622779
 30
0.0
 11
371.19734380279419
 21
305.84944390622798
 31
0.0
  0
LINE
  5
65BC
  8
AM_0
 10
369.12758380279399
 20
156.84989290622769
 30
0.0
 11
377.19737380279412
 21
156.56809390622769
 31
0.0
  0
LINE
  5
65BD
  8
AM_0
 10
317.19740380279399
 20
290.06809690622782
 30
0.0
 11
346.27589380279397
 21
290.82954190622769
 31
0.0
  0
LINE
  5
65BE
  8
AM_0
 10
550.17844753975953
 20
209.06809690622779
 30
0.0
 11
552.43321753975943
 21
166.0447489062278
 31
0.0
  0
LINE
  5
65BF
  8
AM_0
 10
550.17847753975946
 20
209.06809690622779
 30
0.0
 11
550.17847753975946
 21
239.06809690622779
 31
0.0
  0
LINE
  5
65C0
  8
AM_0
 10
562.41950353975972
 20
156.56809390622769
 30
0.0
 11
591.6291595397596
 21
156.56809390622769
 31
0.0
  0
LINE
  5
65C1
  8
AM_0
 10
678.72773653975958
 20
156.56809390622769
 30
0.0
 11
707.93740753975953
 21
156.56809390622769
 31
0.0
  0
LINE
  5
65C2
  8
AM_0
 10
720.17845153975918
 20
209.06809690622779
 30
0.0
 11
720.17845153975918
 21
239.06809690622779
 31
0.0
  0
LINE
  5
65C4
  8
AM_0
 10
665.17844953975964
 20
324.06811390622778
 30
0.0
 11
635.17844953975964
 21
324.06811390622778
 31
0.0
  0
LINE
  5
65C5
  8
AM_0
 10
317.19734380279419
 20
267.86512390622778
 30
0.0
 11
347.5156438027941
 21
267.86512390622778
 31
0.0
  0
LINE
  5
65C6
  8
AM_0
 10
317.19734380279419
 20
145.56810790622779
 30
0.0
 11
353.19734380279419
 21
144.06810790622779
 31
0.0
  0
LINE
  5
65C7
  8
AM_0
 10
353.19734380279419
 20
159.47857090622779
 30
0.0
 11
353.19734380279419
 21
144.06810790622779
 31
0.0
  0
LINE
  5
65C8
  8
AM_0
 10
354.1712038027942
 20
160.47823390622781
 30
0.0
 11
367.19738380279398
 21
160.81933090622769
 31
0.0
  0
LINE
  5
65C9
  8
AM_0
 10
350.64554380279418
 20
278.79676690622767
 30
0.0
 11
367.6828138027941
 21
278.79676690622767
 31
0.0
  0
LINE
  5
65CA
  8
AM_0
 10
583.17844753975953
 20
234.0681109062277
 30
0.0
 11
583.17844753975953
 21
217.06810990622779
 31
0.0
  0
LINE
  5
65CB
  8
AM_0
 10
572.37717553975961
 20
241.06811290622781
 30
0.0
 11
580.40619853975954
 21
241.06811290622781
 31
0.0
  0
LINE
  5
65CC
  8
AM_0
 10
668.17844953975964
 20
233.3018456088931
 30
0.0
 11
668.17844953975964
 21
219.0681109062277
 31
0.0
  0
LINE
  5
65CD
  8
AM_0
 10
572.37717553975961
 20
237.0681109062279
 30
0.0
 11
580.17844753975953
 21
237.0681109062279
 31
0.0
  0
LINE
  5
65CE
  8
AM_0
 10
677.78834353975958
 20
285.21351490622789
 30
0.0
 11
658.5677005397597
 21
265.99287190622789
 31
0.0
  0
LINE
  5
65CF
  8
AM_0
 10
681.32386453975948
 20
281.67799090622782
 30
0.0
 11
662.10323953975956
 21
262.45734790622782
 31
0.0
  0
LINE
  5
65D0
  8
AM_0
 10
592.56858253975952
 20
285.21351490622789
 30
0.0
 11
611.7892255397594
 21
265.99287190622789
 31
0.0
  0
LINE
  5
65D1
  8
AM_0
 10
607.05117253975948
 20
144.16298890622781
 30
0.0
 11
663.30573853975955
 21
144.16298890622781
 31
0.0
  0
LINE
  5
65D2
  8
AM_0
 10
673.17846553975949
 20
214.06810990622779
 30
0.0
 11
694.21235353975953
 21
214.06810990622779
 31
0.0
  0
LINE
  5
65D3
  8
AM_0
 10
637.17846253975938
 20
301.86937390622768
 30
0.0
 11
637.17846253975938
 21
293.84037490622779
 31
0.0
  0
LINE
  5
65D4
  8
AM_0
 10
633.17844853975919
 20
301.86937390622768
 30
0.0
 11
633.17844853975919
 21
293.84037490622779
 31
0.0
  0
LINE
  5
65D5
  8
AM_0
 10
589.03306153975961
 20
281.67796090622761
 30
0.0
 11
608.25368953975965
 21
262.45734790622782
 31
0.0
  0
LINE
  5
65D6
  8
AM_0
 10
697.97973553975964
 20
241.06811290622781
 30
0.0
 11
689.95071253975971
 21
241.06811290622781
 31
0.0
  0
LINE
  5
65D7
  8
AM_0
 10
697.97973553975964
 20
237.0681109062279
 30
0.0
 11
690.1784635397596
 21
237.0681109062279
 31
0.0
  0
LINE
  5
65D8
  8
AM_0
 10
591.6291595397596
 20
156.56810890622771
 30
0.0
 11
594.22724353975957
 21
161.06810890622771
 31
0.0
  0
LINE
  5
65D9
  8
AM_0
 10
678.72775153975965
 20
156.56809390622769
 30
0.0
 11
676.12966753975945
 21
161.06810890622771
 31
0.0
  0
LINE
  5
65DA
  8
AM_0
 10
317.19734380279419
 20
156.19802290622769
 30
0.0
 11
353.19734380279419
 21
156.19802290622769
 31
0.0
  0
LINE
  5
65DB
  8
AM_0
 10
349.19738380279409
 20
285.30177190622771
 30
0.0
 11
365.52650380279402
 21
293.3715949062277
 31
0.0
  0
LINE
  5
65DC
  8
AM_0
 10
351.19736380279397
 20
281.72526490622778
 30
0.0
 11
364.65344380279441
 21
281.72526490622778
 31
0.0
  0
LINE
  5
65DD
  8
AM_0
 10
720.17845153975918
 20
269.06809690622771
 30
0.0
 11
720.17845153975918
 21
239.06809690622779
 31
0.0
  0
LINE
  5
65DE
  8
AM_0
 10
720.17845153975918
 20
269.06809690622771
 30
0.0
 11
717.91079653975964
 21
312.33751390622768
 31
0.0
  0
LINE
  5
65DF
  8
AM_0
 10
720.17846653975971
 20
209.06809690622779
 30
0.0
 11
717.92370553975945
 21
166.0447489062278
 31
0.0
  0
LINE
  5
65E0
  8
AM_0
 10
665.17846453975949
 20
324.06811390622778
 30
0.0
 11
708.44787553975937
 21
321.80047390622798
 31
0.0
  0
LINE
  5
65E1
  8
AM_0
 10
594.22724353975957
 20
161.06812390622781
 30
0.0
 11
676.12966753975945
 21
161.06812390622781
 31
0.0
  0
LINE
  5
65E2
  8
AM_0
 10
377.19734380279419
 20
277.69273090622789
 30
0.0
 11
381.19736380279397
 21
277.69273090622789
 31
0.0
  0
LINE
  5
65E3
  8
AM_0
 10
377.19734380279419
 20
250.8710599062278
 30
0.0
 11
381.19736380279397
 21
250.8710599062278
 31
0.0
  0
LINE
  5
65E4
  8
AM_0
 10
381.19736380279397
 20
277.69273090622789
 30
0.0
 11
381.19736380279397
 21
309.06808390622768
 31
0.0
  0
LINE
  5
65E6
  8
AM_0
 10
602.17844653975965
 20
233.30186277769641
 30
0.0
 11
602.17844653975965
 21
219.0681109062277
 31
0.0
  0
LINE
  5
65E7
  8
AM_0
 10
669.05573653975955
 20
151.16298790622781
 30
0.0
 11
666.18073753975932
 21
146.18334490622789
 31
0.0
  0
LINE
  5
65E8
  8
AM_0
 10
666.18073753975932
 20
146.18334490622789
 30
0.0
 11
660.43075153975951
 21
146.18334490622789
 31
0.0
  0
LINE
  5
65E9
  8
AM_0
 10
660.43073653975955
 20
146.18334490622789
 30
0.0
 11
657.55573753975932
 21
151.16297290622771
 31
0.0
  0
LINE
  5
65EA
  8
AM_0
 10
657.55573753975932
 20
151.16298790622781
 30
0.0
 11
660.43073653975955
 21
156.14263390622759
 31
0.0
  0
LINE
  5
65EB
  8
AM_0
 10
666.18073753975932
 20
156.14263390622759
 30
0.0
 11
660.43075153975951
 21
156.14263390622759
 31
0.0
  0
LINE
  5
65EC
  8
AM_0
 10
669.05573653975955
 20
151.16298790622781
 30
0.0
 11
666.1807525397594
 21
156.14263390622759
 31
0.0
  0
LINE
  5
65ED
  8
AM_0
 10
612.80117353975947
 20
151.16298790622781
 30
0.0
 11
609.9261745397597
 21
156.14263390622759
 31
0.0
  0
LINE
  5
65EE
  8
AM_0
 10
609.92615953975962
 20
156.14263390622759
 30
0.0
 11
604.17618853975932
 21
156.14263390622759
 31
0.0
  0
LINE
  5
65EF
  8
AM_0
 10
601.30115953975962
 20
151.16298790622781
 30
0.0
 11
604.17615853975951
 21
156.14263390622759
 31
0.0
  0
LINE
  5
65F0
  8
AM_0
 10
604.17615853975951
 20
146.18334490622789
 30
0.0
 11
601.30115953975962
 21
151.16297290622771
 31
0.0
  0
LINE
  5
65F1
  8
AM_0
 10
609.92615953975962
 20
146.18334490622789
 30
0.0
 11
604.17618853975932
 21
146.18334490622789
 31
0.0
  0
LINE
  5
65F2
  8
AM_0
 10
612.80115853975951
 20
151.16298790622781
 30
0.0
 11
609.92615953975962
 21
146.18334490622789
 31
0.0
  0
LINE
  5
65F3
  8
AM_0
 10
582.61701553975945
 20
263.81211490622781
 30
0.0
 11
579.74201353975957
 21
258.83244190622781
 31
0.0
  0
LINE
  5
65F4
  8
AM_0
 10
579.74201353975957
 20
258.83244190622781
 30
0.0
 11
573.99201553975945
 21
258.83244190622781
 31
0.0
  0
LINE
  5
65F5
  8
AM_0
 10
573.99201553975945
 20
258.83247190622791
 30
0.0
 11
571.11701353975945
 21
263.81208490622782
 31
0.0
  0
LINE
  5
65F6
  8
AM_0
 10
571.11701353975945
 20
263.81208490622782
 30
0.0
 11
573.99201553975945
 21
268.79176090622781
 31
0.0
  0
LINE
  5
65F7
  8
AM_0
 10
579.74201353975957
 20
268.79173090622788
 30
0.0
 11
573.99201553975945
 21
268.79173090622788
 31
0.0
  0
LINE
  5
65F8
  8
AM_0
 10
582.61698553975964
 20
263.81211490622781
 30
0.0
 11
579.74201353975957
 21
268.79173090622788
 31
0.0
  0
LINE
  5
65F9
  8
AM_0
 10
699.23994253975957
 20
263.8120249062278
 30
0.0
 11
696.36495853975953
 21
258.8323789062278
 31
0.0
  0
LINE
  5
65FA
  8
AM_0
 10
696.36495853975953
 20
258.8323789062278
 30
0.0
 11
690.61495753975964
 21
258.8323789062278
 31
0.0
  0
LINE
  5
65FB
  8
AM_0
 10
690.61494253975968
 20
258.83240890622773
 30
0.0
 11
687.73994353975945
 21
263.8120249062278
 31
0.0
  0
LINE
  5
65FC
  8
AM_0
 10
687.73995853975953
 20
263.8120249062278
 30
0.0
 11
690.61495753975964
 21
268.7916679062277
 31
0.0
  0
LINE
  5
65FD
  8
AM_0
 10
696.36495853975953
 20
268.79170090622779
 30
0.0
 11
690.61495753975964
 21
268.79170090622779
 31
0.0
  0
LINE
  5
65FE
  8
AM_0
 10
699.23994253975957
 20
263.81205490622779
 30
0.0
 11
696.36495853975953
 21
268.79170090622779
 31
0.0
  0
ARC
  5
6602
  8
AM_0
 10
305.19734380279419
 20
280.75065490622791
 30
0.0
 40
5.0000001000000003
 50
271.50000000000267
 51
0.0
  0
ARC
  5
6603
  8
AM_0
 10
312.19739380279418
 20
288.06809890622787
 30
0.0
 40
2.00000007
 50
90.00000299999769
 51
180.00000999999941
  0
ARC
  5
6604
  8
AM_0
 10
302.19734380279419
 20
159.46480690622781
 30
0.0
 40
3.0
 50
0.0
 51
88.499997000000747
  0
ARC
  5
6605
  8
AM_0
 10
307.19741380279419
 20
268.73524090622777
 30
0.0
 40
2.00000007
 50
90.00000299999769
 51
180.00000999999941
  0
ARC
  5
6606
  8
AM_0
 10
308.19734380279419
 20
272.73527290622781
 30
0.0
 40
2.00000007
 50
270.0
 51
0.0
  0
ARC
  5
6607
  8
AM_0
 10
307.19741380279419
 20
264.56245090622792
 30
0.0
 40
2.00000007
 50
179.99999000000059
 51
270.0
  0
ARC
  5
6608
  8
AM_0
 10
308.19734380279419
 20
260.56242190622783
 30
0.0
 40
2.00000007
 50
0.0
 51
90.00000299999769
  0
ARC
  5
6609
  8
AM_0
 10
303.19739380279418
 20
249.0961429062279
 30
0.0
 40
2.00000007
 50
270.0
 51
0.0
  0
ARC
  5
660A
  8
AM_0
 10
303.19739380279418
 20
167.85236590622779
 30
0.0
 40
2.00000007
 50
0.0
 51
90.00000299999769
  0
ARC
  5
660B
  8
AM_0
 10
307.19741380279419
 20
154.1980369062278
 30
0.0
 40
2.00000007
 50
90.00000299999769
 51
110.7662300000012
  0
ARC
  5
660C
  8
AM_0
 10
312.19739380279418
 20
150.06810790622779
 30
0.0
 40
2.00000007
 50
179.99999000000059
 51
270.0
  0
ARC
  5
660D
  8
AM_0
 10
354.19736380279397
 20
159.47857090622779
 30
0.0
 40
1.0000000199999981
 50
91.500001000001546
 51
180.00000999999941
  0
ARC
  5
660E
  8
AM_0
 10
567.8931985397594
 20
248.90145490622791
 30
0.0
 40
2.00000007
 50
351.68540999999948
 51
79.999998000000929
  0
ARC
  5
660F
  8
AM_0
 10
635.17844953975964
 20
239.06809690622779
 30
0.0
 40
66.000003000000007
 50
34.109953999997551
 51
145.8900400000021
  0
ARC
  5
6610
  8
AM_0
 10
702.46371253975951
 20
248.90145490622791
 30
0.0
 40
2.00000007
 50
99.999999999998593
 51
188.31459000000041
  0
ARC
  5
6611
  8
AM_0
 10
578.04902053975957
 20
277.7621299062277
 30
0.0
 40
3.0
 50
265.15681999999839
 51
325.89004999999969
  0
ARC
  5
6612
  8
AM_0
 10
702.46371253975951
 20
248.90145490622791
 30
0.0
 40
2.00000007
 50
8.3145874000007272
 51
99.999999999998593
  0
ARC
  5
6613
  8
AM_0
 10
693.48991153975953
 20
263.81208490622782
 30
0.0
 40
11.000000399999999
 50
311.14394000000323
 51
94.843180000001595
  0
ARC
  5
6614
  8
AM_0
 10
346.19741380279419
 20
293.8285339062279
 30
0.0
 40
3.0
 50
271.50000000000267
 51
0.0
  0
ARC
  5
6615
  8
AM_0
 10
580.64738053975975
 20
279.69273190622772
 30
0.0
 40
2.00000007
 50
235.00000000000259
 51
323.31459000000137
  0
ARC
  5
6616
  8
AM_0
 10
354.19736380279397
 20
303.14206390622797
 30
0.0
 40
5.0000001000000003
 50
91.999998000000545
 51
180.00000999999941
  0
ARC
  5
6617
  8
AM_0
 10
567.65567953975926
 20
253.26928390622771
 30
0.0
 40
3.0
 50
348.12283999999642
 51
48.856062999999523
  0
ARC
  5
6618
  8
AM_0
 10
702.70124653975961
 20
253.26928390622771
 30
0.0
 40
3.0
 50
131.14394000000331
 51
191.87716000000279
  0
ARC
  5
6619
  8
AM_0
 10
368.19734380279419
 20
174.78676990622779
 30
0.0
 40
3.0
 50
270.0
 51
0.0
  0
ARC
  5
661A
  8
AM_0
 10
576.86701453975945
 20
263.81208490622782
 30
0.0
 40
11.000000399999999
 50
85.1568180000002
 51
228.8560599999966
  0
ARC
  5
661B
  8
AM_0
 10
635.17844953975964
 20
239.06809690622779
 30
0.0
 40
70.000001999999995
 50
30.534626999999471
 51
149.4653700000006
  0
ARC
  5
661C
  8
AM_0
 10
635.17844953975964
 20
239.06809690622779
 30
0.0
 40
66.000003000000007
 50
0.0
 51
11.877162000000441
  0
ARC
  5
661D
  8
AM_0
 10
635.17844953975964
 20
219.0681109062277
 30
0.0
 40
71.000000999999983
 50
301.50671999999952
 51
305.22420999999957
  0
ARC
  5
661E
  8
AM_0
 10
689.70954853975957
 20
279.69273190622772
 30
0.0
 40
2.00000007
 50
304.99999999999739
 51
36.685413999996868
  0
ARC
  5
661F
  8
AM_0
 10
635.17844953975964
 20
239.06809690622779
 30
0.0
 40
52.000007999999987
 50
137.75567000000359
 51
174.78408999999999
  0
ARC
  5
6620
  8
AM_0
 10
675.66701953975951
 20
287.33482090622778
 30
0.0
 40
3.0
 50
315.0
 51
50.008388000003357
  0
ARC
  5
6621
  8
AM_0
 10
635.17844953975964
 20
239.06809690622779
 30
0.0
 40
52.000007999999987
 50
5.2159077000001099
 51
42.244334000004017
  0
ARC
  5
6622
  8
AM_0
 10
369.19736380279397
 20
321.78748390622798
 30
0.0
 40
2.00000007
 50
91.999998000000545
 51
180.00000999999941
  0
ARC
  5
6623
  8
AM_0
 10
567.8931985397594
 20
248.90145490622791
 30
0.0
 40
2.00000007
 50
79.999998000000929
 51
171.68540999999939
  0
ARC
  5
6624
  8
AM_0
 10
635.17844953975964
 20
239.06809690622779
 30
0.0
 40
66.000003000000007
 50
168.1228399999963
 51
0.000010017912262
  0
ARC
  5
6625
  8
AM_0
 10
580.64738053975975
 20
279.69273190622772
 30
0.0
 40
2.00000007
 50
143.31457999999611
 51
235.00000999999719
  0
ARC
  5
6626
  8
AM_0
 10
690.1784635397596
 20
217.06810990622779
 30
0.0
 40
3.0
 50
179.99999000000059
 51
270.0
  0
ARC
  5
6627
  8
AM_0
 10
683.44518853975933
 20
279.55665490622778
 30
0.0
 40
3.0
 50
39.991611000003481
 51
135.0
  0
ARC
  5
6628
  8
AM_0
 10
635.17844953975964
 20
239.06809690622779
 30
0.0
 40
70.000001999999995
 50
0.0
 51
15.45248699999985
  0
ARC
  5
6629
  8
AM_0
 10
692.30790553975953
 20
277.7621299062277
 30
0.0
 40
3.0
 50
214.1099599999979
 51
274.84318000000161
  0
ARC
  5
662A
  8
AM_0
 10
354.19736380279397
 20
257.91294490622789
 30
0.0
 40
5.0000001000000003
 50
179.99999000000059
 51
270.0
  0
ARC
  5
662B
  8
AM_0
 10
635.17844953975964
 20
239.06809690622779
 30
0.0
 40
70.000001999999995
 50
164.54750999999871
 51
0.000010017912262
  0
ARC
  5
662C
  8
AM_0
 10
369.19736380279397
 20
158.84867290622779
 30
0.0
 40
2.00000007
 50
179.99999000000059
 51
268.00000999999872
  0
ARC
  5
662D
  8
AM_0
 10
368.19734380279419
 20
305.84944390622798
 30
0.0
 40
3.0
 50
0.0
 51
90.00000299999769
  0
ARC
  5
662E
  8
ﾁｭｳｼﾝｾﾝ1
 10
635.17844953975964
 20
239.06809690622779
 30
0.0
 40
100.000011
 50
216.97202531710639
 51
233.0279746828935
  0
CIRCLE
  5
6630
  8
AM_0
 10
564.46778353975935
 20
309.77878390622772
 30
0.0
 40
6.0000002999999991
  0
ARC
  5
6631
  8
AM_0
 10
562.43241253975953
 20
311.8141639062278
 30
0.0
 40
10.000000200000001
 50
92.999999000001623
 51
176.9999900000002
  0
CIRCLE
  5
6632
  8
AM_0
 10
564.46778353975935
 20
168.35743090622771
 30
0.0
 40
6.0000002999999991
  0
CIRCLE
  5
6634
  8
AM_0
 10
705.88912753975933
 20
168.35743090622771
 30
0.0
 40
6.0000002999999991
  0
CIRCLE
  5
6636
  8
AM_0
 10
705.88912753975933
 20
309.77878390622772
 30
0.0
 40
6.0000002999999991
  0
ARC
  5
6637
  8
AM_0
 10
707.92451353975969
 20
311.8141639062278
 30
0.0
 40
10.000000200000001
 50
3.0000001000004741
 51
86.999998999996933
  0
ARC
  5
6638
  8
AM_0
 10
580.17844753975953
 20
217.06810990622779
 30
0.0
 40
3.0
 50
270.0
 51
0.0
  0
ARC
  5
6639
  8
AM_0
 10
613.91053453975962
 20
268.1142109062277
 30
0.0
 40
3.0
 50
225.0
 51
273.99790033610373
  0
ARC
  5
663A
  8
AM_0
 10
572.37717553975961
 20
244.06811290622781
 30
0.0
 40
3.0
 50
175.4479299999995
 51
270.0
  0
ARC
  5
663B
  8
AM_0
 10
572.37717553975961
 20
234.0681109062277
 30
0.0
 40
3.0
 50
90.00000299999769
 51
184.55207000000041
  0
ARC
  5
663C
  8
AM_0
 10
635.17844953975964
 20
239.06809690622779
 30
0.0
 40
52.000007999999987
 50
47.755664999999361
 51
84.78409399999758
  0
ARC
  5
663D
  8
AM_0
 10
656.44637653975951
 20
268.1142109062277
 30
0.0
 40
3.0
 50
266.00184817577963
 51
315.0
  0
ARC
  5
663E
  8
AM_0
 10
586.91172253975935
 20
279.55665490622778
 30
0.0
 40
3.0
 50
45.000001000003223
 51
140.00838999999601
  0
ARC
  5
663F
  8
AM_0
 10
664.22456053975975
 20
260.3360119062279
 30
0.0
 40
3.0
 50
135.0
 51
183.99797167042081
  0
ARC
  5
6640
  8
AM_0
 10
594.6898915397594
 20
287.33482090622778
 30
0.0
 40
3.0
 50
129.99160999999941
 51
225.0
  0
ARC
  5
6641
  8
AM_0
 10
370.19738380279398
 20
281.01975790622788
 30
0.0
 40
3.0
 50
179.99999000000059
 51
270.0
  0
ARC
  5
6642
  8
AM_0
 10
370.19738380279398
 20
191.91376690622781
 30
0.0
 40
3.0
 50
90.00000299999769
 51
180.00000999999941
  0
ARC
  5
6643
  8
AM_0
 10
595.46094853975933
 20
154.27211890622769
 30
0.0
 40
5.0000001000000003
 50
344.9836399999993
 51
56.872543000003567
  0
ARC
  5
6644
  8
AM_0
 10
607.05117253975948
 20
151.16298790622781
 30
0.0
 40
7.0000007999999987
 50
164.9194399999995
 51
270.0
  0
ARC
  5
6645
  8
AM_0
 10
674.89596253975947
 20
154.27211890622769
 30
0.0
 40
5.0000001000000003
 50
121.5067300000014
 51
195.01635000000289
  0
ARC
  5
6646
  8
AM_0
 10
576.14457253975945
 20
217.06810990622779
 30
0.0
 40
3.0
 50
200.43878000000441
 51
270.0
  0
ARC
  5
6647
  8
AM_0
 10
694.21235353975953
 20
217.06810990622779
 30
0.0
 40
3.0
 50
270.0
 51
339.56121999999561
  0
ARC
  5
6648
  8
AM_0
 10
597.17844553975942
 20
219.0681109062277
 30
0.0
 40
5.0000001000000003
 50
270.0
 51
0.0
  0
ARC
  5
6649
  8
AM_0
 10
673.17846553975949
 20
219.0681109062277
 30
0.0
 40
5.0000001000000003
 50
179.99999000000059
 51
270.0
  0
ARC
  5
664A
  8
AM_0
 10
364.19738380279398
 20
311.47870390622779
 30
0.0
 40
3.0
 50
271.9999999999971
 51
0.0
  0
ARC
  5
664C
  8
AM_0
 10
640.17846253975949
 20
293.84037490622779
 30
0.0
 40
3.0
 50
179.99999000000059
 51
264.78408999999982
  0
ARC
  5
664D
  8
AM_0
 10
580.40619853975954
 20
244.06811290622781
 30
0.0
 40
3.0
 50
270.0
 51
354.78408999999999
  0
ARC
  5
664E
  8
AM_0
 10
580.17844753975953
 20
234.0681109062277
 30
0.0
 40
3.0
 50
0.0
 51
90.00000299999769
  0
ARC
  5
664F
  8
AM_0
 10
690.1784635397596
 20
234.0681109062277
 30
0.0
 40
3.0
 50
90.00000299999769
 51
180.00000999999941
  0
ARC
  5
6650
  8
AM_0
 10
630.17844853975942
 20
293.84037490622779
 30
0.0
 40
3.0
 50
275.21591000000018
 51
0.0
  0
ARC
  5
6651
  8
AM_0
 10
640.17846253975949
 20
301.86937390622768
 30
0.0
 40
3.0
 50
85.447926999998117
 51
180.00000999999941
  0
ARC
  5
6652
  8
AM_0
 10
689.95071253975971
 20
244.06811290622781
 30
0.0
 40
3.0
 50
185.21590999999989
 51
270.0
  0
ARC
  5
6653
  8
AM_0
 10
606.1323505397595
 20
260.3360119062279
 30
0.0
 40
3.0
 50
356.0023394636645
 51
45.000001000003223
  0
ARC
  5
6654
  8
AM_0
 10
630.17844853975942
 20
301.86937390622768
 30
0.0
 40
3.0
 50
0.0
 51
94.552071000002115
  0
ARC
  5
6655
  8
AM_0
 10
697.97973553975964
 20
234.0681109062277
 30
0.0
 40
3.0
 50
355.44792999999947
 51
90.00000299999769
  0
ARC
  5
6656
  8
AM_0
 10
697.97973553975964
 20
244.06811290622781
 30
0.0
 40
3.0
 50
270.0
 51
4.5520713999997291
  0
ARC
  5
6657
  8
AM_0
 10
689.70954853975957
 20
279.69273190622772
 30
0.0
 40
2.00000007
 50
216.6854200000038
 51
304.99999999999739
  0
ARC
  5
6658
  8
AM_0
 10
364.65344380279441
 20
278.72526490622778
 30
0.0
 40
3.0
 50
22.483536000006399
 51
90.00000299999769
  0
ARC
  5
6659
  8
AM_0
 10
364.19738380279398
 20
296.06107990622797
 30
0.0
 40
3.0
 50
296.29843000000261
 51
0.0
  0
ARC
  5
665A
  8
AM_0
 10
351.19736380279397
 20
283.7252629062279
 30
0.0
 40
2.00000007
 50
179.99999000000059
 51
270.0
  0
ARC
  5
665B
  8
AM_0
 10
375.611483802794
 20
269.37037390622771
 30
0.0
 40
3.0
 50
39.999999000003022
 51
58.086796999996537
  0
ARC
  5
665C
  8
AM_0
 10
562.41950353975972
 20
166.56811090622779
 30
0.0
 40
10.000000200000001
 50
183.00000999999969
 51
270.0
  0
ARC
  5
665D
  8
AM_0
 10
707.93740753975953
 20
166.56811090622779
 30
0.0
 40
10.000000200000001
 50
270.0
 51
356.99999999999949
  0
ARC
  5
665E
  8
AM_0
 10
635.17844953975964
 20
219.0681109062277
 30
0.0
 40
71.000000999999983
 50
234.7757900000008
 51
238.4932699999986
  0
ARC
  5
665F
  8
AM_0
 10
663.30573853975955
 20
151.16298790622781
 30
0.0
 40
7.0000007999999987
 50
270.000020000002
 51
15.08055899999613
  0
CIRCLE
  5
6660
  8
AM_0
 10
663.30573853975955
 20
151.16298790622781
 30
0.0
 40
4.979646299999998
  0
CIRCLE
  5
6661
  8
AM_0
 10
607.05117253975948
 20
151.16298790622781
 30
0.0
 40
4.979646299999998
  0
CIRCLE
  5
6662
  8
AM_0
 10
576.86701453975945
 20
263.81208490622782
 30
0.0
 40
4.979646299999998
  0
CIRCLE
  5
6663
  8
AM_0
 10
693.48995653975965
 20
263.8120249062278
 30
0.0
 40
4.979646299999998
  0
ARC
  5
667A
  8
AM_0
 10
635.17844953975964
 20
239.06809690622779
 30
0.0
 40
52.000007999999987
 50
95.215910999999593
 51
132.24432999999581
  0
LINE
  5
667E
  8
AM_0
 10
385.19733380279382
 20
272.5680939062276
 30
0.0
 11
390.19733380279371
 21
267.56809390622777
 31
0.0
  0
LINE
  5
667F
  8
AM_0
 10
380.69733380279399
 20
272.5680939062276
 30
0.0
 11
385.19733380279399
 21
272.5680939062276
 31
0.0
  0
LINE
  5
6680
  8
AM_0
 10
380.19733380279382
 20
272.06809390622772
 30
0.0
 11
380.19733380279371
 21
250.87105990622771
 31
0.0
  0
LINE
  5
6681
  8
AM_0
 10
390.19733380279371
 20
267.56809390622777
 30
0.0
 11
390.19733380279382
 21
210.5680939062278
 31
0.0
  0
LINE
  5
6682
  8
AM_0
 10
381.1973638027938
 20
205.56809390622769
 30
0.0
 11
385.19733380279382
 21
205.56809390622769
 31
0.0
  0
LINE
  5
6683
  8
AM_0
 10
385.19733380279382
 20
205.56809390622769
 30
0.0
 11
390.19733380279382
 21
210.5680939062278
 31
0.0
  0
LINE
  5
6684
  8
AM_0
 10
380.69733380279399
 20
272.5680939062276
 30
0.0
 11
380.19733380279382
 21
272.06809390622772
 31
0.0
1001
GENIUS_GENFIL_13
1070
     0
1040
0.5
1040
0.5
1040
20.0
1040
0.0
1002
{
1002
}
1001
GENIUS_GENOBJ-N-CHA_13
1002
{
1000
OWNER
1000
GEN
1002
}
1001
GENIUS_GENODEF_13
1002
{
1000
HIER
1070
     0
1002
}
1002
{
1000
MANEDIT
1070
     0
1002
}
1002
{
1000
NOSEL
1070
     0
1002
}
1002
{
1000
BEHIND
1070
     0
1002
}
1002
{
1000
OTHER
1070
     0
1002
}
1002
{
1000
REACTOR
1002
}
  0
LINE
  5
6685
  8
AM_0
 10
385.19733380279399
 20
272.5680939062276
 30
0.0
 11
385.19733380279382
 21
205.56809390622769
 31
0.0
  0
LINE
  5
6B6B
  8
ﾁｭｳｼﾝｾﾝ
 10
91.401362490370843
 20
507.35950776089828
 30
0.0
 11
426.3886034025565
 21
507.35950776089828
 31
0.0
  0
LINE
  5
6BAF
  8
AM_0
 10
279.19753340255647
 20
451.35950776089828
 30
0.0
 11
279.19753340255647
 21
563.35950776089828
 31
0.0
  0
LINE
  5
6C01
  8
AM_0
 10
250.22372325159699
 20
441.35950776089828
 30
0.0
 11
250.4782725256197
 21
451.07947776089838
 31
0.0
  0
LINE
  5
6C02
  8
AM_0
 10
190.17129125635631
 20
441.35950776089828
 30
0.0
 11
189.91680921521751
 21
451.07947776089838
 31
0.0
  0
LINE
  5
6C03
  8
AM_0
 10
186.6975334025563
 20
439.35950776089851
 30
0.0
 11
253.69753340255639
 21
439.35950776089851
 31
0.0
  0
LINE
  5
6C04
  8
AM_0
 10
186.6975334025563
 20
438.35950776089851
 30
0.0
 11
186.6975334025563
 21
439.35950776089851
 31
0.0
  0
LINE
  5
6C05
  8
AM_0
 10
253.69753340255639
 20
438.35950776089851
 30
0.0
 11
253.69753340255639
 21
439.35950776089851
 31
0.0
  0
LINE
  5
6C06
  8
AM_0
 10
172.1975334025563
 20
400.35950776089828
 30
0.0
 11
173.45711853881869
 21
436.4293067543033
 31
0.0
  0
LINE
  5
6C07
  8
AM_0
 10
175.455900192857
 20
438.35950776089851
 30
0.0
 11
264.93916661225597
 21
438.35950776089851
 31
0.0
  0
ARC
  5
6C08
  8
AM_0
 10
175.455900192857
 20
436.35950776089851
 30
0.0
 40
2.0
 50
90.0
 51
178.0000000000029
1001
GENIUS_GENODEF_13
1002
{
1000
HIER
1070
     0
1002
}
1002
{
1000
MANEDIT
1070
     0
1002
}
1002
{
1000
NOSEL
1070
     0
1002
}
1002
{
1000
BEHIND
1070
     0
1002
}
1002
{
1000
OTHER
1070
     0
1002
}
1002
{
1000
REACTOR
1002
}
1001
GENIUS_GENOBJ-N-FIL_13
1002
{
1000
OWNER
1000
GEN
1002
}
  0
LINE
  5
6C09
  8
AM_0
 10
266.9379482662942
 20
436.4293067543033
 30
0.0
 11
268.19753340255647
 21
400.35950776089828
 31
0.0
  0
ARC
  5
6C0A
  8
AM_0
 10
264.93916661225597
 20
436.35950776089851
 30
0.0
 40
2.0
 50
1.9999999999971021
 51
90.0
1001
GENIUS_GENOBJ-N-FIL_13
1002
{
1000
OWNER
1000
GEN
1002
}
1001
GENIUS_GENODEF_13
1002
{
1000
HIER
1070
     0
1002
}
1002
{
1000
MANEDIT
1070
     0
1002
}
1002
{
1000
NOSEL
1070
     0
1002
}
1002
{
1000
BEHIND
1070
     0
1002
}
1002
{
1000
OTHER
1070
     0
1002
}
1002
{
1000
REACTOR
1002
}
  0
LINE
  5
6C0B
  8
AM_0
 10
268.19753340255647
 20
400.35950776089828
 30
0.0
 11
172.1975334025561
 21
400.35950776089828
 31
0.0
  0
LINE
  5
6C0C
  8
AM_0
 10
172.3022957110316
 20
403.35950776089828
 30
0.0
 11
171.1975334025563
 21
403.35950776089828
 31
0.0
  0
LINE
  5
6C0D
  8
AM_0
 10
173.4197603347676
 20
435.35950776089823
 30
0.0
 11
171.1975334025563
 21
435.35950776089823
 31
0.0
  0
LINE
  5
6C0E
  8
ﾁｭｳｼﾝｾﾝ1
 10
177.19753340255701
 20
390.09480026089841
 30
0.0
 11
177.19753340255701
 21
403.0948002608983
 31
0.0
  0
LINE
  5
6C0F
  8
ﾁｭｳｼﾝｾﾝ
 10
220.19753340255639
 20
445.6515384341273
 30
0.0
 11
220.19753340255639
 21
387.90898512008903
 31
0.0
  0
LINE
  5
6C10
  8
AM_0
 10
168.6975334025563
 20
405.85950776089823
 30
0.0
 11
171.1975334025563
 21
405.859507760898
 31
0.0
  0
LINE
  5
6C11
  8
AM_0
 10
171.1975334025563
 20
432.85950776089788
 30
0.0
 11
168.6975334025563
 21
432.85950776089828
 31
0.0
  0
LINE
  5
6C12
  8
AM_0
 10
157.7988623062104
 20
429.85950776089823
 30
0.0
 11
157.7988623062104
 21
408.85950776089823
 31
0.0
  0
LINE
  5
6C13
  8
AM_0
 10
142.79886230621051
 20
411.32788270688292
 30
0.0
 11
142.79886230621051
 21
427.39113281491399
 31
0.0
  0
LINE
  5
6C14
  8
AM_0
 10
155.79886230621051
 20
431.35950776089823
 30
0.0
 11
155.79886230621051
 21
407.35950776089828
 31
0.0
  0
LINE
  5
6C15
  8
AM_0
 10
146.29886230621051
 20
419.35950776089823
 30
0.0
 11
146.79886230621051
 21
419.85950776089828
 31
0.0
  0
LINE
  5
6C16
  8
AM_0
 10
153.29886230621051
 20
407.65950776089818
 30
0.0
 11
153.29886230621051
 21
431.05950776089787
 31
0.0
  0
LINE
  5
6C17
  8
AM_0
 10
163.1975334025563
 20
407.85950776089828
 30
0.0
 11
163.1975334025563
 21
430.85950776089823
 31
0.0
  0
LINE
  5
6C18
  8
AM_0
 10
157.29886230621051
 20
420.05950776089992
 30
0.0
 11
157.29886230621051
 21
418.6595077608971
 31
0.0
  0
LINE
  5
6C19
  8
AM_0
 10
159.39849803278119
 20
428.45950776089802
 30
0.0
 11
158.64849803278241
 21
410.25950776089798
 31
0.0
  0
LINE
  5
6C1A
  8
AM_0
 10
158.4475334025563
 20
428.45950776089802
 30
0.0
 11
157.7988623062104
 21
412.718422489582
 31
0.0
  0
LINE
  5
6C1B
  8
AM_0
 10
159.19622599312839
 20
429.17516647326221
 30
0.0
 11
158.44896594972039
 21
409.5471359997311
 31
0.0
  0
LINE
  5
6C1C
  8
AM_0
 10
158.6470654856183
 20
429.17187952206632
 30
0.0
 11
157.89849803278241
 21
409.50950776089798
 31
0.0
  0
LINE
  5
6C1D
  8
AM_0
 10
155.79886230621051
 20
407.35950776089828
 30
0.0
 11
153.59886230621041
 21
407.35950776089828
 31
0.0
  0
ARC
  5
6C1E
  8
AM_0
 10
167.6975334025565
 20
406.85950776089823
 30
0.0
 40
0.5
 50
0.0
 51
90.000000000013017
  0
ARC
  5
6C1F
  8
AM_0
 10
168.6975334025565
 20
406.35950776089823
 30
0.0
 40
0.5
 50
180.0
 51
270.0
  0
LINE
  5
6C20
  8
AM_0
 10
168.1975334025563
 20
406.85950776089823
 30
0.0
 11
168.1975334025563
 21
406.35950776089823
 31
0.0
  0
LINE
  5
6C21
  8
AM_0
 10
159.1975334025563
 20
410.25950776089798
 30
0.0
 11
162.6975334025563
 21
410.25950776089798
 31
0.0
  0
LINE
  5
6C22
  8
AM_0
 10
168.1975334025563
 20
408.50343643949122
 30
0.0
 11
168.1975334025563
 21
418.21557908230608
 31
0.0
  0
LINE
  5
6C23
  8
AM_0
 10
163.6975334025563
 20
407.35950776089828
 30
0.0
 11
167.6975334025563
 21
407.35950776089828
 31
0.0
  0
LINE
  5
6C24
  8
AM_0
 10
167.6975334025563
 20
408.00343643949122
 30
0.0
 11
163.1975334025563
 21
408.00343643949122
 31
0.0
  0
ARC
  5
6C25
  8
AM_0
 10
167.6975334025565
 20
408.50343643949122
 30
0.0
 40
0.5
 50
270.0
 51
0.0
  0
ARC
  5
6C26
  8
AM_0
 10
162.6975334025563
 20
409.75950776089837
 30
0.0
 40
0.5
 50
0.0
 51
90.0
  0
ARC
  5
6C27
  8
AM_0
 10
163.6975334025563
 20
407.85950776089828
 30
0.0
 40
0.5
 50
180.0
 51
270.0
  0
LINE
  5
6C28
  8
AM_0
 10
167.6975334025563
 20
418.71557908230602
 30
0.0
 11
163.1975334025563
 21
418.71557908230602
 31
0.0
  0
ARC
  5
6C29
  8
AM_0
 10
167.6975334025563
 20
418.21557908230619
 30
0.0
 40
0.5
 50
0.0
 51
90.0
  0
LINE
  5
6C2A
  8
AM_0
 10
157.29886230621051
 20
413.21433700860598
 30
0.0
 11
157.29886230621051
 21
414.38658019503902
 31
0.0
  0
LINE
  5
6C2B
  8
AM_0
 10
158.72523046120739
 20
410.25950776089798
 30
0.0
 11
159.1975334025563
 21
410.25950776089798
 31
0.0
  0
LINE
  5
6C2C
  8
AM_0
 10
158.62863796666809
 20
410.18538999416143
 30
0.0
 11
158.64849803278241
 21
410.25950776089798
 31
0.0
  0
ARC
  5
6C2D
  8
AM_0
 10
158.72523046120739
 20
410.15950776089818
 30
0.0
 40
0.1000000000000346
 50
90.0
 51
164.99980499355539
  0
ARC
  5
6C2E
  8
AM_0
 10
156.99886230621041
 20
410.07267478039017
 30
0.0
 40
0.3000000000000043
 50
0.0
 51
90.0
  0
LINE
  5
6C2F
  8
AM_0
 10
155.79886230621051
 20
407.95950776089802
 30
0.0
 11
157.01881800936749
 21
408.04083814110908
 31
0.0
  0
LINE
  5
6C30
  8
AM_0
 10
155.79886230621051
 20
409.11575979673819
 30
0.0
 11
156.9988623062103
 21
409.11575979673819
 31
0.0
  0
LINE
  5
6C31
  8
AM_0
 10
157.29886230621051
 20
408.35950776089828
 30
0.0
 11
155.79886230621051
 21
408.35950776089828
 31
0.0
  0
ARC
  5
6C32
  8
AM_0
 10
157.29886230621051
 20
408.85950776089823
 30
0.0
 40
0.5
 50
270.0
 51
0.0
  0
LINE
  5
6C33
  8
AM_0
 10
157.29886230621051
 20
408.34017368846622
 30
0.0
 11
157.29886230621051
 21
408.35950776089828
 31
0.0
  0
LINE
  5
6C34
  8
AM_0
 10
157.29886230621051
 20
408.05950776089821
 30
0.0
 11
157.29886230621051
 21
408.34017368846622
 31
0.0
  0
LINE
  5
6C35
  8
AM_0
 10
157.01881800936749
 20
408.04083814110908
 30
0.0
 11
157.29886230621051
 21
408.05950776089821
 31
0.0
  0
ARC
  5
6C36
  8
AM_0
 10
156.99886230621041
 20
408.34017368846622
 30
0.0
 40
0.3000000000000007
 50
273.8140748342816
 51
0.0
  0
LINE
  5
6C37
  8
AM_0
 10
158.37080097413141
 20
409.50950776089798
 30
0.0
 11
158.4475334025573
 21
409.50950776089798
 31
0.0
  0
LINE
  5
6C38
  8
AM_0
 10
158.4475334025573
 20
409.50950776089798
 30
0.0
 11
158.46739346867031
 21
409.58362552763458
 31
0.0
  0
LINE
  5
6C39
  8
AM_0
 10
157.87863796666821
 20
409.58362552763458
 30
0.0
 11
157.89849803278241
 21
409.50950776089798
 31
0.0
  0
LINE
  5
6C3A
  8
AM_0
 10
157.89849803278241
 20
409.50950776089798
 30
0.0
 11
157.97523046120739
 21
409.50950776089798
 31
0.0
  0
LINE
  5
6C3B
  8
AM_0
 10
158.46739346867031
 20
409.58362552763458
 30
0.0
 11
158.62863796666809
 21
410.18538999416143
 31
0.0
  0
LINE
  5
6C3C
  8
AM_0
 10
157.97523046120739
 20
409.50950776089798
 30
0.0
 11
158.37080097413141
 21
409.50950776089798
 31
0.0
  0
LINE
  5
6C3D
  8
AM_0
 10
157.79886230621139
 20
409.88134829245899
 30
0.0
 11
157.87863796666821
 21
409.58362552763458
 31
0.0
  0
ARC
  5
6C3E
  8
AM_0
 10
158.37080097413141
 20
409.60950776089828
 30
0.0
 40
0.0999999999999866
 50
270.0
 51
344.99980499343371
  0
ARC
  5
6C3F
  8
AM_0
 10
157.97523046120739
 20
409.60950776089828
 30
0.0
 40
0.1000000000000014
 50
195.00019500656629
 51
270.0
  0
LINE
  5
6C40
  8
AM_0
 10
157.29886230621051
 20
409.41575979673797
 30
0.0
 11
157.29886230621051
 21
410.07267478039017
 31
0.0
  0
ARC
  5
6C41
  8
AM_0
 10
156.99886230621041
 20
409.41575979673843
 30
0.0
 40
0.3000000000000007
 50
270.0
 51
0.0
  0
LINE
  5
6C42
  8
AM_0
 10
155.79886230621051
 20
412.91433700860603
 30
0.0
 11
156.9988623062103
 21
412.91433700860603
 31
0.0
  0
LINE
  5
6C43
  8
AM_0
 10
156.9988623062103
 20
410.37267478039018
 30
0.0
 11
155.79886230621051
 21
410.37267478039018
 31
0.0
  0
LINE
  5
6C44
  8
AM_0
 10
158.64849803278241
 20
410.25950776089798
 30
0.0
 11
158.72523046120739
 21
410.25950776089798
 31
0.0
  0
ARC
  5
6C45
  8
AM_0
 10
156.99886230621041
 20
413.21433700860632
 30
0.0
 40
0.3000000000000007
 50
270.0
 51
0.0
  0
LINE
  5
6C46
  8
AM_0
 10
156.9988623062103
 20
414.6865801950392
 30
0.0
 11
155.79886230621051
 21
414.6865801950392
 31
0.0
  0
ARC
  5
6C47
  8
AM_0
 10
156.99886230621041
 20
414.3865801950393
 30
0.0
 40
0.3000000000000043
 50
0.0
 51
90.0
  0
LINE
  5
6C48
  8
AM_0
 10
156.9988623062103
 20
418.35950776089709
 30
0.0
 11
155.79886230621051
 21
418.35950776089709
 31
0.0
  0
ARC
  5
6C49
  8
AM_0
 10
156.99886230621041
 20
418.65950776089721
 30
0.0
 40
0.3000000000000007
 50
270.0
 51
0.0
  0
LINE
  5
6C4A
  8
AM_0
 10
146.79886230621051
 20
409.22622793225099
 30
0.0
 11
153.29886230621051
 21
409.22622793225099
 31
0.0
  0
LINE
  5
6C4B
  8
AM_0
 10
146.79886230621051
 20
408.72622793225099
 30
0.0
 11
153.29886230621051
 21
408.72622793225099
 31
0.0
  0
LINE
  5
6C4C
  8
AM_0
 10
153.29886230621051
 20
418.85950776089823
 30
0.0
 11
146.79886230621051
 21
418.85950776089823
 31
0.0
  0
LINE
  5
6C4D
  8
AM_0
 10
146.29886230621051
 20
418.35950776089823
 30
0.0
 11
153.29886230621051
 21
418.35950776089823
 31
0.0
  0
LINE
  5
6C4E
  8
AM_0
 10
152.9988623062103
 20
408.35950776089828
 30
0.0
 11
146.16091224139231
 21
408.35950776089828
 31
0.0
  0
LINE
  5
6C4F
  8
AM_0
 10
153.29886230621051
 20
418.01281969235691
 30
0.0
 11
146.79886230621051
 21
418.01281969235691
 31
0.0
  0
LINE
  5
6C50
  8
AM_0
 10
153.29886230621051
 20
409.70619582943908
 30
0.0
 11
146.79886230621051
 21
409.70619582943908
 31
0.0
  0
ARC
  5
6C51
  8
AM_0
 10
153.59886230621041
 20
407.65950776089818
 30
0.0
 40
0.2999999999999971
 50
180.0
 51
270.0
  0
ARC
  5
6C52
  8
AM_0
 10
152.99886230621041
 20
408.05950776089821
 30
0.0
 40
0.2999999999999971
 50
0.0
 51
90.0
  0
ARC
  5
6C53
  8
AM_0
 10
154.92386230621051
 20
413.85950776089823
 30
0.0
 40
9.124999999999984
 50
152.92493329271929
 51
207.07506670728071
  0
LINE
  5
6C54
  8
AM_0
 10
145.52072784172799
 20
408.59128648130059
 30
0.0
 11
143.1586779065459
 21
410.55966142728562
 31
0.0
  0
LINE
  5
6C55
  8
AM_0
 10
146.29886230621051
 20
408.93794034440617
 30
0.0
 11
146.79886230621051
 21
408.35950776089828
 31
0.0
  0
ARC
  5
6C56
  8
AM_0
 10
146.16091224139231
 20
409.35950776089823
 30
0.0
 40
1.0
 50
230.19442890774391
 51
270.0
  0
LINE
  5
6C57
  8
AM_0
 10
146.79886230621051
 20
408.72622793225099
 30
0.0
 11
146.29886230621051
 21
408.93794034440617
 31
0.0
  0
LINE
  5
6C58
  8
AM_0
 10
146.29886230621051
 20
409.40021561737723
 30
0.0
 11
146.79886230621051
 21
408.72622793225099
 31
0.0
  0
LINE
  5
6C59
  8
AM_0
 10
146.79886230621051
 20
409.22622793225099
 30
0.0
 11
146.29886230621051
 21
409.40021561737723
 31
0.0
  0
LINE
  5
6C5A
  8
AM_0
 10
146.29886230621051
 20
409.93794034440617
 30
0.0
 11
146.79886230621051
 21
409.22622793225099
 31
0.0
  0
LINE
  5
6C5B
  8
AM_0
 10
146.79886230621051
 20
409.70619582943908
 30
0.0
 11
146.29886230621051
 21
409.93794034440617
 31
0.0
  0
ARC
  5
6C5C
  8
AM_0
 10
143.79886230621051
 20
411.3278827068832
 30
0.0
 40
1.0000000000000291
 50
180.0
 51
230.19442890773689
  0
LINE
  5
6C5D
  8
AM_0
 10
146.79886230621051
 20
418.85950776089823
 30
0.0
 11
146.29886230621051
 21
419.35950776089823
 31
0.0
  0
LINE
  5
6C5E
  8
AM_0
 10
146.29886230621051
 20
418.35950776089823
 30
0.0
 11
146.79886230621051
 21
418.85950776089823
 31
0.0
  0
LINE
  5
6C5F
  8
AM_0
 10
146.79886230621051
 20
418.01281969235691
 30
0.0
 11
146.29886230621051
 21
418.35950776089823
 31
0.0
  0
LINE
  5
6C60
  8
AM_0
 10
153.59886230621041
 20
431.35950776089823
 30
0.0
 11
155.79886230621051
 21
431.35950776089823
 31
0.0
  0
ARC
  5
6C61
  8
AM_0
 10
167.6975334025563
 20
431.85950776089823
 30
0.0
 40
0.5
 50
269.99999999998693
 51
0.0
  0
LINE
  5
6C62
  8
AM_0
 10
162.6975334025563
 20
428.45950776089802
 30
0.0
 11
159.47523046120739
 21
428.45950776089802
 31
0.0
  0
LINE
  5
6C63
  8
AM_0
 10
168.1975334025563
 20
420.50343643949122
 30
0.0
 11
168.1975334025563
 21
430.21557908230619
 31
0.0
  0
LINE
  5
6C64
  8
AM_0
 10
163.1975334025563
 20
420.00343643949122
 30
0.0
 11
167.6975334025563
 21
420.00343643949122
 31
0.0
  0
ARC
  5
6C65
  8
AM_0
 10
167.6975334025563
 20
420.50343643949122
 30
0.0
 40
0.5
 50
270.0
 51
0.0
  0
LINE
  5
6C66
  8
AM_0
 10
163.1975334025563
 20
430.71557908230619
 30
0.0
 11
167.6975334025563
 21
430.71557908230619
 31
0.0
  0
LINE
  5
6C67
  8
AM_0
 10
167.6975334025563
 20
431.35950776089823
 30
0.0
 11
163.6975334025563
 21
431.35950776089823
 31
0.0
  0
ARC
  5
6C68
  8
AM_0
 10
167.6975334025563
 20
430.21557908230619
 30
0.0
 40
0.5
 50
0.0
 51
90.0
  0
ARC
  5
6C69
  8
AM_0
 10
162.6975334025563
 20
428.95950776089802
 30
0.0
 40
0.5
 50
270.0
 51
0.0
  0
ARC
  5
6C6A
  8
AM_0
 10
163.6975334025563
 20
430.85950776089823
 30
0.0
 40
0.5
 50
90.0
 51
180.0
  0
ARC
  5
6C6B
  8
AM_0
 10
156.99886230621041
 20
425.50467851319002
 30
0.0
 40
0.3000000000000114
 50
0.0
 51
90.0
  0
LINE
  5
6C6C
  8
AM_0
 10
155.79886230621051
 20
420.35950776089999
 30
0.0
 11
156.9988623062103
 21
420.35950776089999
 31
0.0
  0
ARC
  5
6C6D
  8
AM_0
 10
156.99886230621041
 20
420.05950776090032
 30
0.0
 40
0.2999999999999971
 50
0.0
 51
90.0
  0
LINE
  5
6C6E
  8
AM_0
 10
155.79886230621051
 20
424.03243532675702
 30
0.0
 11
156.9988623062103
 21
424.03243532675702
 31
0.0
  0
ARC
  5
6C6F
  8
AM_0
 10
156.99886230621041
 20
424.33243532675709
 30
0.0
 40
0.3000000000000007
 50
270.0
 51
0.0
  0
LINE
  5
6C70
  8
AM_0
 10
157.29886230621051
 20
424.33243532675709
 30
0.0
 11
157.29886230621051
 21
425.50467851319002
 31
0.0
  0
LINE
  5
6C71
  8
AM_0
 10
158.72523046120739
 20
429.20950776089819
 30
0.0
 11
159.12080097413141
 21
429.20950776089819
 31
0.0
  0
LINE
  5
6C72
  8
AM_0
 10
158.72523046120739
 20
429.20950776089819
 30
0.0
 11
159.12080097413141
 21
429.20950776089819
 31
0.0
  0
LINE
  5
6C73
  8
AM_0
 10
159.21739346867031
 20
429.13538999416181
 30
0.0
 11
159.37863796666809
 21
428.53362552763451
 31
0.0
  0
LINE
  5
6C74
  8
AM_0
 10
159.21739346867031
 20
429.13538999416181
 30
0.0
 11
159.37863796666809
 21
428.53362552763451
 31
0.0
  0
ARC
  5
6C75
  8
AM_0
 10
159.47523046120739
 20
428.55950776089833
 30
0.0
 40
0.0999999999999943
 50
195.00019500651879
 51
270.0
  0
ARC
  5
6C76
  8
AM_0
 10
159.12080097413141
 20
429.10950776089823
 30
0.0
 40
0.0999999999999943
 50
15.000195006505431
 51
90.0
  0
LINE
  5
6C77
  8
AM_0
 10
157.79801571766919
 20
428.8345077608983
 30
0.0
 11
157.87863796666821
 21
428.53362552763451
 31
0.0
  0
LINE
  5
6C78
  8
AM_0
 10
158.45024405476221
 20
428.49877229399618
 30
0.0
 11
158.62863796666809
 21
429.13538999416181
 31
0.0
  0
LINE
  5
6C79
  8
AM_0
 10
158.46739346867031
 20
428.53362552763451
 30
0.0
 11
158.62863796666809
 21
429.13538999416181
 31
0.0
  0
LINE
  5
6C7A
  8
AM_0
 10
157.29886230621051
 20
428.64634074140707
 30
0.0
 11
157.29886230621051
 21
429.30325572505802
 31
0.0
  0
LINE
  5
6C7B
  8
AM_0
 10
157.7988623062104
 20
428.83134829246012
 30
0.0
 11
157.87863796666821
 21
428.53362552763451
 31
0.0
  0
LINE
  5
6C7C
  8
AM_0
 10
155.79886230621051
 20
428.34634074140718
 30
0.0
 11
156.9988623062103
 21
428.34634074140718
 31
0.0
  0
LINE
  5
6C7D
  8
AM_0
 10
156.9988623062103
 20
425.80467851319008
 30
0.0
 11
155.79886230621051
 21
425.80467851319088
 31
0.0
  0
LINE
  5
6C7E
  8
AM_0
 10
158.4034332396464
 20
428.45950776089802
 30
0.0
 11
158.45024405476221
 21
428.49877229399618
 31
0.0
  0
LINE
  5
6C7F
  8
AM_0
 10
157.97523046120739
 20
428.45950776089802
 30
0.0
 11
158.4034332396464
 21
428.45950776089802
 31
0.0
  0
LINE
  5
6C80
  8
AM_0
 10
157.97523046120739
 20
428.45950776089802
 30
0.0
 11
158.37080097413141
 21
428.45950776089802
 31
0.0
  0
ARC
  5
6C81
  8
AM_0
 10
157.97523046120739
 20
428.55950776089833
 30
0.0
 40
0.0999999999999943
 50
195.00019500651879
 51
270.0
  0
ARC
  5
6C82
  8
AM_0
 10
158.37080097413141
 20
428.55950776089833
 30
0.0
 40
0.0999999999999608
 50
270.0
 51
344.99980499348112
  0
ARC
  5
6C83
  8
AM_0
 10
156.99886230621041
 20
428.64634074140707
 30
0.0
 40
0.3000000000000007
 50
270.0
 51
0.0
  0
LINE
  5
6C84
  8
AM_0
 10
155.79886230621051
 20
430.35950776089823
 30
0.0
 11
157.29886230621051
 21
430.35950776089823
 31
0.0
  0
LINE
  5
6C85
  8
AM_0
 10
156.9988623062103
 20
429.60325572505798
 30
0.0
 11
155.79886230621051
 21
429.60325572505798
 31
0.0
  0
LINE
  5
6C86
  8
AM_0
 10
157.01881800936749
 20
430.67817738068811
 30
0.0
 11
155.79886230621051
 21
430.75950776089798
 31
0.0
  0
ARC
  5
6C87
  8
AM_0
 10
157.29886230621051
 20
429.85950776089823
 30
0.0
 40
0.5
 50
0.0
 51
90.0
  0
ARC
  5
6C88
  8
AM_0
 10
158.72523046120739
 20
429.10950776089823
 30
0.0
 40
0.0999999999999606
 50
90.0
 51
164.99980499349451
  0
ARC
  5
6C89
  8
AM_0
 10
156.99886230621041
 20
429.30325572505802
 30
0.0
 40
0.2999999999999971
 50
0.0
 51
90.0
  0
LINE
  5
6C8A
  8
AM_0
 10
157.29886230621051
 20
430.35950776089823
 30
0.0
 11
157.29886230621051
 21
430.37884183333108
 31
0.0
  0
ARC
  5
6C8B
  8
AM_0
 10
156.99886230621041
 20
430.37884183333108
 30
0.0
 40
0.3000000000000043
 50
0.0
 51
86.18592516571853
  0
ARC
  5
6C8C
  8
AM_0
 10
168.6975334025563
 20
432.35950776089828
 30
0.0
 40
0.5
 50
90.0
 51
180.0
  0
LINE
  5
6C8D
  8
AM_0
 10
168.1975334025563
 20
432.35950776089828
 30
0.0
 11
168.1975334025563
 21
431.85950776089823
 31
0.0
  0
LINE
  5
6C8E
  8
AM_0
 10
146.79886230621051
 20
429.01281969235703
 30
0.0
 11
153.29886230621051
 21
429.01281969235703
 31
0.0
  0
LINE
  5
6C8F
  8
AM_0
 10
146.79886230621051
 20
420.70619582943908
 30
0.0
 11
153.29886230621051
 21
420.70619582943908
 31
0.0
  0
LINE
  5
6C90
  8
AM_0
 10
146.16091224139231
 20
430.35950776089823
 30
0.0
 11
152.9988623062103
 21
430.35950776089823
 31
0.0
  0
LINE
  5
6C91
  8
AM_0
 10
153.29886230621051
 20
420.35950776089828
 30
0.0
 11
146.29886230621051
 21
420.35950776089828
 31
0.0
  0
LINE
  5
6C92
  8
AM_0
 10
146.79886230621051
 20
419.85950776089828
 30
0.0
 11
153.29886230621051
 21
419.85950776089828
 31
0.0
  0
LINE
  5
6C93
  8
AM_0
 10
153.29886230621051
 20
429.99278758954603
 30
0.0
 11
146.79886230621051
 21
429.99278758954603
 31
0.0
  0
LINE
  5
6C94
  8
AM_0
 10
153.29886230621051
 20
429.49278758954591
 30
0.0
 11
146.79886230621051
 21
429.49278758954591
 31
0.0
  0
ARC
  5
6C95
  8
AM_0
 10
152.99886230621041
 20
430.65950776089818
 30
0.0
 40
0.3000000000000043
 50
270.0
 51
0.0
  0
ARC
  5
6C96
  8
AM_0
 10
153.59886230621041
 20
431.05950776089821
 30
0.0
 40
0.2999999999999971
 50
90.0
 51
180.0
  0
ARC
  5
6C97
  8
AM_0
 10
154.92386230621051
 20
424.85950776089828
 30
0.0
 40
9.124999999999984
 50
152.92493329271929
 51
207.07506670728071
  0
LINE
  5
6C98
  8
AM_0
 10
146.29886230621051
 20
420.35950776089828
 30
0.0
 11
146.79886230621051
 21
420.70619582943908
 31
0.0
  0
LINE
  5
6C99
  8
AM_0
 10
146.79886230621051
 20
419.85950776089828
 30
0.0
 11
146.29886230621051
 21
420.35950776089828
 31
0.0
  0
LINE
  5
6C9A
  8
AM_0
 10
143.1586779065459
 20
428.15935409451151
 30
0.0
 11
145.52072784172799
 21
430.12772904049552
 31
0.0
  0
LINE
  5
6C9B
  8
AM_0
 10
146.79886230621051
 20
430.35950776089823
 30
0.0
 11
146.29886230621051
 21
429.78107517739107
 31
0.0
  0
ARC
  5
6C9C
  8
AM_0
 10
146.16091224139231
 20
429.35950776089828
 30
0.0
 40
1.0000000000000411
 50
90.0
 51
129.805571092256
  0
LINE
  5
6C9D
  8
AM_0
 10
146.29886230621051
 20
428.78107517739107
 30
0.0
 11
146.79886230621051
 21
429.01281969235703
 31
0.0
  0
LINE
  5
6C9E
  8
AM_0
 10
146.79886230621051
 20
429.49278758954591
 30
0.0
 11
146.29886230621051
 21
428.78107517739107
 31
0.0
  0
LINE
  5
6C9F
  8
AM_0
 10
146.29886230621051
 20
429.31879990441911
 30
0.0
 11
146.79886230621051
 21
429.49278758954591
 31
0.0
  0
LINE
  5
6CA0
  8
AM_0
 10
146.79886230621051
 20
429.99278758954603
 30
0.0
 11
146.29886230621051
 21
429.31879990441911
 31
0.0
  0
LINE
  5
6CA1
  8
AM_0
 10
146.29886230621051
 20
429.78107517739107
 30
0.0
 11
146.79886230621051
 21
429.99278758954603
 31
0.0
  0
ARC
  5
6CA2
  8
AM_0
 10
143.79886230621051
 20
427.39113281491399
 30
0.0
 40
1.0
 50
129.80557109226311
 51
180.0
  0
LINE
  5
6CA3
  8
AM_0
 10
268.19753340255642
 20
396.35950776089851
 30
0.0
 11
247.38302850302401
 21
396.35950776089851
 31
0.0
  0
LINE
  5
6CA4
  8
AM_0
 10
193.0120383020888
 20
396.35950776089851
 30
0.0
 11
172.19753340255701
 21
396.35950776089851
 31
0.0
  0
LINE
  5
6CA5
  8
AM_0
 10
262.0617517333954
 20
392.35950776089851
 30
0.0
 11
178.33331507171721
 21
392.35950776089851
 31
0.0
  0
LINE
  5
6CA6
  8
AM_0
 10
181.10488837486341
 20
394.30057024877073
 30
0.0
 11
181.19753340255701
 21
395.35950776089851
 31
0.0
  0
LINE
  5
6CA7
  8
AM_0
 10
173.29017843025039
 20
394.30057024877073
 30
0.0
 11
173.19753340255701
 21
395.35950776089851
 31
0.0
  0
ARC
  5
6CA8
  8
AM_0
 10
177.19753340255701
 20
398.75950776089849
 30
0.0
 40
6.5
 50
241.82726586813479
 51
298.17273413186518
  0
ARC
  5
6CA9
  8
AM_0
 10
174.88408994719731
 20
394.44001943716688
 30
0.0
 40
1.6000000000000001
 50
184.99999999999969
 51
241.82726586813479
  0
LINE
  5
6CAA
  8
AM_0
 10
179.497533402557
 20
392.68003409947022
 30
0.0
 11
177.19753340255701
 21
394.96959377826568
 31
0.0
  0
LINE
  5
6CAB
  8
AM_0
 10
177.50903340255701
 20
394.65950776089852
 30
0.0
 11
176.88603340255699
 21
394.65950776089852
 31
0.0
  0
LINE
  5
6CAC
  8
AM_0
 10
174.89753340255709
 20
392.68003409947022
 30
0.0
 11
177.19753340255701
 21
394.96959377826568
 31
0.0
  0
LINE
  5
6CAD
  8
AM_0
 10
177.50903340255701
 20
392.26697607056383
 30
0.0
 11
177.50903340255701
 21
394.65950776089852
 31
0.0
  0
LINE
  5
6CAE
  8
AM_0
 10
176.88603340255699
 20
392.26697607056383
 30
0.0
 11
176.88603340255699
 21
394.65950776089852
 31
0.0
  0
ARC
  5
6CAF
  8
AM_0
 10
179.51097685791669
 20
394.44001943716688
 30
0.0
 40
1.6000000000000001
 50
298.17273413186518
 51
355.00000000000023
  0
LINE
  5
6CB0
  8
AM_0
 10
268.19753340255647
 20
396.35950776089851
 30
0.0
 11
268.19753340255647
 21
400.35950776089828
 31
0.0
  0
LINE
  5
6CB1
  8
AM_0
 10
172.1975334025561
 20
400.35950776089828
 30
0.0
 11
172.1975334025573
 21
396.35950776089851
 31
0.0
  0
LINE
  5
6CB2
  8
AM_0N
 10
180.997533402557
 20
396.35950776089851
 30
0.0
 11
180.997533402557
 21
395.35950776089851
 31
0.0
  0
LINE
  5
6CB3
  8
AM_0N
 10
177.39753340255709
 20
395.35950776089851
 30
0.0
 11
177.76150363682319
 21
396.35950776089851
 31
0.0
  0
LINE
  5
6CB4
  8
AM_0N
 10
176.997533402557
 20
395.35950776089851
 30
0.0
 11
177.3615036368231
 21
396.35950776089851
 31
0.0
  0
LINE
  5
6CB5
  8
AM_0N
 10
173.19753340255701
 20
395.35950776089851
 30
0.0
 11
181.19753340255701
 21
395.35950776089851
 31
0.0
  0
LINE
  5
6CB6
  8
AM_0N
 10
173.397533402557
 20
395.35950776089851
 30
0.0
 11
173.397533402557
 21
396.35950776089851
 31
0.0
  0
LINE
  5
6CB7
  8
AM_0
 10
193.0120383020886
 20
392.35950776089851
 30
0.0
 11
193.0120383020886
 21
396.35950776089851
 31
0.0
  0
LINE
  5
6CB8
  8
AM_0
 10
191.35518405259609
 20
396.35950776089851
 30
0.0
 11
193.0120383020886
 21
392.35950776089851
 31
0.0
  0
LINE
  5
6CB9
  8
AM_0
 10
247.38302850302401
 20
392.35950776089851
 30
0.0
 11
247.38302850302401
 21
396.35950776089851
 31
0.0
  0
LINE
  5
6CBA
  8
AM_0
 10
249.0398827525166
 20
396.35950776089851
 30
0.0
 11
247.38302850302401
 21
392.35950776089851
 31
0.0
  0
LINE
  5
6CBB
  8
AM_0
 10
186.6975334025563
 20
441.35950776089828
 30
0.0
 11
253.69753340255639
 21
441.35950776089828
 31
0.0
  0
LINE
  5
6CBC
  8
AM_0
 10
186.6975334025563
 20
441.35950776089828
 30
0.0
 11
186.6975334025563
 21
439.35950776089851
 31
0.0
  0
LINE
  5
6CBD
  8
AM_0
 10
253.69753340255639
 20
441.35950776089828
 30
0.0
 11
253.69753340255639
 21
439.35950776089851
 31
0.0
  0
LINE
  5
6CBE
  8
ﾁｭｳｼﾝｾﾝ1
 10
263.19753340255579
 20
390.09480026089841
 30
0.0
 11
263.19753340255579
 21
403.0948002608983
 31
0.0
  0
LINE
  5
6CBF
  8
AM_0
 10
259.29017843024928
 20
394.30057024877073
 30
0.0
 11
259.19753340255579
 21
395.35950776089851
 31
0.0
  0
LINE
  5
6CC0
  8
AM_0
 10
267.1048883748623
 20
394.30057024877073
 30
0.0
 11
267.19753340255568
 21
395.35950776089851
 31
0.0
  0
ARC
  5
6CC1
  8
AM_0
 10
263.19753340255602
 20
398.75950776089837
 30
0.0
 40
6.5
 50
241.82726586813479
 51
298.17273413186518
  0
ARC
  5
6CC2
  8
AM_0
 10
265.51097685791569
 20
394.44001943716682
 30
0.0
 40
1.6000000000000001
 50
298.17273413186518
 51
355.00000000000023
  0
LINE
  5
6CC3
  8
AM_0
 10
260.89753340255589
 20
392.68003409947022
 30
0.0
 11
263.19753340255579
 21
394.96959377826568
 31
0.0
  0
LINE
  5
6CC4
  8
AM_0
 10
262.88603340255582
 20
394.65950776089852
 30
0.0
 11
263.50903340255587
 21
394.65950776089852
 31
0.0
  0
LINE
  5
6CC5
  8
AM_0
 10
265.4975334025558
 20
392.68003409947022
 30
0.0
 11
263.19753340255579
 21
394.96959377826568
 31
0.0
  0
LINE
  5
6CC6
  8
AM_0
 10
262.88603340255582
 20
392.26697607056383
 30
0.0
 11
262.88603340255582
 21
394.65950776089852
 31
0.0
  0
LINE
  5
6CC7
  8
AM_0
 10
263.50903340255587
 20
392.26697607056383
 30
0.0
 11
263.50903340255587
 21
394.65950776089852
 31
0.0
  0
ARC
  5
6CC8
  8
AM_0
 10
260.88408994719629
 20
394.44001943716682
 30
0.0
 40
1.6000000000000001
 50
184.99999999999969
 51
241.82726586813479
  0
LINE
  5
6CC9
  8
AM_0N
 10
259.39753340255572
 20
396.35950776089851
 30
0.0
 11
259.39753340255572
 21
395.35950776089851
 31
0.0
  0
LINE
  5
6CCA
  8
AM_0N
 10
262.9975334025558
 20
395.35950776089851
 30
0.0
 11
262.63356316828958
 21
396.35950776089851
 31
0.0
  0
LINE
  5
6CCB
  8
AM_0N
 10
263.39753340255572
 20
395.35950776089851
 30
0.0
 11
263.03356316828962
 21
396.35950776089851
 31
0.0
  0
LINE
  5
6CCC
  8
AM_0N
 10
267.19753340255568
 20
395.35950776089851
 30
0.0
 11
259.19753340255579
 21
395.35950776089851
 31
0.0
  0
LINE
  5
6CCD
  8
AM_0N
 10
266.9975334025558
 20
395.35950776089851
 30
0.0
 11
266.9975334025558
 21
396.35950776089851
 31
0.0
  0
LINE
  5
6CCE
  8
AM_0
 10
171.1975334025563
 20
403.35950776089828
 30
0.0
 11
171.1975334025563
 21
435.35950776089823
 31
0.0
  0
LINE
  5
6CCF
  8
AM_0
 10
269.4032834025565
 20
552.28839776089853
 30
0.0
 11
265.25756340255663
 21
567.76950776089836
 31
0.0
  0
LINE
  5
6CD0
  8
AM_0
 10
269.40325340255657
 20
551.37839776089845
 30
0.0
 11
265.25753340255659
 21
566.85950776089828
 31
0.0
  0
LINE
  5
6CD1
  8
AM_0
 10
269.40325340255657
 20
549.52841776089849
 30
0.0
 11
265.25753340255659
 21
565.00955776089836
 31
0.0
  0
LINE
  5
6CD2
  8
AM_0
 10
271.19753340255647
 20
563.35950776089828
 30
0.0
 11
271.19753340255647
 21
451.35950776089823
 31
0.0
  0
LINE
  5
6CD3
  8
AM_0
 10
264.53756340255637
 20
543.35950776089817
 30
0.0
 11
165.5575234025566
 21
543.35950776089817
 31
0.0
  0
LINE
  5
6CD4
  8
AM_0
 10
264.53756340255637
 20
541.3595077608984
 30
0.0
 11
165.5575234025566
 21
541.3595077608984
 31
0.0
  0
LINE
  5
6CD5
  8
AM_0
 10
232.19753340255679
 20
533.35950776089828
 30
0.0
 11
165.5575234025566
 21
533.35950776089828
 31
0.0
  0
LINE
  5
6CD6
  8
AM_0
 10
264.53036340255682
 20
531.3595077608984
 30
0.0
 11
165.5575234025566
 21
531.3595077608984
 31
0.0
  0
LINE
  5
6CD7
  8
AM_0
 10
199.6362534025566
 20
523.3595077608984
 30
0.0
 11
165.5575234025566
 21
523.3595077608984
 31
0.0
  0
LINE
  5
6CD8
  8
AM_0
 10
199.6362534025566
 20
521.35950776089817
 30
0.0
 11
165.5575234025566
 21
521.35950776089817
 31
0.0
  0
LINE
  5
6CD9
  8
AM_0
 10
199.6362534025566
 20
513.35950776089817
 30
0.0
 11
165.5575234025566
 21
513.35950776089817
 31
0.0
  0
LINE
  5
6CDA
  8
AM_0
 10
199.6362534025566
 20
511.35950776089828
 30
0.0
 11
165.5575234025566
 21
511.35950776089828
 31
0.0
  0
LINE
  5
6CDB
  8
AM_0
 10
164.87752340255679
 20
544.07947776089816
 30
0.0
 11
268.0175434025565
 21
544.07947776089816
 31
0.0
  0
LINE
  5
6CDC
  8
AM_0
 10
164.87752340255679
 20
540.72949776089854
 30
0.0
 11
232.21755340255669
 21
540.72949776089854
 31
0.0
  0
LINE
  5
6CDD
  8
AM_0
 10
164.65755340255649
 20
533.8494977608982
 30
0.0
 11
232.19753340255679
 21
533.8494977608982
 31
0.0
  0
LINE
  5
6CDE
  8
AM_0
 10
164.65755340255649
 20
530.91955776089833
 30
0.0
 11
268.2317734025566
 21
530.91955776089833
 31
0.0
  0
LINE
  5
6CDF
  8
AM_0
 10
164.52755340255641
 20
523.69946776089841
 30
0.0
 11
200.85622340255671
 21
523.69946776089841
 31
0.0
  0
LINE
  5
6CE0
  8
AM_0
 10
164.52755340255641
 20
521.03955776089833
 30
0.0
 11
200.85622340255671
 21
521.03955776089833
 31
0.0
  0
LINE
  5
6CE1
  8
AM_0
 10
164.46755340255649
 20
513.62952776089833
 30
0.0
 11
200.9162234025566
 21
513.62952776089833
 31
0.0
  0
LINE
  5
6CE2
  8
AM_0
 10
164.46755340255649
 20
511.09949776089832
 30
0.0
 11
200.9162234025566
 21
511.09949776089832
 31
0.0
  0
LINE
  5
6CE3
  8
AM_0
 10
164.46755340255649
 20
503.62952776089821
 30
0.0
 11
200.9162234025566
 21
503.62952776089821
 31
0.0
  0
LINE
  5
6CE4
  8
AM_0
 10
199.6362534025566
 20
503.35950776089851
 30
0.0
 11
165.5575234025566
 21
503.35950776089851
 31
0.0
  0
LINE
  5
6CE5
  8
AM_0
 10
199.6362534025566
 20
501.35950776089828
 30
0.0
 11
165.5575234025566
 21
501.35950776089828
 31
0.0
  0
LINE
  5
6CE6
  8
AM_0
 10
164.46755340255649
 20
501.08948776089829
 30
0.0
 11
200.9162234025566
 21
501.08948776089829
 31
0.0
  0
LINE
  5
6CE7
  8
AM_0
 10
164.52755340255641
 20
493.67944776089848
 30
0.0
 11
200.85622340255671
 21
493.67944776089848
 31
0.0
  0
LINE
  5
6CE8
  8
AM_0
 10
199.6362534025566
 20
493.35950776089828
 30
0.0
 11
165.5575234025566
 21
493.35950776089828
 31
0.0
  0
LINE
  5
6CE9
  8
AM_0
 10
199.6362534025566
 20
491.35950776089828
 30
0.0
 11
165.5575234025566
 21
491.35950776089828
 31
0.0
  0
LINE
  5
6CEA
  8
AM_0
 10
164.52755340255641
 20
491.01953776089829
 30
0.0
 11
200.86880340255649
 21
491.01953776089829
 31
0.0
  0
LINE
  5
6CEB
  8
AM_0
 10
264.53036340255682
 20
483.35950776089828
 30
0.0
 11
165.5575234025566
 21
483.35950776089828
 31
0.0
  0
LINE
  5
6CEC
  8
AM_0
 10
164.65755340255649
 20
483.79944776089849
 30
0.0
 11
268.2317734025566
 21
483.79944776089849
 31
0.0
  0
LINE
  5
6CED
  8
AM_0
 10
232.19753340255679
 20
481.35950776089828
 30
0.0
 11
165.5575234025566
 21
481.35950776089828
 31
0.0
  0
LINE
  5
6CEE
  8
AM_0
 10
164.65755340255649
 20
480.86951776089847
 30
0.0
 11
232.19753340255679
 21
480.86951776089847
 31
0.0
  0
LINE
  5
6CEF
  8
AM_0
 10
264.53756340255637
 20
473.35950776089823
 30
0.0
 11
220.1975334025565
 21
473.35950776089823
 31
0.0
  0
LINE
  5
6CF0
  8
AM_0
 10
264.53756340255637
 20
471.35950776089823
 30
0.0
 11
220.1975334025565
 21
471.35950776089823
 31
0.0
  0
LINE
  5
6CF1
  8
AM_0
 10
164.87752340255679
 20
470.63953776089818
 30
0.0
 11
220.1975334025565
 21
470.63953776089818
 31
0.0
  0
LINE
  5
6CF2
  8
AM_0
 10
268.0175434025565
 20
473.98950776089828
 30
0.0
 11
250.1775734025565
 21
473.98950776089828
 31
0.0
  0
LINE
  5
6CF3
  8
AM_0
 10
164.87752340255679
 20
473.98950776089828
 30
0.0
 11
232.21755340255669
 21
473.98950776089828
 31
0.0
  0
LINE
  5
6CF4
  8
AM_0
 10
220.1975334025565
 20
473.35950776089823
 30
0.0
 11
165.5575234025566
 21
473.35950776089823
 31
0.0
  0
LINE
  5
6CF5
  8
AM_0
 10
220.1975334025565
 20
471.35950776089823
 30
0.0
 11
165.5575234025566
 21
471.35950776089823
 31
0.0
  0
LINE
  5
6CF6
  8
AM_0
 10
220.1975334025565
 20
470.63953776089818
 30
0.0
 11
268.0175434025565
 21
470.63953776089818
 31
0.0
  0
LINE
  5
6CF7
  8
AM_0
 10
163.19753340255659
 20
560.3595077608984
 30
0.0
 11
163.19753340255659
 21
454.35950776089828
 31
0.0
  0
LINE
  5
6CF8
  8
AM_0
 10
271.19753340255647
 20
553.3595077608984
 30
0.0
 11
279.19753340255647
 21
553.3595077608984
 31
0.0
  0
LINE
  5
6CF9
  8
AM_0
 10
271.19753340255647
 20
539.29944776089837
 30
0.0
 11
279.19753340255647
 21
539.29944776089837
 31
0.0
  0
LINE
  5
6CFA
  8
AM_0
 10
271.19753340255647
 20
563.35950776089828
 30
0.0
 11
279.19753340255647
 21
563.35950776089828
 31
0.0
  0
LINE
  5
6CFB
  8
AM_0
 10
166.40755340255649
 20
563.63953776089852
 30
0.0
 11
263.3275434025565
 21
563.63953776089852
 31
0.0
  0
LINE
  5
6CFC
  8
AM_0
 10
163.19753340255659
 20
555.45956776089827
 30
0.0
 11
164.43752340255659
 21
562.01956776089821
 31
0.0
  0
LINE
  5
6CFD
  8
AM_0
 10
168.55758340255659
 20
544.00952776089832
 30
0.0
 11
163.19759340255641
 21
555.4595077608983
 31
0.0
  0
LINE
  5
6CFE
  8
AM_0
 10
168.5575234025566
 20
470.70947776089832
 30
0.0
 11
163.19759340255641
 21
459.26956776089838
 31
0.0
  0
LINE
  5
6CFF
  8
AM_0
 10
166.4475334025565
 20
566.48950776089805
 30
0.0
 11
263.3275434025565
 21
566.48950776089805
 31
0.0
  0
LINE
  5
6D00
  8
AM_0
 10
166.46755340255649
 20
568.33948776089835
 30
0.0
 11
263.3275434025565
 21
568.33948776089835
 31
0.0
  0
LINE
  5
6D01
  8
AM_0
 10
166.48757340255651
 20
569.24951776089836
 30
0.0
 11
263.32760340255658
 21
569.24951776089836
 31
0.0
  0
LINE
  5
6D02
  8
AM_0
 10
163.19759340255641
 20
556.79953776089815
 30
0.0
 11
164.4775634025566
 21
564.80948776089838
 31
0.0
  0
LINE
  5
6D03
  8
AM_0
 10
163.19759340255641
 20
558.14947776089798
 30
0.0
 11
164.48757340255671
 21
566.63956776089833
 31
0.0
  0
LINE
  5
6D04
  8
AM_0
 10
163.19753340255659
 20
558.14950776089825
 30
0.0
 11
164.5075334025565
 21
567.52954776089825
 31
0.0
  0
LINE
  5
6D05
  8
AM_0
 10
269.39760340255668
 20
546.69946776089841
 30
0.0
 11
265.25759340255649
 21
562.15948776089817
 31
0.0
  0
LINE
  5
6D06
  8
AM_0
 10
265.73757340255662
 20
560.3595077608984
 30
0.0
 11
271.19753340255647
 21
560.3595077608984
 31
0.0
  0
LINE
  5
6D07
  8
AM_0
 10
271.19753340255647
 20
461.35950776089828
 30
0.0
 11
279.19753340255647
 21
461.35950776089828
 31
0.0
  0
LINE
  5
6D08
  8
AM_0
 10
271.19753340255647
 20
451.35950776089823
 30
0.0
 11
279.19753340255647
 21
451.35950776089823
 31
0.0
  0
LINE
  5
6D09
  8
AM_0
 10
166.40755340255649
 20
451.07947776089838
 30
0.0
 11
263.3275434025565
 21
451.07947776089838
 31
0.0
  0
LINE
  5
6D0A
  8
AM_0
 10
163.19753340255659
 20
459.26947776089838
 30
0.0
 11
164.43758340255661
 21
452.70947776089838
 31
0.0
  0
LINE
  5
6D0B
  8
AM_0
 10
166.10378340255659
 20
448.22949776089848
 30
0.0
 11
188.5956634025564
 21
448.22949776089848
 31
0.0
  0
LINE
  5
6D0C
  8
AM_0
 10
163.19753340255659
 20
457.91946776089839
 30
0.0
 11
164.4775634025566
 21
449.91955776089839
 31
0.0
  0
LINE
  5
6D0D
  8
AM_0
 10
163.19753340255659
 20
456.57956776089821
 30
0.0
 11
164.20681340255661
 21
449.92938776089829
 31
0.0
  0
LINE
  5
6D0E
  8
AM_0
 10
163.19759340255641
 20
456.57953776089829
 30
0.0
 11
164.12301340255661
 21
449.95294776089838
 31
0.0
  0
LINE
  5
6D0F
  8
AM_0
 10
269.40325340255657
 20
468.04065776089828
 30
0.0
 11
265.25753340255659
 21
452.5595177608983
 31
0.0
  0
LINE
  5
6D10
  8
AM_0
 10
265.7395834025566
 20
454.35950776089828
 30
0.0
 11
271.19753340255647
 21
454.35950776089828
 31
0.0
  0
LINE
  5
6D11
  8
AM_0
 10
271.19753340255647
 20
475.41955776089827
 30
0.0
 11
279.19753340255647
 21
475.41955776089827
 31
0.0
  0
LINE
  5
6D12
  8
AM_0
 10
270.19753340255647
 20
454.35950776089828
 30
0.0
 11
264.47179340255661
 21
445.54260776089848
 31
0.0
  0
LINE
  5
6D13
  8
AM_0
 10
251.71114340255659
 20
444.85950776089828
 30
0.0
 11
263.21377340255663
 21
444.85950776089828
 31
0.0
  0
LINE
  5
6D14
  8
AM_0
 10
249.17757340255659
 20
534.85950776089817
 30
0.0
 11
249.17757340255659
 21
539.71948776089835
 31
0.0
  0
LINE
  5
6D15
  8
AM_0
 10
233.2175534025566
 20
534.85950776089817
 30
0.0
 11
233.2175534025566
 21
539.71948776089835
 31
0.0
  0
LINE
  5
6D16
  8
AM_0
 10
248.6975334025567
 20
534.85950776089817
 30
0.0
 11
248.6975334025567
 21
539.8595077608984
 31
0.0
  0
LINE
  5
6D17
  8
AM_0
 10
233.6975334025565
 20
534.85950776089817
 30
0.0
 11
233.6975334025565
 21
539.8595077608984
 31
0.0
  0
LINE
  5
6D18
  8
AM_0
 10
205.1975334025565
 20
520.3595077608984
 30
0.0
 11
268.19753340255647
 21
520.3595077608984
 31
0.0
  0
LINE
  5
6D19
  8
AM_0
 10
205.1975334025565
 20
486.85950776089851
 30
0.0
 11
268.19753340255647
 21
486.85950776089851
 31
0.0
  0
LINE
  5
6D1A
  8
AM_0
 10
205.1975334025565
 20
527.8595077608984
 30
0.0
 11
268.19753340255647
 21
527.8595077608984
 31
0.0
  0
LINE
  5
6D1B
  8
AM_0
 10
268.19753340255647
 20
527.8595077608984
 30
0.0
 11
268.19753340255647
 21
486.85950776089851
 31
0.0
  0
LINE
  5
6D1C
  8
AM_0
 10
205.1975334025565
 20
527.8595077608984
 30
0.0
 11
205.1975334025565
 21
486.85950776089851
 31
0.0
  0
LINE
  5
6D1D
  8
AM_0
 10
250.1975334025565
 20
533.8494977608982
 30
0.0
 11
268.24325340255649
 21
533.8494977608982
 31
0.0
  0
LINE
  5
6D1E
  8
AM_0
 10
250.1975334025565
 20
480.87952776089821
 30
0.0
 11
268.2317734025566
 21
480.87952776089821
 31
0.0
  0
LINE
  5
6D1F
  8
AM_0
 10
249.17757340255659
 20
479.85950776089823
 30
0.0
 11
249.17757340255659
 21
474.9995177608983
 31
0.0
  0
LINE
  5
6D20
  8
AM_0
 10
233.2175534025566
 20
479.85950776089823
 30
0.0
 11
233.2175534025566
 21
474.9995177608983
 31
0.0
  0
LINE
  5
6D21
  8
AM_0
 10
248.6975334025567
 20
479.85950776089823
 30
0.0
 11
248.6975334025567
 21
474.85950776089828
 31
0.0
  0
LINE
  5
6D22
  8
AM_0
 10
233.6975334025565
 20
479.85950776089823
 30
0.0
 11
233.6975334025565
 21
474.85950776089828
 31
0.0
  0
LINE
  5
6D23
  8
AM_0
 10
264.53036340255682
 20
481.35950776089828
 30
0.0
 11
250.1975334025565
 21
481.35950776089828
 31
0.0
  0
LINE
  5
6D24
  8
AM_0
 10
264.54470340255682
 20
533.35950776089828
 30
0.0
 11
250.1975334025565
 21
533.35950776089828
 31
0.0
  0
LINE
  5
6D25
  8
AM_0
 10
250.1775734025565
 20
540.71948776089835
 30
0.0
 11
268.0175434025565
 21
540.71948776089835
 31
0.0
  0
ARC
  5
6D26
  8
AM_0
 10
270.8507334025565
 20
552.69226776089829
 30
0.0
 40
1.502775999999999
 50
194.75642999999971
 51
269.87757999999872
  0
ARC
  5
6D27
  8
AM_0
 10
270.8507334025565
 20
551.78223776089817
 30
0.0
 40
1.502775999999999
 50
194.75642999999971
 51
269.87757999999872
  0
ARC
  5
6D28
  8
AM_0
 10
270.8507334025565
 20
549.93225776089832
 30
0.0
 40
1.502775999999999
 50
194.75642999999971
 51
269.87757999999872
  0
ARC
  5
6D29
  8
AM_0
 10
263.32271340255681
 20
567.2447577608981
 30
0.0
 40
2.0047290000000002
 50
15.173495999996319
 51
89.861678000000197
  0
ARC
  5
6D2A
  8
AM_0
 10
263.32271340255681
 20
566.33472776089809
 30
0.0
 40
2.0047290000000002
 50
15.173495999996319
 51
89.861678000000197
  0
ARC
  5
6D2B
  8
AM_0
 10
263.32271340255681
 20
564.48474776089824
 30
0.0
 40
2.0047290000000002
 50
15.173495999996319
 51
89.861678000000197
  0
ARC
  5
6D2C
  8
AM_0
 10
270.8507334025565
 20
467.63672776089822
 30
0.0
 40
1.502775999999999
 50
90.122413000001615
 51
165.2435700000002
  0
ARC
  5
6D2D
  8
AM_0
 10
165.7421534025566
 20
472.35950776089823
 30
0.0
 40
1.000013899999999
 50
89.691659999999231
 51
270.30834000000078
  0
ARC
  5
6D2E
  8
AM_0
 10
268.0175434025565
 20
542.40454776089803
 30
0.0
 40
1.6750020000000001
 50
269.999989999999
 51
90.00000299999769
  0
ARC
  5
6D2F
  8
AM_0
 10
264.53756340255637
 20
542.35950776089817
 30
0.0
 40
1.0
 50
269.999989999999
 51
90.00000299999769
  0
ARC
  5
6D30
  8
AM_0
 10
264.53756340255637
 20
472.35950776089823
 30
0.0
 40
1.0
 50
269.999989999999
 51
90.00000299999769
  0
ARC
  5
6D31
  8
AM_0
 10
268.0175434025565
 20
472.31445776089828
 30
0.0
 40
1.6750020000000001
 50
269.999989999999
 51
90.00000299999769
  0
ARC
  5
6D32
  8
AM_0
 10
164.87014340255681
 20
542.40454776089803
 30
0.0
 40
1.6750160000000001
 50
89.746145000004447
 51
270.25387000000092
  0
ARC
  5
6D33
  8
AM_0
 10
165.7421534025566
 20
542.35950776089817
 30
0.0
 40
1.000013899999999
 50
89.691659999999231
 51
270.30834000000078
  0
ARC
  5
6D34
  8
AM_0
 10
165.7421534025566
 20
532.3595077608984
 30
0.0
 40
1.000013899999999
 50
89.691659999999231
 51
270.30834000000078
  0
ARC
  5
6D35
  8
AM_0
 10
165.7421534025566
 20
522.35950776089817
 30
0.0
 40
1.000013899999999
 50
89.691659999999231
 51
270.30834000000078
  0
ARC
  5
6D36
  8
AM_0
 10
165.7421534025566
 20
512.3595077608984
 30
0.0
 40
1.000013899999999
 50
89.691659999999231
 51
270.30834000000078
  0
ARC
  5
6D37
  8
AM_0
 10
165.7421534025566
 20
502.35950776089828
 30
0.0
 40
1.000013899999999
 50
89.691659999999231
 51
270.30834000000078
  0
ARC
  5
6D38
  8
AM_0
 10
165.7421534025566
 20
492.35950776089828
 30
0.0
 40
1.000013899999999
 50
89.691659999999231
 51
270.30834000000078
  0
ARC
  5
6D39
  8
AM_0
 10
165.7421534025566
 20
482.35950776089828
 30
0.0
 40
1.000013899999999
 50
89.691659999999231
 51
270.30834000000078
  0
ARC
  5
6D3A
  8
AM_0
 10
164.65755340255649
 20
532.38452776089832
 30
0.0
 40
1.465004
 50
90.00000299999769
 51
270.0
  0
ARC
  5
6D3B
  8
AM_0
 10
164.52755340255641
 20
522.36951776089825
 30
0.0
 40
1.3300049999999981
 50
90.00000299999769
 51
270.0
  0
ARC
  5
6D3C
  8
AM_0
 10
164.46169340255651
 20
512.36450776089828
 30
0.0
 40
1.2650129999999991
 50
89.735579000001735
 51
270.2644100000025
  0
ARC
  5
6D3D
  8
AM_0
 10
164.46169340255651
 20
502.35950776089828
 30
0.0
 40
1.2700129999999981
 50
89.736617000001587
 51
270.26336999999921
  0
ARC
  5
6D3E
  8
AM_0
 10
164.52755340255641
 20
492.34949776089832
 30
0.0
 40
1.3300049999999981
 50
90.00000299999769
 51
270.0
  0
ARC
  5
6D3F
  8
AM_0
 10
164.65755340255649
 20
482.33447776089832
 30
0.0
 40
1.465004
 50
90.00000299999769
 51
270.0
  0
ARC
  5
6D40
  8
AM_0
 10
164.8706934025565
 20
472.31445776089828
 30
0.0
 40
1.675014
 50
89.766498999996756
 51
270.2335099999994
  0
ARC
  5
6D41
  8
AM_0
 10
166.39626340255651
 20
561.64538776089853
 30
0.0
 40
1.994108999999999
 50
89.675548000002749
 51
169.18776999999901
  0
ARC
  5
6D42
  8
AM_0
 10
166.4477834025565
 20
564.49426776089854
 30
0.0
 40
1.995282999999997
 50
90.006203999996856
 51
170.90835000000069
  0
ARC
  5
6D43
  8
AM_0
 10
166.46212340255661
 20
566.34277776089834
 30
0.0
 40
1.9967330000000001
 50
89.843966999998912
 51
171.4538799999975
  0
ARC
  5
6D44
  8
AM_0
 10
166.48403340255641
 20
567.25390776089807
 30
0.0
 40
1.995633
 50
89.899707999995783
 51
172.06112999999939
  0
ARC
  5
6D45
  8
AM_0
 10
263.32766340255648
 20
561.64123776089855
 30
0.0
 40
1.9982919999999991
 50
15.032547999996
 51
90.002632000001341
  0
ARC
  5
6D46
  8
AM_0
 10
270.8507334025565
 20
547.08227776089825
 30
0.0
 40
1.502775999999999
 50
194.75642999999971
 51
269.87757999999872
  0
ARC
  5
6D47
  8
AM_0
 10
263.32271340255681
 20
453.0842377608983
 30
0.0
 40
2.0047290000000002
 50
270.13832000000423
 51
344.82650000000189
  0
ARC
  5
6D48
  8
AM_0
 10
166.40243340255651
 20
453.07873776089838
 30
0.0
 40
1.9992490000000001
 50
190.643100000001
 51
270.14743000000129
  0
ARC
  5
6D49
  8
AM_0
 10
166.4537634025566
 20
450.22986776089817
 30
0.0
 40
2.000420099999999
 50
188.9268200000011
 51
269.82270999999599
  0
ARC
  5
6D4A
  8
AM_0
 10
251.71114340255659
 20
443.35950776089823
 30
0.0
 40
1.5
 50
90.00000299999769
 51
178.50000000000381
  0
ARC
  5
6D4B
  8
AM_0
 10
263.21377340255663
 20
446.35950776089823
 30
0.0
 40
1.5
 50
269.999989999999
 51
326.99999999999892
  0
ARC
  5
6D4C
  8
AM_0
 10
166.18416340255641
 20
450.22949776089843
 30
0.0
 40
2.0
 50
188.62962000000439
 51
269.999989999999
  0
ARC
  5
6D4D
  8
AM_0
 10
166.10378340255659
 20
450.22949776089843
 30
0.0
 40
2.0
 50
187.9504400000034
 51
269.999989999999
  0
ARC
  5
6D4E
  8
AM_0
 10
188.5956634025564
 20
446.72949776089831
 30
0.0
 40
1.5
 50
1.5000027000022329
 51
90.00000299999769
  0
ARC
  5
6D4F
  8
AM_0
 10
199.6362534025566
 20
522.35950776089817
 30
0.0
 40
1.0000056999999991
 50
269.999989999999
 51
90.00000299999769
  0
ARC
  5
6D50
  8
AM_0
 10
199.6362534025566
 20
512.3595077608984
 30
0.0
 40
1.0000056999999991
 50
269.999989999999
 51
90.00000299999769
  0
ARC
  5
6D51
  8
AM_0
 10
199.6362534025566
 20
502.35950776089828
 30
0.0
 40
1.0000056999999991
 50
269.999989999999
 51
90.00000299999769
  0
ARC
  5
6D52
  8
AM_0
 10
199.6362534025566
 20
492.35950776089828
 30
0.0
 40
1.0000056999999991
 50
269.999989999999
 51
90.00000299999769
  0
ARC
  5
6D53
  8
AM_0
 10
250.1975334025565
 20
474.85950776089828
 30
0.0
 40
1.5
 50
179.999989999999
 51
270.0
  0
ARC
  5
6D54
  8
AM_0
 10
232.19753340255679
 20
474.85950776089828
 30
0.0
 40
1.5
 50
269.999989999999
 51
0.0000006832495047
  0
ARC
  5
6D55
  8
AM_0
 10
232.21755340255669
 20
474.9995177608983
 30
0.0
 40
1.0
 50
269.999989999999
 51
0.0000006832495047
  0
ARC
  5
6D56
  8
AM_0
 10
250.1775734025565
 20
474.9995177608983
 30
0.0
 40
1.0
 50
179.999989999999
 51
270.0
  0
CIRCLE
  5
6D57
  8
AM_0
 10
238.6975334025565
 20
535.8595077608984
 30
0.0
 40
1.1000000000000001
  0
CIRCLE
  5
6D58
  8
AM_0
 10
238.6975334025565
 20
535.8595077608984
 30
0.0
 40
1.149999999999999
  0
CIRCLE
  5
6D59
  8
AM_0
 10
243.6975334025565
 20
535.8595077608984
 30
0.0
 40
1.0
  0
ARC
  5
6D5A
  8
AM_0
 10
232.19753340255679
 20
534.85950776089817
 30
0.0
 40
1.02
 50
269.999989999999
 51
0.0000006832429909
  0
ARC
  5
6D5B
  8
AM_0
 10
250.1975334025565
 20
534.85950776089817
 30
0.0
 40
1.02
 50
179.999989999999
 51
270.0
  0
ARC
  5
6D5C
  8
AM_0
 10
232.19753340255679
 20
534.85950776089817
 30
0.0
 40
1.5
 50
269.999989999999
 51
0.0000006832495047
  0
ARC
  5
6D5D
  8
AM_0
 10
250.1975334025565
 20
534.85950776089817
 30
0.0
 40
1.5
 50
179.999989999999
 51
270.0
  0
CIRCLE
  5
6D5E
  8
AM_0
 10
243.6975334025565
 20
478.85950776089828
 30
0.0
 40
1.0
  0
CIRCLE
  5
6D5F
  8
AM_0
 10
238.6975334025565
 20
478.85950776089828
 30
0.0
 40
1.149999999999999
  0
CIRCLE
  5
6D60
  8
AM_0
 10
238.6975334025565
 20
478.85950776089828
 30
0.0
 40
1.1000000000000001
  0
ARC
  5
6D61
  8
AM_0
 10
232.19753340255679
 20
479.85950776089823
 30
0.0
 40
1.02
 50
0.0
 51
90.00000299999769
  0
ARC
  5
6D62
  8
AM_0
 10
250.1975334025565
 20
479.85950776089823
 30
0.0
 40
1.02
 50
90.00000299999769
 51
180.00001000000091
  0
ARC
  5
6D63
  8
AM_0
 10
232.19753340255679
 20
479.85950776089823
 30
0.0
 40
1.5
 50
0.0
 51
90.00000299999769
  0
ARC
  5
6D64
  8
AM_0
 10
250.1975334025565
 20
479.85950776089823
 30
0.0
 40
1.5
 50
90.00000299999769
 51
180.00001000000091
  0
ARC
  5
6D65
  8
AM_0
 10
200.8625134025566
 20
492.34949776089832
 30
0.0
 40
1.3300148000000001
 50
269.7294199999987
 51
90.270567000000995
  0
ARC
  5
6D66
  8
AM_0
 10
200.92446340255651
 20
502.35950776089828
 30
0.0
 40
1.2700266
 50
269.62932000000001
 51
90.370669999998185
  0
ARC
  5
6D67
  8
AM_0
 10
200.92446340255651
 20
512.36951776089836
 30
0.0
 40
1.2700266
 50
269.62932000000001
 51
90.370669999998185
  0
ARC
  5
6D68
  8
AM_0
 10
200.8625134025566
 20
522.37451776089836
 30
0.0
 40
1.3350147999999991
 50
269.7304299999999
 51
90.269556000001344
  0
ARC
  5
6D69
  8
AM_0
 10
264.53750340255658
 20
532.3595077608984
 30
0.0
 40
1.0000255999999981
 50
269.5894700000033
 51
90.410530999997775
  0
ARC
  5
6D6A
  8
AM_0
 10
268.2375134025566
 20
532.38953776089852
 30
0.0
 40
1.460011199999999
 50
269.77524999999667
 51
90.224750000003354
  0
ARC
  5
6D6B
  8
AM_0
 10
264.53750340255658
 20
482.35950776089828
 30
0.0
 40
1.0000255999999981
 50
269.5894700000033
 51
90.410530999997775
  0
ARC
  5
6D6C
  8
AM_0
 10
268.2375134025566
 20
482.32947776089838
 30
0.0
 40
1.460011199999999
 50
269.77524999999667
 51
90.224750000003354
  0
ARC
  5
6D6D
  8
AM_0
 10
250.1775734025565
 20
539.71948776089835
 30
0.0
 40
1.0
 50
90.00000299999769
 51
180.00001000000091
  0
ARC
  5
6D6E
  8
AM_0
 10
250.1975334025565
 20
539.8595077608984
 30
0.0
 40
1.5
 50
90.00000299999769
 51
180.00001000000091
  0
ARC
  5
6D6F
  8
AM_0
 10
232.19753340255679
 20
539.8595077608984
 30
0.0
 40
1.5
 50
0.0
 51
90.00000299999769
  0
ARC
  5
6D70
  8
AM_0
 10
232.21755340255669
 20
539.71948776089835
 30
0.0
 40
1.0
 50
0.0
 51
90.00000299999769
  0
POLYLINE
  5
6D71
  8
AM_0
 66
     1
 10
0.0
 20
0.0
 30
0.0
  0
VERTEX
  5
6D72
  8
AM_0
 10
165.5575234025566
 20
507.35950776089828
 30
0.0
 42
0.00039106593
  0
VERTEX
  5
6D73
  8
AM_0
 10
165.5551634025565
 20
507.04836776089832
 30
0.0
 42
0.00040574899
  0
VERTEX
  5
6D74
  8
AM_0
 10
165.55329340255651
 20
506.73725776089839
 30
0.0
 42
0.0003534546
  0
VERTEX
  5
6D75
  8
AM_0
 10
165.5519034025566
 20
506.42615776089832
 30
0.0
 42
0.00034407327
  0
VERTEX
  5
6D76
  8
AM_0
 10
165.55092340255641
 20
506.11501776089841
 30
0.0
 42
0.00045699408
  0
VERTEX
  5
6D77
  8
AM_0
 10
165.5504634025566
 20
505.80390776089848
 30
0.0
 42
0.00035571853
  0
VERTEX
  5
6D78
  8
AM_0
 10
165.55050340255659
 20
505.4928077608983
 30
0.0
 42
0.00038547362
  0
VERTEX
  5
6D79
  8
AM_0
 10
165.5509934025564
 20
505.18166776089822
 30
0.0
 42
0.00035501498
  0
VERTEX
  5
6D7A
  8
AM_0
 10
165.55195340255659
 20
504.87056776089838
 30
0.0
 42
0.00040118614
  0
VERTEX
  5
6D7B
  8
AM_0
 10
165.5533734025565
 20
504.55932776089838
 30
0.0
 42
0.00038319871
  0
VERTEX
  5
6D7C
  8
AM_0
 10
165.5552834025566
 20
504.24819776089828
 30
0.0
 42
0.00040742136
  0
VERTEX
  5
6D7D
  8
AM_0
 10
165.55768340255679
 20
503.93696776089831
 30
0.0
 42
0.0003578071
  0
VERTEX
  5
6D7E
  8
AM_0
 10
165.56057340255651
 20
503.62585776089821
 30
0.0
  0
SEQEND
  5
6D7F
  8
AM_0
  0
POLYLINE
  5
6D80
  8
AM_0
 66
     1
 10
0.0
 20
0.0
 30
0.0
  0
VERTEX
  5
6D81
  8
AM_0
 10
165.60158340255651
 20
501.08911776089849
 30
0.0
 42
0.00076695232
  0
VERTEX
  5
6D82
  8
AM_0
 10
165.61638340255641
 20
500.47135776089829
 30
0.0
 42
0.00073263044
  0
VERTEX
  5
6D83
  8
AM_0
 10
165.63302340255669
 20
499.8537577608983
 30
0.0
 42
0.0007652599
  0
VERTEX
  5
6D84
  8
AM_0
 10
165.65151340255659
 20
499.23608776089822
 30
0.0
 42
0.00075144485
  0
VERTEX
  5
6D85
  8
AM_0
 10
165.6718834025568
 20
498.61848776089829
 30
0.0
 42
0.00078594403
  0
VERTEX
  5
6D86
  8
AM_0
 10
165.6941334025565
 20
498.00105776089822
 30
0.0
 42
0.00073349202
  0
VERTEX
  5
6D87
  8
AM_0
 10
165.71828340255641
 20
497.38367776089819
 30
0.0
 42
0.0007358075
  0
VERTEX
  5
6D88
  8
AM_0
 10
165.7442234025566
 20
496.76627776089828
 30
0.0
 42
0.00078592699
  0
VERTEX
  5
6D89
  8
AM_0
 10
165.77205340255659
 20
496.14888776089822
 30
0.0
 42
0.00074823144
  0
VERTEX
  5
6D8A
  8
AM_0
 10
165.80178340255659
 20
495.5314977608985
 30
0.0
 42
0.00074896603
  0
VERTEX
  5
6D8B
  8
AM_0
 10
165.83334340255641
 20
494.9143677608983
 30
0.0
 42
0.00076039765
  0
VERTEX
  5
6D8C
  8
AM_0
 10
165.86676340255681
 20
494.2973377608983
 30
0.0
 42
0.00075616128
  0
VERTEX
  5
6D8D
  8
AM_0
 10
165.90206340255659
 20
493.6803077608983
 30
0.0
  0
SEQEND
  5
6D8E
  8
AM_0
  0
POLYLINE
  5
6D8F
  8
AM_0
 66
     1
 10
0.0
 20
0.0
 30
0.0
  0
VERTEX
  5
6D90
  8
AM_0
 10
166.07577340255659
 20
491.01892776089829
 30
0.0
 42
0.00073721992
  0
VERTEX
  5
6D91
  8
AM_0
 10
166.11992340255651
 20
490.41651776089839
 30
0.0
 42
0.00074398496
  0
VERTEX
  5
6D92
  8
AM_0
 10
166.16585340255651
 20
489.8142477608983
 30
0.0
 42
0.00073322625
  0
VERTEX
  5
6D93
  8
AM_0
 10
166.21358340255651
 20
489.2119177608983
 30
0.0
 42
0.00073594289
  0
VERTEX
  5
6D94
  8
AM_0
 10
166.2630634025565
 20
488.60992776089847
 30
0.0
 42
0.00074742568
  0
VERTEX
  5
6D95
  8
AM_0
 10
166.3143334025566
 20
488.00806776089848
 30
0.0
 42
0.00073216749
  0
VERTEX
  5
6D96
  8
AM_0
 10
166.3673934025567
 20
487.40625776089843
 30
0.0
 42
0.00074184065
  0
VERTEX
  5
6D97
  8
AM_0
 10
166.42221340255651
 20
486.80472776089852
 30
0.0
 42
0.00072077528
  0
VERTEX
  5
6D98
  8
AM_0
 10
166.47879340255679
 20
486.20349776089847
 30
0.0
 42
0.00074978179
  0
VERTEX
  5
6D99
  8
AM_0
 10
166.53713340255641
 20
485.6022977608983
 30
0.0
 42
0.00074288888
  0
VERTEX
  5
6D9A
  8
AM_0
 10
166.59728340255651
 20
485.00127776089818
 30
0.0
 42
0.00072503679
  0
VERTEX
  5
6D9B
  8
AM_0
 10
166.6591934025565
 20
484.4005377608982
 30
0.0
 42
0.00074640584
  0
VERTEX
  5
6D9C
  8
AM_0
 10
166.7228634025565
 20
483.79993776089839
 30
0.0
  0
SEQEND
  5
6D9D
  8
AM_0
  0
POLYLINE
  5
6D9E
  8
AM_0
 66
     1
 10
0.0
 20
0.0
 30
0.0
  0
VERTEX
  5
6D9F
  8
AM_0
 10
167.0584334025566
 20
480.87646776089838
 30
0.0
 42
0.0006890001
  0
VERTEX
  5
6DA0
  8
AM_0
 10
167.12931340255651
 20
480.30171776089838
 30
0.0
 42
0.00070644651
  0
VERTEX
  5
6DA1
  8
AM_0
 10
167.20181340255661
 20
479.72703776089821
 30
0.0
 42
0.0006924559
  0
VERTEX
  5
6DA2
  8
AM_0
 10
167.27590340255659
 20
479.15271776089821
 30
0.0
 42
0.00069587797
  0
VERTEX
  5
6DA3
  8
AM_0
 10
167.3515834025566
 20
478.57857776089838
 30
0.0
 42
0.00071687041
  0
VERTEX
  5
6DA4
  8
AM_0
 10
167.42889340255641
 20
478.00457776089809
 30
0.0
 42
0.00069759113
  0
VERTEX
  5
6DA5
  8
AM_0
 10
167.50783340255651
 20
477.43078776089828
 30
0.0
 42
0.00071003142
  0
VERTEX
  5
6DA6
  8
AM_0
 10
167.58837340255661
 20
476.85731776089801
 30
0.0
 42
0.00069954544
  0
VERTEX
  5
6DA7
  8
AM_0
 10
167.67051340255659
 20
476.28421776089829
 30
0.0
 42
0.0007188852
  0
VERTEX
  5
6DA8
  8
AM_0
 10
167.7542934025565
 20
475.71118776089821
 30
0.0
 42
0.00071266165
  0
VERTEX
  5
6DA9
  8
AM_0
 10
167.83972340255659
 20
475.13842776089831
 30
0.0
 42
0.00071614577
  0
VERTEX
  5
6DAA
  8
AM_0
 10
167.9267534025565
 20
474.56607776089828
 30
0.0
 42
0.00072290806
  0
VERTEX
  5
6DAB
  8
AM_0
 10
168.01546340255641
 20
473.9937777608983
 30
0.0
  0
SEQEND
  5
6DAC
  8
AM_0
  0
POLYLINE
  5
6DAD
  8
AM_0
 66
     1
 10
0.0
 20
0.0
 30
0.0
  0
VERTEX
  5
6DAE
  8
AM_0
 10
165.5575234025566
 20
507.35950776089828
 30
0.0
 42
-0.00039106653
  0
VERTEX
  5
6DAF
  8
AM_0
 10
165.5551634025565
 20
507.67063776089822
 30
0.0
 42
-0.00040574511
  0
VERTEX
  5
6DB0
  8
AM_0
 10
165.55329340255651
 20
507.98174776089832
 30
0.0
 42
-0.00035346331
  0
VERTEX
  5
6DB1
  8
AM_0
 10
165.5519034025566
 20
508.2928577608983
 30
0.0
 42
-0.00034406545
  0
VERTEX
  5
6DB2
  8
AM_0
 10
165.55092340255641
 20
508.60399776089849
 30
0.0
 42
-0.00045699059
  0
VERTEX
  5
6DB3
  8
AM_0
 10
165.5504634025566
 20
508.91509776089828
 30
0.0
 42
-0.00035573431
  0
VERTEX
  5
6DB4
  8
AM_0
 10
165.55050340255659
 20
509.22619776089817
 30
0.0
 42
-0.00038545888
  0
VERTEX
  5
6DB5
  8
AM_0
 10
165.5509934025564
 20
509.53733776089831
 30
0.0
 42
-0.00035501203
  0
VERTEX
  5
6DB6
  8
AM_0
 10
165.55195340255659
 20
509.8484477608983
 30
0.0
 42
-0.00040120778
  0
VERTEX
  5
6DB7
  8
AM_0
 10
165.5533734025565
 20
510.15967776089838
 30
0.0
 42
-0.00038317821
  0
VERTEX
  5
6DB8
  8
AM_0
 10
165.5552834025566
 20
510.47080776089831
 30
0.0
 42
-0.00040741862
  0
VERTEX
  5
6DB9
  8
AM_0
 10
165.55768340255679
 20
510.78203776089828
 30
0.0
 42
-0.00035783324
  0
VERTEX
  5
6DBA
  8
AM_0
 10
165.56057340255651
 20
511.09314776089849
 30
0.0
  0
SEQEND
  5
6DBB
  8
AM_0
  0
POLYLINE
  5
6DBC
  8
AM_0
 66
     1
 10
0.0
 20
0.0
 30
0.0
  0
VERTEX
  5
6DBD
  8
AM_0
 10
165.60158340255651
 20
513.62988776089833
 30
0.0
 42
-0.00076691987
  0
VERTEX
  5
6DBE
  8
AM_0
 10
165.61638340255641
 20
514.24764776089842
 30
0.0
 42
-0.00073262795
  0
VERTEX
  5
6DBF
  8
AM_0
 10
165.63302340255669
 20
514.86524776089846
 30
0.0
 42
-0.0007652954
  0
VERTEX
  5
6DC0
  8
AM_0
 10
165.65151340255659
 20
515.48291776089854
 30
0.0
 42
-0.00077334627
  0
VERTEX
  5
6DC1
  8
AM_0
 10
165.67192340255681
 20
516.10051776089836
 30
0.0
 42
-0.00073282897
  0
VERTEX
  5
6DC2
  8
AM_0
 10
165.69418340255649
 20
516.71793776089839
 30
0.0
 42
-0.0007571179
  0
VERTEX
  5
6DC3
  8
AM_0
 10
165.71828340255641
 20
517.33545776089841
 30
0.0
 42
-0.00073783152
  0
VERTEX
  5
6DC4
  8
AM_0
 10
165.7442234025566
 20
517.95284776089818
 30
0.0
 42
-0.0007835518
  0
VERTEX
  5
6DC5
  8
AM_0
 10
165.77205340255659
 20
518.57011776089848
 30
0.0
 42
-0.00074826133
  0
VERTEX
  5
6DC6
  8
AM_0
 10
165.80178340255659
 20
519.18750776089826
 30
0.0
 42
-0.00074893555
  0
VERTEX
  5
6DC7
  8
AM_0
 10
165.83334340255641
 20
519.80463776089834
 30
0.0
 42
-0.00076039841
  0
VERTEX
  5
6DC8
  8
AM_0
 10
165.86676340255681
 20
520.42166776089834
 30
0.0
 42
-0.00075618789
  0
VERTEX
  5
6DC9
  8
AM_0
 10
165.90206340255659
 20
521.03869776089834
 30
0.0
  0
SEQEND
  5
6DCA
  8
AM_0
  0
POLYLINE
  5
6DCB
  8
AM_0
 66
     1
 10
0.0
 20
0.0
 30
0.0
  0
VERTEX
  5
6DCC
  8
AM_0
 10
166.07577340255659
 20
523.70007776089835
 30
0.0
 42
-0.0007337051
  0
VERTEX
  5
6DCD
  8
AM_0
 10
166.11991340255679
 20
524.3024877608982
 30
0.0
 42
-0.00075211323
  0
VERTEX
  5
6DCE
  8
AM_0
 10
166.16585340255651
 20
524.90488776089819
 30
0.0
 42
-0.0007297491
  0
VERTEX
  5
6DCF
  8
AM_0
 10
166.21358340255651
 20
525.50708776089834
 30
0.0
 42
-0.00073593041
  0
VERTEX
  5
6DD0
  8
AM_0
 10
166.2630634025565
 20
526.10907776089834
 30
0.0
 42
-0.00074742739
  0
VERTEX
  5
6DD1
  8
AM_0
 10
166.3143334025566
 20
526.71093776089833
 30
0.0
 42
-0.00073217363
  0
VERTEX
  5
6DD2
  8
AM_0
 10
166.3673934025567
 20
527.31274776089845
 30
0.0
 42
-0.00073754168
  0
VERTEX
  5
6DD3
  8
AM_0
 10
166.42221340255651
 20
527.91428776089833
 30
0.0
 42
-0.00073075073
  0
VERTEX
  5
6DD4
  8
AM_0
 10
166.47879340255679
 20
528.51563776089824
 30
0.0
 42
-0.00074550816
  0
VERTEX
  5
6DD5
  8
AM_0
 10
166.53713340255641
 20
529.11670776089818
 30
0.0
 42
-0.00074288416
  0
VERTEX
  5
6DD6
  8
AM_0
 10
166.59728340255651
 20
529.71772776089847
 30
0.0
 42
-0.00072504001
  0
VERTEX
  5
6DD7
  8
AM_0
 10
166.6591934025565
 20
530.31846776089833
 30
0.0
 42
-0.00074640667
  0
VERTEX
  5
6DD8
  8
AM_0
 10
166.7228634025565
 20
530.91907776089806
 30
0.0
  0
SEQEND
  5
6DD9
  8
AM_0
  0
POLYLINE
  5
6DDA
  8
AM_0
 66
     1
 10
0.0
 20
0.0
 30
0.0
  0
VERTEX
  5
6DDB
  8
AM_0
 10
167.0584334025566
 20
533.84253776089838
 30
0.0
 42
-0.00068898283
  0
VERTEX
  5
6DDC
  8
AM_0
 10
167.12931340255651
 20
534.41728776089838
 30
0.0
 42
-0.00070644357
  0
VERTEX
  5
6DDD
  8
AM_0
 10
167.20181340255661
 20
534.99197776089841
 30
0.0
 42
-0.00069248074
  0
VERTEX
  5
6DDE
  8
AM_0
 10
167.27590340255659
 20
535.56628776089838
 30
0.0
 42
-0.0006958566
  0
VERTEX
  5
6DDF
  8
AM_0
 10
167.3515834025566
 20
536.14042776089855
 30
0.0
 42
-0.00071687219
  0
VERTEX
  5
6DE0
  8
AM_0
 10
167.42889340255641
 20
536.71442776089839
 30
0.0
 42
-0.00069760022
  0
VERTEX
  5
6DE1
  8
AM_0
 10
167.50783340255651
 20
537.28821776089853
 30
0.0
 42
-0.00071002302
  0
VERTEX
  5
6DE2
  8
AM_0
 10
167.58837340255661
 20
537.86168776089835
 30
0.0
 42
-0.00069954889
  0
VERTEX
  5
6DE3
  8
AM_0
 10
167.67051340255659
 20
538.43478776089842
 30
0.0
 42
-0.00071887947
  0
VERTEX
  5
6DE4
  8
AM_0
 10
167.7542934025565
 20
539.00781776089832
 30
0.0
 42
-0.00071266929
  0
VERTEX
  5
6DE5
  8
AM_0
 10
167.83972340255659
 20
539.5805877608982
 30
0.0
 42
-0.00071614429
  0
VERTEX
  5
6DE6
  8
AM_0
 10
167.9267534025565
 20
540.15292776089802
 30
0.0
 42
-0.00072288978
  0
VERTEX
  5
6DE7
  8
AM_0
 10
168.01546340255641
 20
540.72522776089841
 30
0.0
  0
SEQEND
  5
6DE8
  8
AM_0
  0
LINE
  5
6DE9
  8
AM_0
 10
155.69753340255659
 20
560.35950776089862
 30
0.0
 11
155.6975334025563
 21
454.3595077608984
 31
0.0
  0
LINE
  5
6DEA
  8
AM_0
 10
155.6975334025563
 20
454.3595077608984
 30
0.0
 11
163.19753340255659
 21
454.3595077608984
 31
0.0
  0
LINE
  5
6DEB
  8
AM_0
 10
155.89754340255641
 20
464.16956776089859
 30
0.0
 11
162.12752340255639
 21
464.16956776089859
 31
0.0
  0
LINE
  5
6DEC
  8
AM_0
 10
155.89754340255641
 20
550.54944776089837
 30
0.0
 11
162.12752340255639
 21
550.54944776089837
 31
0.0
  0
LINE
  5
6DED
  8
AM_0
 10
155.69753340255659
 20
560.35950776089862
 30
0.0
 11
163.19753340255659
 21
560.35950776089862
 31
0.0
  0
LINE
  5
6DEE
  8
AM_0
 10
147.6975334025575
 20
455.29810425212651
 30
0.0
 11
147.69753340255701
 21
493.02039116688388
 31
0.0
  0
LINE
  5
6DEF
  8
AM_0
 10
138.69753340255659
 20
453.35950776089851
 30
0.0
 11
138.69753340255659
 21
561.35950776089862
 31
0.0
  0
LINE
  5
6DF0
  8
AM_0
 10
138.69753340255659
 20
453.35950776089851
 30
0.0
 11
155.69753340255659
 21
454.3595077608984
 31
0.0
  0
LINE
  5
6DF1
  8
AM_0
 10
138.69753340255659
 20
561.35950776089862
 30
0.0
 11
155.69753340255659
 21
560.35950776089862
 31
0.0
  0
LINE
  5
6DF2
  8
AM_0
 10
147.69753340255721
 20
463.76560456280708
 30
0.0
 11
155.69753340255659
 21
463.76560456280708
 31
0.0
  0
LINE
  5
6DF3
  8
AM_0
 10
147.6975334025575
 20
455.29810425212651
 30
0.0
 11
155.69753340255659
 21
455.29810425212651
 31
0.0
  0
LINE
  5
6DF4
  8
AM_0
 10
144.19753340255721
 20
472.71863479563848
 30
0.0
 11
147.69753340255721
 21
472.71863479563848
 31
0.0
  0
LINE
  5
6DF5
  8
AM_0
 10
144.19753340255721
 20
464.21863479563848
 30
0.0
 11
147.6975334025575
 21
464.21863479563848
 31
0.0
  0
LINE
  5
6DF6
  8
AM_0
 10
143.6975334025571
 20
464.71863479563848
 30
0.0
 11
143.6975334025571
 21
472.21863479563848
 31
0.0
  0
ARC
  5
6DF7
  8
AM_0
 10
144.19753340255741
 20
464.71863479563848
 30
0.0
 40
0.5
 50
180.0
 51
270.0
  0
ARC
  5
6DF8
  8
AM_0
 10
144.19753340255741
 20
472.21863479563848
 30
0.0
 40
0.5
 50
90.0
 51
180.0
  0
LINE
  5
6DF9
  8
AM_0
 10
138.69753340255659
 20
465.08731326775847
 30
0.0
 11
143.6975334025571
 21
465.0873132677583
 31
0.0
  0
LINE
  5
6DFA
  8
AM_0
 10
138.69753340255659
 20
474.8223957660544
 30
0.0
 11
147.69753340255721
 21
474.8223957660544
 31
0.0
  0
LINE
  5
6DFB
  8
AM_0
 10
147.6975334025575
 20
559.4209112696708
 30
0.0
 11
147.69753340255701
 21
521.69862435491791
 31
0.0
  0
LINE
  5
6DFC
  8
AM_0
 10
147.69753340255721
 20
550.95341095899005
 30
0.0
 11
155.69753340255659
 21
550.95341095899005
 31
0.0
  0
LINE
  5
6DFD
  8
AM_0
 10
147.6975334025575
 20
559.4209112696708
 30
0.0
 11
155.69753340255659
 21
559.4209112696708
 31
0.0
  0
LINE
  5
6DFE
  8
AM_0
 10
144.19753340255721
 20
542.00038072615848
 30
0.0
 11
147.69753340255721
 21
542.00038072615848
 31
0.0
  0
LINE
  5
6DFF
  8
AM_0
 10
144.19753340255721
 20
550.50038072615848
 30
0.0
 11
147.6975334025575
 21
550.50038072615848
 31
0.0
  0
LINE
  5
6E00
  8
AM_0
 10
143.6975334025571
 20
550.00038072615848
 30
0.0
 11
143.6975334025571
 21
542.50038072615871
 31
0.0
  0
ARC
  5
6E01
  8
AM_0
 10
144.19753340255741
 20
550.00038072615848
 30
0.0
 40
0.5
 50
90.0
 51
180.0
  0
ARC
  5
6E02
  8
AM_0
 10
144.19753340255741
 20
542.50038072615871
 30
0.0
 40
0.5
 50
180.0
 51
270.0
  0
LINE
  5
6E03
  8
AM_0
 10
138.69753340255659
 20
549.63170225403883
 30
0.0
 11
143.6975334025571
 21
549.63170225403883
 31
0.0
  0
LINE
  5
6E04
  8
AM_0
 10
138.69753340255659
 20
539.89661975574268
 30
0.0
 11
147.69753340255721
 21
539.89661975574268
 31
0.0
  0
LINE
  5
6E05
  8
AM_0
 10
132.69753340255659
 20
561.35950776089885
 30
0.0
 11
132.69753340255659
 21
453.35950776089851
 31
0.0
  0
LINE
  5
6E06
  8
AM_0
 10
138.69753340255659
 20
453.35950776089851
 30
0.0
 11
132.69753340255659
 21
453.35950776089851
 31
0.0
  0
LINE
  5
6E07
  8
AM_0
 10
132.69753340255659
 20
561.35950776089885
 30
0.0
 11
138.6975334025563
 21
561.35950776089885
 31
0.0
  0
LINE
  5
6E08
  8
AM_0
 10
131.69753340255659
 20
503.55950776089861
 30
0.0
 11
131.69753340255659
 21
511.15950776089852
 31
0.0
  0
LINE
  5
6E09
  8
AM_0
 10
131.69753340255659
 20
511.15950776089852
 30
0.0
 11
132.69753340255659
 21
511.15950776089852
 31
0.0
  0
LINE
  5
6E0A
  8
AM_0
 10
132.69753340255659
 20
507.55950776089861
 30
0.0
 11
131.69753340255659
 21
507.9234779951646
 31
0.0
  0
LINE
  5
6E0B
  8
AM_0
 10
132.69753340255659
 20
507.15950776089852
 30
0.0
 11
131.69753340255659
 21
507.52347799516491
 31
0.0
  0
LINE
  5
6E0C
  8
AM_0
 10
132.69753340255659
 20
503.55950776089861
 30
0.0
 11
131.69753340255659
 21
503.55950776089861
 31
0.0
  0
LINE
  5
6E0D
  8
AM_0
 10
130.63859589042849
 20
511.26686273320519
 30
0.0
 11
131.69753340255659
 21
511.35950776089862
 31
0.0
  0
LINE
  5
6E0E
  8
AM_0
 10
130.63859589042849
 20
503.452152788592
 30
0.0
 11
131.69753340255659
 21
503.35950776089851
 31
0.0
  0
ARC
  5
6E0F
  8
AM_0
 10
135.09753340255651
 20
507.35950776089851
 30
0.0
 40
6.5
 50
151.82726586813479
 51
208.1727341318651
  0
ARC
  5
6E10
  8
AM_0
 10
130.7780450788251
 20
505.04606430553872
 30
0.0
 40
1.6000000000000001
 50
208.1727341318651
 51
265.00000000000028
  0
ARC
  5
6E11
  8
AM_0
 10
130.7780450788251
 20
509.67295121625813
 30
0.0
 40
1.6000000000000001
 50
94.99999999999973
 51
151.82726586813479
  0
LINE
  5
6E12
  8
AM_0
 10
131.69753340255659
 20
503.35950776089851
 30
0.0
 11
131.69753340255659
 21
511.35950776089862
 31
0.0
  0
LINE
  5
6E13
  8
AM_0
 10
155.69753340255659
 20
493.02039116688388
 30
0.0
 11
147.69753340255721
 21
493.02039116688388
 31
0.0
  0
LINE
  5
6E14
  8
AM_0
 10
155.6975334025563
 20
521.69862435491791
 30
0.0
 11
147.69753340255701
 21
521.69862435491791
 31
0.0
  0
LINE
  5
6E15
  8
AM_0
 10
118.1975334025561
 20
473.35950776089959
 30
0.0
 11
118.1975334025561
 21
462.35950776089851
 31
0.0
  0
LINE
  5
6E16
  8
AM_0
 10
132.6975334025561
 20
462.35950776089851
 30
0.0
 11
118.1975334025561
 21
462.35950776089879
 31
0.0
  0
LINE
  5
6E17
  8
AM_0
 10
106.1975334025566
 20
467.35950776089959
 30
0.0
 11
106.1975334025563
 21
464.35950776089959
 31
0.0
  0
LINE
  5
6E18
  8
AM_0
 10
106.1975334025563
 20
464.35950776089959
 30
0.0
 11
118.1975334025561
 21
464.35950776089959
 31
0.0
  0
LINE
  5
6E19
  8
AM_0
 10
106.1975334025561
 20
465.35950776089982
 30
0.0
 11
106.1975334025561
 21
467.53717616704608
 31
0.0
  0
LINE
  5
6E1A
  8
AM_0
 10
100.6975334025561
 20
467.35950776089982
 30
0.0
 11
101.59753340255619
 21
467.35950776089982
 31
0.0
  0
LINE
  5
6E1B
  8
AM_0
 10
100.4975334025558
 20
470.35950776089982
 30
0.0
 11
100.4975334025558
 21
467.35950776089982
 31
0.0
  0
LINE
  5
6E1C
  8
AM_0
 10
101.59753340255619
 20
467.08715602631599
 30
0.0
 11
101.59753340255619
 21
470.63185949548352
 31
0.0
  0
LINE
  5
6E1D
  8
AM_0
 10
100.1975334025561
 20
470.05950776089992
 30
0.0
 11
101.5975334025544
 21
470.05950776089992
 31
0.0
  0
LINE
  5
6E1E
  8
AM_0
 10
105.59753340255619
 20
466.4779379004928
 30
0.0
 11
105.59753340255619
 21
465.35950776089982
 31
0.0
  0
LINE
  5
6E1F
  8
AM_0
 10
105.59753340255619
 20
467.35950776089982
 30
0.0
 11
105.59753340255619
 21
467.25950776089962
 31
0.0
  0
LINE
  5
6E20
  8
AM_0
 10
105.59753340255619
 20
467.25950776089962
 30
0.0
 11
105.59753340255619
 21
466.4779379004928
 31
0.0
  0
LINE
  5
6E21
  8
AM_0
 10
105.59753340255619
 20
467.35950776089982
 30
0.0
 11
105.59753340255619
 21
467.25950776089962
 31
0.0
  0
LINE
  5
6E22
  8
AM_0
 10
105.59753340255619
 20
467.7432704372294
 30
0.0
 11
105.59753340255619
 21
466.4779379004928
 31
0.0
  0
LINE
  5
6E23
  8
AM_0
 10
105.59753340255619
 20
465.35950776089982
 30
0.0
 11
106.1975334025561
 21
465.35950776089982
 31
0.0
  0
LINE
  5
6E24
  8
AM_0
 10
102.89753340255641
 20
466.4779379004928
 30
0.0
 11
102.89753340255641
 21
469.90946909289278
 31
0.0
  0
LINE
  5
6E25
  8
AM_0
 10
102.73648917329859
 20
466.19124627214939
 30
0.0
 11
101.8039361237917
 21
466.72965602631621
 31
0.0
  0
LINE
  5
6E26
  8
AM_0
 10
103.1699849945868
 20
465.68408128035691
 30
0.0
 11
105.3250818105258
 21
465.68408128035691
 31
0.0
  0
LINE
  5
6E27
  8
AM_0
 10
103.1699849945868
 20
467.2717945206283
 30
0.0
 11
105.3250818105258
 21
467.27179452062848
 31
0.0
  0
LINE
  5
6E28
  8
AM_0
 10
101.5975334025548
 20
470.35950776089982
 30
0.0
 11
100.4975334025558
 21
470.35950776089982
 31
0.0
  0
LINE
  5
6E29
  8
AM_0
 10
100.4975334025558
 20
470.35950776089982
 30
0.0
 11
100.1975334025561
 21
470.05950776089992
 31
0.0
  0
LINE
  5
6E2A
  8
AM_0
 10
100.1975334025561
 20
470.05950776089992
 30
0.0
 11
100.1975334025561
 21
467.65950776089983
 31
0.0
  0
LINE
  5
6E2B
  8
AM_0
 10
100.4975334025558
 20
467.35950776089982
 30
0.0
 11
101.5975334025544
 21
467.35950776089982
 31
0.0
  0
LINE
  5
6E2C
  8
AM_0
 10
100.1975334025561
 20
467.65950776089983
 30
0.0
 11
100.4975334025558
 21
467.35950776089982
 31
0.0
  0
LINE
  5
6E2D
  8
AM_0
 10
101.5975334025544
 20
467.65950776089983
 30
0.0
 11
100.1975334025561
 21
467.65950776089983
 31
0.0
  0
ARC
  5
6E2E
  8
AM_0
 10
104.30475658652961
 20
466.4779379004928
 30
0.0
 40
1.292776816026465
 50
322.11555894629771
 51
0.0
  0
ARC
  5
6E2F
  8
AM_0
 10
107.6599632786159
 20
468.85950776089982
 30
0.0
 40
4.762429876059711
 50
168.45024695876941
 51
199.4742400054138
  0
ARC
  5
6E30
  8
AM_0
 10
104.19031021858279
 20
466.4779379004928
 30
0.0
 40
1.292776816026556
 50
142.11555894629771
 51
217.88444105370229
  0
ARC
  5
6E31
  8
AM_0
 10
100.8351035264967
 20
468.85950776089982
 30
0.0
 40
4.762429876059584
 50
340.52575999458628
 51
347.08714779821958
  0
ARC
  5
6E32
  8
AM_0
 10
104.30475658652961
 20
466.4779379004928
 30
0.0
 40
1.2927768160265021
 50
0.0
 51
37.884441053702282
  0
ARC
  5
6E33
  8
AM_0
 10
102.01033884502669
 20
467.08715602631622
 30
0.0
 40
0.4128054424705854
 50
180.0
 51
239.99999999999949
  0
ARC
  5
6E34
  8
AM_0
 10
102.32368373082819
 20
465.47624627214958
 30
0.0
 40
0.8256108849411369
 50
28.217424594179711
 51
59.999999999999439
  0
LINE
  5
6E35
  8
AM_0
 10
101.8126259350794
 20
470.99437656036969
 30
0.0
 11
101.8039361237917
 21
470.98935949548343
 31
0.0
  0
ARC
  5
6E36
  8
AM_0
 10
102.01033884502689
 20
470.63185949548358
 30
0.0
 40
0.4128054424705854
 50
119.99999999999331
 51
179.99999999999341
  0
CIRCLE
  5
6E37
  8
AM_0
 10
104.1974947345503
 20
507.35950776089891
 30
0.0
 40
5.5
  0
LINE
  5
6E38
  8
AM_0
 10
98.697494734550304
 20
504.18408128035588
 30
0.0
 11
104.1974947345508
 21
501.0086547998128
 31
0.0
  0
LINE
  5
6E39
  8
AM_0
 10
104.1974947345508
 20
501.0086547998128
 30
0.0
 11
109.6974947345503
 21
504.18408128035611
 31
0.0
  0
LINE
  5
6E3A
  8
AM_0
 10
109.6974947345503
 20
504.18408128035611
 30
0.0
 11
109.6974947345503
 21
510.5349342414417
 31
0.0
  0
LINE
  5
6E3B
  8
AM_0
 10
109.6974947345503
 20
510.5349342414417
 30
0.0
 11
104.1974947345503
 21
513.7103607219849
 31
0.0
  0
LINE
  5
6E3C
  8
AM_0
 10
104.1974947345503
 20
513.7103607219849
 30
0.0
 11
98.697494734550304
 21
510.53493424144142
 31
0.0
  0
LINE
  5
6E3D
  8
AM_0
 10
98.697494734550304
 20
510.53493424144142
 30
0.0
 11
98.697494734550304
 21
504.18408128035588
 31
0.0
  0
CIRCLE
  5
6E3E
  8
AM_0
 10
104.1974947345503
 20
507.35950776089891
 30
0.0
 40
6.4999856554771771
  0
LINE
  5
6E3F
  8
AM_0
 10
115.2627869649214
 20
473.35950776089942
 30
0.0
 11
118.1975334025561
 21
473.35950776089942
 31
0.0
  0
LINE
  5
6E40
  8
AM_0
 10
116.2169555167094
 20
471.85950776089959
 30
0.0
 11
118.1975334025561
 21
471.85950776089959
 31
0.0
  0
LINE
  5
6E41
  8
AM_0
 10
107.5185625464152
 20
467.35950776089959
 30
0.0
 11
118.1975334025561
 21
467.35950776089959
 31
0.0
  0
ARC
  5
6E42
  8
AM_0
 10
107.5185625464149
 20
472.35950776089959
 30
0.0
 40
5.0
 50
225.0
 51
270.0
1001
GENIUS_GENODEF_13
1002
{
1000
HIER
1070
     0
1002
}
1002
{
1000
MANEDIT
1070
     0
1002
}
1002
{
1000
NOSEL
1070
     0
1002
}
1002
{
1000
BEHIND
1070
     0
1002
}
1002
{
1000
OTHER
1070
     0
1002
}
1002
{
1000
REACTOR
1002
}
1001
GENIUS_GENOBJ-N-FIL_13
1002
{
1000
OWNER
1000
GEN
1002
}
  0
LINE
  5
6E43
  8
AM_0
 10
116.21695551670911
 20
467.35950776089959
 30
0.0
 11
116.2169555167094
 21
471.85950776089959
 31
0.0
  0
LINE
  5
6E44
  8
AM_0
 10
102.6974947345503
 20
501.0349671830063
 30
0.0
 11
102.6974947345505
 21
480.14753290719023
 31
0.0
  0
LINE
  5
6E45
  8
AM_0
 10
105.6974947345503
 20
501.0349671830063
 30
0.0
 11
105.6974947345503
 21
480.14753290719023
 31
0.0
  0
LINE
  5
6E46
  8
AM_0
 10
100.4474947345503
 20
502.05033517739679
 30
0.0
 11
100.4474947345503
 21
474.43057557276421
 31
0.0
  0
ARC
  5
6E47
  8
AM_0
 10
105.4474947345503
 20
474.43057557276421
 30
0.0
 40
5.0
 50
180.0
 51
225.0
1001
GENIUS_GENOBJ-N-FIL_13
1002
{
1000
OWNER
1000
GEN
1002
}
1001
GENIUS_GENODEF_13
1002
{
1000
HIER
1070
     0
1002
}
1002
{
1000
MANEDIT
1070
     0
1002
}
1002
{
1000
NOSEL
1070
     0
1002
}
1002
{
1000
BEHIND
1070
     0
1002
}
1002
{
1000
OTHER
1070
     0
1002
}
1002
{
1000
REACTOR
1002
}
  0
LINE
  5
6E48
  8
AM_0
 10
107.9474947345503
 20
502.05033517739679
 30
0.0
 11
107.9474947345503
 21
477.89042610415112
 31
0.0
  0
ARC
  5
6E49
  8
AM_0
 10
112.9474947345503
 20
486.31502613022423
 30
0.0
 40
5.0
 50
180.0
 51
212.46094411514159
1001
GENIUS_GENODEF_13
1002
{
1000
HIER
1070
     0
1002
}
1002
{
1000
MANEDIT
1070
     0
1002
}
1002
{
1000
NOSEL
1070
     0
1002
}
1002
{
1000
BEHIND
1070
     0
1002
}
1002
{
1000
OTHER
1070
     0
1002
}
1002
{
1000
REACTOR
1002
}
1001
GENIUS_GENOBJ-N-FIL_13
1002
{
1000
OWNER
1000
GEN
1002
}
  0
ARC
  5
6E4A
  8
AM_0
 10
112.9474947345503
 20
477.89042610415112
 30
0.0
 40
5.0
 50
180.0
 51
224.2123722808945
1001
GENIUS_GENOBJ-N-FIL_13
1002
{
1000
OWNER
1000
GEN
1002
}
1001
GENIUS_GENODEF_13
1002
{
1000
HIER
1070
     0
1002
}
1002
{
1000
MANEDIT
1070
     0
1002
}
1002
{
1000
NOSEL
1070
     0
1002
}
1002
{
1000
BEHIND
1070
     0
1002
}
1002
{
1000
OTHER
1070
     0
1002
}
1002
{
1000
REACTOR
1002
}
  0
LINE
  5
6E4B
  8
AM_0
 10
116.21695551670911
 20
471.85950776089959
 30
0.0
 11
108.7287072237833
 21
483.63140321725848
 31
0.0
  0
LINE
  5
6E4C
  8
AM_0
 10
116.21695551670911
 20
467.35950776089959
 30
0.0
 11
109.36369449869891
 21
474.40382663339028
 31
0.0
  0
LINE
  5
6E4D
  8
AM_0
 10
101.91196082861769
 20
470.89504166683139
 30
0.0
 11
103.9830286404823
 21
468.82397385496682
 31
0.0
  0
ARC
  5
6E4E
  8
AM_0
 10
104.1974947345503
 20
480.14753290719023
 30
0.0
 40
1.5
 50
180.0
 51
0.0
  0
LINE
  5
6E4F
  8
AM_0
 10
118.1975334025566
 20
541.35950776089794
 30
0.0
 11
118.197533402557
 21
552.35950776089885
 31
0.0
  0
LINE
  5
6E50
  8
AM_0
 10
132.69753340255701
 20
552.35950776089862
 30
0.0
 11
118.197533402557
 21
552.35950776089885
 31
0.0
  0
LINE
  5
6E51
  8
AM_0
 10
106.1975334025572
 20
547.35950776089805
 30
0.0
 11
106.1975334025572
 21
550.35950776089817
 31
0.0
  0
LINE
  5
6E52
  8
AM_0
 10
106.1975334025572
 20
550.35950776089817
 30
0.0
 11
118.197533402557
 21
550.35950776089794
 31
0.0
  0
LINE
  5
6E53
  8
AM_0
 10
106.1975334025569
 20
549.35950776089805
 30
0.0
 11
106.1975334025569
 21
547.18183935475167
 31
0.0
  0
LINE
  5
6E54
  8
AM_0
 10
100.697533402557
 20
547.35950776089805
 30
0.0
 11
101.5975334025571
 21
547.35950776089805
 31
0.0
  0
LINE
  5
6E55
  8
AM_0
 10
100.4975334025567
 20
544.3595077608984
 30
0.0
 11
100.4975334025567
 21
547.35950776089817
 31
0.0
  0
LINE
  5
6E56
  8
AM_0
 10
101.5975334025571
 20
547.63185949548165
 30
0.0
 11
101.5975334025571
 21
544.08715602631435
 31
0.0
  0
LINE
  5
6E57
  8
AM_0
 10
100.197533402557
 20
544.65950776089835
 30
0.0
 11
101.59753340255691
 21
544.6595077608979
 31
0.0
  0
LINE
  5
6E58
  8
AM_0
 10
105.5975334025571
 20
548.24107762130507
 30
0.0
 11
105.5975334025571
 21
549.35950776089805
 31
0.0
  0
LINE
  5
6E59
  8
AM_0
 10
105.5975334025571
 20
547.35950776089805
 30
0.0
 11
105.5975334025571
 21
547.45950776089785
 31
0.0
  0
LINE
  5
6E5A
  8
AM_0
 10
105.5975334025571
 20
547.45950776089785
 30
0.0
 11
105.5975334025571
 21
548.24107762130507
 31
0.0
  0
LINE
  5
6E5B
  8
AM_0
 10
105.5975334025571
 20
547.35950776089805
 30
0.0
 11
105.5975334025571
 21
547.45950776089785
 31
0.0
  0
LINE
  5
6E5C
  8
AM_0
 10
105.5975334025571
 20
546.97574508456819
 30
0.0
 11
105.5975334025571
 21
548.24107762130507
 31
0.0
  0
LINE
  5
6E5D
  8
AM_0
 10
105.5975334025571
 20
549.35950776089805
 30
0.0
 11
106.1975334025569
 21
549.35950776089805
 31
0.0
  0
LINE
  5
6E5E
  8
AM_0
 10
102.8975334025573
 20
548.24107762130507
 30
0.0
 11
102.8975334025571
 21
544.80954642890492
 31
0.0
  0
LINE
  5
6E5F
  8
AM_0
 10
102.7364891732996
 20
548.52776924964837
 30
0.0
 11
101.8039361237926
 21
547.98935949548172
 31
0.0
  0
LINE
  5
6E60
  8
AM_0
 10
103.16998499458769
 20
549.03493424144085
 30
0.0
 11
105.3250818105267
 21
549.03493424144085
 31
0.0
  0
LINE
  5
6E61
  8
AM_0
 10
103.16998499458769
 20
547.44722100116974
 30
0.0
 11
105.3250818105267
 21
547.44722100116951
 31
0.0
  0
LINE
  5
6E62
  8
AM_0
 10
101.5975334025571
 20
544.3595077608984
 30
0.0
 11
100.4975334025567
 21
544.3595077608984
 31
0.0
  0
LINE
  5
6E63
  8
AM_0
 10
100.4975334025567
 20
544.3595077608984
 30
0.0
 11
100.197533402557
 21
544.65950776089835
 31
0.0
  0
LINE
  5
6E64
  8
AM_0
 10
100.197533402557
 20
544.65950776089835
 30
0.0
 11
100.197533402557
 21
547.05950776089833
 31
0.0
  0
LINE
  5
6E65
  8
AM_0
 10
100.4975334025567
 20
547.35950776089817
 30
0.0
 11
101.5975334025571
 21
547.35950776089805
 31
0.0
  0
LINE
  5
6E66
  8
AM_0
 10
100.197533402557
 20
547.05950776089833
 30
0.0
 11
100.4975334025567
 21
547.35950776089817
 31
0.0
  0
LINE
  5
6E67
  8
AM_0
 10
101.5975334025571
 20
547.05950776089833
 30
0.0
 11
100.197533402557
 21
547.05950776089833
 31
0.0
  0
ARC
  5
6E68
  8
AM_0
 10
104.3047565865305
 20
548.24107762130507
 30
0.0
 40
1.292776816026465
 50
0.0
 51
37.884441053702282
  0
ARC
  5
6E69
  8
AM_0
 10
107.6599632786166
 20
545.85950776089817
 30
0.0
 40
4.762429876059711
 50
160.52575999458611
 51
191.5497530412305
  0
ARC
  5
6E6A
  8
AM_0
 10
104.1903102185837
 20
548.24107762130507
 30
0.0
 40
1.292776816026556
 50
142.11555894629771
 51
217.88444105370229
  0
ARC
  5
6E6B
  8
AM_0
 10
100.83510352649741
 20
545.85950776089817
 30
0.0
 40
4.762429876059584
 50
12.912852201780369
 51
19.474240005413812
  0
ARC
  5
6E6C
  8
AM_0
 10
104.3047565865305
 20
548.24107762130507
 30
0.0
 40
1.2927768160265021
 50
322.11555894629771
 51
0.0
  0
ARC
  5
6E6D
  8
AM_0
 10
102.0103388450276
 20
547.63185949548165
 30
0.0
 40
0.4128054424705854
 50
120.0000000000005
 51
180.0
  0
ARC
  5
6E6E
  8
AM_0
 10
102.323683730829
 20
549.24276924964829
 30
0.0
 40
0.8256108849411369
 50
299.99999999999972
 51
331.7825754058203
  0
LINE
  5
6E6F
  8
AM_0
 10
101.81262593508031
 20
543.72463896142835
 30
0.0
 11
101.8039361237926
 21
543.72965602631439
 31
0.0
  0
ARC
  5
6E70
  8
AM_0
 10
102.0103388450276
 20
544.08715602631435
 30
0.0
 40
0.4128054424705854
 50
180.00000000000659
 51
240.00000000000759
  0
LINE
  5
6E71
  8
AM_0
 10
115.2627869649224
 20
541.35950776089805
 30
0.0
 11
118.1975334025566
 21
541.35950776089794
 31
0.0
  0
LINE
  5
6E72
  8
AM_0
 10
116.21695551671
 20
542.85950776089805
 30
0.0
 11
118.1975334025568
 21
542.85950776089794
 31
0.0
  0
LINE
  5
6E73
  8
AM_0
 10
107.51856254641611
 20
547.35950776089805
 30
0.0
 11
118.1975334025568
 21
547.35950776089794
 31
0.0
  0
ARC
  5
6E74
  8
AM_0
 10
107.51856254641559
 20
542.35950776089817
 30
0.0
 40
5.0
 50
90.0
 51
135.0
1001
GENIUS_GENODEF_13
1002
{
1000
HIER
1070
     0
1002
}
1002
{
1000
MANEDIT
1070
     0
1002
}
1002
{
1000
NOSEL
1070
     0
1002
}
1002
{
1000
BEHIND
1070
     0
1002
}
1002
{
1000
OTHER
1070
     0
1002
}
1002
{
1000
REACTOR
1002
}
1001
GENIUS_GENOBJ-N-FIL_13
1002
{
1000
OWNER
1000
GEN
1002
}
  0
LINE
  5
6E75
  8
AM_0
 10
116.21695551671
 20
547.35950776089805
 30
0.0
 11
116.21695551671
 21
542.85950776089805
 31
0.0
  0
LINE
  5
6E76
  8
AM_0
 10
102.6974947345508
 20
513.68404833879163
 30
0.0
 11
102.6974947345512
 21
534.57148261460759
 31
0.0
  0
LINE
  5
6E77
  8
AM_0
 10
105.6974947345505
 20
513.68404833879163
 30
0.0
 11
105.6974947345512
 21
534.57148261460759
 31
0.0
  0
LINE
  5
6E78
  8
AM_0
 10
100.4474947345508
 20
512.66868034440108
 30
0.0
 11
100.4474947345512
 21
540.28843994903366
 31
0.0
  0
ARC
  5
6E79
  8
AM_0
 10
105.447494734551
 20
540.28843994903366
 30
0.0
 40
5.0
 50
135.0
 51
180.0
1001
GENIUS_GENOBJ-N-FIL_13
1002
{
1000
OWNER
1000
GEN
1002
}
1001
GENIUS_GENODEF_13
1002
{
1000
HIER
1070
     0
1002
}
1002
{
1000
MANEDIT
1070
     0
1002
}
1002
{
1000
NOSEL
1070
     0
1002
}
1002
{
1000
BEHIND
1070
     0
1002
}
1002
{
1000
OTHER
1070
     0
1002
}
1002
{
1000
REACTOR
1002
}
  0
LINE
  5
6E7A
  8
AM_0
 10
107.9474947345508
 20
512.66868034440085
 30
0.0
 11
107.9474947345512
 21
536.82858941764675
 31
0.0
  0
ARC
  5
6E7B
  8
AM_0
 10
112.9474947345508
 20
528.40398939157353
 30
0.0
 40
5.0
 50
147.53905588485841
 51
180.0
1001
GENIUS_GENODEF_13
1002
{
1000
HIER
1070
     0
1002
}
1002
{
1000
MANEDIT
1070
     0
1002
}
1002
{
1000
NOSEL
1070
     0
1002
}
1002
{
1000
BEHIND
1070
     0
1002
}
1002
{
1000
OTHER
1070
     0
1002
}
1002
{
1000
REACTOR
1002
}
1001
GENIUS_GENOBJ-N-FIL_13
1002
{
1000
OWNER
1000
GEN
1002
}
  0
ARC
  5
6E7C
  8
AM_0
 10
112.947494734551
 20
536.82858941764653
 30
0.0
 40
5.0
 50
135.7876277191055
 51
180.0
1001
GENIUS_GENOBJ-N-FIL_13
1002
{
1000
OWNER
1000
GEN
1002
}
1001
GENIUS_GENODEF_13
1002
{
1000
HIER
1070
     0
1002
}
1002
{
1000
MANEDIT
1070
     0
1002
}
1002
{
1000
NOSEL
1070
     0
1002
}
1002
{
1000
BEHIND
1070
     0
1002
}
1002
{
1000
OTHER
1070
     0
1002
}
1002
{
1000
REACTOR
1002
}
  0
LINE
  5
6E7D
  8
AM_0
 10
116.2169555167098
 20
542.85950776089805
 30
0.0
 11
108.7287072237838
 21
531.08761230453922
 31
0.0
  0
LINE
  5
6E7E
  8
AM_0
 10
116.21695551671
 20
547.35950776089805
 30
0.0
 11
109.3636944986998
 21
540.31518888840765
 31
0.0
  0
LINE
  5
6E7F
  8
AM_0
 10
101.91196082861831
 20
543.82397385496631
 30
0.0
 11
103.9830286404832
 21
545.89504166683116
 31
0.0
  0
ARC
  5
6E80
  8
AM_0
 10
104.1974947345509
 20
534.57148261460759
 30
0.0
 40
1.5
 50
0.0
 51
180.0
  0
ARC
  5
6E81
  8
AM_0
 10
149.64833158941161
 20
436.35950776089862
 30
0.0
 40
20.0
 50
209.07393874564249
 51
249.97235728825609
1001
GENIUS_GENODEF_13
1002
{
1000
HIER
1070
     0
1002
}
1002
{
1000
MANEDIT
1070
     0
1002
}
1002
{
1000
NOSEL
1070
     0
1002
}
1002
{
1000
BEHIND
1070
     0
1002
}
1002
{
1000
OTHER
1070
     0
1002
}
1002
{
1000
REACTOR
1002
}
1001
GENIUS_GENOBJ-N-FIL_13
1002
{
1000
OWNER
1000
GEN
1002
}
  0
ARC
  5
6E82
  8
AM_0
 10
150.23650781805739
 20
437.35950776089851
 30
0.0
 40
15.0
 50
209.07393874564249
 51
240.27464366407139
1001
GENIUS_GENODEF_13
1002
{
1000
HIER
1070
     0
1002
}
1002
{
1000
MANEDIT
1070
     0
1002
}
1002
{
1000
NOSEL
1070
     0
1002
}
1002
{
1000
BEHIND
1070
     0
1002
}
1002
{
1000
OTHER
1070
     0
1002
}
1002
{
1000
REACTOR
1002
}
1001
GENIUS_GENOBJ-N-FIL_13
1002
{
1000
OWNER
1000
GEN
1002
}
  0
LINE
  5
6E83
  8
AM_0
 10
132.16846469799691
 20
426.64074994632068
 30
0.0
 11
111.19693931145891
 21
464.35950776089959
 31
0.0
  0
LINE
  5
6E84
  8
AM_0
 10
137.12660764949621
 20
430.07043939996521
 30
0.0
 11
119.1739746341735
 21
462.35950776089851
 31
0.0
  0
LINE
  5
6E86
  8
ﾁｭｳｼﾝｾﾝ1
 10
715.08148424639433
 20
159.16492627941079
 30
0.0
 11
696.69671531098868
 21
177.54970996570191
 31
0.0
  0
ARC
  5
6E87
  8
ﾁｭｳｼﾝｾﾝ1
 10
635.17843167268529
 20
239.06798201655221
 30
0.0
 40
100.000011
 50
306.97202531710639
 51
323.0279746828935
  0
LINE
  5
6E88
  8
ﾁｭｳｼﾝｾﾝ1
 10
715.08160229950215
 20
318.97101672318689
 30
0.0
 11
696.69681861321124
 21
300.5862477877813
 31
0.0
  0
ARC
  5
6E89
  8
ﾁｭｳｼﾝｾﾝ1
 10
635.17854656236102
 20
239.06796414947789
 30
0.0
 40
100.000011
 50
36.972025317106343
 51
53.027974682893507
  0
LINE
  5
6E8A
  8
ﾁｭｳｼﾝｾﾝ1
 10
555.27551185572645
 20
318.97113477629472
 30
0.0
 11
573.66028079113175
 21
300.58635109000357
 31
0.0
  0
ARC
  5
6E8B
  8
ﾁｭｳｼﾝｾﾝ1
 10
635.17856442943526
 20
239.06807903915339
 30
0.0
 40
100.000011
 50
126.9720253171063
 51
143.0279746828935
  0
LINE
  5
6F3A
  8
AM_0
 10
424.19750340255632
 20
521.35950776089817
 30
0.0
 11
424.19750340255632
 21
493.35950776089823
 31
0.0
  0
LINE
  5
6F3B
  8
AM_0
 10
390.19745340255622
 20
521.35950776089817
 30
0.0
 11
424.19750340255632
 21
521.35950776089817
 31
0.0
  0
LINE
  5
6F3C
  8
AM_0
 10
390.19745340255622
 20
493.35950776089823
 30
0.0
 11
424.19750340255632
 21
493.35950776089823
 31
0.0
  0
LINE
  5
6F3D
  8
AM_0
 10
392.19750340255638
 20
511.35947776089853
 30
0.0
 11
392.19750340255638
 21
503.35950776089828
 31
0.0
  0
LINE
  5
6F3E
  8
AM_0
 10
392.19750340255638
 20
503.35950776089828
 30
0.0
 11
424.19750340255632
 21
503.35950776089828
 31
0.0
  0
LINE
  5
6F3F
  8
AM_0
 10
392.19750340255638
 20
511.35947776089853
 30
0.0
 11
424.19750340255632
 21
511.35947776089853
 31
0.0
  0
ARC
  5
6F40
  8
AM_0
 10
392.19750340255638
 20
507.35947776089853
 30
0.0
 40
3.9999962
 50
90.00000299999769
 51
120.0008584236235
  0
ARC
  5
6F41
  8
AM_0
 10
392.19750340255638
 20
507.35947776089853
 30
0.0
 40
3.9999962
 50
239.99914157637639
 51
270.0
  0
LINE
  5
6F42
  8
AM_0
 10
385.19745340255622
 20
540.85950476089806
 30
0.0
 11
390.19745340255622
 21
535.85950476089852
 31
0.0
  0
LINE
  5
6F43
  8
AM_0
 10
381.1975334025563
 20
540.85950476089806
 30
0.0
 11
385.19745340255639
 21
540.85950476089806
 31
0.0
  0
LINE
  5
6F44
  8
AM_0
 10
390.19745340255622
 20
535.85950476089852
 30
0.0
 11
390.19745340255639
 21
478.85950476089852
 31
0.0
  0
LINE
  5
6F45
  8
AM_0
 10
381.1975334025563
 20
473.85950476089818
 30
0.0
 11
385.19745340255622
 21
473.85950476089818
 31
0.0
  0
LINE
  5
6F46
  8
AM_0
 10
385.19745340255622
 20
473.85950476089818
 30
0.0
 11
390.19745340255622
 21
478.85950476089852
 31
0.0
  0
LINE
  5
6F47
  8
AM_0
 10
385.19745340255639
 20
540.85950476089806
 30
0.0
 11
385.19745340255622
 21
473.85950476089818
 31
0.0
  0
LINE
  5
6F48
  8
AM_0
 10
317.19750340255638
 20
578.3595077608984
 30
0.0
 11
317.19750340255638
 21
436.35950776089828
 31
0.0
  0
LINE
  5
6F49
  8
AM_0
 10
317.19753340255642
 20
436.35950776089828
 30
0.0
 11
312.14519340255652
 21
436.49179776089829
 31
0.0
  0
LINE
  5
6F4A
  8
AM_0
 10
317.19750340255638
 20
578.3595077608984
 30
0.0
 11
312.14519340255652
 21
578.2272077608983
 31
0.0
  0
LINE
  5
6F4B
  8
AM_0
 10
310.19753340255647
 20
438.49112776089828
 30
0.0
 11
310.19753340255647
 21
576.22787776089854
 31
0.0
  0
LINE
  5
6F4C
  8
AM_0
 10
305.19753340255642
 20
450.67865776089837
 30
0.0
 11
279.19756340255651
 21
451.35950776089828
 31
0.0
  0
LINE
  5
6F4D
  8
AM_0
 10
279.19753340255647
 20
461.3591977608985
 30
0.0
 11
310.19753340255647
 21
461.3591977608985
 31
0.0
  0
LINE
  5
6F4E
  8
AM_0
 10
307.19750340255638
 20
442.14822776089829
 30
0.0
 11
308.19753340255647
 21
442.14822776089829
 31
0.0
  0
LINE
  5
6F4F
  8
AM_0
 10
305.19750340255638
 20
444.14822776089852
 30
0.0
 11
305.19750340255638
 21
459.35919776089838
 31
0.0
  0
LINE
  5
6F50
  8
AM_0
 10
305.19750340255638
 20
570.57080776089845
 30
0.0
 11
305.19750340255638
 21
555.35980776089832
 31
0.0
  0
LINE
  5
6F51
  8
AM_0
 10
305.19753340255642
 20
564.04031776089835
 30
0.0
 11
279.19756340255651
 21
563.35950776089828
 31
0.0
  0
LINE
  5
6F52
  8
AM_0
 10
279.19753340255647
 20
553.35980776089832
 30
0.0
 11
310.19753340255647
 21
553.35980776089832
 31
0.0
  0
LINE
  5
6F53
  8
AM_0
 10
307.19750340255638
 20
572.57080776089833
 30
0.0
 11
308.19753340255647
 21
572.57080776089833
 31
0.0
  0
LINE
  5
6F54
  8
AM_0
 10
279.19753340255647
 20
475.41956776089847
 30
0.0
 11
310.19753340255647
 21
475.41956776089847
 31
0.0
  0
LINE
  5
6F55
  8
AM_0
 10
279.19753340255647
 20
539.29944776089837
 30
0.0
 11
310.19753340255647
 21
539.29944776089837
 31
0.0
  0
LINE
  5
6F56
  8
AM_0
 10
364.74034340255639
 20
445.19742776089828
 30
0.0
 11
351.65465340255651
 21
452.92648776089828
 31
0.0
  0
LINE
  5
6F57
  8
AM_0
 10
348.22109340255662
 20
579.17187776089827
 30
0.0
 11
317.19750340255638
 21
578.3595077608984
 31
0.0
  0
LINE
  5
6F58
  8
AM_0
 10
350.19750340255678
 20
459.66138776089849
 30
0.0
 11
365.19750340255678
 21
459.66138776089849
 31
0.0
  0
LINE
  5
6F59
  8
AM_0
 10
364.74031340255652
 20
448.68164776089861
 30
0.0
 11
351.65471340255652
 21
456.4106777608983
 31
0.0
  0
LINE
  5
6F5A
  8
AM_0
 10
364.74034340255639
 20
569.52158776089846
 30
0.0
 11
351.65468340255649
 21
561.79251776089836
 31
0.0
  0
LINE
  5
6F5B
  8
AM_0
 10
364.74034340255639
 20
566.03735776089798
 30
0.0
 11
351.65468340255649
 21
558.30829776089854
 31
0.0
  0
LINE
  5
6F5C
  8
AM_0
 10
367.19750340255638
 20
465.40784776089828
 30
0.0
 11
367.19750340255638
 21
424.64011776089848
 31
0.0
  0
LINE
  5
6F5D
  8
AM_0
 10
381.1975334025563
 20
577.3595077608984
 30
0.0
 11
381.1975334025563
 21
437.35950776089828
 31
0.0
  0
LINE
  5
6F5E
  8
AM_0
 10
371.19750340255678
 20
440.57815776089831
 30
0.0
 11
371.19750340255678
 21
574.1408477608984
 31
0.0
  0
LINE
  5
6F5F
  8
AM_0
 10
367.19750340255638
 20
549.31116776089834
 30
0.0
 11
367.19750340255638
 21
590.07889776089826
 31
0.0
  0
LINE
  5
6F60
  8
AM_0
 10
369.12767340255652
 20
592.07773776089834
 30
0.0
 11
377.19750340255638
 21
592.35953776089855
 31
0.0
  0
LINE
  5
6F61
  8
AM_0
 10
348.22112340255637
 20
435.54709776089851
 30
0.0
 11
317.19750340255638
 21
436.3594777608983
 31
0.0
  0
LINE
  5
6F62
  8
AM_0
 10
352.11901340255662
 20
433.97156776089838
 30
0.0
 11
364.2760534025565
 21
433.65323776089849
 31
0.0
  0
LINE
  5
6F63
  8
AM_0
 10
377.19750340255638
 20
422.35950776089828
 30
0.0
 11
377.19750340255638
 21
592.35953776089855
 31
0.0
  0
LINE
  5
6F64
  8
AM_0
 10
377.19750340255638
 20
437.35950776089828
 30
0.0
 11
381.1975334025563
 21
437.35950776089828
 31
0.0
  0
LINE
  5
6F65
  8
AM_0
 10
377.19750340255638
 20
577.3595077608984
 30
0.0
 11
381.1975334025563
 21
577.3595077608984
 31
0.0
  0
LINE
  5
6F66
  8
AM_0
 10
352.11898340255652
 20
580.74744776089835
 30
0.0
 11
364.27602340255652
 21
581.06580776089856
 31
0.0
  0
LINE
  5
6F67
  8
AM_0
 10
349.19750340255678
 20
577.7484777608986
 30
0.0
 11
349.19750340255678
 21
436.97052776089851
 31
0.0
  0
LINE
  5
6F68
  8
AM_0
 10
369.12767340255652
 20
422.64130776089848
 30
0.0
 11
377.19747340255651
 21
422.35950776089828
 31
0.0
  0
LINE
  5
6F69
  8
AM_0
 10
350.19750340255678
 20
555.05762776089841
 30
0.0
 11
365.19750340255678
 21
555.05762776089841
 31
0.0
  0
ARC
  5
6F6A
  8
AM_0
 10
312.19753340255659
 20
438.49112776089828
 30
0.0
 40
2.0
 50
180.00001000000091
 51
268.5000000000004
  0
ARC
  5
6F6B
  8
AM_0
 10
312.19753340255659
 20
576.22787776089854
 30
0.0
 40
2.0
 50
91.500001000001546
 51
180.00001000000091
  0
ARC
  5
6F6C
  8
AM_0
 10
307.19750340255638
 20
444.14822776089852
 30
0.0
 40
2.0
 50
180.00001000000091
 51
270.0
  0
ARC
  5
6F6D
  8
AM_0
 10
303.19750340255638
 20
459.35919776089838
 30
0.0
 40
2.0
 50
0.0
 51
90.000003000000945
  0
ARC
  5
6F6E
  8
AM_0
 10
308.19753340255647
 20
440.14822776089829
 30
0.0
 40
2.0
 50
0.0
 51
90.000003000000945
  0
ARC
  5
6F6F
  8
AM_0
 10
308.19753340255647
 20
574.57080776089845
 30
0.0
 40
2.0
 50
270.0
 51
0.0
  0
ARC
  5
6F70
  8
AM_0
 10
307.19750340255638
 20
570.57080776089845
 30
0.0
 40
2.0
 50
90.000003000000945
 51
180.00001000000091
  0
ARC
  5
6F71
  8
AM_0
 10
303.19750340255638
 20
555.35980776089832
 30
0.0
 40
2.0
 50
270.0
 51
0.0
  0
ARC
  5
6F72
  8
AM_0
 10
365.19750340255678
 20
557.05762776089841
 30
0.0
 40
2.0
 50
270.0
 51
0.0
  0
ARC
  5
6F73
  8
AM_0
 10
365.19750340255678
 20
457.66138776089838
 30
0.0
 40
2.0
 50
0.0
 51
90.000003000000945
  0
ARC
  5
6F74
  8
AM_0
 10
354.19750340255638
 20
457.23157776089829
 30
0.0
 40
5.0
 50
179.999989999999
 51
239.431710000001
  0
ARC
  5
6F75
  8
AM_0
 10
354.19750340255638
 20
460.71582776089821
 30
0.0
 40
5.0
 50
179.999989999999
 51
239.431710000001
  0
ARC
  5
6F76
  8
AM_0
 10
362.19750340255638
 20
444.37653776089837
 30
0.0
 40
5.0
 50
0.0
 51
59.431709000000481
  0
ARC
  5
6F77
  8
AM_0
 10
350.19750340255678
 20
460.66138776089838
 30
0.0
 40
1.0
 50
179.999989999999
 51
270.0
  0
ARC
  5
6F78
  8
AM_0
 10
354.19750340255638
 20
557.4874377608985
 30
0.0
 40
5.0
 50
120.5682899999989
 51
180.00001000000091
  0
ARC
  5
6F79
  8
AM_0
 10
354.19750340255638
 20
554.00317776089832
 30
0.0
 40
5.0
 50
120.5682899999989
 51
180.00001000000091
  0
ARC
  5
6F7A
  8
AM_0
 10
362.19750340255638
 20
573.82672776089839
 30
0.0
 40
5.0
 50
300.56828999999891
 51
0.0
  0
ARC
  5
6F7B
  8
AM_0
 10
350.19750340255678
 20
554.05762776089841
 30
0.0
 40
1.0
 50
90.000003000000945
 51
180.00001000000091
  0
ARC
  5
6F7C
  8
AM_0
 10
362.19750340255638
 20
440.89227776089831
 30
0.0
 40
5.0
 50
0.0
 51
59.431709000000481
  0
ARC
  5
6F7D
  8
AM_0
 10
368.19750340255649
 20
440.57815776089831
 30
0.0
 40
3.0
 50
270.0
 51
0.0
  0
ARC
  5
6F7E
  8
AM_0
 10
370.19750340255649
 20
549.31116776089834
 30
0.0
 40
3.0
 50
179.999989999999
 51
270.0
  0
ARC
  5
6F7F
  8
AM_0
 10
368.19750340255649
 20
574.1408477608984
 30
0.0
 40
3.0
 50
0.0
 51
90.000003000000945
  0
ARC
  5
6F80
  8
AM_0
 10
369.19753340255642
 20
590.07889776089826
 30
0.0
 40
2.0
 50
91.999998000000545
 51
180.00001000000091
  0
ARC
  5
6F81
  8
AM_0
 10
348.14257340255642
 20
432.54813776089833
 30
0.0
 40
3.0
 50
47.481952000001627
 51
88.499997000000747
  0
ARC
  5
6F82
  8
AM_0
 10
364.19750340255638
 20
430.65424776089861
 30
0.0
 40
3.0
 50
0.0
 51
88.499997000000747
  0
ARC
  5
6F83
  8
AM_0
 10
364.19750340255638
 20
584.06476776089835
 30
0.0
 40
3.0
 50
271.49999999999949
 51
0.0
  0
ARC
  5
6F84
  8
AM_0
 10
352.19750340255638
 20
577.7484777608986
 30
0.0
 40
3.0
 50
91.500001000001546
 51
180.00001000000091
  0
ARC
  5
6F85
  8
AM_0
 10
369.19753340255642
 20
424.64011776089848
 30
0.0
 40
2.0
 50
179.999989999999
 51
268.00000999999861
  0
ARC
  5
6F86
  8
AM_0
 10
352.19750340255638
 20
436.97052776089851
 30
0.0
 40
3.0
 50
179.999989999999
 51
268.50000999999878
  0
ARC
  5
6F87
  8
AM_0
 10
348.14257340255642
 20
582.1708477608986
 30
0.0
 40
3.0
 50
271.49999999999949
 51
312.51811999999887
  0
ARC
  5
6F88
  8
AM_0
 10
370.19750340255649
 20
465.40784776089828
 30
0.0
 40
3.0
 50
90.000003000000945
 51
180.00001000000091
  0
ARC
  5
6F89
  8
AM_0
 10
362.19750340255638
 20
570.3424777608983
 30
0.0
 40
5.0
 50
300.56828999999891
 51
0.0
  0
TEXT
  5
71E5
  8
AM_0
 10
492.80672214830901
 20
524.8845981924843
 30
0.0
 40
10.0
  1
VX02-080BFW~VX02-100BFW
  0
ENDSEC
  0
EOF
