  0
SECTION
  2
HEADER
  9
$ACADVER
  1
AC1009
  9
$INSBASE
 10
0.0
 20
0.0
 30
0.0
  9
$EXTMIN
 10
86.579408826282375
 20
156.07629577813299
 30
-500.85211713798338
  9
$EXTMAX
 10
739.96220583452623
 20
590.6883295816092
 30
8206837.6815586779
  9
$LIMMIN
 10
0.0
 20
0.0
  9
$LIMMAX
 10
853.5
 20
555.00000000000011
  9
$ORTHOMODE
 70
     0
  9
$REGENMODE
 70
     1
  9
$FILLMODE
 70
     1
  9
$QTEXTMODE
 70
     0
  9
$MIRRTEXT
 70
     1
  9
$DRAGMODE
 70
     2
  9
$LTSCALE
 40
3.0
  9
$OSMODE
 70
   551
  9
$ATTMODE
 70
     1
  9
$TEXTSIZE
 40
2.5
  9
$TRACEWID
 40
1.0
  9
$TEXTSTYLE
  7
STANDARD
  9
$CLAYER
  8
AM_0
  9
$CELTYPE
  6
BYLAYER
  9
$CECOLOR
 62
   256
  9
$DIMSCALE
 40
1.0
  9
$DIMASZ
 40
2.5
  9
$DIMEXO
 40
1.0
  9
$DIMDLI
 40
8.0
  9
$DIMRND
 40
0.0
  9
$DIMDLE
 40
0.0
  9
$DIMEXE
 40
0.6
  9
$DIMTP
 40
0.1
  9
$DIMTM
 40
0.1
  9
$DIMTXT
 40
2.5
  9
$DIMCEN
 40
0.0
  9
$DIMTSZ
 40
0.0
  9
$DIMTOL
 70
     0
  9
$DIMLIM
 70
     0
  9
$DIMTIH
 70
     0
  9
$DIMTOH
 70
     0
  9
$DIMSE1
 70
     0
  9
$DIMSE2
 70
     0
  9
$DIMTAD
 70
     1
  9
$DIMZIN
 70
     8
  9
$DIMBLK
  1

  9
$DIMASO
 70
     1
  9
$DIMSHO
 70
     1
  9
$DIMPOST
  1

  9
$DIMAPOST
  1
"
  9
$DIMALT
 70
     0
  9
$DIMALTD
 70
     2
  9
$DIMALTF
 40
0.0393701
  9
$DIMLFAC
 40
1.0
  9
$DIMTOFL
 70
     1
  9
$DIMTVP
 40
0.0
  9
$DIMTIX
 70
     0
  9
$DIMSOXD
 70
     0
  9
$DIMSAH
 70
     0
  9
$DIMBLK1
  1

  9
$DIMBLK2
  1

  9
$DIMSTYLE
  2
AM_ISO
  9
$DIMCLRD
 70
   256
  9
$DIMCLRE
 70
   256
  9
$DIMCLRT
 70
     4
  9
$DIMTFAC
 40
0.71
  9
$DIMGAP
 40
0.8
  9
$LUNITS
 70
     2
  9
$LUPREC
 70
     2
  9
$SKETCHINC
 40
1.0
  9
$FILLETRAD
 40
15.0
  9
$AUNITS
 70
     0
  9
$AUPREC
 70
     0
  9
$MENU
  1
.
  9
$ELEVATION
 40
0.0
  9
$PELEVATION
 40
0.0
  9
$THICKNESS
 40
0.0
  9
$LIMCHECK
 70
     0
  9
$BLIPMODE
 70
     0
  9
$CHAMFERA
 40
6.0
  9
$CHAMFERB
 40
3.0
  9
$SKPOLY
 70
     0
  9
$TDCREATE
 40
2452065.7887456599
  9
$TDUPDATE
 40
2458541.6147400462
  9
$TDINDWG
 40
0.149894537
  9
$TDUSRTIMER
 40
0.1498943403
  9
$USRTIMER
 70
     1
  9
$ANGBASE
 50
0.0
  9
$ANGDIR
 70
     0
  9
$PDMODE
 70
     0
  9
$PDSIZE
 40
0.0
  9
$PLINEWID
 40
0.0
  9
$COORDS
 70
     1
  9
$SPLFRAME
 70
     0
  9
$SPLINETYPE
 70
     6
  9
$SPLINESEGS
 70
     8
  9
$ATTDIA
 70
     1
  9
$ATTREQ
 70
     1
  9
$HANDLING
 70
     1
  9
$HANDSEED
  5
5967
  9
$SURFTAB1
 70
     6
  9
$SURFTAB2
 70
     6
  9
$SURFTYPE
 70
     6
  9
$SURFU
 70
     6
  9
$SURFV
 70
     6
  9
$UCSNAME
  2

  9
$UCSORG
 10
0.0
 20
0.0
 30
0.0
  9
$UCSXDIR
 10
1.0
 20
0.0
 30
0.0
  9
$UCSYDIR
 10
0.0
 20
1.0
 30
0.0
  9
$PUCSNAME
  2

  9
$PUCSORG
 10
0.0
 20
0.0
 30
0.0
  9
$PUCSXDIR
 10
1.0
 20
0.0
 30
0.0
  9
$PUCSYDIR
 10
0.0
 20
1.0
 30
0.0
  9
$USERI1
 70
     0
  9
$USERI2
 70
     0
  9
$USERI3
 70
     0
  9
$USERI4
 70
     0
  9
$USERI5
 70
     0
  9
$USERR1
 40
0.0
  9
$USERR2
 40
0.0
  9
$USERR3
 40
0.0
  9
$USERR4
 40
0.0
  9
$USERR5
 40
0.0
  9
$WORLDVIEW
 70
     1
  9
$SHADEDGE
 70
     3
  9
$SHADEDIF
 70
    70
  9
$TILEMODE
 70
     1
  9
$MAXACTVP
 70
    64
  9
$PLIMCHECK
 70
     0
  9
$PEXTMIN
 10
1.0000000000000000E+020
 20
1.0000000000000000E+020
 30
1.0000000000000000E+020
  9
$PEXTMAX
 10
-1.0000000000000000E+020
 20
-1.0000000000000000E+020
 30
-1.0000000000000000E+020
  9
$PLIMMIN
 10
0.0
 20
0.0
  9
$PLIMMAX
 10
420.0
 20
297.0
  9
$UNITMODE
 70
     0
  9
$VISRETAIN
 70
     1
  9
$PLINEGEN
 70
     0
  9
$PSLTSCALE
 70
     1
  0
ENDSEC
  0
SECTION
  2
TABLES
  0
TABLE
  2
VPORT
 70
     1
  0
VPORT
  2
*ACTIVE
 70
     0
 10
0.0
 20
0.0
 11
1.0
 21
1.0
 12
413.27080733040418
 22
373.38231267987112
 13
0.0
 23
0.0
 14
7.5
 24
7.5
 15
30.0
 25
30.0
 16
0.0
 26
0.0
 36
1.0
 17
0.0
 27
0.0
 37
0.0
 40
437.59564044285929
 41
1.7571592210767459
 42
50.0
 43
0.0
 44
0.0
 50
0.0
 51
0.0
 71
     0
 72
   100
 73
     1
 74
     3
 75
     0
 76
     0
 77
     0
 78
     0
  0
ENDTAB
  0
TABLE
  2
LTYPE
 70
    26
  0
LTYPE
  2
CONTINUOUS
 70
     0
  3
Solid line
 72
    65
 73
     0
 40
0.0
  0
LTYPE
  2
AM_ISO02W050
 70
     0
  3
__ __ __ __ __ __ __ __ __ __ __ __ __ __ __
 72
    65
 73
     2
 40
7.5
 49
6.0
 49
-1.5
  0
LTYPE
  2
AM_ISO08W050
 70
     0
  3
____ . ____ . ____ . ____ . ____ . ____ . ____
 72
    65
 73
     4
 40
18.0
 49
12.0
 49
-1.5
 49
3.0
 49
-1.5
  0
LTYPE
  2
AM_ISO09W050
 70
     0
  3
_____ . . _____ . . _____ . . ____ .. ____
 72
    65
 73
     6
 40
22.5
 49
12.0
 49
-1.5
 49
3.0
 49
-1.5
 49
3.0
 49
-1.5
  0
LTYPE
  2
AMCONSTR
 70
     0
  3
_______________________
 72
    65
 73
     2
 40
9999.0
 49
9999.0
 49
0.0
  0
LTYPE
  2
AM_ISO08W050X2
 70
     0
  3
__ . __ . __ . __ . __ . __
 72
    65
 73
     4
 40
9.0
 49
6.0
 49
-0.75
 49
1.5
 49
-0.75
  0
LTYPE
  2
AM_ISO02W050X2
 70
     0
  3
 _ _ _ _ _ _ _ _ _ _ _ _
 72
    65
 73
     2
 40
3.75
 49
3.0
 49
-0.75
  0
LTYPE
  2
AMZIGZAG
 70
     0
  3
/\/-/\/-/\/-/\/-/\/-/\/
 72
    65
 73
     2
 40
11.0001
 49
0.0001
 49
-11.0
  0
LTYPE
  2
ACISOWELD
 70
     0
  3
_ _ _ _ _
 72
    65
 73
     2
 40
2.0
 49
2.0
 49
-1.0
  0
LTYPE
  2
ACISOTGB
 70
     0
  3
__ . . __ . .
 72
    65
 73
     6
 40
9.0
 49
4.0
 49
-1.0
 49
1.0
 49
-1.0
 49
1.0
 49
-1.0
  0
LTYPE
  2
ACISOTGL
 70
     0
  3
_ _ _ _ _
 72
    65
 73
     2
 40
3.0
 49
2.0
 49
-1.0
  0
LTYPE
  2
CENTER
 70
     0
  3
__ . __
 72
    65
 73
     4
 40
7.0
 49
4.0
 49
-1.0
 49
1.0
 49
-1.0
  0
LTYPE
  2
HIDDEN
 70
     0
  3
Hidden __ __ __ __ __ __ __ __ __ __ __ __ __ _
 72
    65
 73
     2
 40
9.5249999999999986
 49
6.349999999999997
 49
-3.174999999999998
  0
LTYPE
  2
PHANTOM2
 70
     0
  3
Phantom (.5x) ___ _ _ ___ _ _ ___ _ _ ___ _ _
 72
    65
 73
     6
 40
31.75
 49
15.875
 49
-3.174999999999998
 49
3.174999999999998
 49
-3.174999999999998
 49
3.174999999999998
 49
-3.174999999999998
  0
LTYPE
  2
ACANSTGBM
 70
     0
  3
__ . . __ . .
 72
    65
 73
     6
 40
9.0
 49
4.0
 49
-1.0
 49
1.0
 49
-1.0
 49
1.0
 49
-1.0
  0
LTYPE
  2
ACANSTGLM
 70
     0
  3
_ _ _ _ _
 72
    65
 73
     2
 40
3.0
 49
2.0
 49
-1.0
  0
LTYPE
  2
GEN7
 70
     0
  3
____ . ____ . ____ . ____ . ____ . ____ . ____
 72
    65
 73
     4
 40
14.25
 49
9.75
 49
-1.5
 49
1.5
 49
-1.5
  0
LTYPE
  2
GEN7A
 70
     0
  3
__ . __ . __
 72
    65
 73
     4
 40
7.375
 49
4.75
 49
-0.875
 49
0.875
 49
-0.875
  0
LTYPE
  2
ACJISTGB
 70
     0
  3
__ . . __ . .
 72
    65
 73
     6
 40
9.0
 49
4.0
 49
-1.0
 49
1.0
 49
-1.0
 49
1.0
 49
-1.0
  0
LTYPE
  2
ACJISTGL
 70
     0
  3
_ _ _ _ _
 72
    65
 73
     2
 40
3.0
 49
2.0
 49
-1.0
  0
LTYPE
  2
CENTER2
 70
     0
  3
Center (.5x) ___ _ ___ _ ___ _ ___ _ ___ _ ___
 72
    65
 73
     4
 40
1.125
 49
0.75
 49
-0.125
 49
0.125
 49
-0.125
  0
LTYPE
  2
HIDDEN2
 70
     0
  3
Hidden (.5x) _ _ _ _ _ _ _ _ _ _ _ _ _ _ _ _ _
 72
    65
 73
     2
 40
0.1875
 49
0.125
 49
-0.0625
  0
LTYPE
  2
AMZIGZAG2
 70
     0
  3
/\/-/\/-/\/-/\/-/\/-/\/
 72
    65
 73
     2
 40
0.4401
 49
0.0001
 49
-0.4400000000000001
  0
LTYPE
  2
ACANSTGB
 70
     0
  3
__ . . __ . .
 72
    65
 73
     6
 40
0.35433070866
 49
0.15748031496
 49
-0.03937007874
 49
0.03937007874
 49
-0.03937007874
 49
0.03937007874
 49
-0.03937007874
  0
LTYPE
  2
ACANSTGL
 70
     0
  3
_ _ _ _ _
 72
    65
 73
     2
 40
0.11811023622
 49
0.07874015748
 49
-0.03937007874
  0
ENDTAB
  0
TABLE
  2
LAYER
 70
     7
  0
LAYER
  2
0
 70
     0
 62
     7
  6
CONTINUOUS
  0
LAYER
  2
AM_0
 70
     0
 62
     7
  6
CONTINUOUS
  0
LAYER
  2
AM_5
 70
     0
 62
     2
  6
CONTINUOUS
  0
LAYER
  2
DEFPOINTS
 70
     0
 62
     7
  6
CONTINUOUS
  0
LAYER
  2
ﾁｭｳｼﾝｾﾝ
 70
     0
 62
     1
  6
GEN7
  0
LAYER
  2
ﾁｭｳｼﾝｾﾝ1
 70
     0
 62
     1
  6
GEN7A
  0
LAYER
  2
AM_0N
 70
     0
 62
     7
  6
CONTINUOUS
  0
ENDTAB
  0
TABLE
  2
STYLE
 70
    10
  0
STYLE
  2
STANDARD
 70
     0
 40
0.0
 41
0.8299999999999999
 50
0.0
 71
     0
 42
2.5
  3
txt.shx
  4
bigfont.shx
  0
STYLE
  2
ANNOTATIVE
 70
     0
 40
0.0
 41
1.0
 50
0.0
 71
     0
 42
0.2
  3
txt
  4

  0
STYLE
  2

 70
     1
 40
0.0
 41
1.0
 50
0.0
 71
     0
 42
2.5
  3
ltypeshp.shx
  4

  0
STYLE
  2
ACISOTS
 70
     0
 40
1.0
 41
1.0
 50
0.0
 71
     0
 42
2.5
  3
isocp.shx
  4
extfont.shx
  0
STYLE
  2
ACISOGDT
 70
     0
 40
0.0
 41
1.0
 50
0.0
 71
     0
 42
2.5
  3
amgdt.shx
  4

  0
STYLE
  2
ACANSTS
 70
     0
 40
1.0
 41
1.0
 50
0.0
 71
     0
 42
2.5
  3
romans.shx
  4
bigfont.shx
  0
STYLE
  2
ACANSGDT
 70
     0
 40
0.0
 41
1.0
 50
0.0
 71
     0
 42
2.5
  3
amgdt.shx
  4

  0
STYLE
  2
ACJISTS
 70
     0
 40
1.0
 41
1.0
 50
0.0
 71
     0
 42
2.5
  3
isocp.shx
  4
bigfont.shx
  0
STYLE
  2
ACJISGDT
 70
     0
 40
0.0
 41
1.0
 50
0.0
 71
     0
 42
2.5
  3
amgdt.shx
  4

  0
STYLE
  2

 70
     1
 40
0.0
 41
1.0
 50
0.0
 71
     0
 42
2.5
  3
genltshp.shx
  4

  0
ENDTAB
  0
TABLE
  2
VIEW
 70
     6
  0
VIEW
  2
AM_VIEW1
 70
     0
 40
277.50000000000011
 10
249.64779005524869
 20
416.24999999999989
 41
499.2955801104971
 11
0.0
 21
0.0
 31
1.0
 12
0.0
 22
0.0
 32
0.0
 42
50.0
 43
0.0
 44
0.0
 50
0.0
 71
     0
  0
VIEW
  2
AM_VIEW2
 70
     0
 40
277.50000000000011
 10
603.85220994475117
 20
416.24999999999989
 41
499.2955801104971
 11
0.0
 21
0.0
 31
1.0
 12
0.0
 22
0.0
 32
0.0
 42
50.0
 43
0.0
 44
0.0
 50
0.0
 71
     0
  0
VIEW
  2
AM_VIEW3
 70
     0
 40
277.50000000000011
 10
249.64779005524869
 20
138.75
 41
499.2955801104971
 11
0.0
 21
0.0
 31
1.0
 12
0.0
 22
0.0
 32
0.0
 42
50.0
 43
0.0
 44
0.0
 50
0.0
 71
     0
  0
VIEW
  2
AM_VIEW4
 70
     0
 40
277.50000000000011
 10
603.85220994475117
 20
138.75
 41
499.2955801104971
 11
0.0
 21
0.0
 31
1.0
 12
0.0
 22
0.0
 32
0.0
 42
50.0
 43
0.0
 44
0.0
 50
0.0
 71
     0
  0
VIEW
  2
AM_VIEW5
 70
     0
 40
277.50000000000011
 10
426.75
 20
277.50000000000011
 41
499.2955801104971
 11
0.0
 21
0.0
 31
1.0
 12
0.0
 22
0.0
 32
0.0
 42
50.0
 43
0.0
 44
0.0
 50
0.0
 71
     0
  0
VIEW
  2
AM_VIEW6
 70
     0
 40
554.99445000000014
 10
426.75
 20
277.5
 41
998.5811743093924
 11
0.0
 21
0.0
 31
1.0
 12
0.0
 22
0.0
 32
0.0
 42
50.0
 43
0.0
 44
0.0
 50
0.0
 71
     0
  0
ENDTAB
  0
TABLE
  2
UCS
 70
     0
  0
ENDTAB
  0
TABLE
  2
APPID
 70
    98
  0
APPID
  2
ACAD
 70
     0
  0
APPID
  2
ACADANNOTATIVE
 70
     0
  0
APPID
  2
MCAD_NO_VIS
 70
     0
  0
APPID
  2
ACAD_TEMP_GRAPHIC
 70
     0
  0
APPID
  2
ACATTRIBSERVICES
 70
     0
  0
APPID
  2
GENIUS_GENREC_14
 70
     0
  0
APPID
  2
GENIUS_GENOBJ-N-REC_13
 70
     0
  0
APPID
  2
GENIUS_GENODEF_13
 70
     0
  0
APPID
  2
GENIUS_GENOLIS_13
 70
     0
  0
APPID
  2
GENIUS_GENOBJ-N-TIT_13
 70
     0
  0
APPID
  2
GENIUS_GENOENT_13
 70
     0
  0
APPID
  2
GENIUS_GENTITLE_13
 70
     0
  0
APPID
  2
GENIUS_GENOREF_13
 70
     0
  0
APPID
  2
GENIUS_GENSCREG_15
 70
     0
  0
APPID
  2
GENIUS_GENOBJ-N-SDF_13
 70
     0
  0
APPID
  2
GENIUS_GENFIL_13
 70
     0
  0
APPID
  2
GENIUS_GENOBJ-N-CHA_13
 70
     0
  0
APPID
  2
GENIUS_GENDTOL_13
 70
     0
  0
APPID
  2
GENIUS_GENOBJ-N-FIL_13
 70
     0
  0
APPID
  2
AD_DRAW
 70
     0
  0
APPID
  2
DESIGNERASSEMBLIES
 70
     0
  0
APPID
  2
ASURF_PCURVE_APPNAME
 70
     0
  0
APPID
  2
GENIUS_GE3SECT_13
 70
     0
  0
APPID
  2
GENIUS_GENCFG_13
 70
     0
  0
APPID
  2
GENIUS_GE3CFG0_13
 70
     0
  0
APPID
  2
GENIUS_GENCFG0_13
 70
     0
  0
APPID
  2
GENIUS_GENCFG1_13
 70
     0
  0
APPID
  2
GENIUS_GENCFG2_13
 70
     0
  0
APPID
  2
GENIUS_GENCFG3_13
 70
     0
  0
APPID
  2
GENIUS_GENCFG4_13
 70
     0
  0
APPID
  2
GENIUS_GEVCFG0_13
 70
     0
  0
APPID
  2
GENIUS_GENHINW_13
 70
     0
  0
APPID
  2
GENIUS_FIRSTVISTXT_14
 70
     0
  0
APPID
  2
GENIUS_GENOBJ-N-LEADER_13
 70
     0
  0
APPID
  2
GEV_VCCNULL_SWITCH_OFF
 70
     0
  0
APPID
  2
GENIUS_GEFCFG0_13
 70
     0
  0
APPID
  2
GENIUS_GENZVEED_13
 70
     0
  0
APPID
  2
GENIUS_GENSCREG_13
 70
     0
  0
APPID
  2
GENIUS_DUMCFG0_13
 70
     0
  0
APPID
  2
GEVID936201362
 70
     0
  0
APPID
  2
GEVDC
 70
     0
  0
APPID
  2
GEVCON
 70
     0
  0
APPID
  2
VCC
 70
     0
  0
APPID
  2
GEVPT
 70
     0
  0
APPID
  2
GEVIT
 70
     0
  0
APPID
  2
GENBH
 70
     0
  0
APPID
  2
GEVMK
 70
     0
  0
APPID
  2
GENIUS_GENBH_13
 70
     0
  0
APPID
  2
GENIUS_GENOBJ-NBEHI-BHF_13
 70
     0
  0
APPID
  2
GENIUS_GENOBJ-NBEHI-BHB_13
 70
     0
  0
APPID
  2
GENIUS_GENOBJ-F-DESC_13
 70
     0
  0
APPID
  2
GENIUS_GEFDESC_14
 70
     0
  0
APPID
  2
GENIUS_GENOBJ-F-PART_13
 70
     0
  0
APPID
  2
GENIUS_GEFSTDP_13
 70
     0
  0
APPID
  2
GENIUS_GEFPARTINS_13
 70
     0
  0
APPID
  2
GENIUS_GENTRA_14
 70
     0
  0
APPID
  2
GENIUS_GENINF13_13
 70
     0
  0
APPID
  2
GENIUS_GENOBJ-N-INFOPT_13
 70
     0
  0
APPID
  2
GENIUS_GENOBJ-N-RSSYM_13
 70
     0
  0
APPID
  2
GENIUS_GENSYMENT_13
 70
     0
  0
APPID
  2
GENIUS_GENSCSYM_13
 70
     0
  0
APPID
  2
GENIUS_GEFINFNAM_13
 70
     0
  0
APPID
  2
GENIUS_GENOBJ-N-CEN_13
 70
     0
  0
APPID
  2
GENIUS_GENOBJ-N-CRS_13
 70
     0
  0
APPID
  2
GENIUS_GENOBJ-N-CRC_13
 70
     0
  0
APPID
  2
GENIUS_GENCRC_14
 70
     0
  0
APPID
  2
GEVID942827039
 70
     0
  0
APPID
  2
GEVID942827040
 70
     0
  0
APPID
  2
GEVID942827041
 70
     0
  0
APPID
  2
GENIUS_GENOBJ-F-SCPASSM_13
 70
     0
  0
APPID
  2
GENIUS_GENDIMSH_14
 70
     0
  0
APPID
  2
GEVID942827042
 70
     0
  0
APPID
  2
GEVID946020473
 70
     0
  0
APPID
  2
GEVID946020474
 70
     0
  0
APPID
  2
GEVID946020475
 70
     0
  0
APPID
  2
GENIUS_GENOBJ-N-HTC_13
 70
     0
  0
APPID
  2
GENIUS_GENHATCH_13
 70
     0
  0
APPID
  2
GEVID948854295
 70
     0
  0
APPID
  2
GEVID939402019
 70
     0
  0
APPID
  2
GEVID952919491
 70
     0
  0
APPID
  2
GEVID952919492
 70
     0
  0
APPID
  2
GENIUS_GEFWELD_13
 70
     0
  0
APPID
  2
GENIUS_GENOBJ-F-WELS_13
 70
     0
  0
APPID
  2
GEVID952919493
 70
     0
  0
APPID
  2
GENIUS_GENOBJ-N-RSBK_13
 70
     0
  0
APPID
  2
GENIUS_GENOBJ-N-LIB_13
 70
     0
  0
APPID
  2
GENIUS_GENSCALE_13
 70
     0
  0
APPID
  2
GEVID986376691
 70
     0
  0
APPID
  2
DCO15
 70
     0
  0
APPID
  2
ACADM_DIM_EDIT
 70
     0
  0
APPID
  2
AMDT_DM_ADJ
 70
     0
  0
APPID
  2
ACAD_PSEXT
 70
     0
  0
APPID
  2
ACAD_DSTYLE_DIMJAG
 70
     0
  0
APPID
  2
ACAD_DSTYLE_DIMBREAK
 70
     0
  0
APPID
  2
ACAD_NAV_VCDISPLAY
 70
     0
  0
APPID
  2
ACADANNOPO
 70
     0
  0
APPID
  2
ACAD_EXEMPT_FROM_CAD_STANDARDS
 70
     0
  0
APPID
  2
ACAD_MLEADERVER
 70
     0
  0
ENDTAB
  0
TABLE
  2
DIMSTYLE
 70
    22
  0
DIMSTYLE
  2
STANDARD
 70
     0
  3

  4

  5

  6

  7

 40
1.0
 41
0.18
 42
0.0625
 43
0.38
 44
0.18
 45
0.0
 46
0.0
 47
0.0
 48
0.0
140
0.18
141
0.09
142
0.0
143
25.399999999999999
144
1.0
145
0.0
146
1.0
147
0.09
 71
     0
 72
     0
 73
     1
 74
     1
 75
     0
 76
     0
 77
     0
 78
     0
170
     0
171
     2
172
     0
173
     0
174
     0
175
     0
176
     0
177
     0
178
     0
  0
DIMSTYLE
  2
ANNOTATIVE
 70
     0
  3

  4

  5

  6

  7

 40
1.0
 41
0.18
 42
0.0625
 43
0.38
 44
0.18
 45
0.0
 46
0.0
 47
0.0
 48
0.0
140
0.18
141
0.09
142
0.0
143
25.399999999999999
144
1.0
145
0.0
146
1.0
147
0.09
 71
     0
 72
     0
 73
     1
 74
     1
 75
     0
 76
     0
 77
     0
 78
     0
170
     0
171
     2
172
     0
173
     0
174
     0
175
     0
176
     0
177
     0
178
     0
  0
DIMSTYLE
  2
AM_ISO
 70
     0
  3

  4
"
  5

  6

  7

 40
1.0
 41
2.5
 42
1.0
 43
8.0
 44
0.6
 45
0.0
 46
0.0
 47
0.1
 48
0.1
140
2.5
141
0.0
142
0.0
143
0.0393701
144
1.0
145
0.0
146
0.71
147
0.8
 71
     0
 72
     0
 73
     0
 74
     0
 75
     0
 76
     0
 77
     1
 78
     8
170
     0
171
     2
172
     1
173
     0
174
     0
175
     0
176
   256
177
   256
178
     4
  0
DIMSTYLE
  2
AM_ISO$3
 70
     0
  3

  4
"
  5

  6

  7

 40
1.0
 41
2.5
 42
1.0
 43
8.0
 44
0.6
 45
0.0
 46
0.0
 47
0.1
 48
0.1
140
2.5
141
0.0
142
0.0
143
0.0393701
144
1.0
145
0.0
146
0.71
147
0.8
 71
     0
 72
     0
 73
     0
 74
     1
 75
     0
 76
     0
 77
     1
 78
     8
170
     0
171
     2
172
     0
173
     0
174
     0
175
     0
176
   256
177
   256
178
     4
  0
DIMSTYLE
  2
AM_ISO$4
 70
     0
  3

  4
"
  5

  6

  7

 40
1.0
 41
2.5
 42
1.0
 43
8.0
 44
0.6
 45
0.0
 46
0.0
 47
0.1
 48
0.1
140
2.5
141
0.0
142
0.0
143
0.0393701
144
1.0
145
0.0
146
0.71
147
0.8
 71
     0
 72
     0
 73
     0
 74
     1
 75
     0
 76
     0
 77
     1
 78
     8
170
     0
171
     2
172
     0
173
     0
174
     0
175
     0
176
   256
177
   256
178
     4
  0
DIMSTYLE
  2
AM_ISO$6
 70
     0
  3

  4
"
  5

  6

  7

 40
1.0
 41
2.5
 42
1.0
 43
8.0
 44
0.6
 45
0.0
 46
0.0
 47
0.1
 48
0.1
140
2.5
141
0.0
142
0.0
143
0.0393701
144
1.0
145
0.0
146
0.71
147
0.8
 71
     0
 72
     0
 73
     0
 74
     0
 75
     0
 76
     0
 77
     0
 78
     8
170
     0
171
     2
172
     1
173
     0
174
     0
175
     0
176
   256
177
   256
178
     4
  0
DIMSTYLE
  2
AM_ISO$7
 70
     0
  3

  4
"
  5

  6

  7

 40
1.0
 41
2.5
 42
1.0
 43
8.0
 44
0.6
 45
0.0
 46
0.0
 47
0.1
 48
0.1
140
2.5
141
0.0
142
0.0
143
0.0393701
144
1.0
145
0.0
146
0.71
147
0.8
 71
     0
 72
     0
 73
     0
 74
     0
 75
     0
 76
     0
 77
     1
 78
     8
170
     0
171
     2
172
     1
173
     0
174
     0
175
     0
176
   256
177
   256
178
     4
  0
DIMSTYLE
  2
AM_ISO$SF
 70
     0
  3

  4
"
  5

  6

  7

 40
1.0
 41
2.5
 42
1.0
 43
10.0
 44
1.0
 45
0.0
 46
0.0
 47
0.1
 48
0.1
140
3.5
141
0.0
142
0.0
143
0.0393701
144
1.0
145
0.0
146
0.71
147
1.5
 71
     0
 72
     0
 73
     0
 74
     0
 75
     1
 76
     1
 77
     1
 78
     8
170
     0
171
     2
172
     1
173
     0
174
     0
175
     0
176
   256
177
   256
178
     2
  0
DIMSTYLE
  2
AM_ISO$SH
 70
     0
  3

  4
"
  5

  6

  7

 40
1.0
 41
2.5
 42
1.0
 43
10.0
 44
1.0
 45
0.0
 46
0.0
 47
0.1
 48
0.1
140
3.5
141
0.0
142
0.0
143
0.0393701
144
2.0
145
0.0
146
0.71
147
1.5
 71
     0
 72
     0
 73
     0
 74
     0
 75
     1
 76
     1
 77
     1
 78
     8
170
     0
171
     2
172
     1
173
     1
174
     0
175
     0
176
   256
177
   256
178
     2
  0
DIMSTYLE
  2
AM_JIS
 70
     0
  3

  4
"
  5

  6

  7

 40
1.0
 41
2.5
 42
1.0
 43
7.0
 44
1.0
 45
0.0
 46
0.0
 47
0.1
 48
0.1000000001
140
2.5
141
0.0
142
0.0
143
0.0393701
144
1.0
145
0.0
146
0.71
147
1.0
 71
     0
 72
     0
 73
     0
 74
     0
 75
     0
 76
     0
 77
     3
 78
     8
170
     0
171
     2
172
     1
173
     0
174
     0
175
     0
176
   256
177
   256
178
     4
  0
DIMSTYLE
  2
AM_JIS$3
 70
     0
  3

  4
"
  5

  6

  7

 40
1.0
 41
2.5
 42
1.0
 43
7.0
 44
1.0
 45
0.0
 46
0.0
 47
0.1
 48
0.1000000001
140
2.5
141
0.0
142
0.0
143
0.0393701
144
1.0
145
0.0
146
0.71
147
1.0
 71
     0
 72
     0
 73
     0
 74
     1
 75
     0
 76
     0
 77
     3
 78
     8
170
     0
171
     2
172
     0
173
     0
174
     0
175
     0
176
   256
177
   256
178
     4
  0
DIMSTYLE
  2
AM_JIS$4
 70
     0
  3

  4
"
  5

  6

  7

 40
1.0
 41
2.5
 42
1.0
 43
7.0
 44
1.0
 45
0.0
 46
0.0
 47
0.1
 48
0.1000000001
140
2.5
141
0.0
142
0.0
143
0.0393701
144
1.0
145
0.0
146
0.71
147
1.0
 71
     0
 72
     0
 73
     0
 74
     0
 75
     0
 76
     0
 77
     3
 78
     8
170
     0
171
     2
172
     0
173
     0
174
     0
175
     0
176
   256
177
   256
178
     4
  0
DIMSTYLE
  2
AM_JIS$6
 70
     0
  3

  4
"
  5

  6

  7

 40
1.0
 41
2.5
 42
1.0
 43
7.0
 44
1.0
 45
0.0
 46
0.0
 47
0.1
 48
0.1000000001
140
2.5
141
0.0
142
0.0
143
0.0393701
144
1.0
145
0.0
146
0.71
147
1.0
 71
     0
 72
     0
 73
     0
 74
     0
 75
     0
 76
     0
 77
     0
 78
     8
170
     0
171
     2
172
     1
173
     0
174
     0
175
     0
176
   256
177
   256
178
     4
  0
DIMSTYLE
  2
AM_JIS$7
 70
     0
  3

  4
"
  5

  6

  7

 40
1.0
 41
2.5
 42
1.0
 43
7.0
 44
1.0
 45
0.0
 46
0.0
 47
0.1
 48
0.1000000001
140
2.5
141
0.0
142
0.0
143
0.0393701
144
1.0
145
0.0
146
0.71
147
1.0
 71
     0
 72
     0
 73
     0
 74
     0
 75
     0
 76
     0
 77
     3
 78
     8
170
     0
171
     2
172
     1
173
     0
174
     0
175
     0
176
   256
177
   256
178
     4
  0
DIMSTYLE
  2
AM_JIS$SF
 70
     0
  3

  4
"
  5

  6

  7

 40
1.0
 41
2.5
 42
1.0
 43
10.0
 44
1.0
 45
0.0
 46
0.0
 47
0.1
 48
0.1
140
3.5
141
0.0
142
0.0
143
0.0393701
144
1.0
145
0.0
146
0.71
147
1.5
 71
     0
 72
     0
 73
     0
 74
     0
 75
     1
 76
     1
 77
     3
 78
     8
170
     0
171
     2
172
     1
173
     0
174
     0
175
     0
176
   256
177
   256
178
     4
  0
DIMSTYLE
  2
AM_JIS$SH
 70
     0
  3

  4
"
  5

  6

  7

 40
1.0
 41
2.5
 42
1.0
 43
10.0
 44
1.0
 45
0.0
 46
0.0
 47
0.1
 48
0.1
140
3.5
141
0.0
142
0.0
143
0.0393701
144
1.0
145
0.0
146
0.71
147
1.5
 71
     0
 72
     0
 73
     0
 74
     0
 75
     1
 76
     0
 77
     3
 78
     8
170
     0
171
     2
172
     1
173
     1
174
     0
175
     0
176
   256
177
   256
178
     4
  0
DIMSTYLE
  2
AM_ANSI
 70
     0
  3

  4
mm
  5

  6

  7

 40
1.0
 41
0.12
 42
0.05
 43
0.5
 44
0.1
 45
0.0
 46
0.0
 47
0.1
 48
0.1
140
0.12
141
0.0
142
0.0
143
25.399999999999999
144
1.0
145
0.0
146
0.71
147
0.06
 71
     0
 72
     0
 73
     1
 74
     1
 75
     0
 76
     0
 77
     0
 78
     7
170
     0
171
     2
172
     0
173
     0
174
     0
175
     0
176
   256
177
   256
178
     2
  0
DIMSTYLE
  2
AM_ANSI$3
 70
     0
  3

  4
mm
  5

  6

  7

 40
1.0
 41
0.12
 42
0.05
 43
0.5
 44
0.1
 45
0.0
 46
0.0
 47
0.1
 48
0.1
140
0.12
141
0.0
142
0.0
143
25.399999999999999
144
1.0
145
0.0
146
0.71
147
0.06
 71
     0
 72
     0
 73
     1
 74
     1
 75
     0
 76
     0
 77
     0
 78
     7
170
     0
171
     2
172
     0
173
     0
174
     0
175
     0
176
   256
177
   256
178
     2
  0
DIMSTYLE
  2
AM_ANSI$4
 70
     0
  3

  4
mm
  5

  6

  7

 40
1.0
 41
0.12
 42
0.05
 43
0.5
 44
0.1
 45
0.0
 46
0.0
 47
0.1
 48
0.1
140
0.12
141
0.0
142
0.0
143
25.399999999999999
144
1.0
145
0.0
146
0.71
147
0.06
 71
     0
 72
     0
 73
     1
 74
     1
 75
     0
 76
     0
 77
     0
 78
     7
170
     0
171
     2
172
     0
173
     0
174
     0
175
     0
176
   256
177
   256
178
     2
  0
DIMSTYLE
  2
AM_ANSI$7
 70
     0
  3

  4
mm
  5

  6

  7

 40
1.0
 41
0.12
 42
0.05
 43
0.5
 44
0.1
 45
0.0
 46
0.0
 47
0.1
 48
0.1
140
0.12
141
0.0
142
0.0
143
25.399999999999999
144
1.0
145
0.0
146
0.71
147
0.06
 71
     0
 72
     0
 73
     1
 74
     1
 75
     0
 76
     0
 77
     0
 78
     7
170
     0
171
     2
172
     0
173
     0
174
     0
175
     0
176
   256
177
   256
178
     2
  0
DIMSTYLE
  2
AM_ANSI$SF
 70
     0
  3

  4
mm
  5

  6

  7

 40
1.0
 41
0.12
 42
0.05
 43
0.5
 44
0.1
 45
0.0
 46
0.0
 47
0.1
 48
0.1
140
0.12
141
0.0
142
0.0
143
25.399999999999999
144
1.0
145
0.0
146
0.71
147
0.06
 71
     0
 72
     0
 73
     1
 74
     1
 75
     1
 76
     1
 77
     0
 78
     7
170
     0
171
     2
172
     0
173
     0
174
     0
175
     0
176
   256
177
   256
178
     2
  0
DIMSTYLE
  2
AM_ANSI$SH
 70
     0
  3

  4
mm
  5

  6
GENAXEH
  7

 40
1.0
 41
0.12
 42
0.05
 43
0.5
 44
0.1
 45
0.0
 46
0.0
 47
0.1
 48
0.1
140
0.12
141
0.0
142
0.0
143
25.399999999999999
144
1.0
145
0.0
146
0.71
147
0.06
 71
     0
 72
     0
 73
     1
 74
     1
 75
     1
 76
     1
 77
     0
 78
     7
170
     0
171
     2
172
     0
173
     1
174
     0
175
     0
176
   256
177
   256
178
     2
  0
ENDTAB
  0
ENDSEC
  0
SECTION
  2
BLOCKS
  0
BLOCK
  8
0
  2
$MODEL_SPACE
 70
     0
 10
0.0
 20
0.0
 30
0.0
  3
$MODEL_SPACE
  1

  0
ENDBLK
  5
57E5
  8
0
  0
BLOCK
 67
     1
  8
0
  2
$PAPER_SPACE
 70
     0
 10
0.0
 20
0.0
 30
0.0
  3
$PAPER_SPACE
  1

  0
ENDBLK
  5
57E1
 67
     1
  8
0
  0
BLOCK
  8
0
  2
GENAXEH
 70
     0
 10
0.0
 20
0.0
 30
0.0
  3
GENAXEH
  1

  0
LINE
  5
73
  8
0
 10
-1.0
 20
0.0
 30
0.0
 11
1.0
 21
0.0
 31
0.0
  0
ENDBLK
  5
75
  8
0
  0
BLOCK
  8
0
  2
_OPEN30
 70
     0
 10
0.0
 20
0.0
 30
0.0
  3
_OPEN30
  1

  0
LINE
  5
31A
  8
0
 62
     0
 10
-1.0
 20
0.26794919
 30
0.0
 11
0.0
 21
0.0
 31
0.0
  0
LINE
  5
31B
  8
0
 62
     0
 10
0.0
 20
0.0
 30
0.0
 11
-1.0
 21
-0.26794919
 31
0.0
  0
LINE
  5
31C
  8
0
 62
     0
 10
0.0
 20
0.0
 30
0.0
 11
-1.0
 21
0.0
 31
0.0
  0
ENDBLK
  5
31E
  8
0
  0
BLOCK
  8
0
  2
_NONE
 70
     0
 10
0.0
 20
0.0
 30
0.0
  3
_NONE
  1

  0
ENDBLK
  5
579
  8
0
  0
BLOCK
  8
0
  2
*U5
 70
     1
 10
0.0
 20
0.0
 30
0.0
  3
*U5
  1

  0
TEXT
  5
55B5
  8
AM_0
 10
560.03145652905766
 20
509.25046447420959
 30
0.0
 40
10.0
  1
ＶＸ０４－００５～０１０ＢＦＷ
 41
0.8299999999999999
  0
ENDBLK
  5
55B7
  8
0
  0
BLOCK
  8
0
  2
_ACMFILLEDHALF
 70
     0
 10
0.0
 20
0.0
 30
0.0
  3
_ACMFILLEDHALF
  1

  0
TRACE
  5
58E3
  8
AM_0
 62
     0
 10
-0.8
 20
0.0
 30
0.0
 11
-1.0
 21
0.166666666
 31
0.0
 12
0.0
 22
0.0
 32
0.0
 13
0.0
 23
0.0
 33
0.0
  0
LINE
  5
58E4
  8
AM_0
 62
     0
 10
-1.0
 20
0.0
 30
0.0
 11
-0.8
 21
0.0
 31
0.0
  0
ENDBLK
  5
58E2
  8
0
  0
ENDSEC
  0
SECTION
  2
ENTITIES
  0
LINE
  5
3725
  8
AM_0
 10
660.79718444361981
 20
317.75393974224289
 30
0.0
 11
660.79718444361981
 21
328.93769082716221
 31
0.0
  0
LINE
  5
3726
  8
AM_0
 10
654.39718444361995
 20
317.75393974224289
 30
0.0
 11
654.39718444361995
 21
328.93769082716221
 31
0.0
  0
LINE
  5
372A
  8
AM_0
 10
663.99718444361997
 20
317.75393974224289
 30
0.0
 11
663.99718444361997
 21
328.93769082716221
 31
0.0
  0
LINE
  5
372B
  8
AM_0
 10
651.19718444362002
 20
328.93769082716221
 30
0.0
 11
651.19718444362002
 21
317.75393974224289
 31
0.0
  0
ARC
  5
372E
  8
AM_0
 10
657.59718444361988
 20
321.25394174224277
 30
0.0
 40
9.9999999999999964
 50
50.208180500442623
 51
90.0
  0
ARC
  5
3732
  8
AM_0
 10
657.59718444361988
 20
318.72270993227932
 30
0.0
 40
10.704477319459491
 50
72.606031891266454
 51
107.3939681087335
  0
ARC
  5
3733
  8
AM_0
 10
652.79718444361981
 20
326.56792543068792
 30
0.0
 40
2.8593334947723461
 50
55.973867765119778
 51
124.02613223488019
  0
ARC
  5
3734
  8
AM_0
 10
662.39718444362006
 20
326.57099235209029
 30
0.0
 40
2.856792199637066
 50
55.939448481710848
 51
124.060551518289
  0
ARC
  5
3735
  8
AM_0
 10
657.59718444361988
 20
321.25394174224277
 30
0.0
 40
10.0
 50
90.0
 51
129.79181949955731
  0
LINE
  5
3AAE
  8
ﾁｭｳｼﾝｾﾝ1
 10
167.124141104377
 20
240.75393574224279
 30
0.0
 11
205.1076282699527
 21
240.75393574224279
 31
0.0
  0
LINE
  5
3AAF
  8
AM_0
 10
152.6076382699525
 20
283.19638205405118
 30
0.0
 11
152.6076382699525
 21
207.47243683482401
 31
0.0
  0
LINE
  5
3AB0
  8
AM_0
 10
152.6076382699525
 20
201.31435982117901
 30
0.0
 11
152.6076382699525
 21
168.31152672802989
 31
0.0
  0
LINE
  5
3AB1
  8
AM_0
 10
197.10762826995261
 20
179.40394174224269
 30
0.0
 11
162.10761826995261
 21
181.43394274224269
 31
0.0
  0
LINE
  5
3AB2
  8
AM_0
 10
197.10762826995261
 20
272.10395074224277
 30
0.0
 11
162.10761826995261
 21
270.07394074224283
 31
0.0
  0
LINE
  5
3AB3
  8
AM_0
 10
152.6076382699525
 20
168.31152672802989
 30
0.0
 11
154.92762826995261
 21
168.25393174224271
 31
0.0
  0
LINE
  5
3AB4
  8
AM_0
 10
300.10767826995271
 20
162.25394674224259
 30
0.0
 11
307.10763826995247
 21
162.25394674224259
 31
0.0
  0
LINE
  5
3AB5
  8
AM_0
 10
300.10767826995271
 20
173.7139407422427
 30
0.0
 11
307.10763826995247
 21
173.7139407422427
 31
0.0
  0
LINE
  5
3AB6
  8
AM_0
 10
197.10762826995261
 20
179.40394174224269
 30
0.0
 11
299.10762826995273
 21
179.40394174224269
 31
0.0
  0
LINE
  5
3AB7
  8
AM_0
 10
298.81764826995271
 20
174.72393574224279
 30
0.0
 11
296.40768826995247
 21
174.72393574224279
 31
0.0
  0
LINE
  5
3AB8
  8
AM_0
 10
295.90761826995248
 20
166.83393574224269
 30
0.0
 11
297.34761826995259
 21
173.53393174224269
 31
0.0
  0
LINE
  5
3AB9
  8
AM_0
 10
293.81763826995262
 20
165.25394974224261
 30
0.0
 11
299.10762826995273
 21
165.25394974224261
 31
0.0
  0
LINE
  5
3ABA
  8
AM_0
 10
156.78762826995259
 20
192.38392474224281
 30
0.0
 11
200.1076282699527
 21
192.38392474224281
 31
0.0
  0
LINE
  5
3ABB
  8
AM_0
 10
200.1076282699527
 20
189.7539327422428
 30
0.0
 11
157.65768826995259
 21
189.75393274224271
 31
0.0
  0
LINE
  5
3ABC
  8
AM_0
 10
156.78762826995259
 20
189.0339477422427
 30
0.0
 11
200.1076282699527
 21
189.0339477422427
 31
0.0
  0
LINE
  5
3ABD
  8
AM_0
 10
152.6076382699525
 20
191.4539307422427
 30
0.0
 11
155.27766826995261
 21
191.4539307422427
 31
0.0
  0
LINE
  5
3ABE
  8
AM_0
 10
158.27766826995261
 20
167.49393874224279
 30
0.0
 11
171.6076282699527
 21
167.49393874224279
 31
0.0
  0
LINE
  5
3ABF
  8
AM_0
 10
175.1076382699525
 20
163.8939327422425
 30
0.0
 11
291.91761826995253
 21
163.8939327422425
 31
0.0
  0
LINE
  5
3AC0
  8
AM_0
 10
158.21760826995259
 20
162.45394474224261
 30
0.0
 11
171.71760826995259
 21
162.45394474224261
 31
0.0
  0
LINE
  5
3AC1
  8
AM_0
 10
158.33766826995259
 20
172.77392374224269
 30
0.0
 11
171.6076282699527
 21
172.77392374224269
 31
0.0
  0
LINE
  5
3AC2
  8
AM_0
 10
155.8275982699526
 20
177.40394374224269
 30
0.0
 11
156.3676282699526
 21
174.4139367422427
 31
0.0
  0
LINE
  5
3AC3
  8
AM_0
 10
152.6076382699525
 20
177.40392874224261
 30
0.0
 11
162.1076782699526
 21
177.40392874224281
 31
0.0
  0
LINE
  5
3AC4
  8
AM_0
 10
162.1076782699526
 20
177.40392874224281
 30
0.0
 11
162.1076782699526
 21
191.4539307422427
 31
0.0
  0
LINE
  5
3AC5
  8
AM_0
 10
293.84760826995262
 20
165.37394374224269
 30
0.0
 11
297.3076282699526
 21
178.29394174224271
 31
0.0
  0
LINE
  5
3AC6
  8
AM_0
 10
156.2775982699527
 20
163.9639407422427
 30
0.0
 11
155.3875882699526
 21
167.50393174224271
 31
0.0
  0
LINE
  5
3AC7
  8
AM_0
 10
156.29763826995261
 20
165.62394274224269
 30
0.0
 11
155.37759826995261
 21
169.50394774224259
 31
0.0
  0
LINE
  5
3AC8
  8
AM_0
 10
230.1076282699527
 20
161.84393074224269
 30
0.0
 11
230.1076282699527
 21
163.8939327422425
 31
0.0
  0
LINE
  5
3AC9
  8
AM_0
 10
173.10762826995261
 20
163.8639477422424
 30
0.0
 11
173.10762826995261
 21
171.27392074224261
 31
0.0
  0
LINE
  5
3ACA
  8
AM_0
 10
153.93762826995271
 20
168.63393874224269
 30
0.0
 11
155.5876582699525
 21
168.63393874224269
 31
0.0
  0
LINE
  5
3ACB
  8
AM_0
 10
197.10762826995261
 20
272.10392074224262
 30
0.0
 11
299.10762826995273
 21
272.10392074224262
 31
0.0
  0
LINE
  5
3ACC
  8
AM_0
 10
299.10762826995273
 20
288.25394074224272
 30
0.0
 11
299.10762826995273
 21
163.25393374224271
 31
0.0
  0
LINE
  5
3ACD
  8
AM_0
 10
300.10767826995271
 20
289.25393074224269
 30
0.0
 11
307.10763826995247
 21
289.25393074224269
 31
0.0
  0
LINE
  5
3ACE
  8
AM_0
 10
299.10762826995273
 20
262.9039287422429
 30
0.0
 11
307.10763826995247
 21
262.9039287422429
 31
0.0
  0
LINE
  5
3ACF
  8
AM_0
 10
300.10767826995271
 20
277.79390074224273
 30
0.0
 11
307.10763826995247
 21
277.79390074224273
 31
0.0
  0
LINE
  5
3AD0
  8
AM_0
 10
299.10762826995273
 20
188.60393974224269
 30
0.0
 11
307.10763826995247
 21
188.60393974224269
 31
0.0
  0
LINE
  5
3AD1
  8
AM_0
 10
152.6076382699525
 20
283.19638205405118
 30
0.0
 11
154.92756826995259
 21
283.25396074224261
 31
0.0
  0
LINE
  5
3AD2
  8
AM_0
 10
162.1076782699526
 20
274.10393074224282
 30
0.0
 11
162.1076782699526
 21
260.06393374224268
 31
0.0
  0
LINE
  5
3AD3
  8
AM_0
 10
152.6076382699525
 20
260.06393374224268
 30
0.0
 11
162.1076782699526
 21
260.06393374224268
 31
0.0
  0
LINE
  5
3AD4
  8
AM_0
 10
152.6076382699525
 20
268.44395074224269
 30
0.0
 11
162.1076782699526
 21
268.44395074224269
 31
0.0
  0
LINE
  5
3AD5
  8
AM_0
 10
152.6076382699525
 20
274.10393074224282
 30
0.0
 11
162.1076782699526
 21
274.10393074224282
 31
0.0
  0
LINE
  5
3AD6
  8
AM_0
 10
177.3993066032848
 20
211.7539497422427
 30
0.0
 11
157.65768826995259
 21
211.7539497422427
 31
0.0
  0
LINE
  5
3AD7
  8
AM_0
 10
175.1076382699525
 20
287.61395074224282
 30
0.0
 11
291.91761826995253
 21
287.61395074224282
 31
0.0
  0
LINE
  5
3AD8
  8
AM_0
 10
158.33766826995259
 20
278.7339507422426
 30
0.0
 11
171.6076282699527
 21
278.7339507422426
 31
0.0
  0
LINE
  5
3AD9
  8
AM_0
 10
155.82765826995259
 20
274.1039607422428
 30
0.0
 11
156.3676282699526
 21
277.09397074224279
 31
0.0
  0
LINE
  5
3ADA
  8
AM_0
 10
158.27766826995261
 20
284.02391074224272
 30
0.0
 11
171.6076282699527
 21
284.02391074224272
 31
0.0
  0
LINE
  5
3ADB
  8
AM_0
 10
158.2476382699526
 20
287.42393074224282
 30
0.0
 11
171.6076282699527
 21
287.42393074224282
 31
0.0
  0
LINE
  5
3ADC
  8
AM_0
 10
158.21760826995259
 20
289.05392074224272
 30
0.0
 11
171.71760826995259
 21
289.05392074224272
 31
0.0
  0
LINE
  5
3ADD
  8
AM_0
 10
175.1076382699525
 20
291.67394074224268
 30
0.0
 11
228.10767826995269
 21
291.67394074224268
 31
0.0
  0
LINE
  5
3ADE
  8
AM_0
 10
175.1076382699525
 20
290.9939307422427
 30
0.0
 11
228.10767826995269
 21
290.9939307422427
 31
0.0
  0
LINE
  5
3ADF
  8
AM_0
 10
175.1076382699525
 20
289.64396074224271
 30
0.0
 11
228.10767826995269
 21
289.64396074224271
 31
0.0
  0
LINE
  5
3AE0
  8
AM_0
 10
153.8976082699526
 20
276.79394074224263
 30
0.0
 11
156.3076282699526
 21
276.79394074224263
 31
0.0
  0
LINE
  5
3AE1
  8
AM_0
 10
156.31758826995261
 20
282.44396074224261
 30
0.0
 11
155.35755826995259
 21
277.97396074224253
 31
0.0
  0
LINE
  5
3AE2
  8
AM_0
 10
153.91761826995261
 20
280.85393074224282
 30
0.0
 11
155.97768826995241
 21
280.85393074224282
 31
0.0
  0
LINE
  5
3AE3
  8
AM_0
 10
200.1076282699527
 20
261.75393574224279
 30
0.0
 11
166.65768826995259
 21
261.75393574224279
 31
0.0
  0
LINE
  5
3AE4
  8
AM_0
 10
200.1076282699527
 20
259.75393474224279
 30
0.0
 11
166.65768826995259
 21
259.75393474224268
 31
0.0
  0
LINE
  5
3AE5
  8
AM_0
 10
173.70895837360681
 20
251.7539367422427
 30
0.0
 11
166.65738146828701
 21
251.75393674224259
 31
0.0
  0
LINE
  5
3AE6
  8
AM_0
 10
156.29763826995261
 20
285.88394074224283
 30
0.0
 11
155.3776582699526
 21
282.00395074224281
 31
0.0
  0
LINE
  5
3AE7
  8
AM_0
 10
171.30895717360681
 20
249.75393574224279
 30
0.0
 11
166.65768826995259
 21
249.75393574224279
 31
0.0
  0
LINE
  5
3AE8
  8
AM_0
 10
153.93762826995271
 20
282.87392074224277
 30
0.0
 11
155.5876582699525
 21
282.87392074224277
 31
0.0
  0
LINE
  5
3AE9
  8
AM_0
 10
156.2775982699527
 20
287.54393074224282
 30
0.0
 11
155.3875882699526
 21
284.01395074224263
 31
0.0
  0
LINE
  5
3AEA
  8
AM_0
 10
170.70895717360671
 20
241.75393474224279
 30
0.0
 11
157.65768826995259
 21
241.75393474224271
 31
0.0
  0
LINE
  5
3AEB
  8
AM_0
 10
173.10762826995261
 20
287.64392074224281
 30
0.0
 11
173.10762826995261
 21
280.23395074224271
 31
0.0
  0
LINE
  5
3AEC
  8
AM_0
 10
170.70895717360671
 20
239.7539367422427
 30
0.0
 11
157.65768826995259
 21
239.7539367422427
 31
0.0
  0
LINE
  5
3AED
  8
AM_0
 10
171.3089571736063
 20
231.75393574224279
 30
0.0
 11
157.65768826995259
 21
231.75393574224279
 31
0.0
  0
LINE
  5
3AEE
  8
AM_0
 10
230.1076282699527
 20
289.67393074224282
 30
0.0
 11
230.1076282699527
 21
287.61395074224282
 31
0.0
  0
LINE
  5
3AEF
  8
AM_0
 10
174.07100710878859
 20
229.75393474224271
 30
0.0
 11
157.65768826995259
 21
229.75393474224271
 31
0.0
  0
LINE
  5
3AF0
  8
AM_0
 10
293.84760826995262
 20
286.1339307422428
 30
0.0
 11
297.3076282699526
 21
273.21395074224267
 31
0.0
  0
LINE
  5
3AF1
  8
AM_0
 10
293.81763826995262
 20
286.25393074224269
 30
0.0
 11
299.10762826995273
 21
286.25393074224269
 31
0.0
  0
LINE
  5
3AF2
  8
AM_0
 10
298.81764826995271
 20
276.79394074224263
 30
0.0
 11
296.40768826995247
 21
276.79394074224263
 31
0.0
  0
LINE
  5
3AF3
  8
AM_0
 10
295.90767826995261
 20
284.67395074224271
 30
0.0
 11
297.3476782699525
 21
277.97396074224253
 31
0.0
  0
LINE
  5
3AF4
  8
AM_0
 10
175.1076382699525
 20
159.83393374224269
 30
0.0
 11
228.10767826995269
 21
159.83393374224269
 31
0.0
  0
LINE
  5
3AF5
  8
AM_0
 10
158.2476382699526
 20
164.08394974224279
 30
0.0
 11
171.6076282699527
 21
164.08394974224279
 31
0.0
  0
LINE
  5
3AF6
  8
AM_0
 10
152.6076382699525
 20
183.06392974224269
 30
0.0
 11
162.1076782699526
 21
183.06392974224269
 31
0.0
  0
LINE
  5
3AF7
  8
AM_0
 10
175.1076382699525
 20
160.5139437422427
 30
0.0
 11
228.10767826995269
 21
160.5139437422427
 31
0.0
  0
LINE
  5
3AF8
  8
AM_0
 10
153.91761826995261
 20
170.65392574224259
 30
0.0
 11
155.97768826995241
 21
170.65392574224259
 31
0.0
  0
LINE
  5
3AF9
  8
AM_0
 10
153.8976082699526
 20
174.72393574224279
 30
0.0
 11
156.3076282699526
 21
174.72393574224279
 31
0.0
  0
LINE
  5
3AFA
  8
AM_0
 10
156.3176482699526
 20
169.07393974224269
 30
0.0
 11
155.35761826995261
 21
173.53393174224269
 31
0.0
  0
LINE
  5
3AFB
  8
AM_0
 10
175.1076382699525
 20
161.86393474224269
 30
0.0
 11
228.10767826995269
 21
161.86393474224269
 31
0.0
  0
LINE
  5
3AFC
  8
AM_0
 10
156.56763826995251
 20
199.26392974224279
 30
0.0
 11
177.80763326995171
 21
199.26392974224279
 31
0.0
  0
LINE
  5
3AFD
  8
AM_0
 10
200.1076282699527
 20
191.75393374224279
 30
0.0
 11
158.09766826995269
 21
191.75393374224271
 31
0.0
  0
LINE
  5
3AFE
  8
AM_0
 10
165.78762826995259
 20
262.47393574224282
 30
0.0
 11
200.1076282699527
 21
262.47393574224282
 31
0.0
  0
LINE
  5
3AFF
  8
AM_0
 10
165.78762826995259
 20
259.12393174224269
 30
0.0
 11
200.1076282699527
 21
259.12393174224269
 31
0.0
  0
LINE
  5
3B00
  8
AM_0
 10
165.56763826995251
 20
252.24392674224271
 30
0.0
 11
181.20895717360639
 21
252.24392674224271
 31
0.0
  0
LINE
  5
3B01
  8
AM_0
 10
183.70895717360671
 20
252.24392674224271
 30
0.0
 11
191.1076282699525
 21
252.24392674224271
 31
0.0
  0
LINE
  5
3B02
  8
AM_0
 10
165.56763826995251
 20
249.3139317422428
 30
0.0
 11
170.85994354389311
 21
249.3139317422426
 31
0.0
  0
LINE
  5
3B03
  8
AM_0
 10
156.4376482699526
 20
242.09393074224261
 30
0.0
 11
170.70895717360671
 21
242.09393074224261
 31
0.0
  0
LINE
  5
3B04
  8
AM_0
 10
156.4376482699526
 20
239.43392674224279
 30
0.0
 11
170.70895717360671
 21
239.43392674224279
 31
0.0
  0
LINE
  5
3B05
  8
AM_0
 10
156.3776482699526
 20
232.02392374224269
 30
0.0
 11
170.984971573606
 21
232.02392374224269
 31
0.0
  0
LINE
  5
3B06
  8
AM_0
 10
156.3776482699526
 20
229.4939247422428
 30
0.0
 11
181.20895717360639
 21
229.4939247422428
 31
0.0
  0
LINE
  5
3B07
  8
AM_0
 10
156.3776482699526
 20
222.02393974224279
 30
0.0
 11
199.1076282699527
 21
222.02393974224279
 31
0.0
  0
LINE
  5
3B08
  8
AM_0
 10
199.1076282699527
 20
219.75393574224279
 30
0.0
 11
157.65768826995259
 21
219.75393574224279
 31
0.0
  0
LINE
  5
3B09
  8
AM_0
 10
199.1076282699527
 20
221.75393374224271
 30
0.0
 11
157.65768826995259
 21
221.75393374224271
 31
0.0
  0
LINE
  5
3B0A
  8
AM_0
 10
156.4376482699526
 20
212.07394174224271
 30
0.0
 11
177.66596660328409
 21
212.07394174224271
 31
0.0
  0
LINE
  5
3B0B
  8
AM_0
 10
172.10762826995261
 20
209.75393374224279
 30
0.0
 11
157.65768826995259
 21
209.75393374224279
 31
0.0
  0
LINE
  5
3B0C
  8
AM_0
 10
156.4376482699526
 20
209.4139227422427
 30
0.0
 11
172.10762826995261
 21
209.41392274224279
 31
0.0
  0
LINE
  5
3B0D
  8
AM_0
 10
172.1076282699525
 20
201.7539327422428
 30
0.0
 11
157.65768826995259
 21
201.7539327422428
 31
0.0
  0
LINE
  5
3B0E
  8
AM_0
 10
156.56763826995251
 20
202.1939367422427
 30
0.0
 11
172.10762826995261
 21
202.1939367422427
 31
0.0
  0
LINE
  5
3B0F
  8
AM_0
 10
177.39928326995241
 20
199.7539497422427
 30
0.0
 11
157.65768826995259
 21
199.7539497422427
 31
0.0
  0
LINE
  5
3B10
  8
AM_0
 10
156.3776482699526
 20
219.4839447422427
 30
0.0
 11
199.1076282699527
 21
219.4839447422427
 31
0.0
  0
ARC
  5
3B11
  8
AM_0
 10
165.24831826995259
 20
184.53481774224269
 30
0.0
 40
1.00423602
 50
314.93782999999922
 51
5.6649239000010914
  0
ARC
  5
3B12
  8
AM_0
 10
300.1078582699526
 20
163.2541167422427
 30
0.0
 40
1.0001800499999991
 50
180.01030999999901
 51
269.98967999999991
  0
ARC
  5
3B13
  8
AM_0
 10
291.91230826995252
 20
165.89931874224271
 30
0.0
 40
2.0053919100000002
 50
270.15274999999968
 51
344.81207000000018
  0
ARC
  5
3B14
  8
AM_0
 10
300.10713826995271
 20
174.7134057422424
 30
0.0
 40
0.99947604
 50
179.97008999999869
 51
270.02992000000029
  0
ARC
  5
3B15
  8
AM_0
 10
158.32869826995261
 20
276.74150074224269
 30
0.0
 40
1.9924480200000001
 50
89.742108000000741
 51
169.81178999999909
  0
ARC
  5
3B16
  8
AM_0
 10
158.2724782699527
 20
282.02465074224273
 30
0.0
 40
1.9992880199999981
 50
89.851814999999618
 51
167.89433000000099
  0
ARC
  5
3B17
  8
AM_0
 10
153.8919382699525
 20
278.29415074224278
 30
0.0
 40
1.5002480099999991
 50
270.21662000000089
 51
347.67499999999922
  0
ARC
  5
3B18
  8
AM_0
 10
158.23971826995259
 20
285.42941074224279
 30
0.0
 40
1.9945160699999991
 50
89.771334999999524
 51
166.8280399999995
  0
ARC
  5
3B19
  8
AM_0
 10
153.9160882699525
 20
282.35774074224281
 30
0.0
 40
1.5037760099999991
 50
270.0598400000012
 51
346.39312999999879
  0
ARC
  5
3B1A
  8
AM_0
 10
153.92892826995259
 20
284.37713074224268
 30
0.0
 40
1.5032320499999969
 50
270.33131999999961
 51
346.01803000000137
  0
ARC
  5
3B1B
  8
AM_0
 10
158.21418826995259
 20
287.05712074224289
 30
0.0
 40
1.996816109999999
 50
89.901436000000672
 51
165.88941000000139
  0
ARC
  5
3B1C
  8
AM_0
 10
175.1030482699525
 20
285.61856074224272
 30
0.0
 40
1.9953641399999991
 50
89.866758999999234
 51
180.13323000000119
  0
ARC
  5
3B1D
  8
AM_0
 10
175.1038282699524
 20
287.64773074224269
 30
0.0
 40
1.99618809
 50
89.890486999999737
 51
180.10951000000031
  0
ARC
  5
3B1E
  8
AM_0
 10
175.1012182699526
 20
289.00040074224268
 30
0.0
 40
1.993556189999999
 50
89.814515000000938
 51
180.1854899999997
  0
ARC
  5
3B1F
  8
AM_0
 10
175.10316826995259
 20
289.67519074224271
 30
0.0
 40
1.998724049999999
 50
89.871136999999536
 51
165.55095999999921
  0
ARC
  5
3B20
  8
AM_0
 10
171.6009682699526
 20
280.24064074224282
 30
0.0
 40
1.5066999599999991
 50
270.25416000000098
 51
359.74583999999908
  0
ARC
  5
3B21
  8
AM_0
 10
171.6048082699526
 20
285.5267607422428
 30
0.0
 40
1.5028360199999991
 50
270.10793999999891
 51
359.89206000000121
  0
ARC
  5
3B22
  8
AM_0
 10
171.6027982699527
 20
288.92879074224282
 30
0.0
 40
1.5048719999999991
 50
270.1851800000012
 51
359.81481999999869
  0
ARC
  5
3B23
  8
AM_0
 10
171.71424826995261
 20
290.55695074224269
 30
0.0
 40
1.50301605
 50
270.12944999999991
 51
345.2365400000013
  0
ARC
  5
3B24
  8
AM_0
 10
228.10671826995261
 20
287.6429907422426
 30
0.0
 40
2.0009239199999991
 50
0.0264629989995744
 51
89.973535999999072
  0
ARC
  5
3B25
  8
AM_0
 10
228.10932826995261
 20
288.99563074224272
 30
0.0
 40
1.9982920200000001
 50
359.95103000000051
 51
90.048974999998521
  0
ARC
  5
3B26
  8
AM_0
 10
228.1058482699525
 20
289.67213074224281
 30
0.0
 40
2.0018279999999971
 50
0.0523009999990686
 51
89.947697000000545
  0
ARC
  5
3B27
  8
AM_0
 10
298.7578882699525
 20
273.6063207422427
 30
0.0
 40
1.50239199
 50
195.14001000000141
 51
269.99063999999998
  0
ARC
  5
3B28
  8
AM_0
 10
291.91719826995268
 20
285.61496074224272
 30
0.0
 40
1.99898796
 50
15.04780099999898
 51
89.98737299999874
  0
ARC
  5
3B29
  8
AM_0
 10
300.10269826995273
 20
288.25889074224273
 30
0.0
 40
0.9950640599999999
 50
89.714938000000444
 51
180.28506000000129
  0
ARC
  5
3B2A
  8
AM_0
 10
300.10200826995248
 20
276.79955074224279
 30
0.0
 40
0.99440004
 50
89.676491000000041
 51
180.32351000000079
  0
ARC
  5
3B2B
  8
AM_0
 10
298.81350826995248
 20
278.29439074224263
 30
0.0
 40
1.500476039999997
 50
192.3322299999987
 51
270.15827999999971
  0
ARC
  5
3B2C
  8
AM_0
 10
293.9550982699526
 20
284.25746074224247
 30
0.0
 40
1.9964880300000001
 50
12.04087499999966
 51
89.926440999999343
  0
ARC
  5
3B2D
  8
AM_0
 10
161.26593826995261
 20
267.34673974224268
 30
0.0
 40
5.0041124999999971
 50
279.6835699999998
 51
354.57834000000122
  0
ARC
  5
3B2E
  8
AM_0
 10
161.72841826995261
 20
263.42102074224277
 30
0.0
 40
6.0049157999999991
 50
45.227306999999072
 51
86.379093999999796
  0
ARC
  5
3B2F
  8
AM_0
 10
165.25161826995259
 20
266.9742117422428
 30
0.0
 40
1.001108069999999
 50
354.25024999999829
 51
45.146993999999637
  0
ARC
  5
3B30
  8
AM_0
 10
293.95008826995257
 20
167.25654274224269
 30
0.0
 40
2.0026238699999981
 50
270.21534000000139
 51
347.8173399999996
  0
ARC
  5
3B31
  8
AM_0
 10
298.81470826995252
 20
173.2246197422426
 30
0.0
 40
1.499328059999999
 50
89.888151000000079
 51
168.09384000000071
  0
ARC
  5
3B32
  8
AM_0
 10
161.73762826995261
 20
188.10111574224271
 30
0.0
 40
6.0085923000000001
 50
273.53094999999939
 51
314.61478000000108
  0
ARC
  5
3B33
  8
AM_0
 10
161.2710082699524
 20
184.16585974224279
 30
0.0
 40
4.9985837999999987
 50
5.373119900000928
 51
80.36497600000034
  0
ARC
  5
3B34
  8
AM_0
 10
158.33370826995241
 20
174.7723647422427
 30
0.0
 40
1.998444029999999
 50
190.3324000000008
 51
270.11369000000047
  0
ARC
  5
3B35
  8
AM_0
 10
158.27253826995261
 20
169.49331274224269
 30
0.0
 40
1.9993920899999991
 50
192.1080400000011
 51
270.14581999999967
  0
ARC
  5
3B36
  8
AM_0
 10
153.89076826995259
 20
173.22485074224261
 30
0.0
 40
1.499099999999999
 50
11.89856000000028
 51
89.736658000000475
  0
ARC
  5
3B37
  8
AM_0
 10
158.24463826995259
 20
166.08469774224261
 30
0.0
 40
2.0007560699999991
 50
193.31416000000041
 51
270.0864499999999
  0
ARC
  5
3B38
  8
AM_0
 10
153.92103826995259
 20
169.15643074224269
 30
0.0
 40
1.497512039999999
 50
13.41823300000142
 51
90.128792999998822
  0
ARC
  5
3B39
  8
AM_0
 10
153.9354382699525
 20
167.1358137422427
 30
0.0
 40
1.4981280899999969
 50
14.224575000000939
 51
89.916113999998913
  0
ARC
  5
3B3A
  8
AM_0
 10
158.21913826995251
 20
164.45707474224261
 30
0.0
 40
2.0031319199999991
 50
194.2515899999988
 51
269.9575499999994
  0
ARC
  5
3B3B
  8
AM_0
 10
175.10811826995271
 20
165.89437474224269
 30
0.0
 40
2.000452109999999
 50
180.01290000000029
 51
269.98709999999971
  0
ARC
  5
3B3C
  8
AM_0
 10
175.10895826995261
 20
163.86524674224279
 30
0.0
 40
2.0013120899999981
 50
180.03755999999879
 51
269.9624400000011
  0
ARC
  5
3B3D
  8
AM_0
 10
175.1062882699525
 20
162.51255274224269
 30
0.0
 40
1.9986199799999991
 50
179.96046999999851
 51
270.03953000000138
  0
ARC
  5
3B3E
  8
AM_0
 10
175.10157826995271
 20
161.84399074224271
 30
0.0
 40
2.0000761200000001
 50
194.7749800000019
 51
270.17352999999849
  0
ARC
  5
3B3F
  8
AM_0
 10
171.60609826995261
 20
171.27236674224261
 30
0.0
 40
1.5015680099999991
 50
0.0598050030010001
 51
89.940196999999216
  0
ARC
  5
3B40
  8
AM_0
 10
171.60492826995261
 20
165.99122374224271
 30
0.0
 40
1.50271599
 50
0.1034359999993177
 51
89.896566000000192
  0
ARC
  5
3B41
  8
AM_0
 10
171.60792826995271
 20
162.5841777422427
 30
0.0
 40
1.49975601
 50
359.99059000000068
 51
90.009407999999681
  0
ARC
  5
3B42
  8
AM_0
 10
171.71919826995261
 20
160.9572867422427
 30
0.0
 40
1.49664405
 50
14.57573999999874
 51
90.058277999998381
  0
ARC
  5
3B43
  8
AM_0
 10
228.1016482699527
 20
163.86995974224271
 30
0.0
 40
2.0060480100000002
 50
270.17248999999867
 51
359.82751000000121
  0
ARC
  5
3B44
  8
AM_0
 10
228.10425826995271
 20
162.51729874224259
 30
0.0
 40
2.0033560499999981
 50
270.09594000000141
 51
359.90405999999848
  0
ARC
  5
3B45
  8
AM_0
 10
228.10572826995261
 20
161.84582074224269
 30
0.0
 40
2.0019000299999981
 50
270.05438000000072
 51
359.94561999999922
  0
ARC
  5
3B46
  8
AM_0
 10
298.75302826995272
 20
177.90795574224271
 30
0.0
 40
1.49599605
 50
89.82170699999979
 51
165.0476599999985
  0
ARC
  5
3B47
  8
AM_0
 10
174.10287826995261
 20
260.75393674224267
 30
0.0
 40
1.000011959999999
 50
89.726507999999697
 51
270.27347999999972
  0
ARC
  5
3B48
  8
AM_0
 10
156.3718582699525
 20
230.7589407422428
 30
0.0
 40
1.26501207
 50
89.737716000001512
 51
270.26227999999981
  0
ARC
  5
3B49
  8
AM_0
 10
156.4376482699526
 20
240.76394374224279
 30
0.0
 40
1.330008059999999
 50
90.000003000000945
 51
270.0
  0
ARC
  5
3B4A
  8
AM_0
 10
165.56763826995251
 20
250.77893074224281
 30
0.0
 40
1.465004009999999
 50
90.000003000000945
 51
270.0
  0
ARC
  5
3B4B
  8
AM_0
 10
165.78078826995261
 20
260.79891874224279
 30
0.0
 40
1.675016099999997
 50
89.766540000000646
 51
270.23345999999941
  0
ARC
  5
3B4C
  8
AM_0
 10
157.65768826995259
 20
230.75393374224279
 30
0.0
 40
1.0000000199999981
 50
90.000003000000945
 51
270.0
  0
ARC
  5
3B4D
  8
AM_0
 10
157.65768826995259
 20
240.75393574224279
 30
0.0
 40
1.0000000199999981
 50
90.000003000000945
 51
270.0
  0
ARC
  5
3B4E
  8
AM_0
 10
166.65291826995261
 20
260.75393674224267
 30
0.0
 40
1.000011959999999
 50
89.728447999999375
 51
270.27153999999882
  0
ARC
  5
3B4F
  8
AM_0
 10
166.65291826995261
 20
250.75393474224271
 30
0.0
 40
1.000011959999999
 50
89.728447999999375
 51
270.27153999999882
  0
ARC
  5
3B50
  8
AM_0
 10
295.92762826995261
 20
260.79891874224279
 30
0.0
 40
1.675004159999999
 50
276.1690557384461
 51
83.83094426155381
  0
ARC
  5
3B51
  8
AM_0
 10
295.92762826995261
 20
190.70894974224279
 30
0.0
 40
1.675004159999999
 50
276.16905573844969
 51
83.830944261550229
  0
ARC
  5
3B52
  8
AM_0
 10
157.65768826995259
 20
220.7539497422427
 30
0.0
 40
1.0000000199999981
 50
90.000003000000945
 51
270.0
  0
ARC
  5
3B53
  8
AM_0
 10
174.10287826995261
 20
210.75393574224279
 30
0.0
 40
1.000011959999999
 50
89.726507999999697
 51
227.40544825727639
  0
ARC
  5
3B54
  8
AM_0
 10
174.10287826995261
 20
200.75393374224271
 30
0.0
 40
1.000011959999999
 50
132.59438434211481
 51
270.27347999999972
  0
ARC
  5
3B55
  8
AM_0
 10
156.4376482699526
 20
210.74393974224279
 30
0.0
 40
1.330008059999999
 50
90.000003000000945
 51
270.0
  0
ARC
  5
3B56
  8
AM_0
 10
156.56763826995251
 20
200.7289407422428
 30
0.0
 40
1.465004009999999
 50
90.000003000000945
 51
270.0
  0
ARC
  5
3B57
  8
AM_0
 10
157.65291826995261
 20
190.7539497422427
 30
0.0
 40
1.000011959999999
 50
89.728462000000377
 51
270.27153999999882
  0
ARC
  5
3B58
  8
AM_0
 10
174.10287826995261
 20
190.7539497422427
 30
0.0
 40
1.000011959999999
 50
89.726507999999697
 51
270.27347999999972
  0
ARC
  5
3B59
  8
AM_0
 10
156.3718582699525
 20
220.7539497422427
 30
0.0
 40
1.2700120500000001
 50
89.738748000000555
 51
270.26124000000118
  0
ARC
  5
3B5A
  8
AM_0
 10
156.78078826995261
 20
190.70894974224279
 30
0.0
 40
1.675016099999997
 50
89.764983000000569
 51
270.23500999999908
  0
ARC
  5
3B5B
  8
AM_0
 10
157.65768826995259
 20
210.75393574224279
 30
0.0
 40
1.0000000199999981
 50
90.000003000000945
 51
270.0
  0
ARC
  5
3B5C
  8
AM_0
 10
157.65291826995261
 20
200.75393374224271
 30
0.0
 40
1.000011959999999
 50
89.728462000000377
 51
270.27153999999882
  0
LINE
  5
3B5E
  8
ﾁｭｳｼﾝｾﾝ
 10
248.1076282699527
 20
276.7539357422429
 30
0.0
 11
248.1076282699527
 21
174.75393574224279
 31
0.0
  0
LINE
  5
3B5F
  8
AM_0
 10
292.10762826995278
 20
179.75393574224279
 30
0.0
 11
204.1076282699527
 21
179.75393574224279
 31
0.0
  0
ARC
  5
3B60
  8
AM_0
 10
222.17869608181809
 20
184.75393574224279
 30
0.0
 40
5.0
 50
225.0
 51
270.0
1001
GENIUS_GENOBJ-N-FIL_13
1002
{
1000
OWNER
1000
GEN
1002
}
1001
GENIUS_GENODEF_13
1002
{
1000
HIER
1070
     0
1002
}
1002
{
1000
MANEDIT
1070
     0
1002
}
1002
{
1000
NOSEL
1070
     0
1002
}
1002
{
1000
BEHIND
1070
     0
1002
}
1002
{
1000
OTHER
1070
     0
1002
}
1002
{
1000
REACTOR
1002
}
  0
LINE
  5
3B61
  8
AM_0
 10
273.37970620859488
 20
184.75393574224279
 30
0.0
 11
222.8355503313104
 21
184.75393574224279
 31
0.0
  0
ARC
  5
3B62
  8
AM_0
 10
273.37970620859488
 20
189.75393574224279
 30
0.0
 40
5.0
 50
270.0
 51
315.0
1001
GENIUS_GENOBJ-N-FIL_13
1002
{
1000
OWNER
1000
GEN
1002
}
1001
GENIUS_GENODEF_13
1002
{
1000
HIER
1070
     0
1002
}
1002
{
1000
MANEDIT
1070
     0
1002
}
1002
{
1000
NOSEL
1070
     0
1002
}
1002
{
1000
BEHIND
1070
     0
1002
}
1002
{
1000
OTHER
1070
     0
1002
}
1002
{
1000
REACTOR
1002
}
  0
ARC
  5
3B63
  8
AM_0
 10
292.10762826995278
 20
183.75393574224279
 30
0.0
 40
4.0
 50
270.0
 51
0.0
1001
GENIUS_GENOBJ-N-FIL_13
1002
{
1000
OWNER
1000
GEN
1002
}
1001
GENIUS_GENODEF_13
1002
{
1000
HIER
1070
     0
1002
}
1002
{
1000
MANEDIT
1070
     0
1002
}
1002
{
1000
NOSEL
1070
     0
1002
}
1002
{
1000
BEHIND
1070
     0
1002
}
1002
{
1000
OTHER
1070
     0
1002
}
1002
{
1000
REACTOR
1002
}
  0
LINE
  5
3B64
  8
AM_0
 10
292.10762826995261
 20
271.75393574224302
 30
0.0
 11
204.1076282699527
 21
271.75393574224302
 31
0.0
  0
ARC
  5
3B65
  8
AM_0
 10
274.03656045808708
 20
266.75393574224302
 30
0.0
 40
5.0
 50
45.0
 51
90.0
1001
GENIUS_GENOBJ-N-FIL_13
1002
{
1000
OWNER
1000
GEN
1002
}
1001
GENIUS_GENODEF_13
1002
{
1000
HIER
1070
     0
1002
}
1002
{
1000
MANEDIT
1070
     0
1002
}
1002
{
1000
NOSEL
1070
     0
1002
}
1002
{
1000
BEHIND
1070
     0
1002
}
1002
{
1000
OTHER
1070
     0
1002
}
1002
{
1000
REACTOR
1002
}
  0
ARC
  5
3B66
  8
AM_0
 10
222.17869608181829
 20
266.75393574224302
 30
0.0
 40
5.0
 50
90.0
 51
135.0
1001
GENIUS_GENODEF_13
1002
{
1000
HIER
1070
     0
1002
}
1002
{
1000
MANEDIT
1070
     0
1002
}
1002
{
1000
NOSEL
1070
     0
1002
}
1002
{
1000
BEHIND
1070
     0
1002
}
1002
{
1000
OTHER
1070
     0
1002
}
1002
{
1000
REACTOR
1002
}
1001
GENIUS_GENOBJ-N-FIL_13
1002
{
1000
OWNER
1000
GEN
1002
}
  0
LINE
  5
3B67
  8
AM_0
 10
273.37970620859488
 20
266.75393574224302
 30
0.0
 11
222.83555033131049
 21
266.75393574224302
 31
0.0
  0
ARC
  5
3B68
  8
AM_0
 10
222.83555033131049
 20
261.75393574224302
 30
0.0
 40
5.0
 50
90.0
 51
135.0
1001
GENIUS_GENODEF_13
1002
{
1000
HIER
1070
     0
1002
}
1002
{
1000
MANEDIT
1070
     0
1002
}
1002
{
1000
NOSEL
1070
     0
1002
}
1002
{
1000
BEHIND
1070
     0
1002
}
1002
{
1000
OTHER
1070
     0
1002
}
1002
{
1000
REACTOR
1002
}
1001
GENIUS_GENOBJ-N-FIL_13
1002
{
1000
OWNER
1000
GEN
1002
}
  0
ARC
  5
3B69
  8
AM_0
 10
204.1076282699527
 20
267.75393574224302
 30
0.0
 40
4.0
 50
90.0
 51
180.0
1001
GENIUS_GENODEF_13
1002
{
1000
HIER
1070
     0
1002
}
1002
{
1000
MANEDIT
1070
     0
1002
}
1002
{
1000
NOSEL
1070
     0
1002
}
1002
{
1000
BEHIND
1070
     0
1002
}
1002
{
1000
OTHER
1070
     0
1002
}
1002
{
1000
REACTOR
1002
}
1001
GENIUS_GENOBJ-N-FIL_13
1002
{
1000
OWNER
1000
GEN
1002
}
  0
LINE
  5
3B6A
  8
AM_0
 10
200.1076282699527
 20
267.75393574224302
 30
0.0
 11
200.1076282699527
 21
183.75393574224279
 31
0.0
  0
ARC
  5
3B6B
  8
AM_0
 10
205.1076282699527
 20
201.82500355410809
 30
0.0
 40
5.0
 50
180.0
 51
225.0
1001
GENIUS_GENOBJ-N-FIL_13
1002
{
1000
OWNER
1000
GEN
1002
}
1001
GENIUS_GENODEF_13
1002
{
1000
HIER
1070
     0
1002
}
1002
{
1000
MANEDIT
1070
     0
1002
}
1002
{
1000
NOSEL
1070
     0
1002
}
1002
{
1000
BEHIND
1070
     0
1002
}
1002
{
1000
OTHER
1070
     0
1002
}
1002
{
1000
REACTOR
1002
}
  0
ARC
  5
3B6C
  8
AM_0
 10
205.1076282699527
 20
249.68286793037771
 30
0.0
 40
5.0
 50
135.0
 51
180.0
1001
GENIUS_GENOBJ-N-FIL_13
1002
{
1000
OWNER
1000
GEN
1002
}
1001
GENIUS_GENODEF_13
1002
{
1000
HIER
1070
     0
1002
}
1002
{
1000
MANEDIT
1070
     0
1002
}
1002
{
1000
NOSEL
1070
     0
1002
}
1002
{
1000
BEHIND
1070
     0
1002
}
1002
{
1000
OTHER
1070
     0
1002
}
1002
{
1000
REACTOR
1002
}
  0
LINE
  5
3B6D
  8
AM_0
 10
205.1076282699527
 20
249.02601368088509
 30
0.0
 11
205.10762826995261
 21
202.48185780360049
 31
0.0
  0
ARC
  5
3B6E
  8
AM_0
 10
210.1076282699525
 20
202.48185780360049
 30
0.0
 40
5.0
 50
180.0
 51
225.0
1001
GENIUS_GENOBJ-N-FIL_13
1002
{
1000
OWNER
1000
GEN
1002
}
1001
GENIUS_GENODEF_13
1002
{
1000
HIER
1070
     0
1002
}
1002
{
1000
MANEDIT
1070
     0
1002
}
1002
{
1000
NOSEL
1070
     0
1002
}
1002
{
1000
BEHIND
1070
     0
1002
}
1002
{
1000
OTHER
1070
     0
1002
}
1002
{
1000
REACTOR
1002
}
  0
ARC
  5
3B6F
  8
AM_0
 10
204.1076282699527
 20
183.75393574224279
 30
0.0
 40
4.0
 50
180.0
 51
270.0
1001
GENIUS_GENODEF_13
1002
{
1000
HIER
1070
     0
1002
}
1002
{
1000
MANEDIT
1070
     0
1002
}
1002
{
1000
NOSEL
1070
     0
1002
}
1002
{
1000
BEHIND
1070
     0
1002
}
1002
{
1000
OTHER
1070
     0
1002
}
1002
{
1000
REACTOR
1002
}
1001
GENIUS_GENOBJ-N-FIL_13
1002
{
1000
OWNER
1000
GEN
1002
}
  0
LINE
  5
3B70
  8
AM_0
 10
296.10762826995273
 20
267.75393574224302
 30
0.0
 11
296.10762826995278
 21
183.75393574224279
 31
0.0
  0
ARC
  5
3B71
  8
AM_0
 10
291.1076282699529
 20
249.68286793037751
 30
0.0
 40
5.0
 50
0.0
 51
45.0
1001
GENIUS_GENOBJ-N-FIL_13
1002
{
1000
OWNER
1000
GEN
1002
}
1001
GENIUS_GENODEF_13
1002
{
1000
HIER
1070
     0
1002
}
1002
{
1000
MANEDIT
1070
     0
1002
}
1002
{
1000
NOSEL
1070
     0
1002
}
1002
{
1000
BEHIND
1070
     0
1002
}
1002
{
1000
OTHER
1070
     0
1002
}
1002
{
1000
REACTOR
1002
}
  0
ARC
  5
3B72
  8
AM_0
 10
291.1076282699529
 20
201.82500355410829
 30
0.0
 40
5.0
 50
315.0
 51
0.0
1001
GENIUS_GENOBJ-N-FIL_13
1002
{
1000
OWNER
1000
GEN
1002
}
1001
GENIUS_GENODEF_13
1002
{
1000
HIER
1070
     0
1002
}
1002
{
1000
MANEDIT
1070
     0
1002
}
1002
{
1000
NOSEL
1070
     0
1002
}
1002
{
1000
BEHIND
1070
     0
1002
}
1002
{
1000
OTHER
1070
     0
1002
}
1002
{
1000
REACTOR
1002
}
  0
LINE
  5
3B73
  8
AM_0
 10
277.5720943640199
 20
270.28946964817573
 30
0.0
 11
294.64316217588538
 21
253.21840183631031
 31
0.0
  0
LINE
  5
3B74
  8
AM_0
 10
276.91524011452748
 20
265.28946964817573
 30
0.0
 11
289.64316217588521
 21
252.56154758681811
 31
0.0
  0
ARC
  5
3B75
  8
AM_0
 10
273.37970620859488
 20
261.75393574224302
 30
0.0
 40
5.0
 50
45.0
 51
90.0
1001
GENIUS_GENOBJ-N-FIL_13
1002
{
1000
OWNER
1000
GEN
1002
}
1001
GENIUS_GENODEF_13
1002
{
1000
HIER
1070
     0
1002
}
1002
{
1000
MANEDIT
1070
     0
1002
}
1002
{
1000
NOSEL
1070
     0
1002
}
1002
{
1000
BEHIND
1070
     0
1002
}
1002
{
1000
OTHER
1070
     0
1002
}
1002
{
1000
REACTOR
1002
}
  0
LINE
  5
3B76
  8
AM_0
 10
291.1076282699525
 20
249.02601368088531
 30
0.0
 11
291.1076282699529
 21
202.48185780360049
 31
0.0
  0
ARC
  5
3B77
  8
AM_0
 10
286.10762826995261
 20
249.02601368088531
 30
0.0
 40
5.0
 50
0.0
 51
45.0
1001
GENIUS_GENODEF_13
1002
{
1000
HIER
1070
     0
1002
}
1002
{
1000
MANEDIT
1070
     0
1002
}
1002
{
1000
NOSEL
1070
     0
1002
}
1002
{
1000
BEHIND
1070
     0
1002
}
1002
{
1000
OTHER
1070
     0
1002
}
1002
{
1000
REACTOR
1002
}
1001
GENIUS_GENOBJ-N-FIL_13
1002
{
1000
OWNER
1000
GEN
1002
}
  0
ARC
  5
3B78
  8
AM_0
 10
292.10762826995261
 20
267.75393574224302
 30
0.0
 40
4.0
 50
0.0
 51
90.0
1001
GENIUS_GENODEF_13
1002
{
1000
HIER
1070
     0
1002
}
1002
{
1000
MANEDIT
1070
     0
1002
}
1002
{
1000
NOSEL
1070
     0
1002
}
1002
{
1000
BEHIND
1070
     0
1002
}
1002
{
1000
OTHER
1070
     0
1002
}
1002
{
1000
REACTOR
1002
}
1001
GENIUS_GENOBJ-N-FIL_13
1002
{
1000
OWNER
1000
GEN
1002
}
  0
LINE
  5
3B79
  8
ﾁｭｳｼﾝｾﾝ1
 10
291.10762826995409
 20
260.7539357422425
 30
0.0
 11
291.10762826995477
 21
272.75393574224262
 31
0.0
  0
LINE
  5
3B7A
  8
ﾁｭｳｼﾝｾﾝ1
 10
297.10762826995449
 20
266.75393574224228
 30
0.0
 11
285.10762826995449
 21
266.75393574224302
 31
0.0
  0
LINE
  5
3B7B
  8
AM_0
 10
196.6076282699527
 20
254.2539357422429
 30
0.0
 11
199.1076282699525
 21
254.2539357422431
 31
0.0
  0
LINE
  5
3B7C
  8
AM_0
 10
199.1076282699527
 20
227.2539357422429
 30
0.0
 11
196.6076282699527
 21
227.2539357422429
 31
0.0
  0
LINE
  5
3B7D
  8
AM_0
 10
185.70895717360639
 20
230.25393574224299
 30
0.0
 11
185.70895717360639
 21
251.25393574224299
 31
0.0
  0
LINE
  5
3B7E
  8
AM_0
 10
170.70895717360671
 20
248.78556079625801
 30
0.0
 11
170.70895717360671
 21
232.722310688227
 31
0.0
  0
LINE
  5
3B7F
  8
AM_0
 10
183.70895717360671
 20
228.75393574224299
 30
0.0
 11
183.70895717360671
 21
252.75393574224299
 31
0.0
  0
LINE
  5
3B80
  8
AM_0
 10
174.20895717360659
 20
240.75393574224299
 30
0.0
 11
174.70895717360671
 21
240.25393574224299
 31
0.0
  0
LINE
  5
3B81
  8
AM_0
 10
181.20895717360639
 20
252.453935742243
 30
0.0
 11
181.20895717360639
 21
229.053935742243
 31
0.0
  0
LINE
  5
3B82
  8
AM_0
 10
191.1076282699525
 20
252.2539357422429
 30
0.0
 11
191.1076282699525
 21
229.2539357422429
 31
0.0
  0
LINE
  5
3B83
  8
AM_0
 10
185.20895717360639
 20
240.05393574224101
 30
0.0
 11
185.20895717360639
 21
241.453935742244
 31
0.0
  0
LINE
  5
3B84
  8
AM_0
 10
187.3085929001777
 20
231.65393574224299
 30
0.0
 11
186.55859290017861
 21
249.85393574224301
 31
0.0
  0
LINE
  5
3B85
  8
AM_0
 10
186.3576282699527
 20
231.65393574224299
 30
0.0
 11
185.70895717360639
 21
247.39502101355899
 31
0.0
  0
LINE
  5
3B86
  8
AM_0
 10
187.10632086052439
 20
230.938277029879
 30
0.0
 11
186.35906081711661
 21
250.56630750341
 31
0.0
  0
LINE
  5
3B87
  8
AM_0
 10
186.55716035301461
 20
230.94156398107501
 30
0.0
 11
185.80859290017861
 21
250.6039357422429
 31
0.0
  0
LINE
  5
3B88
  8
AM_0
 10
183.70895717360671
 20
252.75393574224299
 30
0.0
 11
181.5089571736066
 21
252.75393574224299
 31
0.0
  0
ARC
  5
3B89
  8
AM_0
 10
195.60762826995281
 20
253.25393574224299
 30
0.0
 40
0.5
 50
269.99999999998693
 51
0.0
  0
ARC
  5
3B8A
  8
AM_0
 10
196.60762826995281
 20
253.75393574224299
 30
0.0
 40
0.5
 50
90.0
 51
180.0
  0
LINE
  5
3B8B
  8
AM_0
 10
196.10762826995261
 20
253.25393574224299
 30
0.0
 11
196.10762826995261
 21
253.75393574224299
 31
0.0
  0
LINE
  5
3B8C
  8
AM_0
 10
187.10762826995261
 20
249.85393574224301
 30
0.0
 11
190.60762826995261
 21
249.8539357422429
 31
0.0
  0
LINE
  5
3B8D
  8
AM_0
 10
196.10762826995261
 20
251.6100070636499
 30
0.0
 11
196.10762826995261
 21
241.89786442083491
 31
0.0
  0
LINE
  5
3B8E
  8
AM_0
 10
191.6076282699527
 20
252.75393574224299
 30
0.0
 11
195.6076282699525
 21
252.75393574224299
 31
0.0
  0
LINE
  5
3B8F
  8
AM_0
 10
195.6076282699527
 20
252.1100070636499
 30
0.0
 11
191.1076282699525
 21
252.1100070636499
 31
0.0
  0
ARC
  5
3B90
  8
AM_0
 10
195.60762826995281
 20
251.6100070636499
 30
0.0
 40
0.5
 50
0.0
 51
90.0
  0
ARC
  5
3B91
  8
AM_0
 10
190.60762826995261
 20
250.3539357422429
 30
0.0
 40
0.5
 50
270.0
 51
0.0
  0
ARC
  5
3B92
  8
AM_0
 10
191.6076282699527
 20
252.2539357422429
 30
0.0
 40
0.5
 50
90.0
 51
180.0
  0
LINE
  5
3B93
  8
AM_0
 10
195.6076282699527
 20
241.39786442083491
 30
0.0
 11
191.1076282699525
 21
241.39786442083491
 31
0.0
  0
ARC
  5
3B94
  8
AM_0
 10
195.6076282699527
 20
241.89786442083491
 30
0.0
 40
0.5
 50
270.0
 51
0.0
  0
LINE
  5
3B95
  8
AM_0
 10
185.20895717360639
 20
246.899106494535
 30
0.0
 11
185.20895717360639
 21
245.726863308102
 31
0.0
  0
LINE
  5
3B96
  8
AM_0
 10
186.63532532860361
 20
249.85393574224301
 30
0.0
 11
187.10762826995261
 21
249.85393574224301
 31
0.0
  0
LINE
  5
3B97
  8
AM_0
 10
186.53873283406429
 20
249.92805350897959
 30
0.0
 11
186.55859290017861
 21
249.85393574224301
 31
0.0
  0
ARC
  5
3B98
  8
AM_0
 10
186.6353253286037
 20
249.95393574224289
 30
0.0
 40
0.1000000000000346
 50
195.00019500644461
 51
270.0
  0
ARC
  5
3B99
  8
AM_0
 10
184.90895717360669
 20
250.04076872275101
 30
0.0
 40
0.3000000000000043
 50
270.0
 51
0.0
  0
LINE
  5
3B9A
  8
AM_0
 10
183.70895717360671
 20
252.15393574224299
 30
0.0
 11
184.9289128767638
 21
252.07260536203199
 31
0.0
  0
LINE
  5
3B9B
  8
AM_0
 10
183.70895717360671
 20
250.997683706403
 30
0.0
 11
184.90895717360669
 21
250.997683706403
 31
0.0
  0
LINE
  5
3B9C
  8
AM_0
 10
185.20895717360639
 20
251.75393574224299
 30
0.0
 11
183.70895717360671
 21
251.75393574224299
 31
0.0
  0
ARC
  5
3B9D
  8
AM_0
 10
185.20895717360639
 20
251.25393574224299
 30
0.0
 40
0.5
 50
0.0
 51
90.0
  0
LINE
  5
3B9E
  8
AM_0
 10
185.20895717360639
 20
251.77326981467499
 30
0.0
 11
185.20895717360639
 21
251.75393574224299
 31
0.0
  0
ARC
  5
3B9F
  8
AM_0
 10
184.90895717360669
 20
251.77326981467499
 30
0.0
 40
0.3000000000000007
 50
0.0
 51
86.18592516571853
  0
LINE
  5
3BA0
  8
AM_0
 10
186.28089584152761
 20
250.6039357422429
 30
0.0
 11
186.35762826995369
 21
250.6039357422429
 31
0.0
  0
LINE
  5
3BA1
  8
AM_0
 10
186.35762826995369
 20
250.6039357422429
 30
0.0
 11
186.37748833606679
 21
250.52981797550649
 31
0.0
  0
LINE
  5
3BA2
  8
AM_0
 10
185.7887328340646
 20
250.52981797550649
 30
0.0
 11
185.80859290017861
 21
250.6039357422429
 31
0.0
  0
LINE
  5
3BA3
  8
AM_0
 10
185.80859290017861
 20
250.6039357422429
 30
0.0
 11
185.8853253286035
 21
250.6039357422429
 31
0.0
  0
LINE
  5
3BA4
  8
AM_0
 10
186.37748833606679
 20
250.52981797550649
 30
0.0
 11
186.53873283406429
 21
249.92805350897959
 31
0.0
  0
LINE
  5
3BA5
  8
AM_0
 10
185.8853253286035
 20
250.6039357422429
 30
0.0
 11
186.28089584152761
 21
250.6039357422429
 31
0.0
  0
LINE
  5
3BA6
  8
AM_0
 10
185.7089571736073
 20
250.23209521068199
 30
0.0
 11
185.7887328340646
 21
250.52981797550649
 31
0.0
  0
ARC
  5
3BA7
  8
AM_0
 10
186.28089584152761
 20
250.5039357422429
 30
0.0
 40
0.0999999999999866
 50
15.00019500657257
 51
90.0
  0
ARC
  5
3BA8
  8
AM_0
 10
185.8853253286037
 20
250.5039357422429
 30
0.0
 40
0.1000000000000014
 50
90.0
 51
164.9998049934274
  0
LINE
  5
3BA9
  8
AM_0
 10
185.20895717360639
 20
250.6976837064029
 30
0.0
 11
185.20895717360639
 21
250.04076872275101
 31
0.0
  0
ARC
  5
3BAA
  8
AM_0
 10
184.90895717360669
 20
250.6976837064029
 30
0.0
 40
0.3000000000000007
 50
0.0
 51
90.0
  0
LINE
  5
3BAB
  8
AM_0
 10
183.70895717360671
 20
247.19910649453499
 30
0.0
 11
184.90895717360669
 21
247.19910649453499
 31
0.0
  0
LINE
  5
3BAC
  8
AM_0
 10
184.90895717360669
 20
249.740768722751
 30
0.0
 11
183.70895717360671
 21
249.740768722751
 31
0.0
  0
LINE
  5
3BAD
  8
AM_0
 10
186.55859290017861
 20
249.85393574224301
 30
0.0
 11
186.63532532860361
 21
249.85393574224301
 31
0.0
  0
ARC
  5
3BAE
  8
AM_0
 10
184.90895717360669
 20
246.899106494535
 30
0.0
 40
0.3000000000000007
 50
0.0
 51
90.0
  0
LINE
  5
3BAF
  8
AM_0
 10
184.90895717360669
 20
245.42686330810201
 30
0.0
 11
183.70895717360671
 21
245.42686330810201
 31
0.0
  0
ARC
  5
3BB0
  8
AM_0
 10
184.90895717360669
 20
245.726863308102
 30
0.0
 40
0.3000000000000043
 50
270.0
 51
0.0
  0
LINE
  5
3BB1
  8
AM_0
 10
184.90895717360669
 20
241.7539357422441
 30
0.0
 11
183.70895717360671
 21
241.7539357422441
 31
0.0
  0
ARC
  5
3BB2
  8
AM_0
 10
184.90895717360669
 20
241.453935742244
 30
0.0
 40
0.3000000000000007
 50
0.0
 51
90.0
  0
LINE
  5
3BB3
  8
AM_0
 10
174.70895717360671
 20
250.88721557088991
 30
0.0
 11
181.20895717360639
 21
250.88721557088991
 31
0.0
  0
LINE
  5
3BB4
  8
AM_0
 10
174.70895717360671
 20
251.38721557088991
 30
0.0
 11
181.20895717360639
 21
251.38721557088991
 31
0.0
  0
LINE
  5
3BB5
  8
AM_0
 10
181.20895717360639
 20
241.25393574224299
 30
0.0
 11
174.70895717360671
 21
241.25393574224299
 31
0.0
  0
LINE
  5
3BB6
  8
AM_0
 10
174.20895717360659
 20
241.7539357422429
 30
0.0
 11
181.20895717360639
 21
241.7539357422429
 31
0.0
  0
LINE
  5
3BB7
  8
AM_0
 10
180.90895717360669
 20
251.75393574224299
 30
0.0
 11
174.07100710878859
 21
251.75393574224299
 31
0.0
  0
LINE
  5
3BB8
  8
AM_0
 10
181.20895717360639
 20
242.10062381078399
 30
0.0
 11
174.70895717360671
 21
242.10062381078399
 31
0.0
  0
LINE
  5
3BB9
  8
AM_0
 10
181.20895717360639
 20
250.40724767370199
 30
0.0
 11
174.70895717360671
 21
250.40724767370199
 31
0.0
  0
ARC
  5
3BBA
  8
AM_0
 10
181.5089571736066
 20
252.453935742243
 30
0.0
 40
0.2999999999999971
 50
90.0
 51
180.0
  0
ARC
  5
3BBB
  8
AM_0
 10
180.90895717360669
 20
252.053935742243
 30
0.0
 40
0.2999999999999971
 50
270.0
 51
0.0
  0
ARC
  5
3BBC
  8
AM_0
 10
182.83395717360671
 20
246.2539357422429
 30
0.0
 40
9.124999999999984
 50
152.92493329271929
 51
207.07506670728071
  0
LINE
  5
3BBD
  8
AM_0
 10
173.43082270912419
 20
251.52215702184051
 30
0.0
 11
171.0687727739421
 21
249.55378207585551
 31
0.0
  0
LINE
  5
3BBE
  8
AM_0
 10
174.20895717360659
 20
251.17550315873501
 30
0.0
 11
174.70895717360671
 21
251.75393574224299
 31
0.0
  0
ARC
  5
3BBF
  8
AM_0
 10
174.07100710878859
 20
250.75393574224299
 30
0.0
 40
1.0
 50
90.0
 51
129.805571092256
  0
LINE
  5
3BC0
  8
AM_0
 10
174.70895717360671
 20
251.38721557088991
 30
0.0
 11
174.20895717360659
 21
251.17550315873501
 31
0.0
  0
LINE
  5
3BC1
  8
AM_0
 10
174.20895717360659
 20
250.71322788576401
 30
0.0
 11
174.70895717360671
 21
251.38721557088991
 31
0.0
  0
LINE
  5
3BC2
  8
AM_0
 10
174.70895717360671
 20
250.88721557088991
 30
0.0
 11
174.20895717360659
 21
250.71322788576401
 31
0.0
  0
LINE
  5
3BC3
  8
AM_0
 10
174.20895717360659
 20
250.17550315873501
 30
0.0
 11
174.70895717360671
 21
250.88721557088991
 31
0.0
  0
LINE
  5
3BC4
  8
AM_0
 10
174.70895717360671
 20
250.40724767370199
 30
0.0
 11
174.20895717360659
 21
250.17550315873501
 31
0.0
  0
ARC
  5
3BC5
  8
AM_0
 10
171.70895717360671
 20
248.78556079625801
 30
0.0
 40
1.0000000000000291
 50
129.80557109226771
 51
180.0
  0
LINE
  5
3BC6
  8
AM_0
 10
174.70895717360671
 20
241.25393574224299
 30
0.0
 11
174.20895717360659
 21
240.75393574224299
 31
0.0
  0
LINE
  5
3BC7
  8
AM_0
 10
174.20895717360659
 20
241.7539357422429
 30
0.0
 11
174.70895717360671
 21
241.25393574224299
 31
0.0
  0
LINE
  5
3BC8
  8
AM_0
 10
174.70895717360671
 20
242.10062381078399
 30
0.0
 11
174.20895717360659
 21
241.7539357422429
 31
0.0
  0
LINE
  5
3BC9
  8
AM_0
 10
181.5089571736066
 20
228.75393574224299
 30
0.0
 11
183.70895717360671
 21
228.75393574224299
 31
0.0
  0
ARC
  5
3BCA
  8
AM_0
 10
195.6076282699527
 20
228.25393574224299
 30
0.0
 40
0.5
 50
0.0
 51
90.000000000006537
  0
LINE
  5
3BCB
  8
AM_0
 10
190.60762826995261
 20
231.65393574224299
 30
0.0
 11
187.38532532860361
 21
231.65393574224299
 31
0.0
  0
LINE
  5
3BCC
  8
AM_0
 10
196.10762826995261
 20
239.6100070636499
 30
0.0
 11
196.10762826995261
 21
229.89786442083491
 31
0.0
  0
LINE
  5
3BCD
  8
AM_0
 10
191.1076282699525
 20
240.11000706364999
 30
0.0
 11
195.6076282699527
 21
240.11000706364999
 31
0.0
  0
ARC
  5
3BCE
  8
AM_0
 10
195.6076282699527
 20
239.6100070636499
 30
0.0
 40
0.5
 50
0.0
 51
90.0
  0
LINE
  5
3BCF
  8
AM_0
 10
191.1076282699525
 20
229.39786442083491
 30
0.0
 11
195.6076282699527
 21
229.39786442083491
 31
0.0
  0
LINE
  5
3BD0
  8
AM_0
 10
195.6076282699525
 20
228.75393574224299
 30
0.0
 11
191.6076282699527
 21
228.75393574224299
 31
0.0
  0
ARC
  5
3BD1
  8
AM_0
 10
195.6076282699527
 20
229.89786442083491
 30
0.0
 40
0.5
 50
270.0
 51
0.0
  0
ARC
  5
3BD2
  8
AM_0
 10
190.60762826995261
 20
231.15393574224299
 30
0.0
 40
0.5
 50
0.0
 51
90.0
  0
ARC
  5
3BD3
  8
AM_0
 10
191.6076282699527
 20
229.2539357422429
 30
0.0
 40
0.5
 50
180.0
 51
270.0
  0
ARC
  5
3BD4
  8
AM_0
 10
184.90895717360669
 20
234.608764989951
 30
0.0
 40
0.3000000000000114
 50
270.0
 51
0.0
  0
LINE
  5
3BD5
  8
AM_0
 10
183.70895717360671
 20
239.75393574224091
 30
0.0
 11
184.90895717360669
 21
239.75393574224091
 31
0.0
  0
ARC
  5
3BD6
  8
AM_0
 10
184.90895717360669
 20
240.0539357422409
 30
0.0
 40
0.2999999999999971
 50
270.0
 51
0.0
  0
LINE
  5
3BD7
  8
AM_0
 10
183.70895717360671
 20
236.08100817638399
 30
0.0
 11
184.90895717360669
 21
236.08100817638399
 31
0.0
  0
ARC
  5
3BD8
  8
AM_0
 10
184.90895717360669
 20
235.78100817638381
 30
0.0
 40
0.3000000000000007
 50
0.0
 51
90.0
  0
LINE
  5
3BD9
  8
AM_0
 10
185.20895717360639
 20
235.78100817638401
 30
0.0
 11
185.20895717360639
 21
234.608764989951
 31
0.0
  0
LINE
  5
3BDA
  8
AM_0
 10
186.63532532860361
 20
230.90393574224299
 30
0.0
 11
187.03089584152761
 21
230.90393574224299
 31
0.0
  0
LINE
  5
3BDB
  8
AM_0
 10
186.63532532860361
 20
230.90393574224299
 30
0.0
 11
187.03089584152761
 21
230.90393574224299
 31
0.0
  0
LINE
  5
3BDC
  8
AM_0
 10
187.12748833606679
 20
230.97805350897951
 30
0.0
 11
187.2887328340646
 21
231.5798179755065
 31
0.0
  0
LINE
  5
3BDD
  8
AM_0
 10
187.12748833606679
 20
230.97805350897951
 30
0.0
 11
187.2887328340646
 21
231.5798179755065
 31
0.0
  0
ARC
  5
3BDE
  8
AM_0
 10
187.38532532860361
 20
231.553935742243
 30
0.0
 40
0.0999999999999943
 50
90.0
 51
164.9998049934874
  0
ARC
  5
3BDF
  8
AM_0
 10
187.03089584152761
 20
231.00393574224299
 30
0.0
 40
0.0999999999999943
 50
270.0
 51
344.99980499349448
  0
LINE
  5
3BE0
  8
AM_0
 10
185.70811058506561
 20
231.27893574224279
 30
0.0
 11
185.7887328340646
 21
231.5798179755065
 31
0.0
  0
LINE
  5
3BE1
  8
AM_0
 10
186.36033892215869
 20
231.614671209145
 30
0.0
 11
186.5387328340646
 21
230.97805350897951
 31
0.0
  0
LINE
  5
3BE2
  8
AM_0
 10
186.37748833606679
 20
231.5798179755065
 30
0.0
 11
186.5387328340646
 21
230.97805350897951
 31
0.0
  0
LINE
  5
3BE3
  8
AM_0
 10
185.20895717360639
 20
231.46710276173411
 30
0.0
 11
185.20895717360639
 21
230.81018777808291
 31
0.0
  0
LINE
  5
3BE4
  8
AM_0
 10
185.70895717360639
 20
231.28209521068101
 30
0.0
 11
185.7887328340646
 21
231.5798179755065
 31
0.0
  0
LINE
  5
3BE5
  8
AM_0
 10
183.70895717360671
 20
231.76710276173401
 30
0.0
 11
184.90895717360669
 21
231.76710276173401
 31
0.0
  0
LINE
  5
3BE6
  8
AM_0
 10
184.90895717360669
 20
234.30876498995099
 30
0.0
 11
183.70895717360671
 21
234.30876498994999
 31
0.0
  0
LINE
  5
3BE7
  8
AM_0
 10
186.3135281070426
 20
231.65393574224299
 30
0.0
 11
186.36033892215869
 21
231.614671209145
 31
0.0
  0
LINE
  5
3BE8
  8
AM_0
 10
185.8853253286035
 20
231.65393574224299
 30
0.0
 11
186.3135281070426
 21
231.65393574224299
 31
0.0
  0
LINE
  5
3BE9
  8
AM_0
 10
185.8853253286035
 20
231.65393574224299
 30
0.0
 11
186.28089584152761
 21
231.65393574224299
 31
0.0
  0
ARC
  5
3BEA
  8
AM_0
 10
185.8853253286035
 20
231.553935742243
 30
0.0
 40
0.0999999999999943
 50
90.0
 51
164.9998049934874
  0
ARC
  5
3BEB
  8
AM_0
 10
186.28089584152761
 20
231.553935742243
 30
0.0
 40
0.0999999999999608
 50
15.00019500651257
 51
90.0
  0
ARC
  5
3BEC
  8
AM_0
 10
184.90895717360669
 20
231.467102761734
 30
0.0
 40
0.3000000000000007
 50
0.0
 51
90.0
  0
LINE
  5
3BED
  8
AM_0
 10
183.70895717360671
 20
229.7539357422429
 30
0.0
 11
185.20895717360639
 21
229.7539357422429
 31
0.0
  0
LINE
  5
3BEE
  8
AM_0
 10
184.90895717360669
 20
230.51018777808301
 30
0.0
 11
183.70895717360671
 21
230.51018777808301
 31
0.0
  0
LINE
  5
3BEF
  8
AM_0
 10
184.9289128767638
 20
229.43526612245299
 30
0.0
 11
183.70895717360671
 21
229.35393574224301
 31
0.0
  0
ARC
  5
3BF0
  8
AM_0
 10
185.20895717360639
 20
230.25393574224299
 30
0.0
 40
0.5
 50
270.0
 51
0.0
  0
ARC
  5
3BF1
  8
AM_0
 10
186.63532532860361
 20
231.00393574224299
 30
0.0
 40
0.0999999999999606
 50
195.00019500650541
 51
270.0
  0
ARC
  5
3BF2
  8
AM_0
 10
184.90895717360669
 20
230.81018777808291
 30
0.0
 40
0.2999999999999971
 50
270.0
 51
0.0
  0
LINE
  5
3BF3
  8
AM_0
 10
185.20895717360639
 20
229.7539357422429
 30
0.0
 11
185.20895717360639
 21
229.73460166980999
 31
0.0
  0
ARC
  5
3BF4
  8
AM_0
 10
184.90895717360669
 20
229.73460166980999
 30
0.0
 40
0.3000000000000043
 50
273.81407483428148
 51
0.0
  0
ARC
  5
3BF5
  8
AM_0
 10
196.6076282699527
 20
227.75393574224299
 30
0.0
 40
0.5
 50
180.0
 51
270.0
  0
LINE
  5
3BF6
  8
AM_0
 10
196.10762826995261
 20
227.75393574224299
 30
0.0
 11
196.10762826995261
 21
228.25393574224299
 31
0.0
  0
LINE
  5
3BF7
  8
AM_0
 10
174.70895717360671
 20
231.10062381078399
 30
0.0
 11
181.20895717360639
 21
231.10062381078399
 31
0.0
  0
LINE
  5
3BF8
  8
AM_0
 10
174.70895717360671
 20
239.40724767370199
 30
0.0
 11
181.20895717360639
 21
239.40724767370199
 31
0.0
  0
LINE
  5
3BF9
  8
AM_0
 10
174.07100710878859
 20
229.7539357422429
 30
0.0
 11
180.90895717360669
 21
229.7539357422429
 31
0.0
  0
LINE
  5
3BFA
  8
AM_0
 10
181.20895717360639
 20
239.7539357422429
 30
0.0
 11
174.20895717360659
 21
239.7539357422429
 31
0.0
  0
LINE
  5
3BFB
  8
AM_0
 10
174.70895717360671
 20
240.25393574224299
 30
0.0
 11
181.20895717360639
 21
240.25393574224299
 31
0.0
  0
LINE
  5
3BFC
  8
AM_0
 10
181.20895717360639
 20
230.12065591359499
 30
0.0
 11
174.70895717360671
 21
230.12065591359499
 31
0.0
  0
LINE
  5
3BFD
  8
AM_0
 10
181.20895717360639
 20
230.6206559135949
 30
0.0
 11
174.70895717360671
 21
230.6206559135949
 31
0.0
  0
ARC
  5
3BFE
  8
AM_0
 10
180.90895717360669
 20
229.45393574224289
 30
0.0
 40
0.3000000000000043
 50
0.0
 51
90.0
  0
ARC
  5
3BFF
  8
AM_0
 10
181.5089571736066
 20
229.053935742243
 30
0.0
 40
0.2999999999999971
 50
180.0
 51
270.0
  0
ARC
  5
3C00
  8
AM_0
 10
182.83395717360671
 20
235.25393574224299
 30
0.0
 40
9.124999999999984
 50
152.92493329271929
 51
207.07506670728071
  0
LINE
  5
3C01
  8
AM_0
 10
174.20895717360659
 20
239.7539357422429
 30
0.0
 11
174.70895717360671
 21
239.40724767370199
 31
0.0
  0
LINE
  5
3C02
  8
AM_0
 10
174.70895717360671
 20
240.25393574224299
 30
0.0
 11
174.20895717360659
 21
239.7539357422429
 31
0.0
  0
LINE
  5
3C03
  8
AM_0
 10
171.0687727739421
 20
231.95408940862961
 30
0.0
 11
173.43082270912419
 21
229.98571446264549
 31
0.0
  0
LINE
  5
3C04
  8
AM_0
 10
174.70895717360671
 20
229.7539357422429
 30
0.0
 11
174.20895717360659
 21
230.33236832575011
 31
0.0
  0
ARC
  5
3C05
  8
AM_0
 10
174.07100710878859
 20
230.75393574224299
 30
0.0
 40
1.0000000000000411
 50
230.19442890774391
 51
270.0
  0
LINE
  5
3C06
  8
AM_0
 10
174.20895717360659
 20
231.33236832575
 30
0.0
 11
174.70895717360671
 21
231.10062381078399
 31
0.0
  0
LINE
  5
3C07
  8
AM_0
 10
174.70895717360671
 20
230.6206559135949
 30
0.0
 11
174.20895717360659
 21
231.33236832575
 31
0.0
  0
LINE
  5
3C08
  8
AM_0
 10
174.20895717360659
 20
230.79464359872199
 30
0.0
 11
174.70895717360671
 21
230.6206559135949
 31
0.0
  0
LINE
  5
3C09
  8
AM_0
 10
174.70895717360671
 20
230.12065591359499
 30
0.0
 11
174.20895717360659
 21
230.79464359872199
 31
0.0
  0
LINE
  5
3C0A
  8
AM_0
 10
174.20895717360659
 20
230.33236832575011
 30
0.0
 11
174.70895717360671
 21
230.12065591359499
 31
0.0
  0
ARC
  5
3C0B
  8
AM_0
 10
171.70895717360671
 20
232.72231068822691
 30
0.0
 40
1.0
 50
180.0
 51
230.19442890773229
  0
CIRCLE
  5
3C0C
  8
AM_0
 10
205.10762826995099
 20
266.7539357422425
 30
0.0
 40
4.0
  0
LINE
  5
3C0D
  8
AM_0
 10
204.79612826995091
 20
264.47512733651831
 30
0.0
 11
205.41912826995099
 21
264.47512733651831
 31
0.0
  0
LINE
  5
3C0E
  8
AM_0
 10
204.79612826995091
 20
269.03274414796698
 30
0.0
 11
205.41912826995099
 21
269.03274414796698
 31
0.0
  0
LINE
  5
3C0F
  8
AM_0
 10
204.79612826995091
 20
264.47512733651831
 30
0.0
 11
204.79612826995091
 21
266.44243574224282
 31
0.0
  0
LINE
  5
3C10
  8
AM_0
 10
204.79612826995091
 20
267.06543574224253
 30
0.0
 11
204.79612826995091
 21
269.03274414796698
 31
0.0
  0
LINE
  5
3C11
  8
AM_0
 10
204.79612826995091
 20
267.06543574224253
 30
0.0
 11
202.8288198642266
 21
267.06543574224253
 31
0.0
  0
LINE
  5
3C12
  8
AM_0
 10
204.79612826995091
 20
266.44243574224282
 30
0.0
 11
202.8288198642266
 21
266.44243574224282
 31
0.0
  0
LINE
  5
3C13
  8
AM_0
 10
202.8288198642266
 20
267.06543574224253
 30
0.0
 11
202.8288198642266
 21
266.44243574224282
 31
0.0
  0
LINE
  5
3C14
  8
AM_0
 10
205.41912826995099
 20
264.47512733651831
 30
0.0
 11
205.41912826995099
 21
266.44243574224282
 31
0.0
  0
LINE
  5
3C15
  8
AM_0
 10
205.41912826995099
 20
267.06543574224253
 30
0.0
 11
205.41912826995099
 21
269.03274414796698
 31
0.0
  0
LINE
  5
3C16
  8
AM_0
 10
207.3864366756753
 20
266.44243574224282
 30
0.0
 11
205.41912826995099
 21
266.44243574224282
 31
0.0
  0
LINE
  5
3C17
  8
AM_0
 10
207.3864366756753
 20
267.06543574224253
 30
0.0
 11
205.41912826995099
 21
267.06543574224253
 31
0.0
  0
LINE
  5
3C18
  8
AM_0
 10
207.3864366756753
 20
267.06543574224253
 30
0.0
 11
207.3864366756753
 21
266.44243574224282
 31
0.0
  0
CIRCLE
  5
3C19
  8
AM_0
 10
291.10762826995449
 20
266.7539357422425
 30
0.0
 40
4.0
  0
LINE
  5
3C1A
  8
AM_0
 10
290.79612826995458
 20
264.4751273365182
 30
0.0
 11
291.41912826995451
 21
264.4751273365182
 31
0.0
  0
LINE
  5
3C1B
  8
AM_0
 10
290.79612826995458
 20
269.03274414796692
 30
0.0
 11
291.41912826995451
 21
269.03274414796692
 31
0.0
  0
LINE
  5
3C1C
  8
AM_0
 10
290.79612826995458
 20
264.4751273365182
 30
0.0
 11
290.79612826995458
 21
266.44243574224248
 31
0.0
  0
LINE
  5
3C1D
  8
AM_0
 10
290.79612826995458
 20
267.06543574224253
 30
0.0
 11
290.79612826995458
 21
269.03274414796692
 31
0.0
  0
LINE
  5
3C1E
  8
AM_0
 10
290.79612826995458
 20
267.06543574224253
 30
0.0
 11
288.82881986423013
 21
267.06543574224253
 31
0.0
  0
LINE
  5
3C1F
  8
AM_0
 10
290.79612826995458
 20
266.44243574224248
 30
0.0
 11
288.82881986423013
 21
266.44243574224248
 31
0.0
  0
LINE
  5
3C20
  8
AM_0
 10
288.82881986423013
 20
267.06543574224253
 30
0.0
 11
288.82881986423013
 21
266.44243574224248
 31
0.0
  0
LINE
  5
3C21
  8
AM_0
 10
291.41912826995451
 20
264.4751273365182
 30
0.0
 11
291.41912826995451
 21
266.44243574224248
 31
0.0
  0
LINE
  5
3C22
  8
AM_0
 10
291.41912826995451
 20
267.06543574224253
 30
0.0
 11
291.41912826995451
 21
269.03274414796692
 31
0.0
  0
LINE
  5
3C23
  8
AM_0
 10
293.38643667567891
 20
266.44243574224248
 30
0.0
 11
291.41912826995451
 21
266.44243574224248
 31
0.0
  0
LINE
  5
3C24
  8
AM_0
 10
293.38643667567891
 20
267.06543574224253
 30
0.0
 11
291.41912826995451
 21
267.06543574224253
 31
0.0
  0
LINE
  5
3C25
  8
AM_0
 10
293.38643667567891
 20
267.06543574224253
 30
0.0
 11
293.38643667567891
 21
266.44243574224248
 31
0.0
  0
LINE
  5
3C26
  8
AM_0
 10
218.64316217588569
 20
270.28946964817573
 30
0.0
 11
201.5720943640199
 21
253.21840183631051
 31
0.0
  0
LINE
  5
3C27
  8
AM_0
 10
219.30001642537789
 20
265.28946964817573
 30
0.0
 11
206.5720943640199
 21
252.56154758681791
 31
0.0
  0
ARC
  5
3C28
  8
AM_0
 10
210.1076282699527
 20
249.02601368088509
 30
0.0
 40
5.0
 50
135.0
 51
180.0
1001
GENIUS_GENOBJ-N-FIL_13
1002
{
1000
OWNER
1000
GEN
1002
}
1001
GENIUS_GENODEF_13
1002
{
1000
HIER
1070
     0
1002
}
1002
{
1000
MANEDIT
1070
     0
1002
}
1002
{
1000
NOSEL
1070
     0
1002
}
1002
{
1000
BEHIND
1070
     0
1002
}
1002
{
1000
OTHER
1070
     0
1002
}
1002
{
1000
REACTOR
1002
}
  0
LINE
  5
3C29
  8
AM_0
 10
277.5720943640199
 20
181.21840183631011
 30
0.0
 11
294.64316217588538
 21
198.28946964817541
 31
0.0
  0
ARC
  5
3C2A
  8
AM_0
 10
274.03656045808731
 20
184.75393574224279
 30
0.0
 40
5.0
 50
270.0
 51
315.0
1001
GENIUS_GENODEF_13
1002
{
1000
HIER
1070
     0
1002
}
1002
{
1000
MANEDIT
1070
     0
1002
}
1002
{
1000
NOSEL
1070
     0
1002
}
1002
{
1000
BEHIND
1070
     0
1002
}
1002
{
1000
OTHER
1070
     0
1002
}
1002
{
1000
REACTOR
1002
}
1001
GENIUS_GENOBJ-N-FIL_13
1002
{
1000
OWNER
1000
GEN
1002
}
  0
LINE
  5
3C2B
  8
AM_0
 10
276.91524011452771
 20
186.21840183631011
 30
0.0
 11
289.64316217588538
 21
198.9463238976677
 31
0.0
  0
ARC
  5
3C2C
  8
AM_0
 10
286.10762826995278
 20
202.48185780360049
 30
0.0
 40
5.0
 50
315.0
 51
0.0
1001
GENIUS_GENOBJ-N-FIL_13
1002
{
1000
OWNER
1000
GEN
1002
}
1001
GENIUS_GENODEF_13
1002
{
1000
HIER
1070
     0
1002
}
1002
{
1000
MANEDIT
1070
     0
1002
}
1002
{
1000
NOSEL
1070
     0
1002
}
1002
{
1000
BEHIND
1070
     0
1002
}
1002
{
1000
OTHER
1070
     0
1002
}
1002
{
1000
REACTOR
1002
}
  0
LINE
  5
3C2D
  8
AM_0
 10
218.64316217588541
 20
181.21840183631011
 30
0.0
 11
201.5720943640199
 21
198.2894696481753
 31
0.0
  0
LINE
  5
3C2E
  8
AM_0
 10
219.30001642537761
 20
186.21840183631011
 30
0.0
 11
206.5720943640199
 21
198.9463238976677
 31
0.0
  0
ARC
  5
3C2F
  8
AM_0
 10
222.8355503313104
 20
189.75393574224279
 30
0.0
 40
5.0
 50
225.0
 51
270.0
1001
GENIUS_GENOBJ-N-FIL_13
1002
{
1000
OWNER
1000
GEN
1002
}
1001
GENIUS_GENODEF_13
1002
{
1000
HIER
1070
     0
1002
}
1002
{
1000
MANEDIT
1070
     0
1002
}
1002
{
1000
NOSEL
1070
     0
1002
}
1002
{
1000
BEHIND
1070
     0
1002
}
1002
{
1000
OTHER
1070
     0
1002
}
1002
{
1000
REACTOR
1002
}
  0
CIRCLE
  5
3C30
  8
AM_0
 10
205.10762826995079
 20
184.75393574224319
 30
0.0
 40
4.0
  0
LINE
  5
3C31
  8
AM_0
 10
204.79612826995091
 20
187.03274414796761
 30
0.0
 11
205.4191282699509
 21
187.03274414796761
 31
0.0
  0
LINE
  5
3C32
  8
AM_0
 10
204.79612826995091
 20
182.4751273365188
 30
0.0
 11
205.4191282699509
 21
182.4751273365188
 31
0.0
  0
LINE
  5
3C33
  8
AM_0
 10
204.79612826995091
 20
187.03274414796761
 30
0.0
 11
204.79612826995091
 21
185.0654357422433
 31
0.0
  0
LINE
  5
3C34
  8
AM_0
 10
204.79612826995091
 20
184.44243574224319
 30
0.0
 11
204.79612826995091
 21
182.4751273365188
 31
0.0
  0
LINE
  5
3C35
  8
AM_0
 10
204.79612826995091
 20
184.44243574224319
 30
0.0
 11
202.82881986422649
 21
184.44243574224319
 31
0.0
  0
LINE
  5
3C36
  8
AM_0
 10
204.79612826995091
 20
185.0654357422433
 30
0.0
 11
202.82881986422649
 21
185.0654357422433
 31
0.0
  0
LINE
  5
3C37
  8
AM_0
 10
202.82881986422649
 20
184.44243574224319
 30
0.0
 11
202.82881986422649
 21
185.0654357422433
 31
0.0
  0
LINE
  5
3C38
  8
AM_0
 10
205.4191282699509
 20
187.03274414796761
 30
0.0
 11
205.4191282699509
 21
185.0654357422433
 31
0.0
  0
LINE
  5
3C39
  8
AM_0
 10
205.4191282699509
 20
184.44243574224319
 30
0.0
 11
205.4191282699509
 21
182.4751273365188
 31
0.0
  0
LINE
  5
3C3A
  8
AM_0
 10
207.38643667567521
 20
185.0654357422433
 30
0.0
 11
205.4191282699509
 21
185.0654357422433
 31
0.0
  0
LINE
  5
3C3B
  8
AM_0
 10
207.38643667567521
 20
184.44243574224319
 30
0.0
 11
205.4191282699509
 21
184.44243574224319
 31
0.0
  0
LINE
  5
3C3C
  8
AM_0
 10
207.38643667567521
 20
184.44243574224319
 30
0.0
 11
207.38643667567521
 21
185.0654357422433
 31
0.0
  0
CIRCLE
  5
3C3D
  8
AM_0
 10
291.10762826995438
 20
184.7539357422429
 30
0.0
 40
4.0
  0
LINE
  5
3C3E
  8
AM_0
 10
290.79612826995441
 20
187.03274414796741
 30
0.0
 11
291.4191282699544
 21
187.03274414796741
 31
0.0
  0
LINE
  5
3C3F
  8
AM_0
 10
290.79612826995441
 20
182.47512733651871
 30
0.0
 11
291.4191282699544
 21
182.47512733651871
 31
0.0
  0
LINE
  5
3C40
  8
AM_0
 10
290.79612826995441
 20
187.03274414796741
 30
0.0
 11
290.79612826995441
 21
185.06543574224301
 31
0.0
  0
LINE
  5
3C41
  8
AM_0
 10
290.79612826995441
 20
184.44243574224291
 30
0.0
 11
290.79612826995441
 21
182.47512733651871
 31
0.0
  0
LINE
  5
3C42
  8
AM_0
 10
290.79612826995441
 20
184.44243574224291
 30
0.0
 11
288.82881986423001
 21
184.44243574224291
 31
0.0
  0
LINE
  5
3C43
  8
AM_0
 10
290.79612826995441
 20
185.06543574224301
 30
0.0
 11
288.82881986423001
 21
185.06543574224301
 31
0.0
  0
LINE
  5
3C44
  8
AM_0
 10
288.82881986423001
 20
184.44243574224291
 30
0.0
 11
288.82881986423001
 21
185.06543574224301
 31
0.0
  0
LINE
  5
3C45
  8
AM_0
 10
291.4191282699544
 20
187.03274414796741
 30
0.0
 11
291.4191282699544
 21
185.06543574224301
 31
0.0
  0
LINE
  5
3C46
  8
AM_0
 10
291.4191282699544
 20
184.44243574224291
 30
0.0
 11
291.4191282699544
 21
182.47512733651871
 31
0.0
  0
LINE
  5
3C47
  8
AM_0
 10
293.38643667567868
 20
185.06543574224301
 30
0.0
 11
291.4191282699544
 21
185.06543574224301
 31
0.0
  0
LINE
  5
3C48
  8
AM_0
 10
293.38643667567868
 20
184.44243574224291
 30
0.0
 11
291.4191282699544
 21
184.44243574224291
 31
0.0
  0
LINE
  5
3C49
  8
AM_0
 10
293.38643667567868
 20
184.44243574224291
 30
0.0
 11
293.38643667567868
 21
185.06543574224301
 31
0.0
  0
LINE
  5
3C4A
  8
AM_0
 10
200.1076282699527
 20
194.7539357422429
 30
0.0
 11
199.1076282699527
 21
194.7539357422429
 31
0.0
  0
LINE
  5
3C4B
  8
AM_0
 10
200.1076282699527
 20
256.75393574224302
 30
0.0
 11
199.1076282699527
 21
256.7539357422429
 31
0.0
  0
LINE
  5
3C4C
  8
AM_0
 10
199.1076282699527
 20
194.7539357422429
 30
0.0
 11
199.1076282699527
 21
256.7539357422429
 31
0.0
  0
LINE
  5
3C4D
  8
ﾁｭｳｼﾝｾﾝ1
 10
205.1076282699506
 20
260.7539357422425
 30
0.0
 11
205.10762826995111
 21
272.75393574224262
 31
0.0
  0
LINE
  5
3C4E
  8
ﾁｭｳｼﾝｾﾝ1
 10
211.10762826995099
 20
266.75393574224228
 30
0.0
 11
199.10762826995079
 21
266.75393574224302
 31
0.0
  0
LINE
  5
3C4F
  8
ﾁｭｳｼﾝｾﾝ1
 10
205.10762826995051
 20
178.75393574224319
 30
0.0
 11
205.10762826995111
 21
190.75393574224319
 31
0.0
  0
LINE
  5
3C50
  8
ﾁｭｳｼﾝｾﾝ1
 10
211.10762826995079
 20
184.7539357422429
 30
0.0
 11
199.10762826995079
 21
184.75393574224361
 31
0.0
  0
LINE
  5
3C51
  8
ﾁｭｳｼﾝｾﾝ1
 10
291.10762826995398
 20
178.75393574224299
 30
0.0
 11
291.1076282699546
 21
190.7539357422429
 31
0.0
  0
LINE
  5
3C52
  8
ﾁｭｳｼﾝｾﾝ1
 10
297.10762826995438
 20
184.75393574224279
 30
0.0
 11
285.10762826995438
 21
184.7539357422435
 31
0.0
  0
LINE
  5
3C56
  8
AM_0
 10
185.0880510499309
 20
229.4939247422428
 30
0.0
 11
191.1076282699525
 21
229.49392474224291
 31
0.0
  0
LINE
  5
3C57
  8
ﾁｭｳｼﾝｾﾝ1
 10
169.10762826995261
 20
205.75393574224279
 30
0.0
 11
202.4055744084431
 21
205.75393574224279
 31
0.0
  0
LINE
  5
3C58
  8
AM_0
 10
188.98262826995369
 20
199.36388168611879
 30
0.0
 11
188.99333787449871
 21
199.15393574224271
 31
0.0
  0
LINE
  5
3C59
  8
AM_0
 10
188.99333787449871
 20
199.15393574224271
 30
0.0
 11
189.0296432616997
 21
198.4422223683558
 31
0.0
  0
LINE
  5
3C5A
  8
AM_0
 10
188.98262826995369
 20
203.1212132337597
 30
0.0
 11
189.2286544926335
 21
199.15393574224271
 31
0.0
  0
LINE
  5
3C5B
  8
AM_0
 10
189.70095743398269
 20
199.15393574224271
 30
0.0
 11
189.3053869210587
 21
199.15393574224271
 31
0.0
  0
LINE
  5
3C5C
  8
AM_0
 10
189.2087944265196
 20
199.0798179755073
 30
0.0
 11
189.0475499285217
 21
198.4780535089792
 31
0.0
  0
LINE
  5
3C5D
  8
AM_0
 10
189.2286544926335
 20
199.15393574224271
 30
0.0
 11
189.2087944265196
 21
199.0798179755073
 31
0.0
  0
LINE
  5
3C5E
  8
AM_0
 10
187.48262826995369
 20
196.75393574224279
 30
0.0
 11
187.48262826995369
 21
197.05393574224371
 31
0.0
  0
LINE
  5
3C5F
  8
AM_0
 10
176.9826282699527
 20
205.75393574224279
 30
0.0
 11
176.9826282699527
 21
200.43496070983369
 31
0.0
  0
LINE
  5
3C60
  8
AM_0
 10
187.48262826995369
 20
197.25393574224381
 30
0.0
 11
188.78262826995351
 21
197.25393574224381
 31
0.0
  0
LINE
  5
3C61
  8
AM_0
 10
188.4826282699527
 20
197.2254320108778
 30
0.0
 11
188.48262826995369
 21
197.25393574224381
 31
0.0
  0
LINE
  5
3C62
  8
AM_0
 10
179.48262826995071
 20
198.22174453410679
 30
0.0
 11
185.48262826995369
 21
198.22174453410679
 31
0.0
  0
LINE
  5
3C63
  8
AM_0
 10
185.48262826995369
 20
197.72174453410679
 30
0.0
 11
179.48262826994971
 21
197.72174453410679
 31
0.0
  0
LINE
  5
3C64
  8
AM_0
 10
179.48262826994971
 20
197.72174453410679
 30
0.0
 11
179.98262826994971
 21
197.25393574224279
 31
0.0
  0
LINE
  5
3C65
  8
AM_0
 10
179.98262826994971
 20
197.72174453410679
 30
0.0
 11
179.48262826995071
 21
198.22174453410679
 31
0.0
  0
LINE
  5
3C66
  8
AM_0
 10
179.48262826995071
 20
198.8927198100757
 30
0.0
 11
179.98262826994971
 21
198.22174453410679
 31
0.0
  0
LINE
  5
3C67
  8
AM_0
 10
179.98262826994971
 20
198.94219805075281
 30
0.0
 11
179.48262826995071
 21
198.8927198100757
 31
0.0
  0
LINE
  5
3C68
  8
AM_0
 10
185.48262826995369
 20
204.6637419071848
 30
0.0
 11
185.48262826995369
 21
205.75393574224279
 31
0.0
  0
LINE
  5
3C69
  8
AM_0
 10
179.48262826994971
 20
204.75393574224279
 30
0.0
 11
185.48262826995369
 21
204.75393574224279
 31
0.0
  0
LINE
  5
3C6A
  8
AM_0
 10
179.98262826994971
 20
204.0656734337328
 30
0.0
 11
179.48262826994971
 21
204.75393574224279
 31
0.0
  0
LINE
  5
3C6B
  8
AM_0
 10
179.48262826994971
 20
204.75393574224279
 30
0.0
 11
179.98262826995071
 21
205.25393574224279
 31
0.0
  0
LINE
  5
3C6C
  8
AM_0
 10
179.48262826995071
 20
205.75393574224279
 30
0.0
 11
179.98262826995071
 21
205.25393574224279
 31
0.0
  0
LINE
  5
3C6D
  8
AM_0
 10
179.98262826995071
 20
205.25393574224279
 30
0.0
 11
185.48262826995369
 21
205.25393574224279
 31
0.0
  0
LINE
  5
3C6E
  8
AM_0
 10
179.98262826994971
 20
204.0656734337328
 30
0.0
 11
185.48262826995369
 21
204.0656734337328
 31
0.0
  0
LINE
  5
3C6F
  8
AM_0
 10
179.98262826994971
 20
198.94219805075281
 30
0.0
 11
185.48262826995369
 21
198.9421980507536
 31
0.0
  0
LINE
  5
3C70
  8
AM_0
 10
188.4826282699527
 20
205.30393574224391
 30
0.0
 11
188.48262826995369
 21
205.75393574224279
 31
0.0
  0
LINE
  5
3C71
  8
AM_0
 10
187.48262826995369
 20
197.05393574224371
 30
0.0
 11
187.48262826995369
 21
205.75393574224481
 31
0.0
  0
LINE
  5
3C72
  8
AM_0
 10
188.18262826995269
 20
198.7964310542107
 30
0.0
 11
187.48262826995369
 21
198.7964310542107
 31
0.0
  0
LINE
  5
3C73
  8
AM_0
 10
188.4826282699527
 20
198.0913201969208
 30
0.0
 11
188.4826282699527
 21
198.4964310542108
 31
0.0
  0
LINE
  5
3C74
  8
AM_0
 10
187.48262826995369
 20
197.79132019692071
 30
0.0
 11
188.18262826995269
 21
197.79132019692071
 31
0.0
  0
LINE
  5
3C75
  8
AM_0
 10
188.18262826995269
 20
202.1700312396118
 30
0.0
 11
187.48262826995369
 21
202.1700312396118
 31
0.0
  0
LINE
  5
3C76
  8
AM_0
 10
188.4826282699527
 20
201.0701149733197
 30
0.0
 11
188.4826282699527
 21
201.8700312396119
 31
0.0
  0
LINE
  5
3C77
  8
AM_0
 10
187.48262826995369
 20
200.77011497331989
 30
0.0
 11
188.18262826995269
 21
200.77011497331989
 31
0.0
  0
LINE
  5
3C78
  8
AM_0
 10
187.48262826995369
 20
205.00393574224279
 30
0.0
 11
188.18262826995269
 21
205.00393574224279
 31
0.0
  0
LINE
  5
3C79
  8
AM_0
 10
188.98262826995369
 20
205.75393574224279
 30
0.0
 11
188.98262826995369
 21
197.45393574224349
 31
0.0
  0
LINE
  5
3C7A
  8
AM_0
 10
185.6826282699526
 20
196.75393574224279
 30
0.0
 11
187.48262826995369
 21
196.75393574224279
 31
0.0
  0
LINE
  5
3C7B
  8
AM_0
 10
177.09851763015371
 20
200.11486851000191
 30
0.0
 11
179.3327051031435
 21
197.43384354240911
 31
0.0
  0
LINE
  5
3C7C
  8
AM_0
 10
188.21247938565921
 20
196.92692085381469
 30
0.0
 11
187.48262826995369
 21
196.85393574224381
 31
0.0
  0
LINE
  5
3C7D
  8
AM_0
 10
185.28262826995351
 20
197.25393574224279
 30
0.0
 11
179.71681574294271
 21
197.25393574224071
 31
0.0
  0
LINE
  5
3C7E
  8
AM_0
 10
185.48262826995369
 20
204.6637419071848
 30
0.0
 11
185.48262826995369
 21
197.05393574224269
 31
0.0
  0
LINE
  5
3C7F
  8
AM_0
 10
185.48262826995369
 20
197.05393574224269
 30
0.0
 11
185.48262826995261
 21
196.95393574224281
 31
0.0
  0
LINE
  5
3C80
  8
AM_0
 10
193.10762826995261
 20
197.453935742243
 30
0.0
 11
193.10762826995261
 21
204.0656734337328
 31
0.0
  0
LINE
  5
3C81
  8
AM_0
 10
189.60762826995369
 20
205.75393574224279
 30
0.0
 11
189.98038212796371
 21
198.43779739472279
 31
0.0
  0
LINE
  5
3C82
  8
AM_0
 10
190.15666363972861
 20
205.75393574224279
 30
0.0
 11
190.5296432616997
 21
198.4422223683558
 31
0.0
  0
LINE
  5
3C83
  8
AM_0
 10
189.7975499285217
 20
199.0798179755061
 30
0.0
 11
189.77768986240861
 21
199.15393574224271
 31
0.0
  0
LINE
  5
3C84
  8
AM_0
 10
190.72865449263361
 20
199.15393574224271
 30
0.0
 11
190.7087944265196
 21
199.0798179755073
 31
0.0
  0
LINE
  5
3C85
  8
AM_0
 10
190.45095743398269
 20
198.40393574224271
 30
0.0
 11
190.0553869210587
 21
198.40393574224271
 31
0.0
  0
LINE
  5
3C86
  8
AM_0
 10
189.9587944265194
 20
198.4780535089792
 30
0.0
 11
189.7975499285217
 21
199.0798179755061
 31
0.0
  0
LINE
  5
3C87
  8
AM_0
 10
190.7087944265196
 20
199.0798179755073
 30
0.0
 11
190.5475499285217
 21
198.4780535089792
 31
0.0
  0
LINE
  5
3C88
  8
AM_0
 10
189.36839833360571
 20
205.75393574224279
 30
0.0
 11
189.77768986240861
 21
199.15393574224271
 31
0.0
  0
LINE
  5
3C89
  8
AM_0
 10
190.31936296383071
 20
205.75393574224279
 30
0.0
 11
190.72865449263361
 21
199.15393574224271
 31
0.0
  0
LINE
  5
3C8A
  8
AM_0
 10
190.8053869210587
 20
199.15393574224271
 30
0.0
 11
192.6076282699527
 21
199.15393574224271
 31
0.0
  0
LINE
  5
3C8B
  8
AM_0
 10
193.10762826995261
 20
204.0656734337328
 30
0.0
 11
193.10762826995261
 21
205.75393574224381
 31
0.0
  0
LINE
  5
3C8C
  8
AM_0
 10
193.30762826995269
 20
197.25393574224279
 30
0.0
 11
196.9076282699526
 21
197.25393574224279
 31
0.0
  0
LINE
  5
3C8D
  8
AM_0
 10
196.90762826995271
 20
204.0656734337328
 30
0.0
 11
193.10762826995261
 21
204.0656734337328
 31
0.0
  0
LINE
  5
3C8E
  8
AM_0
 10
193.10762826995261
 20
198.9421980507536
 30
0.0
 11
196.90762826995271
 21
198.9421980507536
 31
0.0
  0
LINE
  5
3C8F
  8
AM_0
 10
172.10762826995261
 20
205.75393574224279
 30
0.0
 11
172.10762826995261
 21
201.50393574224279
 31
0.0
  0
LINE
  5
3C90
  8
AM_0
 10
176.9826282699527
 20
201.4527993786067
 30
0.0
 11
172.10762826995261
 21
201.50393574224279
 31
0.0
  0
LINE
  5
3C91
  8
AM_0
 10
172.1076282699527
 20
210.00393574224279
 30
0.0
 11
176.9826282699527
 21
210.0550721058799
 31
0.0
  0
LINE
  5
3C92
  8
AM_0
 10
172.1076282699527
 20
210.00393574224279
 30
0.0
 11
172.10762826995261
 21
205.75393574224279
 31
0.0
  0
LINE
  5
3C93
  8
AM_0
 10
196.90762826995271
 20
212.5656734337328
 30
0.0
 11
193.1076282699527
 21
212.5656734337328
 31
0.0
  0
LINE
  5
3C94
  8
AM_0
 10
193.10762826995261
 20
207.44219805075369
 30
0.0
 11
196.90762826995271
 21
207.44219805075369
 31
0.0
  0
LINE
  5
3C95
  8
AM_0
 10
196.90762826995271
 20
214.25393574224279
 30
0.0
 11
193.30762826995269
 21
214.25393574224279
 31
0.0
  0
LINE
  5
3C96
  8
AM_0
 10
193.10762826995261
 20
205.75393574224381
 30
0.0
 11
193.10762826995261
 21
207.44219805075369
 31
0.0
  0
LINE
  5
3C97
  8
AM_0
 10
192.6076282699527
 20
212.35393574224281
 30
0.0
 11
190.05936069837861
 21
212.35393574224281
 31
0.0
  0
LINE
  5
3C98
  8
AM_0
 10
189.9826282699527
 20
212.35393574224281
 30
0.0
 11
190.31936296383071
 21
205.75393574224279
 31
0.0
  0
LINE
  5
3C99
  8
AM_0
 10
189.03166363972761
 20
212.35393574224281
 30
0.0
 11
189.36839833360571
 21
205.75393574224279
 31
0.0
  0
LINE
  5
3C9A
  8
AM_0
 10
189.80152370584159
 20
213.02981797550629
 30
0.0
 11
189.9627682038396
 21
212.4280535089793
 31
0.0
  0
LINE
  5
3C9B
  8
AM_0
 10
189.0515237058417
 20
212.4280535089793
 30
0.0
 11
189.2127682038394
 21
213.02981797550629
 31
0.0
  0
LINE
  5
3C9C
  8
AM_0
 10
189.30936069837861
 20
213.10393574224281
 30
0.0
 11
189.70493121130269
 21
213.10393574224281
 31
0.0
  0
LINE
  5
3C9D
  8
AM_0
 10
189.9627682038396
 20
212.4280535089793
 30
0.0
 11
189.9826282699527
 21
212.35393574224281
 31
0.0
  0
LINE
  5
3C9E
  8
AM_0
 10
189.03166363972761
 20
212.35393574224281
 30
0.0
 11
189.0515237058417
 21
212.4280535089793
 31
0.0
  0
LINE
  5
3C9F
  8
AM_0
 10
189.7836170390197
 20
213.06564911612969
 30
0.0
 11
190.15666363972861
 21
205.75393574224279
 31
0.0
  0
LINE
  5
3CA0
  8
AM_0
 10
189.23435590528371
 20
213.07007408976381
 30
0.0
 11
189.60762826995369
 21
205.75393574224279
 31
0.0
  0
LINE
  5
3CA1
  8
AM_0
 10
193.10762826995261
 20
207.44219805075369
 30
0.0
 11
193.1076282699527
 21
214.0539357422436
 31
0.0
  0
LINE
  5
3CA2
  8
AM_0
 10
185.4826282699527
 20
214.55393574224391
 30
0.0
 11
185.48262826995369
 21
214.453935742244
 31
0.0
  0
LINE
  5
3CA3
  8
AM_0
 10
185.48262826995369
 20
214.453935742244
 30
0.0
 11
185.48262826995369
 21
206.8441295773018
 31
0.0
  0
LINE
  5
3CA4
  8
AM_0
 10
179.71681574294271
 20
214.2539357422458
 30
0.0
 11
185.28262826995351
 21
214.25393574224381
 31
0.0
  0
LINE
  5
3CA5
  8
AM_0
 10
187.48262826995369
 20
214.65393574224291
 30
0.0
 11
188.21247938565929
 21
214.58095063067171
 31
0.0
  0
LINE
  5
3CA6
  8
AM_0
 10
179.33270510314361
 20
214.07402794207761
 30
0.0
 11
177.09851763015379
 21
211.3930029744848
 31
0.0
  0
LINE
  5
3CA7
  8
AM_0
 10
187.48262826995369
 20
214.75393574224279
 30
0.0
 11
185.68262826995269
 21
214.75393574224279
 31
0.0
  0
LINE
  5
3CA8
  8
AM_0
 10
188.98262826995369
 20
214.0539357422428
 30
0.0
 11
188.98262826995369
 21
205.75393574224279
 31
0.0
  0
LINE
  5
3CA9
  8
AM_0
 10
188.18262826995269
 20
206.50393574224279
 30
0.0
 11
187.48262826995369
 21
206.50393574224279
 31
0.0
  0
LINE
  5
3CAA
  8
AM_0
 10
188.18262826995269
 20
210.73775651116679
 30
0.0
 11
187.48262826995369
 21
210.73775651116679
 31
0.0
  0
LINE
  5
3CAB
  8
AM_0
 10
188.4826282699527
 20
209.63784024487489
 30
0.0
 11
188.4826282699527
 21
210.43775651116681
 31
0.0
  0
LINE
  5
3CAC
  8
AM_0
 10
187.48262826995369
 20
209.33784024487491
 30
0.0
 11
188.18262826995269
 21
209.33784024487491
 31
0.0
  0
LINE
  5
3CAD
  8
AM_0
 10
188.18262826995269
 20
213.71655128756581
 30
0.0
 11
187.48262826995369
 21
213.71655128756581
 31
0.0
  0
LINE
  5
3CAE
  8
AM_0
 10
188.4826282699527
 20
213.0114404302758
 30
0.0
 11
188.4826282699527
 21
213.4165512875658
 31
0.0
  0
LINE
  5
3CAF
  8
AM_0
 10
187.48262826995369
 20
212.71144043027579
 30
0.0
 11
188.18262826995269
 21
212.71144043027579
 31
0.0
  0
LINE
  5
3CB0
  8
AM_0
 10
187.48262826995369
 20
205.75393574224481
 30
0.0
 11
187.48262826995369
 21
214.45393574224281
 31
0.0
  0
LINE
  5
3CB1
  8
AM_0
 10
188.48262826995369
 20
205.75393574224279
 30
0.0
 11
188.4826282699527
 21
206.20393574224281
 31
0.0
  0
LINE
  5
3CB2
  8
AM_0
 10
185.48262826995369
 20
212.5656734337328
 30
0.0
 11
179.98262826994971
 21
212.5656734337328
 31
0.0
  0
LINE
  5
3CB3
  8
AM_0
 10
185.48262826995369
 20
207.44219805075369
 30
0.0
 11
179.98262826994971
 21
207.44219805075289
 31
0.0
  0
LINE
  5
3CB4
  8
AM_0
 10
185.48262826995369
 20
206.25393574224279
 30
0.0
 11
179.98262826995071
 21
206.25393574224279
 31
0.0
  0
LINE
  5
3CB5
  8
AM_0
 10
179.98262826995071
 20
206.25393574224279
 30
0.0
 11
179.48262826995071
 21
205.75393574224279
 31
0.0
  0
LINE
  5
3CB6
  8
AM_0
 10
179.98262826995071
 20
206.25393574224279
 30
0.0
 11
179.48262826994971
 21
206.75393574224279
 31
0.0
  0
LINE
  5
3CB7
  8
AM_0
 10
179.48262826994971
 20
206.75393574224279
 30
0.0
 11
179.98262826994971
 21
207.44219805075289
 31
0.0
  0
LINE
  5
3CB8
  8
AM_0
 10
185.48262826995369
 20
206.75393574224279
 30
0.0
 11
179.48262826994971
 21
206.75393574224279
 31
0.0
  0
LINE
  5
3CB9
  8
AM_0
 10
185.48262826995369
 20
205.75393574224279
 30
0.0
 11
185.48262826995369
 21
206.8441295773018
 31
0.0
  0
LINE
  5
3CBA
  8
AM_0
 10
179.48262826995071
 20
212.61515167441081
 30
0.0
 11
179.98262826994971
 21
212.5656734337328
 31
0.0
  0
LINE
  5
3CBB
  8
AM_0
 10
179.98262826994971
 20
213.28612695037981
 30
0.0
 11
179.48262826995071
 21
212.61515167441081
 31
0.0
  0
LINE
  5
3CBC
  8
AM_0
 10
179.48262826995071
 20
213.28612695037981
 30
0.0
 11
179.98262826994971
 21
213.7861269503797
 31
0.0
  0
LINE
  5
3CBD
  8
AM_0
 10
179.98262826994971
 20
214.25393574224279
 30
0.0
 11
179.48262826994971
 21
213.7861269503797
 31
0.0
  0
LINE
  5
3CBE
  8
AM_0
 10
179.48262826994971
 20
213.7861269503797
 30
0.0
 11
185.48262826995369
 21
213.7861269503797
 31
0.0
  0
LINE
  5
3CBF
  8
AM_0
 10
185.48262826995369
 20
213.28612695037981
 30
0.0
 11
179.48262826995071
 21
213.28612695037981
 31
0.0
  0
LINE
  5
3CC0
  8
AM_0
 10
188.48262826995369
 20
214.25393574224279
 30
0.0
 11
188.4826282699527
 21
214.28243947360889
 31
0.0
  0
LINE
  5
3CC1
  8
AM_0
 10
188.7826282699537
 20
214.25393574224279
 30
0.0
 11
187.48262826995369
 21
214.25393574224279
 31
0.0
  0
LINE
  5
3CC2
  8
AM_0
 10
176.9826282699527
 20
211.072910774653
 30
0.0
 11
176.9826282699527
 21
205.75393574224279
 31
0.0
  0
LINE
  5
3CC3
  8
AM_0
 10
187.48262826995369
 20
214.45393574224281
 30
0.0
 11
187.48262826995369
 21
214.75393574224279
 31
0.0
  0
ARC
  5
3CC4
  8
AM_0
 10
189.70095743398269
 20
199.0539357422428
 30
0.0
 40
0.0999999999999643
 50
15.00019500651257
 51
90.0
  0
ARC
  5
3CC5
  8
AM_0
 10
186.29512826994971
 20
201.50393574224279
 30
0.0
 40
6.8125000000000382
 50
157.91171016505771
 51
202.08828983494229
  0
ARC
  5
3CC6
  8
AM_0
 10
196.9076282699526
 20
197.05393574224269
 30
0.0
 40
0.1999999999999993
 50
0.0
 51
90.0
  0
ARC
  5
3CC7
  8
AM_0
 10
196.9076282699526
 20
214.45393574224281
 30
0.0
 40
0.2000000000000028
 50
270.0
 51
0.0
  0
ARC
  5
3CC8
  8
AM_0
 10
186.29512826994971
 20
210.00393574224279
 30
0.0
 40
6.8125000000000382
 50
157.91171016505771
 51
202.08828983494229
  0
ARC
  5
3CC9
  8
AM_0
 10
188.95095743398269
 20
198.50393574224279
 30
0.0
 40
0.1000000000000547
 50
288.4639767573006
 51
344.99980499348737
  0
ARC
  5
3CCA
  8
AM_0
 10
189.3053869210587
 20
199.05393574224391
 30
0.0
 40
0.1000000000000014
 50
90.0
 51
164.9998049934843
  0
ARC
  5
3CCB
  8
AM_0
 10
179.71681574294271
 20
197.7539357422408
 30
0.0
 40
0.499999999999975
 50
219.8055710921868
 51
270.0
  0
ARC
  5
3CCC
  8
AM_0
 10
177.48262826995261
 20
200.4349607098338
 30
0.0
 40
0.5
 50
180.00000000000969
 51
219.80557109223059
  0
ARC
  5
3CCD
  8
AM_0
 10
188.18262826995269
 20
198.4964310542108
 30
0.0
 40
0.3000000000000007
 50
0.0
 51
90.0
  0
ARC
  5
3CCE
  8
AM_0
 10
188.18262826995269
 20
198.0913201969208
 30
0.0
 40
0.3000000000000043
 50
270.0
 51
0.0
  0
ARC
  5
3CCF
  8
AM_0
 10
188.18262826995269
 20
201.8700312396119
 30
0.0
 40
0.3000000000000007
 50
0.0
 51
90.0
  0
ARC
  5
3CD0
  8
AM_0
 10
188.18262826995269
 20
201.0701149733197
 30
0.0
 40
0.2999999999999971
 50
270.0
 51
0.0
  0
ARC
  5
3CD1
  8
AM_0
 10
188.18262826995269
 20
205.30393574224391
 30
0.0
 40
0.2999999999999971
 50
270.0
 51
0.0
  0
ARC
  5
3CD2
  8
AM_0
 10
188.18262826995269
 20
197.2254320108778
 30
0.0
 40
0.3000000000000302
 50
275.71059313755637
 51
0.0
  0
ARC
  5
3CD3
  8
AM_0
 10
185.6826282699526
 20
196.95393574224281
 30
0.0
 40
0.1999999999999993
 50
180.0
 51
270.0
  0
ARC
  5
3CD4
  8
AM_0
 10
188.78262826995351
 20
197.4539357422438
 30
0.0
 40
0.1999999999999957
 50
270.0
 51
0.0
  0
ARC
  5
3CD5
  8
AM_0
 10
185.28262826995351
 20
197.0539357422428
 30
0.0
 40
0.1999999999999993
 50
359.99999999997061
 51
90.0
  0
ARC
  5
3CD6
  8
AM_0
 10
190.8053869210587
 20
199.05393574224379
 30
0.0
 40
0.1000000000000014
 50
90.0
 51
164.9998049934843
  0
ARC
  5
3CD7
  8
AM_0
 10
190.45095743398269
 20
198.50393574224279
 30
0.0
 40
0.1000000000000014
 50
270.0
 51
344.99980499348737
  0
ARC
  5
3CD8
  8
AM_0
 10
190.0553869210587
 20
198.50393574224279
 30
0.0
 40
0.1000000000000311
 50
195.00019500644461
 51
270.0
  0
ARC
  5
3CD9
  8
AM_0
 10
192.6076282699527
 20
198.65393574224271
 30
0.0
 40
0.5
 50
359.99999999997721
 51
90.0
  0
ARC
  5
3CDA
  8
AM_0
 10
196.9076282699526
 20
203.86567343373281
 30
0.0
 40
0.1999999999999993
 50
0.0
 51
90.0
  0
ARC
  5
3CDB
  8
AM_0
 10
196.9076282699526
 20
199.14219805075371
 30
0.0
 40
0.2000000000000028
 50
270.0
 51
0.0
  0
ARC
  5
3CDC
  8
AM_0
 10
193.30762826995269
 20
197.45393574224281
 30
0.0
 40
0.1999999999999993
 50
179.99999999994131
 51
270.0
  0
ARC
  5
3CDD
  8
AM_0
 10
193.30762826995269
 20
214.05393574224379
 30
0.0
 40
0.2000000000000028
 50
90.0
 51
180.00000000005531
  0
ARC
  5
3CDE
  8
AM_0
 10
196.9076282699526
 20
212.36567343373281
 30
0.0
 40
0.1999999999999993
 50
0.0
 51
90.0
  0
ARC
  5
3CDF
  8
AM_0
 10
196.9076282699526
 20
207.6421980507528
 30
0.0
 40
0.2000000000000028
 50
270.0
 51
0.0
  0
ARC
  5
3CE0
  8
AM_0
 10
192.6076282699527
 20
212.85393574224281
 30
0.0
 40
0.5
 50
270.0
 51
0.0000000000227982
  0
ARC
  5
3CE1
  8
AM_0
 10
189.30936069837861
 20
213.00393574224279
 30
0.0
 40
0.1000000000000014
 50
90.0
 51
164.99980499355539
  0
ARC
  5
3CE2
  8
AM_0
 10
189.70493121130261
 20
213.00393574224279
 30
0.0
 40
0.0999999999999608
 50
15.00019500651571
 51
90.0
  0
ARC
  5
3CE3
  8
AM_0
 10
190.05936069837861
 20
212.45393574224281
 30
0.0
 40
0.0999999999999608
 50
195.00019500651561
 51
270.0
  0
ARC
  5
3CE4
  8
AM_0
 10
188.95493121130261
 20
212.45393574224281
 30
0.0
 40
0.0999999999999803
 50
286.07948273872381
 51
344.99980499348419
  0
ARC
  5
3CE5
  8
AM_0
 10
185.28262826995351
 20
214.45393574224391
 30
0.0
 40
0.1999999999999957
 50
270.0
 51
0.000000000029312
  0
ARC
  5
3CE6
  8
AM_0
 10
188.78262826995351
 20
214.0539357422428
 30
0.0
 40
0.1999999999999993
 50
0.0
 51
90.0
  0
ARC
  5
3CE7
  8
AM_0
 10
185.6826282699526
 20
214.55393574224391
 30
0.0
 40
0.2000000000000028
 50
90.0
 51
180.0
  0
ARC
  5
3CE8
  8
AM_0
 10
188.18262826995269
 20
214.28243947360889
 30
0.0
 40
0.3000000000000007
 50
0.0
 51
84.289406862443656
  0
ARC
  5
3CE9
  8
AM_0
 10
188.18262826995269
 20
206.20393574224281
 30
0.0
 40
0.3000000000000007
 50
0.0
 51
90.0
  0
ARC
  5
3CEA
  8
AM_0
 10
188.18262826995269
 20
210.43775651116681
 30
0.0
 40
0.3000000000000007
 50
0.0
 51
90.0
  0
ARC
  5
3CEB
  8
AM_0
 10
188.18262826995269
 20
209.63784024487489
 30
0.0
 40
0.2999999999999971
 50
270.0
 51
0.0
  0
ARC
  5
3CEC
  8
AM_0
 10
188.18262826995269
 20
213.4165512875658
 30
0.0
 40
0.3000000000000007
 50
0.0
 51
90.0
  0
ARC
  5
3CED
  8
AM_0
 10
188.18262826995269
 20
213.01144043027591
 30
0.0
 40
0.3000000000000043
 50
270.0
 51
0.0
  0
ARC
  5
3CEE
  8
AM_0
 10
177.48262826995261
 20
211.0729107746528
 30
0.0
 40
0.5000000000000059
 50
140.19442890776941
 51
179.99999999998701
  0
ARC
  5
3CEF
  8
AM_0
 10
179.71681574294271
 20
213.75393574224589
 30
0.0
 40
0.5
 50
90.0
 51
140.19442890781301
  0
LINE
  5
3CF0
  8
AM_0
 10
197.30762826995269
 20
196.75393574224279
 30
0.0
 11
199.1076282699527
 21
196.75393574224279
 31
0.0
  0
LINE
  5
3CF1
  8
AM_0
 10
197.10762826995261
 20
196.95393574224281
 30
0.0
 11
197.10762826995261
 21
214.55393574224379
 31
0.0
  0
LINE
  5
3CF2
  8
AM_0
 10
199.1076282699527
 20
214.75393574224279
 30
0.0
 11
197.30762826995269
 21
214.75393574224279
 31
0.0
  0
ARC
  5
3CF3
  8
AM_0
 10
197.30762826995269
 20
196.95393574224281
 30
0.0
 40
0.1999999999999993
 50
180.0
 51
270.0
  0
ARC
  5
3CF4
  8
AM_0
 10
197.30762826995269
 20
214.55393574224379
 30
0.0
 40
0.2000000000000028
 50
90.0
 51
180.0
  0
LINE
  5
3CF5
  8
AM_0
 10
144.60763826995341
 20
277.81533925101479
 30
0.0
 11
144.6076382699531
 21
240.0930523362575
 31
0.0
  0
LINE
  5
3CF6
  8
AM_0
 10
135.6076382699525
 20
279.75393574224279
 30
0.0
 11
135.6076382699525
 21
200.7135712626947
 31
0.0
  0
LINE
  5
3CF7
  8
AM_0
 10
135.6076382699525
 20
193.5476501318781
 30
0.0
 11
135.6076382699525
 21
171.75393574224279
 31
0.0
  0
LINE
  5
3CF8
  8
AM_0
 10
135.6076382699525
 20
279.75393574224279
 30
0.0
 11
152.6076382699525
 21
278.75393574224279
 31
0.0
  0
LINE
  5
3CF9
  8
AM_0
 10
135.6076382699525
 20
171.75393574224279
 30
0.0
 11
152.6076382699525
 21
172.7539357422427
 31
0.0
  0
LINE
  5
3CFA
  8
AM_0
 10
144.6076382699533
 20
269.34783894033438
 30
0.0
 11
152.6076382699525
 21
269.34783894033421
 31
0.0
  0
LINE
  5
3CFB
  8
AM_0
 10
144.60763826995341
 20
277.81533925101479
 30
0.0
 11
152.6076382699525
 21
277.81533925101479
 31
0.0
  0
LINE
  5
3CFC
  8
AM_0
 10
141.1076382699533
 20
260.39480870750288
 30
0.0
 11
144.6076382699533
 21
260.39480870750288
 31
0.0
  0
LINE
  5
3CFD
  8
AM_0
 10
141.1076382699533
 20
268.89480870750288
 30
0.0
 11
144.6076382699533
 21
268.89480870750288
 31
0.0
  0
LINE
  5
3CFE
  8
AM_0
 10
140.6076382699533
 20
268.39480870750288
 30
0.0
 11
140.6076382699533
 21
260.89480870750288
 31
0.0
  0
ARC
  5
3CFF
  8
AM_0
 10
141.1076382699533
 20
268.39480870750288
 30
0.0
 40
0.5
 50
90.0
 51
180.0
  0
ARC
  5
3D00
  8
AM_0
 10
141.1076382699533
 20
260.89480870750288
 30
0.0
 40
0.5
 50
180.0
 51
270.0
  0
LINE
  5
3D01
  8
AM_0
 10
135.6076382699525
 20
268.02613023538288
 30
0.0
 11
140.6076382699533
 21
268.02613023538288
 31
0.0
  0
LINE
  5
3D02
  8
AM_0
 10
135.6076382699525
 20
258.29104773708718
 30
0.0
 11
144.60763826995321
 21
258.2910477370869
 31
0.0
  0
LINE
  5
3D03
  8
AM_0
 10
144.6076382699533
 20
182.16003254415119
 30
0.0
 11
152.6076382699525
 21
182.16003254415119
 31
0.0
  0
LINE
  5
3D04
  8
AM_0
 10
144.60763826995341
 20
173.69253223347081
 30
0.0
 11
152.6076382699525
 21
173.69253223347081
 31
0.0
  0
LINE
  5
3D05
  8
AM_0
 10
141.1076382699533
 20
191.1130627769827
 30
0.0
 11
144.6076382699533
 21
191.1130627769827
 31
0.0
  0
LINE
  5
3D06
  8
AM_0
 10
141.1076382699533
 20
182.6130627769827
 30
0.0
 11
144.6076382699533
 21
182.6130627769827
 31
0.0
  0
LINE
  5
3D07
  8
AM_0
 10
140.6076382699533
 20
183.1130627769827
 30
0.0
 11
140.6076382699533
 21
190.6130627769827
 31
0.0
  0
ARC
  5
3D08
  8
AM_0
 10
141.1076382699533
 20
183.1130627769827
 30
0.0
 40
0.5
 50
180.0
 51
270.0
  0
ARC
  5
3D09
  8
AM_0
 10
141.1076382699533
 20
190.6130627769827
 30
0.0
 40
0.5
 50
90.0
 51
180.0
  0
LINE
  5
3D0A
  8
AM_0
 10
135.6076382699525
 20
183.48174124910261
 30
0.0
 11
140.6076382699533
 21
183.48174124910261
 31
0.0
  0
LINE
  5
3D0B
  8
AM_0
 10
135.6076382699525
 20
193.21682374739839
 30
0.0
 11
144.60763826995321
 21
193.21682374739839
 31
0.0
  0
LINE
  5
3D0C
  8
AM_0
 10
144.6076382699531
 20
240.0930523362577
 30
0.0
 11
152.6076382699525
 21
240.0930523362575
 31
0.0
  0
LINE
  5
3D0D
  8
AM_0
 10
144.60763826995341
 20
173.69253223347081
 30
0.0
 11
144.60763826995321
 21
198.61821700357279
 31
0.0
  0
LINE
  5
3D0E
  8
AM_0
 10
144.6076382699531
 20
205.0944730795371
 30
0.0
 11
144.6076382699531
 21
211.41481914822799
 31
0.0
  0
LINE
  5
3D0F
  8
AM_0
 10
144.6076382699531
 20
211.41481914822799
 30
0.0
 11
152.6076382699525
 21
211.41481914822799
 31
0.0
  0
LINE
  5
3D10
  8
AM_0
 10
164.51905559130429
 20
202.7539012422427
 30
0.0
 11
172.10762826995261
 21
202.7539012422427
 31
0.0
  0
ARC
  5
3D11
  8
AM_0
 10
164.51905559130429
 20
152.7539012422427
 30
0.0
 40
50.0
 50
90.0
 51
122.4712801930125
1001
GENIUS_GENOBJ-N-FIL_13
1002
{
1000
OWNER
1000
GEN
1002
}
1001
GENIUS_GENODEF_13
1002
{
1000
HIER
1070
     0
1002
}
1002
{
1000
MANEDIT
1070
     0
1002
}
1002
{
1000
NOSEL
1070
     0
1002
}
1002
{
1000
BEHIND
1070
     0
1002
}
1002
{
1000
OTHER
1070
     0
1002
}
1002
{
1000
REACTOR
1002
}
  0
LINE
  5
3D12
  8
AM_0
 10
164.51905559130421
 20
208.75390124224251
 30
0.0
 11
172.10762826995261
 21
208.75390124224231
 31
0.0
  0
ARC
  5
3D13
  8
AM_0
 10
164.5190555913037
 20
152.75390124224231
 30
0.0
 40
56.0
 50
90.0
 51
122.4712801930125
1001
GENIUS_GENODEF_13
1002
{
1000
HIER
1070
     0
1002
}
1002
{
1000
MANEDIT
1070
     0
1002
}
1002
{
1000
NOSEL
1070
     0
1002
}
1002
{
1000
BEHIND
1070
     0
1002
}
1002
{
1000
OTHER
1070
     0
1002
}
1002
{
1000
REACTOR
1002
}
1001
GENIUS_GENOBJ-N-FIL_13
1002
{
1000
OWNER
1000
GEN
1002
}
  0
LINE
  5
3D14
  8
AM_0
 10
100.6970535186169
 20
261.74431208716868
 30
0.0
 11
100.6970535186169
 21
255.2327071882099
 31
0.0
  0
LINE
  5
3D15
  8
AM_0
 10
97.607638269952417
 20
214.7539012422427
 30
0.0
 11
97.607638269952417
 21
209.2539012422427
 31
0.0
  0
LINE
  5
3D16
  8
AM_0
 10
103.1076382699524
 20
222.2539012422427
 30
0.0
 11
103.1076382699524
 21
229.25390124224251
 31
0.0
  0
LINE
  5
3D17
  8
AM_0
 10
114.80763826995241
 20
209.2539012422427
 30
0.0
 11
97.607638269952417
 21
209.2539012422427
 31
0.0
  0
LINE
  5
3D18
  8
AM_0
 10
129.60763826995239
 20
171.75390124224259
 30
0.0
 11
129.60763826995239
 21
189.80300378650281
 31
0.0
  0
LINE
  5
3D19
  8
AM_0
 10
129.60763826995239
 20
196.91486789912011
 30
0.0
 11
129.60763826995239
 21
279.7539012422427
 31
0.0
  0
LINE
  5
3D1A
  8
AM_0
 10
97.607638269952417
 20
224.2539012422427
 30
0.0
 11
98.507638269952395
 21
224.2539012422427
 31
0.0
  0
LINE
  5
3D1B
  8
AM_0
 10
115.1076382699524
 20
217.2539012422427
 30
0.0
 11
115.1076382699524
 21
219.83841092684671
 31
0.0
  0
LINE
  5
3D1C
  8
AM_0
 10
95.407638269952145
 20
227.2539012422427
 30
0.0
 11
95.407638269952145
 21
224.2539012422427
 31
0.0
  0
LINE
  5
3D1D
  8
AM_0
 10
98.507638269952395
 20
223.981549507659
 30
0.0
 11
98.507638269952395
 21
227.52625297682641
 31
0.0
  0
LINE
  5
3D1E
  8
AM_0
 10
95.107638269952304
 20
226.95390124224269
 30
0.0
 11
98.507638269952508
 21
226.95390124224269
 31
0.0
  0
LINE
  5
3D1F
  8
AM_0
 10
102.50763826995239
 20
223.37233138183549
 30
0.0
 11
102.50763826995239
 21
222.2539012422427
 31
0.0
  0
LINE
  5
3D20
  8
AM_0
 10
102.50763826995239
 20
224.2539012422427
 30
0.0
 11
102.50763826995239
 21
224.1539012422426
 31
0.0
  0
LINE
  5
3D21
  8
AM_0
 10
102.50763826995239
 20
224.1539012422426
 30
0.0
 11
102.50763826995239
 21
223.37233138183549
 31
0.0
  0
LINE
  5
3D22
  8
AM_0
 10
97.607638269952417
 20
209.2539012422427
 30
0.0
 11
97.607638269952417
 21
201.0163672328201
 31
0.0
  0
LINE
  5
3D23
  8
AM_0
 10
114.96119166054569
 20
220.19196431744001
 30
0.0
 11
114.60612453435751
 21
220.5470314436281
 31
0.0
  0
LINE
  5
3D24
  8
AM_0
 10
97.607638269952417
 20
227.2539012422427
 30
0.0
 11
97.607638269952417
 21
250.49143525166491
 31
0.0
  0
LINE
  5
3D25
  8
AM_0
 10
129.60763826995239
 20
270.7539012422427
 30
0.0
 11
105.8376295693198
 21
270.7539012422427
 31
0.0
  0
LINE
  5
3D26
  8
AM_0
 10
97.607638269952417
 20
215.6803044179637
 30
0.0
 11
97.607638269952417
 21
224.2539012422427
 31
0.0
  0
LINE
  5
3D27
  8
AM_0
 10
135.60763826995259
 20
279.7539012422427
 30
0.0
 11
129.60763826995239
 21
279.7539012422427
 31
0.0
  0
LINE
  5
3D28
  8
AM_0
 10
129.60763826995239
 20
171.75390124224259
 30
0.0
 11
135.60763826995239
 21
171.75390124224259
 31
0.0
  0
LINE
  5
3D29
  8
AM_0
 10
129.60763826995239
 20
180.75390124224251
 30
0.0
 11
120.1076382699524
 21
180.75390124224251
 31
0.0
  0
LINE
  5
3D2A
  8
AM_0
 10
97.653215010915801
 20
251.0123797846658
 30
0.0
 11
100.222658458578
 21
265.58441769592929
 31
0.0
  0
LINE
  5
3D2B
  8
AM_0
 10
97.607638269952417
 20
215.6803044179637
 30
0.0
 11
97.607638269952417
 21
214.7539012422427
 31
0.0
  0
LINE
  5
3D2C
  8
AM_0
 10
120.1076382699524
 20
180.82252369262861
 30
0.0
 11
117.5448509710554
 21
180.82252369262861
 31
0.0
  0
LINE
  5
3D2D
  8
AM_0
 10
103.6514767776535
 20
180.75390124224251
 30
0.0
 11
104.6076382699524
 21
180.75390124224251
 31
0.0
  0
LINE
  5
3D2E
  8
AM_0
 10
97.653215010915801
 20
200.4954226998195
 30
0.0
 11
100.6970535186169
 21
183.2329567092419
 31
0.0
  0
LINE
  5
3D2F
  8
AM_0
 10
97.607638269952417
 20
200.7539012422427
 30
0.0
 11
97.653215010915801
 21
200.4954226998195
 31
0.0
  0
LINE
  5
3D30
  8
AM_0
 10
97.607638269952417
 20
201.0163672328201
 30
0.0
 11
97.607638269952417
 21
200.7539012422427
 31
0.0
  0
LINE
  5
3D31
  8
AM_0
 10
97.107599601945495
 20
279.25390124224248
 30
0.0
 11
97.107577149546856
 21
306.25390124224248
 31
0.0
  0
LINE
  5
3D32
  8
AM_0
 10
97.107577149546856
 20
306.25390124224248
 30
0.0
 11
105.1075771495494
 21
306.25390124224248
 31
0.0
  0
LINE
  5
3D33
  8
AM_0
 10
105.1075771495494
 20
306.25390124224248
 30
0.0
 11
106.6075724943704
 21
311.85196008023109
 31
0.0
  0
LINE
  5
3D34
  8
AM_0
 10
106.6075724943704
 20
311.85196008023109
 30
0.0
 11
106.60755773101
 21
329.60555236012169
 31
0.0
  0
LINE
  5
3D35
  8
AM_0
 10
97.107577149546856
 20
306.25390124224248
 30
0.0
 11
95.607572494337774
 21
311.85199482707242
 31
0.0
  0
LINE
  5
3D36
  8
AM_0
 10
95.607572494337774
 20
311.85199482707242
 30
0.0
 11
95.607557731013799
 21
329.60554321284798
 31
0.0
  0
LINE
  5
3D37
  8
AM_0
 10
101.1075996019468
 20
329.60554321284798
 30
0.0
 11
101.1075996019468
 21
311.85199482707242
 31
0.0
  0
LINE
  5
3D38
  8
AM_0
 10
105.1075771495494
 20
306.25390124224248
 30
0.0
 11
105.10759960194829
 21
279.25390124224248
 31
0.0
  0
LINE
  5
3D39
  8
AM_0
 10
115.1076382699524
 20
255.2327071882099
 30
0.0
 11
115.1076382699524
 21
209.55390124224269
 31
0.0
  0
LINE
  5
3D3A
  8
AM_0
 10
103.1076382699524
 20
219.83841092684671
 30
0.0
 11
103.1076382699524
 21
217.2539012422427
 31
0.0
  0
LINE
  5
3D3B
  8
AM_0
 10
103.6091520055474
 20
220.5470314436281
 30
0.0
 11
103.2540848793592
 21
220.19196431744001
 31
0.0
  0
LINE
  5
3D3C
  8
AM_0
 10
114.6076382699524
 20
216.7539012422427
 30
0.0
 11
103.6076382699524
 21
216.7539012422427
 31
0.0
  0
LINE
  5
3D3D
  8
AM_0
 10
94.607600433451466
 20
278.2538958370356
 30
0.0
 11
94.60762745948692
 21
273.25389583703549
 31
0.0
  0
LINE
  5
3D3E
  8
AM_0
 10
107.607600433583
 20
278.25390664744958
 30
0.0
 11
107.60762636140269
 21
273.45708399407903
 31
0.0
  0
LINE
  5
3D3F
  8
AM_0
 10
98.228141522033283
 20
271.25390124224248
 30
0.0
 11
97.656579620668055
 21
271.91048506430292
 31
0.0
  0
LINE
  5
3D40
  8
AM_0
 10
95.607627459472354
 20
272.25390124224259
 30
0.0
 11
106.60762636140269
 21
272.25390124224259
 31
0.0
  0
LINE
  5
3D41
  8
AM_0
 10
107.60762636140269
 20
273.45708399407903
 30
0.0
 11
107.60762636140269
 21
273.25390124224248
 31
0.0
  0
LINE
  5
3D42
  8
AM_0
 10
107.60762636140269
 20
273.45708399407903
 30
0.0
 11
107.6076274596184
 21
273.2539066474497
 31
0.0
  0
LINE
  5
3D43
  8
AM_0
 10
95.607600433436943
 20
279.25390124224248
 30
0.0
 11
106.6076004335976
 21
279.25390124224248
 31
0.0
  0
LINE
  5
3D44
  8
AM_0
 10
105.61507423211459
 20
271.28448831252803
 30
0.0
 11
112.73787396546
 21
254.3032489937813
 31
0.0
  0
LINE
  5
3D45
  8
AM_0
 10
98.228141522033283
 20
271.25390124224248
 30
0.0
 11
104.8048565973436
 21
252.55936061184039
 31
0.0
  0
LINE
  5
3D46
  8
AM_0
 10
102.50763826995239
 20
224.2539012422427
 30
0.0
 11
102.50763826995239
 21
224.1539012422426
 31
0.0
  0
LINE
  5
3D47
  8
AM_0
 10
102.50763826995239
 20
224.1539012422426
 30
0.0
 11
102.50763826995239
 21
223.37233138183549
 31
0.0
  0
LINE
  5
3D48
  8
AM_0
 10
102.50763826995239
 20
222.2539012422427
 30
0.0
 11
103.1076382699524
 21
222.2539012422427
 31
0.0
  0
LINE
  5
3D49
  8
AM_0
 10
99.807638269952449
 20
223.37233138183549
 30
0.0
 11
99.807638269952449
 21
228.1354711026498
 31
0.0
  0
LINE
  5
3D4A
  8
AM_0
 10
99.646594040694936
 20
223.0856397534925
 30
0.0
 11
98.71404099118773
 21
223.62404950765901
 31
0.0
  0
LINE
  5
3D4B
  8
AM_0
 10
102.50763826995239
 20
229.25390124224251
 30
0.0
 11
102.50763826995239
 21
224.2539012422427
 31
0.0
  0
LINE
  5
3D4C
  8
AM_0
 10
100.080089861983
 20
222.57847476169979
 30
0.0
 11
102.2351866779217
 21
222.57847476169979
 31
0.0
  0
LINE
  5
3D4D
  8
AM_0
 10
100.080089861983
 20
224.16618800197111
 30
0.0
 11
102.2351866779217
 21
224.16618800197119
 31
0.0
  0
LINE
  5
3D4E
  8
AM_0
 10
98.507638269952508
 20
227.2539012422427
 30
0.0
 11
95.407638269952145
 21
227.2539012422427
 31
0.0
  0
LINE
  5
3D4F
  8
AM_0
 10
95.407638269952145
 20
227.2539012422427
 30
0.0
 11
95.107638269952304
 21
226.95390124224269
 31
0.0
  0
LINE
  5
3D50
  8
AM_0
 10
95.107638269952304
 20
226.95390124224269
 30
0.0
 11
95.107638269952304
 21
224.55390124224269
 31
0.0
  0
LINE
  5
3D51
  8
AM_0
 10
95.407638269952145
 20
224.2539012422427
 30
0.0
 11
97.607638269952417
 21
224.2539012422427
 31
0.0
  0
LINE
  5
3D52
  8
AM_0
 10
95.107638269952304
 20
224.55390124224269
 30
0.0
 11
95.407638269952145
 21
224.2539012422427
 31
0.0
  0
LINE
  5
3D53
  8
AM_0
 10
98.507638269952395
 20
224.55390124224269
 30
0.0
 11
95.107638269952304
 21
224.55390124224269
 31
0.0
  0
ARC
  5
3D54
  8
AM_0
 10
97.107638269952417
 20
225.7539012422427
 30
0.0
 40
18.000000000000082
 50
344.79096035988943
 51
15.209039640107409
  0
ARC
  5
3D55
  8
AM_0
 10
101.21486145392591
 20
223.37233138183549
 30
0.0
 40
1.292776816026465
 50
322.11555894630482
 51
0.0
  0
ARC
  5
3D56
  8
AM_0
 10
121.1076382699524
 20
225.7539012422427
 30
0.0
 40
17.999999999999918
 50
164.7909603598894
 51
195.20903964011049
  0
ARC
  5
3D57
  8
AM_0
 10
101.1075646759933
 20
321.2539012422427
 30
0.0
 40
10.0
 50
56.63303467623782
 51
123.3670606147022
  0
ARC
  5
3D58
  8
AM_0
 10
98.357578666480279
 20
325.1728948532421
 30
0.0
 40
5.2164151124522951
 50
58.18448044842868
 51
121.8155195515713
  0
ARC
  5
3D59
  8
AM_0
 10
103.8575860401149
 20
325.17201996248212
 30
0.0
 40
5.2171403873810611
 50
58.190058295973543
 51
121.81013228735971
  0
ARC
  5
3D5A
  8
AM_0
 10
98.35758604814238
 20
313.21994884141537
 30
0.0
 40
3.0714610092699122
 50
206.44737672421749
 51
333.55262327578248
  0
ARC
  5
3D5B
  8
AM_0
 10
103.8575946795135
 20
313.21820863672002
 30
0.0
 40
3.070669812974502
 50
206.41845794673139
 51
333.58081810520707
  0
ARC
  5
3D5C
  8
AM_0
 10
104.5700681460121
 20
225.7539012422427
 30
0.0
 40
4.762429876059711
 50
160.52575999458611
 51
199.4742400054138
  0
ARC
  5
3D5D
  8
AM_0
 10
101.10041508597899
 20
223.37233138183549
 30
0.0
 40
1.2927768160265549
 50
142.11555894629771
 51
217.8844410536951
  0
ARC
  5
3D5E
  8
AM_0
 10
97.745208393892895
 20
225.7539012422427
 30
0.0
 40
4.762429876059584
 50
340.52575999458628
 51
19.474240005409651
  0
ARC
  5
3D5F
  8
AM_0
 10
101.21486145392591
 20
223.37233138183549
 30
0.0
 40
1.2927768160265021
 50
0.0
 51
37.884441053702282
  0
ARC
  5
3D60
  8
AM_0
 10
114.80763826995241
 20
209.55390124224269
 30
0.0
 40
0.2999999999999972
 50
270.0
 51
0.0
  0
ARC
  5
3D61
  8
AM_0
 10
114.9596779249507
 20
220.9005848342216
 30
0.0
 40
0.4999999999998723
 50
164.7909603598988
 51
225.00000000001839
  0
ARC
  5
3D62
  8
AM_0
 10
100.6076382699524
 20
201.0163672328201
 30
0.0
 40
3.0
 50
180.0
 51
190.00000000000171
  0
ARC
  5
3D63
  8
AM_0
 10
100.6076382699524
 20
250.49143525166491
 30
0.0
 40
2.9999999999999911
 50
169.9999999999981
 51
180.0
  0
ARC
  5
3D64
  8
AM_0
 10
103.6514767776535
 20
183.75390124224251
 30
0.0
 40
2.9999999999999631
 50
190.00000000000171
 51
270.0
  0
ARC
  5
3D65
  8
AM_0
 10
103.6076382699524
 20
217.2539012422427
 30
0.0
 40
0.5
 50
180.0
 51
270.0
  0
ARC
  5
3D66
  8
AM_0
 10
114.6076382699524
 20
217.2539012422427
 30
0.0
 40
0.5
 50
270.0
 51
0.0
  0
ARC
  5
3D67
  8
AM_0
 10
114.6076382699524
 20
219.83841092684671
 30
0.0
 40
0.5
 50
0.0
 51
45.0
  0
ARC
  5
3D68
  8
AM_0
 10
103.2555986149541
 20
220.9005848342216
 30
0.0
 40
0.5000000000001048
 50
314.99999999998619
 51
15.209039640101111
  0
ARC
  5
3D69
  8
AM_0
 10
103.6076382699524
 20
219.83841092684671
 30
0.0
 40
0.499999999999984
 50
134.99999999999079
 51
180.0
  0
ARC
  5
3D6A
  8
AM_0
 10
95.607600433436943
 20
278.25390124224248
 30
0.0
 40
1.0
 50
90.0
 51
180.00030969555451
  0
ARC
  5
3D6B
  8
AM_0
 10
106.6076004335976
 20
278.25390124224248
 30
0.0
 40
0.9999999999999992
 50
0.0003096955479991
 51
90.0
  0
ARC
  5
3D6C
  8
AM_0
 10
95.607627459472354
 20
273.25390124224248
 30
0.0
 40
0.9999999999999992
 50
180.00030969555451
 51
270.0
  0
ARC
  5
3D6D
  8
AM_0
 10
106.60762636140269
 20
273.25390124224248
 30
0.0
 40
1.0
 50
270.0
 51
0.0
  0
ARC
  5
3D6E
  8
AM_0
 10
106.0878681484879
 20
271.65390124224263
 30
0.0
 40
0.5999999999999944
 50
90.0
 51
218.00194433773009
  0
ARC
  5
3D6F
  8
AM_0
 10
96.902326556631451
 20
271.25390124224248
 30
0.0
 40
0.9999999999999468
 50
41.03985310957956
 51
90.0
  0
ARC
  5
3D70
  8
AM_0
 10
98.920443712422994
 20
223.981549507659
 30
0.0
 40
0.4128054424705855
 50
180.0
 51
239.99999999999949
  0
ARC
  5
3D71
  8
AM_0
 10
99.233788598224351
 20
222.37063975349261
 30
0.0
 40
0.8256108849411369
 50
28.217424594175291
 51
59.999999999996653
  0
LINE
  5
3D72
  8
AM_0
 10
98.397372599583932
 20
255.2327071882099
 30
0.0
 11
103.8643767493528
 21
255.2327071882099
 31
0.0
  0
LINE
  5
3D73
  8
AM_0
 10
112.34801169126651
 20
255.2327071882099
 30
0.0
 11
115.1076382699524
 21
255.2327071882099
 31
0.0
  0
LINE
  5
3D74
  8
AM_0
 10
102.50763826995269
 20
229.25390124224251
 30
0.0
 11
103.1076382699526
 21
229.25390124224251
 31
0.0
  0
LINE
  5
3D75
  8
AM_0
 10
99.646594040695135
 20
228.42216273099291
 30
0.0
 11
98.714040991187844
 21
227.88375297682649
 31
0.0
  0
LINE
  5
3D76
  8
AM_0
 10
100.0800898619833
 20
228.92932772278559
 30
0.0
 11
102.2351866779221
 21
228.92932772278539
 31
0.0
  0
LINE
  5
3D77
  8
AM_0
 10
100.0800898619831
 20
227.34161448251419
 30
0.0
 11
102.235186677922
 21
227.3416144825139
 31
0.0
  0
ARC
  5
3D78
  8
AM_0
 10
101.2148614539261
 20
228.1354711026498
 30
0.0
 40
1.292776816026465
 50
359.99999999999352
 51
37.88444105369058
  0
ARC
  5
3D79
  8
AM_0
 10
101.10041508597909
 20
228.1354711026498
 30
0.0
 40
1.2927768160265549
 50
142.11555894629771
 51
217.8844410536951
  0
ARC
  5
3D7A
  8
AM_0
 10
101.2148614539261
 20
228.1354711026498
 30
0.0
 40
1.2927768160265021
 50
322.11555894629322
 51
359.99999999999352
  0
ARC
  5
3D7B
  8
AM_0
 10
98.920443712423079
 20
227.52625297682641
 30
0.0
 40
0.4128054424705855
 50
119.99999999999331
 51
179.99999999999341
  0
ARC
  5
3D7C
  8
AM_0
 10
99.233788598224578
 20
229.1371627309928
 30
0.0
 40
0.8256108849411369
 50
300.00000000000051
 51
331.7825754058203
  0
LINE
  5
3D7D
  8
AM_0
 10
115.107638269953
 20
234.25390124224199
 30
0.0
 11
115.1076382699527
 21
231.66939155763799
 31
0.0
  0
LINE
  5
3D7E
  8
AM_0
 10
114.96119166054611
 20
231.31583816704469
 30
0.0
 11
114.6061245343578
 21
230.9607710408566
 31
0.0
  0
LINE
  5
3D7F
  8
AM_0
 10
103.1076382699527
 20
231.66939155763879
 30
0.0
 11
103.107638269953
 21
234.2539012422429
 31
0.0
  0
LINE
  5
3D80
  8
AM_0
 10
103.6091520055478
 20
230.9607710408574
 30
0.0
 11
103.2540848793596
 21
231.31583816704551
 31
0.0
  0
LINE
  5
3D81
  8
AM_0
 10
114.607638269953
 20
234.75390124224199
 30
0.0
 11
114.1270603841055
 21
234.75390124224219
 31
0.0
  0
LINE
  5
3D82
  8
AM_0
 10
104.0882161558003
 20
234.75390124224279
 30
0.0
 11
103.607638269953
 21
234.75390124224279
 31
0.0
  0
ARC
  5
3D83
  8
AM_0
 10
114.959677924951
 20
230.6072176502631
 30
0.0
 40
0.4999999999998723
 50
134.99999999997701
 51
195.2090396400969
  0
ARC
  5
3D84
  8
AM_0
 10
103.607638269953
 20
234.25390124224279
 30
0.0
 40
0.5
 50
89.999999999996732
 51
179.99999999999659
  0
ARC
  5
3D85
  8
AM_0
 10
114.607638269953
 20
234.25390124224199
 30
0.0
 40
0.5
 50
359.99999999999682
 51
89.999999999996732
  0
ARC
  5
3D86
  8
AM_0
 10
114.6076382699527
 20
231.66939155763799
 30
0.0
 40
0.5
 50
314.9999999999954
 51
359.99999999999682
  0
ARC
  5
3D87
  8
AM_0
 10
103.25559861495429
 20
230.60721765026389
 30
0.0
 40
0.5000000000001048
 50
344.79096035989579
 51
45.000000000009209
  0
ARC
  5
3D88
  8
AM_0
 10
103.6076382699527
 20
231.66939155763879
 30
0.0
 40
0.499999999999984
 50
179.99999999999659
 51
225.0000000000046
  0
LINE
  5
3D89
  8
AM_0
 10
105.0882161558004
 20
250.9000526400645
 30
0.0
 11
105.0882161558003
 21
235.75390124224279
 31
0.0
  0
ARC
  5
3D8A
  8
AM_0
 10
104.0882161558003
 20
235.75390124224279
 30
0.0
 40
1.0
 50
269.99999999999682
 51
0.0
1001
GENIUS_GENODEF_13
1002
{
1000
HIER
1070
     0
1002
}
1002
{
1000
MANEDIT
1070
     0
1002
}
1002
{
1000
NOSEL
1070
     0
1002
}
1002
{
1000
BEHIND
1070
     0
1002
}
1002
{
1000
OTHER
1070
     0
1002
}
1002
{
1000
REACTOR
1002
}
1001
GENIUS_GENOBJ-N-FIL_13
1002
{
1000
OWNER
1000
GEN
1002
}
  0
ARC
  5
3D8B
  8
AM_0
 10
100.0882161558004
 20
250.9000526400645
 30
0.0
 40
5.0
 50
0.0
 51
19.381805699020159
1001
GENIUS_GENOBJ-N-FIL_13
1002
{
1000
OWNER
1000
GEN
1002
}
1001
GENIUS_GENODEF_13
1002
{
1000
HIER
1070
     0
1002
}
1002
{
1000
MANEDIT
1070
     0
1002
}
1002
{
1000
NOSEL
1070
     0
1002
}
1002
{
1000
BEHIND
1070
     0
1002
}
1002
{
1000
OTHER
1070
     0
1002
}
1002
{
1000
REACTOR
1002
}
  0
LINE
  5
3D8C
  8
AM_0
 10
113.1270603841056
 20
252.36923810498129
 30
0.0
 11
113.1270603841056
 21
235.75390124224211
 31
0.0
  0
ARC
  5
3D8D
  8
AM_0
 10
114.1270603841056
 20
235.75390124224211
 30
0.0
 40
1.0
 50
180.0
 51
269.99999999999352
1001
GENIUS_GENOBJ-N-FIL_13
1002
{
1000
OWNER
1000
GEN
1002
}
1001
GENIUS_GENODEF_13
1002
{
1000
HIER
1070
     0
1002
}
1002
{
1000
MANEDIT
1070
     0
1002
}
1002
{
1000
NOSEL
1070
     0
1002
}
1002
{
1000
BEHIND
1070
     0
1002
}
1002
{
1000
OTHER
1070
     0
1002
}
1002
{
1000
REACTOR
1002
}
  0
ARC
  5
3D8E
  8
AM_0
 10
108.1270603841057
 20
252.36923810498129
 30
0.0
 40
5.0
 50
0.0
 51
22.755667319206839
1001
GENIUS_GENODEF_13
1002
{
1000
HIER
1070
     0
1002
}
1002
{
1000
MANEDIT
1070
     0
1002
}
1002
{
1000
NOSEL
1070
     0
1002
}
1002
{
1000
BEHIND
1070
     0
1002
}
1002
{
1000
OTHER
1070
     0
1002
}
1002
{
1000
REACTOR
1002
}
1001
GENIUS_GENOBJ-N-FIL_13
1002
{
1000
OWNER
1000
GEN
1002
}
  0
LINE
  5
3D8F
  8
AM_0
 10
103.83417711661041
 20
230.7357459297946
 30
0.0
 11
114.38109942329569
 21
230.7357459297946
 31
0.0
  0
LINE
  5
3D90
  8
AM_0
 10
103.83417711661011
 20
220.77205655469081
 30
0.0
 11
114.3810994232947
 21
220.77205655469081
 31
0.0
  0
LINE
  5
3D91
  8
AM_0
 10
100.6970535186169
 20
189.7634903973165
 30
0.0
 11
100.6970535186169
 21
209.2539012422427
 31
0.0
  0
LINE
  5
3D92
  8
AM_0
 10
103.6514767776535
 20
180.75390124224251
 30
0.0
 11
103.6514767776535
 21
209.2539012422427
 31
0.0
  0
LINE
  5
3DAD
  8
AM_0
 10
113.4064913343293
 20
179.49314808828831
 30
0.0
 11
137.6752162651571
 21
194.93693444555771
 31
0.0
  0
LINE
  5
3DAE
  8
AM_0
 10
110.1852306151916
 20
184.555112072686
 30
0.0
 11
134.4539555460187
 21
199.99889842995529
 31
0.0
  0
POLYLINE
  5
3DAF
  8
AM_0
 66
     1
 10
0.0
 20
0.0
 30
0.0
 70
     8
  0
VERTEX
  5
55B8
  8
AM_0
 10
110.185
 20
184.55500000000001
 30
0.0
 70
    32
  0
VERTEX
  5
55B9
  8
AM_0
 10
110.10899999999999
 20
184.50599999999989
 30
0.0
 70
    32
  0
VERTEX
  5
55BA
  8
AM_0
 10
110.03400000000001
 20
184.45500000000001
 30
0.0
 70
    32
  0
VERTEX
  5
55BB
  8
AM_0
 10
109.95999999999999
 20
184.40199999999999
 30
0.0
 70
    32
  0
VERTEX
  5
55BC
  8
AM_0
 10
109.887
 20
184.3479999999999
 30
0.0
 70
    32
  0
VERTEX
  5
55BD
  8
AM_0
 10
109.816
 20
184.29300000000001
 30
0.0
 70
    32
  0
VERTEX
  5
55BE
  8
AM_0
 10
109.745
 20
184.23699999999999
 30
0.0
 70
    32
  0
VERTEX
  5
55BF
  8
AM_0
 10
109.676
 20
184.179
 30
0.0
 70
    32
  0
VERTEX
  5
55C0
  8
AM_0
 10
109.608
 20
184.119
 30
0.0
 70
    32
  0
VERTEX
  5
55C1
  8
AM_0
 10
109.541
 20
184.059
 30
0.0
 70
    32
  0
VERTEX
  5
55C2
  8
AM_0
 10
109.476
 20
183.99700000000001
 30
0.0
 70
    32
  0
VERTEX
  5
55C3
  8
AM_0
 10
109.41200000000001
 20
183.934
 30
0.0
 70
    32
  0
VERTEX
  5
55C4
  8
AM_0
 10
109.34999999999999
 20
183.87
 30
0.0
 70
    32
  0
VERTEX
  5
55C5
  8
AM_0
 10
109.289
 20
183.80500000000001
 30
0.0
 70
    32
  0
VERTEX
  5
55C6
  8
AM_0
 10
109.229
 20
183.739
 30
0.0
 70
    32
  0
VERTEX
  5
55C7
  8
AM_0
 10
109.17100000000001
 20
183.672
 30
0.0
 70
    32
  0
VERTEX
  5
55C8
  8
AM_0
 10
109.11499999999999
 20
183.60300000000001
 30
0.0
 70
    32
  0
VERTEX
  5
55C9
  8
AM_0
 10
109.06
 20
183.53399999999999
 30
0.0
 70
    32
  0
VERTEX
  5
55CA
  8
AM_0
 10
109.00700000000001
 20
183.464
 30
0.0
 70
    32
  0
VERTEX
  5
55CB
  8
AM_0
 10
108.956
 20
183.393
 30
0.0
 70
    32
  0
VERTEX
  5
55CC
  8
AM_0
 10
108.90600000000001
 20
183.321
 30
0.0
 70
    32
  0
VERTEX
  5
55CD
  8
AM_0
 10
108.858
 20
183.24799999999999
 30
0.0
 70
    32
  0
VERTEX
  5
55CE
  8
AM_0
 10
108.812
 20
183.17500000000001
 30
0.0
 70
    32
  0
VERTEX
  5
55CF
  8
AM_0
 10
108.767
 20
183.101
 30
0.0
 70
    32
  0
VERTEX
  5
55D0
  8
AM_0
 10
108.72499999999999
 20
183.0259999999999
 30
0.0
 70
    32
  0
VERTEX
  5
55D1
  8
AM_0
 10
108.684
 20
182.95099999999999
 30
0.0
 70
    32
  0
VERTEX
  5
55D2
  8
AM_0
 10
108.645
 20
182.875
 30
0.0
 70
    32
  0
VERTEX
  5
55D3
  8
AM_0
 10
108.608
 20
182.79900000000001
 30
0.0
 70
    32
  0
VERTEX
  5
55D4
  8
AM_0
 10
108.57299999999999
 20
182.72200000000001
 30
0.0
 70
    32
  0
VERTEX
  5
55D5
  8
AM_0
 10
108.54000000000001
 20
182.64500000000001
 30
0.0
 70
    32
  0
VERTEX
  5
55D6
  8
AM_0
 10
108.509
 20
182.56700000000001
 30
0.0
 70
    32
  0
VERTEX
  5
55D7
  8
AM_0
 10
108.48
 20
182.489
 30
0.0
 70
    32
  0
VERTEX
  5
55D8
  8
AM_0
 10
108.453
 20
182.41099999999989
 30
0.0
 70
    32
  0
VERTEX
  5
55D9
  8
AM_0
 10
108.42700000000001
 20
182.333
 30
0.0
 70
    32
  0
VERTEX
  5
55DA
  8
AM_0
 10
108.404
 20
182.25399999999999
 30
0.0
 70
    32
  0
VERTEX
  5
55DB
  8
AM_0
 10
108.383
 20
182.17500000000001
 30
0.0
 70
    32
  0
VERTEX
  5
55DC
  8
AM_0
 10
108.364
 20
182.09599999999989
 30
0.0
 70
    32
  0
VERTEX
  5
55DD
  8
AM_0
 10
108.34699999999999
 20
182.017
 30
0.0
 70
    32
  0
VERTEX
  5
55DE
  8
AM_0
 10
108.33199999999999
 20
181.93799999999999
 30
0.0
 70
    32
  0
VERTEX
  5
55DF
  8
AM_0
 10
108.31999999999999
 20
181.86000000000001
 30
0.0
 70
    32
  0
VERTEX
  5
55E0
  8
AM_0
 10
108.309
 20
181.78099999999989
 30
0.0
 70
    32
  0
VERTEX
  5
55E1
  8
AM_0
 10
108.3
 20
181.702
 30
0.0
 70
    32
  0
VERTEX
  5
55E2
  8
AM_0
 10
108.294
 20
181.624
 30
0.0
 70
    32
  0
VERTEX
  5
55E3
  8
AM_0
 10
108.289
 20
181.54599999999999
 30
0.0
 70
    32
  0
VERTEX
  5
55E4
  8
AM_0
 10
108.28700000000001
 20
181.46799999999999
 30
0.0
 70
    32
  0
VERTEX
  5
55E5
  8
AM_0
 10
108.28700000000001
 20
181.38999999999999
 30
0.0
 70
    32
  0
VERTEX
  5
55E6
  8
AM_0
 10
108.289
 20
181.31299999999999
 30
0.0
 70
    32
  0
VERTEX
  5
55E7
  8
AM_0
 10
108.29300000000001
 20
181.23599999999999
 30
0.0
 70
    32
  0
VERTEX
  5
55E8
  8
AM_0
 10
108.29900000000001
 20
181.16
 30
0.0
 70
    32
  0
VERTEX
  5
55E9
  8
AM_0
 10
108.30800000000001
 20
181.084
 30
0.0
 70
    32
  0
VERTEX
  5
55EA
  8
AM_0
 10
108.318
 20
181.00899999999999
 30
0.0
 70
    32
  0
VERTEX
  5
55EB
  8
AM_0
 10
108.33
 20
180.934
 30
0.0
 70
    32
  0
VERTEX
  5
55EC
  8
AM_0
 10
108.345
 20
180.86000000000001
 30
0.0
 70
    32
  0
VERTEX
  5
55ED
  8
AM_0
 10
108.36199999999999
 20
180.78700000000001
 30
0.0
 70
    32
  0
VERTEX
  5
55EE
  8
AM_0
 10
108.38
 20
180.715
 30
0.0
 70
    32
  0
VERTEX
  5
55EF
  8
AM_0
 10
108.401
 20
180.643
 30
0.0
 70
    32
  0
VERTEX
  5
55F0
  8
AM_0
 10
108.42400000000001
 20
180.572
 30
0.0
 70
    32
  0
VERTEX
  5
55F1
  8
AM_0
 10
108.449
 20
180.50200000000001
 30
0.0
 70
    32
  0
VERTEX
  5
55F2
  8
AM_0
 10
108.476
 20
180.43299999999999
 30
0.0
 70
    32
  0
VERTEX
  5
55F3
  8
AM_0
 10
108.505
 20
180.36500000000001
 30
0.0
 70
    32
  0
VERTEX
  5
55F4
  8
AM_0
 10
108.536
 20
180.298
 30
0.0
 70
    32
  0
VERTEX
  5
55F5
  8
AM_0
 10
108.568
 20
180.232
 30
0.0
 70
    32
  0
VERTEX
  5
55F6
  8
AM_0
 10
108.60299999999999
 20
180.167
 30
0.0
 70
    32
  0
VERTEX
  5
55F7
  8
AM_0
 10
108.64
 20
180.10300000000001
 30
0.0
 70
    32
  0
VERTEX
  5
55F8
  8
AM_0
 10
108.678
 20
180.03999999999999
 30
0.0
 70
    32
  0
VERTEX
  5
55F9
  8
AM_0
 10
108.71899999999999
 20
179.97900000000001
 30
0.0
 70
    32
  0
VERTEX
  5
55FA
  8
AM_0
 10
108.761
 20
179.91800000000001
 30
0.0
 70
    32
  0
VERTEX
  5
55FB
  8
AM_0
 10
108.80500000000001
 20
179.85900000000001
 30
0.0
 70
    32
  0
VERTEX
  5
55FC
  8
AM_0
 10
108.851
 20
179.80199999999999
 30
0.0
 70
    32
  0
VERTEX
  5
55FD
  8
AM_0
 10
108.899
 20
179.745
 30
0.0
 70
    32
  0
VERTEX
  5
55FE
  8
AM_0
 10
108.94799999999999
 20
179.69
 30
0.0
 70
    32
  0
VERTEX
  5
55FF
  8
AM_0
 10
109.0
 20
179.637
 30
0.0
 70
    32
  0
VERTEX
  5
5600
  8
AM_0
 10
109.05200000000001
 20
179.58500000000001
 30
0.0
 70
    32
  0
VERTEX
  5
5601
  8
AM_0
 10
109.107
 20
179.53399999999999
 30
0.0
 70
    32
  0
VERTEX
  5
5602
  8
AM_0
 10
109.163
 20
179.48500000000001
 30
0.0
 70
    32
  0
VERTEX
  5
5603
  8
AM_0
 10
109.221
 20
179.43700000000001
 30
0.0
 70
    32
  0
VERTEX
  5
5604
  8
AM_0
 10
109.28
 20
179.39099999999999
 30
0.0
 70
    32
  0
VERTEX
  5
5605
  8
AM_0
 10
109.34099999999999
 20
179.346
 30
0.0
 70
    32
  0
VERTEX
  5
5606
  8
AM_0
 10
109.40300000000001
 20
179.304
 30
0.0
 70
    32
  0
VERTEX
  5
5607
  8
AM_0
 10
109.467
 20
179.262
 30
0.0
 70
    32
  0
VERTEX
  5
5608
  8
AM_0
 10
109.532
 20
179.22300000000001
 30
0.0
 70
    32
  0
VERTEX
  5
5609
  8
AM_0
 10
109.599
 20
179.185
 30
0.0
 70
    32
  0
VERTEX
  5
560A
  8
AM_0
 10
109.666
 20
179.149
 30
0.0
 70
    32
  0
VERTEX
  5
560B
  8
AM_0
 10
109.735
 20
179.114
 30
0.0
 70
    32
  0
VERTEX
  5
560C
  8
AM_0
 10
109.806
 20
179.08099999999999
 30
0.0
 70
    32
  0
VERTEX
  5
560D
  8
AM_0
 10
109.877
 20
179.05000000000001
 30
0.0
 70
    32
  0
VERTEX
  5
560E
  8
AM_0
 10
109.95
 20
179.02099999999999
 30
0.0
 70
    32
  0
VERTEX
  5
560F
  8
AM_0
 10
110.024
 20
178.994
 30
0.0
 70
    32
  0
VERTEX
  5
5610
  8
AM_0
 10
110.099
 20
178.96799999999999
 30
0.0
 70
    32
  0
VERTEX
  5
5611
  8
AM_0
 10
110.17400000000001
 20
178.94499999999999
 30
0.0
 70
    32
  0
VERTEX
  5
5612
  8
AM_0
 10
110.251
 20
178.923
 30
0.0
 70
    32
  0
VERTEX
  5
5613
  8
AM_0
 10
110.32899999999999
 20
178.90299999999999
 30
0.0
 70
    32
  0
VERTEX
  5
5614
  8
AM_0
 10
110.408
 20
178.88499999999999
 30
0.0
 70
    32
  0
VERTEX
  5
5615
  8
AM_0
 10
110.48699999999999
 20
178.869
 30
0.0
 70
    32
  0
VERTEX
  5
5616
  8
AM_0
 10
110.568
 20
178.85400000000001
 30
0.0
 70
    32
  0
VERTEX
  5
5617
  8
AM_0
 10
110.649
 20
178.84200000000001
 30
0.0
 70
    32
  0
VERTEX
  5
5618
  8
AM_0
 10
110.73
 20
178.83199999999999
 30
0.0
 70
    32
  0
VERTEX
  5
5619
  8
AM_0
 10
110.813
 20
178.82299999999989
 30
0.0
 70
    32
  0
VERTEX
  5
561A
  8
AM_0
 10
110.896
 20
178.81700000000001
 30
0.0
 70
    32
  0
VERTEX
  5
561B
  8
AM_0
 10
110.979
 20
178.81200000000001
 30
0.0
 70
    32
  0
VERTEX
  5
561C
  8
AM_0
 10
111.063
 20
178.809
 30
0.0
 70
    32
  0
VERTEX
  5
561D
  8
AM_0
 10
111.148
 20
178.80799999999999
 30
0.0
 70
    32
  0
VERTEX
  5
561E
  8
AM_0
 10
111.232
 20
178.809
 30
0.0
 70
    32
  0
VERTEX
  5
561F
  8
AM_0
 10
111.318
 20
178.81299999999999
 30
0.0
 70
    32
  0
VERTEX
  5
5620
  8
AM_0
 10
111.40300000000001
 20
178.81800000000001
 30
0.0
 70
    32
  0
VERTEX
  5
5621
  8
AM_0
 10
111.489
 20
178.82400000000001
 30
0.0
 70
    32
  0
VERTEX
  5
5622
  8
AM_0
 10
111.575
 20
178.833
 30
0.0
 70
    32
  0
VERTEX
  5
5623
  8
AM_0
 10
111.661
 20
178.84399999999999
 30
0.0
 70
    32
  0
VERTEX
  5
5624
  8
AM_0
 10
111.747
 20
178.857
 30
0.0
 70
    32
  0
VERTEX
  5
5625
  8
AM_0
 10
111.833
 20
178.87100000000001
 30
0.0
 70
    32
  0
VERTEX
  5
5626
  8
AM_0
 10
111.919
 20
178.88800000000001
 30
0.0
 70
    32
  0
VERTEX
  5
5627
  8
AM_0
 10
112.005
 20
178.90600000000001
 30
0.0
 70
    32
  0
VERTEX
  5
5628
  8
AM_0
 10
112.09099999999999
 20
178.92699999999999
 30
0.0
 70
    32
  0
VERTEX
  5
5629
  8
AM_0
 10
112.17700000000001
 20
178.94900000000001
 30
0.0
 70
    32
  0
VERTEX
  5
562A
  8
AM_0
 10
112.262
 20
178.97300000000001
 30
0.0
 70
    32
  0
VERTEX
  5
562B
  8
AM_0
 10
112.34699999999999
 20
178.999
 30
0.0
 70
    32
  0
VERTEX
  5
562C
  8
AM_0
 10
112.432
 20
179.02600000000001
 30
0.0
 70
    32
  0
VERTEX
  5
562D
  8
AM_0
 10
112.517
 20
179.05600000000001
 30
0.0
 70
    32
  0
VERTEX
  5
562E
  8
AM_0
 10
112.601
 20
179.08699999999999
 30
0.0
 70
    32
  0
VERTEX
  5
562F
  8
AM_0
 10
112.684
 20
179.12
 30
0.0
 70
    32
  0
VERTEX
  5
5630
  8
AM_0
 10
112.767
 20
179.155
 30
0.0
 70
    32
  0
VERTEX
  5
5631
  8
AM_0
 10
112.84999999999999
 20
179.19099999999989
 30
0.0
 70
    32
  0
VERTEX
  5
5632
  8
AM_0
 10
112.932
 20
179.22900000000001
 30
0.0
 70
    32
  0
VERTEX
  5
5633
  8
AM_0
 10
113.01300000000001
 20
179.26900000000001
 30
0.0
 70
    32
  0
VERTEX
  5
5634
  8
AM_0
 10
113.093
 20
179.31099999999989
 30
0.0
 70
    32
  0
VERTEX
  5
5635
  8
AM_0
 10
113.173
 20
179.35400000000001
 30
0.0
 70
    32
  0
VERTEX
  5
5636
  8
AM_0
 10
113.252
 20
179.399
 30
0.0
 70
    32
  0
VERTEX
  5
5637
  8
AM_0
 10
113.32899999999999
 20
179.44499999999999
 30
0.0
 70
    32
  0
VERTEX
  5
5638
  8
AM_0
 10
113.40600000000001
 20
179.49299999999999
 30
0.0
 70
    32
  0
SEQEND
  5
5639
  8
AM_0
  0
LINE
  5
3DB0
  8
AM_0
 10
128.60763826995239
 20
279.55390124224272
 30
0.0
 11
128.60763826995239
 21
271.95390124224252
 31
0.0
1001
GENIUS_GENOREF_13
1005
0
  0
LINE
  5
3DB1
  8
AM_0
 10
128.60763826995239
 20
271.95390124224252
 30
0.0
 11
129.60763826995239
 21
271.95390124224252
 31
0.0
1001
GENIUS_GENOREF_13
1005
0
  0
LINE
  5
3DB2
  8
AM_0
 10
129.60763826995239
 20
275.55390124224272
 30
0.0
 11
128.60763826995239
 21
275.1899310079765
 31
0.0
1001
GENIUS_GENOREF_13
1005
0
  0
LINE
  5
3DB3
  8
AM_0
 10
129.60763826995239
 20
275.95390124224252
 30
0.0
 11
128.60763826995239
 21
275.5899310079763
 31
0.0
1001
GENIUS_GENOREF_13
1005
0
  0
LINE
  5
3DB4
  8
AM_0
 10
129.60763826995239
 20
279.55390124224272
 30
0.0
 11
128.60763826995239
 21
279.55390124224272
 31
0.0
1001
GENIUS_GENOREF_13
1005
0
  0
LINE
  5
3DB5
  8
AM_0N
 10
127.54870075782461
 20
271.84654626993608
 30
0.0
 11
128.60763826995239
 21
271.7539012422427
 31
0.0
  0
LINE
  5
3DB6
  8
AM_0N
 10
127.54870075782461
 20
279.6612562145491
 30
0.0
 11
128.60763826995239
 21
279.7539012422427
 31
0.0
  0
ARC
  5
3DB7
  8
AM_0N
 10
132.00763826995239
 20
275.7539012422427
 30
0.0
 40
6.5
 50
151.82726586813479
 51
208.1727341318651
  0
ARC
  5
3DB8
  8
AM_0N
 10
127.6881499462208
 20
278.06734469760238
 30
0.0
 40
1.6000000000000001
 50
94.99999999999973
 51
151.82726586813479
  0
ARC
  5
3DB9
  8
AM_0N
 10
127.6881499462208
 20
273.44045778688297
 30
0.0
 40
1.6000000000000001
 50
208.1727341318651
 51
265.00000000000028
  0
LINE
  5
3DBA
  8
AM_0N
 10
128.60763826995239
 20
279.7539012422427
 30
0.0
 11
128.60763826995239
 21
271.7539012422427
 31
0.0
  0
LINE
  5
3DC5
  8
AM_0
 10
108.6576382699525
 20
196.75284485387041
 30
0.0
 11
113.55763826995241
 21
196.75284485387041
 31
0.0
  0
LINE
  5
3DC6
  8
AM_0
 10
108.6576382699525
 20
195.53982453543799
 30
0.0
 11
113.55763826995241
 21
195.53982453543799
 31
0.0
  0
LINE
  5
3DC7
  8
AM_0
 10
107.8576382699524
 20
195.9528448538704
 30
0.0
 11
107.8576382699524
 21
190.3117134334241
 31
0.0
  0
LINE
  5
3DC8
  8
AM_0
 10
107.8576382699524
 20
188.4803075644914
 30
0.0
 11
107.8576382699524
 21
190.3117134334241
 31
0.0
  0
LINE
  5
3DC9
  8
AM_0
 10
104.00763826995239
 20
181.79061090456841
 30
0.0
 11
104.00763826995239
 21
188.41317528269551
 31
0.0
  0
LINE
  5
3DCA
  8
AM_0
 10
114.3576382699524
 20
188.4803075644914
 30
0.0
 11
114.3576382699524
 21
190.3117134334241
 31
0.0
  0
LINE
  5
3DCB
  8
AM_0
 10
114.3576382699524
 20
195.9528448538704
 30
0.0
 11
114.3576382699524
 21
190.3117134334241
 31
0.0
  0
LINE
  5
3DCC
  8
AM_0
 10
118.2076382699524
 20
182.54843375966001
 30
0.0
 11
118.2076382699524
 21
181.79061090456841
 31
0.0
  0
LINE
  5
3DCD
  8
AM_0
 10
111.1076382699524
 20
186.6700940767449
 30
0.0
 11
104.6076382699524
 21
184.40432460915321
 31
0.0
  0
LINE
  5
3DCE
  8
AM_0
 10
112.6589860356822
 20
186.129325399636
 30
0.0
 11
111.1076382699524
 21
186.6700940767449
 31
0.0
  0
LINE
  5
3DCF
  8
AM_0
 10
110.91018189608241
 20
185.0164462685872
 30
0.0
 11
104.6076382699524
 21
182.81950612762569
 31
0.0
  0
LINE
  5
3DD0
  8
AM_0
 10
117.6076382699524
 20
182.16661428456311
 30
0.0
 11
117.6076382699524
 21
181.5351834603085
 31
0.0
  0
LINE
  5
3DD1
  8
AM_0
 10
117.6076382699524
 20
181.5351834603085
 30
0.0
 11
117.6076382699524
 21
179.5159408421878
 31
0.0
  0
LINE
  5
3DD2
  8
AM_0
 10
111.10759600812619
 20
177.25015664297209
 30
0.0
 11
117.6076382699524
 21
179.5159408421878
 31
0.0
  0
LINE
  5
3DD3
  8
AM_0
 10
104.6076382699524
 20
179.5159408421878
 30
0.0
 11
104.6076382699524
 21
181.5351834603085
 31
0.0
  0
LINE
  5
3DD4
  8
AM_0
 10
104.6076382699524
 20
179.5159408421878
 30
0.0
 11
111.10759600812619
 21
177.25018610622001
 31
0.0
  0
LINE
  5
3DD5
  8
AM_0
 10
104.6076382699524
 20
181.5351834603085
 30
0.0
 11
104.6076382699524
 21
184.40432460915321
 31
0.0
  0
LINE
  5
3DD6
  8
AM_0
 10
111.11920422251831
 20
185.3238835740859
 30
0.0
 11
111.1076382699524
 21
186.6700940767449
 31
0.0
  0
ARC
  5
3DD7
  8
AM_0
 10
108.4114511210209
 20
182.50431333590811
 30
0.0
 40
6.001601094213977
 50
95.294644622325137
 51
137.2036378052704
  0
ARC
  5
3DD8
  8
AM_0
 10
108.4114511210209
 20
184.33571920484081
 30
0.0
 40
6.0016010942139619
 50
95.294644622325137
 51
137.2036378052704
  0
ARC
  5
3DD9
  8
AM_0
 10
104.8773699551496
 20
183.0011989929921
 30
0.0
 40
1.4906229315522701
 50
234.30512237790029
 51
259.57476505017542
  0
ARC
  5
3DDA
  8
AM_0
 10
113.803825418884
 20
184.33571920484081
 30
0.0
 40
6.0016010942138749
 50
53.236790438343668
 51
84.705355377678401
  0
ARC
  5
3DDB
  8
AM_0
 10
113.803825418884
 20
182.50431333590811
 30
0.0
 40
6.0016010942138749
 50
70.204787517104947
 51
84.705355377678401
  0
ARC
  5
3DDC
  8
AM_0
 10
117.3379065847554
 20
183.0011989929921
 30
0.0
 40
1.490622931552253
 50
280.42523494982129
 51
305.69487762209508
  0
ARC
  5
3DDD
  8
AM_0
 10
110.8401864272488
 20
190.8290064168292
 30
8206336.7530117426
 40
12.9134744604336
 50
271.18655406403752
 51
287.92670513354841
  0
LINE
  5
3DDE
  8
AM_0
 10
114.8149553566474
 20
178.54246766101369
 30
8206336.7530117426
 11
115.22753612384859
 21
178.69570934640609
 31
8206336.7530117426
  0
LINE
  5
3DDF
  8
AM_0
 10
115.22753612384859
 20
178.69570934640609
 30
8206336.7530117426
 11
115.6300278681051
 21
178.87467870911209
 31
8206336.7530117426
  0
ARC
  5
3DE0
  8
AM_0
 10
113.12626622734921
 20
184.1594792728344
 30
8206336.7530117426
 40
5.8479004225482907
 50
295.35002817212489
 51
303.5670510400584
  0
LINE
  5
3DE1
  8
AM_0
 10
116.35964330335911
 20
179.2867785805721
 30
8206336.7530117426
 11
116.6741861826103
 21
179.5190520357427
 31
8206336.7530117426
  0
LINE
  5
3DE2
  8
AM_0
 10
116.6741861826103
 20
179.5190520357427
 30
8206336.7530117426
 11
116.96337533080759
 21
179.78192291178129
 31
8206336.7530117426
  0
ARC
  5
3DE3
  8
AM_0
 10
115.0844923674295
 20
181.6476073019885
 30
8206336.7530117426
 40
2.6478254160605781
 50
315.20195107610522
 51
327.6690874537353
  0
LINE
  5
3DE4
  8
AM_0
 10
117.32183444727529
 20
180.23152826051961
 30
8206336.7530117426
 11
117.45075040355469
 21
180.47106002575589
 31
8206336.7530117426
  0
LINE
  5
3DE5
  8
AM_0
 10
117.45075040355469
 20
180.47106002575589
 30
8206336.7530117426
 11
117.5448509710554
 21
180.72571901424021
 31
8206336.7530117426
  0
ARC
  5
3DE6
  8
AM_0
 10
115.94603073210639
 20
181.18080767884339
 30
8206336.7530117426
 40
1.6623272388802151
 50
344.11151119415172
 51
352.55958186686092
  0
LINE
  5
3DE7
  8
AM_0
 10
117.59436127443441
 20
180.96554441594881
 30
8206336.7530117426
 11
117.6042659388754
 21
181.06641016966941
 31
8206336.7530117426
  0
LINE
  5
3DE8
  8
AM_0
 10
117.6042659388754
 20
181.06641016966941
 30
8206336.7530117426
 11
117.6076382699524
 21
181.1677088834083
 31
8206336.7530117426
  0
ARC
  5
3DE9
  8
AM_0
 10
116.012544851283
 20
181.16473273191011
 30
8206336.7530117426
 40
1.5950961951431459
 50
0.1069032823798393
 51
11.47976002760999
  0
LINE
  5
3DEA
  8
AM_0
 10
117.5757312603414
 20
181.48219158325159
 30
8206336.7530117426
 11
117.5350993501562
 21
181.6427654587761
 31
8206336.7530117426
  0
LINE
  5
3DEB
  8
AM_0
 10
117.5350993501562
 20
181.6427654587761
 30
8206336.7530117426
 11
117.4794592856226
 21
181.7987337521989
 31
8206336.7530117426
  0
ARC
  5
3DEC
  8
AM_0
 10
115.6039849919689
 20
181.02335097081391
 30
8206336.7530117426
 40
2.029438908620818
 50
22.461811304460369
 51
29.330593568206702
  0
ARC
  5
3DED
  8
AM_0
 10
111.3750901126717
 20
190.82900641688241
 30
8206336.7530117426
 40
12.91347446048893
 50
252.0732948664546
 51
268.81307083254762
  0
LINE
  5
3DEE
  8
AM_0
 10
107.4003211832575
 20
178.54246766101369
 30
8206336.7530117426
 11
106.9877404160562
 21
178.69570934640609
 31
8206336.7530117426
  0
LINE
  5
3DEF
  8
AM_0
 10
106.9877404160562
 20
178.69570934640609
 30
8206336.7530117426
 11
106.5852486717997
 21
178.87467870911209
 31
8206336.7530117426
  0
ARC
  5
3DF0
  8
AM_0
 10
109.0890103125606
 20
184.1594792728431
 30
8206336.7530117426
 40
5.8479004225582409
 50
236.43294895995061
 51
244.649971827868
  0
LINE
  5
3DF1
  8
AM_0
 10
105.8556332365457
 20
179.2867785805721
 30
8206336.7530117426
 11
105.54109035729461
 21
179.5190520357427
 31
8206336.7530117426
  0
LINE
  5
3DF2
  8
AM_0
 10
105.54109035729461
 20
179.5190520357427
 30
8206336.7530117426
 11
105.2519012090971
 21
179.78192291178129
 31
8206336.7530117426
  0
ARC
  5
3DF3
  8
AM_0
 10
107.130784172475
 20
181.64760730198799
 30
8206336.7530117426
 40
2.6478254160599781
 50
212.3309125462558
 51
224.79804892389021
  0
LINE
  5
3DF4
  8
AM_0
 10
104.8934420926296
 20
180.23152826051961
 30
8206336.7530117426
 11
104.7645261363502
 21
180.47106002575589
 31
8206336.7530117426
  0
LINE
  5
3DF5
  8
AM_0
 10
104.7645261363502
 20
180.47106002575589
 30
8206336.7530117426
 11
104.6704255688494
 21
180.72571901424021
 31
8206336.7530117426
  0
ARC
  5
3DF6
  8
AM_0
 10
106.2692458078281
 20
181.18080767884999
 30
8206336.7530117426
 40
1.6623272389105701
 50
187.4404181332275
 51
195.8884888057874
  0
LINE
  5
3DF7
  8
AM_0
 10
104.6209152654704
 20
180.96554441594881
 30
8206336.7530117426
 11
104.61101060102951
 21
181.06641016966941
 31
8206336.7530117426
  0
LINE
  5
3DF8
  8
AM_0
 10
104.61101060102951
 20
181.06641016966941
 30
8206336.7530117426
 11
104.6076382699524
 21
181.1677088834083
 31
8206336.7530117426
  0
ARC
  5
3DF9
  8
AM_0
 10
106.202731688619
 20
181.16473273191011
 30
8206336.7530117426
 40
1.5950961951403351
 50
168.52023997237021
 51
179.8930967176201
  0
LINE
  5
3DFA
  8
AM_0
 10
104.63954527956339
 20
181.48219158325159
 30
8206336.7530117426
 11
104.6801771897487
 21
181.6427654587761
 31
8206336.7530117426
  0
LINE
  5
3DFB
  8
AM_0
 10
104.6801771897487
 20
181.6427654587761
 30
8206336.7530117426
 11
104.7358172542821
 21
181.7987337521989
 31
8206336.7530117426
  0
ARC
  5
3DFC
  8
AM_0
 10
106.6112915479456
 20
181.023350970808
 30
8206336.7530117426
 40
2.02943890863216
 50
147.8557105642179
 51
157.53818869548999
  0
LINE
  5
3DFD
  8
AM_0
 10
104.8929435049392
 20
182.10312052352111
 30
8206336.7530117426
 11
105.0152322514738
 21
182.28043111624299
 31
8206336.7530117426
  0
LINE
  5
3DFE
  8
AM_0
 10
105.0152322514738
 20
182.28043111624299
 30
8206336.7530117426
 11
105.152085851812
 21
182.4468130386324
 31
8206336.7530117426
  0
ARC
  5
3DFF
  8
AM_0
 10
107.6502438380046
 20
180.2038013528111
 30
8206336.7530117426
 40
3.3573642558870951
 50
129.0813784716793
 51
138.08040406443399
  0
LINE
  5
3E00
  8
AM_0
 10
105.53368233298841
 20
182.8099598557024
 30
8206336.7530117426
 11
105.9528209503885
 21
183.11265633332809
 31
8206336.7530117426
  0
LINE
  5
3E01
  8
AM_0
 10
105.9528209503885
 20
183.11265633332809
 30
8206336.7530117426
 11
106.4019746302862
 21
183.37000803458261
 31
8206336.7530117426
  0
ARC
  5
3E02
  8
AM_0
 10
109.73320031331259
 20
176.84239774031701
 30
8206336.7530117426
 40
7.3284896605682359
 50
109.0382363849769
 51
117.03651703470091
  0
LINE
  5
3E03
  8
AM_0
 10
107.3426537685349
 20
183.77002705504719
 30
8206336.7530117426
 11
108.01915166310221
 21
183.9769069046655
 31
8206336.7530117426
  0
LINE
  5
3E04
  8
AM_0
 10
108.01915166310221
 20
183.9769069046655
 30
8206336.7530117426
 11
108.70891822580199
 21
184.13472033716769
 31
8206336.7530117426
  0
ARC
  5
3E05
  8
AM_0
 10
111.0177895426658
 20
172.19462049424689
 30
8206336.7530117426
 40
12.16128574685901
 50
96.390354906716382
 51
100.944276276251
  0
LINE
  5
3E06
  8
AM_0
 10
109.6642184812368
 20
184.2803441547654
 30
8206336.7530117426
 11
109.7691822544007
 21
184.29035312813241
 31
8206336.7530117426
  0
ARC
  5
3E07
  8
AM_0
 10
108.6576382699525
 20
195.9528448538704
 30
0.0
 40
0.7999999999998977
 50
90.0
 51
180.0
  0
ARC
  5
3E08
  8
AM_0
 10
108.6576382699525
 20
194.739824535438
 30
0.0
 40
0.7999999999999972
 50
90.0
 51
180.0
  0
ARC
  5
3E09
  8
AM_0
 10
113.55763826995241
 20
195.9528448538704
 30
0.0
 40
0.8000000000000112
 50
0.0
 51
90.0
  0
ARC
  5
3E0A
  8
AM_0
 10
113.55763826995241
 20
194.739824535438
 30
0.0
 40
0.8000000000000112
 50
0.0
 51
90.0
  0
LINE
  5
4AAA
  8
AM_0
 10
581.59718444361965
 20
192.25207231465501
 30
0.0
 11
581.59718444361965
 21
259.25207231465532
 31
0.0
  0
LINE
  5
4AAB
  8
AM_0
 10
580.59718444361965
 20
259.25207231465532
 30
0.0
 11
582.59719644361985
 21
259.25207231465532
 31
0.0
  0
LINE
  5
4AAC
  8
AM_0
 10
542.59718444361965
 20
179.75207231465501
 30
0.0
 11
578.66698343702478
 21
181.0116574509176
 31
0.0
  0
LINE
  5
4AAD
  8
AM_0
 10
580.59718444361965
 20
183.01043910495571
 30
0.0
 11
580.59718444361965
 21
268.49370552435482
 31
0.0
  0
ARC
  5
4AAE
  8
AM_0
 10
578.59718444361988
 20
183.01043910495571
 30
0.0
 40
2.0
 50
271.9999999999971
 51
0.0
1001
GENIUS_GENODEF_13
1002
{
1000
HIER
1070
     0
1002
}
1002
{
1000
MANEDIT
1070
     0
1002
}
1002
{
1000
NOSEL
1070
     0
1002
}
1002
{
1000
BEHIND
1070
     0
1002
}
1002
{
1000
OTHER
1070
     0
1002
}
1002
{
1000
REACTOR
1002
}
1001
GENIUS_GENOBJ-N-FIL_13
1002
{
1000
OWNER
1000
GEN
1002
}
  0
LINE
  5
4AAF
  8
AM_0
 10
578.66698343702478
 20
270.49248717839299
 30
0.0
 11
542.59718444361965
 21
271.75207231465538
 31
0.0
  0
ARC
  5
4AB0
  8
AM_0
 10
578.59718444361999
 20
268.49370552435482
 30
0.0
 40
2.0
 50
0.0
 51
88.000000000002842
1001
GENIUS_GENOBJ-N-FIL_13
1002
{
1000
OWNER
1000
GEN
1002
}
1001
GENIUS_GENODEF_13
1002
{
1000
HIER
1070
     0
1002
}
1002
{
1000
MANEDIT
1070
     0
1002
}
1002
{
1000
NOSEL
1070
     0
1002
}
1002
{
1000
BEHIND
1070
     0
1002
}
1002
{
1000
OTHER
1070
     0
1002
}
1002
{
1000
REACTOR
1002
}
  0
LINE
  5
4AB1
  8
AM_0
 10
542.59718444361965
 20
271.75207231465538
 30
0.0
 11
542.59718444361965
 21
179.75207231465501
 31
0.0
  0
LINE
  5
4AB2
  8
ﾁｭｳｼﾝｾﾝ1
 10
531.59718444361965
 20
184.75207231465581
 30
0.0
 11
547.42470745615651
 21
184.75207231465581
 31
0.0
  0
LINE
  5
4AB3
  8
AM_0
 10
538.59718444361965
 20
271.75207231465538
 30
0.0
 11
538.59718444361965
 21
250.93756741512291
 31
0.0
  0
LINE
  5
4AB4
  8
AM_0
 10
538.59718444361965
 20
200.5665772141877
 30
0.0
 11
538.59718444361965
 21
179.752072314656
 31
0.0
  0
LINE
  5
4AB5
  8
AM_0
 10
534.59718444361965
 20
265.6162906454947
 30
0.0
 11
534.59718444361965
 21
185.8878539838158
 31
0.0
  0
LINE
  5
4AB6
  8
AM_0
 10
536.53824693149204
 20
188.65942728696231
 30
0.0
 11
537.59718444361988
 21
188.75207231465581
 31
0.0
  0
LINE
  5
4AB7
  8
AM_0
 10
536.53824693149204
 20
180.84471734234941
 30
0.0
 11
537.59718444361988
 21
180.75207231465581
 31
0.0
  0
ARC
  5
4AB8
  8
AM_0
 10
540.99718444361986
 20
184.75207231465581
 30
0.0
 40
6.5
 50
151.82726586813479
 51
208.1727341318651
  0
ARC
  5
4AB9
  8
AM_0
 10
536.67769611988842
 20
182.4386288592961
 30
0.0
 40
1.6000000000000001
 50
208.1727341318651
 51
265.00000000000028
  0
LINE
  5
4ABA
  8
AM_0
 10
534.91771078219142
 20
187.05207231465559
 30
0.0
 11
537.20727046098705
 21
184.75207231465581
 31
0.0
  0
LINE
  5
4ABB
  8
AM_0
 10
536.89718444361984
 20
185.0635723146558
 30
0.0
 11
536.89718444361984
 21
184.44057231465581
 31
0.0
  0
LINE
  5
4ABC
  8
AM_0
 10
534.91771078219142
 20
182.45207231465591
 30
0.0
 11
537.20727046098705
 21
184.75207231465581
 31
0.0
  0
LINE
  5
4ABD
  8
AM_0
 10
534.5046527532852
 20
185.0635723146558
 30
0.0
 11
536.89718444361984
 21
185.0635723146558
 31
0.0
  0
LINE
  5
4ABE
  8
AM_0
 10
534.5046527532852
 20
184.44057231465581
 30
0.0
 11
536.89718444361984
 21
184.44057231465581
 31
0.0
  0
ARC
  5
4ABF
  8
AM_0
 10
536.67769611988842
 20
187.06551577001551
 30
0.0
 40
1.6000000000000001
 50
94.999999999999758
 51
151.82726586813479
  0
LINE
  5
4AC0
  8
AM_0
 10
538.59718444361965
 20
271.75207231465538
 30
0.0
 11
542.59718444361965
 21
271.75207231465538
 31
0.0
  0
LINE
  5
4AC1
  8
AM_0
 10
537.59718444361965
 20
270.75207231465521
 30
0.0
 11
538.59718444362011
 21
271.75207231465538
 31
0.0
  0
LINE
  5
4AC2
  8
AM_0
 10
542.59718444361965
 20
179.75207231465501
 30
0.0
 11
538.59718444361965
 21
179.752072314656
 31
0.0
  0
LINE
  5
4AC3
  8
AM_0N
 10
538.59718444361965
 20
188.5520723146559
 30
0.0
 11
537.59718444361988
 21
188.5520723146559
 31
0.0
  0
LINE
  5
4AC4
  8
AM_0N
 10
537.59718444361988
 20
184.95207231465591
 30
0.0
 11
538.59718444361965
 21
185.31604254892201
 31
0.0
  0
LINE
  5
4AC5
  8
AM_0N
 10
537.59718444361988
 20
184.5520723146559
 30
0.0
 11
538.59718444361965
 21
184.91604254892201
 31
0.0
  0
LINE
  5
4AC6
  8
AM_0N
 10
537.59718444361988
 20
180.75207231465581
 30
0.0
 11
537.59718444361988
 21
188.75207231465581
 31
0.0
  0
LINE
  5
4AC7
  8
AM_0N
 10
537.59718444361988
 20
180.95207231465591
 30
0.0
 11
538.59718444361965
 21
180.95207231465591
 31
0.0
  0
LINE
  5
4AC8
  8
AM_0
 10
534.59718444361965
 20
200.5665772141875
 30
0.0
 11
538.59718444361965
 21
200.5665772141877
 31
0.0
  0
LINE
  5
4AC9
  8
AM_0
 10
538.59718444361965
 20
198.90972296469511
 30
0.0
 11
534.59718444361965
 21
200.5665772141875
 31
0.0
  0
LINE
  5
4ACA
  8
AM_0
 10
534.59718444361965
 20
250.93756741512291
 30
0.0
 11
538.59718444361965
 21
250.93756741512291
 31
0.0
  0
LINE
  5
4ACB
  8
AM_0
 10
538.59718444361965
 20
252.5944216646154
 30
0.0
 11
534.59718444361965
 21
250.93756741512291
 31
0.0
  0
LINE
  5
4ACC
  8
ﾁｭｳｼﾝｾﾝ1
 10
531.59718444361965
 20
266.75207231465458
 30
0.0
 11
547.42470745615651
 21
266.7520723146547
 31
0.0
  0
LINE
  5
4ACD
  8
AM_0
 10
536.53824693149204
 20
262.84471734234819
 30
0.0
 11
537.59718444361988
 21
262.7520723146547
 31
0.0
  0
LINE
  5
4ACE
  8
AM_0
 10
536.53824693149204
 20
270.65942728696109
 30
0.0
 11
537.59718444361988
 21
270.7520723146547
 31
0.0
  0
ARC
  5
4ACF
  8
AM_0
 10
540.99718444361986
 20
266.7520723146547
 30
0.0
 40
6.5
 50
151.82726586813479
 51
208.1727341318651
  0
ARC
  5
4AD0
  8
AM_0
 10
536.67769611988842
 20
269.06551577001437
 30
0.0
 40
1.6000000000000001
 50
94.999999999999758
 51
151.82726586813479
  0
LINE
  5
4AD1
  8
AM_0
 10
534.91771078219142
 20
264.45207231465469
 30
0.0
 11
537.20727046098705
 21
266.7520723146547
 31
0.0
  0
LINE
  5
4AD2
  8
AM_0
 10
536.89718444361984
 20
266.44057231465467
 30
0.0
 11
536.89718444361984
 21
267.06357231465472
 31
0.0
  0
LINE
  5
4AD3
  8
AM_0
 10
534.91771078219142
 20
269.05207231465459
 30
0.0
 11
537.20727046098705
 21
266.7520723146547
 31
0.0
  0
LINE
  5
4AD4
  8
AM_0
 10
534.5046527532852
 20
266.44057231465467
 30
0.0
 11
536.89718444361984
 21
266.44057231465467
 31
0.0
  0
LINE
  5
4AD5
  8
AM_0
 10
534.5046527532852
 20
267.06357231465472
 30
0.0
 11
536.89718444361984
 21
267.06357231465472
 31
0.0
  0
ARC
  5
4AD6
  8
AM_0
 10
536.67769611988842
 20
264.43862885929502
 30
0.0
 40
1.6000000000000001
 50
208.1727341318651
 51
265.00000000000028
  0
LINE
  5
4AD7
  8
AM_0N
 10
538.59718444361965
 20
262.95207231465457
 30
0.0
 11
537.59718444361988
 21
262.95207231465457
 31
0.0
  0
LINE
  5
4AD8
  8
AM_0N
 10
537.59718444361988
 20
266.55207231465459
 30
0.0
 11
538.59718444361965
 21
266.18810208038849
 31
0.0
  0
LINE
  5
4AD9
  8
AM_0N
 10
537.59718444361988
 20
266.95207231465457
 30
0.0
 11
538.59718444361965
 21
266.58810208038852
 31
0.0
  0
LINE
  5
4ADA
  8
AM_0N
 10
537.59718444361988
 20
270.7520723146547
 30
0.0
 11
537.59718444361988
 21
262.7520723146547
 31
0.0
  0
LINE
  5
4ADB
  8
AM_0N
 10
537.59718444361988
 20
270.55207231465471
 30
0.0
 11
538.59718444361965
 21
270.55207231465471
 31
0.0
  0
LINE
  5
4ADC
  8
AM_0
 10
406.60761826995241
 20
267.25394274224283
 30
0.0
 11
410.6076182699523
 21
263.253942742243
 31
0.0
  0
LINE
  5
4ADD
  8
AM_0
 10
404.10761826995252
 20
267.25394274224283
 30
0.0
 11
406.60761826995241
 21
267.25394274224283
 31
0.0
  0
LINE
  5
4ADE
  8
AM_0
 10
410.6076182699523
 20
263.253942742243
 30
0.0
 11
410.60761826995292
 21
222.2539427422428
 31
0.0
  0
LINE
  5
4ADF
  8
AM_0
 10
406.60761826995241
 20
218.2539427422428
 30
0.0
 11
410.6076182699523
 21
222.2539427422428
 31
0.0
  0
LINE
  5
4AE0
  8
AM_0
 10
404.10761826995252
 20
218.2539427422428
 30
0.0
 11
406.60761826995241
 21
218.253942742243
 31
0.0
  0
LINE
  5
4AE1
  8
AM_0
 10
403.60761826995241
 20
266.75394274224283
 30
0.0
 11
404.10761826995252
 21
267.25394274224283
 31
0.0
1001
GENIUS_GENFIL_13
1070
     0
1040
0.5
1040
0.5
1040
20.0
1040
0.0
1002
{
1002
}
1001
GENIUS_GENOBJ-N-CHA_13
1002
{
1000
OWNER
1000
GEN
1002
}
1001
GENIUS_GENODEF_13
1002
{
1000
HIER
1070
     0
1002
}
1002
{
1000
MANEDIT
1070
     0
1002
}
1002
{
1000
NOSEL
1070
     0
1002
}
1002
{
1000
BEHIND
1070
     0
1002
}
1002
{
1000
OTHER
1070
     0
1002
}
1002
{
1000
REACTOR
1002
}
  0
LINE
  5
4AE2
  8
AM_0
 10
403.60761826995241
 20
218.7539427422428
 30
0.0
 11
404.10761826995252
 21
218.2539427422428
 31
0.0
1001
GENIUS_GENFIL_13
1070
     0
1040
0.5
1040
0.5
1040
20.0
1040
0.0
1002
{
1002
}
1001
GENIUS_GENODEF_13
1002
{
1000
HIER
1070
     0
1002
}
1002
{
1000
MANEDIT
1070
     0
1002
}
1002
{
1000
NOSEL
1070
     0
1002
}
1002
{
1000
BEHIND
1070
     0
1002
}
1002
{
1000
OTHER
1070
     0
1002
}
1002
{
1000
REACTOR
1002
}
1001
GENIUS_GENOBJ-N-CHA_13
1002
{
1000
OWNER
1000
GEN
1002
}
  0
CIRCLE
  5
4AE3
  8
AM_0
 10
657.59718444361704
 20
242.75394274224701
 30
0.0
 40
24.49999999999989
  0
CIRCLE
  5
4AE4
  8
AM_0
 10
657.59718444361704
 20
242.75394274224701
 30
0.0
 40
20.50000000000011
  0
LINE
  5
4AE5
  8
AM_0
 10
406.6076182699527
 20
267.25394274224283
 30
0.0
 11
406.60761826995241
 21
218.253942742243
 31
0.0
  0
LINE
  5
4AEF
  8
AM_0
 10
584.95916843656425
 20
195.75655591411089
 30
0.0
 11
583.59717444361956
 21
195.79125744204771
 31
0.0
  0
LINE
  5
4AF0
  8
AM_0
 10
583.59718444361977
 20
192.25207231465509
 30
0.0
 11
583.59718444361977
 21
211.3240507994613
 31
0.0
  0
LINE
  5
4AF1
  8
AM_0
 10
580.59718444361965
 20
192.25207231465509
 30
0.0
 11
583.59718444361977
 21
192.25207231465509
 31
0.0
  0
LINE
  5
4AF2
  8
ﾁｭｳｼﾝｾﾝ
 10
86.602801807069454
 20
225.7539012422427
 30
0.0
 11
341.9340592438723
 21
225.7539417422428
 31
0.0
  0
LINE
  5
4AF3
  8
ﾁｭｳｼﾝｾﾝ
 10
333.25821826995252
 20
242.7539427422428
 30
0.0
 11
440.13252768493942
 21
242.7539427422428
 31
0.0
  0
LINE
  5
4AF4
  8
AM_0
 10
316.56003826995249
 20
268.36078774224279
 30
0.0
 11
344.60763826995247
 21
268.36078774224279
 31
0.0
  0
LINE
  5
4AF5
  8
AM_0
 10
307.10763826995247
 20
289.25394574224282
 30
0.0
 11
311.13375826995252
 21
289.14850774224271
 31
0.0
  0
LINE
  5
4AF6
  8
AM_0
 10
315.10764826995251
 20
176.2539267422427
 30
0.0
 11
315.10764826995251
 21
185.75763574224271
 31
0.0
  0
LINE
  5
4AF7
  8
AM_0
 10
313.08144826995249
 20
164.9283657422427
 30
0.0
 11
344.60763826995247
 21
165.75389674224269
 31
0.0
  0
LINE
  5
4AF8
  8
AM_0
 10
312.10764826995251
 20
163.35901474224269
 30
0.0
 11
312.10764826995251
 21
174.2539257422427
 31
0.0
  0
LINE
  5
4AF9
  8
AM_0
 10
307.10763826995247
 20
162.25392574224259
 30
0.0
 11
312.06699826995248
 21
162.38379274224269
 31
0.0
  0
LINE
  5
4AFA
  8
AM_0
 10
313.08144826995249
 20
286.57947574224272
 30
0.0
 11
344.60763826995247
 21
285.75394474224282
 31
0.0
  0
LINE
  5
4AFB
  8
AM_0
 10
344.60763826995247
 20
160.94002174224269
 30
0.0
 11
344.60763826995247
 21
285.75394474224282
 31
0.0
  0
LINE
  5
4AFC
  8
AM_0
 10
314.5622182699525
 20
160.15324774224271
 30
0.0
 11
344.60763826995247
 21
160.9400067422425
 31
0.0
  0
LINE
  5
4AFD
  8
AM_0
 10
307.10763826995247
 20
174.2539257422427
 30
0.0
 11
313.10763826995259
 21
174.2539257422427
 31
0.0
  0
LINE
  5
4AFE
  8
AM_0
 10
307.10763826995247
 20
277.25394574224282
 30
0.0
 11
313.10763826995259
 21
277.25394574224282
 31
0.0
  0
LINE
  5
4AFF
  8
AM_0
 10
307.10763826995247
 20
263.75025274224271
 30
0.0
 11
313.10763826995259
 21
263.75025274224271
 31
0.0
  0
LINE
  5
4B00
  8
AM_0
 10
307.10763826995247
 20
187.7576187422427
 30
0.0
 11
313.10763826995259
 21
187.7576187422427
 31
0.0
  0
LINE
  5
4B01
  8
AM_0
 10
315.10764826995251
 20
265.75025074224283
 30
0.0
 11
315.10764826995251
 21
275.25394474224282
 31
0.0
  0
LINE
  5
4B02
  8
AM_0
 10
312.10764826995251
 20
187.7576187422427
 30
0.0
 11
312.10764826995251
 21
263.75025274224271
 31
0.0
  0
LINE
  5
4B03
  8
AM_0
 10
312.10764826995251
 20
277.25394574224282
 30
0.0
 11
312.10764826995251
 21
288.14884174224278
 31
0.0
  0
LINE
  5
4B04
  8
AM_0
 10
307.10763826995247
 20
289.25394574224282
 30
0.0
 11
307.10763826995247
 21
162.25386574224271
 31
0.0
  0
LINE
  5
4B05
  8
AM_0
 10
638.48811144362003
 20
164.6627547422427
 30
0.0
 11
638.48811144362003
 21
170.43628474224269
 31
0.0
  0
LINE
  5
4B06
  8
AM_0
 10
712.57846344361985
 20
261.21917074224268
 30
0.0
 11
712.57846344361985
 21
266.99265274224268
 31
0.0
  0
LINE
  5
4B07
  8
AM_0
 10
633.48814344361995
 20
173.32301674224269
 30
0.0
 11
628.4881574436198
 21
170.4362697422427
 31
0.0
  0
LINE
  5
4B08
  8
AM_0
 10
676.70626944361982
 20
164.6627547422427
 30
0.0
 11
681.70626744362005
 21
161.77600474224269
 31
0.0
  0
LINE
  5
4B09
  8
AM_0
 10
633.48814344361995
 20
161.77601974224271
 30
0.0
 11
638.48814444361994
 21
164.66276974224269
 31
0.0
  0
LINE
  5
4B0A
  8
AM_0
 10
681.70625244361997
 20
161.77601974224271
 30
0.0
 11
686.70625344361986
 21
164.66276974224269
 31
0.0
  0
LINE
  5
4B0B
  8
AM_0
 10
702.57846144361974
 20
266.99265274224268
 30
0.0
 11
702.57846144361974
 21
261.21917074224268
 31
0.0
  0
LINE
  5
4B0C
  8
AM_0
 10
638.48814444361994
 20
170.43625474224271
 30
0.0
 11
633.48815844362002
 21
173.3230017422427
 31
0.0
  0
LINE
  5
4B0D
  8
AM_0
 10
707.57846244361997
 20
258.33239074224269
 30
0.0
 11
712.57846344361985
 21
261.21915574224272
 31
0.0
  0
LINE
  5
4B0E
  8
AM_0
 10
654.59718444361977
 20
254.7539427422428
 30
0.0
 11
654.59718444361977
 21
248.7539427422428
 31
0.0
  0
LINE
  5
4B0F
  8
AM_0
 10
654.59718444361977
 20
248.7539427422428
 30
0.0
 11
660.59718444361965
 21
248.7539427422428
 31
0.0
  0
LINE
  5
4B10
  8
AM_0
 10
660.59718444361965
 20
248.7539427422428
 30
0.0
 11
660.59718444361965
 21
254.7539427422428
 31
0.0
  0
LINE
  5
4B11
  8
AM_0
 10
660.59718444361965
 20
254.7539427422428
 30
0.0
 11
654.59718444361977
 21
254.7539427422428
 31
0.0
  0
LINE
  5
4B12
  8
AM_0
 10
434.60763826995242
 20
233.25394474224271
 30
0.0
 11
434.60763826995242
 21
254.75394474224271
 31
0.0
  0
LINE
  5
4B13
  8
AM_0
 10
410.6076182699527
 20
252.2539587422427
 30
0.0
 11
434.60763826995242
 21
252.2539587422427
 31
0.0
  0
LINE
  5
4B14
  8
AM_0
 10
410.60761826995292
 20
233.25394474224271
 30
0.0
 11
434.60763826995242
 21
233.25394474224271
 31
0.0
  0
LINE
  5
4B15
  8
AM_0
 10
627.89869644361988
 20
210.2270277422428
 30
0.0
 11
651.75047244361986
 21
186.37524874224269
 31
0.0
  0
LINE
  5
4B16
  8
AM_0
 10
344.60763826995247
 20
268.36078774224279
 30
0.0
 11
374.80365826995239
 21
268.36078774224279
 31
0.0
  0
LINE
  5
4B17
  8
AM_0
 10
633.11784144362002
 20
264.40485274224272
 30
0.0
 11
611.77576944361999
 21
285.7469247422427
 31
0.0
  0
LINE
  5
4B18
  8
ﾁｭｳｼﾝｾﾝ1
 10
604.56418194041555
 20
189.72092523903851
 30
0.0
 11
590.42204631668471
 21
175.57878961530761
 31
0.0
  0
LINE
  5
4B19
  8
ﾁｭｳｼﾝｾﾝ
 10
575.28985803612125
 20
242.75394274224701
 30
0.0
 11
739.90451085111272
 21
242.75394274224701
 31
0.0
  0
LINE
  5
4B1A
  8
AM_0
 10
657.59718444361988
 20
317.75393974224289
 30
0.0
 11
677.59719744361985
 21
317.75393974224289
 31
0.0
  0
LINE
  5
4B1B
  8
AM_0
 10
692.92070244362003
 20
177.25391074224271
 30
0.0
 11
657.59718444361988
 21
177.25391074224271
 31
0.0
  0
LINE
  5
4B1C
  8
AM_0
 10
622.27366644361985
 20
177.25391074224271
 30
0.0
 11
657.59718444361988
 21
177.25391074224271
 31
0.0
  0
LINE
  5
4B1D
  8
AM_0
 10
732.59719944361984
 20
242.7539427422428
 30
0.0
 11
732.59719944361984
 21
262.75391374224267
 31
0.0
  0
LINE
  5
4B1E
  8
AM_0
 10
412.60761826995252
 20
254.75394474224279
 30
0.0
 11
434.60763826995242
 21
254.75394474224279
 31
0.0
  0
LINE
  5
4B1F
  8
AM_0
 10
702.57846144361974
 20
261.21912274224269
 30
0.0
 11
707.57846244361997
 21
258.33239074224269
 31
0.0
  0
LINE
  5
4B20
  8
AM_0
 10
628.48812744361999
 20
170.43628474224269
 30
0.0
 11
628.48812744361999
 21
164.6627547422427
 31
0.0
  0
LINE
  5
4B21
  8
AM_0
 10
712.57846344361985
 20
266.99265274224268
 30
0.0
 11
707.57846244361997
 21
269.87940274224269
 31
0.0
  0
LINE
  5
4B22
  8
AM_0
 10
607.61593344361995
 20
258.33239074224269
 30
0.0
 11
612.6159494436198
 21
261.21913774224282
 31
0.0
  0
LINE
  5
4B23
  8
AM_0
 10
628.4881574436198
 20
164.6627547422427
 30
0.0
 11
633.48815844362002
 21
161.77600474224269
 31
0.0
  0
LINE
  5
4B24
  8
AM_0
 10
686.70626844361982
 20
170.43625474224271
 30
0.0
 11
681.70626744362005
 21
173.3230017422427
 31
0.0
  0
LINE
  5
4B25
  8
AM_0
 10
681.70625244361997
 20
173.3230347422427
 30
0.0
 11
676.70625444361997
 21
170.4362697422427
 31
0.0
  0
LINE
  5
4B26
  8
AM_0
 10
612.61593444361995
 20
261.21917074224268
 30
0.0
 11
612.61593444361995
 21
266.99265274224268
 31
0.0
  0
LINE
  5
4B27
  8
AM_0
 10
612.6159494436198
 20
266.9926227422427
 30
0.0
 11
607.61596644361987
 21
269.87937274224282
 31
0.0
  0
LINE
  5
4B28
  8
AM_0
 10
607.61596644361987
 20
269.87937274224282
 30
0.0
 11
602.61596544361987
 21
266.9926227422427
 31
0.0
  0
LINE
  5
4B29
  8
AM_0
 10
602.61593544361995
 20
266.99265274224268
 30
0.0
 11
602.61593544361995
 21
261.21917074224268
 31
0.0
  0
LINE
  5
4B2A
  8
AM_0
 10
602.61596544361987
 20
261.21912274224269
 30
0.0
 11
607.61596644361987
 21
258.33237574224268
 31
0.0
  0
LINE
  5
4B2B
  8
AM_0
 10
707.57846244361997
 20
269.87940274224269
 30
0.0
 11
702.57846144361974
 21
266.99265274224268
 31
0.0
  0
LINE
  5
4B2C
  8
AM_0
 10
686.70625344361986
 20
164.6627547422427
 30
0.0
 11
686.70625344361986
 21
170.43628474224269
 31
0.0
  0
LINE
  5
4B2D
  8
AM_0
 10
676.70625444361997
 20
170.43628474224269
 30
0.0
 11
676.70625444361997
 21
164.6627547422427
 31
0.0
  0
LINE
  5
4B2E
  8
AM_0
 10
376.60764826995251
 20
306.98504974224272
 30
0.0
 11
376.60764826995251
 21
201.01863574224279
 31
0.0
  0
LINE
  5
4B2F
  8
AM_0
 10
344.60763826995247
 20
285.75394474224282
 30
0.0
 11
373.68615826995239
 21
286.51538974224269
 31
0.0
  0
LINE
  5
4B30
  8
AM_0
 10
381.6075982699524
 20
196.0186377422427
 30
0.0
 11
389.60763826995247
 21
196.0186377422427
 31
0.0
  0
LINE
  5
4B31
  8
AM_0
 10
344.60763826995247
 20
172.97330074224271
 30
0.0
 11
380.60763826995247
 21
172.97330074224271
 31
0.0
  0
LINE
  5
4B32
  8
AM_0
 10
412.60761826995252
 20
252.2539587422427
 30
0.0
 11
412.60761826995252
 21
254.75394474224279
 31
0.0
  0
LINE
  5
4B33
  8
AM_0
 10
381.5814382699524
 20
176.67716074224271
 30
0.0
 11
389.60766826995251
 21
176.88731974224271
 31
0.0
  0
LINE
  5
4B34
  8
AM_0
 10
380.60763826995247
 20
175.9527177422427
 30
0.0
 11
380.60763826995247
 21
159.7539267422425
 31
0.0
  0
LINE
  5
4B35
  8
AM_0
 10
633.11784144362002
 20
221.1030327422427
 30
0.0
 11
611.7757544436198
 21
199.76094574224271
 31
0.0
  0
LINE
  5
4B36
  8
AM_0
 10
635.72541744361979
 20
218.0537487422427
 30
0.0
 11
614.60418444361994
 21
196.93251574224271
 31
0.0
  0
LINE
  5
4B37
  8
AM_0
 10
698.94367944361989
 20
257.80280374224282
 30
0.0
 11
703.15661844361989
 21
246.22785274224279
 31
0.0
  0
LINE
  5
4B38
  8
AM_0
 10
687.90519744361995
 20
189.89343874224269
 30
0.0
 11
688.90454244362002
 21
188.27592874224271
 31
0.0
  0
LINE
  5
4B39
  8
AM_0
 10
344.60763826995247
 20
160.94002174224269
 30
0.0
 11
380.6076682699524
 21
159.6828807422427
 31
0.0
  0
LINE
  5
4B3A
  8
AM_0
 10
681.55027944361996
 20
181.25392774224269
 30
0.0
 11
633.64410444361988
 21
181.25392774224269
 31
0.0
  0
LINE
  5
4B3B
  8
AM_0
 10
691.30810644361964
 20
191.99587174224271
 30
0.0
 11
692.30745144362004
 21
190.3783617422427
 31
0.0
  0
LINE
  5
4B3C
  8
AM_0
 10
679.24809444361995
 20
267.23328274224269
 30
0.0
 11
700.59016644361986
 21
288.57535474224278
 31
0.0
  0
LINE
  5
4B3D
  8
AM_0
 10
635.94627444362004
 20
267.23328274224269
 30
0.0
 11
614.60419944362002
 21
288.57535474224278
 31
0.0
  0
LINE
  5
4B3E
  8
AM_0
 10
391.53783826995249
 20
317.4721197422428
 30
0.0
 11
399.60762826995261
 21
317.75390974224268
 31
0.0
  0
LINE
  5
4B3F
  8
AM_0
 10
403.60764826995239
 20
312.75395974224273
 30
0.0
 11
403.60764826995239
 21
242.7539427422428
 31
0.0
  0
LINE
  5
4B40
  8
AM_0
 10
619.09828044361996
 20
171.75392674224261
 30
0.0
 11
622.27369644362
 21
177.2539257422427
 31
0.0
  0
LINE
  5
4B41
  8
AM_0
 10
403.60764826995239
 20
242.7539427422428
 30
0.0
 11
403.60764826995239
 21
177.2539257422427
 31
0.0
  0
LINE
  5
4B42
  8
AM_0
 10
399.60759826995252
 20
317.75393974224289
 30
0.0
 11
399.60759826995252
 21
172.8501177422427
 31
0.0
  0
LINE
  5
4B43
  8
AM_0
 10
391.53786826995253
 20
173.13191674224271
 30
0.0
 11
399.60762826995261
 21
172.8501177422427
 31
0.0
  0
LINE
  5
4B44
  8
AM_0
 10
399.60759826995252
 20
312.75395974224273
 30
0.0
 11
403.60764826995239
 21
312.75395974224273
 31
0.0
  0
LINE
  5
4B45
  8
AM_0
 10
399.60762826995261
 20
177.1491897422427
 30
0.0
 11
403.60764826995239
 21
177.2539257422427
 31
0.0
  0
LINE
  5
4B46
  8
AM_0
 10
394.60764826995239
 20
302.25394474224282
 30
0.0
 11
394.60764826995239
 21
188.13861574224271
 31
0.0
  0
LINE
  5
4B47
  8
AM_0
 10
381.43311826995239
 20
311.98199974224281
 30
0.0
 11
386.71236826995249
 21
312.1663497422428
 31
0.0
  0
LINE
  5
4B48
  8
AM_0
 10
389.60763826995247
 20
315.47336974224282
 30
0.0
 11
389.60763826995247
 21
283.1943147422428
 31
0.0
  0
LINE
  5
4B49
  8
AM_0
 10
682.07652444361986
 20
264.40485274224272
 30
0.0
 11
703.41861144361997
 21
285.7469247422427
 31
0.0
  0
LINE
  5
4B4A
  8
ﾁｭｳｼﾝｾﾝ
 10
657.59718444361988
 20
156.08217274224259
 30
0.0
 11
657.59718444361988
 21
334.27653779228967
 31
0.0
  0
LINE
  5
4B4B
  8
ﾁｭｳｼﾝｾﾝ
 10
691.06652179623438
 20
225.7539417422428
 30
0.0
 11
624.12784709100515
 21
225.7539417422428
 31
0.0
  0
LINE
  5
4B4C
  8
AM_0
 10
706.4323604436197
 20
237.2278497422428
 30
0.0
 11
715.45655844361966
 21
212.43404374224269
 31
0.0
  0
LINE
  5
4B4D
  8
AM_0
 10
656.09718444361965
 20
305.59299574224269
 30
0.0
 11
656.09718444361965
 21
289.53803374224282
 31
0.0
  0
LINE
  5
4B4E
  8
AM_0
 10
659.09718444361965
 20
305.59299574224269
 30
0.0
 11
659.09718444361965
 21
289.53803374224282
 31
0.0
  0
LINE
  5
4B4F
  8
AM_0
 10
594.75808644361985
 20
241.25394274224271
 30
0.0
 11
610.81309344361955
 21
241.25394274224271
 31
0.0
  0
LINE
  5
4B50
  8
AM_0
 10
594.75808644361985
 20
244.2539427422428
 30
0.0
 11
610.81309344361955
 21
244.2539427422428
 31
0.0
  0
LINE
  5
4B51
  8
AM_0
 10
720.43628244362003
 20
244.2539427422428
 30
0.0
 11
705.97567944361958
 21
244.2539427422428
 31
0.0
  0
LINE
  5
4B52
  8
AM_0
 10
720.43628244362003
 20
241.25394274224271
 30
0.0
 11
709.25142144361985
 21
241.25394274224271
 31
0.0
  0
LINE
  5
4B53
  8
AM_0
 10
389.60763826995247
 20
175.13069674224269
 30
0.0
 11
389.60763826995247
 21
202.2189387422427
 31
0.0
  0
LINE
  5
4B54
  8
AM_0
 10
665.2104194436198
 20
193.52936374224271
 30
0.0
 11
636.69201444362
 21
221.23711174224269
 31
0.0
  0
LINE
  5
4B55
  8
AM_0
 10
698.21183844361997
 20
213.91872274224281
 30
0.0
 11
686.19415344362005
 21
251.8211427422427
 31
0.0
  0
LINE
  5
4B56
  8
AM_0
 10
696.09614544361989
 20
171.75389674224269
 30
0.0
 11
692.92071744361999
 21
177.25389574224269
 31
0.0
  0
LINE
  5
4B57
  8
AM_0
 10
657.59718444361988
 20
317.75393974224289
 30
0.0
 11
637.59719844361985
 21
317.75393974224289
 31
0.0
  0
LINE
  5
4B58
  8
AM_0
 10
677.59718244361954
 20
317.75393974224289
 30
0.0
 11
719.81337144361999
 21
314.06051974224272
 31
0.0
  0
LINE
  5
4B59
  8
AM_0
 10
637.59718344361988
 20
317.75393974224289
 30
0.0
 11
595.38100944361997
 21
314.06048974224279
 31
0.0
  0
LINE
  5
4B5A
  8
AM_0
 10
582.59719644361985
 20
242.7539427422428
 30
0.0
 11
582.59719644361985
 21
262.75391374224267
 31
0.0
  0
LINE
  5
4B5B
  8
AM_0
 10
732.59718444361999
 20
262.75391374224267
 30
0.0
 11
728.90374944361986
 21
304.97010274224272
 31
0.0
  0
LINE
  5
4B5C
  8
AM_0
 10
696.09613044362004
 20
171.75392674224261
 30
0.0
 11
718.97195544362
 21
171.75392674224261
 31
0.0
  0
LINE
  5
4B5D
  8
AM_0
 10
582.59716644361981
 20
262.75394374224283
 30
0.0
 11
586.29061644361946
 21
304.97013274224281
 31
0.0
  0
LINE
  5
4B5E
  8
AM_0
 10
582.59719644361985
 20
222.7539267422427
 30
0.0
 11
586.26049644362001
 21
180.8823597422427
 31
0.0
  0
LINE
  5
4B5F
  8
AM_0
 10
732.59719944361984
 20
222.75394174224269
 30
0.0
 11
728.93391744361963
 21
180.88237474224269
 31
0.0
  0
LINE
  5
4B60
  8
AM_0
 10
582.59719644361985
 20
242.7539427422428
 30
0.0
 11
582.59719644361985
 21
222.75394174224269
 31
0.0
  0
LINE
  5
4B61
  8
AM_0
 10
619.0982504436198
 20
171.75392674224261
 30
0.0
 11
596.22241044361999
 21
171.75392674224261
 31
0.0
  0
LINE
  5
4B62
  8
AM_0
 10
732.59719944361984
 20
242.7539427422428
 30
0.0
 11
732.59719944361984
 21
222.75394174224269
 31
0.0
  0
LINE
  5
4B63
  8
AM_0
 10
633.48812844361998
 20
160.54952074224269
 30
0.0
 11
681.70626744362005
 21
160.54952074224269
 31
0.0
  0
LINE
  5
4B64
  8
AM_0
 10
384.60759826995252
 20
171.86201974224269
 30
0.0
 11
384.60759826995252
 21
163.23700474224259
 31
0.0
  0
LINE
  5
4B65
  8
AM_0
 10
384.16284826995252
 20
173.29952074224269
 30
0.0
 11
380.60763826995247
 21
173.29952074224269
 31
0.0
  0
LINE
  5
4B66
  8
AM_0
 10
384.16284826995252
 20
161.79951874224261
 30
0.0
 11
380.60763826995247
 21
161.79951874224261
 31
0.0
  0
LINE
  5
4B67
  8
AM_0
 10
384.16284826995252
 20
170.42451874224261
 30
0.0
 11
380.60763826995247
 21
170.42451874224261
 31
0.0
  0
LINE
  5
4B68
  8
AM_0
 10
384.16284826995252
 20
164.67452074224269
 30
0.0
 11
380.60763826995247
 21
164.67452074224269
 31
0.0
  0
LINE
  5
4B69
  8
AM_0
 10
312.95913826995252
 20
161.88416074224261
 30
0.0
 11
313.67001826995249
 21
160.65291274224271
 31
0.0
  0
ARC
  5
4B6A
  8
AM_0
 10
313.10763826995259
 20
287.57917174224281
 30
0.0
 40
1.0000000199999981
 50
179.999989999999
 51
268.50000999999878
  0
ARC
  5
4B6B
  8
AM_0
 10
311.10762826995261
 20
288.14884174224278
 30
0.0
 40
1.0000000199999981
 50
0.0
 51
88.499997000000747
  0
ARC
  5
4B6C
  8
AM_0
 10
311.10762826995261
 20
163.35901474224269
 30
0.0
 40
1.0000000199999981
 50
271.50000000000267
 51
0.0
  0
ARC
  5
4B6D
  8
AM_0
 10
313.10763826995259
 20
163.9287147422427
 30
0.0
 40
1.0000000199999981
 50
91.500001000001546
 51
180.00001000000091
  0
ARC
  5
4B6E
  8
AM_0
 10
313.10763826995259
 20
185.75763574224271
 30
0.0
 40
2.00000007
 50
0.0
 51
90.00000299999769
  0
ARC
  5
4B6F
  8
AM_0
 10
313.10763826995259
 20
176.2539267422427
 30
0.0
 40
2.00000007
 50
270.0
 51
0.0
  0
ARC
  5
4B70
  8
AM_0
 10
313.10763826995259
 20
265.75025074224283
 30
0.0
 40
2.00000007
 50
270.0
 51
0.0
  0
ARC
  5
4B71
  8
AM_0
 10
313.10763826995259
 20
275.25394474224282
 30
0.0
 40
2.00000007
 50
0.0
 51
90.00000299999769
  0
ARC
  5
4B72
  8
AM_0
 10
657.59718444361988
 20
242.7539427422428
 30
0.0
 40
44.000000999999983
 50
47.547317000001861
 51
84.50581900000067
  0
CIRCLE
  5
4B73
  8
AM_0
 10
707.57844744362001
 20
264.10590274224268
 30
0.0
 40
4.9999998000000003
  0
CIRCLE
  5
4B74
  8
AM_0
 10
633.48812844361998
 20
167.54953474224271
 30
0.0
 40
4.9999998000000003
  0
ARC
  5
4B75
  8
AM_0
 10
657.59718444361988
 20
242.7539427422428
 30
0.0
 40
9.5000003999999993
 50
108.4084799999997
 51
71.591512000000776
  0
CIRCLE
  5
4B76
  8
AM_5
 10
657.59718444361988
 20
242.7539427422428
 30
0.0
 40
3.0
  0
CIRCLE
  5
4B77
  8
AM_0
 10
657.59718444361988
 20
242.7539427422428
 30
0.0
 40
2.4999998400000001
  0
ARC
  5
4B78
  8
AM_0
 10
637.84674144361975
 20
215.9324247422428
 30
0.0
 40
3.0
 50
45.826030999997961
 51
135.0
  0
ARC
  5
4B79
  8
AM_0
 10
657.59718444361988
 20
242.7539427422428
 30
0.0
 40
44.000000999999983
 50
19.999999000006291
 51
42.452681999998767
  0
CIRCLE
  5
4B7A
  8
AM_0
 10
717.70128144362002
 20
182.64984574224269
 30
0.0
 40
5.0000001000000003
  0
ARC
  5
4B7B
  8
AM_0
 10
657.59718444361988
 20
242.7539427422428
 30
0.0
 40
44.000000999999983
 50
95.494178999999406
 51
132.45267999999831
  0
ARC
  5
4B7C
  8
AM_0
 10
693.10252344361982
 20
171.30786574224271
 30
0.0
 40
5.0000001000000003
 50
123.1091299999986
 51
198.25197999999841
  0
ARC
  5
4B7D
  8
AM_0
 10
622.09187244361999
 20
171.30786574224271
 30
0.0
 40
5.0000001000000003
 50
341.74802000000159
 51
56.890858999997633
  0
ARC
  5
4B7E
  8
AM_0
 10
609.6544484436198
 20
201.88225474224271
 30
0.0
 40
3.0
 50
220.44792000000331
 51
315.0
  0
ARC
  5
4B7F
  8
AM_0
 10
686.35235544361979
 20
186.69911674224269
 30
0.0
 40
3.0
 50
297.15705000000168
 51
31.709121999997731
  0
ARC
  5
4B80
  8
AM_0
 10
694.85962044361975
 20
191.95517374224269
 30
0.0
 40
3.0
 50
211.70912000000021
 51
306.26119999999651
  0
ARC
  5
4B81
  8
AM_0
 10
657.59718444361988
 20
242.7539427422428
 30
0.0
 40
70.000001999999995
 50
290.6561499999973
 51
249.34384000000179
  0
ARC
  5
4B82
  8
AM_0
 10
657.59718444361988
 20
242.7539427422428
 30
0.0
 40
66.000003000000007
 50
291.2799600000028
 51
248.72003000000129
  0
ARC
  5
4B83
  8
AM_0
 10
679.14720144361945
 20
207.87392374224279
 30
0.0
 40
20.000000700000001
 50
225.8260300000002
 51
17.592213999998648
  0
CIRCLE
  5
4B84
  8
AM_0
 10
717.70128144362002
 20
302.85800974224281
 30
0.0
 40
5.0000001000000003
  0
CIRCLE
  5
4B85
  8
AM_0
 10
597.49313244361986
 20
182.64984574224269
 30
0.0
 40
5.0000001000000003
  0
ARC
  5
4B86
  8
AM_0
 10
633.48812844361998
 20
167.5495047422427
 30
0.0
 40
7.0000007999999987
 50
161.74802000000159
 51
270.0
  0
ARC
  5
4B87
  8
AM_0
 10
657.59718444361988
 20
225.7539417422428
 30
0.0
 40
60.000002999999992
 50
233.93341000000211
 51
236.89085000000259
  0
ARC
  5
4B88
  8
AM_0
 10
657.59718444361988
 20
225.7539417422428
 30
0.0
 40
60.000002999999992
 50
303.10914000000122
 51
304.41150999999837
  0
CIRCLE
  5
4B89
  8
AM_0
 10
597.49313244361986
 20
302.85800974224281
 30
0.0
 40
5.0000001000000003
  0
ARC
  5
4B8A
  8
ﾁｭｳｼﾝｾﾝ1
 10
657.59718444361965
 20
242.7539427422428
 30
0.0
 40
85.00000199999981
 50
217.5299731358256
 51
232.5366254851925
  0
CIRCLE
  5
4B8B
  8
AM_0
 10
681.70626744362005
 20
167.54953474224271
 30
0.0
 40
4.9999998000000003
  0
CIRCLE
  5
4B8C
  8
AM_0
 10
607.61593344361995
 20
264.10590274224268
 30
0.0
 40
4.9999998000000003
  0
ARC
  5
4B8D
  8
AM_0
 10
391.60764826995251
 20
283.1943147422428
 30
0.0
 40
2.00000007
 50
179.999989999999
 51
271.51463999999908
  0
ARC
  5
4B8E
  8
AM_0
 10
386.60763826995247
 20
315.1645497422428
 30
0.0
 40
3.0
 50
271.9999999999971
 51
0.0
  0
ARC
  5
4B8F
  8
AM_0
 10
630.99652044361994
 20
262.28353174224281
 30
0.0
 40
3.0
 50
323.71473999999722
 51
45.000001000003223
  0
ARC
  5
4B90
  8
AM_0
 10
657.59718444361988
 20
242.7539427422428
 30
0.0
 40
44.000000999999983
 50
137.54731999999819
 51
174.50581000000039
  0
ARC
  5
4B91
  8
AM_0
 10
616.72550844362001
 20
194.81119474224269
 30
0.0
 40
3.0
 50
135.0
 51
229.5520800000011
  0
ARC
  5
4B92
  8
AM_0
 10
616.72550844362001
 20
290.69666374224278
 30
0.0
 40
3.0
 50
130.4479300000001
 51
225.0
  0
ARC
  5
4B93
  8
AM_0
 10
677.1268004436198
 20
269.3545917422428
 30
0.0
 40
3.0
 50
233.71475000000001
 51
315.0
  0
ARC
  5
4B94
  8
AM_0
 10
653.09718144362
 20
305.59299574224269
 30
0.0
 40
3.0
 50
0.0
 51
94.096045999998367
  0
ARC
  5
4B95
  8
AM_0
 10
630.99652044361994
 20
223.2243417422427
 30
0.0
 40
3.0
 50
315.0
 51
36.285256999998218
  0
ARC
  5
4B96
  8
AM_0
 10
705.53993244361982
 20
283.62561874224269
 30
0.0
 40
3.0
 50
40.447928999996982
 51
135.0
  0
ARC
  5
4B97
  8
AM_0
 10
381.6075982699524
 20
306.98504974224272
 30
0.0
 40
5.0000001000000003
 50
91.999998000000545
 51
180.00001000000091
  0
ARC
  5
4B98
  8
AM_0
 10
381.6075982699524
 20
201.01863574224279
 30
0.0
 40
5.0000001000000003
 50
179.999989999999
 51
270.0
  0
ARC
  5
4B99
  8
AM_0
 10
381.6075982699524
 20
175.67749474224249
 30
0.0
 40
1.0000000199999981
 50
91.500001000001546
 51
180.00001000000091
  0
ARC
  5
4B9A
  8
AM_0
 10
391.60764826995251
 20
302.25394474224282
 30
0.0
 40
3.0
 50
0.0
 51
90.00000299999769
  0
ARC
  5
4B9B
  8
AM_0
 10
373.60764826995239
 20
289.51438174224268
 30
0.0
 40
3.0
 50
271.50000000000267
 51
0.0
  0
ARC
  5
4B9C
  8
AM_0
 10
609.6544484436198
 20
283.62561874224269
 30
0.0
 40
3.0
 50
45.000001000003223
 51
139.55207999999661
  0
ARC
  5
4B9D
  8
AM_0
 10
698.46888744361956
 20
290.69666374224278
 30
0.0
 40
3.0
 50
315.0
 51
49.552073000000021
  0
ARC
  5
4B9E
  8
AM_0
 10
391.60764826995251
 20
315.47336974224282
 30
0.0
 40
2.00000007
 50
91.999998000000545
 51
180.00001000000091
  0
ARC
  5
4B9F
  8
AM_0
 10
662.09718444361988
 20
305.59299574224269
 30
0.0
 40
3.0
 50
85.903958999999986
 51
180.00001000000091
  0
ARC
  5
4BA0
  8
AM_0
 10
594.75808644361985
 20
238.2539427422428
 30
0.0
 40
3.0
 50
90.00000299999769
 51
184.09604000000081
  0
ARC
  5
4BA1
  8
AM_0
 10
657.59718444361988
 20
242.7539427422428
 30
0.0
 40
44.000000999999983
 50
185.49418999999949
 51
222.45268000000121
  0
ARC
  5
4BA2
  8
AM_0
 10
653.09718144362
 20
289.53803374224282
 30
0.0
 40
3.0
 50
275.49418000000247
 51
0.0
  0
ARC
  5
4BA3
  8
AM_0
 10
662.09718444361988
 20
289.53803374224282
 30
0.0
 40
3.0
 50
179.999989999999
 51
264.50581999999741
  0
ARC
  5
4BA4
  8
AM_0
 10
594.75808644361985
 20
247.2539427422428
 30
0.0
 40
3.0
 50
175.90394999999901
 51
270.0
  0
ARC
  5
4BA5
  8
AM_0
 10
610.81309344361955
 20
238.2539427422428
 30
0.0
 40
3.0
 50
5.4941789999992992
 51
90.00000299999769
  0
ARC
  5
4BA6
  8
AM_0
 10
610.81309344361955
 20
247.2539427422428
 30
0.0
 40
3.0
 50
270.0
 51
354.50582000000048
  0
ARC
  5
4BA7
  8
AM_0
 10
720.43628244362003
 20
247.2539427422428
 30
0.0
 40
3.0
 50
270.0
 51
4.096044000000556
  0
ARC
  5
4BA8
  8
AM_0
 10
720.43628244362003
 20
238.2539427422428
 30
0.0
 40
3.0
 50
355.9039599999993
 51
90.00000299999769
  0
ARC
  5
4BA9
  8
AM_0
 10
709.25142144361985
 20
238.2539427422428
 30
0.0
 40
3.0
 50
90.00000299999769
 51
200.00000000000219
  0
ARC
  5
4BAA
  8
AM_0
 10
705.97567944361958
 20
247.2539427422428
 30
0.0
 40
3.0
 50
200.00000000000219
 51
270.0
  0
ARC
  5
4BAB
  8
AM_0
 10
391.60764826995251
 20
202.2189387422427
 30
0.0
 40
2.00000007
 50
90.00000299999769
 51
180.00001000000091
  0
ARC
  5
4BAC
  8
AM_0
 10
391.60764826995251
 20
175.13069674224269
 30
0.0
 40
2.00000007
 50
179.999989999999
 51
268.00000999999872
  0
ARC
  5
4BAD
  8
AM_0
 10
392.60763826995247
 20
188.13861574224271
 30
0.0
 40
2.00000007
 50
268.0000000000029
 51
0.0
  0
ARC
  5
4BAE
  8
AM_0
 10
657.59718444361988
 20
242.7539427422428
 30
0.0
 40
30.0
 50
17.592213999998648
 51
225.8260300000002
  0
ARC
  5
4BAF
  8
AM_0
 10
684.19784544361994
 20
262.28353174224281
 30
0.0
 40
3.0
 50
135.0
 51
216.28526000000289
  0
ARC
  5
4BB0
  8
AM_0
 10
638.06759544361989
 20
269.3545917422428
 30
0.0
 40
3.0
 50
225.0
 51
306.28525999999772
  0
ARC
  5
4BB1
  8
AM_0
 10
718.94182044361958
 20
304.09854874224283
 30
0.0
 40
10.000000200000001
 50
4.99999990000107
 51
84.999996999998729
  0
ARC
  5
4BB2
  8
AM_0
 10
657.59718444361988
 20
225.7539417422428
 30
0.0
 40
60.000002999999992
 50
303.10914000000122
 51
306.06658999999792
  0
ARC
  5
4BB3
  8
AM_0
 10
596.25259344361984
 20
304.09854874224283
 30
0.0
 40
10.000000200000001
 50
95.00000199999856
 51
175.0000100000004
  0
ARC
  5
4BB4
  8
AM_0
 10
718.97195544362
 20
181.75391074224271
 30
0.0
 40
10.000000200000001
 50
270.0
 51
354.99999999999977
  0
ARC
  5
4BB5
  8
AM_0
 10
596.22241044361999
 20
181.75391074224271
 30
0.0
 40
10.000000200000001
 50
184.99998999999951
 51
270.0
  0
ARC
  5
4BB6
  8
AM_0
 10
649.62915144362
 20
184.25392774224269
 30
0.0
 40
3.0
 50
270.0
 51
45.000001000003223
  0
ARC
  5
4BB7
  8
AM_0
 10
681.70626744362005
 20
167.5495047422427
 30
0.0
 40
7.0000007999999987
 50
270.0
 51
18.251978000001721
  0
ARC
  5
4BB8
  8
AM_0
 10
382.0622182699525
 20
163.23700474224259
 30
0.0
 40
2.5454064299999981
 50
325.61556999999817
 51
34.384439000003397
  0
ARC
  5
4BB9
  8
AM_0
 10
382.0622182699525
 20
171.86201974224269
 30
0.0
 40
2.5454064299999981
 50
325.61556999999817
 51
34.384439000003397
  0
ARC
  5
4BBA
  8
AM_0
 10
375.09312826995262
 20
167.54951974224261
 30
0.0
 40
9.5144921999999994
 50
342.41195999999439
 51
17.588032999999289
  0
ARC
  5
4BBB
  8
AM_0
 10
312.09315826995248
 20
161.38412974224269
 30
0.0
 40
1.0000000199999981
 50
30.000000999998431
 51
91.500001000001546
  0
ARC
  5
4BBC
  8
AM_0
 10
314.53602826995262
 20
161.15289874224271
 30
0.0
 40
1.0000000199999981
 50
210.00000000000119
 51
271.50000000000267
  0
LINE
  5
4BD7
  8
ﾁｭｳｼﾝｾﾝ1
 10
710.63020194682406
 20
189.72094023903799
 30
0.0
 11
724.77233757055524
 21
175.57880461530689
 31
0.0
  0
ARC
  5
4BD8
  8
ﾁｭｳｼﾝｾﾝ1
 10
657.59718444361999
 20
242.75394274224189
 30
0.0
 40
85.00000199999981
 50
307.52997313582227
 51
322.53662548519128
  0
LINE
  5
4BD9
  8
ﾁｭｳｼﾝｾﾝ1
 10
710.63018694682467
 20
295.78696024544661
 30
0.0
 11
724.77232257055562
 21
309.92909586917762
 31
0.0
  0
ARC
  5
4BDA
  8
ﾁｭｳｼﾝｾﾝ1
 10
657.59718444362079
 20
242.7539427422424
 30
0.0
 40
85.00000199999981
 50
37.529973135825003
 51
52.536625485192438
  0
LINE
  5
4BDB
  8
ﾁｭｳｼﾝｾﾝ1
 10
604.56416694041627
 20
295.7869452454471
 30
0.0
 11
590.42203131668543
 21
309.92908086917799
 31
0.0
  0
ARC
  5
4BDC
  8
ﾁｭｳｼﾝｾﾝ1
 10
657.59718444362045
 20
242.7539427422432
 30
0.0
 40
85.00000199999981
 50
127.529973135822
 51
142.53662548519131
  0
LINE
  5
51BB
  8
AM_0
 10
144.10766826995371
 20
463.61802097420917
 30
0.0
 11
144.10766826995319
 21
501.34030788896649
 31
0.0
  0
LINE
  5
51BC
  8
AM_0
 10
135.1076682699528
 20
461.67942448298118
 30
0.0
 11
135.1076682699528
 21
569.67942448298129
 31
0.0
  0
LINE
  5
51BD
  8
AM_0
 10
135.1076682699528
 20
461.67942448298118
 30
0.0
 11
152.1076682699528
 21
462.67942448298101
 31
0.0
  0
LINE
  5
51BE
  8
AM_0
 10
135.1076682699528
 20
569.67942448298129
 30
0.0
 11
152.1076682699528
 21
568.67942448298095
 31
0.0
  0
LINE
  5
51BF
  8
AM_0
 10
144.10766826995339
 20
472.08552128488958
 30
0.0
 11
152.1076682699528
 21
472.08552128488992
 31
0.0
  0
LINE
  5
51C0
  8
AM_0
 10
144.10766826995371
 20
463.61802097420917
 30
0.0
 11
152.1076682699528
 21
463.61802097420917
 31
0.0
  0
LINE
  5
51C1
  8
AM_0
 10
140.60766826995339
 20
481.03855151772109
 30
0.0
 11
144.10766826995339
 21
481.03855151772109
 31
0.0
  0
LINE
  5
51C2
  8
AM_0
 10
140.60766826995339
 20
472.53855151772109
 30
0.0
 11
144.10766826995371
 21
472.53855151772109
 31
0.0
  0
LINE
  5
51C3
  8
AM_0
 10
140.10766826995351
 20
473.03855151772109
 30
0.0
 11
140.10766826995351
 21
480.53855151772109
 31
0.0
  0
ARC
  5
51C4
  8
AM_0
 10
140.60766826995359
 20
473.03855151772109
 30
0.0
 40
0.5
 50
180.0
 51
270.0
  0
ARC
  5
51C5
  8
AM_0
 10
140.60766826995359
 20
480.53855151772109
 30
0.0
 40
0.5
 50
90.0
 51
180.0
  0
LINE
  5
51C6
  8
AM_0
 10
135.1076682699528
 20
473.40722998984108
 30
0.0
 11
140.10766826995351
 21
473.4072299898408
 31
0.0
  0
LINE
  5
51C7
  8
AM_0
 10
135.1076682699528
 20
483.14231248813712
 30
0.0
 11
144.10766826995339
 21
483.14231248813712
 31
0.0
  0
LINE
  5
51C8
  8
AM_0
 10
144.10766826995371
 20
567.74082799175335
 30
0.0
 11
144.10766826995319
 21
530.01854107700035
 31
0.0
  0
LINE
  5
51C9
  8
AM_0
 10
144.10766826995339
 20
559.27332768107271
 30
0.0
 11
152.1076682699528
 21
559.27332768107271
 31
0.0
  0
LINE
  5
51CA
  8
AM_0
 10
144.10766826995371
 20
567.74082799175335
 30
0.0
 11
152.1076682699528
 21
567.74082799175335
 31
0.0
  0
LINE
  5
51CB
  8
AM_0
 10
140.60766826995339
 20
550.32029744824115
 30
0.0
 11
144.10766826995339
 21
550.32029744824115
 31
0.0
  0
LINE
  5
51CC
  8
AM_0
 10
140.60766826995339
 20
558.82029744824115
 30
0.0
 11
144.10766826995371
 21
558.82029744824115
 31
0.0
  0
LINE
  5
51CD
  8
AM_0
 10
140.10766826995351
 20
558.32029744824115
 30
0.0
 11
140.10766826995351
 21
550.82029744824115
 31
0.0
  0
ARC
  5
51CE
  8
AM_0
 10
140.60766826995359
 20
558.32029744824115
 30
0.0
 40
0.5
 50
90.0
 51
180.0
  0
ARC
  5
51CF
  8
AM_0
 10
140.60766826995359
 20
550.82029744824115
 30
0.0
 40
0.5
 50
180.0
 51
270.0
  0
LINE
  5
51D0
  8
AM_0
 10
135.1076682699528
 20
557.95161897612115
 30
0.0
 11
140.10766826995351
 21
557.95161897612161
 31
0.0
  0
LINE
  5
51D1
  8
AM_0
 10
135.1076682699528
 20
548.21653647782512
 30
0.0
 11
144.10766826995339
 21
548.21653647782512
 31
0.0
  0
LINE
  5
51D2
  8
AM_0
 10
129.1076682699528
 20
569.67942448298129
 30
0.0
 11
129.1076682699528
 21
461.67942448298118
 31
0.0
  0
LINE
  5
51D3
  8
AM_0
 10
135.1076682699528
 20
461.67942448298118
 30
0.0
 11
129.1076682699528
 21
461.67942448298118
 31
0.0
  0
LINE
  5
51D4
  8
AM_0
 10
129.1076682699528
 20
569.67942448298129
 30
0.0
 11
135.10766826995251
 21
569.67942448298129
 31
0.0
  0
LINE
  5
51D5
  8
AM_0
 10
128.1076682699528
 20
511.87942448298099
 30
0.0
 11
128.1076682699528
 21
519.47942448298113
 31
0.0
  0
LINE
  5
51D6
  8
AM_0
 10
128.1076682699528
 20
519.47942448298113
 30
0.0
 11
129.1076682699528
 21
519.47942448298113
 31
0.0
  0
LINE
  5
51D7
  8
AM_0
 10
129.1076682699528
 20
515.87942448298122
 30
0.0
 11
128.1076682699528
 21
516.24339471724716
 31
0.0
  0
LINE
  5
51D8
  8
AM_0
 10
129.1076682699528
 20
515.47942448298113
 30
0.0
 11
128.1076682699528
 21
515.84339471724752
 31
0.0
  0
LINE
  5
51D9
  8
AM_0
 10
129.1076682699528
 20
511.87942448298099
 30
0.0
 11
128.1076682699528
 21
511.87942448298099
 31
0.0
  0
LINE
  5
51DA
  8
AM_0
 10
127.0487307578247
 20
519.5867794552878
 30
0.0
 11
128.1076682699528
 21
519.67942448298118
 31
0.0
  0
LINE
  5
51DB
  8
AM_0
 10
127.0487307578247
 20
511.77206951067478
 30
0.0
 11
128.1076682699528
 21
511.67942448298118
 31
0.0
  0
ARC
  5
51DC
  8
AM_0
 10
131.50766826995269
 20
515.67942448298118
 30
0.0
 40
6.5
 50
151.82726586813479
 51
208.1727341318651
  0
ARC
  5
51DD
  8
AM_0
 10
127.1881799462213
 20
513.36598102762116
 30
0.0
 40
1.6000000000000001
 50
208.1727341318651
 51
265.00000000000028
  0
ARC
  5
51DE
  8
AM_0
 10
127.1881799462213
 20
517.99286793834085
 30
0.0
 40
1.6000000000000001
 50
94.99999999999973
 51
151.82726586813479
  0
LINE
  5
51DF
  8
AM_0
 10
128.1076682699528
 20
511.67942448298118
 30
0.0
 11
128.1076682699528
 21
519.67942448298118
 31
0.0
  0
LINE
  5
51E0
  8
AM_0
 10
152.1076682699528
 20
501.34030788896672
 30
0.0
 11
144.10766826995339
 21
501.34030788896672
 31
0.0
  0
LINE
  5
51E1
  8
AM_0
 10
152.10766826995251
 20
530.01854107700069
 30
0.0
 11
144.10766826995319
 21
530.01854107700069
 31
0.0
  0
LINE
  5
51E2
  8
AM_0
 10
114.6076682699523
 20
481.67942448298209
 30
0.0
 11
114.6076682699523
 21
470.67942448298112
 31
0.0
  0
LINE
  5
51E3
  8
AM_0
 10
129.10766826995231
 20
470.67942448298112
 30
0.0
 11
114.6076682699523
 21
470.67942448298118
 31
0.0
  0
LINE
  5
51E4
  8
AM_0
 10
102.6076682699528
 20
475.6794244829822
 30
0.0
 11
102.6076682699526
 21
472.67942448298231
 31
0.0
  0
LINE
  5
51E5
  8
AM_0
 10
102.6076682699526
 20
472.67942448298231
 30
0.0
 11
114.6076682699523
 21
472.67942448298231
 31
0.0
  0
LINE
  5
51E6
  8
AM_0
 10
102.6076682699523
 20
473.67942448298243
 30
0.0
 11
102.6076682699523
 21
475.85709288912881
 31
0.0
  0
LINE
  5
51E7
  8
AM_0
 10
97.107668269952342
 20
475.67942448298248
 30
0.0
 11
98.007668269952433
 21
475.67942448298248
 31
0.0
  0
LINE
  5
51E8
  8
AM_0
 10
96.907668269952083
 20
478.67942448298248
 30
0.0
 11
96.907668269952083
 21
475.67942448298248
 31
0.0
  0
LINE
  5
51E9
  8
AM_0
 10
98.007668269952433
 20
475.40707274839878
 30
0.0
 11
98.007668269952433
 21
478.95177621756619
 31
0.0
  0
LINE
  5
51EA
  8
AM_0
 10
96.607668269952356
 20
478.37942448298247
 30
0.0
 11
98.007668269950599
 21
478.37942448298247
 31
0.0
  0
LINE
  5
51EB
  8
AM_0
 10
102.0076682699524
 20
474.7978546225753
 30
0.0
 11
102.0076682699524
 21
473.67942448298243
 31
0.0
  0
LINE
  5
51EC
  8
AM_0
 10
102.0076682699524
 20
475.67942448298248
 30
0.0
 11
102.0076682699524
 21
475.57942448298229
 31
0.0
  0
LINE
  5
51ED
  8
AM_0
 10
102.0076682699524
 20
475.57942448298229
 30
0.0
 11
102.0076682699524
 21
474.7978546225753
 31
0.0
  0
LINE
  5
51EE
  8
AM_0
 10
102.0076682699524
 20
475.67942448298248
 30
0.0
 11
102.0076682699524
 21
475.57942448298229
 31
0.0
  0
LINE
  5
51EF
  8
AM_0
 10
102.0076682699524
 20
476.06318715931201
 30
0.0
 11
102.0076682699524
 21
474.7978546225753
 31
0.0
  0
LINE
  5
51F0
  8
AM_0
 10
102.0076682699524
 20
473.67942448298243
 30
0.0
 11
102.6076682699523
 21
473.67942448298243
 31
0.0
  0
LINE
  5
51F1
  8
AM_0
 10
99.3076682699526
 20
474.7978546225753
 30
0.0
 11
99.3076682699526
 21
478.22938581497527
 31
0.0
  0
LINE
  5
51F2
  8
AM_0
 10
99.146624040694945
 20
474.51116299423211
 30
0.0
 11
98.214070991187882
 21
475.04957274839882
 31
0.0
  0
LINE
  5
51F3
  8
AM_0
 10
99.580119861982993
 20
474.00399800243957
 30
0.0
 11
101.735216677922
 21
474.00399800243957
 31
0.0
  0
LINE
  5
51F4
  8
AM_0
 10
99.580119861982993
 20
475.59171124271103
 30
0.0
 11
101.735216677922
 21
475.59171124271109
 31
0.0
  0
LINE
  5
51F5
  8
AM_0
 10
98.007668269951083
 20
478.67942448298248
 30
0.0
 11
96.907668269952083
 21
478.67942448298248
 31
0.0
  0
LINE
  5
51F6
  8
AM_0
 10
96.907668269952083
 20
478.67942448298248
 30
0.0
 11
96.607668269952356
 21
478.37942448298247
 31
0.0
  0
LINE
  5
51F7
  8
AM_0
 10
96.607668269952356
 20
478.37942448298247
 30
0.0
 11
96.607668269952356
 21
475.97942448298238
 31
0.0
  0
LINE
  5
51F8
  8
AM_0
 10
96.907668269952083
 20
475.67942448298248
 30
0.0
 11
98.007668269950599
 21
475.67942448298248
 31
0.0
  0
LINE
  5
51F9
  8
AM_0
 10
96.607668269952356
 20
475.97942448298238
 30
0.0
 11
96.907668269952083
 21
475.67942448298248
 31
0.0
  0
LINE
  5
51FA
  8
AM_0
 10
98.007668269950599
 20
475.97942448298238
 30
0.0
 11
96.607668269952356
 21
475.97942448298238
 31
0.0
  0
ARC
  5
51FB
  8
AM_0
 10
100.7148914539258
 20
474.7978546225753
 30
0.0
 40
1.292776816026465
 50
322.11555894629771
 51
0.0
  0
ARC
  5
51FC
  8
AM_0
 10
104.0700981460121
 20
477.17942448298243
 30
0.0
 40
4.762429876059711
 50
168.45024695876941
 51
199.4742400054138
  0
ARC
  5
51FD
  8
AM_0
 10
100.600445085979
 20
474.7978546225753
 30
0.0
 40
1.2927768160265549
 50
142.11555894629771
 51
217.88444105370229
  0
ARC
  5
51FE
  8
AM_0
 10
97.245238393892905
 20
477.17942448298243
 30
0.0
 40
4.762429876059584
 50
340.52575999458628
 51
347.08714779821958
  0
ARC
  5
51FF
  8
AM_0
 10
100.7148914539258
 20
474.7978546225753
 30
0.0
 40
1.2927768160265021
 50
0.0
 51
37.884441053702282
  0
ARC
  5
5200
  8
AM_0
 10
98.420473712422904
 20
475.40707274839889
 30
0.0
 40
0.4128054424705855
 50
180.0
 51
239.99999999999949
  0
ARC
  5
5201
  8
AM_0
 10
98.733818598224516
 20
473.7961629942323
 30
0.0
 40
0.8256108849411369
 50
28.217424594182571
 51
59.999999999999439
  0
LINE
  5
5202
  8
AM_0
 10
98.222760802475605
 20
479.31429328245218
 30
0.0
 11
98.214070991187882
 21
479.30927621756598
 31
0.0
  0
ARC
  5
5203
  8
AM_0
 10
98.420473712423146
 20
478.95177621756631
 30
0.0
 40
0.4128054424705855
 50
119.9999999999916
 51
179.99999999999341
  0
CIRCLE
  5
5204
  8
AM_0
 10
100.6076296019465
 20
515.67942448298163
 30
0.0
 40
5.5
  0
LINE
  5
5205
  8
AM_0
 10
95.107629601946542
 20
512.50399800243849
 30
0.0
 11
100.607629601947
 21
509.32857152189553
 31
0.0
  0
LINE
  5
5206
  8
AM_0
 10
100.607629601947
 20
509.32857152189553
 30
0.0
 11
106.1076296019465
 21
512.50399800243872
 31
0.0
  0
LINE
  5
5207
  8
AM_0
 10
106.1076296019465
 20
512.50399800243872
 30
0.0
 11
106.1076296019465
 21
518.85485096352443
 31
0.0
  0
LINE
  5
5208
  8
AM_0
 10
106.1076296019465
 20
518.85485096352443
 30
0.0
 11
100.6076296019465
 21
522.03027744406745
 31
0.0
  0
LINE
  5
5209
  8
AM_0
 10
100.6076296019465
 20
522.03027744406745
 30
0.0
 11
95.107629601946542
 21
518.85485096352386
 31
0.0
  0
LINE
  5
520A
  8
AM_0
 10
95.107629601946542
 20
518.85485096352386
 30
0.0
 11
95.107629601946542
 21
512.50399800243849
 31
0.0
  0
CIRCLE
  5
520B
  8
AM_0
 10
100.6076296019465
 20
515.67942448298163
 30
0.0
 40
6.4999856554771771
  0
LINE
  5
520C
  8
AM_0
 10
111.6729218323177
 20
481.67942448298197
 30
0.0
 11
114.6076682699523
 21
481.67942448298197
 31
0.0
  0
LINE
  5
520D
  8
AM_0
 10
112.6270903841056
 20
480.1794244829822
 30
0.0
 11
114.6076682699523
 21
480.1794244829822
 31
0.0
  0
LINE
  5
520E
  8
AM_0
 10
103.92869741381141
 20
475.6794244829822
 30
0.0
 11
114.6076682699523
 21
475.6794244829822
 31
0.0
  0
ARC
  5
520F
  8
AM_0
 10
103.92869741381099
 20
480.67942448298231
 30
0.0
 40
5.0
 50
225.0
 51
270.0
1001
GENIUS_GENODEF_13
1002
{
1000
HIER
1070
     0
1002
}
1002
{
1000
MANEDIT
1070
     0
1002
}
1002
{
1000
NOSEL
1070
     0
1002
}
1002
{
1000
BEHIND
1070
     0
1002
}
1002
{
1000
OTHER
1070
     0
1002
}
1002
{
1000
REACTOR
1002
}
1001
GENIUS_GENOBJ-N-FIL_13
1002
{
1000
OWNER
1000
GEN
1002
}
  0
LINE
  5
5210
  8
AM_0
 10
112.6270903841053
 20
475.6794244829822
 30
0.0
 11
112.6270903841056
 21
480.1794244829822
 31
0.0
  0
LINE
  5
5211
  8
AM_0
 10
99.107629601946542
 20
509.3548839050888
 30
0.0
 11
99.107629601946769
 21
488.46744962927278
 31
0.0
  0
LINE
  5
5212
  8
AM_0
 10
102.1076296019465
 20
509.3548839050888
 30
0.0
 11
102.1076296019465
 21
488.46744962927278
 31
0.0
  0
LINE
  5
5213
  8
AM_0
 10
96.857629601946542
 20
510.37025189947929
 30
0.0
 11
96.857629601946542
 21
482.75049229484688
 31
0.0
  0
ARC
  5
5214
  8
AM_0
 10
101.8576296019465
 20
482.75049229484688
 30
0.0
 40
5.0
 50
180.0
 51
225.0
1001
GENIUS_GENOBJ-N-FIL_13
1002
{
1000
OWNER
1000
GEN
1002
}
1001
GENIUS_GENODEF_13
1002
{
1000
HIER
1070
     0
1002
}
1002
{
1000
MANEDIT
1070
     0
1002
}
1002
{
1000
NOSEL
1070
     0
1002
}
1002
{
1000
BEHIND
1070
     0
1002
}
1002
{
1000
OTHER
1070
     0
1002
}
1002
{
1000
REACTOR
1002
}
  0
LINE
  5
5215
  8
AM_0
 10
104.3576296019465
 20
510.37025189947929
 30
0.0
 11
104.3576296019465
 21
486.21034282623361
 31
0.0
  0
ARC
  5
5216
  8
AM_0
 10
109.3576296019465
 20
494.63494285230689
 30
0.0
 40
5.0
 50
180.0
 51
212.46094411513889
1001
GENIUS_GENODEF_13
1002
{
1000
HIER
1070
     0
1002
}
1002
{
1000
MANEDIT
1070
     0
1002
}
1002
{
1000
NOSEL
1070
     0
1002
}
1002
{
1000
BEHIND
1070
     0
1002
}
1002
{
1000
OTHER
1070
     0
1002
}
1002
{
1000
REACTOR
1002
}
1001
GENIUS_GENOBJ-N-FIL_13
1002
{
1000
OWNER
1000
GEN
1002
}
  0
ARC
  5
5217
  8
AM_0
 10
109.3576296019465
 20
486.21034282623361
 30
0.0
 40
5.0
 50
180.0
 51
224.2123722808945
1001
GENIUS_GENOBJ-N-FIL_13
1002
{
1000
OWNER
1000
GEN
1002
}
1001
GENIUS_GENODEF_13
1002
{
1000
HIER
1070
     0
1002
}
1002
{
1000
MANEDIT
1070
     0
1002
}
1002
{
1000
NOSEL
1070
     0
1002
}
1002
{
1000
BEHIND
1070
     0
1002
}
1002
{
1000
OTHER
1070
     0
1002
}
1002
{
1000
REACTOR
1002
}
  0
LINE
  5
5218
  8
AM_0
 10
112.6270903841053
 20
480.1794244829822
 30
0.0
 11
105.1388420911795
 21
491.9513199393412
 31
0.0
  0
LINE
  5
5219
  8
AM_0
 10
112.6270903841053
 20
475.6794244829822
 30
0.0
 11
105.7738293660951
 21
482.72374335547289
 31
0.0
  0
LINE
  5
521A
  8
AM_0
 10
98.322095696013875
 20
479.21495838891423
 30
0.0
 11
100.3931635078785
 21
477.14389057704938
 31
0.0
  0
ARC
  5
521B
  8
AM_0
 10
100.6076296019465
 20
488.46744962927278
 30
0.0
 40
1.5
 50
180.0
 51
0.0
  0
LINE
  5
521C
  8
AM_0
 10
114.6076682699528
 20
549.67942448298072
 30
0.0
 11
114.60766826995319
 21
560.67942448298163
 31
0.0
  0
LINE
  5
521D
  8
AM_0
 10
129.10766826995319
 20
560.67942448298129
 30
0.0
 11
114.60766826995319
 21
560.67942448298163
 31
0.0
  0
LINE
  5
521E
  8
AM_0
 10
102.60766826995351
 20
555.67942448298095
 30
0.0
 11
102.60766826995351
 21
558.67942448298095
 31
0.0
  0
LINE
  5
521F
  8
AM_0
 10
102.60766826995351
 20
558.67942448298095
 30
0.0
 11
114.60766826995319
 21
558.67942448298072
 31
0.0
  0
LINE
  5
5220
  8
AM_0
 10
102.60766826995319
 20
557.67942448298072
 30
0.0
 11
102.60766826995319
 21
555.50175607683423
 31
0.0
  0
LINE
  5
5221
  8
AM_0
 10
97.107668269953251
 20
555.67942448298095
 30
0.0
 11
98.007668269953371
 21
555.67942448298095
 31
0.0
  0
LINE
  5
5222
  8
AM_0
 10
96.90766826995295
 20
552.67942448298095
 30
0.0
 11
96.90766826995295
 21
555.67942448298095
 31
0.0
  0
LINE
  5
5223
  8
AM_0
 10
98.007668269953371
 20
555.95177621756466
 30
0.0
 11
98.007668269953371
 21
552.40707274839724
 31
0.0
  0
LINE
  5
5224
  8
AM_0
 10
96.607668269953265
 20
552.97942448298056
 30
0.0
 11
98.007668269953115
 21
552.97942448298056
 31
0.0
  0
LINE
  5
5225
  8
AM_0
 10
102.0076682699533
 20
556.56099434338785
 30
0.0
 11
102.0076682699533
 21
557.67942448298095
 31
0.0
  0
LINE
  5
5226
  8
AM_0
 10
102.0076682699533
 20
555.67942448298095
 30
0.0
 11
102.0076682699533
 21
555.77942448298074
 31
0.0
  0
LINE
  5
5227
  8
AM_0
 10
102.0076682699533
 20
555.77942448298074
 30
0.0
 11
102.0076682699533
 21
556.56099434338785
 31
0.0
  0
LINE
  5
5228
  8
AM_0
 10
102.0076682699533
 20
555.67942448298095
 30
0.0
 11
102.0076682699533
 21
555.77942448298074
 31
0.0
  0
LINE
  5
5229
  8
AM_0
 10
102.0076682699533
 20
555.29566180665108
 30
0.0
 11
102.0076682699533
 21
556.56099434338785
 31
0.0
  0
LINE
  5
522A
  8
AM_0
 10
102.0076682699533
 20
557.67942448298095
 30
0.0
 11
102.60766826995319
 21
557.67942448298072
 31
0.0
  0
LINE
  5
522B
  8
AM_0
 10
99.307668269953524
 20
556.56099434338785
 30
0.0
 11
99.307668269953311
 21
553.1294631509877
 31
0.0
  0
LINE
  5
522C
  8
AM_0
 10
99.146624040695883
 20
556.84768597173115
 30
0.0
 11
98.214070991188791
 21
556.3092762175645
 31
0.0
  0
LINE
  5
522D
  8
AM_0
 10
99.580119861983931
 20
557.35485096352375
 30
0.0
 11
101.73521667792291
 21
557.35485096352375
 31
0.0
  0
LINE
  5
522E
  8
AM_0
 10
99.580119861983931
 20
555.76713772325195
 30
0.0
 11
101.73521667792291
 21
555.76713772325195
 31
0.0
  0
LINE
  5
522F
  8
AM_0
 10
98.007668269953371
 20
552.67942448298095
 30
0.0
 11
96.90766826995295
 21
552.67942448298095
 31
0.0
  0
LINE
  5
5230
  8
AM_0
 10
96.90766826995295
 20
552.67942448298095
 30
0.0
 11
96.607668269953265
 21
552.97942448298056
 31
0.0
  0
LINE
  5
5231
  8
AM_0
 10
96.607668269953265
 20
552.97942448298056
 30
0.0
 11
96.607668269953265
 21
555.37942448298065
 31
0.0
  0
LINE
  5
5232
  8
AM_0
 10
96.90766826995295
 20
555.67942448298095
 30
0.0
 11
98.007668269953371
 21
555.67942448298095
 31
0.0
  0
LINE
  5
5233
  8
AM_0
 10
96.607668269953265
 20
555.37942448298065
 30
0.0
 11
96.90766826995295
 21
555.67942448298095
 31
0.0
  0
LINE
  5
5234
  8
AM_0
 10
98.007668269953371
 20
555.37942448298065
 30
0.0
 11
96.607668269953265
 21
555.37942448298065
 31
0.0
  0
ARC
  5
5235
  8
AM_0
 10
100.7148914539267
 20
556.56099434338785
 30
0.0
 40
1.292776816026465
 50
0.0
 51
37.884441053702282
  0
ARC
  5
5236
  8
AM_0
 10
104.0700981460128
 20
554.17942448298072
 30
0.0
 40
4.762429876059711
 50
160.52575999458611
 51
191.54975304123039
  0
ARC
  5
5237
  8
AM_0
 10
100.6004450859799
 20
556.56099434338785
 30
0.0
 40
1.2927768160265549
 50
142.11555894629771
 51
217.88444105370229
  0
ARC
  5
5238
  8
AM_0
 10
97.245238393893587
 20
554.17942448298095
 30
0.0
 40
4.762429876059584
 50
12.912852201780369
 51
19.474240005413812
  0
ARC
  5
5239
  8
AM_0
 10
100.7148914539267
 20
556.56099434338785
 30
0.0
 40
1.2927768160265021
 50
322.11555894629771
 51
0.0
  0
ARC
  5
523A
  8
AM_0
 10
98.420473712423785
 20
555.95177621756432
 30
0.0
 40
0.4128054424705855
 50
120.0000000000005
 51
180.0
  0
ARC
  5
523B
  8
AM_0
 10
98.733818598225227
 20
557.56268597173084
 30
0.0
 40
0.8256108849411369
 50
299.99999999999972
 51
331.7825754058174
  0
LINE
  5
523C
  8
AM_0
 10
98.2227608024765
 20
552.04455568351091
 30
0.0
 11
98.214070991188791
 21
552.04957274839717
 31
0.0
  0
ARC
  5
523D
  8
AM_0
 10
98.420473712423785
 20
552.4070727483969
 30
0.0
 40
0.4128054424705855
 50
180.00000000000659
 51
240.00000000000759
  0
LINE
  5
523E
  8
AM_0
 10
111.67292183231859
 20
549.67942448298072
 30
0.0
 11
114.6076682699528
 21
549.67942448298072
 31
0.0
  0
LINE
  5
523F
  8
AM_0
 10
112.6270903841062
 20
551.17942448298072
 30
0.0
 11
114.607668269953
 21
551.17942448298072
 31
0.0
  0
LINE
  5
5240
  8
AM_0
 10
103.9286974138123
 20
555.67942448298095
 30
0.0
 11
114.607668269953
 21
555.67942448298072
 31
0.0
  0
ARC
  5
5241
  8
AM_0
 10
103.9286974138118
 20
550.67942448298095
 30
0.0
 40
5.0
 50
90.0
 51
135.0
1001
GENIUS_GENODEF_13
1002
{
1000
HIER
1070
     0
1002
}
1002
{
1000
MANEDIT
1070
     0
1002
}
1002
{
1000
NOSEL
1070
     0
1002
}
1002
{
1000
BEHIND
1070
     0
1002
}
1002
{
1000
OTHER
1070
     0
1002
}
1002
{
1000
REACTOR
1002
}
1001
GENIUS_GENOBJ-N-FIL_13
1002
{
1000
OWNER
1000
GEN
1002
}
  0
LINE
  5
5242
  8
AM_0
 10
112.6270903841062
 20
555.67942448298072
 30
0.0
 11
112.6270903841062
 21
551.17942448298072
 31
0.0
  0
LINE
  5
5243
  8
AM_0
 10
99.107629601946996
 20
522.00396506087441
 30
0.0
 11
99.107629601947451
 21
542.89139933669026
 31
0.0
  0
LINE
  5
5244
  8
AM_0
 10
102.1076296019467
 20
522.00396506087395
 30
0.0
 11
102.10762960194739
 21
542.89139933669026
 31
0.0
  0
LINE
  5
5245
  8
AM_0
 10
96.857629601947011
 20
520.98859706648386
 30
0.0
 11
96.857629601947437
 21
548.60835667111633
 31
0.0
  0
ARC
  5
5246
  8
AM_0
 10
101.8576296019472
 20
548.60835667111633
 30
0.0
 40
5.0
 50
135.0
 51
180.0
1001
GENIUS_GENOBJ-N-FIL_13
1002
{
1000
OWNER
1000
GEN
1002
}
1001
GENIUS_GENODEF_13
1002
{
1000
HIER
1070
     0
1002
}
1002
{
1000
MANEDIT
1070
     0
1002
}
1002
{
1000
NOSEL
1070
     0
1002
}
1002
{
1000
BEHIND
1070
     0
1002
}
1002
{
1000
OTHER
1070
     0
1002
}
1002
{
1000
REACTOR
1002
}
  0
LINE
  5
5247
  8
AM_0
 10
104.357629601947
 20
520.98859706648363
 30
0.0
 11
104.35762960194739
 21
545.14850613972897
 31
0.0
  0
ARC
  5
5248
  8
AM_0
 10
109.357629601947
 20
536.72390611365631
 30
0.0
 40
5.0
 50
147.53905588486111
 51
180.0
1001
GENIUS_GENODEF_13
1002
{
1000
HIER
1070
     0
1002
}
1002
{
1000
MANEDIT
1070
     0
1002
}
1002
{
1000
NOSEL
1070
     0
1002
}
1002
{
1000
BEHIND
1070
     0
1002
}
1002
{
1000
OTHER
1070
     0
1002
}
1002
{
1000
REACTOR
1002
}
1001
GENIUS_GENOBJ-N-FIL_13
1002
{
1000
OWNER
1000
GEN
1002
}
  0
ARC
  5
5249
  8
AM_0
 10
109.3576296019472
 20
545.14850613972897
 30
0.0
 40
5.0
 50
135.7876277191055
 51
180.0
1001
GENIUS_GENOBJ-N-FIL_13
1002
{
1000
OWNER
1000
GEN
1002
}
1001
GENIUS_GENODEF_13
1002
{
1000
HIER
1070
     0
1002
}
1002
{
1000
MANEDIT
1070
     0
1002
}
1002
{
1000
NOSEL
1070
     0
1002
}
1002
{
1000
BEHIND
1070
     0
1002
}
1002
{
1000
OTHER
1070
     0
1002
}
1002
{
1000
REACTOR
1002
}
  0
LINE
  5
524A
  8
AM_0
 10
112.627090384106
 20
551.17942448298072
 30
0.0
 11
105.13884209118
 21
539.40752902662211
 31
0.0
  0
LINE
  5
524B
  8
AM_0
 10
112.6270903841062
 20
555.67942448298072
 30
0.0
 11
105.773829366096
 21
548.6351056104902
 31
0.0
  0
LINE
  5
524C
  8
AM_0
 10
98.322095696014586
 20
552.14389057704921
 30
0.0
 11
100.39316350787939
 21
554.2149583889136
 31
0.0
  0
ARC
  5
524D
  8
AM_0
 10
100.6076296019472
 20
542.89139933669026
 30
0.0
 40
1.5
 50
0.0
 51
180.0
  0
LINE
  5
524E
  8
AM_0
 10
122.73716134293301
 20
445.4669026021628
 30
0.0
 11
107.6070741788551
 21
472.67942448298231
 31
0.0
  0
LINE
  5
524F
  8
AM_0
 10
127.9811214103573
 20
448.38252994653641
 30
0.0
 11
115.5841095015697
 21
470.67942448298112
 31
0.0
  0
LINE
  5
5250
  8
ﾁｭｳｼﾝｾﾝ
 10
88.338515798083549
 20
515.67942448298118
 30
0.0
 11
439.97143826995222
 21
515.67942448298118
 31
0.0
  0
LINE
  5
5290
  8
AM_0
 10
307.1076682699524
 20
451.67942448298072
 30
0.0
 11
307.1076682699524
 21
579.67942448298095
 31
0.0
  0
LINE
  5
52A1
  8
AM_0
 10
299.1076682699524
 20
552.8294444829811
 30
0.0
 11
307.1076682699524
 21
552.8294444829811
 31
0.0
  0
LINE
  5
52A2
  8
AM_0
 10
300.1076682699524
 20
463.63938448298092
 30
0.0
 11
307.1076682699524
 21
463.6393844829812
 31
0.0
  0
LINE
  5
52A3
  8
AM_0
 10
299.1076682699524
 20
478.5293944829811
 30
0.0
 11
307.1076682699524
 21
478.5293944829811
 31
0.0
  0
LINE
  5
52A4
  8
AM_0
 10
300.1076682699524
 20
452.17942448298112
 30
0.0
 11
307.1076682699524
 21
452.17942448298118
 31
0.0
  0
LINE
  5
52A5
  8
AM_0
 10
300.1076682699524
 20
567.71945448298095
 30
0.0
 11
307.1076682699524
 21
567.71945448298095
 31
0.0
  0
LINE
  5
52A6
  8
AM_0
 10
300.1076682699524
 20
579.17942448298095
 30
0.0
 11
307.1076682699524
 21
579.17942448298095
 31
0.0
  0
LINE
  5
52A7
  8
AM_0
 10
152.10766826995271
 20
458.24936448298121
 30
0.0
 11
154.92761826995229
 21
458.18936448298092
 31
0.0
  0
LINE
  5
52A8
  8
AM_0
 10
193.10766826995271
 20
469.32944448298088
 30
0.0
 11
299.1076682699524
 21
469.32944448298088
 31
0.0
  0
LINE
  5
52A9
  8
AM_0
 10
293.81762826995248
 20
455.17942448298078
 30
0.0
 11
299.1076682699524
 21
455.17942448298078
 31
0.0
  0
LINE
  5
52AA
  8
AM_0
 10
165.7776582699525
 20
482.31943448298102
 30
0.0
 11
260.12762826995248
 21
482.31943448298102
 31
0.0
  0
LINE
  5
52AB
  8
AM_0
 10
248.1076682699526
 20
479.67942448298089
 30
0.0
 11
166.64337826995271
 21
479.67942448298089
 31
0.0
  0
LINE
  5
52AC
  8
AM_0
 10
248.1076682699526
 20
478.95945448298079
 30
0.0
 11
295.92767826995248
 21
478.95945448298079
 31
0.0
  0
LINE
  5
52AD
  8
AM_0
 10
165.7776582699525
 20
478.95945448298079
 30
0.0
 11
248.1076682699526
 21
478.95945448298079
 31
0.0
  0
LINE
  5
52AE
  8
AM_0
 10
165.8052982699524
 20
457.41941448298093
 30
0.0
 11
171.6076682699524
 21
457.41941448298093
 31
0.0
  0
LINE
  5
52AF
  8
AM_0
 10
175.1076682699524
 20
453.81943448298091
 30
0.0
 11
291.9176682699524
 21
453.81943448298091
 31
0.0
  0
LINE
  5
52B0
  8
AM_0
 10
165.86755826995261
 20
462.69944448298111
 30
0.0
 11
171.6076682699524
 21
462.69944448298111
 31
0.0
  0
LINE
  5
52B1
  8
AM_0
 10
162.1076682699524
 20
467.32944448298082
 30
0.0
 11
162.1076682699524
 21
481.37937448298078
 31
0.0
  0
LINE
  5
52B2
  8
AM_0
 10
152.10766826995271
 20
467.32944448298082
 30
0.0
 11
162.1076682699524
 21
467.32944448298082
 31
0.0
  0
LINE
  5
52B3
  8
AM_0
 10
293.84765826995238
 20
455.30933448298111
 30
0.0
 11
297.30767826995248
 21
468.21945448298112
 31
0.0
  0
LINE
  5
52B4
  8
AM_0
 10
155.8689582699526
 20
455.52042448298079
 30
0.0
 11
155.38769826995261
 21
457.42942448298078
 31
0.0
  0
LINE
  5
52B5
  8
AM_0
 10
156.2976782699526
 20
455.5493544829809
 30
0.0
 11
155.3776282699524
 21
459.42945448298082
 31
0.0
  0
LINE
  5
52B6
  8
AM_0
 10
173.10766826995251
 20
453.7903844829811
 30
0.0
 11
173.10766826995251
 21
461.19944448298082
 31
0.0
  0
LINE
  5
52B7
  8
AM_0
 10
153.93768826995239
 20
458.55942448298111
 30
0.0
 11
155.58764826995261
 21
458.55942448298111
 31
0.0
  0
LINE
  5
52B8
  8
AM_0
 10
193.10766826995271
 20
562.02939448298105
 30
0.0
 11
299.1076682699524
 21
562.02939448298105
 31
0.0
  0
LINE
  5
52B9
  8
AM_0
 10
299.1076682699524
 20
453.17942448298089
 30
0.0
 11
299.1076682699524
 21
578.17942448298118
 31
0.0
  0
LINE
  5
52BA
  8
AM_0
 10
152.10766826995271
 20
573.10941448298115
 30
0.0
 11
154.92767826995271
 21
573.17942448298129
 31
0.0
  0
LINE
  5
52BB
  8
AM_0
 10
152.10766826995271
 20
458.24936448298121
 30
0.0
 11
152.10766826995271
 21
573.10941448298115
 31
0.0
  0
LINE
  5
52BC
  8
AM_0
 10
292.44763826995239
 20
479.67942448298089
 30
0.0
 11
248.1076682699526
 21
479.67942448298089
 31
0.0
  0
LINE
  5
52BD
  8
AM_0
 10
162.1076682699524
 20
564.02939448298093
 30
0.0
 11
162.1076682699524
 21
549.98947448298065
 31
0.0
  0
LINE
  5
52BE
  8
AM_0
 10
152.10766826995271
 20
549.98947448298065
 30
0.0
 11
162.1076682699524
 21
549.98947448298065
 31
0.0
  0
LINE
  5
52BF
  8
AM_0
 10
152.10766826995271
 20
558.36936448298115
 30
0.0
 11
162.1076682699524
 21
558.36936448298115
 31
0.0
  0
LINE
  5
52C0
  8
AM_0
 10
152.10766826995271
 20
564.02939448298093
 30
0.0
 11
162.1076682699524
 21
564.02939448298093
 31
0.0
  0
LINE
  5
52C1
  8
AM_0
 10
227.5497482699524
 20
501.67942448298112
 30
0.0
 11
157.65765826995241
 21
501.67942448298112
 31
0.0
  0
LINE
  5
52C2
  8
AM_0
 10
175.1076682699524
 20
577.53940448298113
 30
0.0
 11
291.9176682699524
 21
577.53940448298113
 31
0.0
  0
LINE
  5
52C3
  8
AM_0
 10
166.06195826995241
 20
568.66941448298121
 30
0.0
 11
171.6076682699524
 21
568.66941448298121
 31
0.0
  0
LINE
  5
52C4
  8
AM_0
 10
163.31695826995241
 20
562.67273448298079
 30
0.0
 11
164.1019382699526
 21
567.01941448298112
 31
0.0
  0
LINE
  5
52C5
  8
AM_0
 10
165.99810826995241
 20
573.94944448298088
 30
0.0
 11
171.6076682699524
 21
573.94944448298088
 31
0.0
  0
LINE
  5
52C6
  8
AM_0
 10
158.2376782699524
 20
577.34946448298126
 30
0.0
 11
171.6076682699524
 21
577.34946448298126
 31
0.0
  0
LINE
  5
52C7
  8
AM_0
 10
158.21765826995261
 20
578.97946448298114
 30
0.0
 11
171.71765826995261
 21
578.97946448298114
 31
0.0
  0
LINE
  5
52C8
  8
AM_0
 10
175.1076682699524
 20
581.59946448298069
 30
0.0
 11
293.19128826995251
 21
581.59946448298069
 31
0.0
  0
LINE
  5
52C9
  8
AM_0
 10
175.1076682699524
 20
580.92942448298106
 30
0.0
 11
293.33532826995253
 21
580.92942448298106
 31
0.0
  0
LINE
  5
52CA
  8
AM_0
 10
175.1076682699524
 20
579.56943448298125
 30
0.0
 11
293.62762826995248
 21
579.56943448298125
 31
0.0
  0
LINE
  5
52CB
  8
AM_0
 10
161.62194826995241
 20
566.71945448298095
 30
0.0
 11
164.0419382699524
 21
566.71945448298095
 31
0.0
  0
LINE
  5
52CC
  8
AM_0
 10
164.0518882699524
 20
572.36945448298115
 30
0.0
 11
163.09185826995261
 21
567.89936448298113
 31
0.0
  0
LINE
  5
52CD
  8
AM_0
 10
153.91766826995229
 20
570.77939448298105
 30
0.0
 11
163.71045826995251
 21
570.77939448298105
 31
0.0
  0
LINE
  5
52CE
  8
AM_0
 10
292.44763826995239
 20
551.67942448298095
 30
0.0
 11
166.65765826995261
 21
551.67942448298095
 31
0.0
  0
LINE
  5
52CF
  8
AM_0
 10
292.44763826995239
 20
549.67942448298106
 30
0.0
 11
278.1076682699524
 21
549.67942448298106
 31
0.0
  0
LINE
  5
52D0
  8
AM_0
 10
292.45477826995261
 20
541.67942448298095
 30
0.0
 11
278.1076682699524
 21
541.67942448298095
 31
0.0
  0
LINE
  5
52D1
  8
AM_0
 10
156.2976782699526
 20
575.80945448298121
 30
0.0
 11
155.3776282699524
 21
571.93940448298122
 31
0.0
  0
LINE
  5
52D2
  8
AM_0
 10
292.44049826995251
 20
539.67942448298118
 30
0.0
 11
166.65765826995261
 21
539.67942448298118
 31
0.0
  0
LINE
  5
52D3
  8
AM_0
 10
153.93768826995239
 20
572.79941448298098
 30
0.0
 11
155.58764826995261
 21
572.79941448298098
 31
0.0
  0
LINE
  5
52D4
  8
AM_0
 10
156.27765826995241
 20
577.46936448298095
 30
0.0
 11
155.38769826995261
 21
573.93946448298095
 31
0.0
  0
LINE
  5
52D5
  8
AM_0
 10
227.5463882699527
 20
531.67942448298118
 30
0.0
 11
157.65765826995241
 21
531.67942448298118
 31
0.0
  0
LINE
  5
52D6
  8
AM_0
 10
173.10766826995251
 20
577.56943448298125
 30
0.0
 11
173.10766826995251
 21
570.1694144829811
 31
0.0
  0
LINE
  5
52D7
  8
AM_0
 10
227.5463882699527
 20
529.67942448298095
 30
0.0
 11
157.65765826995241
 21
529.67942448298095
 31
0.0
  0
LINE
  5
52D8
  8
AM_0
 10
227.5497482699524
 20
521.67942448298095
 30
0.0
 11
157.65765826995241
 21
521.67942448298095
 31
0.0
  0
LINE
  5
52D9
  8
AM_0
 10
227.5497482699524
 20
519.67942448298118
 30
0.0
 11
157.65765826995241
 21
519.67942448298118
 31
0.0
  0
LINE
  5
52DA
  8
AM_0
 10
293.84765826995238
 20
576.05945448298087
 30
0.0
 11
297.30767826995248
 21
563.13938448298097
 31
0.0
  0
LINE
  5
52DB
  8
AM_0
 10
295.56805826995247
 20
576.17942448298095
 30
0.0
 11
299.1076682699524
 21
576.17942448298095
 31
0.0
  0
LINE
  5
52DC
  8
AM_0
 10
298.81762826995248
 20
566.71945448298095
 30
0.0
 11
296.39764826995253
 21
566.71945448298095
 31
0.0
  0
LINE
  5
52DD
  8
AM_0
 10
294.65786826995247
 20
580.41458448298113
 30
0.0
 11
297.34768826995253
 21
567.89936448298113
 31
0.0
  0
LINE
  5
52DE
  8
AM_0
 10
152.10766826995271
 20
481.37937448298078
 30
0.0
 11
162.1076682699524
 21
481.37937448298078
 31
0.0
  0
LINE
  5
52DF
  8
AM_0
 10
157.8082982699525
 20
454.009374482981
 30
0.0
 11
171.85040826995279
 21
454.009374482981
 31
0.0
  0
LINE
  5
52E0
  8
AM_0
 10
152.10766826995271
 20
472.989474482981
 30
0.0
 11
162.1076682699524
 21
472.989474482981
 31
0.0
  0
LINE
  5
52E1
  8
AM_0
 10
153.91766826995229
 20
460.57944448298082
 30
0.0
 11
163.71045826995251
 21
460.57944448298082
 31
0.0
  0
LINE
  5
52E2
  8
AM_0
 10
175.1076682699524
 20
451.78940448298113
 30
0.0
 11
216.43402826995251
 21
451.78940448298113
 31
0.0
  0
LINE
  5
52E3
  8
AM_0
 10
165.56768826995241
 20
489.19944448298082
 30
0.0
 11
260.1076682699524
 21
489.19944448298082
 31
0.0
  0
LINE
  5
52E4
  8
AM_0
 10
260.1076682699524
 20
481.67942448298078
 30
0.0
 11
166.64337826995271
 21
481.67942448298078
 31
0.0
  0
LINE
  5
52E5
  8
AM_0
 10
165.7776582699525
 20
552.4094044829809
 30
0.0
 11
295.92767826995248
 21
552.4094044829809
 31
0.0
  0
LINE
  5
52E6
  8
AM_0
 10
165.7776582699525
 20
549.04941448298075
 30
0.0
 11
260.12762826995248
 21
549.04941448298075
 31
0.0
  0
LINE
  5
52E7
  8
AM_0
 10
165.56768826995241
 20
542.16941448298087
 30
0.0
 11
260.1076682699524
 21
542.16941448298087
 31
0.0
  0
LINE
  5
52E8
  8
AM_0
 10
165.56768826995241
 20
539.24936448298092
 30
0.0
 11
296.14190826995252
 21
539.24936448298092
 31
0.0
  0
LINE
  5
52E9
  8
AM_0
 10
156.4376882699527
 20
532.02939448298116
 30
0.0
 11
228.7789382699525
 21
532.02939448298116
 31
0.0
  0
LINE
  5
52EA
  8
AM_0
 10
156.4376882699527
 20
529.35947448298089
 30
0.0
 11
228.76635826995241
 21
529.35947448298089
 31
0.0
  0
LINE
  5
52EB
  8
AM_0
 10
156.3776882699523
 20
521.95945448298085
 30
0.0
 11
228.84277826995239
 21
521.95945448298085
 31
0.0
  0
LINE
  5
52EC
  8
AM_0
 10
156.3776882699523
 20
519.41941448298121
 30
0.0
 11
228.84277826995239
 21
519.41941448298121
 31
0.0
  0
LINE
  5
52ED
  8
AM_0
 10
156.3776882699523
 20
511.94944448298082
 30
0.0
 11
228.84277826995239
 21
511.94944448298082
 31
0.0
  0
LINE
  5
52EE
  8
AM_0
 10
227.5497482699524
 20
509.67942448298112
 30
0.0
 11
157.65765826995241
 21
509.67942448298112
 31
0.0
  0
LINE
  5
52EF
  8
AM_0
 10
227.5497482699524
 20
511.67942448298112
 30
0.0
 11
157.65765826995241
 21
511.67942448298112
 31
0.0
  0
LINE
  5
52F0
  8
AM_0
 10
156.4376882699527
 20
501.99936448298121
 30
0.0
 11
228.7789382699525
 21
501.99936448298121
 31
0.0
  0
LINE
  5
52F1
  8
AM_0
 10
227.5497482699524
 20
499.67942448298112
 30
0.0
 11
157.65765826995241
 21
499.67942448298112
 31
0.0
  0
LINE
  5
52F2
  8
AM_0
 10
156.4376882699527
 20
499.33945448298101
 30
0.0
 11
228.7789382699525
 21
499.33945448298101
 31
0.0
  0
LINE
  5
52F3
  8
AM_0
 10
292.44049826995251
 20
491.67942448298089
 30
0.0
 11
166.64337826995271
 21
491.67942448298089
 31
0.0
  0
LINE
  5
52F4
  8
AM_0
 10
165.56768826995241
 20
492.1193644829811
 30
0.0
 11
296.14190826995252
 21
492.1193644829811
 31
0.0
  0
LINE
  5
52F5
  8
AM_0
 10
292.44049826995251
 20
489.67942448298112
 30
0.0
 11
278.1076682699524
 21
489.67942448298112
 31
0.0
  0
LINE
  5
52F6
  8
AM_0
 10
292.44763826995239
 20
481.67942448298078
 30
0.0
 11
278.1076682699524
 21
481.67942448298078
 31
0.0
  0
LINE
  5
52F7
  8
AM_0
 10
156.3776882699523
 20
509.4094044829809
 30
0.0
 11
228.84277826995239
 21
509.4094044829809
 31
0.0
  0
LINE
  5
52F8
  8
AM_0
 10
163.3168982699525
 20
468.68604448298112
 30
0.0
 11
164.1019382699526
 21
464.33936448298113
 31
0.0
  0
LINE
  5
52F9
  8
AM_0
 10
161.62194826995241
 20
464.63938448298092
 30
0.0
 11
164.0419382699524
 21
464.63938448298092
 31
0.0
  0
LINE
  5
52FA
  8
AM_0
 10
164.0519482699525
 20
458.98941448298092
 30
0.0
 11
163.09192826995229
 21
463.45938448298119
 31
0.0
  0
LINE
  5
52FB
  8
AM_0
 10
279.6212782699526
 20
445.67942448298112
 30
0.0
 11
291.12384826995248
 21
445.67942448298112
 31
0.0
  0
LINE
  5
52FC
  8
AM_0
 10
298.10769826995261
 20
455.17939448298091
 30
0.0
 11
292.38189826995273
 21
446.36243448298092
 31
0.0
  0
LINE
  5
52FD
  8
AM_0
 10
261.6076682699524
 20
488.17942448298089
 30
0.0
 11
261.6076682699524
 21
483.17942448298112
 31
0.0
  0
LINE
  5
52FE
  8
AM_0
 10
276.6076682699524
 20
488.17942448298089
 30
0.0
 11
276.6076682699524
 21
483.17942448298112
 31
0.0
  0
LINE
  5
52FF
  8
AM_0
 10
260.1076682699524
 20
489.67942448298112
 30
0.0
 11
166.64337826995271
 21
489.67942448298112
 31
0.0
  0
LINE
  5
5300
  8
AM_0
 10
261.1276282699526
 20
488.17942448298089
 30
0.0
 11
261.1276282699526
 21
483.31943448298119
 31
0.0
  0
LINE
  5
5301
  8
AM_0
 10
277.08764826995252
 20
488.17942448298089
 30
0.0
 11
277.08764826995252
 21
483.31943448298119
 31
0.0
  0
LINE
  5
5302
  8
AM_0
 10
278.1076682699524
 20
489.19944448298082
 30
0.0
 11
296.14190826995252
 21
489.19944448298082
 31
0.0
  0
LINE
  5
5303
  8
AM_0
 10
278.08764826995252
 20
482.31943448298102
 30
0.0
 11
295.92767826995248
 21
482.31943448298102
 31
0.0
  0
LINE
  5
5304
  8
AM_0
 10
277.08764826995252
 20
543.17942448298095
 30
0.0
 11
277.08764826995252
 21
548.03940448298113
 31
0.0
  0
LINE
  5
5305
  8
AM_0
 10
261.1276282699526
 20
543.17942448298095
 30
0.0
 11
261.1276282699526
 21
548.03940448298113
 31
0.0
  0
LINE
  5
5306
  8
AM_0
 10
276.6076682699524
 20
543.17942448298095
 30
0.0
 11
276.6076682699524
 21
548.17942448298118
 31
0.0
  0
LINE
  5
5307
  8
AM_0
 10
261.6076682699524
 20
543.17942448298095
 30
0.0
 11
261.6076682699524
 21
548.17942448298118
 31
0.0
  0
LINE
  5
5308
  8
AM_0
 10
260.1076682699524
 20
549.67942448298106
 30
0.0
 11
166.65765826995261
 21
549.67942448298106
 31
0.0
  0
LINE
  5
5309
  8
AM_0
 10
278.08764826995252
 20
549.04941448298075
 30
0.0
 11
295.92767826995248
 21
549.04941448298075
 31
0.0
  0
LINE
  5
530A
  8
AM_0
 10
278.1076682699524
 20
542.16941448298087
 30
0.0
 11
296.15338826995247
 21
542.16941448298087
 31
0.0
  0
LINE
  5
530B
  8
AM_0
 10
260.1076682699524
 20
541.67942448298095
 30
0.0
 11
166.65765826995261
 21
541.67942448298095
 31
0.0
  0
LINE
  5
530C
  8
AM_0
 10
233.1076682699524
 20
536.17942448298118
 30
0.0
 11
233.1076682699524
 21
495.17942448298112
 31
0.0
  0
LINE
  5
530D
  8
AM_0
 10
296.1076682699524
 20
536.17942448298118
 30
0.0
 11
296.1076682699524
 21
495.17942448298112
 31
0.0
  0
LINE
  5
530E
  8
AM_0
 10
233.1076682699524
 20
536.17942448298118
 30
0.0
 11
296.1076682699524
 21
536.17942448298118
 31
0.0
  0
LINE
  5
530F
  8
AM_0
 10
233.1076682699524
 20
495.17942448298112
 30
0.0
 11
296.1076682699524
 21
495.17942448298112
 31
0.0
  0
LINE
  5
5310
  8
AM_0
 10
233.1076682699524
 20
528.67942448298106
 30
0.0
 11
296.1076682699524
 21
528.67942448298106
 31
0.0
  0
LINE
  5
5311
  8
AM_0
 10
193.10766826995271
 20
562.02933448298108
 30
0.0
 11
162.1076682699524
 21
559.99933448298111
 31
0.0
  0
LINE
  5
5312
  8
AM_0
 10
193.10766826995271
 20
469.32938448298091
 30
0.0
 11
162.1076682699524
 21
471.359384482981
 31
0.0
  0
ARC
  5
5348
  8
AM_0
 10
165.24847826995239
 20
474.46909448298089
 30
0.0
 40
1.0032491999999991
 50
314.981189999994
 51
5.1676434000010021
  0
ARC
  5
5349
  8
AM_0
 10
300.10748826995251
 20
578.17966448298091
 30
0.0
 40
0.99980682
 50
89.988930999997422
 51
180.0110699999974
  0
ARC
  5
534A
  8
AM_0
 10
291.9089382699525
 20
455.82566448298098
 30
0.0
 40
2.0062942999999991
 50
270.24932999999891
 51
345.08844000000403
  0
ARC
  5
534B
  8
AM_0
 10
300.10675826995248
 20
566.72031448298105
 30
0.0
 40
0.9990923399999999
 50
89.947921999999295
 51
180.05208000000431
  0
ARC
  5
534C
  8
AM_0
 10
174.1004682699523
 20
520.67942448298106
 30
0.0
 40
1.0000259
 50
89.587534000000204
 51
270.4124599999987
  0
ARC
  5
534D
  8
AM_0
 10
166.06714826995241
 20
566.67417448298102
 30
0.0
 40
1.9952742999999991
 50
90.148580000000095
 51
170.03521999999899
  0
ARC
  5
534E
  8
AM_0
 10
166.00500826995241
 20
571.95236448298101
 30
0.0
 40
1.997119399999999
 50
89.801366999998493
 51
167.94475999999821
  0
ARC
  5
534F
  8
AM_0
 10
161.6245182699524
 20
568.22177448298112
 30
0.0
 40
1.502416299999999
 50
269.90137999999558
 51
347.60813000000093
  0
ARC
  5
5350
  8
AM_0
 10
158.2379182699525
 20
575.35715448298095
 30
0.0
 40
1.9922863
 50
90.007721000000544
 51
166.8783899999971
  0
ARC
  5
5351
  8
AM_0
 10
153.91290826995279
 20
572.28427448298112
 30
0.0
 40
1.5048382
 50
270.18264000000067
 51
346.75308000000138
  0
ARC
  5
5352
  8
AM_0
 10
153.9272482699526
 20
574.30478448298129
 30
0.0
 40
1.505448699999999
 50
270.39686999999992
 51
345.95247000000012
  0
ARC
  5
5353
  8
AM_0
 10
158.2125282699526
 20
576.98484448298086
 30
0.0
 40
1.994612099999999
 50
89.851991999995732
 51
165.93885999999711
  0
ARC
  5
5354
  8
AM_0
 10
175.1009582699524
 20
575.54611448298078
 30
0.0
 40
1.9933081999999991
 50
89.807323000004203
 51
180.19266999999849
  0
ARC
  5
5355
  8
AM_0
 10
175.10180826995239
 20
577.57529448298101
 30
0.0
 40
1.9941304999999949
 50
89.831105999995955
 51
180.16889000000049
  0
ARC
  5
5356
  8
AM_0
 10
175.1041882699524
 20
578.93296448298111
 30
0.0
 40
1.996488899999999
 50
89.899148000001659
 51
180.10084999999879
  0
ARC
  5
5357
  8
AM_0
 10
175.1014482699527
 20
579.60288448298115
 30
0.0
 40
1.9964978999999961
 50
89.821482000000245
 51
165.6006099999997
  0
ARC
  5
5358
  8
AM_0
 10
171.60394826995261
 20
570.17319448298065
 30
0.0
 40
1.5037541000000001
 50
270.14287000000093
 51
359.85713999999848
  0
ARC
  5
5359
  8
AM_0
 10
171.6027882699525
 20
575.45432448298095
 30
0.0
 40
1.5048912999999959
 50
270.18592999999731
 51
359.81406999999621
  0
ARC
  5
535A
  8
AM_0
 10
171.6007782699524
 20
578.85630448298105
 30
0.0
 40
1.506942899999999
 50
270.26336999999921
 51
359.73663000000079
  0
ARC
  5
535B
  8
AM_0
 10
171.7125882699527
 20
580.48459448298104
 30
0.0
 40
1.505230099999999
 50
270.19421
 51
345.17177999999871
  0
ARC
  5
535C
  8
AM_0
 10
298.75781826995239
 20
563.53171448298099
 30
0.0
 40
1.5022733999999991
 50
195.1365099999966
 51
269.99411999999722
  0
ARC
  5
535D
  8
AM_0
 10
291.91711826995248
 20
575.54026448298123
 30
0.0
 40
1.9991226
 50
15.05079100000003
 51
89.984388999999666
  0
ARC
  5
535E
  8
AM_0
 10
300.1006482699525
 20
453.17246448298118
 30
0.0
 40
0.99304521
 50
179.5973099999994
 51
270.40268000000009
  0
ARC
  5
535F
  8
AM_0
 10
300.09997826995237
 20
464.63181448298121
 30
0.0
 40
0.99237448
 50
179.55801999999801
 51
270.4419699999965
  0
ARC
  5
5360
  8
AM_0
 10
298.81335826995252
 20
568.21970448298111
 30
0.0
 40
1.500286
 50
192.32631000000171
 51
270.16416999999529
  0
ARC
  5
5361
  8
AM_0
 10
161.26324826995241
 20
557.2736544829811
 30
0.0
 40
5.0059714
 50
279.71098000000438
 51
354.67888000000482
  0
ARC
  5
5362
  8
AM_0
 10
161.72863826995231
 20
553.34690448298124
 30
0.0
 40
6.0044340999999992
 50
45.225578000003388
 51
86.380822000002453
  0
ARC
  5
5363
  8
AM_0
 10
165.24963826995241
 20
556.9001244829808
 30
0.0
 40
1.002184699999999
 50
354.8038600000034
 51
45.047307000000579
  0
ARC
  5
5364
  8
AM_0
 10
161.72735826995239
 20
478.02475448298082
 30
0.0
 40
6.0073843
 50
273.62974000000389
 51
314.7638500000042
  0
ARC
  5
5365
  8
AM_0
 10
161.27050826995239
 20
474.09091448298079
 30
0.0
 40
4.9991421999999961
 50
5.3780268999992682
 51
80.360064999998514
  0
ARC
  5
5366
  8
AM_0
 10
158.24450826995269
 20
456.00998448298083
 30
0.0
 40
2.0005671999999981
 50
193.30959000000229
 51
269.80430999999942
  0
ARC
  5
5367
  8
AM_0
 10
153.92090826995209
 20
459.08176448298121
 30
0.0
 40
1.497715799999999
 50
13.424378999996071
 51
90.122644999997888
  0
ARC
  5
5368
  8
AM_0
 10
153.93536826995251
 20
457.061134482981
 30
0.0
 40
1.4982997
 50
14.229739999998021
 51
89.910950000001179
  0
ARC
  5
5369
  8
AM_0
 10
175.10772826995239
 20
455.81943448298119
 30
0.0
 40
2.0000371999999991
 50
180.0010599999959
 51
269.99892999999639
  0
ARC
  5
536A
  8
AM_0
 10
175.10858826995221
 20
453.7903844829811
 30
0.0
 40
2.0009109999999981
 50
180.00001000000091
 51
269.97390999999652
  0
ARC
  5
536B
  8
AM_0
 10
171.6057182699524
 20
461.19748448298083
 30
0.0
 40
1.501982699999999
 50
0.0755872020005832
 51
89.924413000004819
  0
ARC
  5
536C
  8
AM_0
 10
171.60455826995269
 20
455.91623448298071
 30
0.0
 40
1.503128599999999
 50
0.1191296500022061
 51
89.880869999998822
  0
ARC
  5
536D
  8
AM_0
 10
298.75128826995251
 20
467.83567448298089
 30
0.0
 40
1.4937901
 50
89.756423999995206
 51
165.1129200000008
  0
ARC
  5
536E
  8
AM_0
 10
174.1004682699523
 20
530.67942448298095
 30
0.0
 40
1.0000259
 50
89.587534000000204
 51
270.4124599999987
  0
ARC
  5
536F
  8
AM_0
 10
174.1004682699523
 20
540.67942448298118
 30
0.0
 40
1.0000259
 50
89.587534000000204
 51
270.4124599999987
  0
ARC
  5
5370
  8
AM_0
 10
174.1004682699523
 20
550.67942448298095
 30
0.0
 40
1.0000259
 50
89.587534000000204
 51
270.4124599999987
  0
ARC
  5
5371
  8
AM_0
 10
156.3694482699525
 20
520.68943448298114
 30
0.0
 40
1.2700266
 50
89.629328000002715
 51
270.37065999999629
  0
ARC
  5
5372
  8
AM_0
 10
156.43139826995261
 20
530.69443448298125
 30
0.0
 40
1.3350147999999991
 50
89.730434999997087
 51
270.2695700000001
  0
ARC
  5
5373
  8
AM_0
 10
165.56195826995241
 20
540.70945448298085
 30
0.0
 40
1.460011199999999
 50
89.775247999997958
 51
270.22473999999698
  0
ARC
  5
5374
  8
AM_0
 10
165.7776582699525
 20
550.72946448298092
 30
0.0
 40
1.6800002000000001
 50
90.00000299999769
 51
270.0
  0
ARC
  5
5375
  8
AM_0
 10
157.65765826995241
 20
520.67942448298106
 30
0.0
 40
1.0000056999999991
 50
90.00000299999769
 51
270.0
  0
ARC
  5
5376
  8
AM_0
 10
157.65765826995241
 20
530.67942448298095
 30
0.0
 40
1.0000056999999991
 50
90.00000299999769
 51
270.0
  0
ARC
  5
5377
  8
AM_0
 10
166.65051826995219
 20
550.67942448298095
 30
0.0
 40
1.0000255999999981
 50
89.589474000000749
 51
270.41051999999962
  0
ARC
  5
5378
  8
AM_0
 10
166.65051826995219
 20
540.67942448298118
 30
0.0
 40
1.0000255999999981
 50
89.589474000000749
 51
270.41051999999962
  0
ARC
  5
5379
  8
AM_0
 10
295.92767826995248
 20
550.72946448298092
 30
0.0
 40
1.6800077
 50
269.999989999999
 51
90.00000299999769
  0
ARC
  5
537A
  8
AM_0
 10
292.44763826995239
 20
550.67942448298095
 30
0.0
 40
1.0000040999999991
 50
269.999989999999
 51
90.00000299999769
  0
ARC
  5
537B
  8
AM_0
 10
292.44763826995239
 20
480.67942448298072
 30
0.0
 40
1.0000040999999991
 50
269.999989999999
 51
90.00000299999769
  0
ARC
  5
537C
  8
AM_0
 10
295.92767826995248
 20
480.63938448298092
 30
0.0
 40
1.6800077
 50
269.999989999999
 51
90.00000299999769
  0
ARC
  5
537D
  8
AM_0
 10
157.65765826995241
 20
510.67942448298112
 30
0.0
 40
1.0000056999999991
 50
90.00000299999769
 51
270.0
  0
ARC
  5
537E
  8
AM_0
 10
174.1004682699523
 20
500.67942448298112
 30
0.0
 40
1.0000259
 50
89.587534000000204
 51
270.4124599999987
  0
ARC
  5
537F
  8
AM_0
 10
174.1004682699523
 20
490.67942448298089
 30
0.0
 40
1.0000259
 50
89.587534000000204
 51
270.4124599999987
  0
ARC
  5
5380
  8
AM_0
 10
156.43139826995261
 20
500.66941448298093
 30
0.0
 40
1.3300148000000001
 50
89.729417999999541
 51
270.27059000000321
  0
ARC
  5
5381
  8
AM_0
 10
174.1004682699523
 20
510.67942448298112
 30
0.0
 40
1.0000259
 50
89.587534000000204
 51
270.4124599999987
  0
ARC
  5
5382
  8
AM_0
 10
174.1004682699523
 20
480.67942448298072
 30
0.0
 40
1.0000259
 50
89.587534000000204
 51
270.4124599999987
  0
ARC
  5
5383
  8
AM_0
 10
156.3694482699525
 20
510.67942448298112
 30
0.0
 40
1.2700266
 50
89.629321000002733
 51
270.37068999999542
  0
ARC
  5
5384
  8
AM_0
 10
157.65765826995241
 20
500.67942448298112
 30
0.0
 40
1.0000056999999991
 50
90.00000299999769
 51
270.0
  0
ARC
  5
5385
  8
AM_0
 10
161.8408282699524
 20
562.93943448298114
 30
0.0
 40
1.5
 50
280.24788999999811
 51
349.76261999999917
  0
ARC
  5
5386
  8
AM_0
 10
161.8408282699524
 20
468.4194144829811
 30
0.0
 40
1.5
 50
10.237378999998541
 51
79.75211000000192
  0
ARC
  5
5387
  8
AM_0
 10
166.06714826995241
 20
464.68466448298102
 30
0.0
 40
1.9952742999999991
 50
189.9647800000009
 51
269.85141999999991
  0
ARC
  5
5388
  8
AM_0
 10
161.6245182699524
 20
463.1370644829812
 30
0.0
 40
1.502416299999999
 50
12.391887000000411
 51
90.098617000002292
  0
ARC
  5
5389
  8
AM_0
 10
166.00500826995241
 20
459.4064744829808
 30
0.0
 40
1.997119399999999
 50
192.0552400000017
 51
270.1986299999989
  0
ARC
  5
538A
  8
AM_0
 10
165.7776582699525
 20
480.62937448298078
 30
0.0
 40
1.6800002000000001
 50
90.00000299999769
 51
270.0
  0
ARC
  5
538B
  8
AM_0
 10
166.65051826995219
 20
480.67942448298072
 30
0.0
 40
1.0000255999999981
 50
89.589474000000749
 51
270.41051999999962
  0
ARC
  5
538C
  8
AM_0
 10
166.65051826995219
 20
490.67942448298089
 30
0.0
 40
1.0000255999999981
 50
89.589474000000749
 51
270.41051999999962
  0
ARC
  5
538D
  8
AM_0
 10
165.56195826995241
 20
490.64939448298088
 30
0.0
 40
1.460011199999999
 50
89.775247999997958
 51
270.22473999999698
  0
ARC
  5
538E
  8
AM_0
 10
216.43402826995251
 20
450.28940448298079
 30
0.0
 40
1.5
 50
1.5000027000022329
 51
90.00000299999769
  0
ARC
  5
538F
  8
AM_0
 10
291.12384826995248
 20
447.17942448298078
 30
0.0
 40
1.5
 50
269.999989999999
 51
326.99999999999892
  0
ARC
  5
5390
  8
AM_0
 10
279.6212782699526
 20
444.17942448298061
 30
0.0
 40
1.5
 50
90.00000299999769
 51
178.4999999999973
  0
ARC
  5
5391
  8
AM_0
 10
293.62762826995248
 20
578.06943448298125
 30
0.0
 40
1.5
 50
12.12979199999535
 51
90.00000299999769
  0
ARC
  5
5392
  8
AM_0
 10
293.33532826995253
 20
579.42942448298129
 30
0.0
 40
1.5
 50
12.12979199999535
 51
90.00000299999769
  0
ARC
  5
5393
  8
AM_0
 10
293.19128826995251
 20
580.09946448298115
 30
0.0
 40
1.5
 50
12.12979199999535
 51
90.00000299999769
  0
ARC
  5
5394
  8
AM_0
 10
296.14764826995253
 20
490.64939448298088
 30
0.0
 40
1.460011199999999
 50
269.77524999999667
 51
90.224749999996845
  0
ARC
  5
5395
  8
AM_0
 10
292.44763826995239
 20
490.67942448298089
 30
0.0
 40
1.0000255999999981
 50
269.5894700000033
 51
90.410530999997775
  0
ARC
  5
5396
  8
AM_0
 10
296.14764826995253
 20
540.70945448298085
 30
0.0
 40
1.460011199999999
 50
269.77524999999667
 51
90.224749999996845
  0
ARC
  5
5397
  8
AM_0
 10
292.44763826995239
 20
540.67942448298118
 30
0.0
 40
1.0000255999999981
 50
269.5894700000033
 51
90.410530999997775
  0
ARC
  5
5398
  8
AM_0
 10
228.7726482699525
 20
530.69443448298125
 30
0.0
 40
1.3350147999999991
 50
269.7304299999999
 51
90.269556000001316
  0
ARC
  5
5399
  8
AM_0
 10
227.5463882699527
 20
530.67942448298095
 30
0.0
 40
1.0000056999999991
 50
269.999989999999
 51
90.00000299999769
  0
ARC
  5
539A
  8
AM_0
 10
227.5463882699527
 20
520.67942448298106
 30
0.0
 40
1.0000056999999991
 50
269.999989999999
 51
90.00000299999769
  0
ARC
  5
539B
  8
AM_0
 10
228.83459826995241
 20
520.68943448298114
 30
0.0
 40
1.2700266
 50
269.62932000000001
 51
90.370670000004694
  0
ARC
  5
539C
  8
AM_0
 10
227.5463882699527
 20
510.67942448298112
 30
0.0
 40
1.0000056999999991
 50
269.999989999999
 51
90.00000299999769
  0
ARC
  5
539D
  8
AM_0
 10
228.83459826995241
 20
510.67942448298112
 30
0.0
 40
1.2700266
 50
269.62932000000001
 51
90.370670000004694
  0
ARC
  5
539E
  8
AM_0
 10
227.5463882699527
 20
500.67942448298112
 30
0.0
 40
1.0000056999999991
 50
269.999989999999
 51
90.00000299999769
  0
ARC
  5
539F
  8
AM_0
 10
228.7726482699525
 20
500.66941448298093
 30
0.0
 40
1.3300148000000001
 50
269.7294199999987
 51
90.270567000000995
  0
ARC
  5
53A0
  8
AM_0
 10
278.1076682699524
 20
488.17942448298089
 30
0.0
 40
1.5
 50
90.00000299999769
 51
180.00001000000091
  0
ARC
  5
53A1
  8
AM_0
 10
278.1076682699524
 20
483.17942448298112
 30
0.0
 40
1.5
 50
179.999989999999
 51
270.0
  0
ARC
  5
53A2
  8
AM_0
 10
260.1076682699524
 20
488.17942448298089
 30
0.0
 40
1.5
 50
0.0
 51
90.00000299999769
  0
ARC
  5
53A3
  8
AM_0
 10
260.1076682699524
 20
483.17942448298112
 30
0.0
 40
1.5
 50
269.999989999999
 51
0.0000006832495047
  0
ARC
  5
53A4
  8
AM_0
 10
278.1076682699524
 20
488.17942448298089
 30
0.0
 40
1.02
 50
90.00000299999769
 51
180.00001000000091
  0
ARC
  5
53A5
  8
AM_0
 10
260.1076682699524
 20
488.17942448298089
 30
0.0
 40
1.02
 50
0.0
 51
90.00000299999769
  0
ARC
  5
53A6
  8
AM_0
 10
260.12762826995248
 20
483.31943448298119
 30
0.0
 40
1.0
 50
269.999989999999
 51
0.0000006832495047
  0
ARC
  5
53A7
  8
AM_0
 10
278.08764826995252
 20
483.31943448298119
 30
0.0
 40
1.0
 50
179.999989999999
 51
270.0
  0
CIRCLE
  5
53A8
  8
AM_0
 10
266.6076682699524
 20
487.17942448298112
 30
0.0
 40
1.1000000000000001
  0
CIRCLE
  5
53A9
  8
AM_0
 10
266.6076682699524
 20
487.17942448298112
 30
0.0
 40
1.149999999999999
  0
CIRCLE
  5
53AA
  8
AM_0
 10
271.6076682699524
 20
487.17942448298112
 30
0.0
 40
1.0
  0
ARC
  5
53AB
  8
AM_0
 10
278.1076682699524
 20
543.17942448298095
 30
0.0
 40
1.5
 50
179.999989999999
 51
270.0
  0
ARC
  5
53AC
  8
AM_0
 10
278.1076682699524
 20
548.17942448298118
 30
0.0
 40
1.5
 50
90.00000299999769
 51
180.00001000000091
  0
ARC
  5
53AD
  8
AM_0
 10
260.1076682699524
 20
543.17942448298095
 30
0.0
 40
1.5
 50
269.999989999999
 51
0.0000006832495047
  0
ARC
  5
53AE
  8
AM_0
 10
260.1076682699524
 20
548.17942448298118
 30
0.0
 40
1.5
 50
0.0
 51
90.00000299999769
  0
ARC
  5
53AF
  8
AM_0
 10
278.1076682699524
 20
543.17942448298095
 30
0.0
 40
1.02
 50
179.999989999999
 51
270.0
  0
ARC
  5
53B0
  8
AM_0
 10
260.1076682699524
 20
543.17942448298095
 30
0.0
 40
1.02
 50
269.999989999999
 51
0.0000006832429909
  0
ARC
  5
53B1
  8
AM_0
 10
260.12762826995248
 20
548.03940448298113
 30
0.0
 40
1.0
 50
0.0
 51
90.00000299999769
  0
ARC
  5
53B2
  8
AM_0
 10
278.08764826995252
 20
548.03940448298113
 30
0.0
 40
1.0
 50
90.00000299999769
 51
180.00001000000091
  0
CIRCLE
  5
53B3
  8
AM_0
 10
271.6076682699524
 20
544.17942448298118
 30
0.0
 40
1.0
  0
CIRCLE
  5
53B4
  8
AM_0
 10
266.6076682699524
 20
544.17942448298118
 30
0.0
 40
1.149999999999999
  0
CIRCLE
  5
53B5
  8
AM_0
 10
266.6076682699524
 20
544.17942448298118
 30
0.0
 40
1.1000000000000001
  0
ARC
  5
53B6
  8
AM_0
 10
157.8082982699525
 20
456.009374482981
 30
0.0
 40
2.0
 50
194.15074999999919
 51
269.999989999999
  0
ARC
  5
53B7
  8
AM_0
 10
171.85040826995279
 20
452.509374482981
 30
0.0
 40
1.5
 50
21.46170899999715
 51
90.00000299999769
  0
LINE
  5
53CC
  8
AM_0
 10
278.1338181189933
 20
441.67942448298089
 30
0.0
 11
278.45174407268752
 21
453.81943448298091
 31
0.0
  0
LINE
  5
53CD
  8
AM_0
 10
218.08138612375259
 20
441.67942448298089
 30
0.0
 11
217.7635441423221
 21
453.81943448298091
 31
0.0
  0
LINE
  5
53CE
  8
AM_0
 10
214.6076282699527
 20
439.67942448298112
 30
0.0
 11
281.60762826995278
 21
439.67942448298112
 31
0.0
  0
LINE
  5
53CF
  8
AM_0
 10
214.6076282699527
 20
438.67942448298112
 30
0.0
 11
214.6076282699527
 21
439.67942448298112
 31
0.0
  0
LINE
  5
53D0
  8
AM_0
 10
281.60762826995278
 20
438.67942448298112
 30
0.0
 11
281.60762826995278
 21
439.67942448298112
 31
0.0
  0
LINE
  5
53D1
  8
AM_0
 10
200.1076282699527
 20
400.67942448298089
 30
0.0
 11
201.367213406215
 21
436.74922347638602
 31
0.0
  0
LINE
  5
53D2
  8
AM_0
 10
203.36599506025331
 20
438.67942448298112
 30
0.0
 11
292.84926147965223
 21
438.67942448298112
 31
0.0
  0
ARC
  5
53D3
  8
AM_0
 10
203.36599506025331
 20
436.67942448298112
 30
0.0
 40
2.0
 50
90.0
 51
178.0000000000029
1001
GENIUS_GENODEF_13
1002
{
1000
HIER
1070
     0
1002
}
1002
{
1000
MANEDIT
1070
     0
1002
}
1002
{
1000
NOSEL
1070
     0
1002
}
1002
{
1000
BEHIND
1070
     0
1002
}
1002
{
1000
OTHER
1070
     0
1002
}
1002
{
1000
REACTOR
1002
}
1001
GENIUS_GENOBJ-N-FIL_13
1002
{
1000
OWNER
1000
GEN
1002
}
  0
LINE
  5
53D4
  8
AM_0
 10
294.84804313369062
 20
436.74922347638602
 30
0.0
 11
296.1076282699529
 21
400.67942448298089
 31
0.0
  0
ARC
  5
53D5
  8
AM_0
 10
292.84926147965223
 20
436.67942448298112
 30
0.0
 40
2.0
 50
1.9999999999971021
 51
90.0
1001
GENIUS_GENOBJ-N-FIL_13
1002
{
1000
OWNER
1000
GEN
1002
}
1001
GENIUS_GENODEF_13
1002
{
1000
HIER
1070
     0
1002
}
1002
{
1000
MANEDIT
1070
     0
1002
}
1002
{
1000
NOSEL
1070
     0
1002
}
1002
{
1000
BEHIND
1070
     0
1002
}
1002
{
1000
OTHER
1070
     0
1002
}
1002
{
1000
REACTOR
1002
}
  0
LINE
  5
53D6
  8
AM_0
 10
296.1076282699529
 20
400.67942448298089
 30
0.0
 11
200.10762826995239
 21
400.67942448298089
 31
0.0
  0
LINE
  5
53D7
  8
AM_0
 10
200.212390578428
 20
403.67942448298089
 30
0.0
 11
199.1076282699527
 21
403.67942448298089
 31
0.0
  0
LINE
  5
53D8
  8
AM_0
 10
201.32985520216391
 20
435.67942448298061
 30
0.0
 11
199.1076282699527
 21
435.67942448298061
 31
0.0
  0
LINE
  5
53D9
  8
ﾁｭｳｼﾝｾﾝ1
 10
205.10762826995341
 20
390.41471698298119
 30
0.0
 11
205.10762826995349
 21
403.41471698298091
 31
0.0
  0
LINE
  5
53DA
  8
ﾁｭｳｼﾝｾﾝ
 10
248.10762826995281
 20
445.97145515620991
 30
0.0
 11
248.10762826995281
 21
388.22890184217169
 31
0.0
  0
LINE
  5
53DB
  8
AM_0
 10
196.6076282699527
 20
406.17942448298061
 30
0.0
 11
199.1076282699527
 21
406.17942448298061
 31
0.0
  0
LINE
  5
53DC
  8
AM_0
 10
199.1076282699527
 20
433.17942448298061
 30
0.0
 11
196.6076282699527
 21
433.17942448298089
 31
0.0
  0
LINE
  5
53DD
  8
AM_0
 10
185.70895717360679
 20
430.17942448298078
 30
0.0
 11
185.70895717360679
 21
409.17942448298089
 31
0.0
  0
LINE
  5
53DE
  8
AM_0
 10
170.70895717360679
 20
411.6477994289657
 30
0.0
 11
170.70895717360679
 21
427.71104953699671
 31
0.0
  0
LINE
  5
53DF
  8
AM_0
 10
183.70895717360679
 20
431.67942448298061
 30
0.0
 11
183.70895717360679
 21
407.67942448298089
 31
0.0
  0
LINE
  5
53E0
  8
AM_0
 10
174.20895717360679
 20
419.67942448298072
 30
0.0
 11
174.70895717360679
 21
420.17942448298089
 31
0.0
  0
LINE
  5
53E1
  8
AM_0
 10
181.20895717360679
 20
407.97942448298068
 30
0.0
 11
181.20895717360679
 21
431.3794244829806
 31
0.0
  0
LINE
  5
53E2
  8
AM_0
 10
191.1076282699525
 20
408.17942448298089
 30
0.0
 11
191.1076282699525
 21
431.17942448298061
 31
0.0
  0
LINE
  5
53E3
  8
AM_0
 10
185.20895717360679
 20
420.37942448298247
 30
0.0
 11
185.20895717360679
 21
418.9794244829796
 31
0.0
  0
LINE
  5
53E4
  8
AM_0
 10
187.30859290017759
 20
428.77942448298069
 30
0.0
 11
186.55859290017861
 21
410.57942448298053
 31
0.0
  0
LINE
  5
53E5
  8
AM_0
 10
186.3576282699527
 20
428.77942448298069
 30
0.0
 11
185.70895717360679
 21
413.03833921166461
 31
0.0
  0
LINE
  5
53E6
  8
AM_0
 10
187.1063208605247
 20
429.49508319534488
 30
0.0
 11
186.3590608171167
 21
409.86705272181359
 31
0.0
  0
LINE
  5
53E7
  8
AM_0
 10
186.55716035301461
 20
429.49179624414882
 30
0.0
 11
185.80859290017861
 21
409.82942448298058
 31
0.0
  0
LINE
  5
53E8
  8
AM_0
 10
183.70895717360679
 20
407.67942448298089
 30
0.0
 11
181.50895717360669
 21
407.67942448298089
 31
0.0
  0
ARC
  5
53E9
  8
AM_0
 10
195.60762826995281
 20
407.17942448298072
 30
0.0
 40
0.5
 50
0.0
 51
90.000000000013017
  0
ARC
  5
53EA
  8
AM_0
 10
196.60762826995281
 20
406.67942448298061
 30
0.0
 40
0.5
 50
180.0
 51
270.0
  0
LINE
  5
53EB
  8
AM_0
 10
196.10762826995261
 20
407.17942448298072
 30
0.0
 11
196.10762826995261
 21
406.67942448298061
 31
0.0
  0
LINE
  5
53EC
  8
AM_0
 10
187.10762826995261
 20
410.57942448298053
 30
0.0
 11
190.60762826995261
 21
410.57942448298053
 31
0.0
  0
LINE
  5
53ED
  8
AM_0
 10
196.10762826995261
 20
408.82335316157361
 30
0.0
 11
196.10762826995261
 21
418.53549580438869
 31
0.0
  0
LINE
  5
53EE
  8
AM_0
 10
191.6076282699527
 20
407.67942448298089
 30
0.0
 11
195.6076282699527
 21
407.67942448298089
 31
0.0
  0
LINE
  5
53EF
  8
AM_0
 10
195.6076282699527
 20
408.32335316157372
 30
0.0
 11
191.1076282699525
 21
408.32335316157372
 31
0.0
  0
ARC
  5
53F0
  8
AM_0
 10
195.60762826995281
 20
408.82335316157361
 30
0.0
 40
0.5
 50
270.0
 51
0.0
  0
ARC
  5
53F1
  8
AM_0
 10
190.60762826995261
 20
410.07942448298098
 30
0.0
 40
0.5
 50
0.0
 51
90.0
  0
ARC
  5
53F2
  8
AM_0
 10
191.6076282699527
 20
408.17942448298089
 30
0.0
 40
0.5
 50
180.0
 51
270.0
  0
LINE
  5
53F3
  8
AM_0
 10
195.6076282699527
 20
419.03549580438869
 30
0.0
 11
191.1076282699525
 21
419.03549580438869
 31
0.0
  0
ARC
  5
53F4
  8
AM_0
 10
195.6076282699527
 20
418.5354958043888
 30
0.0
 40
0.5
 50
0.0
 51
90.0
  0
LINE
  5
53F5
  8
AM_0
 10
185.20895717360679
 20
413.5342537306887
 30
0.0
 11
185.20895717360679
 21
414.70649691712163
 31
0.0
  0
LINE
  5
53F6
  8
AM_0
 10
186.6353253286037
 20
410.57942448298053
 30
0.0
 11
187.10762826995261
 21
410.57942448298053
 31
0.0
  0
LINE
  5
53F7
  8
AM_0
 10
186.53873283406449
 20
410.50530671624392
 30
0.0
 11
186.55859290017861
 21
410.57942448298053
 31
0.0
  0
ARC
  5
53F8
  8
AM_0
 10
186.6353253286037
 20
410.47942448298079
 30
0.0
 40
0.1000000000000346
 50
90.0
 51
164.99980499355539
  0
ARC
  5
53F9
  8
AM_0
 10
184.90895717360669
 20
410.39259150247278
 30
0.0
 40
0.3000000000000043
 50
0.0
 51
90.0
  0
LINE
  5
53FA
  8
AM_0
 10
183.70895717360679
 20
408.27942448298069
 30
0.0
 11
184.9289128767638
 21
408.3607548631918
 31
0.0
  0
LINE
  5
53FB
  8
AM_0
 10
183.70895717360679
 20
409.4356765188208
 30
0.0
 11
184.90895717360661
 21
409.4356765188208
 31
0.0
  0
LINE
  5
53FC
  8
AM_0
 10
185.20895717360679
 20
408.67942448298089
 30
0.0
 11
183.70895717360679
 21
408.67942448298089
 31
0.0
  0
ARC
  5
53FD
  8
AM_0
 10
185.20895717360679
 20
409.17942448298089
 30
0.0
 40
0.5
 50
270.0
 51
0.0
  0
LINE
  5
53FE
  8
AM_0
 10
185.20895717360679
 20
408.66009041054878
 30
0.0
 11
185.20895717360679
 21
408.67942448298089
 31
0.0
  0
LINE
  5
53FF
  8
AM_0
 10
185.20895717360679
 20
408.37942448298088
 30
0.0
 11
185.20895717360679
 21
408.66009041054878
 31
0.0
  0
LINE
  5
5400
  8
AM_0
 10
184.9289128767638
 20
408.3607548631918
 30
0.0
 11
185.20895717360679
 21
408.37942448298088
 31
0.0
  0
ARC
  5
5401
  8
AM_0
 10
184.90895717360669
 20
408.66009041054878
 30
0.0
 40
0.3000000000000007
 50
273.8140748342816
 51
0.0
  0
LINE
  5
5402
  8
AM_0
 10
186.28089584152761
 20
409.82942448298058
 30
0.0
 11
186.35762826995361
 21
409.82942448298058
 31
0.0
  0
LINE
  5
5403
  8
AM_0
 10
186.35762826995361
 20
409.82942448298058
 30
0.0
 11
186.3774883360667
 21
409.90354224971719
 31
0.0
  0
LINE
  5
5404
  8
AM_0
 10
185.78873283406449
 20
409.90354224971719
 30
0.0
 11
185.80859290017861
 21
409.82942448298058
 31
0.0
  0
LINE
  5
5405
  8
AM_0
 10
185.80859290017861
 20
409.82942448298058
 30
0.0
 11
185.8853253286037
 21
409.82942448298058
 31
0.0
  0
LINE
  5
5406
  8
AM_0
 10
186.3774883360667
 20
409.90354224971719
 30
0.0
 11
186.53873283406449
 21
410.50530671624392
 31
0.0
  0
LINE
  5
5407
  8
AM_0
 10
185.8853253286037
 20
409.82942448298058
 30
0.0
 11
186.28089584152761
 21
409.82942448298058
 31
0.0
  0
LINE
  5
5408
  8
AM_0
 10
185.7089571736077
 20
410.20126501454149
 30
0.0
 11
185.78873283406449
 21
409.90354224971719
 31
0.0
  0
ARC
  5
5409
  8
AM_0
 10
186.28089584152761
 20
409.92942448298089
 30
0.0
 40
0.0999999999999866
 50
270.0
 51
344.99980499343371
  0
ARC
  5
540A
  8
AM_0
 10
185.8853253286037
 20
409.92942448298089
 30
0.0
 40
0.1000000000000014
 50
195.00019500656629
 51
270.0
  0
LINE
  5
540B
  8
AM_0
 10
185.20895717360679
 20
409.7356765188207
 30
0.0
 11
185.20895717360679
 21
410.39259150247278
 31
0.0
  0
ARC
  5
540C
  8
AM_0
 10
184.90895717360669
 20
409.73567651882098
 30
0.0
 40
0.3000000000000007
 50
270.0
 51
0.0
  0
LINE
  5
540D
  8
AM_0
 10
183.70895717360679
 20
413.23425373068881
 30
0.0
 11
184.90895717360661
 21
413.23425373068881
 31
0.0
  0
LINE
  5
540E
  8
AM_0
 10
184.90895717360661
 20
410.69259150247279
 30
0.0
 11
183.70895717360679
 21
410.69259150247279
 31
0.0
  0
LINE
  5
540F
  8
AM_0
 10
186.55859290017861
 20
410.57942448298053
 30
0.0
 11
186.6353253286037
 21
410.57942448298053
 31
0.0
  0
ARC
  5
5410
  8
AM_0
 10
184.90895717360669
 20
413.5342537306887
 30
0.0
 40
0.3000000000000007
 50
270.0
 51
0.0
  0
LINE
  5
5411
  8
AM_0
 10
184.90895717360661
 20
415.00649691712158
 30
0.0
 11
183.70895717360679
 21
415.00649691712158
 31
0.0
  0
ARC
  5
5412
  8
AM_0
 10
184.90895717360669
 20
414.70649691712202
 30
0.0
 40
0.3000000000000043
 50
0.0
 51
90.0
  0
LINE
  5
5413
  8
AM_0
 10
184.90895717360661
 20
418.67942448297958
 30
0.0
 11
183.70895717360679
 21
418.67942448297958
 31
0.0
  0
ARC
  5
5414
  8
AM_0
 10
184.90895717360669
 20
418.97942448297999
 30
0.0
 40
0.3000000000000007
 50
270.0
 51
0.0
  0
LINE
  5
5415
  8
AM_0
 10
174.70895717360679
 20
409.54614465433372
 30
0.0
 11
181.20895717360679
 21
409.54614465433372
 31
0.0
  0
LINE
  5
5416
  8
AM_0
 10
174.70895717360679
 20
409.0461446543336
 30
0.0
 11
181.20895717360679
 21
409.0461446543336
 31
0.0
  0
LINE
  5
5417
  8
AM_0
 10
181.20895717360679
 20
419.17942448298061
 30
0.0
 11
174.70895717360679
 21
419.17942448298061
 31
0.0
  0
LINE
  5
5418
  8
AM_0
 10
174.20895717360679
 20
418.67942448298061
 30
0.0
 11
181.20895717360679
 21
418.67942448298061
 31
0.0
  0
LINE
  5
5419
  8
AM_0
 10
180.90895717360661
 20
408.67942448298089
 30
0.0
 11
174.07100710878859
 21
408.67942448298089
 31
0.0
  0
LINE
  5
541A
  8
AM_0
 10
181.20895717360679
 20
418.33273641443958
 30
0.0
 11
174.70895717360679
 21
418.33273641443958
 31
0.0
  0
LINE
  5
541B
  8
AM_0
 10
181.20895717360679
 20
410.02611255152158
 30
0.0
 11
174.70895717360679
 21
410.02611255152158
 31
0.0
  0
ARC
  5
541C
  8
AM_0
 10
181.50895717360669
 20
407.97942448298068
 30
0.0
 40
0.2999999999999971
 50
180.0
 51
270.0
  0
ARC
  5
541D
  8
AM_0
 10
180.90895717360669
 20
408.37942448298088
 30
0.0
 40
0.2999999999999971
 50
0.0
 51
90.0
  0
ARC
  5
541E
  8
AM_0
 10
182.83395717360679
 20
414.17942448298072
 30
0.0
 40
9.124999999999984
 50
152.92493329271929
 51
207.07506670728071
  0
LINE
  5
541F
  8
AM_0
 10
173.4308227091243
 20
408.91120320338308
 30
0.0
 11
171.06877277394219
 21
410.87957814936811
 31
0.0
  0
LINE
  5
5420
  8
AM_0
 10
174.20895717360679
 20
409.25785706648878
 30
0.0
 11
174.70895717360679
 21
408.67942448298089
 31
0.0
  0
ARC
  5
5421
  8
AM_0
 10
174.07100710878859
 20
409.67942448298078
 30
0.0
 40
1.0
 50
230.19442890774391
 51
270.0
  0
LINE
  5
5422
  8
AM_0
 10
174.70895717360679
 20
409.0461446543336
 30
0.0
 11
174.20895717360679
 21
409.25785706648878
 31
0.0
  0
LINE
  5
5423
  8
AM_0
 10
174.20895717360679
 20
409.72013233945989
 30
0.0
 11
174.70895717360679
 21
409.0461446543336
 31
0.0
  0
LINE
  5
5424
  8
AM_0
 10
174.70895717360679
 20
409.54614465433372
 30
0.0
 11
174.20895717360679
 21
409.72013233945989
 31
0.0
  0
LINE
  5
5425
  8
AM_0
 10
174.20895717360679
 20
410.25785706648878
 30
0.0
 11
174.70895717360679
 21
409.54614465433372
 31
0.0
  0
LINE
  5
5426
  8
AM_0
 10
174.70895717360679
 20
410.02611255152158
 30
0.0
 11
174.20895717360679
 21
410.25785706648878
 31
0.0
  0
ARC
  5
5427
  8
AM_0
 10
171.70895717360679
 20
411.64779942896593
 30
0.0
 40
1.0000000000000291
 50
180.0
 51
230.19442890773689
  0
LINE
  5
5428
  8
AM_0
 10
174.70895717360679
 20
419.17942448298061
 30
0.0
 11
174.20895717360679
 21
419.67942448298072
 31
0.0
  0
LINE
  5
5429
  8
AM_0
 10
174.20895717360679
 20
418.67942448298061
 30
0.0
 11
174.70895717360679
 21
419.17942448298061
 31
0.0
  0
LINE
  5
542A
  8
AM_0
 10
174.70895717360679
 20
418.33273641443958
 30
0.0
 11
174.20895717360679
 21
418.67942448298061
 31
0.0
  0
LINE
  5
542B
  8
AM_0
 10
181.50895717360669
 20
431.67942448298061
 30
0.0
 11
183.70895717360679
 21
431.67942448298061
 31
0.0
  0
ARC
  5
542C
  8
AM_0
 10
195.6076282699527
 20
432.17942448298089
 30
0.0
 40
0.5
 50
269.99999999998693
 51
0.0
  0
LINE
  5
542D
  8
AM_0
 10
190.60762826995261
 20
428.77942448298069
 30
0.0
 11
187.3853253286037
 21
428.77942448298069
 31
0.0
  0
LINE
  5
542E
  8
AM_0
 10
196.10762826995261
 20
420.82335316157372
 30
0.0
 11
196.10762826995261
 21
430.53549580438892
 31
0.0
  0
LINE
  5
542F
  8
AM_0
 10
191.1076282699525
 20
420.32335316157372
 30
0.0
 11
195.6076282699527
 21
420.32335316157372
 31
0.0
  0
ARC
  5
5430
  8
AM_0
 10
195.6076282699527
 20
420.82335316157372
 30
0.0
 40
0.5
 50
270.0
 51
0.0
  0
LINE
  5
5431
  8
AM_0
 10
191.1076282699525
 20
431.0354958043888
 30
0.0
 11
195.6076282699527
 21
431.0354958043888
 31
0.0
  0
LINE
  5
5432
  8
AM_0
 10
195.6076282699527
 20
431.67942448298061
 30
0.0
 11
191.6076282699527
 21
431.67942448298061
 31
0.0
  0
ARC
  5
5433
  8
AM_0
 10
195.6076282699527
 20
430.53549580438892
 30
0.0
 40
0.5
 50
0.0
 51
90.0
  0
ARC
  5
5434
  8
AM_0
 10
190.60762826995261
 20
429.27942448298069
 30
0.0
 40
0.5
 50
270.0
 51
0.0
  0
ARC
  5
5435
  8
AM_0
 10
191.6076282699527
 20
431.17942448298061
 30
0.0
 40
0.5
 50
90.0
 51
180.0
  0
ARC
  5
5436
  8
AM_0
 10
184.90895717360669
 20
425.8245952352728
 30
0.0
 40
0.3000000000000114
 50
0.0
 51
90.0
  0
LINE
  5
5437
  8
AM_0
 10
183.70895717360679
 20
420.67942448298271
 30
0.0
 11
184.90895717360661
 21
420.67942448298271
 31
0.0
  0
ARC
  5
5438
  8
AM_0
 10
184.90895717360669
 20
420.3794244829827
 30
0.0
 40
0.2999999999999971
 50
0.0
 51
90.0
  0
LINE
  5
5439
  8
AM_0
 10
183.70895717360679
 20
424.35235204883958
 30
0.0
 11
184.90895717360661
 21
424.35235204883958
 31
0.0
  0
ARC
  5
543A
  8
AM_0
 10
184.90895717360669
 20
424.6523520488397
 30
0.0
 40
0.3000000000000007
 50
270.0
 51
0.0
  0
LINE
  5
543B
  8
AM_0
 10
185.20895717360679
 20
424.6523520488397
 30
0.0
 11
185.20895717360679
 21
425.8245952352728
 31
0.0
  0
LINE
  5
543C
  8
AM_0
 10
186.6353253286037
 20
429.5294244829808
 30
0.0
 11
187.03089584152769
 21
429.5294244829808
 31
0.0
  0
LINE
  5
543D
  8
AM_0
 10
186.6353253286037
 20
429.5294244829808
 30
0.0
 11
187.03089584152769
 21
429.5294244829808
 31
0.0
  0
LINE
  5
543E
  8
AM_0
 10
187.12748833606639
 20
429.45530671624442
 30
0.0
 11
187.28873283406449
 21
428.85354224971712
 31
0.0
  0
LINE
  5
543F
  8
AM_0
 10
187.12748833606639
 20
429.45530671624442
 30
0.0
 11
187.28873283406449
 21
428.85354224971712
 31
0.0
  0
ARC
  5
5440
  8
AM_0
 10
187.3853253286037
 20
428.87942448298088
 30
0.0
 40
0.0999999999999943
 50
195.00019500651879
 51
270.0
  0
ARC
  5
5441
  8
AM_0
 10
187.03089584152769
 20
429.42942448298061
 30
0.0
 40
0.0999999999999943
 50
15.000195006505431
 51
90.0
  0
LINE
  5
5442
  8
AM_0
 10
185.70811058506561
 20
429.1544244829808
 30
0.0
 11
185.78873283406449
 21
428.85354224971712
 31
0.0
  0
LINE
  5
5443
  8
AM_0
 10
186.36033892215841
 20
428.81868901607879
 30
0.0
 11
186.53873283406449
 21
429.45530671624442
 31
0.0
  0
LINE
  5
5444
  8
AM_0
 10
186.3774883360667
 20
428.85354224971712
 30
0.0
 11
186.53873283406449
 21
429.45530671624442
 31
0.0
  0
LINE
  5
5445
  8
AM_0
 10
185.20895717360679
 20
428.9662574634898
 30
0.0
 11
185.20895717360679
 21
429.62317244714069
 31
0.0
  0
LINE
  5
5446
  8
AM_0
 10
185.70895717360679
 20
429.1512650145425
 30
0.0
 11
185.78873283406449
 21
428.85354224971712
 31
0.0
  0
LINE
  5
5447
  8
AM_0
 10
183.70895717360679
 20
428.66625746348973
 30
0.0
 11
184.90895717360661
 21
428.66625746348973
 31
0.0
  0
LINE
  5
5448
  8
AM_0
 10
184.90895717360661
 20
426.12459523527269
 30
0.0
 11
183.70895717360679
 21
426.12459523527349
 31
0.0
  0
LINE
  5
5449
  8
AM_0
 10
186.3135281070428
 20
428.77942448298069
 30
0.0
 11
186.36033892215841
 21
428.81868901607879
 31
0.0
  0
LINE
  5
544A
  8
AM_0
 10
185.8853253286037
 20
428.77942448298069
 30
0.0
 11
186.3135281070428
 21
428.77942448298069
 31
0.0
  0
LINE
  5
544B
  8
AM_0
 10
185.8853253286037
 20
428.77942448298069
 30
0.0
 11
186.28089584152761
 21
428.77942448298069
 31
0.0
  0
ARC
  5
544C
  8
AM_0
 10
185.8853253286037
 20
428.87942448298088
 30
0.0
 40
0.0999999999999943
 50
195.00019500651879
 51
270.0
  0
ARC
  5
544D
  8
AM_0
 10
186.28089584152761
 20
428.87942448298088
 30
0.0
 40
0.0999999999999608
 50
270.0
 51
344.99980499348112
  0
ARC
  5
544E
  8
AM_0
 10
184.90895717360669
 20
428.9662574634898
 30
0.0
 40
0.3000000000000007
 50
270.0
 51
0.0
  0
LINE
  5
544F
  8
AM_0
 10
183.70895717360679
 20
430.67942448298072
 30
0.0
 11
185.20895717360679
 21
430.67942448298072
 31
0.0
  0
LINE
  5
5450
  8
AM_0
 10
184.90895717360661
 20
429.92317244714081
 30
0.0
 11
183.70895717360679
 21
429.92317244714081
 31
0.0
  0
LINE
  5
5451
  8
AM_0
 10
184.9289128767638
 20
430.99809410277078
 30
0.0
 11
183.70895717360679
 21
431.07942448298053
 31
0.0
  0
ARC
  5
5452
  8
AM_0
 10
185.20895717360679
 20
430.17942448298078
 30
0.0
 40
0.5
 50
0.0
 51
90.0
  0
ARC
  5
5453
  8
AM_0
 10
186.6353253286037
 20
429.42942448298061
 30
0.0
 40
0.0999999999999606
 50
90.0
 51
164.99980499349451
  0
ARC
  5
5454
  8
AM_0
 10
184.90895717360669
 20
429.62317244714069
 30
0.0
 40
0.2999999999999971
 50
0.0
 51
90.0
  0
LINE
  5
5455
  8
AM_0
 10
185.20895717360679
 20
430.67942448298072
 30
0.0
 11
185.20895717360679
 21
430.69875855541369
 31
0.0
  0
ARC
  5
5456
  8
AM_0
 10
184.90895717360669
 20
430.69875855541369
 30
0.0
 40
0.3000000000000043
 50
0.0
 51
86.18592516571853
  0
ARC
  5
5457
  8
AM_0
 10
196.6076282699527
 20
432.67942448298089
 30
0.0
 40
0.5
 50
90.0
 51
180.0
  0
LINE
  5
5458
  8
AM_0
 10
196.10762826995261
 20
432.67942448298089
 30
0.0
 11
196.10762826995261
 21
432.17942448298089
 31
0.0
  0
LINE
  5
5459
  8
AM_0
 10
174.70895717360679
 20
429.33273641443958
 30
0.0
 11
181.20895717360679
 21
429.33273641443958
 31
0.0
  0
LINE
  5
545A
  8
AM_0
 10
174.70895717360679
 20
421.02611255152158
 30
0.0
 11
181.20895717360679
 21
421.02611255152158
 31
0.0
  0
LINE
  5
545B
  8
AM_0
 10
174.07100710878859
 20
430.67942448298072
 30
0.0
 11
180.90895717360661
 21
430.67942448298072
 31
0.0
  0
LINE
  5
545C
  8
AM_0
 10
181.20895717360679
 20
420.67942448298089
 30
0.0
 11
174.20895717360679
 21
420.67942448298089
 31
0.0
  0
LINE
  5
545D
  8
AM_0
 10
174.70895717360679
 20
420.17942448298089
 30
0.0
 11
181.20895717360679
 21
420.17942448298089
 31
0.0
  0
LINE
  5
545E
  8
AM_0
 10
181.20895717360679
 20
430.31270431162869
 30
0.0
 11
174.70895717360679
 21
430.31270431162869
 31
0.0
  0
LINE
  5
545F
  8
AM_0
 10
181.20895717360679
 20
429.81270431162869
 30
0.0
 11
174.70895717360679
 21
429.81270431162869
 31
0.0
  0
ARC
  5
5460
  8
AM_0
 10
180.90895717360669
 20
430.97942448298079
 30
0.0
 40
0.3000000000000043
 50
270.0
 51
0.0
  0
ARC
  5
5461
  8
AM_0
 10
181.50895717360669
 20
431.37942448298082
 30
0.0
 40
0.2999999999999971
 50
90.0
 51
180.0
  0
ARC
  5
5462
  8
AM_0
 10
182.83395717360679
 20
425.17942448298089
 30
0.0
 40
9.124999999999984
 50
152.92493329271929
 51
207.07506670728071
  0
LINE
  5
5463
  8
AM_0
 10
174.20895717360679
 20
420.67942448298089
 30
0.0
 11
174.70895717360679
 21
421.02611255152158
 31
0.0
  0
LINE
  5
5464
  8
AM_0
 10
174.70895717360679
 20
420.17942448298089
 30
0.0
 11
174.20895717360679
 21
420.67942448298089
 31
0.0
  0
LINE
  5
5465
  8
AM_0
 10
171.06877277394219
 20
428.47927081659401
 30
0.0
 11
173.4308227091243
 21
430.44764576257808
 31
0.0
  0
LINE
  5
5466
  8
AM_0
 10
174.70895717360679
 20
430.67942448298072
 30
0.0
 11
174.20895717360679
 21
430.10099189947368
 31
0.0
  0
ARC
  5
5467
  8
AM_0
 10
174.07100710878859
 20
429.67942448298089
 30
0.0
 40
1.0000000000000411
 50
90.0
 51
129.805571092256
  0
LINE
  5
5468
  8
AM_0
 10
174.20895717360679
 20
429.10099189947368
 30
0.0
 11
174.70895717360679
 21
429.33273641443958
 31
0.0
  0
LINE
  5
5469
  8
AM_0
 10
174.70895717360679
 20
429.81270431162869
 30
0.0
 11
174.20895717360679
 21
429.10099189947368
 31
0.0
  0
LINE
  5
546A
  8
AM_0
 10
174.20895717360679
 20
429.63871662650172
 30
0.0
 11
174.70895717360679
 21
429.81270431162869
 31
0.0
  0
LINE
  5
546B
  8
AM_0
 10
174.70895717360679
 20
430.31270431162869
 30
0.0
 11
174.20895717360679
 21
429.63871662650172
 31
0.0
  0
LINE
  5
546C
  8
AM_0
 10
174.20895717360679
 20
430.10099189947368
 30
0.0
 11
174.70895717360679
 21
430.31270431162869
 31
0.0
  0
ARC
  5
546D
  8
AM_0
 10
171.70895717360679
 20
427.71104953699671
 30
0.0
 40
1.0
 50
129.80557109226311
 51
180.0
  0
LINE
  5
546E
  8
AM_0
 10
296.10762826995278
 20
396.67942448298112
 30
0.0
 11
275.2931233704204
 21
396.67942448298112
 31
0.0
  0
LINE
  5
546F
  8
AM_0
 10
220.92213316948519
 20
396.67942448298112
 30
0.0
 11
200.1076282699533
 21
396.67942448298112
 31
0.0
  0
LINE
  5
5470
  8
AM_0
 10
289.97184660079182
 20
392.67942448298112
 30
0.0
 11
206.2434099391136
 21
392.67942448298112
 31
0.0
  0
LINE
  5
5471
  8
AM_0
 10
209.0149832422596
 20
394.62048697085328
 30
0.0
 11
209.10762826995341
 21
395.67942448298112
 31
0.0
  0
LINE
  5
5472
  8
AM_0
 10
201.2002732976467
 20
394.62048697085328
 30
0.0
 11
201.10762826995341
 21
395.67942448298112
 31
0.0
  0
ARC
  5
5473
  8
AM_0
 10
205.10762826995341
 20
399.07942448298121
 30
0.0
 40
6.5
 50
241.82726586813479
 51
298.17273413186518
  0
ARC
  5
5474
  8
AM_0
 10
202.79418481459371
 20
394.75993615924972
 30
0.0
 40
1.6000000000000001
 50
184.99999999999969
 51
241.82726586813479
  0
LINE
  5
5475
  8
AM_0
 10
207.40762826995331
 20
392.99995082155277
 30
0.0
 11
205.10762826995341
 21
395.28951050034829
 31
0.0
  0
LINE
  5
5476
  8
AM_0
 10
205.4191282699534
 20
394.97942448298102
 30
0.0
 11
204.7961282699533
 21
394.97942448298102
 31
0.0
  0
LINE
  5
5477
  8
AM_0
 10
202.8076282699534
 20
392.99995082155277
 30
0.0
 11
205.10762826995341
 21
395.28951050034829
 31
0.0
  0
LINE
  5
5478
  8
AM_0
 10
205.4191282699534
 20
392.58689279264638
 30
0.0
 11
205.4191282699534
 21
394.97942448298102
 31
0.0
  0
LINE
  5
5479
  8
AM_0
 10
204.7961282699533
 20
392.58689279264638
 30
0.0
 11
204.7961282699533
 21
394.97942448298102
 31
0.0
  0
ARC
  5
547A
  8
AM_0
 10
207.421071725313
 20
394.75993615924972
 30
0.0
 40
1.6000000000000001
 50
298.17273413186518
 51
355.00000000000023
  0
LINE
  5
547B
  8
AM_0
 10
296.1076282699529
 20
396.67942448298112
 30
0.0
 11
296.1076282699529
 21
400.67942448298089
 31
0.0
  0
LINE
  5
547C
  8
AM_0
 10
200.10762826995239
 20
400.67942448298089
 30
0.0
 11
200.10762826995361
 21
396.67942448298112
 31
0.0
  0
LINE
  5
547D
  8
AM_0N
 10
208.90762826995331
 20
396.67942448298112
 30
0.0
 11
208.90762826995331
 21
395.67942448298112
 31
0.0
  0
LINE
  5
547E
  8
AM_0N
 10
205.3076282699534
 20
395.67942448298112
 30
0.0
 11
205.6715985042195
 21
396.67942448298112
 31
0.0
  0
LINE
  5
547F
  8
AM_0N
 10
204.90762826995331
 20
395.67942448298112
 30
0.0
 11
205.27159850421941
 21
396.67942448298112
 31
0.0
  0
LINE
  5
5480
  8
AM_0N
 10
201.10762826995341
 20
395.67942448298112
 30
0.0
 11
209.10762826995341
 21
395.67942448298112
 31
0.0
  0
LINE
  5
5481
  8
AM_0N
 10
201.3076282699534
 20
395.67942448298112
 30
0.0
 11
201.3076282699534
 21
396.67942448298112
 31
0.0
  0
LINE
  5
5482
  8
AM_0
 10
220.92213316948479
 20
392.67942448298112
 30
0.0
 11
220.92213316948479
 21
396.67942448298112
 31
0.0
  0
LINE
  5
5483
  8
AM_0
 10
219.26527891999251
 20
396.67942448298112
 30
0.0
 11
220.92213316948479
 21
392.67942448298112
 31
0.0
  0
LINE
  5
5484
  8
AM_0
 10
275.2931233704204
 20
392.67942448298112
 30
0.0
 11
275.2931233704204
 21
396.67942448298112
 31
0.0
  0
LINE
  5
5485
  8
AM_0
 10
276.949977619913
 20
396.67942448298112
 30
0.0
 11
275.2931233704204
 21
392.67942448298112
 31
0.0
  0
LINE
  5
5486
  8
AM_0
 10
214.6076282699527
 20
441.67942448298089
 30
0.0
 11
281.60762826995278
 21
441.67942448298089
 31
0.0
  0
LINE
  5
5487
  8
AM_0
 10
214.6076282699527
 20
441.67942448298089
 30
0.0
 11
214.6076282699527
 21
439.67942448298112
 31
0.0
  0
LINE
  5
5488
  8
AM_0
 10
281.60762826995278
 20
441.67942448298089
 30
0.0
 11
281.60762826995278
 21
439.67942448298112
 31
0.0
  0
LINE
  5
5489
  8
ﾁｭｳｼﾝｾﾝ1
 10
291.1076282699521
 20
390.41471698298119
 30
0.0
 11
291.1076282699521
 21
403.41471698298091
 31
0.0
  0
LINE
  5
548A
  8
AM_0
 10
287.20027329764571
 20
394.62048697085328
 30
0.0
 11
287.10762826995222
 21
395.67942448298112
 31
0.0
  0
LINE
  5
548B
  8
AM_0
 10
295.01498324225878
 20
394.62048697085328
 30
0.0
 11
295.1076282699521
 21
395.67942448298112
 31
0.0
  0
ARC
  5
548C
  8
AM_0
 10
291.10762826995222
 20
399.07942448298098
 30
0.0
 40
6.5
 50
241.82726586813479
 51
298.17273413186518
  0
ARC
  5
548D
  8
AM_0
 10
293.421071725312
 20
394.75993615924932
 30
0.0
 40
1.6000000000000001
 50
298.17273413186518
 51
355.00000000000023
  0
LINE
  5
548E
  8
AM_0
 10
288.80762826995232
 20
392.99995082155277
 30
0.0
 11
291.10762826995222
 21
395.28951050034829
 31
0.0
  0
LINE
  5
548F
  8
AM_0
 10
290.79612826995219
 20
394.97942448298102
 30
0.0
 11
291.4191282699523
 21
394.97942448298102
 31
0.0
  0
LINE
  5
5490
  8
AM_0
 10
293.40762826995223
 20
392.99995082155277
 30
0.0
 11
291.10762826995222
 21
395.28951050034829
 31
0.0
  0
LINE
  5
5491
  8
AM_0
 10
290.79612826995219
 20
392.58689279264638
 30
0.0
 11
290.79612826995219
 21
394.97942448298102
 31
0.0
  0
LINE
  5
5492
  8
AM_0
 10
291.4191282699523
 20
392.58689279264638
 30
0.0
 11
291.4191282699523
 21
394.97942448298102
 31
0.0
  0
ARC
  5
5493
  8
AM_0
 10
288.7941848145926
 20
394.75993615924932
 30
0.0
 40
1.6000000000000001
 50
184.99999999999969
 51
241.82726586813479
  0
LINE
  5
5494
  8
AM_0N
 10
287.30762826995198
 20
396.67942448298112
 30
0.0
 11
287.30762826995198
 21
395.67942448298112
 31
0.0
  0
LINE
  5
5495
  8
AM_0N
 10
290.90762826995223
 20
395.67942448298112
 30
0.0
 11
290.54365803568601
 21
396.67942448298112
 31
0.0
  0
LINE
  5
5496
  8
AM_0N
 10
291.30762826995198
 20
395.67942448298112
 30
0.0
 11
290.94365803568598
 21
396.67942448298112
 31
0.0
  0
LINE
  5
5497
  8
AM_0N
 10
295.10762826995222
 20
395.67942448298112
 30
0.0
 11
287.10762826995222
 21
395.67942448298112
 31
0.0
  0
LINE
  5
5498
  8
AM_0N
 10
294.90762826995223
 20
395.67942448298112
 30
0.0
 11
294.90762826995223
 21
396.67942448298112
 31
0.0
  0
LINE
  5
5499
  8
AM_0
 10
199.1076282699527
 20
403.67942448298089
 30
0.0
 11
199.1076282699527
 21
435.67942448298061
 31
0.0
  0
ARC
  5
549A
  8
AM_0
 10
171.68078863889451
 20
472.67942448298112
 30
0.0
 40
56.0
 50
209.07393874564249
 51
269.00563148839018
1001
GENIUS_GENOBJ-N-FIL_13
1002
{
1000
OWNER
1000
GEN
1002
}
1001
GENIUS_GENODEF_13
1002
{
1000
HIER
1070
     0
1002
}
1002
{
1000
MANEDIT
1070
     0
1002
}
1002
{
1000
NOSEL
1070
     0
1002
}
1002
{
1000
BEHIND
1070
     0
1002
}
1002
{
1000
OTHER
1070
     0
1002
}
1002
{
1000
REACTOR
1002
}
  0
ARC
  5
549B
  8
AM_0
 10
171.6807886388944
 20
472.67942448298112
 30
0.0
 40
50.0
 50
209.07393874564249
 51
268.88629304213589
1001
GENIUS_GENOBJ-N-FIL_13
1002
{
1000
OWNER
1000
GEN
1002
}
1001
GENIUS_GENODEF_13
1002
{
1000
HIER
1070
     0
1002
}
1002
{
1000
MANEDIT
1070
     0
1002
}
1002
{
1000
NOSEL
1070
     0
1002
}
1002
{
1000
BEHIND
1070
     0
1002
}
1002
{
1000
OTHER
1070
     0
1002
}
1002
{
1000
REACTOR
1002
}
  0
LINE
  5
5532
  8
AM_0
 10
412.60760826995232
 20
512.67942448298095
 30
0.0
 11
412.60760826995232
 21
518.67942448298129
 31
0.0
  0
LINE
  5
5533
  8
AM_0
 10
410.60761826995292
 20
506.17942448298112
 30
0.0
 11
434.60763826995242
 21
506.17942448298112
 31
0.0
  0
LINE
  5
5534
  8
AM_0
 10
410.6076182699527
 20
525.17942448298095
 30
0.0
 11
434.60763826995242
 21
525.17942448298095
 31
0.0
  0
LINE
  5
5535
  8
AM_0
 10
434.60763826995242
 20
506.17942448298112
 30
0.0
 11
434.60763826995242
 21
525.17942448298095
 31
0.0
  0
LINE
  5
5536
  8
AM_0
 10
412.60760826995232
 20
512.67942448298095
 30
0.0
 11
434.60763826995242
 21
512.67942448298095
 31
0.0
  0
LINE
  5
5537
  8
AM_0
 10
412.60760826995232
 20
518.67942448298129
 30
0.0
 11
434.60763826995242
 21
518.67942448298129
 31
0.0
  0
ARC
  5
5538
  8
AM_0
 10
412.60760826995232
 20
515.67942448298118
 30
0.0
 40
3.0
 50
89.986013999999244
 51
131.81005866176551
  0
ARC
  5
5539
  8
AM_0
 10
412.60760826995232
 20
515.67942448298118
 30
0.0
 40
3.0
 50
228.18994133823441
 51
270.01398999999998
  0
LINE
  5
553A
  8
AM_0
 10
406.60761826995241
 20
540.17945448298121
 30
0.0
 11
410.6076182699523
 21
536.17945448298144
 31
0.0
  0
LINE
  5
553B
  8
AM_0
 10
404.10761826995252
 20
540.17945448298121
 30
0.0
 11
406.60761826995241
 21
540.17945448298121
 31
0.0
  0
LINE
  5
553C
  8
AM_0
 10
410.6076182699523
 20
536.17945448298144
 30
0.0
 11
410.60761826995292
 21
495.1794544829811
 31
0.0
  0
LINE
  5
553D
  8
AM_0
 10
406.60761826995241
 20
491.1794544829811
 30
0.0
 11
410.6076182699523
 21
495.1794544829811
 31
0.0
  0
LINE
  5
553E
  8
AM_0
 10
404.10761826995252
 20
491.1794544829811
 30
0.0
 11
406.60761826995241
 21
491.1794544829811
 31
0.0
  0
LINE
  5
553F
  8
AM_0
 10
403.60761826995241
 20
539.67945448298121
 30
0.0
 11
404.10761826995252
 21
540.17945448298121
 31
0.0
1001
GENIUS_GENFIL_13
1070
     0
1040
0.5
1040
0.5
1040
20.0
1040
0.0
1002
{
1002
}
1001
GENIUS_GENOBJ-N-CHA_13
1002
{
1000
OWNER
1000
GEN
1002
}
1001
GENIUS_GENODEF_13
1002
{
1000
HIER
1070
     0
1002
}
1002
{
1000
MANEDIT
1070
     0
1002
}
1002
{
1000
NOSEL
1070
     0
1002
}
1002
{
1000
BEHIND
1070
     0
1002
}
1002
{
1000
OTHER
1070
     0
1002
}
1002
{
1000
REACTOR
1002
}
  0
LINE
  5
5540
  8
AM_0
 10
403.60761826995241
 20
491.67945448298087
 30
0.0
 11
404.10761826995252
 21
491.1794544829811
 31
0.0
1001
GENIUS_GENFIL_13
1070
     0
1040
0.5
1040
0.5
1040
20.0
1040
0.0
1002
{
1002
}
1001
GENIUS_GENODEF_13
1002
{
1000
HIER
1070
     0
1002
}
1002
{
1000
MANEDIT
1070
     0
1002
}
1002
{
1000
NOSEL
1070
     0
1002
}
1002
{
1000
BEHIND
1070
     0
1002
}
1002
{
1000
OTHER
1070
     0
1002
}
1002
{
1000
REACTOR
1002
}
1001
GENIUS_GENOBJ-N-CHA_13
1002
{
1000
OWNER
1000
GEN
1002
}
  0
LINE
  5
5541
  8
AM_0
 10
406.6076182699527
 20
540.17945448298121
 30
0.0
 11
406.60761826995241
 21
491.1794544829811
 31
0.0
  0
LINE
  5
5542
  8
AM_0
 10
344.6076682699524
 20
455.67942448298112
 30
0.0
 11
344.6076682699524
 21
575.67942448298095
 31
0.0
  0
LINE
  5
5543
  8
AM_0
 10
312.1076682699524
 20
454.82837448298091
 30
0.0
 11
344.6076682699524
 21
455.67942448298112
 31
0.0
  0
LINE
  5
5544
  8
AM_0
 10
312.1076682699524
 20
576.53043448298126
 30
0.0
 11
344.6076682699524
 21
575.67939448298114
 31
0.0
  0
LINE
  5
5545
  8
AM_0
 10
312.1076682699524
 20
571.20575448298121
 30
0.0
 11
344.6076682699524
 21
571.20575448298121
 31
0.0
  0
LINE
  5
5546
  8
AM_0
 10
312.1076682699524
 20
460.15305448298091
 30
0.0
 11
344.6076682699524
 21
460.15305448298091
 31
0.0
  0
LINE
  5
5547
  8
AM_0
 10
312.1076682699524
 20
452.7844944829809
 30
0.0
 11
312.1076682699524
 21
464.17911448298088
 31
0.0
  0
LINE
  5
5548
  8
AM_0
 10
311.13382826995252
 20
579.57398448298113
 30
0.0
 11
307.1076682699524
 21
579.67939448298114
 31
0.0
  0
LINE
  5
5549
  8
AM_0
 10
311.13382826995252
 20
451.78482448298121
 30
0.0
 11
307.1076682699524
 21
451.67939448298119
 31
0.0
  0
LINE
  5
554A
  8
AM_0
 10
307.1076682699524
 20
464.17911448298088
 30
0.0
 11
319.23278826995238
 21
464.17911448298088
 31
0.0
  0
LINE
  5
554B
  8
AM_0
 10
307.1076682699524
 20
477.62455448298101
 30
0.0
 11
312.1076682699524
 21
477.62455448298101
 31
0.0
  0
LINE
  5
554C
  8
AM_0
 10
320.1076682699524
 20
466.39109448298069
 30
0.0
 11
320.1076682699524
 21
476.3043244829812
 31
0.0
  0
LINE
  5
554D
  8
AM_0
 10
330.1076682699524
 20
467.35962448298079
 30
0.0
 11
330.1076682699524
 21
477.32981448298091
 31
0.0
  0
LINE
  5
554E
  8
AM_0
 10
312.1076682699524
 20
477.62455448298101
 30
0.0
 11
312.1076682699524
 21
553.73429448298111
 31
0.0
  0
LINE
  5
554F
  8
AM_0
 10
312.1076682699524
 20
567.17942448298095
 30
0.0
 11
312.1076682699524
 21
578.57431448298121
 31
0.0
  0
LINE
  5
5550
  8
AM_0
 10
330.10763826995247
 20
465.94236448298119
 30
0.0
 11
320.96927826995272
 21
464.33103448298078
 31
0.0
  0
LINE
  5
5551
  8
AM_0
 10
312.1076682699524
 20
478.499424482981
 30
0.0
 11
330.1076682699524
 21
478.499424482981
 31
0.0
  0
LINE
  5
5552
  8
AM_0
 10
320.1076682699524
 20
564.96772448298123
 30
0.0
 11
320.1076682699524
 21
555.05448448298114
 31
0.0
  0
LINE
  5
5553
  8
AM_0
 10
330.10763826995247
 20
565.41645448298129
 30
0.0
 11
320.96923826995243
 21
567.02777448298116
 31
0.0
  0
LINE
  5
5554
  8
AM_0
 10
307.1076682699524
 20
553.73429448298111
 30
0.0
 11
312.1076682699524
 21
553.73429448298111
 31
0.0
  0
LINE
  5
5555
  8
AM_0
 10
312.1076682699524
 20
552.85938448298111
 30
0.0
 11
330.1076682699524
 21
552.85938448298111
 31
0.0
  0
LINE
  5
5556
  8
AM_0
 10
307.1076682699524
 20
567.17969448298129
 30
0.0
 11
319.23278826995238
 21
567.17969448298129
 31
0.0
  0
LINE
  5
5557
  8
AM_0
 10
330.1076682699524
 20
563.99918448298115
 30
0.0
 11
330.1076682699524
 21
554.02896448298122
 31
0.0
  0
LINE
  5
5558
  8
AM_0
 10
344.6076682699524
 20
460.15305448298091
 30
0.0
 11
376.6076682699524
 21
460.15305448298091
 31
0.0
  0
LINE
  5
5559
  8
AM_0
 10
344.6076682699524
 20
571.20572448298128
 30
0.0
 11
376.6076682699524
 21
571.20572448298128
 31
0.0
  0
LINE
  5
555A
  8
AM_0
 10
399.60760826995238
 20
445.67935448298113
 30
0.0
 11
403.6076682699524
 21
445.67935448298113
 31
0.0
  0
LINE
  5
555B
  8
AM_0
 10
391.53781826995248
 20
440.9611844829812
 30
0.0
 11
399.60763826995247
 21
440.67939448298119
 31
0.0
  0
LINE
  5
555C
  8
AM_0
 10
389.60760826995238
 20
442.9599944829809
 30
0.0
 11
389.60760826995238
 21
475.23899448298113
 31
0.0
  0
LINE
  5
555D
  8
AM_0
 10
381.43313826995251
 20
446.45130448298119
 30
0.0
 11
386.71234826995237
 21
446.2669444829811
 31
0.0
  0
LINE
  5
555E
  8
AM_0
 10
344.6076682699524
 20
575.67942448298095
 30
0.0
 11
376.6076682699524
 21
576.51737448298115
 31
0.0
  0
LINE
  5
555F
  8
AM_0
 10
376.60763826995247
 20
454.8414344829809
 30
0.0
 11
344.6076682699524
 21
455.67939448298119
 31
0.0
  0
LINE
  5
5560
  8
AM_0
 10
389.60760826995238
 20
588.39878448298089
 30
0.0
 11
389.60760826995238
 21
556.11978448298112
 31
0.0
  0
LINE
  5
5561
  8
AM_0
 10
381.43319826995241
 20
584.90744448298108
 30
0.0
 11
386.71237826995252
 21
585.09180448298105
 31
0.0
  0
LINE
  5
5562
  8
AM_0
 10
394.60766826995251
 20
575.17942448298095
 30
0.0
 11
394.60766826995251
 21
456.17935448298118
 31
0.0
  0
LINE
  5
5563
  8
AM_0
 10
399.60760826995238
 20
585.67942448298129
 30
0.0
 11
403.6076682699524
 21
585.67942448298129
 31
0.0
  0
LINE
  5
5564
  8
AM_0
 10
399.60760826995238
 20
590.67935448298113
 30
0.0
 11
399.60760826995238
 21
440.67935448298113
 31
0.0
  0
LINE
  5
5565
  8
AM_0
 10
403.6076682699524
 20
585.67942448298129
 30
0.0
 11
403.6076682699524
 21
445.67935448298113
 31
0.0
  0
LINE
  5
5566
  8
AM_0
 10
391.53784826995252
 20
590.39759448298105
 30
0.0
 11
399.6076682699524
 21
590.67939448298114
 31
0.0
  0
LINE
  5
5567
  8
AM_0
 10
376.6076682699524
 20
579.91049448298111
 30
0.0
 11
376.6076682699524
 21
451.46579448298058
 31
0.0
  0
ARC
  5
5568
  8
AM_0
 10
311.1076682699524
 20
578.57431448298121
 30
0.0
 40
1.0
 50
0.0
 51
88.499997000000647
  0
ARC
  5
5569
  8
AM_0
 10
311.1076682699524
 20
452.7844944829809
 30
0.0
 40
1.0
 50
271.49999999999937
 51
0.0
  0
ARC
  5
556A
  8
AM_0
 10
319.23278826995238
 20
474.17911448298111
 30
0.0
 40
10.0
 50
270.0
 51
280.00001000000128
  0
ARC
  5
556B
  8
AM_0
 10
319.23278826995238
 20
557.17969448298095
 30
0.0
 40
10.0
 50
79.999998000001099
 51
90.000003000000945
  0
ARC
  5
556C
  8
AM_0
 10
391.60766826995251
 20
442.9599944829809
 30
0.0
 40
2.0
 50
179.999989999999
 51
268.00000999999861
  0
ARC
  5
556D
  8
AM_0
 10
391.60766826995251
 20
475.23899448298113
 30
0.0
 40
2.0
 50
88.485353000001084
 51
180.00001000000091
  0
ARC
  5
556E
  8
AM_0
 10
391.60766826995251
 20
456.17935448298118
 30
0.0
 40
3.0
 50
270.0
 51
0.0
  0
ARC
  5
556F
  8
AM_0
 10
386.60760826995249
 20
443.2687744829812
 30
0.0
 40
3.0
 50
0.0
 51
87.999999999999503
  0
ARC
  5
5570
  8
AM_0
 10
381.60760826995238
 20
451.44828448298119
 30
0.0
 40
5.0
 50
179.999989999999
 51
268.00000999999861
  0
ARC
  5
5571
  8
AM_0
 10
391.60766826995251
 20
588.39878448298089
 30
0.0
 40
2.0
 50
91.999998000000545
 51
180.00001000000091
  0
ARC
  5
5572
  8
AM_0
 10
391.60766826995251
 20
575.17942448298095
 30
0.0
 40
3.0
 50
0.0
 51
90.000003000000945
  0
ARC
  5
5573
  8
AM_0
 10
381.60760826995238
 20
579.91049448298111
 30
0.0
 40
5.0
 50
91.999998000000545
 51
180.00001000000091
  0
ARC
  5
5574
  8
AM_0
 10
386.60760826995249
 20
588.09000448298127
 30
0.0
 40
3.0
 50
272.00000000000051
 51
0.0
  0
ARC
  5
5575
  8
AM_0
 10
391.60766826995251
 20
556.11978448298112
 30
0.0
 40
2.0
 50
179.999989999999
 51
271.51463999999908
  0
TEXT
  5
5908
  8
AM_0
 10
497.8802260967683
 20
522.67796818103704
 30
0.0
 40
10.0
  1
VX04-005BFW~VX04-010BFW
  0
ENDSEC
  0
EOF
