  0
SECTION
  2
HEADER
  9
$ACADVER
  1
AC1009
  9
$INSBASE
 10
0.0
 20
0.0
 30
0.0
  9
$EXTMIN
 10
75.314188171078285
 20
139.94943744140181
 30
-250.41841640509659
  9
$EXTMAX
 10
750.31579013613009
 20
598.68172450619454
 30
8206587.2096418813
  9
$LIMMIN
 10
0.0
 20
0.0
  9
$LIMMAX
 10
853.5
 20
555.00000000000011
  9
$ORTHOMODE
 70
     0
  9
$REGENMODE
 70
     1
  9
$FILLMODE
 70
     1
  9
$QTEXTMODE
 70
     0
  9
$MIRRTEXT
 70
     1
  9
$DRAGMODE
 70
     2
  9
$LTSCALE
 40
3.0
  9
$OSMODE
 70
   551
  9
$ATTMODE
 70
     1
  9
$TEXTSIZE
 40
2.5
  9
$TRACEWID
 40
1.0
  9
$TEXTSTYLE
  7
STANDARD
  9
$CLAYER
  8
AM_0
  9
$CELTYPE
  6
BYLAYER
  9
$CECOLOR
 62
   256
  9
$DIMSCALE
 40
1.0
  9
$DIMASZ
 40
2.5
  9
$DIMEXO
 40
1.0
  9
$DIMDLI
 40
8.0
  9
$DIMRND
 40
0.0
  9
$DIMDLE
 40
0.0
  9
$DIMEXE
 40
0.6
  9
$DIMTP
 40
0.1
  9
$DIMTM
 40
0.1
  9
$DIMTXT
 40
2.5
  9
$DIMCEN
 40
0.0
  9
$DIMTSZ
 40
0.0
  9
$DIMTOL
 70
     0
  9
$DIMLIM
 70
     0
  9
$DIMTIH
 70
     0
  9
$DIMTOH
 70
     0
  9
$DIMSE1
 70
     0
  9
$DIMSE2
 70
     0
  9
$DIMTAD
 70
     1
  9
$DIMZIN
 70
     8
  9
$DIMBLK
  1

  9
$DIMASO
 70
     1
  9
$DIMSHO
 70
     1
  9
$DIMPOST
  1

  9
$DIMAPOST
  1
"
  9
$DIMALT
 70
     0
  9
$DIMALTD
 70
     2
  9
$DIMALTF
 40
0.0393701
  9
$DIMLFAC
 40
1.0
  9
$DIMTOFL
 70
     1
  9
$DIMTVP
 40
0.0
  9
$DIMTIX
 70
     0
  9
$DIMSOXD
 70
     0
  9
$DIMSAH
 70
     0
  9
$DIMBLK1
  1

  9
$DIMBLK2
  1

  9
$DIMSTYLE
  2
AM_ISO
  9
$DIMCLRD
 70
   256
  9
$DIMCLRE
 70
   256
  9
$DIMCLRT
 70
     4
  9
$DIMTFAC
 40
0.71
  9
$DIMGAP
 40
0.8
  9
$LUNITS
 70
     2
  9
$LUPREC
 70
     2
  9
$SKETCHINC
 40
1.0
  9
$FILLETRAD
 40
15.0
  9
$AUNITS
 70
     0
  9
$AUPREC
 70
     0
  9
$MENU
  1
.
  9
$ELEVATION
 40
0.0
  9
$PELEVATION
 40
0.0
  9
$THICKNESS
 40
0.0
  9
$LIMCHECK
 70
     0
  9
$BLIPMODE
 70
     0
  9
$CHAMFERA
 40
6.0
  9
$CHAMFERB
 40
3.0
  9
$SKPOLY
 70
     0
  9
$TDCREATE
 40
2452065.7887456599
  9
$TDUPDATE
 40
2458541.6150241899
  9
$TDINDWG
 40
0.1230565509
  9
$TDUSRTIMER
 40
0.1230565394
  9
$USRTIMER
 70
     1
  9
$ANGBASE
 50
0.0
  9
$ANGDIR
 70
     0
  9
$PDMODE
 70
     0
  9
$PDSIZE
 40
0.0
  9
$PLINEWID
 40
0.0
  9
$COORDS
 70
     1
  9
$SPLFRAME
 70
     0
  9
$SPLINETYPE
 70
     6
  9
$SPLINESEGS
 70
     8
  9
$ATTDIA
 70
     1
  9
$ATTREQ
 70
     1
  9
$HANDLING
 70
     1
  9
$HANDSEED
  5
6F39
  9
$SURFTAB1
 70
     6
  9
$SURFTAB2
 70
     6
  9
$SURFTYPE
 70
     6
  9
$SURFU
 70
     6
  9
$SURFV
 70
     6
  9
$UCSNAME
  2

  9
$UCSORG
 10
0.0
 20
0.0
 30
0.0
  9
$UCSXDIR
 10
1.0
 20
0.0
 30
0.0
  9
$UCSYDIR
 10
0.0
 20
1.0
 30
0.0
  9
$PUCSNAME
  2

  9
$PUCSORG
 10
0.0
 20
0.0
 30
0.0
  9
$PUCSXDIR
 10
1.0
 20
0.0
 30
0.0
  9
$PUCSYDIR
 10
0.0
 20
1.0
 30
0.0
  9
$USERI1
 70
     0
  9
$USERI2
 70
     0
  9
$USERI3
 70
     0
  9
$USERI4
 70
     0
  9
$USERI5
 70
     0
  9
$USERR1
 40
0.0
  9
$USERR2
 40
0.0
  9
$USERR3
 40
0.0
  9
$USERR4
 40
0.0
  9
$USERR5
 40
0.0
  9
$WORLDVIEW
 70
     1
  9
$SHADEDGE
 70
     3
  9
$SHADEDIF
 70
    70
  9
$TILEMODE
 70
     1
  9
$MAXACTVP
 70
    64
  9
$PLIMCHECK
 70
     0
  9
$PEXTMIN
 10
1.0000000000000000E+020
 20
1.0000000000000000E+020
 30
1.0000000000000000E+020
  9
$PEXTMAX
 10
-1.0000000000000000E+020
 20
-1.0000000000000000E+020
 30
-1.0000000000000000E+020
  9
$PLIMMIN
 10
0.0
 20
0.0
  9
$PLIMMAX
 10
420.0
 20
297.0
  9
$UNITMODE
 70
     0
  9
$VISRETAIN
 70
     1
  9
$PLINEGEN
 70
     0
  9
$PSLTSCALE
 70
     1
  0
ENDSEC
  0
SECTION
  2
TABLES
  0
TABLE
  2
VPORT
 70
     1
  0
VPORT
  2
*ACTIVE
 70
     0
 10
0.0
 20
0.0
 11
1.0
 21
1.0
 12
412.81498915360407
 22
369.31558097379821
 13
0.0
 23
0.0
 14
7.5
 24
7.5
 15
30.0
 25
30.0
 16
0.0
 26
0.0
 36
1.0
 17
0.0
 27
0.0
 37
0.0
 40
461.88147896683921
 41
1.7571592210767459
 42
50.0
 43
0.0
 44
0.0
 50
0.0
 51
0.0
 71
     0
 72
   100
 73
     1
 74
     3
 75
     0
 76
     0
 77
     0
 78
     0
  0
ENDTAB
  0
TABLE
  2
LTYPE
 70
    26
  0
LTYPE
  2
CONTINUOUS
 70
     0
  3
Solid line
 72
    65
 73
     0
 40
0.0
  0
LTYPE
  2
AM_ISO02W050
 70
     0
  3
__ __ __ __ __ __ __ __ __ __ __ __ __ __ __
 72
    65
 73
     2
 40
7.5
 49
6.0
 49
-1.5
  0
LTYPE
  2
AM_ISO08W050
 70
     0
  3
____ . ____ . ____ . ____ . ____ . ____ . ____
 72
    65
 73
     4
 40
18.0
 49
12.0
 49
-1.5
 49
3.0
 49
-1.5
  0
LTYPE
  2
AM_ISO09W050
 70
     0
  3
_____ . . _____ . . _____ . . ____ .. ____
 72
    65
 73
     6
 40
22.5
 49
12.0
 49
-1.5
 49
3.0
 49
-1.5
 49
3.0
 49
-1.5
  0
LTYPE
  2
AMCONSTR
 70
     0
  3
_______________________
 72
    65
 73
     2
 40
9999.0
 49
9999.0
 49
0.0
  0
LTYPE
  2
AM_ISO08W050X2
 70
     0
  3
__ . __ . __ . __ . __ . __
 72
    65
 73
     4
 40
9.0
 49
6.0
 49
-0.75
 49
1.5
 49
-0.75
  0
LTYPE
  2
AM_ISO02W050X2
 70
     0
  3
 _ _ _ _ _ _ _ _ _ _ _ _
 72
    65
 73
     2
 40
3.75
 49
3.0
 49
-0.75
  0
LTYPE
  2
AMZIGZAG
 70
     0
  3
/\/-/\/-/\/-/\/-/\/-/\/
 72
    65
 73
     2
 40
11.0001
 49
0.0001
 49
-11.0
  0
LTYPE
  2
ACISOWELD
 70
     0
  3
_ _ _ _ _
 72
    65
 73
     2
 40
2.0
 49
2.0
 49
-1.0
  0
LTYPE
  2
ACISOTGB
 70
     0
  3
__ . . __ . .
 72
    65
 73
     6
 40
9.0
 49
4.0
 49
-1.0
 49
1.0
 49
-1.0
 49
1.0
 49
-1.0
  0
LTYPE
  2
ACISOTGL
 70
     0
  3
_ _ _ _ _
 72
    65
 73
     2
 40
3.0
 49
2.0
 49
-1.0
  0
LTYPE
  2
CENTER
 70
     0
  3
__ . __
 72
    65
 73
     4
 40
7.0
 49
4.0
 49
-1.0
 49
1.0
 49
-1.0
  0
LTYPE
  2
HIDDEN
 70
     0
  3
Hidden __ __ __ __ __ __ __ __ __ __ __ __ __ _
 72
    65
 73
     2
 40
9.5249999999999986
 49
6.3499999999999979
 49
-3.174999999999998
  0
LTYPE
  2
PHANTOM2
 70
     0
  3
Phantom (.5x) ___ _ _ ___ _ _ ___ _ _ ___ _ _
 72
    65
 73
     6
 40
31.75
 49
15.875
 49
-3.174999999999998
 49
3.174999999999998
 49
-3.174999999999998
 49
3.174999999999998
 49
-3.174999999999998
  0
LTYPE
  2
ACANSTGBM
 70
     0
  3
__ . . __ . .
 72
    65
 73
     6
 40
9.0
 49
4.0
 49
-1.0
 49
1.0
 49
-1.0
 49
1.0
 49
-1.0
  0
LTYPE
  2
ACANSTGLM
 70
     0
  3
_ _ _ _ _
 72
    65
 73
     2
 40
3.0
 49
2.0
 49
-1.0
  0
LTYPE
  2
GEN7
 70
     0
  3
____ . ____ . ____ . ____ . ____ . ____ . ____
 72
    65
 73
     4
 40
14.25
 49
9.75
 49
-1.5
 49
1.5
 49
-1.5
  0
LTYPE
  2
GEN7A
 70
     0
  3
__ . __ . __
 72
    65
 73
     4
 40
7.375
 49
4.75
 49
-0.875
 49
0.875
 49
-0.875
  0
LTYPE
  2
ACJISTGB
 70
     0
  3
__ . . __ . .
 72
    65
 73
     6
 40
9.0
 49
4.0
 49
-1.0
 49
1.0
 49
-1.0
 49
1.0
 49
-1.0
  0
LTYPE
  2
ACJISTGL
 70
     0
  3
_ _ _ _ _
 72
    65
 73
     2
 40
3.0
 49
2.0
 49
-1.0
  0
LTYPE
  2
CENTER2
 70
     0
  3
Center (.5x) ___ _ ___ _ ___ _ ___ _ ___ _ ___
 72
    65
 73
     4
 40
1.125
 49
0.75
 49
-0.125
 49
0.125
 49
-0.125
  0
LTYPE
  2
HIDDEN2
 70
     0
  3
Hidden (.5x) _ _ _ _ _ _ _ _ _ _ _ _ _ _ _ _ _
 72
    65
 73
     2
 40
0.1875
 49
0.125
 49
-0.0625
  0
LTYPE
  2
AMZIGZAG2
 70
     0
  3
/\/-/\/-/\/-/\/-/\/-/\/
 72
    65
 73
     2
 40
0.4401
 49
0.0001
 49
-0.4400000000000001
  0
LTYPE
  2
ACANSTGB
 70
     0
  3
__ . . __ . .
 72
    65
 73
     6
 40
0.35433070866
 49
0.15748031496
 49
-0.03937007874
 49
0.03937007874
 49
-0.03937007874
 49
0.03937007874
 49
-0.03937007874
  0
LTYPE
  2
ACANSTGL
 70
     0
  3
_ _ _ _ _
 72
    65
 73
     2
 40
0.11811023622
 49
0.07874015748
 49
-0.03937007874
  0
ENDTAB
  0
TABLE
  2
LAYER
 70
     7
  0
LAYER
  2
0
 70
     0
 62
     7
  6
CONTINUOUS
  0
LAYER
  2
AM_0
 70
     0
 62
     7
  6
CONTINUOUS
  0
LAYER
  2
AM_5
 70
     0
 62
     2
  6
CONTINUOUS
  0
LAYER
  2
DEFPOINTS
 70
     0
 62
     7
  6
CONTINUOUS
  0
LAYER
  2
ﾁｭｳｼﾝｾﾝ
 70
     0
 62
     1
  6
GEN7
  0
LAYER
  2
ﾁｭｳｼﾝｾﾝ1
 70
     0
 62
     1
  6
GEN7A
  0
LAYER
  2
AM_0N
 70
     0
 62
     7
  6
CONTINUOUS
  0
ENDTAB
  0
TABLE
  2
STYLE
 70
    10
  0
STYLE
  2
STANDARD
 70
     0
 40
0.0
 41
0.8299999999999999
 50
0.0
 71
     0
 42
2.5
  3
txt.shx
  4
bigfont.shx
  0
STYLE
  2
ANNOTATIVE
 70
     0
 40
0.0
 41
1.0
 50
0.0
 71
     0
 42
0.2
  3
txt
  4

  0
STYLE
  2

 70
     1
 40
0.0
 41
1.0
 50
0.0
 71
     0
 42
2.5
  3
ltypeshp.shx
  4

  0
STYLE
  2
ACISOTS
 70
     0
 40
1.0
 41
1.0
 50
0.0
 71
     0
 42
2.5
  3
isocp.shx
  4
extfont.shx
  0
STYLE
  2
ACISOGDT
 70
     0
 40
0.0
 41
1.0
 50
0.0
 71
     0
 42
2.5
  3
amgdt.shx
  4

  0
STYLE
  2
ACANSTS
 70
     0
 40
1.0
 41
1.0
 50
0.0
 71
     0
 42
2.5
  3
romans.shx
  4
bigfont.shx
  0
STYLE
  2
ACANSGDT
 70
     0
 40
0.0
 41
1.0
 50
0.0
 71
     0
 42
2.5
  3
amgdt.shx
  4

  0
STYLE
  2
ACJISTS
 70
     0
 40
1.0
 41
1.0
 50
0.0
 71
     0
 42
2.5
  3
isocp.shx
  4
bigfont.shx
  0
STYLE
  2
ACJISGDT
 70
     0
 40
0.0
 41
1.0
 50
0.0
 71
     0
 42
2.5
  3
amgdt.shx
  4

  0
STYLE
  2

 70
     1
 40
0.0
 41
1.0
 50
0.0
 71
     0
 42
2.5
  3
genltshp.shx
  4

  0
ENDTAB
  0
TABLE
  2
VIEW
 70
     6
  0
VIEW
  2
AM_VIEW1
 70
     0
 40
277.50000000000011
 10
249.64779005524869
 20
416.25
 41
499.29558011049721
 11
0.0
 21
0.0
 31
1.0
 12
0.0
 22
0.0
 32
0.0
 42
50.0
 43
0.0
 44
0.0
 50
0.0
 71
     0
  0
VIEW
  2
AM_VIEW2
 70
     0
 40
277.50000000000011
 10
603.85220994475117
 20
416.25
 41
499.29558011049721
 11
0.0
 21
0.0
 31
1.0
 12
0.0
 22
0.0
 32
0.0
 42
50.0
 43
0.0
 44
0.0
 50
0.0
 71
     0
  0
VIEW
  2
AM_VIEW3
 70
     0
 40
277.50000000000011
 10
249.64779005524869
 20
138.75
 41
499.29558011049721
 11
0.0
 21
0.0
 31
1.0
 12
0.0
 22
0.0
 32
0.0
 42
50.0
 43
0.0
 44
0.0
 50
0.0
 71
     0
  0
VIEW
  2
AM_VIEW4
 70
     0
 40
277.50000000000011
 10
603.85220994475117
 20
138.75
 41
499.29558011049721
 11
0.0
 21
0.0
 31
1.0
 12
0.0
 22
0.0
 32
0.0
 42
50.0
 43
0.0
 44
0.0
 50
0.0
 71
     0
  0
VIEW
  2
AM_VIEW5
 70
     0
 40
277.50000000000011
 10
426.75
 20
277.50000000000011
 41
499.2955801104971
 11
0.0
 21
0.0
 31
1.0
 12
0.0
 22
0.0
 32
0.0
 42
50.0
 43
0.0
 44
0.0
 50
0.0
 71
     0
  0
VIEW
  2
AM_VIEW6
 70
     0
 40
554.99445000000014
 10
426.75
 20
277.5
 41
998.5811743093924
 11
0.0
 21
0.0
 31
1.0
 12
0.0
 22
0.0
 32
0.0
 42
50.0
 43
0.0
 44
0.0
 50
0.0
 71
     0
  0
ENDTAB
  0
TABLE
  2
UCS
 70
     0
  0
ENDTAB
  0
TABLE
  2
APPID
 70
    98
  0
APPID
  2
ACAD
 70
     0
  0
APPID
  2
ACADANNOTATIVE
 70
     0
  0
APPID
  2
MCAD_NO_VIS
 70
     0
  0
APPID
  2
ACAD_TEMP_GRAPHIC
 70
     0
  0
APPID
  2
ACATTRIBSERVICES
 70
     0
  0
APPID
  2
GENIUS_GENREC_14
 70
     0
  0
APPID
  2
GENIUS_GENOBJ-N-REC_13
 70
     0
  0
APPID
  2
GENIUS_GENODEF_13
 70
     0
  0
APPID
  2
GENIUS_GENOLIS_13
 70
     0
  0
APPID
  2
GENIUS_GENOBJ-N-TIT_13
 70
     0
  0
APPID
  2
GENIUS_GENOENT_13
 70
     0
  0
APPID
  2
GENIUS_GENTITLE_13
 70
     0
  0
APPID
  2
GENIUS_GENOREF_13
 70
     0
  0
APPID
  2
GENIUS_GENSCREG_15
 70
     0
  0
APPID
  2
GENIUS_GENOBJ-N-SDF_13
 70
     0
  0
APPID
  2
GENIUS_GENFIL_13
 70
     0
  0
APPID
  2
GENIUS_GENOBJ-N-CHA_13
 70
     0
  0
APPID
  2
GENIUS_GENDTOL_13
 70
     0
  0
APPID
  2
GENIUS_GENOBJ-N-FIL_13
 70
     0
  0
APPID
  2
AD_DRAW
 70
     0
  0
APPID
  2
DESIGNERASSEMBLIES
 70
     0
  0
APPID
  2
ASURF_PCURVE_APPNAME
 70
     0
  0
APPID
  2
GENIUS_GE3SECT_13
 70
     0
  0
APPID
  2
GENIUS_GENCFG_13
 70
     0
  0
APPID
  2
GENIUS_GE3CFG0_13
 70
     0
  0
APPID
  2
GENIUS_GENCFG0_13
 70
     0
  0
APPID
  2
GENIUS_GENCFG1_13
 70
     0
  0
APPID
  2
GENIUS_GENCFG2_13
 70
     0
  0
APPID
  2
GENIUS_GENCFG3_13
 70
     0
  0
APPID
  2
GENIUS_GENCFG4_13
 70
     0
  0
APPID
  2
GENIUS_GEVCFG0_13
 70
     0
  0
APPID
  2
GENIUS_GENHINW_13
 70
     0
  0
APPID
  2
GENIUS_FIRSTVISTXT_14
 70
     0
  0
APPID
  2
GENIUS_GENOBJ-N-LEADER_13
 70
     0
  0
APPID
  2
GEV_VCCNULL_SWITCH_OFF
 70
     0
  0
APPID
  2
GENIUS_GEFCFG0_13
 70
     0
  0
APPID
  2
GENIUS_GENZVEED_13
 70
     0
  0
APPID
  2
GENIUS_GENSCREG_13
 70
     0
  0
APPID
  2
GENIUS_DUMCFG0_13
 70
     0
  0
APPID
  2
GEVID936201362
 70
     0
  0
APPID
  2
GEVDC
 70
     0
  0
APPID
  2
GEVCON
 70
     0
  0
APPID
  2
VCC
 70
     0
  0
APPID
  2
GEVPT
 70
     0
  0
APPID
  2
GEVIT
 70
     0
  0
APPID
  2
GENBH
 70
     0
  0
APPID
  2
GEVMK
 70
     0
  0
APPID
  2
GENIUS_GENBH_13
 70
     0
  0
APPID
  2
GENIUS_GENOBJ-NBEHI-BHF_13
 70
     0
  0
APPID
  2
GENIUS_GENOBJ-NBEHI-BHB_13
 70
     0
  0
APPID
  2
GENIUS_GENOBJ-F-DESC_13
 70
     0
  0
APPID
  2
GENIUS_GEFDESC_14
 70
     0
  0
APPID
  2
GENIUS_GENOBJ-F-PART_13
 70
     0
  0
APPID
  2
GENIUS_GEFSTDP_13
 70
     0
  0
APPID
  2
GENIUS_GEFPARTINS_13
 70
     0
  0
APPID
  2
GENIUS_GENTRA_14
 70
     0
  0
APPID
  2
GENIUS_GENINF13_13
 70
     0
  0
APPID
  2
GENIUS_GENOBJ-N-INFOPT_13
 70
     0
  0
APPID
  2
GENIUS_GENOBJ-N-RSSYM_13
 70
     0
  0
APPID
  2
GENIUS_GENSYMENT_13
 70
     0
  0
APPID
  2
GENIUS_GENSCSYM_13
 70
     0
  0
APPID
  2
GENIUS_GEFINFNAM_13
 70
     0
  0
APPID
  2
GENIUS_GENOBJ-N-CEN_13
 70
     0
  0
APPID
  2
GENIUS_GENOBJ-N-CRS_13
 70
     0
  0
APPID
  2
GENIUS_GENOBJ-N-CRC_13
 70
     0
  0
APPID
  2
GENIUS_GENCRC_14
 70
     0
  0
APPID
  2
GEVID942827039
 70
     0
  0
APPID
  2
GEVID942827040
 70
     0
  0
APPID
  2
GEVID942827041
 70
     0
  0
APPID
  2
GENIUS_GENOBJ-F-SCPASSM_13
 70
     0
  0
APPID
  2
GENIUS_GENDIMSH_14
 70
     0
  0
APPID
  2
GEVID942827042
 70
     0
  0
APPID
  2
GEVID946020473
 70
     0
  0
APPID
  2
GEVID946020474
 70
     0
  0
APPID
  2
GEVID946020475
 70
     0
  0
APPID
  2
GENIUS_GENOBJ-N-HTC_13
 70
     0
  0
APPID
  2
GENIUS_GENHATCH_13
 70
     0
  0
APPID
  2
GEVID948854295
 70
     0
  0
APPID
  2
GEVID939402019
 70
     0
  0
APPID
  2
GEVID952919491
 70
     0
  0
APPID
  2
GEVID952919492
 70
     0
  0
APPID
  2
GENIUS_GEFWELD_13
 70
     0
  0
APPID
  2
GENIUS_GENOBJ-F-WELS_13
 70
     0
  0
APPID
  2
GEVID952919493
 70
     0
  0
APPID
  2
GENIUS_GENOBJ-N-RSBK_13
 70
     0
  0
APPID
  2
GENIUS_GENOBJ-N-LIB_13
 70
     0
  0
APPID
  2
GENIUS_GENSCALE_13
 70
     0
  0
APPID
  2
GEVID986376691
 70
     0
  0
APPID
  2
DCO15
 70
     0
  0
APPID
  2
ACADM_DIM_EDIT
 70
     0
  0
APPID
  2
AMDT_DM_ADJ
 70
     0
  0
APPID
  2
ACAD_PSEXT
 70
     0
  0
APPID
  2
ACAD_DSTYLE_DIMJAG
 70
     0
  0
APPID
  2
ACAD_DSTYLE_DIMBREAK
 70
     0
  0
APPID
  2
ACAD_NAV_VCDISPLAY
 70
     0
  0
APPID
  2
ACADANNOPO
 70
     0
  0
APPID
  2
ACAD_EXEMPT_FROM_CAD_STANDARDS
 70
     0
  0
APPID
  2
ACAD_MLEADERVER
 70
     0
  0
ENDTAB
  0
TABLE
  2
DIMSTYLE
 70
    22
  0
DIMSTYLE
  2
STANDARD
 70
     0
  3

  4

  5

  6

  7

 40
1.0
 41
0.18
 42
0.0625
 43
0.38
 44
0.18
 45
0.0
 46
0.0
 47
0.0
 48
0.0
140
0.18
141
0.09
142
0.0
143
25.399999999999999
144
1.0
145
0.0
146
1.0
147
0.09
 71
     0
 72
     0
 73
     1
 74
     1
 75
     0
 76
     0
 77
     0
 78
     0
170
     0
171
     2
172
     0
173
     0
174
     0
175
     0
176
     0
177
     0
178
     0
  0
DIMSTYLE
  2
ANNOTATIVE
 70
     0
  3

  4

  5

  6

  7

 40
1.0
 41
0.18
 42
0.0625
 43
0.38
 44
0.18
 45
0.0
 46
0.0
 47
0.0
 48
0.0
140
0.18
141
0.09
142
0.0
143
25.399999999999999
144
1.0
145
0.0
146
1.0
147
0.09
 71
     0
 72
     0
 73
     1
 74
     1
 75
     0
 76
     0
 77
     0
 78
     0
170
     0
171
     2
172
     0
173
     0
174
     0
175
     0
176
     0
177
     0
178
     0
  0
DIMSTYLE
  2
AM_ISO
 70
     0
  3

  4
"
  5

  6

  7

 40
1.0
 41
2.5
 42
1.0
 43
8.0
 44
0.6
 45
0.0
 46
0.0
 47
0.1
 48
0.1
140
2.5
141
0.0
142
0.0
143
0.0393701
144
1.0
145
0.0
146
0.71
147
0.8
 71
     0
 72
     0
 73
     0
 74
     0
 75
     0
 76
     0
 77
     1
 78
     8
170
     0
171
     2
172
     1
173
     0
174
     0
175
     0
176
   256
177
   256
178
     4
  0
DIMSTYLE
  2
AM_ISO$3
 70
     0
  3

  4
"
  5

  6

  7

 40
1.0
 41
2.5
 42
1.0
 43
8.0
 44
0.6
 45
0.0
 46
0.0
 47
0.1
 48
0.1
140
2.5
141
0.0
142
0.0
143
0.0393701
144
1.0
145
0.0
146
0.71
147
0.8
 71
     0
 72
     0
 73
     0
 74
     1
 75
     0
 76
     0
 77
     1
 78
     8
170
     0
171
     2
172
     0
173
     0
174
     0
175
     0
176
   256
177
   256
178
     4
  0
DIMSTYLE
  2
AM_ISO$4
 70
     0
  3

  4
"
  5

  6

  7

 40
1.0
 41
2.5
 42
1.0
 43
8.0
 44
0.6
 45
0.0
 46
0.0
 47
0.1
 48
0.1
140
2.5
141
0.0
142
0.0
143
0.0393701
144
1.0
145
0.0
146
0.71
147
0.8
 71
     0
 72
     0
 73
     0
 74
     1
 75
     0
 76
     0
 77
     1
 78
     8
170
     0
171
     2
172
     0
173
     0
174
     0
175
     0
176
   256
177
   256
178
     4
  0
DIMSTYLE
  2
AM_ISO$6
 70
     0
  3

  4
"
  5

  6

  7

 40
1.0
 41
2.5
 42
1.0
 43
8.0
 44
0.6
 45
0.0
 46
0.0
 47
0.1
 48
0.1
140
2.5
141
0.0
142
0.0
143
0.0393701
144
1.0
145
0.0
146
0.71
147
0.8
 71
     0
 72
     0
 73
     0
 74
     0
 75
     0
 76
     0
 77
     0
 78
     8
170
     0
171
     2
172
     1
173
     0
174
     0
175
     0
176
   256
177
   256
178
     4
  0
DIMSTYLE
  2
AM_ISO$7
 70
     0
  3

  4
"
  5

  6

  7

 40
1.0
 41
2.5
 42
1.0
 43
8.0
 44
0.6
 45
0.0
 46
0.0
 47
0.1
 48
0.1
140
2.5
141
0.0
142
0.0
143
0.0393701
144
1.0
145
0.0
146
0.71
147
0.8
 71
     0
 72
     0
 73
     0
 74
     0
 75
     0
 76
     0
 77
     1
 78
     8
170
     0
171
     2
172
     1
173
     0
174
     0
175
     0
176
   256
177
   256
178
     4
  0
DIMSTYLE
  2
AM_ISO$SF
 70
     0
  3

  4
"
  5

  6

  7

 40
1.0
 41
2.5
 42
1.0
 43
10.0
 44
1.0
 45
0.0
 46
0.0
 47
0.1
 48
0.1
140
3.5
141
0.0
142
0.0
143
0.0393701
144
1.0
145
0.0
146
0.71
147
1.5
 71
     0
 72
     0
 73
     0
 74
     0
 75
     1
 76
     1
 77
     1
 78
     8
170
     0
171
     2
172
     1
173
     0
174
     0
175
     0
176
   256
177
   256
178
     2
  0
DIMSTYLE
  2
AM_ISO$SH
 70
     0
  3

  4
"
  5

  6

  7

 40
1.0
 41
2.5
 42
1.0
 43
10.0
 44
1.0
 45
0.0
 46
0.0
 47
0.1
 48
0.1
140
3.5
141
0.0
142
0.0
143
0.0393701
144
2.0
145
0.0
146
0.71
147
1.5
 71
     0
 72
     0
 73
     0
 74
     0
 75
     1
 76
     1
 77
     1
 78
     8
170
     0
171
     2
172
     1
173
     1
174
     0
175
     0
176
   256
177
   256
178
     2
  0
DIMSTYLE
  2
AM_JIS
 70
     0
  3

  4
"
  5

  6

  7

 40
1.0
 41
2.5
 42
1.0
 43
7.0
 44
1.0
 45
0.0
 46
0.0
 47
0.1
 48
0.1000000001
140
2.5
141
0.0
142
0.0
143
0.0393701
144
1.0
145
0.0
146
0.71
147
1.0
 71
     0
 72
     0
 73
     0
 74
     0
 75
     0
 76
     0
 77
     3
 78
     8
170
     0
171
     2
172
     1
173
     0
174
     0
175
     0
176
   256
177
   256
178
     4
  0
DIMSTYLE
  2
AM_JIS$3
 70
     0
  3

  4
"
  5

  6

  7

 40
1.0
 41
2.5
 42
1.0
 43
7.0
 44
1.0
 45
0.0
 46
0.0
 47
0.1
 48
0.1000000001
140
2.5
141
0.0
142
0.0
143
0.0393701
144
1.0
145
0.0
146
0.71
147
1.0
 71
     0
 72
     0
 73
     0
 74
     1
 75
     0
 76
     0
 77
     3
 78
     8
170
     0
171
     2
172
     0
173
     0
174
     0
175
     0
176
   256
177
   256
178
     4
  0
DIMSTYLE
  2
AM_JIS$4
 70
     0
  3

  4
"
  5

  6

  7

 40
1.0
 41
2.5
 42
1.0
 43
7.0
 44
1.0
 45
0.0
 46
0.0
 47
0.1
 48
0.1000000001
140
2.5
141
0.0
142
0.0
143
0.0393701
144
1.0
145
0.0
146
0.71
147
1.0
 71
     0
 72
     0
 73
     0
 74
     0
 75
     0
 76
     0
 77
     3
 78
     8
170
     0
171
     2
172
     0
173
     0
174
     0
175
     0
176
   256
177
   256
178
     4
  0
DIMSTYLE
  2
AM_JIS$6
 70
     0
  3

  4
"
  5

  6

  7

 40
1.0
 41
2.5
 42
1.0
 43
7.0
 44
1.0
 45
0.0
 46
0.0
 47
0.1
 48
0.1000000001
140
2.5
141
0.0
142
0.0
143
0.0393701
144
1.0
145
0.0
146
0.71
147
1.0
 71
     0
 72
     0
 73
     0
 74
     0
 75
     0
 76
     0
 77
     0
 78
     8
170
     0
171
     2
172
     1
173
     0
174
     0
175
     0
176
   256
177
   256
178
     4
  0
DIMSTYLE
  2
AM_JIS$7
 70
     0
  3

  4
"
  5

  6

  7

 40
1.0
 41
2.5
 42
1.0
 43
7.0
 44
1.0
 45
0.0
 46
0.0
 47
0.1
 48
0.1000000001
140
2.5
141
0.0
142
0.0
143
0.0393701
144
1.0
145
0.0
146
0.71
147
1.0
 71
     0
 72
     0
 73
     0
 74
     0
 75
     0
 76
     0
 77
     3
 78
     8
170
     0
171
     2
172
     1
173
     0
174
     0
175
     0
176
   256
177
   256
178
     4
  0
DIMSTYLE
  2
AM_JIS$SF
 70
     0
  3

  4
"
  5

  6

  7

 40
1.0
 41
2.5
 42
1.0
 43
10.0
 44
1.0
 45
0.0
 46
0.0
 47
0.1
 48
0.1
140
3.5
141
0.0
142
0.0
143
0.0393701
144
1.0
145
0.0
146
0.71
147
1.5
 71
     0
 72
     0
 73
     0
 74
     0
 75
     1
 76
     1
 77
     3
 78
     8
170
     0
171
     2
172
     1
173
     0
174
     0
175
     0
176
   256
177
   256
178
     4
  0
DIMSTYLE
  2
AM_JIS$SH
 70
     0
  3

  4
"
  5

  6

  7

 40
1.0
 41
2.5
 42
1.0
 43
10.0
 44
1.0
 45
0.0
 46
0.0
 47
0.1
 48
0.1
140
3.5
141
0.0
142
0.0
143
0.0393701
144
1.0
145
0.0
146
0.71
147
1.5
 71
     0
 72
     0
 73
     0
 74
     0
 75
     1
 76
     0
 77
     3
 78
     8
170
     0
171
     2
172
     1
173
     1
174
     0
175
     0
176
   256
177
   256
178
     4
  0
DIMSTYLE
  2
AM_ANSI
 70
     0
  3

  4
mm
  5

  6

  7

 40
1.0
 41
0.12
 42
0.05
 43
0.5
 44
0.1
 45
0.0
 46
0.0
 47
0.1
 48
0.1
140
0.12
141
0.0
142
0.0
143
25.399999999999999
144
1.0
145
0.0
146
0.71
147
0.06
 71
     0
 72
     0
 73
     1
 74
     1
 75
     0
 76
     0
 77
     0
 78
     7
170
     0
171
     2
172
     0
173
     0
174
     0
175
     0
176
   256
177
   256
178
     2
  0
DIMSTYLE
  2
AM_ANSI$3
 70
     0
  3

  4
mm
  5

  6

  7

 40
1.0
 41
0.12
 42
0.05
 43
0.5
 44
0.1
 45
0.0
 46
0.0
 47
0.1
 48
0.1
140
0.12
141
0.0
142
0.0
143
25.399999999999999
144
1.0
145
0.0
146
0.71
147
0.06
 71
     0
 72
     0
 73
     1
 74
     1
 75
     0
 76
     0
 77
     0
 78
     7
170
     0
171
     2
172
     0
173
     0
174
     0
175
     0
176
   256
177
   256
178
     2
  0
DIMSTYLE
  2
AM_ANSI$4
 70
     0
  3

  4
mm
  5

  6

  7

 40
1.0
 41
0.12
 42
0.05
 43
0.5
 44
0.1
 45
0.0
 46
0.0
 47
0.1
 48
0.1
140
0.12
141
0.0
142
0.0
143
25.399999999999999
144
1.0
145
0.0
146
0.71
147
0.06
 71
     0
 72
     0
 73
     1
 74
     1
 75
     0
 76
     0
 77
     0
 78
     7
170
     0
171
     2
172
     0
173
     0
174
     0
175
     0
176
   256
177
   256
178
     2
  0
DIMSTYLE
  2
AM_ANSI$7
 70
     0
  3

  4
mm
  5

  6

  7

 40
1.0
 41
0.12
 42
0.05
 43
0.5
 44
0.1
 45
0.0
 46
0.0
 47
0.1
 48
0.1
140
0.12
141
0.0
142
0.0
143
25.399999999999999
144
1.0
145
0.0
146
0.71
147
0.06
 71
     0
 72
     0
 73
     1
 74
     1
 75
     0
 76
     0
 77
     0
 78
     7
170
     0
171
     2
172
     0
173
     0
174
     0
175
     0
176
   256
177
   256
178
     2
  0
DIMSTYLE
  2
AM_ANSI$SF
 70
     0
  3

  4
mm
  5

  6

  7

 40
1.0
 41
0.12
 42
0.05
 43
0.5
 44
0.1
 45
0.0
 46
0.0
 47
0.1
 48
0.1
140
0.12
141
0.0
142
0.0
143
25.399999999999999
144
1.0
145
0.0
146
0.71
147
0.06
 71
     0
 72
     0
 73
     1
 74
     1
 75
     1
 76
     1
 77
     0
 78
     7
170
     0
171
     2
172
     0
173
     0
174
     0
175
     0
176
   256
177
   256
178
     2
  0
DIMSTYLE
  2
AM_ANSI$SH
 70
     0
  3

  4
mm
  5

  6
GENAXEH
  7

 40
1.0
 41
0.12
 42
0.05
 43
0.5
 44
0.1
 45
0.0
 46
0.0
 47
0.1
 48
0.1
140
0.12
141
0.0
142
0.0
143
25.399999999999999
144
1.0
145
0.0
146
0.71
147
0.06
 71
     0
 72
     0
 73
     1
 74
     1
 75
     1
 76
     1
 77
     0
 78
     7
170
     0
171
     2
172
     0
173
     1
174
     0
175
     0
176
   256
177
   256
178
     2
  0
ENDTAB
  0
ENDSEC
  0
SECTION
  2
BLOCKS
  0
BLOCK
  8
0
  2
$MODEL_SPACE
 70
     0
 10
0.0
 20
0.0
 30
0.0
  3
$MODEL_SPACE
  1

  0
ENDBLK
  5
6DB7
  8
0
  0
BLOCK
 67
     1
  8
0
  2
$PAPER_SPACE
 70
     0
 10
0.0
 20
0.0
 30
0.0
  3
$PAPER_SPACE
  1

  0
ENDBLK
  5
6DB3
 67
     1
  8
0
  0
BLOCK
  8
0
  2
GENAXEH
 70
     0
 10
0.0
 20
0.0
 30
0.0
  3
GENAXEH
  1

  0
LINE
  5
73
  8
0
 10
-1.0
 20
0.0
 30
0.0
 11
1.0
 21
0.0
 31
0.0
  0
ENDBLK
  5
75
  8
0
  0
BLOCK
  8
0
  2
_OPEN30
 70
     0
 10
0.0
 20
0.0
 30
0.0
  3
_OPEN30
  1

  0
LINE
  5
31A
  8
0
 62
     0
 10
-1.0
 20
0.26794919
 30
0.0
 11
0.0
 21
0.0
 31
0.0
  0
LINE
  5
31B
  8
0
 62
     0
 10
0.0
 20
0.0
 30
0.0
 11
-1.0
 21
-0.26794919
 31
0.0
  0
LINE
  5
31C
  8
0
 62
     0
 10
0.0
 20
0.0
 30
0.0
 11
-1.0
 21
0.0
 31
0.0
  0
ENDBLK
  5
31E
  8
0
  0
BLOCK
  8
0
  2
_NONE
 70
     0
 10
0.0
 20
0.0
 30
0.0
  3
_NONE
  1

  0
ENDBLK
  5
579
  8
0
  0
BLOCK
  8
0
  2
*U5
 70
     1
 10
0.0
 20
0.0
 30
0.0
  3
*U5
  1

  0
TEXT
  5
6CC2
  8
AM_0
 10
568.01356198795816
 20
507.21775564734429
 30
0.0
 40
10.0
  1
ＶＸ０４－０１５～０３０ＢＦＷ
 41
0.8299999999999999
  0
ENDBLK
  5
6CC4
  8
0
  0
BLOCK
  8
0
  2
_ACMFILLEDHALF
 70
     0
 10
0.0
 20
0.0
 30
0.0
  3
_ACMFILLEDHALF
  1

  0
TRACE
  5
6EB5
  8
AM_0
 62
     0
 10
-0.8
 20
0.0
 30
0.0
 11
-1.0
 21
0.166666666
 31
0.0
 12
0.0
 22
0.0
 32
0.0
 13
0.0
 23
0.0
 33
0.0
  0
LINE
  5
6EB6
  8
AM_0
 62
     0
 10
-1.0
 20
0.0
 30
0.0
 11
-0.8
 21
0.0
 31
0.0
  0
ENDBLK
  5
6EB4
  8
0
  0
ENDSEC
  0
SECTION
  2
ENTITIES
  0
ARC
  5
4E35
  8
AM_0
 10
655.57914922198825
 20
313.25453835967488
 30
0.0
 40
9.9999999999999964
 50
71.805072613309505
 51
90.0
  0
ARC
  5
4E3C
  8
AM_0
 10
655.57914922198825
 20
313.25453835967488
 30
0.0
 40
10.0
 50
90.0
 51
108.19492738669049
  0
LINE
  5
51B5
  8
ﾁｭｳｼﾝｾﾝ1
 10
155.88560576764951
 20
232.7544708596748
 30
0.0
 11
193.86909293322509
 21
232.7544708596748
 31
0.0
  0
LINE
  5
51B6
  8
AM_0
 10
141.36910293322501
 20
275.19691717148328
 30
0.0
 11
141.36910293322501
 21
199.47297195225599
 31
0.0
  0
LINE
  5
51B7
  8
AM_0
 10
141.36910293322501
 20
193.3148949386111
 30
0.0
 11
141.36910293322501
 21
160.31206184546201
 31
0.0
  0
LINE
  5
51B8
  8
AM_0
 10
185.86909293322509
 20
171.40447685967479
 30
0.0
 11
150.869082933225
 21
173.4344778596747
 31
0.0
  0
LINE
  5
51B9
  8
AM_0
 10
185.86909293322509
 20
264.1044858596747
 30
0.0
 11
150.869082933225
 21
262.07447585967469
 31
0.0
  0
LINE
  5
51BA
  8
AM_0
 10
141.36910293322501
 20
160.31206184546201
 30
0.0
 11
143.68909293322511
 21
160.25446685967469
 31
0.0
  0
LINE
  5
51BB
  8
AM_0
 10
288.86914293322508
 20
154.2544818596748
 30
0.0
 11
295.86910293322501
 21
154.2544818596748
 31
0.0
  0
LINE
  5
51BC
  8
AM_0
 10
288.86914293322508
 20
165.71447585967471
 30
0.0
 11
295.86910293322501
 21
165.71447585967471
 31
0.0
  0
LINE
  5
51BD
  8
AM_0
 10
185.86909293322509
 20
171.40447685967479
 30
0.0
 11
287.86909293322498
 21
171.40447685967479
 31
0.0
  0
LINE
  5
51BE
  8
AM_0
 10
287.57911293322519
 20
166.72447085967471
 30
0.0
 11
285.16915293322512
 21
166.72447085967471
 31
0.0
  0
LINE
  5
51BF
  8
AM_0
 10
284.66908293322501
 20
158.8344708596747
 30
0.0
 11
286.10908293322512
 21
165.53446685967481
 31
0.0
  0
LINE
  5
51C0
  8
AM_0
 10
282.5791029332251
 20
157.25448485967479
 30
0.0
 11
287.86909293322498
 21
157.25448485967479
 31
0.0
  0
LINE
  5
51C1
  8
AM_0
 10
145.5490929332251
 20
184.38445985967471
 30
0.0
 11
188.86909293322509
 21
184.38445985967471
 31
0.0
  0
LINE
  5
51C2
  8
AM_0
 10
188.86909293322509
 20
181.7544678596748
 30
0.0
 11
146.41915293322501
 21
181.7544678596748
 31
0.0
  0
LINE
  5
51C3
  8
AM_0
 10
145.5490929332251
 20
181.03448285967471
 30
0.0
 11
188.86909293322509
 21
181.03448285967471
 31
0.0
  0
LINE
  5
51C4
  8
AM_0
 10
141.36910293322501
 20
183.45446585967471
 30
0.0
 11
144.03913293322509
 21
183.45446585967471
 31
0.0
  0
LINE
  5
51C5
  8
AM_0
 10
147.03913293322509
 20
159.4944738596748
 30
0.0
 11
160.36909293322509
 21
159.4944738596748
 31
0.0
  0
LINE
  5
51C6
  8
AM_0
 10
163.86910293322501
 20
155.89446785967471
 30
0.0
 11
280.67908293322512
 21
155.89446785967471
 31
0.0
  0
LINE
  5
51C7
  8
AM_0
 10
146.9790729332251
 20
154.45447985967471
 30
0.0
 11
160.4790729332251
 21
154.45447985967471
 31
0.0
  0
LINE
  5
51C8
  8
AM_0
 10
147.09913293322501
 20
164.7744588596747
 30
0.0
 11
160.36909293322509
 21
164.7744588596747
 31
0.0
  0
LINE
  5
51C9
  8
AM_0
 10
144.58906293322511
 20
169.40447885967461
 30
0.0
 11
145.12909293322511
 21
166.41447185967479
 31
0.0
  0
LINE
  5
51CA
  8
AM_0
 10
141.36910293322501
 20
169.40446385967471
 30
0.0
 11
150.86914293322511
 21
169.40446385967471
 31
0.0
  0
LINE
  5
51CB
  8
AM_0
 10
150.86914293322511
 20
169.40446385967471
 30
0.0
 11
150.86914293322511
 21
183.45446585967471
 31
0.0
  0
LINE
  5
51CC
  8
AM_0
 10
282.60907293322498
 20
157.37447885967481
 30
0.0
 11
286.06909293322508
 21
170.2944768596748
 31
0.0
  0
LINE
  5
51CD
  8
AM_0
 10
145.03906293322521
 20
155.96447585967471
 30
0.0
 11
144.14905293322511
 21
159.50446685967469
 31
0.0
  0
LINE
  5
51CE
  8
AM_0
 10
145.05910293322501
 20
157.62447785967481
 30
0.0
 11
144.13906293322509
 21
161.50448285967471
 31
0.0
  0
LINE
  5
51CF
  8
AM_0
 10
218.86909293322509
 20
153.8444658596747
 30
0.0
 11
218.86909293322509
 21
155.89446785967471
 31
0.0
  0
LINE
  5
51D0
  8
AM_0
 10
161.86909293322509
 20
155.86448285967481
 30
0.0
 11
161.86909293322509
 21
163.2744558596747
 31
0.0
  0
LINE
  5
51D1
  8
AM_0
 10
142.69909293322519
 20
160.63447385967481
 30
0.0
 11
144.34912293322481
 21
160.63447385967481
 31
0.0
  0
LINE
  5
51D2
  8
AM_0
 10
185.86909293322509
 20
264.10445585967477
 30
0.0
 11
287.86909293322498
 21
264.10445585967477
 31
0.0
  0
LINE
  5
51D3
  8
AM_0
 10
287.86909293322498
 20
280.25447585967481
 30
0.0
 11
287.86909293322498
 21
155.25446885967469
 31
0.0
  0
LINE
  5
51D4
  8
AM_0
 10
288.86914293322508
 20
281.25446585967489
 30
0.0
 11
295.86910293322501
 21
281.25446585967489
 31
0.0
  0
LINE
  5
51D5
  8
AM_0
 10
287.86909293322498
 20
254.90446385967471
 30
0.0
 11
295.86910293322501
 21
254.90446385967471
 31
0.0
  0
LINE
  5
51D6
  8
AM_0
 10
288.86914293322508
 20
269.79443585967471
 30
0.0
 11
295.86910293322501
 21
269.79443585967471
 31
0.0
  0
LINE
  5
51D7
  8
AM_0
 10
287.86909293322498
 20
180.60447485967481
 30
0.0
 11
295.86910293322501
 21
180.60447485967481
 31
0.0
  0
LINE
  5
51D8
  8
AM_0
 10
141.36910293322501
 20
275.19691717148322
 30
0.0
 11
143.68903293322509
 21
275.25449585967482
 31
0.0
  0
LINE
  5
51D9
  8
AM_0
 10
150.86914293322511
 20
266.10446585967469
 30
0.0
 11
150.86914293322511
 21
252.06446885967469
 31
0.0
  0
LINE
  5
51DA
  8
AM_0
 10
141.36910293322501
 20
252.06446885967469
 30
0.0
 11
150.86914293322511
 21
252.06446885967469
 31
0.0
  0
LINE
  5
51DB
  8
AM_0
 10
141.36910293322501
 20
260.44448585967478
 30
0.0
 11
150.86914293322511
 21
260.44448585967478
 31
0.0
  0
LINE
  5
51DC
  8
AM_0
 10
141.36910293322501
 20
266.10446585967469
 30
0.0
 11
150.86914293322511
 21
266.10446585967469
 31
0.0
  0
LINE
  5
51DD
  8
AM_0
 10
166.1607712665573
 20
203.7544848596747
 30
0.0
 11
146.41915293322501
 21
203.75448485967479
 31
0.0
  0
LINE
  5
51DE
  8
AM_0
 10
163.86910293322501
 20
279.61448585967469
 30
0.0
 11
280.67908293322512
 21
279.61448585967469
 31
0.0
  0
LINE
  5
51DF
  8
AM_0
 10
147.09913293322501
 20
270.73448585967481
 30
0.0
 11
160.36909293322509
 21
270.73448585967481
 31
0.0
  0
LINE
  5
51E0
  8
AM_0
 10
144.5891229332251
 20
266.10449585967478
 30
0.0
 11
145.12909293322511
 21
269.09450585967471
 31
0.0
  0
LINE
  5
51E1
  8
AM_0
 10
147.03913293322509
 20
276.02444585967493
 30
0.0
 11
160.36909293322509
 21
276.02444585967493
 31
0.0
  0
LINE
  5
51E2
  8
AM_0
 10
147.00910293322511
 20
279.42446585967468
 30
0.0
 11
160.36909293322509
 21
279.42446585967468
 31
0.0
  0
LINE
  5
51E3
  8
AM_0
 10
146.9790729332251
 20
281.05445585967482
 30
0.0
 11
160.4790729332251
 21
281.05445585967482
 31
0.0
  0
LINE
  5
51E4
  8
AM_0
 10
163.86910293322501
 20
283.67447585967471
 30
0.0
 11
216.86914293322511
 21
283.67447585967471
 31
0.0
  0
LINE
  5
51E5
  8
AM_0
 10
163.86910293322501
 20
282.99446585967479
 30
0.0
 11
216.86914293322511
 21
282.99446585967479
 31
0.0
  0
LINE
  5
51E6
  8
AM_0
 10
163.86910293322501
 20
281.64449585967492
 30
0.0
 11
216.86914293322511
 21
281.64449585967492
 31
0.0
  0
LINE
  5
51E7
  8
AM_0
 10
142.65907293322499
 20
268.79447585967478
 30
0.0
 11
145.06909293322499
 21
268.79447585967478
 31
0.0
  0
LINE
  5
51E8
  8
AM_0
 10
145.079052933225
 20
274.44449585967482
 30
0.0
 11
144.1190229332251
 21
269.97449585967479
 31
0.0
  0
LINE
  5
51E9
  8
AM_0
 10
142.67908293322509
 20
272.8544658596748
 30
0.0
 11
144.739152933225
 21
272.8544658596748
 31
0.0
  0
LINE
  5
51EA
  8
AM_0
 10
188.86909293322509
 20
253.7544708596748
 30
0.0
 11
155.41915293322501
 21
253.75447085967471
 31
0.0
  0
LINE
  5
51EB
  8
AM_0
 10
188.86909293322509
 20
251.7544698596748
 30
0.0
 11
155.41915293322501
 21
251.7544698596748
 31
0.0
  0
LINE
  5
51EC
  8
AM_0
 10
162.47042303687931
 20
243.7544718596746
 30
0.0
 11
155.41884613155941
 21
243.7544718596746
 31
0.0
  0
LINE
  5
51ED
  8
AM_0
 10
145.05910293322501
 20
277.88447585967469
 30
0.0
 11
144.139122933225
 21
274.00448585967479
 31
0.0
  0
LINE
  5
51EE
  8
AM_0
 10
160.07042183687921
 20
241.75447085967471
 30
0.0
 11
155.41915293322501
 21
241.75447085967471
 31
0.0
  0
LINE
  5
51EF
  8
AM_0
 10
142.69909293322519
 20
274.8744558596747
 30
0.0
 11
144.34912293322481
 21
274.8744558596747
 31
0.0
  0
LINE
  5
51F0
  8
AM_0
 10
145.03906293322521
 20
279.5444658596748
 30
0.0
 11
144.14905293322511
 21
276.01448585967478
 31
0.0
  0
LINE
  5
51F1
  8
AM_0
 10
159.4704218368791
 20
233.7544698596748
 30
0.0
 11
146.41915293322501
 21
233.7544698596748
 31
0.0
  0
LINE
  5
51F2
  8
AM_0
 10
161.86909293322509
 20
279.64445585967468
 30
0.0
 11
161.86909293322509
 21
272.23448585967481
 31
0.0
  0
LINE
  5
51F3
  8
AM_0
 10
159.4704218368791
 20
231.75447185967479
 30
0.0
 11
146.41915293322501
 21
231.75447185967479
 31
0.0
  0
LINE
  5
51F4
  8
AM_0
 10
160.07042183687881
 20
223.7544708596748
 30
0.0
 11
146.41915293322501
 21
223.7544708596748
 31
0.0
  0
LINE
  5
51F5
  8
AM_0
 10
218.86909293322509
 20
281.67446585967468
 30
0.0
 11
218.86909293322509
 21
279.61448585967469
 31
0.0
  0
LINE
  5
51F6
  8
AM_0
 10
162.8324717720611
 20
221.75446985967471
 30
0.0
 11
146.41915293322501
 21
221.75446985967471
 31
0.0
  0
LINE
  5
51F7
  8
AM_0
 10
282.60907293322498
 20
278.13446585967472
 30
0.0
 11
286.06909293322508
 21
265.21448585967482
 31
0.0
  0
LINE
  5
51F8
  8
AM_0
 10
282.5791029332251
 20
278.25446585967478
 30
0.0
 11
287.86909293322498
 21
278.25446585967478
 31
0.0
  0
LINE
  5
51F9
  8
AM_0
 10
287.57911293322519
 20
268.79447585967478
 30
0.0
 11
285.16915293322512
 21
268.79447585967478
 31
0.0
  0
LINE
  5
51FA
  8
AM_0
 10
284.66914293322509
 20
276.6744858596748
 30
0.0
 11
286.10914293322497
 21
269.97449585967479
 31
0.0
  0
LINE
  5
51FB
  8
AM_0
 10
163.86910293322501
 20
151.83446885967459
 30
0.0
 11
216.86914293322511
 21
151.83446885967459
 31
0.0
  0
LINE
  5
51FC
  8
AM_0
 10
147.00910293322511
 20
156.0844848596748
 30
0.0
 11
160.36909293322509
 21
156.0844848596748
 31
0.0
  0
LINE
  5
51FD
  8
AM_0
 10
141.36910293322501
 20
175.0644648596747
 30
0.0
 11
150.86914293322511
 21
175.06446485967481
 31
0.0
  0
LINE
  5
51FE
  8
AM_0
 10
163.86910293322501
 20
152.5144788596748
 30
0.0
 11
216.86914293322511
 21
152.5144788596748
 31
0.0
  0
LINE
  5
51FF
  8
AM_0
 10
142.67908293322509
 20
162.6544608596748
 30
0.0
 11
144.739152933225
 21
162.6544608596748
 31
0.0
  0
LINE
  5
5200
  8
AM_0
 10
142.65907293322499
 20
166.72447085967471
 30
0.0
 11
145.06909293322499
 21
166.72447085967471
 31
0.0
  0
LINE
  5
5201
  8
AM_0
 10
145.0791129332251
 20
161.07447485967469
 30
0.0
 11
144.119082933225
 21
165.53446685967481
 31
0.0
  0
LINE
  5
5202
  8
AM_0
 10
163.86910293322501
 20
153.8644698596747
 30
0.0
 11
216.86914293322511
 21
153.8644698596747
 31
0.0
  0
LINE
  5
5203
  8
AM_0
 10
145.32910293322499
 20
191.2644648596748
 30
0.0
 11
166.5690979332241
 21
191.26446485967469
 31
0.0
  0
LINE
  5
5204
  8
AM_0
 10
188.86909293322509
 20
183.75446885967469
 30
0.0
 11
146.85913293322511
 21
183.75446885967469
 31
0.0
  0
LINE
  5
5205
  8
AM_0
 10
154.5490929332251
 20
254.4744708596748
 30
0.0
 11
188.86909293322509
 21
254.4744708596748
 31
0.0
  0
LINE
  5
5206
  8
AM_0
 10
154.5490929332251
 20
251.1244668596749
 30
0.0
 11
188.86909293322509
 21
251.1244668596749
 31
0.0
  0
LINE
  5
5207
  8
AM_0
 10
154.32910293322499
 20
244.2444618596748
 30
0.0
 11
169.9704218368791
 21
244.2444618596748
 31
0.0
  0
LINE
  5
5208
  8
AM_0
 10
172.47042183687901
 20
244.2444618596748
 30
0.0
 11
179.86909293322509
 21
244.2444618596748
 31
0.0
  0
LINE
  5
5209
  8
AM_0
 10
154.32910293322499
 20
241.3144668596747
 30
0.0
 11
159.62140820716559
 21
241.3144668596747
 31
0.0
  0
LINE
  5
520A
  8
AM_0
 10
145.19911293322511
 20
234.09446585967481
 30
0.0
 11
159.4704218368791
 21
234.09446585967481
 31
0.0
  0
LINE
  5
520B
  8
AM_0
 10
145.19911293322511
 20
231.43446185967471
 30
0.0
 11
159.4704218368791
 21
231.43446185967471
 31
0.0
  0
LINE
  5
520C
  8
AM_0
 10
145.13911293322499
 20
224.0244588596747
 30
0.0
 11
159.74643623687871
 21
224.0244588596747
 31
0.0
  0
LINE
  5
520D
  8
AM_0
 10
145.13911293322499
 20
221.49445985967489
 30
0.0
 11
169.9704218368791
 21
221.49445985967489
 31
0.0
  0
LINE
  5
520E
  8
AM_0
 10
145.13911293322499
 20
214.0244748596748
 30
0.0
 11
187.86909293322509
 21
214.0244748596748
 31
0.0
  0
LINE
  5
520F
  8
AM_0
 10
187.86909293322509
 20
211.75447085967471
 30
0.0
 11
146.41915293322501
 21
211.75447085967471
 31
0.0
  0
LINE
  5
5210
  8
AM_0
 10
187.86909293322509
 20
213.75446885967469
 30
0.0
 11
146.41915293322501
 21
213.75446885967469
 31
0.0
  0
LINE
  5
5211
  8
AM_0
 10
145.19911293322511
 20
204.0744768596748
 30
0.0
 11
166.42743126655679
 21
204.0744768596748
 31
0.0
  0
LINE
  5
5212
  8
AM_0
 10
160.86909293322509
 20
201.75446885967469
 30
0.0
 11
146.41915293322501
 21
201.75446885967469
 31
0.0
  0
LINE
  5
5213
  8
AM_0
 10
145.19911293322511
 20
201.41445785967471
 30
0.0
 11
160.86909293322509
 21
201.41445785967471
 31
0.0
  0
LINE
  5
5214
  8
AM_0
 10
160.86909293322501
 20
193.7544678596748
 30
0.0
 11
146.41915293322501
 21
193.7544678596748
 31
0.0
  0
LINE
  5
5215
  8
AM_0
 10
145.32910293322499
 20
194.19447185967471
 30
0.0
 11
160.86909293322509
 21
194.19447185967471
 31
0.0
  0
LINE
  5
5216
  8
AM_0
 10
166.1607479332248
 20
191.75448485967479
 30
0.0
 11
146.41915293322501
 21
191.75448485967479
 31
0.0
  0
LINE
  5
5217
  8
AM_0
 10
145.13911293322499
 20
211.48447985967471
 30
0.0
 11
187.86909293322509
 21
211.48447985967471
 31
0.0
  0
ARC
  5
5218
  8
AM_0
 10
154.0097829332251
 20
176.53535285967459
 30
0.0
 40
1.00423602
 50
314.93782999999922
 51
5.6649239000010914
  0
ARC
  5
5219
  8
AM_0
 10
288.86932293322508
 20
155.25465185967471
 30
0.0
 40
1.0001800499999991
 50
180.01030999999901
 51
269.98967999999991
  0
ARC
  5
521A
  8
AM_0
 10
280.67377293322511
 20
157.89985385967469
 30
0.0
 40
2.0053919100000002
 50
270.15274999999968
 51
344.81207000000018
  0
ARC
  5
521B
  8
AM_0
 10
288.86860293322519
 20
166.71394085967469
 30
0.0
 40
0.99947604
 50
179.97008999999869
 51
270.02992000000029
  0
ARC
  5
521C
  8
AM_0
 10
147.09016293322509
 20
268.7420358596749
 30
0.0
 40
1.9924480200000001
 50
89.742108000000741
 51
169.81178999999909
  0
ARC
  5
521D
  8
AM_0
 10
147.03394293322509
 20
274.02518585967482
 30
0.0
 40
1.9992880199999981
 50
89.851814999999618
 51
167.89433000000099
  0
ARC
  5
521E
  8
AM_0
 10
142.65340293322501
 20
270.2946858596747
 30
0.0
 40
1.5002480099999991
 50
270.21662000000089
 51
347.67499999999922
  0
ARC
  5
521F
  8
AM_0
 10
147.0011829332251
 20
277.42994585967472
 30
0.0
 40
1.9945160699999991
 50
89.771334999999524
 51
166.8280399999995
  0
ARC
  5
5220
  8
AM_0
 10
142.677552933225
 20
274.35827585967468
 30
0.0
 40
1.5037760099999991
 50
270.0598400000012
 51
346.39312999999879
  0
ARC
  5
5221
  8
AM_0
 10
142.6903929332251
 20
276.37766585967478
 30
0.0
 40
1.503232049999998
 50
270.33131999999961
 51
346.01803000000137
  0
ARC
  5
5222
  8
AM_0
 10
146.97565293322509
 20
279.0576558596747
 30
0.0
 40
1.996816109999999
 50
89.901436000000672
 51
165.88941000000139
  0
ARC
  5
5223
  8
AM_0
 10
163.86451293322509
 20
277.61909585967493
 30
0.0
 40
1.9953641399999991
 50
89.866758999999234
 51
180.13323000000119
  0
ARC
  5
5224
  8
AM_0
 10
163.86529293322499
 20
279.64826585967472
 30
0.0
 40
1.99618809
 50
89.890486999999737
 51
180.10951000000031
  0
ARC
  5
5225
  8
AM_0
 10
163.8626829332251
 20
281.00093585967488
 30
0.0
 40
1.993556189999999
 50
89.814515000000938
 51
180.1854899999997
  0
ARC
  5
5226
  8
AM_0
 10
163.8646329332251
 20
281.67572585967469
 30
0.0
 40
1.998724049999999
 50
89.871136999999536
 51
165.55095999999921
  0
ARC
  5
5227
  8
AM_0
 10
160.36243293322511
 20
272.24117585967468
 30
0.0
 40
1.5066999599999991
 50
270.25416000000098
 51
359.74583999999908
  0
ARC
  5
5228
  8
AM_0
 10
160.3662729332251
 20
277.52729585967472
 30
0.0
 40
1.5028360199999991
 50
270.10793999999891
 51
359.89206000000121
  0
ARC
  5
5229
  8
AM_0
 10
160.36426293322521
 20
280.92932585967469
 30
0.0
 40
1.5048719999999991
 50
270.1851800000012
 51
359.81481999999869
  0
ARC
  5
522A
  8
AM_0
 10
160.475712933225
 20
282.5574858596749
 30
0.0
 40
1.50301605
 50
270.12944999999991
 51
345.2365400000013
  0
ARC
  5
522B
  8
AM_0
 10
216.8681829332252
 20
279.64352585967481
 30
0.0
 40
2.0009239199999991
 50
0.0264629989995744
 51
89.973535999999072
  0
ARC
  5
522C
  8
AM_0
 10
216.87079293322509
 20
280.99616585967459
 30
0.0
 40
1.9982920200000001
 50
359.95103000000051
 51
90.048974999998521
  0
ARC
  5
522D
  8
AM_0
 10
216.86731293322509
 20
281.67266585967468
 30
0.0
 40
2.0018279999999979
 50
0.0523009999990686
 51
89.947697000000545
  0
ARC
  5
522E
  8
AM_0
 10
287.51935293322498
 20
265.60685585967491
 30
0.0
 40
1.50239199
 50
195.14001000000141
 51
269.99063999999998
  0
ARC
  5
522F
  8
AM_0
 10
280.6786629332251
 20
277.61549585967492
 30
0.0
 40
1.99898796
 50
15.04780099999898
 51
89.987372999998755
  0
ARC
  5
5230
  8
AM_0
 10
288.8641629332252
 20
280.25942585967482
 30
0.0
 40
0.9950640599999999
 50
89.714938000000473
 51
180.28506000000129
  0
ARC
  5
5231
  8
AM_0
 10
288.86347293322518
 20
268.80008585967471
 30
0.0
 40
0.99440004
 50
89.676491000000041
 51
180.32351000000091
  0
ARC
  5
5232
  8
AM_0
 10
287.57497293322518
 20
270.29492585967478
 30
0.0
 40
1.5004760399999979
 50
192.3322299999987
 51
270.15827999999971
  0
ARC
  5
5233
  8
AM_0
 10
282.71656293322508
 20
276.25799585967479
 30
0.0
 40
1.9964880300000001
 50
12.04087499999966
 51
89.926440999999343
  0
ARC
  5
5234
  8
AM_0
 10
150.02740293322501
 20
259.34727485967483
 30
0.0
 40
5.004112499999998
 50
279.6835699999998
 51
354.57834000000122
  0
ARC
  5
5235
  8
AM_0
 10
150.48988293322509
 20
255.42155585967481
 30
0.0
 40
6.0049157999999991
 50
45.227306999999072
 51
86.379093999999796
  0
ARC
  5
5236
  8
AM_0
 10
154.01308293322501
 20
258.97474685967472
 30
0.0
 40
1.001108069999999
 50
354.25024999999829
 51
45.146993999999637
  0
ARC
  5
5237
  8
AM_0
 10
282.71155293322522
 20
159.25707785967469
 30
0.0
 40
2.0026238699999981
 50
270.21534000000139
 51
347.8173399999996
  0
ARC
  5
5238
  8
AM_0
 10
287.576172933225
 20
165.2251548596748
 30
0.0
 40
1.499328059999999
 50
89.888151000000079
 51
168.09384000000071
  0
ARC
  5
5239
  8
AM_0
 10
150.49909293322511
 20
180.10165085967481
 30
0.0
 40
6.0085923000000001
 50
273.53094999999939
 51
314.61478000000108
  0
ARC
  5
523A
  8
AM_0
 10
150.03247293322499
 20
176.1663948596748
 30
0.0
 40
4.9985837999999987
 50
5.3731199000009289
 51
80.36497600000034
  0
ARC
  5
523B
  8
AM_0
 10
147.0951729332248
 20
166.77289985967479
 30
0.0
 40
1.998444029999999
 50
190.3324000000008
 51
270.11369000000047
  0
ARC
  5
523C
  8
AM_0
 10
147.03400293322511
 20
161.49384785967479
 30
0.0
 40
1.9993920899999991
 50
192.1080400000011
 51
270.14581999999967
  0
ARC
  5
523D
  8
AM_0
 10
142.65223293322509
 20
165.2253858596747
 30
0.0
 40
1.499099999999999
 50
11.89856000000028
 51
89.736658000000475
  0
ARC
  5
523E
  8
AM_0
 10
147.00610293322501
 20
158.08523285967479
 30
0.0
 40
2.0007560699999991
 50
193.31416000000041
 51
270.0864499999999
  0
ARC
  5
523F
  8
AM_0
 10
142.68250293322509
 20
161.15696585967461
 30
0.0
 40
1.497512039999999
 50
13.41823300000142
 51
90.128792999998822
  0
ARC
  5
5240
  8
AM_0
 10
142.696902933225
 20
159.13634885967471
 30
0.0
 40
1.498128089999998
 50
14.224575000000939
 51
89.916113999998927
  0
ARC
  5
5241
  8
AM_0
 10
146.98060293322499
 20
156.45760985967479
 30
0.0
 40
2.0031319199999991
 50
194.2515899999988
 51
269.9575499999994
  0
ARC
  5
5242
  8
AM_0
 10
163.8695829332251
 20
157.89490985967461
 30
0.0
 40
2.000452109999999
 50
180.01290000000029
 51
269.98709999999971
  0
ARC
  5
5243
  8
AM_0
 10
163.87042293322509
 20
155.8657818596748
 30
0.0
 40
2.0013120899999981
 50
180.03755999999879
 51
269.9624400000011
  0
ARC
  5
5244
  8
AM_0
 10
163.86775293322501
 20
154.51308785967481
 30
0.0
 40
1.9986199799999991
 50
179.96046999999851
 51
270.03953000000138
  0
ARC
  5
5245
  8
AM_0
 10
163.86304293322519
 20
153.8445258596748
 30
0.0
 40
2.0000761200000001
 50
194.7749800000019
 51
270.17352999999849
  0
ARC
  5
5246
  8
AM_0
 10
160.36756293322509
 20
163.27290185967459
 30
0.0
 40
1.5015680099999991
 50
0.0598050030010001
 51
89.940196999999216
  0
ARC
  5
5247
  8
AM_0
 10
160.36639293322509
 20
157.99175885967469
 30
0.0
 40
1.50271599
 50
0.1034359999993177
 51
89.896566000000206
  0
ARC
  5
5248
  8
AM_0
 10
160.36939293322521
 20
154.58471285967471
 30
0.0
 40
1.49975601
 50
359.99059000000068
 51
90.009407999999681
  0
ARC
  5
5249
  8
AM_0
 10
160.4806629332252
 20
152.95782185967479
 30
0.0
 40
1.49664405
 50
14.57573999999874
 51
90.058277999998381
  0
ARC
  5
524A
  8
AM_0
 10
216.8631129332251
 20
155.87049485967469
 30
0.0
 40
2.0060480100000002
 50
270.17248999999867
 51
359.82751000000121
  0
ARC
  5
524B
  8
AM_0
 10
216.8657229332251
 20
154.51783385967471
 30
0.0
 40
2.0033560499999989
 50
270.09594000000141
 51
359.90405999999848
  0
ARC
  5
524C
  8
AM_0
 10
216.867192933225
 20
153.84635585967459
 30
0.0
 40
2.0019000299999989
 50
270.05438000000072
 51
359.94561999999922
  0
ARC
  5
524D
  8
AM_0
 10
287.51449293322509
 20
169.90849085967471
 30
0.0
 40
1.49599605
 50
89.821706999999776
 51
165.0476599999985
  0
ARC
  5
524E
  8
AM_0
 10
162.86434293322509
 20
252.75447185967479
 30
0.0
 40
1.000011959999999
 50
89.726507999999697
 51
270.27347999999972
  0
ARC
  5
524F
  8
AM_0
 10
145.133322933225
 20
222.75947585967481
 30
0.0
 40
1.26501207
 50
89.737716000001527
 51
270.26227999999981
  0
ARC
  5
5250
  8
AM_0
 10
145.19911293322511
 20
232.76447885967471
 30
0.0
 40
1.330008059999999
 50
90.000003000000945
 51
270.0
  0
ARC
  5
5251
  8
AM_0
 10
154.32910293322499
 20
242.7794658596747
 30
0.0
 40
1.465004009999999
 50
90.000003000000945
 51
270.0
  0
ARC
  5
5252
  8
AM_0
 10
154.54225293322509
 20
252.79945385967471
 30
0.0
 40
1.6750160999999979
 50
89.766540000000646
 51
270.23345999999941
  0
ARC
  5
5253
  8
AM_0
 10
146.41915293322501
 20
222.75446885967469
 30
0.0
 40
1.0000000199999981
 50
90.000003000000945
 51
270.0
  0
ARC
  5
5254
  8
AM_0
 10
146.41915293322501
 20
232.75447085967471
 30
0.0
 40
1.0000000199999981
 50
90.000003000000945
 51
270.0
  0
ARC
  5
5255
  8
AM_0
 10
155.414382933225
 20
252.75447185967479
 30
0.0
 40
1.000011959999999
 50
89.728447999999375
 51
270.27153999999882
  0
ARC
  5
5256
  8
AM_0
 10
155.414382933225
 20
242.7544698596748
 30
0.0
 40
1.000011959999999
 50
89.728447999999375
 51
270.27153999999882
  0
ARC
  5
5257
  8
AM_0
 10
284.68909293322508
 20
252.79945385967471
 30
0.0
 40
1.675004159999999
 50
276.1690557384461
 51
83.83094426155381
  0
ARC
  5
5258
  8
AM_0
 10
284.68909293322508
 20
182.7094848596748
 30
0.0
 40
1.675004159999999
 50
276.16905573844969
 51
83.830944261550229
  0
ARC
  5
5259
  8
AM_0
 10
146.41915293322501
 20
212.75448485967479
 30
0.0
 40
1.0000000199999981
 50
90.000003000000945
 51
270.0
  0
ARC
  5
525A
  8
AM_0
 10
162.86434293322509
 20
202.75447085967471
 30
0.0
 40
1.000011959999999
 50
89.726507999999697
 51
227.40544825727639
  0
ARC
  5
525B
  8
AM_0
 10
162.86434293322509
 20
192.75446885967469
 30
0.0
 40
1.000011959999999
 50
132.59438434211481
 51
270.27347999999972
  0
ARC
  5
525C
  8
AM_0
 10
145.19911293322511
 20
202.74447485967471
 30
0.0
 40
1.330008059999999
 50
90.000003000000945
 51
270.0
  0
ARC
  5
525D
  8
AM_0
 10
145.32910293322499
 20
192.72947585967481
 30
0.0
 40
1.465004009999999
 50
90.000003000000945
 51
270.0
  0
ARC
  5
525E
  8
AM_0
 10
146.414382933225
 20
182.75448485967479
 30
0.0
 40
1.000011959999999
 50
89.728462000000377
 51
270.27153999999882
  0
ARC
  5
525F
  8
AM_0
 10
162.86434293322509
 20
182.75448485967479
 30
0.0
 40
1.000011959999999
 50
89.726507999999697
 51
270.27347999999972
  0
ARC
  5
5260
  8
AM_0
 10
145.133322933225
 20
212.75448485967479
 30
0.0
 40
1.2700120500000001
 50
89.738748000000555
 51
270.26124000000118
  0
ARC
  5
5261
  8
AM_0
 10
145.54225293322509
 20
182.7094848596748
 30
0.0
 40
1.6750160999999979
 50
89.764983000000569
 51
270.23500999999908
  0
ARC
  5
5262
  8
AM_0
 10
146.41915293322501
 20
202.75447085967471
 30
0.0
 40
1.0000000199999981
 50
90.000003000000945
 51
270.0
  0
ARC
  5
5263
  8
AM_0
 10
146.414382933225
 20
192.75446885967469
 30
0.0
 40
1.000011959999999
 50
89.728462000000377
 51
270.27153999999882
  0
LINE
  5
5265
  8
ﾁｭｳｼﾝｾﾝ
 10
236.8690929332252
 20
268.754470859675
 30
0.0
 11
236.8690929332252
 21
166.7544708596748
 31
0.0
  0
LINE
  5
5266
  8
AM_0
 10
280.86909293322532
 20
171.7544708596748
 30
0.0
 11
192.86909293322509
 21
171.7544708596748
 31
0.0
  0
ARC
  5
5267
  8
AM_0
 10
210.94016074509059
 20
176.7544708596748
 30
0.0
 40
5.0
 50
225.0
 51
270.0
1001
GENIUS_GENOBJ-N-FIL_13
1002
{
1000
OWNER
1000
GEN
1002
}
1001
GENIUS_GENODEF_13
1002
{
1000
HIER
1070
     0
1002
}
1002
{
1000
MANEDIT
1070
     0
1002
}
1002
{
1000
NOSEL
1070
     0
1002
}
1002
{
1000
BEHIND
1070
     0
1002
}
1002
{
1000
OTHER
1070
     0
1002
}
1002
{
1000
REACTOR
1002
}
  0
LINE
  5
5268
  8
AM_0
 10
262.14117087186747
 20
176.7544708596748
 30
0.0
 11
211.59701499458279
 21
176.7544708596748
 31
0.0
  0
ARC
  5
5269
  8
AM_0
 10
262.14117087186747
 20
181.7544708596748
 30
0.0
 40
5.0
 50
270.0
 51
315.0
1001
GENIUS_GENOBJ-N-FIL_13
1002
{
1000
OWNER
1000
GEN
1002
}
1001
GENIUS_GENODEF_13
1002
{
1000
HIER
1070
     0
1002
}
1002
{
1000
MANEDIT
1070
     0
1002
}
1002
{
1000
NOSEL
1070
     0
1002
}
1002
{
1000
BEHIND
1070
     0
1002
}
1002
{
1000
OTHER
1070
     0
1002
}
1002
{
1000
REACTOR
1002
}
  0
ARC
  5
526A
  8
AM_0
 10
280.86909293322532
 20
175.7544708596748
 30
0.0
 40
4.0
 50
270.0
 51
0.0
1001
GENIUS_GENOBJ-N-FIL_13
1002
{
1000
OWNER
1000
GEN
1002
}
1001
GENIUS_GENODEF_13
1002
{
1000
HIER
1070
     0
1002
}
1002
{
1000
MANEDIT
1070
     0
1002
}
1002
{
1000
NOSEL
1070
     0
1002
}
1002
{
1000
BEHIND
1070
     0
1002
}
1002
{
1000
OTHER
1070
     0
1002
}
1002
{
1000
REACTOR
1002
}
  0
LINE
  5
526B
  8
AM_0
 10
280.86909293322498
 20
263.75447085967522
 30
0.0
 11
192.86909293322509
 21
263.75447085967522
 31
0.0
  0
ARC
  5
526C
  8
AM_0
 10
262.79802512135961
 20
258.754470859675
 30
0.0
 40
5.0
 50
45.0
 51
90.0
1001
GENIUS_GENOBJ-N-FIL_13
1002
{
1000
OWNER
1000
GEN
1002
}
1001
GENIUS_GENODEF_13
1002
{
1000
HIER
1070
     0
1002
}
1002
{
1000
MANEDIT
1070
     0
1002
}
1002
{
1000
NOSEL
1070
     0
1002
}
1002
{
1000
BEHIND
1070
     0
1002
}
1002
{
1000
OTHER
1070
     0
1002
}
1002
{
1000
REACTOR
1002
}
  0
ARC
  5
526D
  8
AM_0
 10
210.94016074509079
 20
258.754470859675
 30
0.0
 40
5.0
 50
90.0
 51
135.0
1001
GENIUS_GENODEF_13
1002
{
1000
HIER
1070
     0
1002
}
1002
{
1000
MANEDIT
1070
     0
1002
}
1002
{
1000
NOSEL
1070
     0
1002
}
1002
{
1000
BEHIND
1070
     0
1002
}
1002
{
1000
OTHER
1070
     0
1002
}
1002
{
1000
REACTOR
1002
}
1001
GENIUS_GENOBJ-N-FIL_13
1002
{
1000
OWNER
1000
GEN
1002
}
  0
LINE
  5
526E
  8
AM_0
 10
262.1411708718673
 20
258.754470859675
 30
0.0
 11
211.59701499458299
 21
258.754470859675
 31
0.0
  0
ARC
  5
526F
  8
AM_0
 10
211.59701499458299
 20
253.75447085967511
 30
0.0
 40
5.0
 50
90.0
 51
135.0
1001
GENIUS_GENODEF_13
1002
{
1000
HIER
1070
     0
1002
}
1002
{
1000
MANEDIT
1070
     0
1002
}
1002
{
1000
NOSEL
1070
     0
1002
}
1002
{
1000
BEHIND
1070
     0
1002
}
1002
{
1000
OTHER
1070
     0
1002
}
1002
{
1000
REACTOR
1002
}
1001
GENIUS_GENOBJ-N-FIL_13
1002
{
1000
OWNER
1000
GEN
1002
}
  0
ARC
  5
5270
  8
AM_0
 10
192.86909293322509
 20
259.75447085967522
 30
0.0
 40
4.0
 50
90.0
 51
180.0
1001
GENIUS_GENODEF_13
1002
{
1000
HIER
1070
     0
1002
}
1002
{
1000
MANEDIT
1070
     0
1002
}
1002
{
1000
NOSEL
1070
     0
1002
}
1002
{
1000
BEHIND
1070
     0
1002
}
1002
{
1000
OTHER
1070
     0
1002
}
1002
{
1000
REACTOR
1002
}
1001
GENIUS_GENOBJ-N-FIL_13
1002
{
1000
OWNER
1000
GEN
1002
}
  0
LINE
  5
5271
  8
AM_0
 10
188.86909293322509
 20
259.75447085967522
 30
0.0
 11
188.86909293322509
 21
175.7544708596748
 31
0.0
  0
ARC
  5
5272
  8
AM_0
 10
193.86909293322509
 20
193.8255386715401
 30
0.0
 40
5.0
 50
180.0
 51
225.0
1001
GENIUS_GENOBJ-N-FIL_13
1002
{
1000
OWNER
1000
GEN
1002
}
1001
GENIUS_GENODEF_13
1002
{
1000
HIER
1070
     0
1002
}
1002
{
1000
MANEDIT
1070
     0
1002
}
1002
{
1000
NOSEL
1070
     0
1002
}
1002
{
1000
BEHIND
1070
     0
1002
}
1002
{
1000
OTHER
1070
     0
1002
}
1002
{
1000
REACTOR
1002
}
  0
ARC
  5
5273
  8
AM_0
 10
193.86909293322509
 20
241.68340304780969
 30
0.0
 40
5.0
 50
135.0
 51
180.0
1001
GENIUS_GENOBJ-N-FIL_13
1002
{
1000
OWNER
1000
GEN
1002
}
1001
GENIUS_GENODEF_13
1002
{
1000
HIER
1070
     0
1002
}
1002
{
1000
MANEDIT
1070
     0
1002
}
1002
{
1000
NOSEL
1070
     0
1002
}
1002
{
1000
BEHIND
1070
     0
1002
}
1002
{
1000
OTHER
1070
     0
1002
}
1002
{
1000
REACTOR
1002
}
  0
LINE
  5
5274
  8
AM_0
 10
193.86909293322509
 20
241.02654879831709
 30
0.0
 11
193.86909293322489
 21
194.4823929210325
 31
0.0
  0
ARC
  5
5275
  8
AM_0
 10
198.86909293322501
 20
194.4823929210325
 30
0.0
 40
5.0
 50
180.0
 51
225.0
1001
GENIUS_GENOBJ-N-FIL_13
1002
{
1000
OWNER
1000
GEN
1002
}
1001
GENIUS_GENODEF_13
1002
{
1000
HIER
1070
     0
1002
}
1002
{
1000
MANEDIT
1070
     0
1002
}
1002
{
1000
NOSEL
1070
     0
1002
}
1002
{
1000
BEHIND
1070
     0
1002
}
1002
{
1000
OTHER
1070
     0
1002
}
1002
{
1000
REACTOR
1002
}
  0
ARC
  5
5276
  8
AM_0
 10
192.86909293322509
 20
175.7544708596748
 30
0.0
 40
4.0
 50
180.0
 51
270.0
1001
GENIUS_GENODEF_13
1002
{
1000
HIER
1070
     0
1002
}
1002
{
1000
MANEDIT
1070
     0
1002
}
1002
{
1000
NOSEL
1070
     0
1002
}
1002
{
1000
BEHIND
1070
     0
1002
}
1002
{
1000
OTHER
1070
     0
1002
}
1002
{
1000
REACTOR
1002
}
1001
GENIUS_GENOBJ-N-FIL_13
1002
{
1000
OWNER
1000
GEN
1002
}
  0
LINE
  5
5277
  8
AM_0
 10
284.86909293322498
 20
259.75447085967522
 30
0.0
 11
284.86909293322532
 21
175.7544708596748
 31
0.0
  0
ARC
  5
5278
  8
AM_0
 10
279.86909293322532
 20
241.68340304780949
 30
0.0
 40
5.0
 50
0.0
 51
45.0
1001
GENIUS_GENOBJ-N-FIL_13
1002
{
1000
OWNER
1000
GEN
1002
}
1001
GENIUS_GENODEF_13
1002
{
1000
HIER
1070
     0
1002
}
1002
{
1000
MANEDIT
1070
     0
1002
}
1002
{
1000
NOSEL
1070
     0
1002
}
1002
{
1000
BEHIND
1070
     0
1002
}
1002
{
1000
OTHER
1070
     0
1002
}
1002
{
1000
REACTOR
1002
}
  0
ARC
  5
5279
  8
AM_0
 10
279.86909293322532
 20
193.8255386715403
 30
0.0
 40
5.0
 50
315.0
 51
0.0
1001
GENIUS_GENOBJ-N-FIL_13
1002
{
1000
OWNER
1000
GEN
1002
}
1001
GENIUS_GENODEF_13
1002
{
1000
HIER
1070
     0
1002
}
1002
{
1000
MANEDIT
1070
     0
1002
}
1002
{
1000
NOSEL
1070
     0
1002
}
1002
{
1000
BEHIND
1070
     0
1002
}
1002
{
1000
OTHER
1070
     0
1002
}
1002
{
1000
REACTOR
1002
}
  0
LINE
  5
527A
  8
AM_0
 10
266.33355902729238
 20
262.2900047656077
 30
0.0
 11
283.40462683915803
 21
245.21893695374229
 31
0.0
  0
LINE
  5
527B
  8
AM_0
 10
265.67670477780001
 20
257.2900047656077
 30
0.0
 11
278.40462683915769
 21
244.56208270425009
 31
0.0
  0
ARC
  5
527C
  8
AM_0
 10
262.1411708718673
 20
253.75447085967511
 30
0.0
 40
5.0
 50
45.0
 51
90.0
1001
GENIUS_GENOBJ-N-FIL_13
1002
{
1000
OWNER
1000
GEN
1002
}
1001
GENIUS_GENODEF_13
1002
{
1000
HIER
1070
     0
1002
}
1002
{
1000
MANEDIT
1070
     0
1002
}
1002
{
1000
NOSEL
1070
     0
1002
}
1002
{
1000
BEHIND
1070
     0
1002
}
1002
{
1000
OTHER
1070
     0
1002
}
1002
{
1000
REACTOR
1002
}
  0
LINE
  5
527D
  8
AM_0
 10
279.86909293322498
 20
241.02654879831729
 30
0.0
 11
279.86909293322532
 21
194.4823929210325
 31
0.0
  0
ARC
  5
527E
  8
AM_0
 10
274.86909293322509
 20
241.02654879831729
 30
0.0
 40
5.0
 50
0.0
 51
45.0
1001
GENIUS_GENODEF_13
1002
{
1000
HIER
1070
     0
1002
}
1002
{
1000
MANEDIT
1070
     0
1002
}
1002
{
1000
NOSEL
1070
     0
1002
}
1002
{
1000
BEHIND
1070
     0
1002
}
1002
{
1000
OTHER
1070
     0
1002
}
1002
{
1000
REACTOR
1002
}
1001
GENIUS_GENOBJ-N-FIL_13
1002
{
1000
OWNER
1000
GEN
1002
}
  0
ARC
  5
527F
  8
AM_0
 10
280.86909293322498
 20
259.75447085967522
 30
0.0
 40
4.0
 50
0.0
 51
90.0
1001
GENIUS_GENODEF_13
1002
{
1000
HIER
1070
     0
1002
}
1002
{
1000
MANEDIT
1070
     0
1002
}
1002
{
1000
NOSEL
1070
     0
1002
}
1002
{
1000
BEHIND
1070
     0
1002
}
1002
{
1000
OTHER
1070
     0
1002
}
1002
{
1000
REACTOR
1002
}
1001
GENIUS_GENOBJ-N-FIL_13
1002
{
1000
OWNER
1000
GEN
1002
}
  0
LINE
  5
5280
  8
ﾁｭｳｼﾝｾﾝ1
 10
279.86909293322663
 20
252.7544708596746
 30
0.0
 11
279.86909293322731
 21
264.7544708596746
 31
0.0
  0
LINE
  5
5281
  8
ﾁｭｳｼﾝｾﾝ1
 10
285.86909293322691
 20
258.75447085967443
 30
0.0
 11
273.86909293322702
 21
258.754470859675
 31
0.0
  0
LINE
  5
5282
  8
AM_0
 10
185.36909293322509
 20
246.254470859675
 30
0.0
 11
187.86909293322501
 21
246.25447085967519
 31
0.0
  0
LINE
  5
5283
  8
AM_0
 10
187.86909293322509
 20
219.254470859675
 30
0.0
 11
185.36909293322509
 21
219.254470859675
 31
0.0
  0
LINE
  5
5284
  8
AM_0
 10
174.47042183687901
 20
222.25447085967519
 30
0.0
 11
174.47042183687901
 21
243.25447085967511
 31
0.0
  0
LINE
  5
5285
  8
AM_0
 10
159.4704218368791
 20
240.78609591368999
 30
0.0
 11
159.4704218368791
 21
224.72284580565909
 31
0.0
  0
LINE
  5
5286
  8
AM_0
 10
172.47042183687901
 20
220.75447085967511
 30
0.0
 11
172.47042183687901
 21
244.75447085967511
 31
0.0
  0
LINE
  5
5287
  8
AM_0
 10
162.9704218368791
 20
232.75447085967511
 30
0.0
 11
163.4704218368791
 21
232.25447085967511
 31
0.0
  0
LINE
  5
5288
  8
AM_0
 10
169.9704218368791
 20
244.45447085967501
 30
0.0
 11
169.9704218368791
 21
221.05447085967501
 31
0.0
  0
LINE
  5
5289
  8
AM_0
 10
179.86909293322509
 20
244.254470859675
 30
0.0
 11
179.86909293322509
 21
221.254470859675
 31
0.0
  0
LINE
  5
528A
  8
AM_0
 10
173.9704218368791
 20
232.0544708596731
 30
0.0
 11
173.9704218368791
 21
233.45447085967601
 31
0.0
  0
LINE
  5
528B
  8
AM_0
 10
176.07005756345009
 20
223.654470859675
 30
0.0
 11
175.32005756345109
 21
241.8544708596751
 31
0.0
  0
LINE
  5
528C
  8
AM_0
 10
175.11909293322509
 20
223.654470859675
 30
0.0
 11
174.47042183687901
 21
239.39555613099111
 31
0.0
  0
LINE
  5
528D
  8
AM_0
 10
175.8677855237971
 20
222.9388121473111
 30
0.0
 11
175.12052548038909
 21
242.5668426208421
 31
0.0
  0
LINE
  5
528E
  8
AM_0
 10
175.31862501628709
 20
222.94209909850699
 30
0.0
 11
174.57005756345109
 21
242.60447085967499
 31
0.0
  0
LINE
  5
528F
  8
AM_0
 10
172.47042183687901
 20
244.75447085967511
 30
0.0
 11
170.27042183687911
 21
244.75447085967511
 31
0.0
  0
ARC
  5
5290
  8
AM_0
 10
184.3690929332252
 20
245.25447085967511
 30
0.0
 40
0.5
 50
269.99999999998693
 51
0.0
  0
ARC
  5
5291
  8
AM_0
 10
185.3690929332252
 20
245.75447085967511
 30
0.0
 40
0.5
 50
90.0
 51
180.0
  0
LINE
  5
5292
  8
AM_0
 10
184.86909293322509
 20
245.25447085967511
 30
0.0
 11
184.86909293322509
 21
245.75447085967511
 31
0.0
  0
LINE
  5
5293
  8
AM_0
 10
175.86909293322509
 20
241.8544708596751
 30
0.0
 11
179.36909293322509
 21
241.8544708596749
 31
0.0
  0
LINE
  5
5294
  8
AM_0
 10
184.86909293322509
 20
243.610542181082
 30
0.0
 11
184.86909293322509
 21
233.898399538267
 31
0.0
  0
LINE
  5
5295
  8
AM_0
 10
180.36909293322509
 20
244.75447085967511
 30
0.0
 11
184.36909293322501
 21
244.75447085967511
 31
0.0
  0
LINE
  5
5296
  8
AM_0
 10
184.36909293322509
 20
244.110542181082
 30
0.0
 11
179.86909293322509
 21
244.110542181082
 31
0.0
  0
ARC
  5
5297
  8
AM_0
 10
184.3690929332252
 20
243.610542181082
 30
0.0
 40
0.5
 50
0.0
 51
90.0
  0
ARC
  5
5298
  8
AM_0
 10
179.36909293322509
 20
242.35447085967499
 30
0.0
 40
0.5
 50
270.0
 51
0.0
  0
ARC
  5
5299
  8
AM_0
 10
180.36909293322509
 20
244.254470859675
 30
0.0
 40
0.5
 50
90.0
 51
180.0
  0
LINE
  5
529A
  8
AM_0
 10
184.36909293322509
 20
233.398399538267
 30
0.0
 11
179.86909293322509
 21
233.398399538267
 31
0.0
  0
ARC
  5
529B
  8
AM_0
 10
184.36909293322509
 20
233.898399538267
 30
0.0
 40
0.5
 50
270.0
 51
0.0
  0
LINE
  5
529C
  8
AM_0
 10
173.9704218368791
 20
238.89964161196701
 30
0.0
 11
173.9704218368791
 21
237.72739842553401
 31
0.0
  0
LINE
  5
529D
  8
AM_0
 10
175.39678999187601
 20
241.8544708596751
 30
0.0
 11
175.86909293322509
 21
241.8544708596751
 31
0.0
  0
LINE
  5
529E
  8
AM_0
 10
175.3001974973368
 20
241.9285886264116
 30
0.0
 11
175.32005756345109
 21
241.8544708596751
 31
0.0
  0
ARC
  5
529F
  8
AM_0
 10
175.3967899918762
 20
241.95447085967501
 30
0.0
 40
0.1000000000000346
 50
195.00019500644461
 51
270.0
  0
ARC
  5
52A0
  8
AM_0
 10
173.6704218368792
 20
242.04130384018299
 30
0.0
 40
0.3000000000000043
 50
270.0
 51
0.0
  0
LINE
  5
52A1
  8
AM_0
 10
172.47042183687901
 20
244.154470859675
 30
0.0
 11
173.6903775400362
 21
244.07314047946409
 31
0.0
  0
LINE
  5
52A2
  8
AM_0
 10
172.47042183687901
 20
242.998218823835
 30
0.0
 11
173.6704218368792
 21
242.998218823835
 31
0.0
  0
LINE
  5
52A3
  8
AM_0
 10
173.9704218368791
 20
243.754470859675
 30
0.0
 11
172.47042183687901
 21
243.754470859675
 31
0.0
  0
ARC
  5
52A4
  8
AM_0
 10
173.9704218368791
 20
243.25447085967511
 30
0.0
 40
0.5
 50
0.0
 51
90.0
  0
LINE
  5
52A5
  8
AM_0
 10
173.9704218368791
 20
243.77380493210711
 30
0.0
 11
173.9704218368791
 21
243.754470859675
 31
0.0
  0
ARC
  5
52A6
  8
AM_0
 10
173.6704218368792
 20
243.77380493210711
 30
0.0
 40
0.3000000000000007
 50
0.0
 51
86.18592516571853
  0
LINE
  5
52A7
  8
AM_0
 10
175.0423605048
 20
242.60447085967499
 30
0.0
 11
175.1190929332262
 21
242.60447085967499
 31
0.0
  0
LINE
  5
52A8
  8
AM_0
 10
175.1190929332262
 20
242.60447085967499
 30
0.0
 11
175.13895299933921
 21
242.5303530929385
 31
0.0
  0
LINE
  5
52A9
  8
AM_0
 10
174.55019749733711
 20
242.5303530929385
 30
0.0
 11
174.57005756345109
 21
242.60447085967499
 31
0.0
  0
LINE
  5
52AA
  8
AM_0
 10
174.57005756345109
 20
242.60447085967499
 30
0.0
 11
174.64678999187601
 21
242.60447085967499
 31
0.0
  0
LINE
  5
52AB
  8
AM_0
 10
175.13895299933921
 20
242.5303530929385
 30
0.0
 11
175.3001974973368
 21
241.9285886264116
 31
0.0
  0
LINE
  5
52AC
  8
AM_0
 10
174.64678999187601
 20
242.60447085967499
 30
0.0
 11
175.0423605048
 21
242.60447085967499
 31
0.0
  0
LINE
  5
52AD
  8
AM_0
 10
174.47042183688001
 20
242.23263032811411
 30
0.0
 11
174.55019749733711
 21
242.5303530929385
 31
0.0
  0
ARC
  5
52AE
  8
AM_0
 10
175.04236050480009
 20
242.504470859675
 30
0.0
 40
0.0999999999999866
 50
15.00019500657257
 51
90.0
  0
ARC
  5
52AF
  8
AM_0
 10
174.64678999187609
 20
242.504470859675
 30
0.0
 40
0.1000000000000014
 50
90.0
 51
164.9998049934274
  0
LINE
  5
52B0
  8
AM_0
 10
173.9704218368791
 20
242.69821882383491
 30
0.0
 11
173.9704218368791
 21
242.04130384018299
 31
0.0
  0
ARC
  5
52B1
  8
AM_0
 10
173.6704218368792
 20
242.69821882383491
 30
0.0
 40
0.3000000000000007
 50
0.0
 51
90.0
  0
LINE
  5
52B2
  8
AM_0
 10
172.47042183687901
 20
239.19964161196711
 30
0.0
 11
173.6704218368792
 21
239.19964161196711
 31
0.0
  0
LINE
  5
52B3
  8
AM_0
 10
173.6704218368792
 20
241.74130384018301
 30
0.0
 11
172.47042183687901
 21
241.74130384018301
 31
0.0
  0
LINE
  5
52B4
  8
AM_0
 10
175.32005756345109
 20
241.8544708596751
 30
0.0
 11
175.39678999187601
 21
241.8544708596751
 31
0.0
  0
ARC
  5
52B5
  8
AM_0
 10
173.6704218368792
 20
238.89964161196701
 30
0.0
 40
0.3000000000000007
 50
0.0
 51
90.0
  0
LINE
  5
52B6
  8
AM_0
 10
173.6704218368792
 20
237.42739842553411
 30
0.0
 11
172.47042183687901
 21
237.42739842553411
 31
0.0
  0
ARC
  5
52B7
  8
AM_0
 10
173.6704218368792
 20
237.72739842553401
 30
0.0
 40
0.3000000000000043
 50
270.0
 51
0.0
  0
LINE
  5
52B8
  8
AM_0
 10
173.6704218368792
 20
233.7544708596761
 30
0.0
 11
172.47042183687901
 21
233.7544708596761
 31
0.0
  0
ARC
  5
52B9
  8
AM_0
 10
173.6704218368792
 20
233.45447085967601
 30
0.0
 40
0.3000000000000007
 50
0.0
 51
90.0
  0
LINE
  5
52BA
  8
AM_0
 10
163.4704218368791
 20
242.88775068832189
 30
0.0
 11
169.9704218368791
 21
242.88775068832189
 31
0.0
  0
LINE
  5
52BB
  8
AM_0
 10
163.4704218368791
 20
243.387750688322
 30
0.0
 11
169.9704218368791
 21
243.387750688322
 31
0.0
  0
LINE
  5
52BC
  8
AM_0
 10
169.9704218368791
 20
233.25447085967511
 30
0.0
 11
163.4704218368791
 21
233.25447085967511
 31
0.0
  0
LINE
  5
52BD
  8
AM_0
 10
162.9704218368791
 20
233.754470859675
 30
0.0
 11
169.9704218368791
 21
233.754470859675
 31
0.0
  0
LINE
  5
52BE
  8
AM_0
 10
169.6704218368792
 20
243.754470859675
 30
0.0
 11
162.8324717720611
 21
243.754470859675
 31
0.0
  0
LINE
  5
52BF
  8
AM_0
 10
169.9704218368791
 20
234.10115892821599
 30
0.0
 11
163.4704218368791
 21
234.10115892821599
 31
0.0
  0
LINE
  5
52C0
  8
AM_0
 10
169.9704218368791
 20
242.40778279113411
 30
0.0
 11
163.4704218368791
 21
242.40778279113411
 31
0.0
  0
ARC
  5
52C1
  8
AM_0
 10
170.27042183687911
 20
244.45447085967501
 30
0.0
 40
0.2999999999999971
 50
90.0
 51
180.0
  0
ARC
  5
52C2
  8
AM_0
 10
169.6704218368792
 20
244.05447085967501
 30
0.0
 40
0.2999999999999971
 50
270.0
 51
0.0
  0
ARC
  5
52C3
  8
AM_0
 10
171.5954218368791
 20
238.254470859675
 30
0.0
 40
9.124999999999984
 50
152.92493329271929
 51
207.07506670728071
  0
LINE
  5
52C4
  8
AM_0
 10
162.19228737239661
 20
243.52269213927249
 30
0.0
 11
159.83023743721461
 21
241.55431719328749
 31
0.0
  0
LINE
  5
52C5
  8
AM_0
 10
162.9704218368791
 20
243.17603827616699
 30
0.0
 11
163.4704218368791
 21
243.754470859675
 31
0.0
  0
ARC
  5
52C6
  8
AM_0
 10
162.8324717720611
 20
242.75447085967519
 30
0.0
 40
1.0
 50
90.0
 51
129.805571092256
  0
LINE
  5
52C7
  8
AM_0
 10
163.4704218368791
 20
243.387750688322
 30
0.0
 11
162.9704218368791
 21
243.17603827616699
 31
0.0
  0
LINE
  5
52C8
  8
AM_0
 10
162.9704218368791
 20
242.71376300319599
 30
0.0
 11
163.4704218368791
 21
243.387750688322
 31
0.0
  0
LINE
  5
52C9
  8
AM_0
 10
163.4704218368791
 20
242.88775068832189
 30
0.0
 11
162.9704218368791
 21
242.71376300319599
 31
0.0
  0
LINE
  5
52CA
  8
AM_0
 10
162.9704218368791
 20
242.17603827616699
 30
0.0
 11
163.4704218368791
 21
242.88775068832189
 31
0.0
  0
LINE
  5
52CB
  8
AM_0
 10
163.4704218368791
 20
242.40778279113411
 30
0.0
 11
162.9704218368791
 21
242.17603827616699
 31
0.0
  0
ARC
  5
52CC
  8
AM_0
 10
160.4704218368791
 20
240.78609591368999
 30
0.0
 40
1.0000000000000291
 50
129.80557109226771
 51
180.0
  0
LINE
  5
52CD
  8
AM_0
 10
163.4704218368791
 20
233.25447085967511
 30
0.0
 11
162.9704218368791
 21
232.75447085967511
 31
0.0
  0
LINE
  5
52CE
  8
AM_0
 10
162.9704218368791
 20
233.754470859675
 30
0.0
 11
163.4704218368791
 21
233.25447085967511
 31
0.0
  0
LINE
  5
52CF
  8
AM_0
 10
163.4704218368791
 20
234.10115892821599
 30
0.0
 11
162.9704218368791
 21
233.754470859675
 31
0.0
  0
LINE
  5
52D0
  8
AM_0
 10
170.27042183687911
 20
220.75447085967511
 30
0.0
 11
172.47042183687901
 21
220.75447085967511
 31
0.0
  0
ARC
  5
52D1
  8
AM_0
 10
184.36909293322509
 20
220.25447085967511
 30
0.0
 40
0.5
 50
0.0
 51
90.000000000006537
  0
LINE
  5
52D2
  8
AM_0
 10
179.36909293322509
 20
223.654470859675
 30
0.0
 11
176.14678999187601
 21
223.654470859675
 31
0.0
  0
LINE
  5
52D3
  8
AM_0
 10
184.86909293322509
 20
231.610542181082
 30
0.0
 11
184.86909293322509
 21
221.898399538267
 31
0.0
  0
LINE
  5
52D4
  8
AM_0
 10
179.86909293322509
 20
232.110542181082
 30
0.0
 11
184.36909293322509
 21
232.110542181082
 31
0.0
  0
ARC
  5
52D5
  8
AM_0
 10
184.36909293322509
 20
231.610542181082
 30
0.0
 40
0.5
 50
0.0
 51
90.0
  0
LINE
  5
52D6
  8
AM_0
 10
179.86909293322509
 20
221.398399538267
 30
0.0
 11
184.36909293322509
 21
221.398399538267
 31
0.0
  0
LINE
  5
52D7
  8
AM_0
 10
184.36909293322501
 20
220.75447085967511
 30
0.0
 11
180.36909293322509
 21
220.75447085967511
 31
0.0
  0
ARC
  5
52D8
  8
AM_0
 10
184.36909293322509
 20
221.898399538267
 30
0.0
 40
0.5
 50
270.0
 51
0.0
  0
ARC
  5
52D9
  8
AM_0
 10
179.36909293322509
 20
223.154470859675
 30
0.0
 40
0.5
 50
0.0
 51
90.0
  0
ARC
  5
52DA
  8
AM_0
 10
180.36909293322509
 20
221.254470859675
 30
0.0
 40
0.5
 50
180.0
 51
270.0
  0
ARC
  5
52DB
  8
AM_0
 10
173.6704218368792
 20
226.60930010738301
 30
0.0
 40
0.3000000000000114
 50
270.0
 51
0.0
  0
LINE
  5
52DC
  8
AM_0
 10
172.47042183687901
 20
231.75447085967301
 30
0.0
 11
173.6704218368792
 21
231.75447085967301
 31
0.0
  0
ARC
  5
52DD
  8
AM_0
 10
173.6704218368792
 20
232.05447085967299
 30
0.0
 40
0.2999999999999971
 50
270.0
 51
0.0
  0
LINE
  5
52DE
  8
AM_0
 10
172.47042183687901
 20
228.081543293816
 30
0.0
 11
173.6704218368792
 21
228.081543293816
 31
0.0
  0
ARC
  5
52DF
  8
AM_0
 10
173.6704218368792
 20
227.7815432938159
 30
0.0
 40
0.3000000000000007
 50
0.0
 51
90.0
  0
LINE
  5
52E0
  8
AM_0
 10
173.9704218368791
 20
227.7815432938161
 30
0.0
 11
173.9704218368791
 21
226.60930010738309
 31
0.0
  0
LINE
  5
52E1
  8
AM_0
 10
175.39678999187601
 20
222.904470859675
 30
0.0
 11
175.7923605048
 21
222.904470859675
 31
0.0
  0
LINE
  5
52E2
  8
AM_0
 10
175.39678999187601
 20
222.904470859675
 30
0.0
 11
175.7923605048
 21
222.904470859675
 31
0.0
  0
LINE
  5
52E3
  8
AM_0
 10
175.88895299933921
 20
222.97858862641161
 30
0.0
 11
176.05019749733711
 21
223.58035309293851
 31
0.0
  0
LINE
  5
52E4
  8
AM_0
 10
175.88895299933921
 20
222.97858862641161
 30
0.0
 11
176.05019749733711
 21
223.58035309293851
 31
0.0
  0
ARC
  5
52E5
  8
AM_0
 10
176.14678999187601
 20
223.55447085967501
 30
0.0
 40
0.0999999999999943
 50
90.0
 51
164.9998049934874
  0
ARC
  5
52E6
  8
AM_0
 10
175.7923605048
 20
223.004470859675
 30
0.0
 40
0.0999999999999943
 50
270.0
 51
344.99980499349448
  0
LINE
  5
52E7
  8
AM_0
 10
174.469575248338
 20
223.2794708596748
 30
0.0
 11
174.55019749733711
 21
223.58035309293851
 31
0.0
  0
LINE
  5
52E8
  8
AM_0
 10
175.12180358543111
 20
223.61520632657701
 30
0.0
 11
175.300197497337
 21
222.97858862641161
 31
0.0
  0
LINE
  5
52E9
  8
AM_0
 10
175.13895299933921
 20
223.58035309293851
 30
0.0
 11
175.300197497337
 21
222.97858862641161
 31
0.0
  0
LINE
  5
52EA
  8
AM_0
 10
173.9704218368791
 20
223.46763787916609
 30
0.0
 11
173.9704218368791
 21
222.810722895515
 31
0.0
  0
LINE
  5
52EB
  8
AM_0
 10
174.47042183687901
 20
223.28263032811299
 30
0.0
 11
174.55019749733711
 21
223.58035309293851
 31
0.0
  0
LINE
  5
52EC
  8
AM_0
 10
172.47042183687901
 20
223.7676378791661
 30
0.0
 11
173.6704218368792
 21
223.7676378791661
 31
0.0
  0
LINE
  5
52ED
  8
AM_0
 10
173.6704218368792
 20
226.309300107383
 30
0.0
 11
172.47042183687901
 21
226.309300107382
 31
0.0
  0
LINE
  5
52EE
  8
AM_0
 10
175.07499277031511
 20
223.654470859675
 30
0.0
 11
175.12180358543111
 21
223.61520632657701
 31
0.0
  0
LINE
  5
52EF
  8
AM_0
 10
174.64678999187601
 20
223.654470859675
 30
0.0
 11
175.07499277031511
 21
223.654470859675
 31
0.0
  0
LINE
  5
52F0
  8
AM_0
 10
174.64678999187601
 20
223.654470859675
 30
0.0
 11
175.0423605048
 21
223.654470859675
 31
0.0
  0
ARC
  5
52F1
  8
AM_0
 10
174.64678999187601
 20
223.55447085967501
 30
0.0
 40
0.0999999999999943
 50
90.0
 51
164.9998049934874
  0
ARC
  5
52F2
  8
AM_0
 10
175.0423605048
 20
223.55447085967501
 30
0.0
 40
0.0999999999999608
 50
15.00019500651257
 51
90.0
  0
ARC
  5
52F3
  8
AM_0
 10
173.6704218368792
 20
223.46763787916601
 30
0.0
 40
0.3000000000000007
 50
0.0
 51
90.0
  0
LINE
  5
52F4
  8
AM_0
 10
172.47042183687901
 20
221.75447085967511
 30
0.0
 11
173.9704218368791
 21
221.75447085967511
 31
0.0
  0
LINE
  5
52F5
  8
AM_0
 10
173.6704218368792
 20
222.5107228955151
 30
0.0
 11
172.47042183687901
 21
222.5107228955151
 31
0.0
  0
LINE
  5
52F6
  8
AM_0
 10
173.6903775400362
 20
221.435801239885
 30
0.0
 11
172.47042183687901
 21
221.3544708596751
 31
0.0
  0
ARC
  5
52F7
  8
AM_0
 10
173.9704218368791
 20
222.25447085967519
 30
0.0
 40
0.5
 50
270.0
 51
0.0
  0
ARC
  5
52F8
  8
AM_0
 10
175.39678999187601
 20
223.004470859675
 30
0.0
 40
0.0999999999999606
 50
195.00019500650541
 51
270.0
  0
ARC
  5
52F9
  8
AM_0
 10
173.6704218368792
 20
222.810722895515
 30
0.0
 40
0.2999999999999971
 50
270.0
 51
0.0
  0
LINE
  5
52FA
  8
AM_0
 10
173.9704218368791
 20
221.75447085967511
 30
0.0
 11
173.9704218368791
 21
221.735136787242
 31
0.0
  0
ARC
  5
52FB
  8
AM_0
 10
173.6704218368792
 20
221.735136787242
 30
0.0
 40
0.3000000000000043
 50
273.81407483428148
 51
0.0
  0
ARC
  5
52FC
  8
AM_0
 10
185.36909293322509
 20
219.75447085967511
 30
0.0
 40
0.5
 50
180.0
 51
270.0
  0
LINE
  5
52FD
  8
AM_0
 10
184.86909293322509
 20
219.75447085967511
 30
0.0
 11
184.86909293322509
 21
220.25447085967511
 31
0.0
  0
LINE
  5
52FE
  8
AM_0
 10
163.4704218368791
 20
223.10115892821599
 30
0.0
 11
169.9704218368791
 21
223.10115892821599
 31
0.0
  0
LINE
  5
52FF
  8
AM_0
 10
163.4704218368791
 20
231.40778279113411
 30
0.0
 11
169.9704218368791
 21
231.40778279113411
 31
0.0
  0
LINE
  5
5300
  8
AM_0
 10
162.8324717720611
 20
221.75447085967511
 30
0.0
 11
169.6704218368792
 21
221.75447085967511
 31
0.0
  0
LINE
  5
5301
  8
AM_0
 10
169.9704218368791
 20
231.754470859675
 30
0.0
 11
162.9704218368791
 21
231.754470859675
 31
0.0
  0
LINE
  5
5302
  8
AM_0
 10
163.4704218368791
 20
232.25447085967511
 30
0.0
 11
169.9704218368791
 21
232.25447085967511
 31
0.0
  0
LINE
  5
5303
  8
AM_0
 10
169.9704218368791
 20
222.121191031027
 30
0.0
 11
163.4704218368791
 21
222.121191031027
 31
0.0
  0
LINE
  5
5304
  8
AM_0
 10
169.9704218368791
 20
222.621191031027
 30
0.0
 11
163.4704218368791
 21
222.621191031027
 31
0.0
  0
ARC
  5
5305
  8
AM_0
 10
169.6704218368792
 20
221.45447085967501
 30
0.0
 40
0.3000000000000043
 50
0.0
 51
90.0
  0
ARC
  5
5306
  8
AM_0
 10
170.27042183687911
 20
221.05447085967501
 30
0.0
 40
0.2999999999999971
 50
180.0
 51
270.0
  0
ARC
  5
5307
  8
AM_0
 10
171.5954218368791
 20
227.254470859675
 30
0.0
 40
9.124999999999984
 50
152.92493329271929
 51
207.07506670728071
  0
LINE
  5
5308
  8
AM_0
 10
162.9704218368791
 20
231.754470859675
 30
0.0
 11
163.4704218368791
 21
231.40778279113411
 31
0.0
  0
LINE
  5
5309
  8
AM_0
 10
163.4704218368791
 20
232.25447085967511
 30
0.0
 11
162.9704218368791
 21
231.754470859675
 31
0.0
  0
LINE
  5
530A
  8
AM_0
 10
159.83023743721461
 20
223.95462452606159
 30
0.0
 11
162.19228737239661
 21
221.98624958007761
 31
0.0
  0
LINE
  5
530B
  8
AM_0
 10
163.4704218368791
 20
221.75447085967511
 30
0.0
 11
162.9704218368791
 21
222.33290344318209
 31
0.0
  0
ARC
  5
530C
  8
AM_0
 10
162.8324717720611
 20
222.75447085967511
 30
0.0
 40
1.0000000000000411
 50
230.19442890774391
 51
270.0
  0
LINE
  5
530D
  8
AM_0
 10
162.9704218368791
 20
223.33290344318209
 30
0.0
 11
163.4704218368791
 21
223.10115892821599
 31
0.0
  0
LINE
  5
530E
  8
AM_0
 10
163.4704218368791
 20
222.621191031027
 30
0.0
 11
162.9704218368791
 21
223.33290344318209
 31
0.0
  0
LINE
  5
530F
  8
AM_0
 10
162.9704218368791
 20
222.795178716154
 30
0.0
 11
163.4704218368791
 21
222.621191031027
 31
0.0
  0
LINE
  5
5310
  8
AM_0
 10
163.4704218368791
 20
222.121191031027
 30
0.0
 11
162.9704218368791
 21
222.795178716154
 31
0.0
  0
LINE
  5
5311
  8
AM_0
 10
162.9704218368791
 20
222.33290344318209
 30
0.0
 11
163.4704218368791
 21
222.121191031027
 31
0.0
  0
ARC
  5
5312
  8
AM_0
 10
160.4704218368791
 20
224.72284580565889
 30
0.0
 40
1.0
 50
180.0
 51
230.19442890773229
  0
CIRCLE
  5
5313
  8
AM_0
 10
193.86909293322341
 20
258.7544708596746
 30
0.0
 40
4.0
  0
LINE
  5
5314
  8
AM_0
 10
193.55759293322339
 20
256.47566245395041
 30
0.0
 11
194.18059293322341
 21
256.47566245395041
 31
0.0
  0
LINE
  5
5315
  8
AM_0
 10
193.55759293322339
 20
261.03327926539907
 30
0.0
 11
194.18059293322341
 21
261.03327926539907
 31
0.0
  0
LINE
  5
5316
  8
AM_0
 10
193.55759293322339
 20
256.47566245395041
 30
0.0
 11
193.55759293322339
 21
258.44297085967469
 31
0.0
  0
LINE
  5
5317
  8
AM_0
 10
193.55759293322339
 20
259.06597085967462
 30
0.0
 11
193.55759293322339
 21
261.03327926539907
 31
0.0
  0
LINE
  5
5318
  8
AM_0
 10
193.55759293322339
 20
259.06597085967462
 30
0.0
 11
191.59028452749911
 21
259.06597085967462
 31
0.0
  0
LINE
  5
5319
  8
AM_0
 10
193.55759293322339
 20
258.44297085967469
 30
0.0
 11
191.59028452749911
 21
258.44297085967469
 31
0.0
  0
LINE
  5
531A
  8
AM_0
 10
191.59028452749911
 20
259.06597085967462
 30
0.0
 11
191.59028452749911
 21
258.44297085967469
 31
0.0
  0
LINE
  5
531B
  8
AM_0
 10
194.18059293322341
 20
256.47566245395041
 30
0.0
 11
194.18059293322341
 21
258.44297085967469
 31
0.0
  0
LINE
  5
531C
  8
AM_0
 10
194.18059293322341
 20
259.06597085967462
 30
0.0
 11
194.18059293322341
 21
261.03327926539907
 31
0.0
  0
LINE
  5
531D
  8
AM_0
 10
196.1479013389478
 20
258.44297085967469
 30
0.0
 11
194.18059293322341
 21
258.44297085967469
 31
0.0
  0
LINE
  5
531E
  8
AM_0
 10
196.1479013389478
 20
259.06597085967462
 30
0.0
 11
194.18059293322341
 21
259.06597085967462
 31
0.0
  0
LINE
  5
531F
  8
AM_0
 10
196.1479013389478
 20
259.06597085967462
 30
0.0
 11
196.1479013389478
 21
258.44297085967469
 31
0.0
  0
CIRCLE
  5
5320
  8
AM_0
 10
279.86909293322702
 20
258.7544708596746
 30
0.0
 40
4.0
  0
LINE
  5
5321
  8
AM_0
 10
279.55759293322711
 20
256.47566245395018
 30
0.0
 11
280.18059293322699
 21
256.47566245395018
 31
0.0
  0
LINE
  5
5322
  8
AM_0
 10
279.55759293322711
 20
261.03327926539902
 30
0.0
 11
280.18059293322699
 21
261.03327926539902
 31
0.0
  0
LINE
  5
5323
  8
AM_0
 10
279.55759293322711
 20
256.47566245395018
 30
0.0
 11
279.55759293322711
 21
258.44297085967457
 31
0.0
  0
LINE
  5
5324
  8
AM_0
 10
279.55759293322711
 20
259.06597085967462
 30
0.0
 11
279.55759293322711
 21
261.03327926539902
 31
0.0
  0
LINE
  5
5325
  8
AM_0
 10
279.55759293322711
 20
259.06597085967462
 30
0.0
 11
277.5902845275026
 21
259.06597085967462
 31
0.0
  0
LINE
  5
5326
  8
AM_0
 10
279.55759293322711
 20
258.44297085967457
 30
0.0
 11
277.5902845275026
 21
258.44297085967457
 31
0.0
  0
LINE
  5
5327
  8
AM_0
 10
277.5902845275026
 20
259.06597085967462
 30
0.0
 11
277.5902845275026
 21
258.44297085967457
 31
0.0
  0
LINE
  5
5328
  8
AM_0
 10
280.18059293322699
 20
256.47566245395018
 30
0.0
 11
280.18059293322699
 21
258.44297085967457
 31
0.0
  0
LINE
  5
5329
  8
AM_0
 10
280.18059293322699
 20
259.06597085967462
 30
0.0
 11
280.18059293322699
 21
261.03327926539902
 31
0.0
  0
LINE
  5
532A
  8
AM_0
 10
282.14790133895133
 20
258.44297085967457
 30
0.0
 11
280.18059293322699
 21
258.44297085967457
 31
0.0
  0
LINE
  5
532B
  8
AM_0
 10
282.14790133895133
 20
259.06597085967462
 30
0.0
 11
280.18059293322699
 21
259.06597085967462
 31
0.0
  0
LINE
  5
532C
  8
AM_0
 10
282.14790133895133
 20
259.06597085967462
 30
0.0
 11
282.14790133895133
 21
258.44297085967457
 31
0.0
  0
LINE
  5
532D
  8
AM_0
 10
207.40462683915811
 20
262.29000476560782
 30
0.0
 11
190.33355902729241
 21
245.21893695374251
 31
0.0
  0
LINE
  5
532E
  8
AM_0
 10
208.06148108865031
 20
257.2900047656077
 30
0.0
 11
195.33355902729241
 21
244.56208270425
 31
0.0
  0
ARC
  5
532F
  8
AM_0
 10
198.86909293322509
 20
241.02654879831709
 30
0.0
 40
5.0
 50
135.0
 51
180.0
1001
GENIUS_GENOBJ-N-FIL_13
1002
{
1000
OWNER
1000
GEN
1002
}
1001
GENIUS_GENODEF_13
1002
{
1000
HIER
1070
     0
1002
}
1002
{
1000
MANEDIT
1070
     0
1002
}
1002
{
1000
NOSEL
1070
     0
1002
}
1002
{
1000
BEHIND
1070
     0
1002
}
1002
{
1000
OTHER
1070
     0
1002
}
1002
{
1000
REACTOR
1002
}
  0
LINE
  5
5330
  8
AM_0
 10
266.33355902729238
 20
173.21893695374209
 30
0.0
 11
283.40462683915803
 21
190.29000476560751
 31
0.0
  0
ARC
  5
5331
  8
AM_0
 10
262.79802512135967
 20
176.7544708596748
 30
0.0
 40
5.0
 50
270.0
 51
315.0
1001
GENIUS_GENODEF_13
1002
{
1000
HIER
1070
     0
1002
}
1002
{
1000
MANEDIT
1070
     0
1002
}
1002
{
1000
NOSEL
1070
     0
1002
}
1002
{
1000
BEHIND
1070
     0
1002
}
1002
{
1000
OTHER
1070
     0
1002
}
1002
{
1000
REACTOR
1002
}
1001
GENIUS_GENOBJ-N-FIL_13
1002
{
1000
OWNER
1000
GEN
1002
}
  0
LINE
  5
5332
  8
AM_0
 10
265.67670477780013
 20
178.21893695374209
 30
0.0
 11
278.40462683915791
 21
190.9468590150997
 31
0.0
  0
ARC
  5
5333
  8
AM_0
 10
274.86909293322532
 20
194.4823929210325
 30
0.0
 40
5.0
 50
315.0
 51
0.0
1001
GENIUS_GENOBJ-N-FIL_13
1002
{
1000
OWNER
1000
GEN
1002
}
1001
GENIUS_GENODEF_13
1002
{
1000
HIER
1070
     0
1002
}
1002
{
1000
MANEDIT
1070
     0
1002
}
1002
{
1000
NOSEL
1070
     0
1002
}
1002
{
1000
BEHIND
1070
     0
1002
}
1002
{
1000
OTHER
1070
     0
1002
}
1002
{
1000
REACTOR
1002
}
  0
LINE
  5
5334
  8
AM_0
 10
207.40462683915791
 20
173.21893695374209
 30
0.0
 11
190.33355902729241
 21
190.29000476560731
 31
0.0
  0
LINE
  5
5335
  8
AM_0
 10
208.06148108865011
 20
178.21893695374209
 30
0.0
 11
195.33355902729241
 21
190.9468590150997
 31
0.0
  0
ARC
  5
5336
  8
AM_0
 10
211.59701499458279
 20
181.7544708596748
 30
0.0
 40
5.0
 50
225.0
 51
270.0
1001
GENIUS_GENOBJ-N-FIL_13
1002
{
1000
OWNER
1000
GEN
1002
}
1001
GENIUS_GENODEF_13
1002
{
1000
HIER
1070
     0
1002
}
1002
{
1000
MANEDIT
1070
     0
1002
}
1002
{
1000
NOSEL
1070
     0
1002
}
1002
{
1000
BEHIND
1070
     0
1002
}
1002
{
1000
OTHER
1070
     0
1002
}
1002
{
1000
REACTOR
1002
}
  0
CIRCLE
  5
5337
  8
AM_0
 10
193.8690929332233
 20
176.75447085967531
 30
0.0
 40
4.0
  0
LINE
  5
5338
  8
AM_0
 10
193.55759293322339
 20
179.03327926539961
 30
0.0
 11
194.18059293322321
 21
179.03327926539961
 31
0.0
  0
LINE
  5
5339
  8
AM_0
 10
193.55759293322339
 20
174.47566245395089
 30
0.0
 11
194.18059293322321
 21
174.47566245395089
 31
0.0
  0
LINE
  5
533A
  8
AM_0
 10
193.55759293322339
 20
179.03327926539961
 30
0.0
 11
193.55759293322339
 21
177.0659708596753
 31
0.0
  0
LINE
  5
533B
  8
AM_0
 10
193.55759293322339
 20
176.44297085967511
 30
0.0
 11
193.55759293322339
 21
174.47566245395089
 31
0.0
  0
LINE
  5
533C
  8
AM_0
 10
193.55759293322339
 20
176.44297085967511
 30
0.0
 11
191.59028452749899
 21
176.44297085967511
 31
0.0
  0
LINE
  5
533D
  8
AM_0
 10
193.55759293322339
 20
177.0659708596753
 30
0.0
 11
191.59028452749899
 21
177.0659708596753
 31
0.0
  0
LINE
  5
533E
  8
AM_0
 10
191.59028452749899
 20
176.44297085967511
 30
0.0
 11
191.59028452749899
 21
177.0659708596753
 31
0.0
  0
LINE
  5
533F
  8
AM_0
 10
194.18059293322321
 20
179.03327926539961
 30
0.0
 11
194.18059293322321
 21
177.0659708596753
 31
0.0
  0
LINE
  5
5340
  8
AM_0
 10
194.18059293322321
 20
176.44297085967511
 30
0.0
 11
194.18059293322321
 21
174.47566245395089
 31
0.0
  0
LINE
  5
5341
  8
AM_0
 10
196.14790133894769
 20
177.0659708596753
 30
0.0
 11
194.18059293322321
 21
177.0659708596753
 31
0.0
  0
LINE
  5
5342
  8
AM_0
 10
196.14790133894769
 20
176.44297085967511
 30
0.0
 11
194.18059293322321
 21
176.44297085967511
 31
0.0
  0
LINE
  5
5343
  8
AM_0
 10
196.14790133894769
 20
176.44297085967511
 30
0.0
 11
196.14790133894769
 21
177.0659708596753
 31
0.0
  0
CIRCLE
  5
5344
  8
AM_0
 10
279.86909293322691
 20
176.754470859675
 30
0.0
 40
4.0
  0
LINE
  5
5345
  8
AM_0
 10
279.55759293322677
 20
179.0332792653995
 30
0.0
 11
280.18059293322688
 21
179.0332792653995
 31
0.0
  0
LINE
  5
5346
  8
AM_0
 10
279.55759293322677
 20
174.4756624539508
 30
0.0
 11
280.18059293322688
 21
174.4756624539508
 31
0.0
  0
LINE
  5
5347
  8
AM_0
 10
279.55759293322677
 20
179.0332792653995
 30
0.0
 11
279.55759293322677
 21
177.0659708596751
 31
0.0
  0
LINE
  5
5348
  8
AM_0
 10
279.55759293322677
 20
176.442970859675
 30
0.0
 11
279.55759293322677
 21
174.4756624539508
 31
0.0
  0
LINE
  5
5349
  8
AM_0
 10
279.55759293322677
 20
176.442970859675
 30
0.0
 11
277.59028452750249
 21
176.442970859675
 31
0.0
  0
LINE
  5
534A
  8
AM_0
 10
279.55759293322677
 20
177.0659708596751
 30
0.0
 11
277.59028452750249
 21
177.0659708596751
 31
0.0
  0
LINE
  5
534B
  8
AM_0
 10
277.59028452750249
 20
176.442970859675
 30
0.0
 11
277.59028452750249
 21
177.0659708596751
 31
0.0
  0
LINE
  5
534C
  8
AM_0
 10
280.18059293322688
 20
179.0332792653995
 30
0.0
 11
280.18059293322688
 21
177.0659708596751
 31
0.0
  0
LINE
  5
534D
  8
AM_0
 10
280.18059293322688
 20
176.442970859675
 30
0.0
 11
280.18059293322688
 21
174.4756624539508
 31
0.0
  0
LINE
  5
534E
  8
AM_0
 10
282.14790133895121
 20
177.0659708596751
 30
0.0
 11
280.18059293322688
 21
177.0659708596751
 31
0.0
  0
LINE
  5
534F
  8
AM_0
 10
282.14790133895121
 20
176.442970859675
 30
0.0
 11
280.18059293322688
 21
176.442970859675
 31
0.0
  0
LINE
  5
5350
  8
AM_0
 10
282.14790133895121
 20
176.442970859675
 30
0.0
 11
282.14790133895121
 21
177.0659708596751
 31
0.0
  0
LINE
  5
5351
  8
AM_0
 10
188.86909293322509
 20
186.75447085967491
 30
0.0
 11
187.86909293322509
 21
186.75447085967491
 31
0.0
  0
LINE
  5
5352
  8
AM_0
 10
188.86909293322509
 20
248.754470859675
 30
0.0
 11
187.86909293322509
 21
248.75447085967491
 31
0.0
  0
LINE
  5
5353
  8
AM_0
 10
187.86909293322509
 20
186.75447085967491
 30
0.0
 11
187.86909293322509
 21
248.75447085967491
 31
0.0
  0
LINE
  5
5354
  8
ﾁｭｳｼﾝｾﾝ1
 10
193.86909293322299
 20
252.7544708596746
 30
0.0
 11
193.8690929332237
 21
264.7544708596746
 31
0.0
  0
LINE
  5
5355
  8
ﾁｭｳｼﾝｾﾝ1
 10
199.86909293322341
 20
258.75447085967443
 30
0.0
 11
187.86909293322341
 21
258.754470859675
 31
0.0
  0
LINE
  5
5356
  8
ﾁｭｳｼﾝｾﾝ1
 10
193.8690929332229
 20
170.75447085967531
 30
0.0
 11
193.8690929332237
 21
182.75447085967531
 31
0.0
  0
LINE
  5
5357
  8
ﾁｭｳｼﾝｾﾝ1
 10
199.8690929332233
 20
176.754470859675
 30
0.0
 11
187.8690929332233
 21
176.75447085967559
 31
0.0
  0
LINE
  5
5358
  8
ﾁｭｳｼﾝｾﾝ1
 10
279.86909293322651
 20
170.754470859675
 30
0.0
 11
279.86909293322708
 21
182.754470859675
 31
0.0
  0
LINE
  5
5359
  8
ﾁｭｳｼﾝｾﾝ1
 10
285.86909293322691
 20
176.7544708596748
 30
0.0
 11
273.8690929332268
 21
176.75447085967551
 31
0.0
  0
LINE
  5
535D
  8
AM_0
 10
173.8495157132034
 20
221.49445985967489
 30
0.0
 11
179.86909293322509
 21
221.49445985967489
 31
0.0
  0
LINE
  5
535E
  8
ﾁｭｳｼﾝｾﾝ1
 10
157.86909293322509
 20
197.7544708596748
 30
0.0
 11
191.16703907171541
 21
197.7544708596748
 31
0.0
  0
LINE
  5
535F
  8
AM_0
 10
177.74409293322611
 20
191.36441680355071
 30
0.0
 11
177.75480253777121
 21
191.1544708596748
 31
0.0
  0
LINE
  5
5360
  8
AM_0
 10
177.75480253777121
 20
191.1544708596748
 30
0.0
 11
177.7911079249721
 21
190.44275748578769
 31
0.0
  0
LINE
  5
5361
  8
AM_0
 10
177.74409293322611
 20
195.1217483511918
 30
0.0
 11
177.99011915590609
 21
191.1544708596748
 31
0.0
  0
LINE
  5
5362
  8
AM_0
 10
178.4624220972552
 20
191.1544708596748
 30
0.0
 11
178.06685158433109
 21
191.1544708596748
 31
0.0
  0
LINE
  5
5363
  8
AM_0
 10
177.97025908979211
 20
191.08035309293919
 30
0.0
 11
177.80901459179429
 21
190.47858862641121
 31
0.0
  0
LINE
  5
5364
  8
AM_0
 10
177.99011915590609
 20
191.1544708596748
 30
0.0
 11
177.97025908979211
 21
191.08035309293919
 31
0.0
  0
LINE
  5
5365
  8
AM_0
 10
176.2440929332262
 20
188.75447085967491
 30
0.0
 11
176.2440929332262
 21
189.0544708596758
 31
0.0
  0
LINE
  5
5366
  8
AM_0
 10
165.74409293322509
 20
197.75447085967491
 30
0.0
 11
165.74409293322509
 21
192.4354958272657
 31
0.0
  0
LINE
  5
5367
  8
AM_0
 10
176.2440929332262
 20
189.25447085967571
 30
0.0
 11
177.5440929332261
 21
189.25447085967571
 31
0.0
  0
LINE
  5
5368
  8
AM_0
 10
177.24409293322509
 20
189.22596712830961
 30
0.0
 11
177.2440929332262
 21
189.25447085967571
 31
0.0
  0
LINE
  5
5369
  8
AM_0
 10
168.2440929332231
 20
190.22227965153891
 30
0.0
 11
174.2440929332262
 21
190.22227965153891
 31
0.0
  0
LINE
  5
536A
  8
AM_0
 10
174.2440929332262
 20
189.72227965153891
 30
0.0
 11
168.24409293322219
 21
189.72227965153891
 31
0.0
  0
LINE
  5
536B
  8
AM_0
 10
168.24409293322219
 20
189.72227965153891
 30
0.0
 11
168.74409293322219
 21
189.25447085967491
 31
0.0
  0
LINE
  5
536C
  8
AM_0
 10
168.74409293322219
 20
189.72227965153891
 30
0.0
 11
168.2440929332231
 21
190.22227965153891
 31
0.0
  0
LINE
  5
536D
  8
AM_0
 10
168.2440929332231
 20
190.89325492750791
 30
0.0
 11
168.74409293322219
 21
190.22227965153891
 31
0.0
  0
LINE
  5
536E
  8
AM_0
 10
168.74409293322219
 20
190.9427331681849
 30
0.0
 11
168.2440929332231
 21
190.89325492750791
 31
0.0
  0
LINE
  5
536F
  8
AM_0
 10
174.2440929332262
 20
196.66427702461689
 30
0.0
 11
174.2440929332262
 21
197.75447085967491
 31
0.0
  0
LINE
  5
5370
  8
AM_0
 10
168.24409293322219
 20
196.75447085967491
 30
0.0
 11
174.2440929332262
 21
196.75447085967491
 31
0.0
  0
LINE
  5
5371
  8
AM_0
 10
168.74409293322219
 20
196.06620855116481
 30
0.0
 11
168.24409293322219
 21
196.75447085967491
 31
0.0
  0
LINE
  5
5372
  8
AM_0
 10
168.24409293322219
 20
196.75447085967491
 30
0.0
 11
168.7440929332231
 21
197.25447085967491
 31
0.0
  0
LINE
  5
5373
  8
AM_0
 10
168.2440929332231
 20
197.75447085967491
 30
0.0
 11
168.7440929332231
 21
197.25447085967491
 31
0.0
  0
LINE
  5
5374
  8
AM_0
 10
168.7440929332231
 20
197.25447085967491
 30
0.0
 11
174.2440929332262
 21
197.25447085967491
 31
0.0
  0
LINE
  5
5375
  8
AM_0
 10
168.74409293322219
 20
196.06620855116481
 30
0.0
 11
174.2440929332262
 21
196.06620855116481
 31
0.0
  0
LINE
  5
5376
  8
AM_0
 10
168.74409293322219
 20
190.9427331681849
 30
0.0
 11
174.2440929332262
 21
190.9427331681859
 31
0.0
  0
LINE
  5
5377
  8
AM_0
 10
177.24409293322509
 20
197.3044708596758
 30
0.0
 11
177.2440929332262
 21
197.75447085967491
 31
0.0
  0
LINE
  5
5378
  8
AM_0
 10
176.2440929332262
 20
189.0544708596758
 30
0.0
 11
176.2440929332262
 21
197.75447085967679
 31
0.0
  0
LINE
  5
5379
  8
AM_0
 10
176.94409293322511
 20
190.79696617164279
 30
0.0
 11
176.2440929332262
 21
190.79696617164279
 31
0.0
  0
LINE
  5
537A
  8
AM_0
 10
177.24409293322509
 20
190.09185531435281
 30
0.0
 11
177.24409293322509
 21
190.49696617164281
 31
0.0
  0
LINE
  5
537B
  8
AM_0
 10
176.2440929332262
 20
189.79185531435289
 30
0.0
 11
176.94409293322511
 21
189.79185531435289
 31
0.0
  0
LINE
  5
537C
  8
AM_0
 10
176.94409293322511
 20
194.17056635704381
 30
0.0
 11
176.2440929332262
 21
194.17056635704381
 31
0.0
  0
LINE
  5
537D
  8
AM_0
 10
177.24409293322509
 20
193.07065009075191
 30
0.0
 11
177.24409293322509
 21
193.8705663570438
 31
0.0
  0
LINE
  5
537E
  8
AM_0
 10
176.2440929332262
 20
192.7706500907517
 30
0.0
 11
176.94409293322511
 21
192.7706500907517
 31
0.0
  0
LINE
  5
537F
  8
AM_0
 10
176.2440929332262
 20
197.00447085967491
 30
0.0
 11
176.94409293322511
 21
197.00447085967491
 31
0.0
  0
LINE
  5
5380
  8
AM_0
 10
177.74409293322611
 20
197.7544708596748
 30
0.0
 11
177.74409293322611
 21
189.45447085967581
 31
0.0
  0
LINE
  5
5381
  8
AM_0
 10
174.44409293322511
 20
188.75447085967491
 30
0.0
 11
176.2440929332262
 21
188.75447085967491
 31
0.0
  0
LINE
  5
5382
  8
AM_0
 10
165.8599822934261
 20
192.11540362743381
 30
0.0
 11
168.094169766416
 21
189.4343786598412
 31
0.0
  0
LINE
  5
5383
  8
AM_0
 10
176.97394404893171
 20
188.9274559712469
 30
0.0
 11
176.2440929332262
 21
188.8544708596759
 31
0.0
  0
LINE
  5
5384
  8
AM_0
 10
174.0440929332261
 20
189.25447085967491
 30
0.0
 11
168.47828040621519
 21
189.25447085967289
 31
0.0
  0
LINE
  5
5385
  8
AM_0
 10
174.2440929332262
 20
196.66427702461689
 30
0.0
 11
174.2440929332262
 21
189.05447085967469
 31
0.0
  0
LINE
  5
5386
  8
AM_0
 10
174.2440929332262
 20
189.05447085967469
 30
0.0
 11
174.24409293322509
 21
188.95447085967481
 31
0.0
  0
LINE
  5
5387
  8
AM_0
 10
181.86909293322509
 20
189.45447085967501
 30
0.0
 11
181.86909293322509
 21
196.06620855116481
 31
0.0
  0
LINE
  5
5388
  8
AM_0
 10
178.36909293322611
 20
197.7544708596748
 30
0.0
 11
178.74184679123621
 21
190.4383325121548
 31
0.0
  0
LINE
  5
5389
  8
AM_0
 10
178.91812830300111
 20
197.7544708596748
 30
0.0
 11
179.29110792497201
 21
190.44275748578769
 31
0.0
  0
LINE
  5
538A
  8
AM_0
 10
178.55901459179421
 20
191.08035309293831
 30
0.0
 11
178.53915452568111
 21
191.1544708596748
 31
0.0
  0
LINE
  5
538B
  8
AM_0
 10
179.49011915590609
 20
191.1544708596748
 30
0.0
 11
179.47025908979211
 21
191.08035309293919
 31
0.0
  0
LINE
  5
538C
  8
AM_0
 10
179.21242209725509
 20
190.4044708596748
 30
0.0
 11
178.8168515843312
 21
190.4044708596748
 31
0.0
  0
LINE
  5
538D
  8
AM_0
 10
178.72025908979191
 20
190.47858862641141
 30
0.0
 11
178.55901459179421
 21
191.08035309293831
 31
0.0
  0
LINE
  5
538E
  8
AM_0
 10
179.47025908979211
 20
191.08035309293919
 30
0.0
 11
179.30901459179421
 21
190.47858862641121
 31
0.0
  0
LINE
  5
538F
  8
AM_0
 10
178.1298629968781
 20
197.7544708596748
 30
0.0
 11
178.53915452568111
 21
191.1544708596748
 31
0.0
  0
LINE
  5
5390
  8
AM_0
 10
179.08082762710319
 20
197.7544708596748
 30
0.0
 11
179.49011915590609
 21
191.1544708596748
 31
0.0
  0
LINE
  5
5391
  8
AM_0
 10
179.5668515843312
 20
191.1544708596748
 30
0.0
 11
181.36909293322509
 21
191.1544708596748
 31
0.0
  0
LINE
  5
5392
  8
AM_0
 10
181.86909293322509
 20
196.06620855116481
 30
0.0
 11
181.86909293322509
 21
197.75447085967571
 31
0.0
  0
LINE
  5
5393
  8
AM_0
 10
182.06909293322511
 20
189.2544708596748
 30
0.0
 11
185.6690929332251
 21
189.2544708596748
 31
0.0
  0
LINE
  5
5394
  8
AM_0
 10
185.6690929332251
 20
196.06620855116481
 30
0.0
 11
181.86909293322509
 21
196.06620855116481
 31
0.0
  0
LINE
  5
5395
  8
AM_0
 10
181.86909293322509
 20
190.9427331681859
 30
0.0
 11
185.6690929332251
 21
190.9427331681859
 31
0.0
  0
LINE
  5
5396
  8
AM_0
 10
160.86909293322509
 20
197.75447085967491
 30
0.0
 11
160.86909293322509
 21
193.5044708596748
 31
0.0
  0
LINE
  5
5397
  8
AM_0
 10
165.74409293322509
 20
193.45333449603879
 30
0.0
 11
160.86909293322509
 21
193.5044708596748
 31
0.0
  0
LINE
  5
5398
  8
AM_0
 10
160.8690929332252
 20
202.00447085967491
 30
0.0
 11
165.7440929332252
 21
202.05560722331191
 31
0.0
  0
LINE
  5
5399
  8
AM_0
 10
160.8690929332252
 20
202.00447085967491
 30
0.0
 11
160.86909293322509
 21
197.75447085967491
 31
0.0
  0
LINE
  5
539A
  8
AM_0
 10
185.6690929332251
 20
204.56620855116481
 30
0.0
 11
181.8690929332252
 21
204.56620855116481
 31
0.0
  0
LINE
  5
539B
  8
AM_0
 10
181.86909293322509
 20
199.4427331681859
 30
0.0
 11
185.6690929332251
 21
199.4427331681859
 31
0.0
  0
LINE
  5
539C
  8
AM_0
 10
185.6690929332251
 20
206.2544708596748
 30
0.0
 11
182.06909293322511
 21
206.2544708596748
 31
0.0
  0
LINE
  5
539D
  8
AM_0
 10
181.86909293322509
 20
197.75447085967571
 30
0.0
 11
181.86909293322509
 21
199.4427331681859
 31
0.0
  0
LINE
  5
539E
  8
AM_0
 10
181.3690929332252
 20
204.3544708596749
 30
0.0
 11
178.8208253616512
 21
204.3544708596749
 31
0.0
  0
LINE
  5
539F
  8
AM_0
 10
178.7440929332252
 20
204.3544708596749
 30
0.0
 11
179.08082762710319
 21
197.7544708596748
 31
0.0
  0
LINE
  5
53A0
  8
AM_0
 10
177.79312830300009
 20
204.3544708596749
 30
0.0
 11
178.1298629968781
 21
197.7544708596748
 31
0.0
  0
LINE
  5
53A1
  8
AM_0
 10
178.56298836911421
 20
205.0303530929383
 30
0.0
 11
178.72423286711211
 21
204.42858862641131
 31
0.0
  0
LINE
  5
53A2
  8
AM_0
 10
177.81298836911429
 20
204.42858862641131
 30
0.0
 11
177.97423286711199
 21
205.03035309293821
 31
0.0
  0
LINE
  5
53A3
  8
AM_0
 10
178.0708253616512
 20
205.10447085967479
 30
0.0
 11
178.4663958745752
 21
205.10447085967479
 31
0.0
  0
LINE
  5
53A4
  8
AM_0
 10
178.72423286711211
 20
204.42858862641131
 30
0.0
 11
178.7440929332252
 21
204.3544708596749
 31
0.0
  0
LINE
  5
53A5
  8
AM_0
 10
177.79312830300009
 20
204.3544708596749
 30
0.0
 11
177.81298836911429
 21
204.42858862641131
 31
0.0
  0
LINE
  5
53A6
  8
AM_0
 10
178.54508170229221
 20
205.0661842335619
 30
0.0
 11
178.91812830300111
 21
197.7544708596748
 31
0.0
  0
LINE
  5
53A7
  8
AM_0
 10
177.99582056855621
 20
205.0706092071957
 30
0.0
 11
178.36909293322611
 21
197.7544708596748
 31
0.0
  0
LINE
  5
53A8
  8
AM_0
 10
181.86909293322509
 20
199.4427331681859
 30
0.0
 11
181.8690929332252
 21
206.0544708596756
 31
0.0
  0
LINE
  5
53A9
  8
AM_0
 10
174.2440929332252
 20
206.5544708596758
 30
0.0
 11
174.2440929332262
 21
206.45447085967589
 31
0.0
  0
LINE
  5
53AA
  8
AM_0
 10
174.2440929332262
 20
206.45447085967589
 30
0.0
 11
174.2440929332262
 21
198.84466469473381
 31
0.0
  0
LINE
  5
53AB
  8
AM_0
 10
168.47828040621519
 20
206.25447085967789
 30
0.0
 11
174.04409293322621
 21
206.25447085967579
 31
0.0
  0
LINE
  5
53AC
  8
AM_0
 10
176.2440929332262
 20
206.6544708596748
 30
0.0
 11
176.9739440489318
 21
206.58148574810389
 31
0.0
  0
LINE
  5
53AD
  8
AM_0
 10
168.09416976641609
 20
206.0745630595095
 30
0.0
 11
165.8599822934263
 21
203.39353809191689
 31
0.0
  0
LINE
  5
53AE
  8
AM_0
 10
176.2440929332262
 20
206.75447085967491
 30
0.0
 11
174.44409293322511
 21
206.75447085967491
 31
0.0
  0
LINE
  5
53AF
  8
AM_0
 10
177.74409293322611
 20
206.05447085967481
 30
0.0
 11
177.74409293322611
 21
197.7544708596748
 31
0.0
  0
LINE
  5
53B0
  8
AM_0
 10
176.94409293322511
 20
198.50447085967491
 30
0.0
 11
176.2440929332262
 21
198.50447085967491
 31
0.0
  0
LINE
  5
53B1
  8
AM_0
 10
176.94409293322511
 20
202.73829162859889
 30
0.0
 11
176.2440929332262
 21
202.73829162859889
 31
0.0
  0
LINE
  5
53B2
  8
AM_0
 10
177.2440929332252
 20
201.6383753623069
 30
0.0
 11
177.2440929332252
 21
202.43829162859879
 31
0.0
  0
LINE
  5
53B3
  8
AM_0
 10
176.2440929332262
 20
201.33837536230681
 30
0.0
 11
176.94409293322511
 21
201.33837536230681
 31
0.0
  0
LINE
  5
53B4
  8
AM_0
 10
176.94409293322511
 20
205.7170864049979
 30
0.0
 11
176.2440929332262
 21
205.7170864049979
 31
0.0
  0
LINE
  5
53B5
  8
AM_0
 10
177.2440929332252
 20
205.01197554770781
 30
0.0
 11
177.2440929332252
 21
205.41708640499789
 31
0.0
  0
LINE
  5
53B6
  8
AM_0
 10
176.2440929332262
 20
204.71197554770791
 30
0.0
 11
176.94409293322511
 21
204.71197554770791
 31
0.0
  0
LINE
  5
53B7
  8
AM_0
 10
176.2440929332262
 20
197.75447085967679
 30
0.0
 11
176.2440929332262
 21
206.45447085967481
 31
0.0
  0
LINE
  5
53B8
  8
AM_0
 10
177.2440929332262
 20
197.75447085967491
 30
0.0
 11
177.24409293322509
 21
198.2044708596749
 31
0.0
  0
LINE
  5
53B9
  8
AM_0
 10
174.2440929332262
 20
204.56620855116481
 30
0.0
 11
168.74409293322219
 21
204.56620855116481
 31
0.0
  0
LINE
  5
53BA
  8
AM_0
 10
174.2440929332262
 20
199.4427331681859
 30
0.0
 11
168.74409293322219
 21
199.4427331681849
 31
0.0
  0
LINE
  5
53BB
  8
AM_0
 10
174.2440929332262
 20
198.25447085967491
 30
0.0
 11
168.7440929332231
 21
198.25447085967491
 31
0.0
  0
LINE
  5
53BC
  8
AM_0
 10
168.7440929332231
 20
198.25447085967491
 30
0.0
 11
168.2440929332231
 21
197.75447085967491
 31
0.0
  0
LINE
  5
53BD
  8
AM_0
 10
168.7440929332231
 20
198.25447085967491
 30
0.0
 11
168.24409293322219
 21
198.75447085967491
 31
0.0
  0
LINE
  5
53BE
  8
AM_0
 10
168.24409293322219
 20
198.75447085967491
 30
0.0
 11
168.74409293322219
 21
199.4427331681849
 31
0.0
  0
LINE
  5
53BF
  8
AM_0
 10
174.2440929332262
 20
198.75447085967491
 30
0.0
 11
168.24409293322219
 21
198.75447085967491
 31
0.0
  0
LINE
  5
53C0
  8
AM_0
 10
174.2440929332262
 20
197.75447085967491
 30
0.0
 11
174.2440929332262
 21
198.84466469473381
 31
0.0
  0
LINE
  5
53C1
  8
AM_0
 10
168.24409293322319
 20
204.61568679184279
 30
0.0
 11
168.74409293322219
 21
204.56620855116481
 31
0.0
  0
LINE
  5
53C2
  8
AM_0
 10
168.74409293322219
 20
205.2866620678119
 30
0.0
 11
168.24409293322319
 21
204.61568679184279
 31
0.0
  0
LINE
  5
53C3
  8
AM_0
 10
168.24409293322319
 20
205.2866620678119
 30
0.0
 11
168.74409293322219
 21
205.7866620678119
 31
0.0
  0
LINE
  5
53C4
  8
AM_0
 10
168.74409293322219
 20
206.25447085967491
 30
0.0
 11
168.24409293322219
 21
205.7866620678119
 31
0.0
  0
LINE
  5
53C5
  8
AM_0
 10
168.24409293322219
 20
205.7866620678119
 30
0.0
 11
174.2440929332262
 21
205.7866620678119
 31
0.0
  0
LINE
  5
53C6
  8
AM_0
 10
174.2440929332262
 20
205.2866620678119
 30
0.0
 11
168.24409293322319
 21
205.2866620678119
 31
0.0
  0
LINE
  5
53C7
  8
AM_0
 10
177.2440929332262
 20
206.25447085967491
 30
0.0
 11
177.2440929332252
 21
206.28297459104081
 31
0.0
  0
LINE
  5
53C8
  8
AM_0
 10
177.54409293322621
 20
206.2544708596748
 30
0.0
 11
176.2440929332262
 21
206.25447085967491
 31
0.0
  0
LINE
  5
53C9
  8
AM_0
 10
165.7440929332252
 20
203.07344589208489
 30
0.0
 11
165.74409293322509
 21
197.75447085967491
 31
0.0
  0
LINE
  5
53CA
  8
AM_0
 10
176.2440929332262
 20
206.45447085967481
 30
0.0
 11
176.2440929332262
 21
206.75447085967491
 31
0.0
  0
ARC
  5
53CB
  8
AM_0
 10
178.4624220972552
 20
191.05447085967481
 30
0.0
 40
0.0999999999999643
 50
15.00019500651257
 51
90.0
  0
ARC
  5
53CC
  8
AM_0
 10
175.05659293322219
 20
193.5044708596748
 30
0.0
 40
6.8125000000000382
 50
157.91171016505771
 51
202.08828983494229
  0
ARC
  5
53CD
  8
AM_0
 10
185.6690929332251
 20
189.05447085967481
 30
0.0
 40
0.1999999999999993
 50
0.0
 51
90.0
  0
ARC
  5
53CE
  8
AM_0
 10
185.6690929332251
 20
206.45447085967481
 30
0.0
 40
0.2000000000000028
 50
270.0
 51
0.0
  0
ARC
  5
53CF
  8
AM_0
 10
175.05659293322219
 20
202.00447085967491
 30
0.0
 40
6.8125000000000382
 50
157.91171016505771
 51
202.08828983494229
  0
ARC
  5
53D0
  8
AM_0
 10
177.71242209725509
 20
190.50447085967491
 30
0.0
 40
0.1000000000000547
 50
288.4639767573006
 51
344.99980499348737
  0
ARC
  5
53D1
  8
AM_0
 10
178.06685158433109
 20
191.0544708596758
 30
0.0
 40
0.1000000000000014
 50
90.0
 51
164.9998049934843
  0
ARC
  5
53D2
  8
AM_0
 10
168.47828040621519
 20
189.75447085967289
 30
0.0
 40
0.499999999999975
 50
219.8055710921868
 51
270.0
  0
ARC
  5
53D3
  8
AM_0
 10
166.24409293322509
 20
192.43549582726581
 30
0.0
 40
0.5
 50
180.00000000000969
 51
219.80557109223059
  0
ARC
  5
53D4
  8
AM_0
 10
176.94409293322511
 20
190.4969661716429
 30
0.0
 40
0.3000000000000007
 50
0.0
 51
90.0
  0
ARC
  5
53D5
  8
AM_0
 10
176.94409293322511
 20
190.09185531435281
 30
0.0
 40
0.3000000000000043
 50
270.0
 51
0.0
  0
ARC
  5
53D6
  8
AM_0
 10
176.94409293322511
 20
193.8705663570438
 30
0.0
 40
0.3000000000000007
 50
0.0
 51
90.0
  0
ARC
  5
53D7
  8
AM_0
 10
176.94409293322511
 20
193.07065009075191
 30
0.0
 40
0.2999999999999971
 50
270.0
 51
0.0
  0
ARC
  5
53D8
  8
AM_0
 10
176.94409293322511
 20
197.3044708596758
 30
0.0
 40
0.2999999999999971
 50
270.0
 51
0.0
  0
ARC
  5
53D9
  8
AM_0
 10
176.94409293322511
 20
189.2259671283098
 30
0.0
 40
0.3000000000000302
 50
275.71059313755637
 51
0.0
  0
ARC
  5
53DA
  8
AM_0
 10
174.44409293322511
 20
188.95447085967481
 30
0.0
 40
0.1999999999999993
 50
180.0
 51
270.0
  0
ARC
  5
53DB
  8
AM_0
 10
177.5440929332261
 20
189.45447085967581
 30
0.0
 40
0.1999999999999957
 50
270.0
 51
0.0
  0
ARC
  5
53DC
  8
AM_0
 10
174.0440929332261
 20
189.05447085967481
 30
0.0
 40
0.1999999999999993
 50
359.99999999997061
 51
90.0
  0
ARC
  5
53DD
  8
AM_0
 10
179.5668515843312
 20
191.0544708596758
 30
0.0
 40
0.1000000000000014
 50
90.0
 51
164.9998049934843
  0
ARC
  5
53DE
  8
AM_0
 10
179.21242209725509
 20
190.50447085967491
 30
0.0
 40
0.1000000000000014
 50
270.0
 51
344.99980499348737
  0
ARC
  5
53DF
  8
AM_0
 10
178.8168515843312
 20
190.50447085967491
 30
0.0
 40
0.1000000000000311
 50
195.00019500644461
 51
270.0
  0
ARC
  5
53E0
  8
AM_0
 10
181.36909293322509
 20
190.6544708596748
 30
0.0
 40
0.5
 50
359.99999999997721
 51
90.0
  0
ARC
  5
53E1
  8
AM_0
 10
185.6690929332251
 20
195.86620855116479
 30
0.0
 40
0.1999999999999993
 50
0.0
 51
90.0
  0
ARC
  5
53E2
  8
AM_0
 10
185.6690929332251
 20
191.1427331681858
 30
0.0
 40
0.2000000000000028
 50
270.0
 51
0.0
  0
ARC
  5
53E3
  8
AM_0
 10
182.06909293322511
 20
189.4544708596747
 30
0.0
 40
0.1999999999999993
 50
179.99999999994131
 51
270.0
  0
ARC
  5
53E4
  8
AM_0
 10
182.06909293322511
 20
206.0544708596758
 30
0.0
 40
0.2000000000000028
 50
90.0
 51
180.00000000005531
  0
ARC
  5
53E5
  8
AM_0
 10
185.6690929332251
 20
204.36620855116479
 30
0.0
 40
0.1999999999999993
 50
0.0
 51
90.0
  0
ARC
  5
53E6
  8
AM_0
 10
185.6690929332251
 20
199.6427331681848
 30
0.0
 40
0.2000000000000028
 50
270.0
 51
0.0
  0
ARC
  5
53E7
  8
AM_0
 10
181.36909293322509
 20
204.85447085967479
 30
0.0
 40
0.5
 50
270.0
 51
0.0000000000227982
  0
ARC
  5
53E8
  8
AM_0
 10
178.07082536165109
 20
205.00447085967491
 30
0.0
 40
0.1000000000000014
 50
90.0
 51
164.99980499355539
  0
ARC
  5
53E9
  8
AM_0
 10
178.46639587457511
 20
205.00447085967491
 30
0.0
 40
0.0999999999999608
 50
15.00019500651571
 51
90.0
  0
ARC
  5
53EA
  8
AM_0
 10
178.82082536165109
 20
204.45447085967481
 30
0.0
 40
0.0999999999999608
 50
195.00019500651561
 51
270.0
  0
ARC
  5
53EB
  8
AM_0
 10
177.71639587457511
 20
204.45447085967481
 30
0.0
 40
0.0999999999999803
 50
286.07948273872381
 51
344.99980499348419
  0
ARC
  5
53EC
  8
AM_0
 10
174.0440929332261
 20
206.45447085967589
 30
0.0
 40
0.1999999999999957
 50
270.0
 51
0.000000000029312
  0
ARC
  5
53ED
  8
AM_0
 10
177.5440929332261
 20
206.05447085967481
 30
0.0
 40
0.1999999999999993
 50
0.0
 51
90.0
  0
ARC
  5
53EE
  8
AM_0
 10
174.44409293322511
 20
206.5544708596758
 30
0.0
 40
0.2000000000000028
 50
90.0
 51
180.0
  0
ARC
  5
53EF
  8
AM_0
 10
176.94409293322511
 20
206.2829745910409
 30
0.0
 40
0.3000000000000007
 50
0.0
 51
84.289406862443656
  0
ARC
  5
53F0
  8
AM_0
 10
176.94409293322511
 20
198.2044708596749
 30
0.0
 40
0.3000000000000007
 50
0.0
 51
90.0
  0
ARC
  5
53F1
  8
AM_0
 10
176.94409293322511
 20
202.4382916285989
 30
0.0
 40
0.3000000000000007
 50
0.0
 51
90.0
  0
ARC
  5
53F2
  8
AM_0
 10
176.94409293322511
 20
201.6383753623069
 30
0.0
 40
0.2999999999999971
 50
270.0
 51
0.0
  0
ARC
  5
53F3
  8
AM_0
 10
176.94409293322511
 20
205.41708640499789
 30
0.0
 40
0.3000000000000007
 50
0.0
 51
90.0
  0
ARC
  5
53F4
  8
AM_0
 10
176.94409293322511
 20
205.01197554770781
 30
0.0
 40
0.3000000000000043
 50
270.0
 51
0.0
  0
ARC
  5
53F5
  8
AM_0
 10
166.24409293322509
 20
203.07344589208489
 30
0.0
 40
0.5000000000000059
 50
140.19442890776941
 51
179.99999999998701
  0
ARC
  5
53F6
  8
AM_0
 10
168.47828040621519
 20
205.75447085967789
 30
0.0
 40
0.5
 50
90.0
 51
140.19442890781301
  0
LINE
  5
53F7
  8
AM_0
 10
186.06909293322511
 20
188.7544708596748
 30
0.0
 11
187.86909293322509
 21
188.7544708596748
 31
0.0
  0
LINE
  5
53F8
  8
AM_0
 10
185.86909293322509
 20
188.95447085967459
 30
0.0
 11
185.86909293322509
 21
206.5544708596758
 31
0.0
  0
LINE
  5
53F9
  8
AM_0
 10
187.86909293322509
 20
206.7544708596748
 30
0.0
 11
186.06909293322511
 21
206.75447085967491
 31
0.0
  0
ARC
  5
53FA
  8
AM_0
 10
186.06909293322511
 20
188.95447085967459
 30
0.0
 40
0.1999999999999993
 50
180.0
 51
270.0
  0
ARC
  5
53FB
  8
AM_0
 10
186.06909293322511
 20
206.5544708596758
 30
0.0
 40
0.2000000000000028
 50
90.0
 51
180.0
  0
LINE
  5
53FC
  8
AM_0
 10
133.36910293322589
 20
269.81587436844688
 30
0.0
 11
133.36910293322549
 21
232.09358745368971
 31
0.0
  0
LINE
  5
53FD
  8
AM_0
 10
124.36910293322499
 20
271.75447085967471
 30
0.0
 11
124.36910293322499
 21
192.71410638012671
 31
0.0
  0
LINE
  5
53FE
  8
AM_0
 10
124.36910293322499
 20
185.54818524931011
 30
0.0
 11
124.36910293322499
 21
163.7544708596748
 31
0.0
  0
LINE
  5
53FF
  8
AM_0
 10
124.36910293322499
 20
271.75447085967483
 30
0.0
 11
141.36910293322501
 21
270.75447085967483
 31
0.0
  0
LINE
  5
5400
  8
AM_0
 10
124.36910293322499
 20
163.75447085967491
 30
0.0
 11
141.36910293322501
 21
164.75447085967491
 31
0.0
  0
LINE
  5
5401
  8
AM_0
 10
133.3691029332258
 20
261.34837405776631
 30
0.0
 11
141.36910293322501
 21
261.34837405776631
 31
0.0
  0
LINE
  5
5402
  8
AM_0
 10
133.36910293322589
 20
269.81587436844688
 30
0.0
 11
141.36910293322501
 21
269.81587436844688
 31
0.0
  0
LINE
  5
5403
  8
AM_0
 10
129.8691029332258
 20
252.39534382493491
 30
0.0
 11
133.3691029332258
 21
252.39534382493491
 31
0.0
  0
LINE
  5
5404
  8
AM_0
 10
129.8691029332258
 20
260.8953438249348
 30
0.0
 11
133.3691029332258
 21
260.8953438249348
 31
0.0
  0
LINE
  5
5405
  8
AM_0
 10
129.3691029332258
 20
260.3953438249348
 30
0.0
 11
129.3691029332258
 21
252.89534382493491
 31
0.0
  0
ARC
  5
5406
  8
AM_0
 10
129.8691029332258
 20
260.3953438249348
 30
0.0
 40
0.5
 50
90.0
 51
180.0
  0
ARC
  5
5407
  8
AM_0
 10
129.8691029332258
 20
252.89534382493491
 30
0.0
 40
0.5
 50
180.0
 51
270.0
  0
LINE
  5
5408
  8
AM_0
 10
124.36910293322499
 20
260.0266653528148
 30
0.0
 11
129.3691029332258
 21
260.02666535281497
 31
0.0
  0
LINE
  5
5409
  8
AM_0
 10
124.36910293322499
 20
250.29158285451899
 30
0.0
 11
133.36910293322569
 21
250.29158285451899
 31
0.0
  0
LINE
  5
540A
  8
AM_0
 10
133.3691029332258
 20
174.1605676615834
 30
0.0
 11
141.36910293322501
 21
174.1605676615834
 31
0.0
  0
LINE
  5
540B
  8
AM_0
 10
133.36910293322589
 20
165.69306735090271
 30
0.0
 11
141.36910293322501
 21
165.69306735090271
 31
0.0
  0
LINE
  5
540C
  8
AM_0
 10
129.8691029332258
 20
183.11359789441471
 30
0.0
 11
133.3691029332258
 21
183.11359789441471
 31
0.0
  0
LINE
  5
540D
  8
AM_0
 10
129.8691029332258
 20
174.61359789441471
 30
0.0
 11
133.3691029332258
 21
174.61359789441471
 31
0.0
  0
LINE
  5
540E
  8
AM_0
 10
129.3691029332258
 20
175.11359789441471
 30
0.0
 11
129.3691029332258
 21
182.61359789441471
 31
0.0
  0
ARC
  5
540F
  8
AM_0
 10
129.8691029332258
 20
175.11359789441471
 30
0.0
 40
0.5
 50
180.0
 51
270.0
  0
ARC
  5
5410
  8
AM_0
 10
129.8691029332258
 20
182.61359789441471
 30
0.0
 40
0.5
 50
90.0
 51
180.0
  0
LINE
  5
5411
  8
AM_0
 10
124.36910293322499
 20
175.48227636653471
 30
0.0
 11
129.3691029332258
 21
175.48227636653451
 31
0.0
  0
LINE
  5
5412
  8
AM_0
 10
124.36910293322499
 20
185.2173588648306
 30
0.0
 11
133.36910293322569
 21
185.2173588648306
 31
0.0
  0
LINE
  5
5413
  8
AM_0
 10
133.36910293322549
 20
232.09358745368971
 30
0.0
 11
141.36910293322501
 21
232.09358745368959
 31
0.0
  0
LINE
  5
5414
  8
AM_0
 10
133.36910293322589
 20
165.69306735090291
 30
0.0
 11
133.36910293322569
 21
190.6187521210048
 31
0.0
  0
LINE
  5
5415
  8
AM_0
 10
133.36910293322561
 20
197.0950081969693
 30
0.0
 11
133.36910293322549
 21
203.41535426566011
 31
0.0
  0
LINE
  5
5416
  8
AM_0
 10
133.36910293322549
 20
203.41535426565989
 30
0.0
 11
141.36910293322501
 21
203.4153542656602
 31
0.0
  0
LINE
  5
5417
  8
AM_0
 10
153.2805202545768
 20
194.7544363596746
 30
0.0
 11
160.86909293322509
 21
194.7544363596746
 31
0.0
  0
ARC
  5
5418
  8
AM_0
 10
153.2805202545768
 20
144.7544363596746
 30
0.0
 40
50.0
 50
90.0
 51
122.4712801930125
1001
GENIUS_GENOBJ-N-FIL_13
1002
{
1000
OWNER
1000
GEN
1002
}
1001
GENIUS_GENODEF_13
1002
{
1000
HIER
1070
     0
1002
}
1002
{
1000
MANEDIT
1070
     0
1002
}
1002
{
1000
NOSEL
1070
     0
1002
}
1002
{
1000
BEHIND
1070
     0
1002
}
1002
{
1000
OTHER
1070
     0
1002
}
1002
{
1000
REACTOR
1002
}
  0
LINE
  5
5419
  8
AM_0
 10
153.28052025457669
 20
200.7544363596744
 30
0.0
 11
160.86909293322509
 21
200.7544363596744
 31
0.0
  0
ARC
  5
541A
  8
AM_0
 10
153.28052025457609
 20
144.7544363596744
 30
0.0
 40
56.0
 50
90.0
 51
122.4712801930125
1001
GENIUS_GENODEF_13
1002
{
1000
HIER
1070
     0
1002
}
1002
{
1000
MANEDIT
1070
     0
1002
}
1002
{
1000
NOSEL
1070
     0
1002
}
1002
{
1000
BEHIND
1070
     0
1002
}
1002
{
1000
OTHER
1070
     0
1002
}
1002
{
1000
REACTOR
1002
}
1001
GENIUS_GENOBJ-N-FIL_13
1002
{
1000
OWNER
1000
GEN
1002
}
  0
LINE
  5
541B
  8
AM_0
 10
89.458518181889389
 20
253.7448472046008
 30
0.0
 11
89.458518181889389
 21
247.23324230564199
 31
0.0
  0
LINE
  5
541C
  8
AM_0
 10
86.369102933224909
 20
206.7544363596746
 30
0.0
 11
86.369102933224909
 21
201.2544363596746
 31
0.0
  0
LINE
  5
541D
  8
AM_0
 10
91.869102933224866
 20
214.2544363596746
 30
0.0
 11
91.869102933224866
 21
221.25443635967449
 31
0.0
  0
LINE
  5
541E
  8
AM_0
 10
103.5691029332249
 20
201.2544363596746
 30
0.0
 11
86.369102933224909
 21
201.2544363596746
 31
0.0
  0
LINE
  5
541F
  8
AM_0
 10
118.3691029332248
 20
163.7544363596746
 30
0.0
 11
118.3691029332248
 21
181.80353890393479
 31
0.0
  0
LINE
  5
5420
  8
AM_0
 10
118.3691029332248
 20
188.91540301655229
 30
0.0
 11
118.3691029332248
 21
271.7544363596748
 31
0.0
  0
LINE
  5
5421
  8
AM_0
 10
86.369102933224909
 20
216.2544363596746
 30
0.0
 11
87.269102933224886
 21
216.2544363596746
 31
0.0
  0
LINE
  5
5422
  8
AM_0
 10
103.8691029332248
 20
209.2544363596746
 30
0.0
 11
103.8691029332248
 21
211.8389460442786
 31
0.0
  0
LINE
  5
5423
  8
AM_0
 10
84.169102933224622
 20
219.2544363596746
 30
0.0
 11
84.169102933224622
 21
216.2544363596746
 31
0.0
  0
LINE
  5
5424
  8
AM_0
 10
87.269102933224886
 20
215.98208462509109
 30
0.0
 11
87.269102933224886
 21
219.52678809425839
 31
0.0
  0
LINE
  5
5425
  8
AM_0
 10
83.869102933224767
 20
218.9544363596747
 30
0.0
 11
87.269102933224985
 21
218.9544363596747
 31
0.0
  0
LINE
  5
5426
  8
AM_0
 10
91.269102933224843
 20
215.3728664992675
 30
0.0
 11
91.269102933224843
 21
214.2544363596746
 31
0.0
  0
LINE
  5
5427
  8
AM_0
 10
91.269102933224843
 20
216.2544363596746
 30
0.0
 11
91.269102933224843
 21
216.15443635967469
 31
0.0
  0
LINE
  5
5428
  8
AM_0
 10
91.269102933224843
 20
216.15443635967469
 30
0.0
 11
91.269102933224843
 21
215.3728664992675
 31
0.0
  0
LINE
  5
5429
  8
AM_0
 10
86.369102933224909
 20
201.2544363596746
 30
0.0
 11
86.369102933224909
 21
193.01690235025239
 31
0.0
  0
LINE
  5
542A
  8
AM_0
 10
103.7226563238182
 20
212.19249943487191
 30
0.0
 11
103.3675891976299
 21
212.54756656106011
 31
0.0
  0
LINE
  5
542B
  8
AM_0
 10
86.369102933224909
 20
219.2544363596746
 30
0.0
 11
86.369102933224909
 21
242.491970369097
 31
0.0
  0
LINE
  5
542C
  8
AM_0
 10
118.3691029332248
 20
262.75443635967491
 30
0.0
 11
94.599094232592293
 21
262.75443635967468
 31
0.0
  0
LINE
  5
542D
  8
AM_0
 10
86.369102933224909
 20
207.68083953539571
 30
0.0
 11
86.369102933224909
 21
216.2544363596746
 31
0.0
  0
LINE
  5
542E
  8
AM_0
 10
124.36910293322499
 20
271.7544363596748
 30
0.0
 11
118.3691029332248
 21
271.7544363596748
 31
0.0
  0
LINE
  5
542F
  8
AM_0
 10
118.3691029332248
 20
163.7544363596746
 30
0.0
 11
124.3691029332248
 21
163.7544363596746
 31
0.0
  0
LINE
  5
5430
  8
AM_0
 10
118.3691029332248
 20
172.7544363596746
 30
0.0
 11
108.8691029332248
 21
172.7544363596746
 31
0.0
  0
LINE
  5
5431
  8
AM_0
 10
86.414679674188292
 20
243.01291490209769
 30
0.0
 11
88.98412312185053
 21
257.5849528133615
 31
0.0
  0
LINE
  5
5432
  8
AM_0
 10
86.369102933224909
 20
207.68083953539571
 30
0.0
 11
86.369102933224909
 21
206.7544363596746
 31
0.0
  0
LINE
  5
5433
  8
AM_0
 10
108.8691029332248
 20
172.8230588100605
 30
0.0
 11
106.3063156343279
 21
172.8230588100605
 31
0.0
  0
LINE
  5
5434
  8
AM_0
 10
92.412941440926062
 20
172.7544363596746
 30
0.0
 11
93.369102933224866
 21
172.7544363596746
 31
0.0
  0
LINE
  5
5435
  8
AM_0
 10
86.414679674188292
 20
192.49595781725151
 30
0.0
 11
89.458518181889389
 21
175.2334918266738
 31
0.0
  0
LINE
  5
5436
  8
AM_0
 10
86.369102933224909
 20
192.7544363596746
 30
0.0
 11
86.414679674188292
 21
192.49595781725151
 31
0.0
  0
LINE
  5
5437
  8
AM_0
 10
86.369102933224909
 20
193.01690235025239
 30
0.0
 11
86.369102933224909
 21
192.7544363596746
 31
0.0
  0
LINE
  5
5438
  8
AM_0
 10
85.869064265217958
 20
271.25443635967463
 30
0.0
 11
85.869041812819333
 21
298.25443635967463
 31
0.0
  0
LINE
  5
5439
  8
AM_0
 10
85.869041812819333
 20
298.25443635967463
 30
0.0
 11
93.869041812821919
 21
298.25443635967463
 31
0.0
  0
LINE
  5
543A
  8
AM_0
 10
93.869041812821919
 20
298.25443635967463
 30
0.0
 11
95.369037157642865
 21
303.8524951976633
 31
0.0
  0
LINE
  5
543B
  8
AM_0
 10
95.369037157642865
 20
303.8524951976633
 30
0.0
 11
95.369022394282496
 21
321.6060874775535
 31
0.0
  0
LINE
  5
543C
  8
AM_0
 10
85.869041812819333
 20
298.25443635967463
 30
0.0
 11
84.369037157610222
 21
303.85252994450462
 31
0.0
  0
LINE
  5
543D
  8
AM_0
 10
84.369037157610222
 20
303.85252994450462
 30
0.0
 11
84.369022394286276
 21
321.60607833028013
 31
0.0
  0
LINE
  5
543E
  8
AM_0
 10
89.869064265219293
 20
321.60607833028013
 30
0.0
 11
89.869064265219293
 21
303.85252994450462
 31
0.0
  0
LINE
  5
543F
  8
AM_0
 10
93.869041812821919
 20
298.25443635967463
 30
0.0
 11
93.869064265220771
 21
271.25443635967463
 31
0.0
  0
LINE
  5
5440
  8
AM_0
 10
103.8691029332248
 20
247.23324230564199
 30
0.0
 11
103.8691029332248
 21
201.55443635967461
 31
0.0
  0
LINE
  5
5441
  8
AM_0
 10
91.869102933224866
 20
211.8389460442786
 30
0.0
 11
91.869102933224866
 21
209.2544363596746
 31
0.0
  0
LINE
  5
5442
  8
AM_0
 10
92.37061666881992
 20
212.54756656106011
 30
0.0
 11
92.015549542631689
 21
212.19249943487191
 31
0.0
  0
LINE
  5
5443
  8
AM_0
 10
103.3691029332248
 20
208.7544363596746
 30
0.0
 11
92.369102933224866
 21
208.7544363596746
 31
0.0
  0
LINE
  5
5444
  8
AM_0
 10
83.369065096723929
 20
270.25443095446758
 30
0.0
 11
83.369092122759412
 21
265.25443095446758
 31
0.0
  0
LINE
  5
5445
  8
AM_0
 10
96.369065096855522
 20
270.25444176488168
 30
0.0
 11
96.369091024675186
 21
265.45761911151112
 31
0.0
  0
LINE
  5
5446
  8
AM_0
 10
86.989606185305789
 20
263.25443635967463
 30
0.0
 11
86.418044283940503
 21
263.91102018173501
 31
0.0
  0
LINE
  5
5447
  8
AM_0
 10
84.369092122744846
 20
264.25443635967463
 30
0.0
 11
95.369091024675186
 21
264.25443635967463
 31
0.0
  0
LINE
  5
5448
  8
AM_0
 10
96.369091024675186
 20
265.45761911151112
 30
0.0
 11
96.369091024675186
 21
265.25443635967463
 31
0.0
  0
LINE
  5
5449
  8
AM_0
 10
96.369091024675186
 20
265.45761911151112
 30
0.0
 11
96.369092122890933
 21
265.25444176488168
 31
0.0
  0
LINE
  5
544A
  8
AM_0
 10
84.369065096709377
 20
271.25443635967463
 30
0.0
 11
95.369065096870116
 21
271.25443635967463
 31
0.0
  0
LINE
  5
544B
  8
AM_0
 10
94.376538895387043
 20
263.28502342996012
 30
0.0
 11
101.4993386287325
 21
246.30378411121339
 31
0.0
  0
LINE
  5
544C
  8
AM_0
 10
86.989606185305789
 20
263.25443635967463
 30
0.0
 11
93.566321260616036
 21
244.5598957292724
 31
0.0
  0
LINE
  5
544D
  8
AM_0
 10
91.269102933224843
 20
216.2544363596746
 30
0.0
 11
91.269102933224843
 21
216.15443635967469
 31
0.0
  0
LINE
  5
544E
  8
AM_0
 10
91.269102933224843
 20
216.15443635967469
 30
0.0
 11
91.269102933224843
 21
215.3728664992675
 31
0.0
  0
LINE
  5
544F
  8
AM_0
 10
91.269102933224843
 20
214.2544363596746
 30
0.0
 11
91.869102933224866
 21
214.2544363596746
 31
0.0
  0
LINE
  5
5450
  8
AM_0
 10
88.56910293322494
 20
215.3728664992675
 30
0.0
 11
88.56910293322494
 21
220.1360062200819
 31
0.0
  0
LINE
  5
5451
  8
AM_0
 10
88.408058703967399
 20
215.08617487092459
 30
0.0
 11
87.475505654460221
 21
215.6245846250911
 31
0.0
  0
LINE
  5
5452
  8
AM_0
 10
91.269102933224843
 20
221.25443635967449
 30
0.0
 11
91.269102933224843
 21
216.2544363596746
 31
0.0
  0
LINE
  5
5453
  8
AM_0
 10
88.841554525255432
 20
214.57900987913169
 30
0.0
 11
90.996651341194223
 21
214.57900987913169
 31
0.0
  0
LINE
  5
5454
  8
AM_0
 10
88.841554525255432
 20
216.16672311940329
 30
0.0
 11
90.996651341194223
 21
216.16672311940329
 31
0.0
  0
LINE
  5
5455
  8
AM_0
 10
87.269102933224985
 20
219.2544363596746
 30
0.0
 11
84.169102933224622
 21
219.2544363596746
 31
0.0
  0
LINE
  5
5456
  8
AM_0
 10
84.169102933224622
 20
219.2544363596746
 30
0.0
 11
83.869102933224767
 21
218.9544363596747
 31
0.0
  0
LINE
  5
5457
  8
AM_0
 10
83.869102933224767
 20
218.9544363596747
 30
0.0
 11
83.869102933224767
 21
216.5544363596747
 31
0.0
  0
LINE
  5
5458
  8
AM_0
 10
84.169102933224622
 20
216.2544363596746
 30
0.0
 11
86.369102933224909
 21
216.2544363596746
 31
0.0
  0
LINE
  5
5459
  8
AM_0
 10
83.869102933224767
 20
216.5544363596747
 30
0.0
 11
84.169102933224622
 21
216.2544363596746
 31
0.0
  0
LINE
  5
545A
  8
AM_0
 10
87.269102933224886
 20
216.5544363596747
 30
0.0
 11
83.869102933224767
 21
216.5544363596747
 31
0.0
  0
ARC
  5
545B
  8
AM_0
 10
85.869102933224909
 20
217.7544363596746
 30
0.0
 40
18.000000000000082
 50
344.79096035988943
 51
15.209039640107409
  0
ARC
  5
545C
  8
AM_0
 10
89.976326117198354
 20
215.3728664992675
 30
0.0
 40
1.292776816026465
 50
322.11555894630482
 51
0.0
  0
ARC
  5
545D
  8
AM_0
 10
109.8691029332248
 20
217.7544363596746
 30
0.0
 40
17.999999999999918
 50
164.7909603598894
 51
195.20903964011049
  0
ARC
  5
545E
  8
AM_0
 10
89.869029339265808
 20
313.25443635967463
 30
0.0
 40
10.0
 50
56.63303467623782
 51
123.3670606147022
  0
ARC
  5
545F
  8
AM_0
 10
87.119043329752785
 20
317.17342997067431
 30
0.0
 40
5.2164151124522951
 50
58.18448044842868
 51
121.8155195515713
  0
ARC
  5
5460
  8
AM_0
 10
92.619050703387416
 20
317.17255507991422
 30
0.0
 40
5.217140387381062
 50
58.190058295973543
 51
121.81013228735971
  0
ARC
  5
5461
  8
AM_0
 10
87.119050711414843
 20
305.2204839588473
 30
0.0
 40
3.0714610092699122
 50
206.44737672421749
 51
333.55262327578248
  0
ARC
  5
5462
  8
AM_0
 10
92.619059342786045
 20
305.218743754152
 30
0.0
 40
3.070669812974502
 50
206.41845794673139
 51
333.58081810520707
  0
ARC
  5
5463
  8
AM_0
 10
93.331532809284539
 20
217.7544363596746
 30
0.0
 40
4.762429876059711
 50
160.52575999458611
 51
199.4742400054138
  0
ARC
  5
5464
  8
AM_0
 10
89.861879749251443
 20
215.3728664992675
 30
0.0
 40
1.292776816026556
 50
142.11555894629771
 51
217.8844410536951
  0
ARC
  5
5465
  8
AM_0
 10
86.50667305716533
 20
217.7544363596746
 30
0.0
 40
4.762429876059584
 50
340.52575999458628
 51
19.474240005409651
  0
ARC
  5
5466
  8
AM_0
 10
89.976326117198354
 20
215.3728664992675
 30
0.0
 40
1.2927768160265021
 50
0.0
 51
37.884441053702282
  0
ARC
  5
5467
  8
AM_0
 10
103.5691029332249
 20
201.55443635967461
 30
0.0
 40
0.2999999999999972
 50
270.0
 51
0.0
  0
ARC
  5
5468
  8
AM_0
 10
103.7211425882232
 20
212.9011199516535
 30
0.0
 40
0.4999999999998723
 50
164.7909603598988
 51
225.00000000001839
  0
ARC
  5
5469
  8
AM_0
 10
89.369102933224895
 20
193.01690235025239
 30
0.0
 40
3.0
 50
180.0
 51
190.00000000000171
  0
ARC
  5
546A
  8
AM_0
 10
89.369102933224895
 20
242.491970369097
 30
0.0
 40
2.999999999999992
 50
169.9999999999981
 51
180.0
  0
ARC
  5
546B
  8
AM_0
 10
92.412941440926062
 20
175.7544363596746
 30
0.0
 40
2.9999999999999631
 50
190.00000000000171
 51
270.0
  0
ARC
  5
546C
  8
AM_0
 10
92.369102933224866
 20
209.2544363596746
 30
0.0
 40
0.5
 50
180.0
 51
270.0
  0
ARC
  5
546D
  8
AM_0
 10
103.3691029332248
 20
209.2544363596746
 30
0.0
 40
0.5
 50
270.0
 51
0.0
  0
ARC
  5
546E
  8
AM_0
 10
103.3691029332248
 20
211.8389460442786
 30
0.0
 40
0.5
 50
0.0
 51
45.0
  0
ARC
  5
546F
  8
AM_0
 10
92.017063278226587
 20
212.9011199516535
 30
0.0
 40
0.5000000000001048
 50
314.99999999998619
 51
15.209039640101111
  0
ARC
  5
5470
  8
AM_0
 10
92.369102933224866
 20
211.8389460442786
 30
0.0
 40
0.499999999999984
 50
134.99999999999079
 51
180.0
  0
ARC
  5
5471
  8
AM_0
 10
84.369065096709377
 20
270.25443635967463
 30
0.0
 40
1.0
 50
90.0
 51
180.00030969555451
  0
ARC
  5
5472
  8
AM_0
 10
95.369065096870116
 20
270.25443635967463
 30
0.0
 40
0.9999999999999992
 50
0.0003096955479991
 51
90.0
  0
ARC
  5
5473
  8
AM_0
 10
84.369092122744846
 20
265.25443635967463
 30
0.0
 40
0.9999999999999992
 50
180.00030969555451
 51
270.0
  0
ARC
  5
5474
  8
AM_0
 10
95.369091024675186
 20
265.25443635967463
 30
0.0
 40
1.0
 50
270.0
 51
0.0
  0
ARC
  5
5475
  8
AM_0
 10
94.849332811760405
 20
263.65443635967472
 30
0.0
 40
0.5999999999999944
 50
90.0
 51
218.00194433773009
  0
ARC
  5
5476
  8
AM_0
 10
85.663791219903942
 20
263.25443635967463
 30
0.0
 40
0.9999999999999468
 50
41.03985310957956
 51
90.0
  0
ARC
  5
5477
  8
AM_0
 10
87.681908375695457
 20
215.98208462509109
 30
0.0
 40
0.4128054424705854
 50
180.0
 51
239.99999999999949
  0
ARC
  5
5478
  8
AM_0
 10
87.995253261496813
 20
214.37117487092439
 30
0.0
 40
0.8256108849411369
 50
28.217424594175291
 51
59.999999999996653
  0
LINE
  5
5479
  8
AM_0
 10
87.158837262856423
 20
247.2332423056418
 30
0.0
 11
92.625841412625263
 21
247.2332423056418
 31
0.0
  0
LINE
  5
547A
  8
AM_0
 10
101.1094763545389
 20
247.2332423056418
 30
0.0
 11
103.8691029332248
 21
247.2332423056418
 31
0.0
  0
LINE
  5
547B
  8
AM_0
 10
91.269102933225227
 20
221.2544363596746
 30
0.0
 11
91.869102933225122
 21
221.25443635967449
 31
0.0
  0
LINE
  5
547C
  8
AM_0
 10
88.408058703967654
 20
220.4226978484248
 30
0.0
 11
87.475505654460335
 21
219.88428809425841
 31
0.0
  0
LINE
  5
547D
  8
AM_0
 10
88.841554525255773
 20
220.92986284021771
 30
0.0
 11
90.996651341194607
 21
220.9298628402176
 31
0.0
  0
LINE
  5
547E
  8
AM_0
 10
88.84155452525556
 20
219.3421495999462
 30
0.0
 11
90.996651341194465
 21
219.342149599946
 31
0.0
  0
ARC
  5
547F
  8
AM_0
 10
89.976326117198596
 20
220.13600622008181
 30
0.0
 40
1.292776816026465
 50
359.99999999999352
 51
37.88444105369058
  0
ARC
  5
5480
  8
AM_0
 10
89.861879749251557
 20
220.1360062200819
 30
0.0
 40
1.292776816026556
 50
142.11555894629771
 51
217.8844410536951
  0
ARC
  5
5481
  8
AM_0
 10
89.976326117198596
 20
220.13600622008181
 30
0.0
 40
1.2927768160265021
 50
322.11555894629322
 51
359.99999999999352
  0
ARC
  5
5482
  8
AM_0
 10
87.681908375695571
 20
219.52678809425839
 30
0.0
 40
0.4128054424705854
 50
119.99999999999331
 51
179.99999999999341
  0
ARC
  5
5483
  8
AM_0
 10
87.995253261497055
 20
221.13769784842501
 30
0.0
 40
0.8256108849411369
 50
300.00000000000051
 51
331.7825754058203
  0
LINE
  5
5484
  8
AM_0
 10
103.86910293322541
 20
226.2544363596742
 30
0.0
 11
103.86910293322519
 21
223.66992667507009
 31
0.0
  0
LINE
  5
5485
  8
AM_0
 10
103.7226563238185
 20
223.3163732844769
 30
0.0
 11
103.3675891976302
 21
222.96130615828861
 31
0.0
  0
LINE
  5
5486
  8
AM_0
 10
91.869102933225236
 20
223.66992667507091
 30
0.0
 11
91.869102933225449
 21
226.25443635967491
 31
0.0
  0
LINE
  5
5487
  8
AM_0
 10
92.37061666882029
 20
222.96130615828929
 30
0.0
 11
92.015549542632144
 21
223.31637328447761
 31
0.0
  0
LINE
  5
5488
  8
AM_0
 10
103.36910293322541
 20
226.7544363596742
 30
0.0
 11
102.888525047378
 21
226.7544363596742
 31
0.0
  0
LINE
  5
5489
  8
AM_0
 10
92.849680819072759
 20
226.75443635967491
 30
0.0
 11
92.369102933225463
 21
226.75443635967491
 31
0.0
  0
ARC
  5
548A
  8
AM_0
 10
103.7211425882235
 20
222.6077527676953
 30
0.0
 40
0.4999999999998723
 50
134.99999999997701
 51
195.20903964009699
  0
ARC
  5
548B
  8
AM_0
 10
92.369102933225463
 20
226.25443635967491
 30
0.0
 40
0.5
 50
89.999999999996732
 51
179.99999999999659
  0
ARC
  5
548C
  8
AM_0
 10
103.36910293322541
 20
226.2544363596742
 30
0.0
 40
0.5
 50
359.99999999999682
 51
89.999999999996732
  0
ARC
  5
548D
  8
AM_0
 10
103.36910293322519
 20
223.6699266750702
 30
0.0
 40
0.5
 50
314.9999999999954
 51
359.99999999999682
  0
ARC
  5
548E
  8
AM_0
 10
92.0170632782268
 20
222.6077527676959
 30
0.0
 40
0.5000000000001048
 50
344.79096035989579
 51
45.000000000009209
  0
ARC
  5
548F
  8
AM_0
 10
92.369102933225236
 20
223.66992667507091
 30
0.0
 40
0.499999999999984
 50
179.99999999999659
 51
225.0000000000046
  0
LINE
  5
5490
  8
AM_0
 10
93.849680819072859
 20
242.90058775749651
 30
0.0
 11
93.849680819072759
 21
227.7544363596748
 31
0.0
  0
ARC
  5
5491
  8
AM_0
 10
92.849680819072759
 20
227.7544363596748
 30
0.0
 40
1.0
 50
269.99999999999682
 51
0.0
1001
GENIUS_GENODEF_13
1002
{
1000
HIER
1070
     0
1002
}
1002
{
1000
MANEDIT
1070
     0
1002
}
1002
{
1000
NOSEL
1070
     0
1002
}
1002
{
1000
BEHIND
1070
     0
1002
}
1002
{
1000
OTHER
1070
     0
1002
}
1002
{
1000
REACTOR
1002
}
1001
GENIUS_GENOBJ-N-FIL_13
1002
{
1000
OWNER
1000
GEN
1002
}
  0
ARC
  5
5492
  8
AM_0
 10
88.849680819072859
 20
242.90058775749651
 30
0.0
 40
5.0
 50
0.0
 51
19.381805699020159
1001
GENIUS_GENOBJ-N-FIL_13
1002
{
1000
OWNER
1000
GEN
1002
}
1001
GENIUS_GENODEF_13
1002
{
1000
HIER
1070
     0
1002
}
1002
{
1000
MANEDIT
1070
     0
1002
}
1002
{
1000
NOSEL
1070
     0
1002
}
1002
{
1000
BEHIND
1070
     0
1002
}
1002
{
1000
OTHER
1070
     0
1002
}
1002
{
1000
REACTOR
1002
}
  0
LINE
  5
5493
  8
AM_0
 10
101.8885250473781
 20
244.36977322241319
 30
0.0
 11
101.8885250473781
 21
227.7544363596742
 31
0.0
  0
ARC
  5
5494
  8
AM_0
 10
102.8885250473781
 20
227.7544363596742
 30
0.0
 40
1.0
 50
180.0
 51
269.99999999999352
1001
GENIUS_GENOBJ-N-FIL_13
1002
{
1000
OWNER
1000
GEN
1002
}
1001
GENIUS_GENODEF_13
1002
{
1000
HIER
1070
     0
1002
}
1002
{
1000
MANEDIT
1070
     0
1002
}
1002
{
1000
NOSEL
1070
     0
1002
}
1002
{
1000
BEHIND
1070
     0
1002
}
1002
{
1000
OTHER
1070
     0
1002
}
1002
{
1000
REACTOR
1002
}
  0
ARC
  5
5495
  8
AM_0
 10
96.888525047378167
 20
244.36977322241319
 30
0.0
 40
5.0
 50
0.0
 51
22.755667319206839
1001
GENIUS_GENODEF_13
1002
{
1000
HIER
1070
     0
1002
}
1002
{
1000
MANEDIT
1070
     0
1002
}
1002
{
1000
NOSEL
1070
     0
1002
}
1002
{
1000
BEHIND
1070
     0
1002
}
1002
{
1000
OTHER
1070
     0
1002
}
1002
{
1000
REACTOR
1002
}
1001
GENIUS_GENOBJ-N-FIL_13
1002
{
1000
OWNER
1000
GEN
1002
}
  0
LINE
  5
5496
  8
AM_0
 10
92.595641779882925
 20
222.73628104722661
 30
0.0
 11
103.1425640865682
 21
222.73628104722661
 31
0.0
  0
LINE
  5
5497
  8
AM_0
 10
92.595641779882584
 20
212.7725916721229
 30
0.0
 11
103.14256408656711
 21
212.7725916721229
 31
0.0
  0
LINE
  5
5498
  8
AM_0
 10
89.458518181889389
 20
181.7640255147486
 30
0.0
 11
89.458518181889389
 21
201.2544363596746
 31
0.0
  0
LINE
  5
5499
  8
AM_0
 10
92.412941440926062
 20
172.7544363596746
 30
0.0
 11
92.412941440926062
 21
201.2544363596746
 31
0.0
  0
LINE
  5
54B4
  8
AM_0
 10
102.16795599760179
 20
171.4936832057202
 30
0.0
 11
126.4366809284296
 21
186.93746956298989
 31
0.0
  0
LINE
  5
54B5
  8
AM_0
 10
98.946695278464148
 20
176.55564719011821
 30
0.0
 11
123.2154202092912
 21
191.9994335473873
 31
0.0
  0
POLYLINE
  5
54B6
  8
AM_0
 66
     1
 10
0.0
 20
0.0
 30
0.0
 70
     8
  0
VERTEX
  5
6CC5
  8
AM_0
 10
98.946700000000007
 20
176.5559999999999
 30
0.0
 70
    32
  0
VERTEX
  5
6CC6
  8
AM_0
 10
98.870700000000014
 20
176.506
 30
0.0
 70
    32
  0
VERTEX
  5
6CC7
  8
AM_0
 10
98.795700000000011
 20
176.45500000000001
 30
0.0
 70
    32
  0
VERTEX
  5
6CC8
  8
AM_0
 10
98.721699999999998
 20
176.40299999999999
 30
0.0
 70
    32
  0
VERTEX
  5
6CC9
  8
AM_0
 10
98.648899999999998
 20
176.34899999999999
 30
0.0
 70
    32
  0
VERTEX
  5
6CCA
  8
AM_0
 10
98.577200000000005
 20
176.29400000000001
 30
0.0
 70
    32
  0
VERTEX
  5
6CCB
  8
AM_0
 10
98.506699999999995
 20
176.23699999999999
 30
0.0
 70
    32
  0
VERTEX
  5
6CCC
  8
AM_0
 10
98.437399999999997
 20
176.179
 30
0.0
 70
    32
  0
VERTEX
  5
6CCD
  8
AM_0
 10
98.369500000000016
 20
176.12
 30
0.0
 70
    32
  0
VERTEX
  5
6CCE
  8
AM_0
 10
98.302800000000005
 20
176.059
 30
0.0
 70
    32
  0
VERTEX
  5
6CCF
  8
AM_0
 10
98.237499999999997
 20
175.99799999999999
 30
0.0
 70
    32
  0
VERTEX
  5
6CD0
  8
AM_0
 10
98.173599999999993
 20
175.935
 30
0.0
 70
    32
  0
VERTEX
  5
6CD1
  8
AM_0
 10
98.111099999999993
 20
175.8709999999999
 30
0.0
 70
    32
  0
VERTEX
  5
6CD2
  8
AM_0
 10
98.050100000000015
 20
175.80600000000001
 30
0.0
 70
    32
  0
VERTEX
  5
6CD3
  8
AM_0
 10
97.990600000000001
 20
175.739
 30
0.0
 70
    32
  0
VERTEX
  5
6CD4
  8
AM_0
 10
97.932599999999994
 20
175.672
 30
0.0
 70
    32
  0
VERTEX
  5
6CD5
  8
AM_0
 10
97.876300000000001
 20
175.60400000000001
 30
0.0
 70
    32
  0
VERTEX
  5
6CD6
  8
AM_0
 10
97.821500000000015
 20
175.535
 30
0.0
 70
    32
  0
VERTEX
  5
6CD7
  8
AM_0
 10
97.768399999999986
 20
175.464
 30
0.0
 70
    32
  0
VERTEX
  5
6CD8
  8
AM_0
 10
97.716999999999999
 20
175.393
 30
0.0
 70
    32
  0
VERTEX
  5
6CD9
  8
AM_0
 10
97.667299999999997
 20
175.322
 30
0.0
 70
    32
  0
VERTEX
  5
6CDA
  8
AM_0
 10
97.619299999999996
 20
175.249
 30
0.0
 70
    32
  0
VERTEX
  5
6CDB
  8
AM_0
 10
97.573099999999997
 20
175.17599999999999
 30
0.0
 70
    32
  0
VERTEX
  5
6CDC
  8
AM_0
 10
97.528700000000015
 20
175.102
 30
0.0
 70
    32
  0
VERTEX
  5
6CDD
  8
AM_0
 10
97.486099999999993
 20
175.02699999999999
 30
0.0
 70
    32
  0
VERTEX
  5
6CDE
  8
AM_0
 10
97.445400000000006
 20
174.952
 30
0.0
 70
    32
  0
VERTEX
  5
6CDF
  8
AM_0
 10
97.406599999999997
 20
174.876
 30
0.0
 70
    32
  0
VERTEX
  5
6CE0
  8
AM_0
 10
97.369600000000005
 20
174.79900000000001
 30
0.0
 70
    32
  0
VERTEX
  5
6CE1
  8
AM_0
 10
97.334599999999995
 20
174.72300000000001
 30
0.0
 70
    32
  0
VERTEX
  5
6CE2
  8
AM_0
 10
97.301500000000004
 20
174.64500000000001
 30
0.0
 70
    32
  0
VERTEX
  5
6CE3
  8
AM_0
 10
97.270300000000006
 20
174.56800000000001
 30
0.0
 70
    32
  0
VERTEX
  5
6CE4
  8
AM_0
 10
97.241200000000006
 20
174.49000000000001
 30
0.0
 70
    32
  0
VERTEX
  5
6CE5
  8
AM_0
 10
97.213999999999999
 20
174.41200000000001
 30
0.0
 70
    32
  0
VERTEX
  5
6CE6
  8
AM_0
 10
97.188900000000004
 20
174.333
 30
0.0
 70
    32
  0
VERTEX
  5
6CE7
  8
AM_0
 10
97.165800000000004
 20
174.25399999999999
 30
0.0
 70
    32
  0
VERTEX
  5
6CE8
  8
AM_0
 10
97.1447
 20
174.17599999999999
 30
0.0
 70
    32
  0
VERTEX
  5
6CE9
  8
AM_0
 10
97.125699999999995
 20
174.09700000000001
 30
0.0
 70
    32
  0
VERTEX
  5
6CEA
  8
AM_0
 10
97.108699999999985
 20
174.018
 30
0.0
 70
    32
  0
VERTEX
  5
6CEB
  8
AM_0
 10
97.093900000000005
 20
173.93899999999999
 30
0.0
 70
    32
  0
VERTEX
  5
6CEC
  8
AM_0
 10
97.081100000000006
 20
173.86000000000001
 30
0.0
 70
    32
  0
VERTEX
  5
6CED
  8
AM_0
 10
97.070400000000006
 20
173.78100000000001
 30
0.0
 70
    32
  0
VERTEX
  5
6CEE
  8
AM_0
 10
97.061800000000005
 20
173.703
 30
0.0
 70
    32
  0
VERTEX
  5
6CEF
  8
AM_0
 10
97.055300000000017
 20
173.624
 30
0.0
 70
    32
  0
VERTEX
  5
6CF0
  8
AM_0
 10
97.051000000000016
 20
173.54599999999999
 30
0.0
 70
    32
  0
VERTEX
  5
6CF1
  8
AM_0
 10
97.048699999999997
 20
173.46799999999999
 30
0.0
 70
    32
  0
VERTEX
  5
6CF2
  8
AM_0
 10
97.048500000000004
 20
173.39099999999999
 30
0.0
 70
    32
  0
VERTEX
  5
6CF3
  8
AM_0
 10
97.050499999999985
 20
173.31299999999999
 30
0.0
 70
    32
  0
VERTEX
  5
6CF4
  8
AM_0
 10
97.054599999999994
 20
173.23699999999999
 30
0.0
 70
    32
  0
VERTEX
  5
6CF5
  8
AM_0
 10
97.0608
 20
173.16
 30
0.0
 70
    32
  0
VERTEX
  5
6CF6
  8
AM_0
 10
97.069100000000006
 20
173.08500000000001
 30
0.0
 70
    32
  0
VERTEX
  5
6CF7
  8
AM_0
 10
97.079499999999996
 20
173.00899999999999
 30
0.0
 70
    32
  0
VERTEX
  5
6CF8
  8
AM_0
 10
97.091999999999999
 20
172.935
 30
0.0
 70
    32
  0
VERTEX
  5
6CF9
  8
AM_0
 10
97.106500000000011
 20
172.86099999999999
 30
0.0
 70
    32
  0
VERTEX
  5
6CFA
  8
AM_0
 10
97.123199999999997
 20
172.78800000000001
 30
0.0
 70
    32
  0
VERTEX
  5
6CFB
  8
AM_0
 10
97.141900000000021
 20
172.715
 30
0.0
 70
    32
  0
VERTEX
  5
6CFC
  8
AM_0
 10
97.162700000000015
 20
172.64400000000001
 30
0.0
 70
    32
  0
VERTEX
  5
6CFD
  8
AM_0
 10
97.185500000000005
 20
172.57299999999989
 30
0.0
 70
    32
  0
VERTEX
  5
6CFE
  8
AM_0
 10
97.210400000000021
 20
172.50299999999999
 30
0.0
 70
    32
  0
VERTEX
  5
6CFF
  8
AM_0
 10
97.237200000000001
 20
172.434
 30
0.0
 70
    32
  0
VERTEX
  5
6D00
  8
AM_0
 10
97.266099999999994
 20
172.36600000000001
 30
0.0
 70
    32
  0
VERTEX
  5
6D01
  8
AM_0
 10
97.297000000000011
 20
172.298
 30
0.0
 70
    32
  0
VERTEX
  5
6D02
  8
AM_0
 10
97.329800000000006
 20
172.232
 30
0.0
 70
    32
  0
VERTEX
  5
6D03
  8
AM_0
 10
97.36460000000001
 20
172.167
 30
0.0
 70
    32
  0
VERTEX
  5
6D04
  8
AM_0
 10
97.401200000000003
 20
172.10400000000001
 30
0.0
 70
    32
  0
VERTEX
  5
6D05
  8
AM_0
 10
97.439800000000005
 20
172.041
 30
0.0
 70
    32
  0
VERTEX
  5
6D06
  8
AM_0
 10
97.480299999999986
 20
171.97900000000001
 30
0.0
 70
    32
  0
VERTEX
  5
6D07
  8
AM_0
 10
97.522599999999997
 20
171.91900000000001
 30
0.0
 70
    32
  0
VERTEX
  5
6D08
  8
AM_0
 10
97.566800000000015
 20
171.86000000000001
 30
0.0
 70
    32
  0
VERTEX
  5
6D09
  8
AM_0
 10
97.612700000000004
 20
171.80199999999999
 30
0.0
 70
    32
  0
VERTEX
  5
6D0A
  8
AM_0
 10
97.660399999999996
 20
171.7459999999999
 30
0.0
 70
    32
  0
VERTEX
  5
6D0B
  8
AM_0
 10
97.709900000000005
 20
171.69099999999989
 30
0.0
 70
    32
  0
VERTEX
  5
6D0C
  8
AM_0
 10
97.761099999999999
 20
171.637
 30
0.0
 70
    32
  0
VERTEX
  5
6D0D
  8
AM_0
 10
97.813999999999993
 20
171.58500000000001
 30
0.0
 70
    32
  0
VERTEX
  5
6D0E
  8
AM_0
 10
97.868500000000012
 20
171.53399999999999
 30
0.0
 70
    32
  0
VERTEX
  5
6D0F
  8
AM_0
 10
97.924599999999998
 20
171.48500000000001
 30
0.0
 70
    32
  0
VERTEX
  5
6D10
  8
AM_0
 10
97.982299999999995
 20
171.43799999999999
 30
0.0
 70
    32
  0
VERTEX
  5
6D11
  8
AM_0
 10
98.041600000000017
 20
171.392
 30
0.0
 70
    32
  0
VERTEX
  5
6D12
  8
AM_0
 10
98.102400000000003
 20
171.34700000000001
 30
0.0
 70
    32
  0
VERTEX
  5
6D13
  8
AM_0
 10
98.164699999999996
 20
171.304
 30
0.0
 70
    32
  0
VERTEX
  5
6D14
  8
AM_0
 10
98.228399999999993
 20
171.26300000000001
 30
0.0
 70
    32
  0
VERTEX
  5
6D15
  8
AM_0
 10
98.293499999999995
 20
171.22300000000001
 30
0.0
 70
    32
  0
VERTEX
  5
6D16
  8
AM_0
 10
98.359999999999999
 20
171.185
 30
0.0
 70
    32
  0
VERTEX
  5
6D17
  8
AM_0
 10
98.427800000000005
 20
171.149
 30
0.0
 70
    32
  0
VERTEX
  5
6D18
  8
AM_0
 10
98.496899999999997
 20
171.11500000000001
 30
0.0
 70
    32
  0
VERTEX
  5
6D19
  8
AM_0
 10
98.567200000000014
 20
171.08199999999999
 30
0.0
 70
    32
  0
VERTEX
  5
6D1A
  8
AM_0
 10
98.6387
 20
171.05099999999999
 30
0.0
 70
    32
  0
VERTEX
  5
6D1B
  8
AM_0
 10
98.711399999999998
 20
171.02199999999999
 30
0.0
 70
    32
  0
VERTEX
  5
6D1C
  8
AM_0
 10
98.785200000000003
 20
170.995
 30
0.0
 70
    32
  0
VERTEX
  5
6D1D
  8
AM_0
 10
98.860000000000014
 20
170.96899999999999
 30
0.0
 70
    32
  0
VERTEX
  5
6D1E
  8
AM_0
 10
98.935900000000004
 20
170.94499999999999
 30
0.0
 70
    32
  0
VERTEX
  5
6D1F
  8
AM_0
 10
99.012799999999984
 20
170.92400000000001
 30
0.0
 70
    32
  0
VERTEX
  5
6D20
  8
AM_0
 10
99.090599999999995
 20
170.904
 30
0.0
 70
    32
  0
VERTEX
  5
6D21
  8
AM_0
 10
99.169200000000004
 20
170.88499999999999
 30
0.0
 70
    32
  0
VERTEX
  5
6D22
  8
AM_0
 10
99.248800000000017
 20
170.869
 30
0.0
 70
    32
  0
VERTEX
  5
6D23
  8
AM_0
 10
99.328999999999994
 20
170.85499999999999
 30
0.0
 70
    32
  0
VERTEX
  5
6D24
  8
AM_0
 10
99.4101
 20
170.84299999999999
 30
0.0
 70
    32
  0
VERTEX
  5
6D25
  8
AM_0
 10
99.491799999999998
 20
170.83199999999999
 30
0.0
 70
    32
  0
VERTEX
  5
6D26
  8
AM_0
 10
99.574200000000005
 20
170.82400000000001
 30
0.0
 70
    32
  0
VERTEX
  5
6D27
  8
AM_0
 10
99.657100000000014
 20
170.81700000000001
 30
0.0
 70
    32
  0
VERTEX
  5
6D28
  8
AM_0
 10
99.740600000000015
 20
170.81200000000001
 30
0.0
 70
    32
  0
VERTEX
  5
6D29
  8
AM_0
 10
99.824600000000004
 20
170.81
 30
0.0
 70
    32
  0
VERTEX
  5
6D2A
  8
AM_0
 10
99.909099999999995
 20
170.809
 30
0.0
 70
    32
  0
VERTEX
  5
6D2B
  8
AM_0
 10
99.993899999999996
 20
170.81
 30
0.0
 70
    32
  0
VERTEX
  5
6D2C
  8
AM_0
 10
100.07899999999999
 20
170.81299999999999
 30
0.0
 70
    32
  0
VERTEX
  5
6D2D
  8
AM_0
 10
100.16500000000001
 20
170.81800000000001
 30
0.0
 70
    32
  0
VERTEX
  5
6D2E
  8
AM_0
 10
100.25
 20
170.82499999999999
 30
0.0
 70
    32
  0
VERTEX
  5
6D2F
  8
AM_0
 10
100.336
 20
170.834
 30
0.0
 70
    32
  0
VERTEX
  5
6D30
  8
AM_0
 10
100.422
 20
170.845
 30
0.0
 70
    32
  0
VERTEX
  5
6D31
  8
AM_0
 10
100.508
 20
170.857
 30
0.0
 70
    32
  0
VERTEX
  5
6D32
  8
AM_0
 10
100.59399999999999
 20
170.87200000000001
 30
0.0
 70
    32
  0
VERTEX
  5
6D33
  8
AM_0
 10
100.68000000000001
 20
170.88800000000001
 30
0.0
 70
    32
  0
VERTEX
  5
6D34
  8
AM_0
 10
100.76600000000001
 20
170.90700000000001
 30
0.0
 70
    32
  0
VERTEX
  5
6D35
  8
AM_0
 10
100.852
 20
170.92699999999999
 30
0.0
 70
    32
  0
VERTEX
  5
6D36
  8
AM_0
 10
100.938
 20
170.94900000000001
 30
0.0
 70
    32
  0
VERTEX
  5
6D37
  8
AM_0
 10
101.024
 20
170.97300000000001
 30
0.0
 70
    32
  0
VERTEX
  5
6D38
  8
AM_0
 10
101.10899999999999
 20
170.999
 30
0.0
 70
    32
  0
VERTEX
  5
6D39
  8
AM_0
 10
101.194
 20
171.02699999999999
 30
0.0
 70
    32
  0
VERTEX
  5
6D3A
  8
AM_0
 10
101.27800000000001
 20
171.05600000000001
 30
0.0
 70
    32
  0
VERTEX
  5
6D3B
  8
AM_0
 10
101.36199999999999
 20
171.08699999999999
 30
0.0
 70
    32
  0
VERTEX
  5
6D3C
  8
AM_0
 10
101.446
 20
171.12100000000001
 30
0.0
 70
    32
  0
VERTEX
  5
6D3D
  8
AM_0
 10
101.529
 20
171.155
 30
0.0
 70
    32
  0
VERTEX
  5
6D3E
  8
AM_0
 10
101.611
 20
171.19200000000001
 30
0.0
 70
    32
  0
VERTEX
  5
6D3F
  8
AM_0
 10
101.693
 20
171.22999999999999
 30
0.0
 70
    32
  0
VERTEX
  5
6D40
  8
AM_0
 10
101.774
 20
171.27000000000001
 30
0.0
 70
    32
  0
VERTEX
  5
6D41
  8
AM_0
 10
101.855
 20
171.31100000000001
 30
0.0
 70
    32
  0
VERTEX
  5
6D42
  8
AM_0
 10
101.934
 20
171.35499999999999
 30
0.0
 70
    32
  0
VERTEX
  5
6D43
  8
AM_0
 10
102.01300000000001
 20
171.399
 30
0.0
 70
    32
  0
VERTEX
  5
6D44
  8
AM_0
 10
102.09099999999999
 20
171.446
 30
0.0
 70
    32
  0
VERTEX
  5
6D45
  8
AM_0
 10
102.16800000000001
 20
171.494
 30
0.0
 70
    32
  0
SEQEND
  5
6D46
  8
AM_0
  0
LINE
  5
54B7
  8
AM_0
 10
117.3691029332248
 20
271.5544363596747
 30
0.0
 11
117.3691029332248
 21
263.95443635967467
 31
0.0
1001
GENIUS_GENOREF_13
1005
0
  0
LINE
  5
54B8
  8
AM_0
 10
117.3691029332248
 20
263.95443635967467
 30
0.0
 11
118.3691029332248
 21
263.95443635967467
 31
0.0
1001
GENIUS_GENOREF_13
1005
0
  0
LINE
  5
54B9
  8
AM_0
 10
118.3691029332248
 20
267.5544363596747
 30
0.0
 11
117.3691029332248
 21
267.19046612540842
 31
0.0
1001
GENIUS_GENOREF_13
1005
0
  0
LINE
  5
54BA
  8
AM_0
 10
118.3691029332248
 20
267.95443635967467
 30
0.0
 11
117.3691029332248
 21
267.5904661254084
 31
0.0
1001
GENIUS_GENOREF_13
1005
0
  0
LINE
  5
54BB
  8
AM_0
 10
118.3691029332248
 20
271.5544363596747
 30
0.0
 11
117.3691029332248
 21
271.5544363596747
 31
0.0
1001
GENIUS_GENOREF_13
1005
0
  0
LINE
  5
54BC
  8
AM_0N
 10
116.310165421097
 20
263.84708138736818
 30
0.0
 11
117.3691029332248
 21
263.75443635967463
 31
0.0
  0
LINE
  5
54BD
  8
AM_0N
 10
116.310165421097
 20
271.66179133198119
 30
0.0
 11
117.3691029332248
 21
271.75443635967463
 31
0.0
  0
ARC
  5
54BE
  8
AM_0N
 10
120.7691029332248
 20
267.75443635967463
 30
0.0
 40
6.5
 50
151.82726586813479
 51
208.1727341318651
  0
ARC
  5
54BF
  8
AM_0N
 10
116.4496146094933
 20
270.0678798150343
 30
0.0
 40
1.6000000000000001
 50
94.99999999999973
 51
151.82726586813479
  0
ARC
  5
54C0
  8
AM_0N
 10
116.4496146094933
 20
265.44099290431501
 30
0.0
 40
1.6000000000000001
 50
208.1727341318651
 51
265.00000000000028
  0
LINE
  5
54C1
  8
AM_0N
 10
117.3691029332248
 20
271.75443635967463
 30
0.0
 11
117.3691029332248
 21
263.75443635967463
 31
0.0
  0
LINE
  5
54CC
  8
AM_0
 10
97.419102933225034
 20
188.75337997130251
 30
0.0
 11
102.3191029332249
 21
188.75337997130251
 31
0.0
  0
LINE
  5
54CD
  8
AM_0
 10
97.419102933225034
 20
187.54035965286999
 30
0.0
 11
102.3191029332249
 21
187.54035965286999
 31
0.0
  0
LINE
  5
54CE
  8
AM_0
 10
96.619102933224866
 20
187.95337997130261
 30
0.0
 11
96.619102933224866
 21
182.31224855085611
 31
0.0
  0
LINE
  5
54CF
  8
AM_0
 10
96.619102933224866
 20
180.4808426819236
 30
0.0
 11
96.619102933224866
 21
182.31224855085611
 31
0.0
  0
LINE
  5
54D0
  8
AM_0
 10
92.769102933224872
 20
173.79114602200039
 30
0.0
 11
92.769102933224872
 21
180.41371040012751
 31
0.0
  0
LINE
  5
54D1
  8
AM_0
 10
103.1191029332248
 20
180.4808426819236
 30
0.0
 11
103.1191029332248
 21
182.31224855085611
 31
0.0
  0
LINE
  5
54D2
  8
AM_0
 10
103.1191029332248
 20
187.95337997130261
 30
0.0
 11
103.1191029332248
 21
182.31224855085611
 31
0.0
  0
LINE
  5
54D3
  8
AM_0
 10
106.9691029332249
 20
174.54896887709211
 30
0.0
 11
106.9691029332249
 21
173.79114602200039
 31
0.0
  0
LINE
  5
54D4
  8
AM_0
 10
99.86910293322488
 20
178.67062919417691
 30
0.0
 11
93.369102933224866
 21
176.4048597265853
 31
0.0
  0
LINE
  5
54D5
  8
AM_0
 10
101.4204506989547
 20
178.12986051706821
 30
0.0
 11
99.86910293322488
 21
178.67062919417691
 31
0.0
  0
LINE
  5
54D6
  8
AM_0
 10
99.671646559354883
 20
177.0169813860191
 30
0.0
 11
93.369102933224866
 21
174.82004124505761
 31
0.0
  0
LINE
  5
54D7
  8
AM_0
 10
106.3691029332248
 20
174.1671494019952
 30
0.0
 11
106.3691029332248
 21
173.5357185777404
 31
0.0
  0
LINE
  5
54D8
  8
AM_0
 10
106.3691029332248
 20
173.5357185777404
 30
0.0
 11
106.3691029332248
 21
171.51647595961981
 31
0.0
  0
LINE
  5
54D9
  8
AM_0
 10
99.869060671398771
 20
169.25069176040421
 30
0.0
 11
106.3691029332248
 21
171.51647595961981
 31
0.0
  0
LINE
  5
54DA
  8
AM_0
 10
93.369102933224866
 20
171.51647595961981
 30
0.0
 11
93.369102933224866
 21
173.5357185777404
 31
0.0
  0
LINE
  5
54DB
  8
AM_0
 10
93.369102933224866
 20
171.51647595961981
 30
0.0
 11
99.869060671398771
 21
169.25072122365199
 31
0.0
  0
LINE
  5
54DC
  8
AM_0
 10
93.369102933224866
 20
173.5357185777404
 30
0.0
 11
93.369102933224866
 21
176.4048597265853
 31
0.0
  0
LINE
  5
54DD
  8
AM_0
 10
99.880668885790783
 20
177.32441869151799
 30
0.0
 11
99.86910293322488
 21
178.67062919417691
 31
0.0
  0
ARC
  5
54DE
  8
AM_0
 10
97.172915784293423
 20
174.5048484533402
 30
0.0
 40
6.001601094213977
 50
95.294644622325137
 51
137.2036378052704
  0
ARC
  5
54DF
  8
AM_0
 10
97.172915784293423
 20
176.33625432227291
 30
0.0
 40
6.0016010942139628
 50
95.294644622325137
 51
137.2036378052704
  0
ARC
  5
54E0
  8
AM_0
 10
93.638834618422067
 20
175.00173411042431
 30
0.0
 40
1.4906229315522701
 50
234.30512237790029
 51
259.57476505017542
  0
ARC
  5
54E1
  8
AM_0
 10
102.56529008215649
 20
176.33625432227291
 30
0.0
 40
6.0016010942138758
 50
53.236790438343668
 51
84.705355377678401
  0
ARC
  5
54E2
  8
AM_0
 10
102.56529008215649
 20
174.5048484533402
 30
0.0
 40
6.0016010942138758
 50
70.204787517104947
 51
84.705355377678401
  0
ARC
  5
54E3
  8
AM_0
 10
106.09937124802779
 20
175.00173411042431
 30
0.0
 40
1.490622931552253
 50
280.42523494982129
 51
305.69487762209508
  0
ARC
  5
54E4
  8
AM_0
 10
99.601651090521273
 20
182.8295415342613
 30
8206336.7530117426
 40
12.9134744604336
 50
271.18655406403752
 51
287.92670513354841
  0
LINE
  5
54E5
  8
AM_0
 10
103.57642001991979
 20
170.5430027784457
 30
8206336.7530117426
 11
103.989000787121
 21
170.69624446383841
 31
8206336.7530117426
  0
LINE
  5
54E6
  8
AM_0
 10
103.989000787121
 20
170.69624446383841
 30
8206336.7530117426
 11
104.39149253137759
 21
170.8752138265441
 31
8206336.7530117426
  0
ARC
  5
54E7
  8
AM_0
 10
101.8877308906217
 20
176.1600143902665
 30
8206336.7530117426
 40
5.8479004225482916
 50
295.35002817212489
 51
303.5670510400584
  0
LINE
  5
54E8
  8
AM_0
 10
105.1211079666316
 20
171.28731369800411
 30
8206336.7530117426
 11
105.4356508458828
 21
171.5195871531746
 31
8206336.7530117426
  0
LINE
  5
54E9
  8
AM_0
 10
105.4356508458828
 20
171.5195871531746
 30
8206336.7530117426
 11
105.7248399940802
 21
171.7824580292133
 31
8206336.7530117426
  0
ARC
  5
54EA
  8
AM_0
 10
103.845957030702
 20
173.64814241942071
 30
8206336.7530117426
 40
2.647825416060579
 50
315.20195107610522
 51
327.6690874537353
  0
LINE
  5
54EB
  8
AM_0
 10
106.0832991105478
 20
172.23206337795179
 30
8206336.7530117426
 11
106.2122150668272
 21
172.4715951431879
 31
8206336.7530117426
  0
LINE
  5
54EC
  8
AM_0
 10
106.2122150668272
 20
172.4715951431879
 30
8206336.7530117426
 11
106.3063156343279
 21
172.72625413167211
 31
8206336.7530117426
  0
ARC
  5
54ED
  8
AM_0
 10
104.7074953953789
 20
173.1813427962754
 30
8206336.7530117426
 40
1.6623272388802151
 50
344.11151119415172
 51
352.55958186686092
  0
LINE
  5
54EE
  8
AM_0
 10
106.3558259377068
 20
172.96607953338079
 30
8206336.7530117426
 11
106.36573060214791
 21
173.06694528710139
 31
8206336.7530117426
  0
LINE
  5
54EF
  8
AM_0
 10
106.36573060214791
 20
173.06694528710139
 30
8206336.7530117426
 11
106.3691029332248
 21
173.1682440008403
 31
8206336.7530117426
  0
ARC
  5
54F0
  8
AM_0
 10
104.7740095145554
 20
173.1652678493422
 30
8206336.7530117426
 40
1.595096195143147
 50
0.1069032823798393
 51
11.47976002760999
  0
LINE
  5
54F1
  8
AM_0
 10
106.3371959236139
 20
173.48272670068371
 30
8206336.7530117426
 11
106.29656401342871
 21
173.64330057620819
 31
8206336.7530117426
  0
LINE
  5
54F2
  8
AM_0
 10
106.29656401342871
 20
173.64330057620819
 30
8206336.7530117426
 11
106.2409239488951
 21
173.79926886963079
 31
8206336.7530117426
  0
ARC
  5
54F3
  8
AM_0
 10
104.36544965524131
 20
173.02388608824589
 30
8206336.7530117426
 40
2.029438908620818
 50
22.461811304460369
 51
29.330593568206702
  0
ARC
  5
54F4
  8
AM_0
 10
100.13655477594421
 20
182.8295415343143
 30
8206336.7530117426
 40
12.91347446048893
 50
252.0732948664546
 51
268.81307083254751
  0
LINE
  5
54F5
  8
AM_0
 10
96.161785846529995
 20
170.5430027784457
 30
8206336.7530117426
 11
95.749205079328803
 21
170.69624446383841
 31
8206336.7530117426
  0
LINE
  5
54F6
  8
AM_0
 10
95.749205079328803
 20
170.69624446383841
 30
8206336.7530117426
 11
95.346713335072209
 21
170.8752138265441
 31
8206336.7530117426
  0
ARC
  5
54F7
  8
AM_0
 10
97.850474975833066
 20
176.16001439027511
 30
8206336.7530117426
 40
5.8479004225582418
 50
236.43294895995061
 51
244.649971827868
  0
LINE
  5
54F8
  8
AM_0
 10
94.617097899818205
 20
171.28731369800411
 30
8206336.7530117426
 11
94.302555020567084
 21
171.5195871531746
 31
8206336.7530117426
  0
LINE
  5
54F9
  8
AM_0
 10
94.302555020567084
 20
171.5195871531746
 30
8206336.7530117426
 11
94.013365872369604
 21
171.7824580292133
 31
8206336.7530117426
  0
ARC
  5
54FA
  8
AM_0
 10
95.892248835747495
 20
173.64814241942011
 30
8206336.7530117426
 40
2.6478254160599781
 50
212.3309125462558
 51
224.79804892389021
  0
LINE
  5
54FB
  8
AM_0
 10
93.654906755902076
 20
172.23206337795179
 30
8206336.7530117426
 11
93.525990799622718
 21
172.4715951431879
 31
8206336.7530117426
  0
LINE
  5
54FC
  8
AM_0
 10
93.525990799622718
 20
172.4715951431879
 30
8206336.7530117426
 11
93.43189023212193
 21
172.72625413167211
 31
8206336.7530117426
  0
ARC
  5
54FD
  8
AM_0
 10
95.030710471100562
 20
173.181342796282
 30
8206336.7530117426
 40
1.6623272389105701
 50
187.4404181332275
 51
195.8884888057874
  0
LINE
  5
54FE
  8
AM_0
 10
93.382379928742921
 20
172.96607953338079
 30
8206336.7530117426
 11
93.372475264302025
 21
173.06694528710139
 31
8206336.7530117426
  0
LINE
  5
54FF
  8
AM_0
 10
93.372475264302025
 20
173.06694528710139
 30
8206336.7530117426
 11
93.369102933224866
 21
173.1682440008403
 31
8206336.7530117426
  0
ARC
  5
5500
  8
AM_0
 10
94.964196351891474
 20
173.1652678493422
 30
8206336.7530117426
 40
1.5950961951403351
 50
168.52023997237021
 51
179.8930967176201
  0
LINE
  5
5501
  8
AM_0
 10
93.401009942835927
 20
173.48272670068371
 30
8206336.7530117426
 11
93.441641853021224
 21
173.64330057620819
 31
8206336.7530117426
  0
LINE
  5
5502
  8
AM_0
 10
93.441641853021224
 20
173.64330057620819
 30
8206336.7530117426
 11
93.497281917554574
 21
173.79926886963079
 31
8206336.7530117426
  0
ARC
  5
5503
  8
AM_0
 10
95.372756211218118
 20
173.02388608823989
 30
8206336.7530117426
 40
2.02943890863216
 50
147.8557105642179
 51
157.53818869548999
  0
LINE
  5
5504
  8
AM_0
 10
93.654408168211731
 20
174.10365564095309
 30
8206336.7530117426
 11
93.77669691474631
 21
174.280966233675
 31
8206336.7530117426
  0
LINE
  5
5505
  8
AM_0
 10
93.77669691474631
 20
174.280966233675
 30
8206336.7530117426
 11
93.913550515084466
 21
174.44734815606441
 31
8206336.7530117426
  0
ARC
  5
5506
  8
AM_0
 10
96.41170850127709
 20
172.20433647024331
 30
8206336.7530117426
 40
3.3573642558870951
 50
129.0813784716793
 51
138.08040406443399
  0
LINE
  5
5507
  8
AM_0
 10
94.295146996260854
 20
174.81049497313441
 30
8206336.7530117426
 11
94.714285613661005
 21
175.1131914507601
 31
8206336.7530117426
  0
LINE
  5
5508
  8
AM_0
 10
94.714285613661005
 20
175.1131914507601
 30
8206336.7530117426
 11
95.16343929355871
 21
175.3705431520147
 31
8206336.7530117426
  0
ARC
  5
5509
  8
AM_0
 10
98.494664976585128
 20
168.84293285774919
 30
8206336.7530117426
 40
7.3284896605682359
 50
109.0382363849769
 51
117.03651703470091
  0
LINE
  5
550A
  8
AM_0
 10
96.104118431807365
 20
175.77056217247909
 30
8206336.7530117426
 11
96.780616326374741
 21
175.97744202209759
 31
8206336.7530117426
  0
LINE
  5
550B
  8
AM_0
 10
96.780616326374741
 20
175.97744202209759
 30
8206336.7530117426
 11
97.470382889074557
 21
176.1352554545999
 31
8206336.7530117426
  0
ARC
  5
550C
  8
AM_0
 10
99.779254205938287
 20
164.1951556116789
 30
8206336.7530117426
 40
12.16128574685901
 50
96.390354906716382
 51
100.944276276251
  0
LINE
  5
550D
  8
AM_0
 10
98.425683144509321
 20
176.2808792721975
 30
8206336.7530117426
 11
98.530646917673153
 21
176.29088824556439
 31
8206336.7530117426
  0
ARC
  5
550E
  8
AM_0
 10
97.419102933225034
 20
187.95337997130261
 30
0.0
 40
0.7999999999998977
 50
90.0
 51
180.0
  0
ARC
  5
550F
  8
AM_0
 10
97.419102933225034
 20
186.74035965287001
 30
0.0
 40
0.7999999999999972
 50
90.0
 51
180.0
  0
ARC
  5
5510
  8
AM_0
 10
102.3191029332249
 20
187.95337997130261
 30
0.0
 40
0.8000000000000112
 50
0.0
 51
90.0
  0
ARC
  5
5511
  8
AM_0
 10
102.3191029332249
 20
186.74035965287001
 30
0.0
 40
0.8000000000000112
 50
0.0
 51
90.0
  0
LINE
  5
61A3
  8
AM_0
 10
400.86905293322468
 20
271.25452135967498
 30
0.0
 11
405.86905293322479
 21
266.2545213596751
 31
0.0
  0
LINE
  5
61A4
  8
AM_0
 10
396.36905293322479
 20
271.25452135967498
 30
0.0
 11
400.86905293322468
 21
271.25452135967498
 31
0.0
  0
LINE
  5
61A5
  8
AM_0
 10
395.86905293322479
 20
270.75452135967498
 30
0.0
 11
395.86905293322479
 21
249.55748735967501
 31
0.0
  0
LINE
  5
61A6
  8
AM_0
 10
405.86905293322479
 20
266.2545213596751
 30
0.0
 11
405.86905293322479
 21
209.2545213596751
 31
0.0
  0
LINE
  5
61A7
  8
AM_0
 10
396.86914293322502
 20
204.25452135967501
 30
0.0
 11
400.86905293322468
 21
204.25452135967501
 31
0.0
  0
LINE
  5
61A8
  8
AM_0
 10
400.86905293322468
 20
204.25452135967501
 30
0.0
 11
405.86905293322479
 21
209.2545213596751
 31
0.0
  0
LINE
  5
61A9
  8
AM_0
 10
396.36905293322479
 20
271.25452135967498
 30
0.0
 11
395.86905293322479
 21
270.75452135967498
 31
0.0
1001
GENIUS_GENFIL_13
1070
     0
1040
0.5
1040
0.5
1040
20.0
1040
0.0
1002
{
1002
}
1001
GENIUS_GENOBJ-N-CHA_13
1002
{
1000
OWNER
1000
GEN
1002
}
1001
GENIUS_GENODEF_13
1002
{
1000
HIER
1070
     0
1002
}
1002
{
1000
MANEDIT
1070
     0
1002
}
1002
{
1000
NOSEL
1070
     0
1002
}
1002
{
1000
BEHIND
1070
     0
1002
}
1002
{
1000
OTHER
1070
     0
1002
}
1002
{
1000
REACTOR
1002
}
  0
LINE
  5
61AA
  8
AM_0
 10
400.86905293322468
 20
271.25452135967498
 30
0.0
 11
400.86905293322468
 21
204.25452135967501
 31
0.0
  0
CIRCLE
  5
61AB
  8
AM_0
 10
655.57914922198825
 20
237.754524359675
 30
0.0
 40
33.499999999999893
  0
CIRCLE
  5
61AC
  8
AM_0
 10
655.57914922198825
 20
237.754524359675
 30
0.0
 40
28.49999999999994
  0
LINE
  5
61AE
  8
AM_0
 10
540.57914922198825
 20
171.7526689320874
 30
0.0
 11
572.40767367251522
 21
172.86414549768651
 31
0.0
  0
LINE
  5
61AF
  8
AM_0
 10
570.57916822198808
 20
262.70504518384053
 30
0.0
 11
540.57914922198825
 21
263.75266893208749
 31
0.0
  0
LINE
  5
61B0
  8
AM_0
 10
540.57914922198825
 20
263.75266893208749
 30
0.0
 11
540.57914922198825
 21
171.7526689320872
 31
0.0
  0
LINE
  5
61B1
  8
ﾁｭｳｼﾝｾﾝ1
 10
529.57914922198825
 20
176.75266893208811
 30
0.0
 11
545.40667223452476
 21
176.752668932088
 31
0.0
  0
LINE
  5
61B2
  8
AM_0
 10
536.57914922198825
 20
263.75266893208749
 30
0.0
 11
536.57914922198825
 21
242.93816403255511
 31
0.0
  0
LINE
  5
61B3
  8
AM_0
 10
536.57914922198825
 20
192.56717383161981
 30
0.0
 11
536.57914922198825
 21
171.7526689320882
 31
0.0
  0
LINE
  5
61B4
  8
AM_0
 10
532.57914922198825
 20
257.61688726292692
 30
0.0
 11
532.57914922198825
 21
177.888450601248
 31
0.0
  0
LINE
  5
61B5
  8
AM_0
 10
534.5202117098604
 20
180.66002390439439
 30
0.0
 11
535.57914922198825
 21
180.752668932088
 31
0.0
  0
LINE
  5
61B6
  8
AM_0
 10
534.5202117098604
 20
172.84531395978161
 30
0.0
 11
535.57914922198825
 21
172.752668932088
 31
0.0
  0
ARC
  5
61B7
  8
AM_0
 10
538.97914922198834
 20
176.752668932088
 30
0.0
 40
6.5
 50
151.82726586813479
 51
208.1727341318651
  0
ARC
  5
61B8
  8
AM_0
 10
534.65966089825679
 20
174.4392254767283
 30
0.0
 40
1.6000000000000001
 50
208.1727341318651
 51
265.00000000000028
  0
LINE
  5
61B9
  8
AM_0
 10
532.8996755605599
 20
179.0526689320879
 30
0.0
 11
535.18923523935541
 21
176.752668932088
 31
0.0
  0
LINE
  5
61BA
  8
AM_0
 10
534.8791492219882
 20
177.06416893208799
 30
0.0
 11
534.8791492219882
 21
176.441168932088
 31
0.0
  0
LINE
  5
61BB
  8
AM_0
 10
532.8996755605599
 20
174.45266893208799
 30
0.0
 11
535.18923523935541
 21
176.752668932088
 31
0.0
  0
LINE
  5
61BC
  8
AM_0
 10
532.48661753165345
 20
177.06416893208799
 30
0.0
 11
534.8791492219882
 21
177.06416893208799
 31
0.0
  0
LINE
  5
61BD
  8
AM_0
 10
532.48661753165345
 20
176.441168932088
 30
0.0
 11
534.8791492219882
 21
176.441168932088
 31
0.0
  0
ARC
  5
61BE
  8
AM_0
 10
534.65966089825679
 20
179.06611238744759
 30
0.0
 40
1.6000000000000001
 50
94.999999999999758
 51
151.82726586813479
  0
LINE
  5
61BF
  8
AM_0
 10
536.57914922198825
 20
263.75266893208749
 30
0.0
 11
540.57914922198825
 21
263.75266893208749
 31
0.0
  0
LINE
  5
61C0
  8
AM_0
 10
535.57914922198779
 20
262.75266893208732
 30
0.0
 11
536.57914922198847
 21
263.75266893208749
 31
0.0
  0
LINE
  5
61C1
  8
AM_0
 10
540.57914922198825
 20
171.7526689320872
 30
0.0
 11
536.57914922198825
 21
171.7526689320882
 31
0.0
  0
LINE
  5
61C2
  8
AM_0N
 10
536.57914922198825
 20
180.55266893208801
 30
0.0
 11
535.57914922198825
 21
180.55266893208801
 31
0.0
  0
LINE
  5
61C3
  8
AM_0N
 10
535.57914922198825
 20
176.95266893208799
 30
0.0
 11
536.57914922198825
 21
177.31663916635421
 31
0.0
  0
LINE
  5
61C4
  8
AM_0N
 10
535.57914922198825
 20
176.55266893208801
 30
0.0
 11
536.57914922198825
 21
176.9166391663542
 31
0.0
  0
LINE
  5
61C5
  8
AM_0N
 10
535.57914922198825
 20
172.752668932088
 30
0.0
 11
535.57914922198825
 21
180.752668932088
 31
0.0
  0
LINE
  5
61C6
  8
AM_0N
 10
535.57914922198825
 20
172.95266893208799
 30
0.0
 11
536.57914922198825
 21
172.95266893208799
 31
0.0
  0
LINE
  5
61C7
  8
AM_0
 10
532.57914922198825
 20
192.56717383161961
 30
0.0
 11
536.57914922198825
 21
192.56717383161981
 31
0.0
  0
LINE
  5
61C8
  8
AM_0
 10
536.57914922198825
 20
190.91031958212719
 30
0.0
 11
532.57914922198825
 21
192.56717383161961
 31
0.0
  0
LINE
  5
61C9
  8
AM_0
 10
532.57914922198825
 20
242.93816403255511
 30
0.0
 11
536.57914922198825
 21
242.93816403255511
 31
0.0
  0
LINE
  5
61CA
  8
AM_0
 10
536.57914922198825
 20
244.59501828204759
 30
0.0
 11
532.57914922198825
 21
242.93816403255511
 31
0.0
  0
LINE
  5
61CB
  8
ﾁｭｳｼﾝｾﾝ1
 10
529.57914922198825
 20
258.75266893208669
 30
0.0
 11
545.40667223452476
 21
258.75266893208692
 31
0.0
  0
LINE
  5
61CC
  8
AM_0
 10
534.5202117098604
 20
254.8453139597803
 30
0.0
 11
535.57914922198825
 21
254.75266893208689
 31
0.0
  0
LINE
  5
61CD
  8
AM_0
 10
534.5202117098604
 20
262.6600239043932
 30
0.0
 11
535.57914922198825
 21
262.75266893208692
 31
0.0
  0
ARC
  5
61CE
  8
AM_0
 10
538.97914922198834
 20
258.75266893208692
 30
0.0
 40
6.5
 50
151.82726586813479
 51
208.1727341318651
  0
ARC
  5
61CF
  8
AM_0
 10
534.65966089825679
 20
261.06611238744648
 30
0.0
 40
1.6000000000000001
 50
94.999999999999758
 51
151.82726586813479
  0
LINE
  5
61D0
  8
AM_0
 10
532.8996755605599
 20
256.45266893208691
 30
0.0
 11
535.18923523935541
 21
258.75266893208692
 31
0.0
  0
LINE
  5
61D1
  8
AM_0
 10
534.8791492219882
 20
258.4411689320869
 30
0.0
 11
534.8791492219882
 21
259.06416893208689
 31
0.0
  0
LINE
  5
61D2
  8
AM_0
 10
532.8996755605599
 20
261.05266893208682
 30
0.0
 11
535.18923523935541
 21
258.75266893208692
 31
0.0
  0
LINE
  5
61D3
  8
AM_0
 10
532.48661753165345
 20
258.4411689320869
 30
0.0
 11
534.8791492219882
 21
258.4411689320869
 31
0.0
  0
LINE
  5
61D4
  8
AM_0
 10
532.48661753165345
 20
259.06416893208689
 30
0.0
 11
534.8791492219882
 21
259.06416893208689
 31
0.0
  0
ARC
  5
61D5
  8
AM_0
 10
534.65966089825679
 20
256.43922547672719
 30
0.0
 40
1.6000000000000001
 50
208.1727341318651
 51
265.00000000000028
  0
LINE
  5
61D6
  8
AM_0N
 10
536.57914922198825
 20
254.95266893208679
 30
0.0
 11
535.57914922198825
 21
254.95266893208679
 31
0.0
  0
LINE
  5
61D7
  8
AM_0N
 10
535.57914922198825
 20
258.55266893208682
 30
0.0
 11
536.57914922198825
 21
258.18869869782071
 31
0.0
  0
LINE
  5
61D8
  8
AM_0N
 10
535.57914922198825
 20
258.95266893208691
 30
0.0
 11
536.57914922198825
 21
258.58869869782058
 31
0.0
  0
LINE
  5
61D9
  8
AM_0N
 10
535.57914922198825
 20
262.75266893208692
 30
0.0
 11
535.57914922198825
 21
254.75266893208689
 31
0.0
  0
LINE
  5
61DA
  8
AM_0N
 10
535.57914922198825
 20
262.55266893208682
 30
0.0
 11
536.57914922198825
 21
262.55266893208682
 31
0.0
  0
LINE
  5
61DB
  8
AM_0
 10
327.86917293322489
 20
288.7545093596749
 30
0.0
 11
332.86909293322492
 21
288.7545093596749
 31
0.0
  0
LINE
  5
61DC
  8
AM_0
 10
332.86909293322492
 20
288.7545093596749
 30
0.0
 11
332.86909293322492
 21
144.25450535967491
 31
0.0
  0
LINE
  5
61DD
  8
AM_0
 10
295.86916293322508
 20
154.25452235967481
 30
0.0
 11
320.86909293322492
 21
153.59987435967491
 31
0.0
  0
LINE
  5
61DE
  8
AM_0
 10
320.86909293322492
 20
267.25453835967488
 30
0.0
 11
320.86909293322492
 21
252.62184935967491
 31
0.0
  0
LINE
  5
61DF
  8
AM_0
 10
295.86910293322501
 20
281.2545093596749
 30
0.0
 11
323.921472933225
 21
281.98906835967489
 31
0.0
  0
LINE
  5
61E0
  8
AM_0
 10
325.86910293322501
 20
286.75454135967487
 30
0.0
 11
325.86910293322501
 21
271.2545103596749
 31
0.0
  0
LINE
  5
61E1
  8
ﾁｭｳｼﾝｾﾝ
 10
75.364266470341946
 20
217.7544363596748
 30
0.0
 11
323.14774757835647
 21
217.75453835967491
 31
0.0
  0
LINE
  5
61E2
  8
AM_0
 10
320.86909293322492
 20
162.1245153596748
 30
0.0
 11
325.34908293322508
 21
162.1245153596748
 31
0.0
  0
LINE
  5
61E3
  8
AM_0
 10
320.86909293322492
 20
250.62184835967491
 30
0.0
 11
325.30978293322511
 21
250.62184835967491
 31
0.0
  0
LINE
  5
61E4
  8
AM_0
 10
322.86910293322501
 20
260.14254035967502
 30
0.0
 11
325.86910293322501
 21
260.14254035967502
 31
0.0
  0
LINE
  5
61E5
  8
AM_0
 10
322.86910293322501
 20
269.2545093596749
 30
0.0
 11
323.86909293322492
 21
269.2545093596749
 31
0.0
  0
LINE
  5
61E6
  8
AM_0
 10
320.86909293322492
 20
160.12451735967491
 30
0.0
 11
320.86909293322492
 21
146.25450635967491
 31
0.0
  0
LINE
  5
61E7
  8
AM_0
 10
325.86910293322501
 20
260.14254035967502
 30
0.0
 11
325.86910293322501
 21
148.75450535967491
 31
0.0
  0
LINE
  5
61E8
  8
AM_0
 10
295.86910293322501
 20
269.2545093596749
 30
0.0
 11
321.86917293322489
 21
269.2545093596749
 31
0.0
  0
LINE
  5
61E9
  8
AM_0
 10
295.86910293322501
 20
254.90245835967491
 30
0.0
 11
320.86909293322492
 21
254.90245835967491
 31
0.0
  0
LINE
  5
61EA
  8
AM_0
 10
295.86910293322501
 20
180.60655835967481
 30
0.0
 11
325.86910293322501
 21
180.60655835967481
 31
0.0
  0
LINE
  5
61EB
  8
AM_0
 10
295.86910293322501
 20
166.2545073596749
 30
0.0
 11
325.86910293322501
 21
166.2545073596749
 31
0.0
  0
LINE
  5
61EC
  8
AM_0
 10
295.86910293322501
 20
281.2545093596749
 30
0.0
 11
295.86910293322501
 21
154.25444435967481
 31
0.0
  0
LINE
  5
61ED
  8
AM_0
 10
407.86909293322492
 20
252.7545093596749
 30
0.0
 11
407.86909293322492
 21
249.7545093596749
 31
0.0
  0
LINE
  5
61EE
  8
ﾁｭｳｼﾝｾﾝ
 10
446.01575101942427
 20
237.754524359675
 30
0.0
 11
315.82242966050683
 21
237.754524359675
 31
0.0
  0
LINE
  5
61EF
  8
AM_0
 10
405.86905293322479
 20
225.7545243596748
 30
0.0
 11
439.86910293322478
 21
225.7545243596748
 31
0.0
  0
LINE
  5
61F0
  8
AM_0
 10
405.86905293322479
 20
249.75450935967481
 30
0.0
 11
439.86910293322478
 21
249.7545093596749
 31
0.0
  0
LINE
  5
61F1
  8
AM_0
 10
439.86910293322478
 20
252.7545093596749
 30
0.0
 11
439.86910293322478
 21
225.7545243596748
 31
0.0
  0
LINE
  5
61F2
  8
AM_0
 10
407.86909293322492
 20
252.7545093596749
 30
0.0
 11
439.86910293322478
 21
252.7545093596749
 31
0.0
  0
LINE
  5
61F3
  8
AM_0
 10
651.57915022198813
 20
252.7545093596749
 30
0.0
 11
659.57913322198817
 21
252.7545093596749
 31
0.0
  0
LINE
  5
61F4
  8
AM_0
 10
651.57915022198813
 20
245.75452235967489
 30
0.0
 11
659.57913322198817
 21
245.75452235967489
 31
0.0
  0
LINE
  5
61F5
  8
AM_0
 10
651.57915022198813
 20
252.7545093596749
 30
0.0
 11
651.57915022198813
 21
245.75452235967489
 31
0.0
  0
LINE
  5
61F6
  8
AM_0
 10
659.57913322198817
 20
252.7545093596749
 30
0.0
 11
659.57913322198817
 21
245.75452235967489
 31
0.0
  0
LINE
  5
61F7
  8
AM_0
 10
393.58135293322499
 20
269.98512935967489
 30
0.0
 11
395.86905293322479
 21
267.25877035253041
 31
0.0
  0
LINE
  5
61F8
  8
AM_0
 10
392.86909293322492
 20
155.25450635967491
 30
0.0
 11
392.86909293322492
 21
322.75450535967479
 31
0.0
  0
LINE
  5
61F9
  8
AM_0
 10
382.86910293322489
 20
157.53508535967481
 30
0.0
 11
382.86910293322489
 21
190.60017935967491
 31
0.0
  0
LINE
  5
61FA
  8
AM_0
 10
364.86910293322489
 20
301.82851535967501
 30
0.0
 11
364.86910293322489
 21
256.59935735967503
 31
0.0
  0
LINE
  5
61FB
  8
AM_0
 10
392.86909293322492
 20
307.75450535967491
 30
0.0
 11
396.86914293322502
 21
307.75450535967491
 31
0.0
  0
LINE
  5
61FC
  8
AM_0
 10
384.79930293322508
 20
322.47268535967493
 30
0.0
 11
392.86909293322492
 21
322.75447535967493
 31
0.0
  0
LINE
  5
61FD
  8
AM_0
 10
370.19464293322488
 20
306.82546535967492
 30
0.0
 11
379.97380293322499
 21
307.16695535967489
 31
0.0
  0
LINE
  5
61FE
  8
ﾁｭｳｼﾝｾﾝ
 10
565.60332922198825
 20
237.754524359675
 30
0.0
 11
745.55496922198802
 21
237.754524359675
 31
0.0
  0
LINE
  5
61FF
  8
ﾁｭｳｼﾝｾﾝ
 10
692.87991317943045
 20
217.75453835967491
 30
0.0
 11
618.27838526454605
 21
217.75453835967491
 31
0.0
  0
LINE
  5
6200
  8
ﾁｭｳｼﾝｾﾝ
 10
655.57914922198825
 20
326.75664558182763
 30
0.0
 11
655.57914922198825
 21
139.96850879137921
 31
0.0
  0
LINE
  5
6201
  8
AM_0
 10
707.57916622198832
 20
232.75453835967491
 30
0.0
 11
707.57916622198832
 21
215.75452235967481
 31
0.0
  0
LINE
  5
6202
  8
AM_0
 10
588.64122022198842
 20
249.55748735967501
 30
0.0
 11
588.64122022198842
 21
249.55748735967501
 31
0.0
  0
LINE
  5
6203
  8
AM_0
 10
392.86909293322492
 20
167.75452235967481
 30
0.0
 11
396.86914293322502
 21
167.75452235967481
 31
0.0
  0
LINE
  5
6204
  8
AM_0
 10
711.25740322198817
 20
276.74083835967502
 30
0.0
 11
711.25740322198817
 21
276.74083835967502
 31
0.0
  0
LINE
  5
6205
  8
AM_0
 10
722.51710822198834
 20
249.55748735967501
 30
0.0
 11
722.51710822198834
 21
249.55748735967501
 31
0.0
  0
LINE
  5
6206
  8
AM_0
 10
396.86914293322502
 20
249.55748735967501
 30
0.0
 11
396.86914293322502
 21
167.75452235967481
 31
0.0
  0
LINE
  5
6207
  8
AM_0
 10
599.90089522198832
 20
276.74086835967489
 30
0.0
 11
599.90089522198832
 21
276.74086835967489
 31
0.0
  0
LINE
  5
6208
  8
AM_0
 10
382.86910293322489
 20
279.7061703596749
 30
0.0
 11
382.86910293322489
 21
320.4739353596749
 31
0.0
  0
LINE
  5
6209
  8
ﾁｭｳｼﾝｾﾝ1
 10
576.38320184774955
 20
158.55854698543641
 30
0.0
 11
593.35376459622694
 21
175.5291097339134
 31
0.0
  0
LINE
  5
620A
  8
AM_0
 10
570.57916822198808
 20
267.7545093596749
 30
0.0
 11
572.84681722198832
 21
311.02390535967493
 31
0.0
  0
LINE
  5
620B
  8
AM_0
 10
625.57914922198825
 20
322.75453535967489
 30
0.0
 11
655.57914922198825
 21
322.75453535967489
 31
0.0
  0
LINE
  5
620C
  8
AM_0
 10
617.5791632219881
 20
212.75452235967489
 30
0.0
 11
596.54527222198817
 21
212.75452235967489
 31
0.0
  0
LINE
  5
620D
  8
AM_0
 10
570.57916822198808
 20
267.7545093596749
 30
0.0
 11
570.57916822198808
 21
237.754524359675
 31
0.0
  0
LINE
  5
620E
  8
AM_0
 10
625.57916422198809
 20
322.75450535967479
 30
0.0
 11
582.30973822198825
 21
320.4868353596749
 31
0.0
  0
LINE
  5
620F
  8
AM_0
 10
369.86914293322502
 20
251.5993893596748
 30
0.0
 11
384.09985293322489
 21
251.5993893596748
 31
0.0
  0
LINE
  5
6210
  8
AM_0
 10
386.86909293322492
 20
173.47316435967491
 30
0.0
 11
386.86909293322492
 21
304.53586535967497
 31
0.0
  0
LINE
  5
6211
  8
AM_0
 10
384.79930293322508
 20
155.5363203596749
 30
0.0
 11
392.86912293322501
 21
155.25450635967491
 31
0.0
  0
LINE
  5
6212
  8
AM_0
 10
332.86909293322492
 20
288.7545093596749
 30
0.0
 11
361.94764293322493
 21
289.51595435967488
 31
0.0
  0
LINE
  5
6213
  8
AM_0
 10
570.57913822198816
 20
207.75450635967491
 30
0.0
 11
572.83390822198805
 21
164.73114635967491
 31
0.0
  0
LINE
  5
6214
  8
AM_0
 10
570.57916822198808
 20
207.7545213596749
 30
0.0
 11
570.57916822198808
 21
237.754524359675
 31
0.0
  0
LINE
  5
6215
  8
AM_0
 10
582.82020622198843
 20
155.25450635967491
 30
0.0
 11
612.02989222198835
 21
155.25450635967491
 31
0.0
  0
LINE
  5
6216
  8
AM_0
 10
699.12843622198807
 20
155.25450635967491
 30
0.0
 11
728.33810722198803
 21
155.25450635967491
 31
0.0
  0
LINE
  5
6217
  8
AM_0
 10
740.57915122198801
 20
207.7545213596749
 30
0.0
 11
740.57915122198801
 21
237.754524359675
 31
0.0
  0
LINE
  5
6218
  8
AM_0
 10
685.57914922198825
 20
322.75453535967489
 30
0.0
 11
655.57914922198825
 21
322.75453535967489
 31
0.0
  0
LINE
  5
6219
  8
AM_0
 10
332.86909293322492
 20
266.55156635967489
 30
0.0
 11
363.1873629332249
 21
266.55156635967489
 31
0.0
  0
LINE
  5
621A
  8
AM_0
 10
332.869152933225
 20
144.25450535967491
 30
0.0
 11
368.869152933225
 21
142.75450535967491
 31
0.0
  0
LINE
  5
621B
  8
AM_0
 10
368.86909293322492
 20
158.16498335967481
 30
0.0
 11
368.86909293322492
 21
142.75450535967491
 31
0.0
  0
LINE
  5
621C
  8
AM_0
 10
369.842922933225
 20
159.1646313596749
 30
0.0
 11
382.86910293322489
 21
159.5057253596749
 31
0.0
  0
LINE
  5
621D
  8
AM_0
 10
396.79930293322508
 20
171.7569633596749
 30
0.0
 11
396.86914293322502
 21
171.7545213596749
 31
0.0
  0
LINE
  5
621E
  8
AM_0
 10
366.31729293322502
 20
277.48317635967493
 30
0.0
 11
383.35459293322492
 21
277.48317635967493
 31
0.0
  0
LINE
  5
621F
  8
AM_0
 10
603.57914722198825
 20
232.75453835967491
 30
0.0
 11
603.57914722198825
 21
215.75452235967481
 31
0.0
  0
LINE
  5
6220
  8
AM_0
 10
592.77790822198813
 20
239.75452235967489
 30
0.0
 11
600.80690122198826
 21
239.75452235967489
 31
0.0
  0
LINE
  5
6221
  8
AM_0
 10
688.57914922198825
 20
231.98824306234019
 30
0.0
 11
688.57914922198825
 21
217.75453835967491
 31
0.0
  0
LINE
  5
6222
  8
AM_0
 10
592.77790822198813
 20
235.75453835967491
 30
0.0
 11
600.57914722198825
 21
235.75453835967491
 31
0.0
  0
LINE
  5
6223
  8
AM_0
 10
698.18902822198834
 20
283.8999273596749
 30
0.0
 11
678.96840022198819
 21
264.67931435967489
 31
0.0
  0
LINE
  5
6224
  8
AM_0
 10
701.72458222198827
 20
280.36440335967501
 30
0.0
 11
682.50393922198805
 21
261.1437603596749
 31
0.0
  0
LINE
  5
6225
  8
AM_0
 10
612.96928522198812
 20
283.8999273596749
 30
0.0
 11
632.18992822198834
 21
264.67928435967502
 31
0.0
  0
LINE
  5
6226
  8
AM_0
 10
627.45189022198815
 20
142.8493833596749
 30
0.0
 11
683.70643822198826
 21
142.8493833596749
 31
0.0
  0
LINE
  5
6227
  8
AM_0
 10
693.57916522198832
 20
212.75452235967489
 30
0.0
 11
714.61304122198806
 21
212.75452235967489
 31
0.0
  0
LINE
  5
6228
  8
AM_0
 10
657.57916522198809
 20
300.5557953596749
 30
0.0
 11
657.57916522198809
 21
292.52677535967501
 31
0.0
  0
LINE
  5
6229
  8
AM_0
 10
653.5791632219881
 20
300.5557953596749
 30
0.0
 11
653.5791632219881
 21
292.52677535967501
 31
0.0
  0
LINE
  5
622A
  8
AM_0
 10
609.43376122198833
 20
280.36437335967491
 30
0.0
 11
628.65438922198825
 21
261.1437603596749
 31
0.0
  0
LINE
  5
622B
  8
AM_0
 10
718.38043522198825
 20
239.75452235967489
 30
0.0
 11
710.35141222198843
 21
239.75452235967489
 31
0.0
  0
LINE
  5
622C
  8
AM_0
 10
718.38043522198825
 20
235.75453835967491
 30
0.0
 11
710.57916622198832
 21
235.75453835967491
 31
0.0
  0
LINE
  5
622D
  8
AM_0
 10
612.02989222198835
 20
155.25450635967491
 30
0.0
 11
614.62797622198832
 21
159.7545213596749
 31
0.0
  0
LINE
  5
622E
  8
AM_0
 10
699.12843622198807
 20
155.25450635967491
 30
0.0
 11
696.53035222198832
 21
159.7545213596749
 31
0.0
  0
LINE
  5
622F
  8
AM_0
 10
332.86909293322492
 20
154.88443535967491
 30
0.0
 11
368.86909293322492
 21
154.88443535967491
 31
0.0
  0
LINE
  5
6230
  8
AM_0
 10
364.86913293322488
 20
283.98818135967491
 30
0.0
 11
381.19825293322492
 21
292.05797735967508
 31
0.0
  0
LINE
  5
6231
  8
AM_0
 10
366.86914293322502
 20
280.41167435967498
 30
0.0
 11
380.3251929332248
 21
280.41167435967498
 31
0.0
  0
LINE
  5
6232
  8
AM_0
 10
740.57915122198801
 20
267.7545093596749
 30
0.0
 11
740.57915122198801
 21
237.754524359675
 31
0.0
  0
LINE
  5
6233
  8
AM_0
 10
740.57916622198832
 20
267.7545093596749
 30
0.0
 11
738.31151122198833
 21
311.02390535967493
 31
0.0
  0
LINE
  5
6234
  8
AM_0
 10
740.57916622198832
 20
207.75450635967491
 30
0.0
 11
738.32440522198829
 21
164.7311613596749
 31
0.0
  0
LINE
  5
6235
  8
AM_0
 10
685.57916422198832
 20
322.75450535967479
 30
0.0
 11
728.84857522198843
 21
320.48686535967488
 31
0.0
  0
LINE
  5
6236
  8
AM_0
 10
614.62797622198832
 20
159.75450635967491
 30
0.0
 11
696.53036722198806
 21
159.75450635967491
 31
0.0
  0
LINE
  5
6237
  8
AM_0
 10
622.57914922198825
 20
231.98824306234019
 30
0.0
 11
622.57914922198825
 21
217.75453835967491
 31
0.0
  0
LINE
  5
6238
  8
AM_0
 10
392.86909293322492
 20
276.37914335967491
 30
0.0
 11
396.86914293322502
 21
276.37914335967491
 31
0.0
  0
LINE
  5
6239
  8
AM_0
 10
392.86909293322492
 20
249.55748735967501
 30
0.0
 11
396.86914293322502
 21
249.55748735967501
 31
0.0
  0
LINE
  5
623A
  8
AM_0
 10
396.86914293322502
 20
276.37914335967491
 30
0.0
 11
396.86914293322502
 21
307.75450535967491
 31
0.0
  0
LINE
  5
623B
  8
AM_0
 10
603.01771522198817
 20
262.49852735967499
 30
0.0
 11
600.14271622198805
 21
257.51888135967488
 31
0.0
  0
LINE
  5
623C
  8
AM_0
 10
633.20187622198807
 20
149.8494003596748
 30
0.0
 11
630.32687422198819
 21
144.86975435967489
 31
0.0
  0
LINE
  5
623D
  8
AM_0
 10
630.32687422198819
 20
144.8697393596749
 30
0.0
 11
624.57687322198819
 21
144.8697393596749
 31
0.0
  0
LINE
  5
623E
  8
AM_0
 10
624.57689122198815
 20
144.8697393596749
 30
0.0
 11
621.70187422198842
 21
149.8494003596748
 31
0.0
  0
LINE
  5
623F
  8
AM_0
 10
621.70187422198842
 20
149.8494003596748
 30
0.0
 11
624.57687322198819
 21
154.82904635967481
 31
0.0
  0
LINE
  5
6240
  8
AM_0
 10
630.32687422198819
 20
154.82904635967481
 30
0.0
 11
624.57687322198819
 21
154.82904635967481
 31
0.0
  0
LINE
  5
6241
  8
AM_0
 10
633.20189122198815
 20
149.8494003596748
 30
0.0
 11
630.32688922198815
 21
154.82904635967481
 31
0.0
  0
LINE
  5
6242
  8
AM_0
 10
689.45643922198826
 20
149.8494003596748
 30
0.0
 11
686.58144022198815
 21
154.82904635967481
 31
0.0
  0
LINE
  5
6243
  8
AM_0
 10
686.58144022198815
 20
154.82904635967481
 30
0.0
 11
680.83145422198811
 21
154.82904635967481
 31
0.0
  0
LINE
  5
6244
  8
AM_0
 10
677.95643722198827
 20
149.8493853596749
 30
0.0
 11
680.83145422198811
 21
154.82904635967481
 31
0.0
  0
LINE
  5
6245
  8
AM_0
 10
680.83143922198815
 20
144.86975435967489
 30
0.0
 11
677.95643722198827
 21
149.8494003596748
 31
0.0
  0
LINE
  5
6246
  8
AM_0
 10
686.58144022198815
 20
144.8697393596749
 30
0.0
 11
680.83145422198811
 21
144.8697393596749
 31
0.0
  0
LINE
  5
6247
  8
AM_0
 10
689.45643922198826
 20
149.8494003596748
 30
0.0
 11
686.58144022198815
 21
144.8697393596749
 31
0.0
  0
LINE
  5
6248
  8
AM_0
 10
600.14271622198805
 20
257.51888135967488
 30
0.0
 11
594.39271522198806
 21
257.51888135967488
 31
0.0
  0
LINE
  5
6249
  8
AM_0
 10
594.39271522198806
 20
257.5188513596749
 30
0.0
 11
591.51771622198805
 21
262.49849735967479
 31
0.0
  0
LINE
  5
624A
  8
AM_0
 10
591.51768622198813
 20
262.49852735967499
 30
0.0
 11
594.39268522198813
 21
267.47817335967488
 31
0.0
  0
LINE
  5
624B
  8
AM_0
 10
600.14271622198805
 20
267.47817335967488
 30
0.0
 11
594.39271522198806
 21
267.47817335967488
 31
0.0
  0
LINE
  5
624C
  8
AM_0
 10
603.01771522198817
 20
262.49849735967479
 30
0.0
 11
600.14271622198805
 21
267.47817335967488
 31
0.0
  0
LINE
  5
624D
  8
AM_0
 10
719.64066022198801
 20
262.49843735967488
 30
0.0
 11
716.76565822198825
 21
257.51879135967488
 31
0.0
  0
LINE
  5
624E
  8
AM_0
 10
716.76565822198825
 20
257.5188213596748
 30
0.0
 11
711.01566022198801
 21
257.5188213596748
 31
0.0
  0
LINE
  5
624F
  8
AM_0
 10
711.01566022198801
 20
257.51879135967488
 30
0.0
 11
708.14064322198806
 21
262.49846735967492
 31
0.0
  0
LINE
  5
6250
  8
AM_0
 10
708.14064322198806
 20
262.49846735967492
 30
0.0
 11
711.01564222198795
 21
267.47811035967487
 31
0.0
  0
LINE
  5
6251
  8
AM_0
 10
716.76565822198825
 20
267.47811035967487
 30
0.0
 11
711.01566022198801
 21
267.47811035967487
 31
0.0
  0
LINE
  5
6252
  8
AM_0
 10
719.64066022198801
 20
262.49843735967488
 30
0.0
 11
716.76565822198825
 21
267.47811035967487
 31
0.0
  0
LINE
  5
6253
  8
AM_0
 10
327.86917293322489
 20
146.75450435967491
 30
0.0
 11
332.86909293322492
 21
146.75450435967491
 31
0.0
  0
LINE
  5
6254
  8
AM_0
 10
322.86910293322501
 20
144.25450535967491
 30
0.0
 11
332.86909293322492
 21
144.25450535967491
 31
0.0
  0
ARC
  5
6255
  8
AM_0
 10
327.86917293322489
 20
286.75454135967487
 30
0.0
 40
2.00000007
 50
90.00000299999769
 51
180.0000100000002
  0
ARC
  5
6256
  8
AM_0
 10
323.86909293322492
 20
271.2545103596749
 30
0.0
 40
2.00000007
 50
270.0
 51
0.0
  0
ARC
  5
6257
  8
AM_0
 10
322.86910293322501
 20
267.25453835967488
 30
0.0
 40
2.00000007
 50
90.00000299999769
 51
180.0000100000002
  0
ARC
  5
6258
  8
AM_0
 10
322.86910293322501
 20
262.14254135967502
 30
0.0
 40
2.00000007
 50
179.9999899999998
 51
270.0
  0
ARC
  5
6259
  8
AM_0
 10
318.869172933225
 20
252.62184935967491
 30
0.0
 40
2.00000007
 50
270.0
 51
0.0
  0
ARC
  5
625A
  8
AM_0
 10
318.869172933225
 20
160.12451735967491
 30
0.0
 40
2.00000007
 50
0.0
 51
90.00000299999769
  0
ARC
  5
625B
  8
AM_0
 10
323.86909293322492
 20
283.9884273596748
 30
0.0
 40
2.00000007
 50
271.50000000000267
 51
0.0
  0
ARC
  5
625C
  8
AM_0
 10
655.57914922198825
 20
237.754524359675
 30
0.0
 40
12.0000003
 50
109.4712200000001
 51
70.528788999999307
  0
CIRCLE
  5
625D
  8
AM_0
 10
655.57914922198825
 20
237.754524359675
 30
0.0
 40
3.0
  0
CIRCLE
  5
625E
  8
AM_5
 10
655.57914922198825
 20
237.754524359675
 30
0.0
 40
4.0000001999999979
  0
ARC
  5
625F
  8
AM_0
 10
369.86914293322502
 20
158.16498335967481
 30
0.0
 40
1.0000000199999981
 50
91.500001000001546
 51
180.0000100000002
  0
ARC
  5
6260
  8
AM_0
 10
588.29393122198815
 20
247.58788235967501
 30
0.0
 40
2.00000007
 50
351.68540999999948
 51
79.999998000000929
  0
ARC
  5
6261
  8
AM_0
 10
655.57914922198825
 20
237.754524359675
 30
0.0
 40
66.000003000000007
 50
34.109953999997551
 51
145.8900400000021
  0
ARC
  5
6262
  8
AM_0
 10
722.86441522198834
 20
247.58788235967501
 30
0.0
 40
2.00000007
 50
99.999999999998593
 51
188.31458999999981
  0
ARC
  5
6263
  8
AM_0
 10
598.44972322198805
 20
276.4485393596749
 30
0.0
 40
3.0
 50
265.15681999999839
 51
325.89005000000031
  0
ARC
  5
6264
  8
AM_0
 10
722.86441522198834
 20
247.58788235967501
 30
0.0
 40
2.00000007
 50
8.3145873999999225
 51
99.999999999998593
  0
ARC
  5
6265
  8
AM_0
 10
713.89059922198805
 20
262.49852735967499
 30
0.0
 40
11.000000399999999
 50
311.14394000000323
 51
94.843180000001595
  0
ARC
  5
6266
  8
AM_0
 10
361.86910293322501
 20
292.5149553596749
 30
0.0
 40
3.0
 50
271.50000000000267
 51
0.0
  0
ARC
  5
6267
  8
AM_0
 10
601.04808022198813
 20
278.37914435967491
 30
0.0
 40
2.00000007
 50
235.00000000000259
 51
323.31459000000137
  0
ARC
  5
6268
  8
AM_0
 10
369.86914293322502
 20
301.82851535967501
 30
0.0
 40
5.0000001000000003
 50
91.999998000000545
 51
180.0000100000002
  0
ARC
  5
6269
  8
AM_0
 10
588.05638222198809
 20
251.95571135967489
 30
0.0
 40
3.0
 50
348.12283999999721
 51
48.856062999999523
  0
ARC
  5
626A
  8
AM_0
 10
723.10194622198833
 20
251.95571135967489
 30
0.0
 40
3.0
 50
131.14394000000331
 51
191.87716000000279
  0
ARC
  5
626B
  8
AM_0
 10
383.86909293322492
 20
173.47316435967491
 30
0.0
 40
3.0
 50
270.0
 51
0.0
  0
ARC
  5
626C
  8
AM_0
 10
597.26771422198817
 20
262.49852735967499
 30
0.0
 40
11.000000399999999
 50
85.1568180000002
 51
228.8560599999966
  0
ARC
  5
626D
  8
AM_0
 10
655.57914922198825
 20
237.754524359675
 30
0.0
 40
70.000001999999995
 50
30.534626999999471
 51
149.46536999999981
  0
ARC
  5
626E
  8
AM_0
 10
655.57914922198825
 20
237.754524359675
 30
0.0
 40
66.000003000000007
 50
0.0
 51
11.87716199999964
  0
ARC
  5
626F
  8
AM_0
 10
655.57914922198825
 20
217.75453835967491
 30
0.0
 40
71.000000999999983
 50
301.50671999999952
 51
305.22420999999957
  0
ARC
  5
6270
  8
AM_0
 10
710.11024822198794
 20
278.37914435967491
 30
0.0
 40
2.00000007
 50
304.99999999999739
 51
36.685413999996868
  0
ARC
  5
6271
  8
AM_0
 10
655.57914922198825
 20
237.754524359675
 30
0.0
 40
52.000007999999987
 50
137.75567000000359
 51
174.78408999999999
  0
ARC
  5
6272
  8
AM_0
 10
696.06770722198803
 20
286.02126335967489
 30
0.0
 40
3.0
 50
315.0
 51
50.008388000003357
  0
ARC
  5
6273
  8
AM_0
 10
655.57914922198825
 20
237.754524359675
 30
0.0
 40
52.000007999999987
 50
5.2159077000001099
 51
42.244334000004017
  0
ARC
  5
6274
  8
AM_0
 10
384.86914293322502
 20
320.4739353596749
 30
0.0
 40
2.00000007
 50
91.999998000000545
 51
180.0000100000002
  0
ARC
  5
6275
  8
AM_0
 10
588.29393122198815
 20
247.58788235967501
 30
0.0
 40
2.00000007
 50
79.999998000000929
 51
171.68541000000019
  0
ARC
  5
6276
  8
AM_0
 10
655.57914922198825
 20
237.754524359675
 30
0.0
 40
66.000003000000007
 50
168.1228399999971
 51
0.0000100179130762
  0
ARC
  5
6277
  8
AM_0
 10
601.04808022198813
 20
278.37914435967491
 30
0.0
 40
2.00000007
 50
143.31457999999611
 51
235.00000999999719
  0
ARC
  5
6278
  8
AM_0
 10
710.57916622198832
 20
215.75452235967481
 30
0.0
 40
3.0
 50
179.9999899999998
 51
270.0
  0
ARC
  5
6279
  8
AM_0
 10
703.84588822198828
 20
278.2430643596748
 30
0.0
 40
3.0
 50
39.991611000003481
 51
135.0
  0
ARC
  5
627A
  8
AM_0
 10
655.57914922198825
 20
237.754524359675
 30
0.0
 40
70.000001999999995
 50
0.0
 51
15.45248699999985
  0
ARC
  5
627B
  8
AM_0
 10
712.70860522198825
 20
276.4485393596749
 30
0.0
 40
3.0
 50
214.1099599999979
 51
274.84318000000161
  0
ARC
  5
627C
  8
AM_0
 10
369.86914293322502
 20
256.59935735967503
 30
0.0
 40
5.0000001000000003
 50
179.9999899999998
 51
270.0
  0
ARC
  5
627D
  8
AM_0
 10
655.57914922198825
 20
237.754524359675
 30
0.0
 40
70.000001999999995
 50
164.54750999999871
 51
0.0000100179130762
  0
ARC
  5
627E
  8
AM_0
 10
384.86914293322502
 20
157.53508535967481
 30
0.0
 40
2.00000007
 50
179.9999899999998
 51
268.00000999999872
  0
ARC
  5
627F
  8
AM_0
 10
383.86909293322492
 20
304.53586535967497
 30
0.0
 40
3.0
 50
0.0
 51
90.00000299999769
  0
ARC
  5
6280
  8
ﾁｭｳｼﾝｾﾝ1
 10
655.57914922198825
 20
237.754524359675
 30
0.0
 40
100.000011
 50
216.97203860267879
 51
233.02798570585759
  0
CIRCLE
  5
6281
  8
AM_0
 10
584.86848322198807
 20
308.465205359675
 30
0.0
 40
6.0000002999999991
  0
ARC
  5
6282
  8
AM_0
 10
582.83311522198812
 20
310.50058535967491
 30
0.0
 40
10.000000200000001
 50
92.999999000001623
 51
176.9999900000002
  0
CIRCLE
  5
6283
  8
AM_0
 10
584.86848322198807
 20
167.0438283596749
 30
0.0
 40
6.0000002999999991
  0
CIRCLE
  5
6284
  8
AM_0
 10
726.28983022198804
 20
167.0438283596749
 30
0.0
 40
6.0000002999999991
  0
CIRCLE
  5
6285
  8
AM_0
 10
726.28983022198804
 20
308.465205359675
 30
0.0
 40
6.0000002999999991
  0
ARC
  5
6286
  8
AM_0
 10
728.32521322198829
 20
310.50058535967491
 30
0.0
 40
10.000000200000001
 50
3.0000000999996601
 51
86.999998999996933
  0
ARC
  5
6287
  8
AM_0
 10
600.57914722198825
 20
215.75452235967481
 30
0.0
 40
3.0
 50
270.0
 51
0.0
  0
ARC
  5
6288
  8
AM_0
 10
634.31124922198842
 20
266.80062035967489
 30
0.0
 40
3.0
 50
225.0
 51
273.99789711118041
  0
ARC
  5
6289
  8
AM_0
 10
592.77790822198813
 20
242.75452235967481
 30
0.0
 40
3.0
 50
175.4479300000003
 51
270.0
  0
ARC
  5
628A
  8
AM_0
 10
592.77790822198813
 20
232.75453835967491
 30
0.0
 40
3.0
 50
90.00000299999769
 51
184.5520699999995
  0
ARC
  5
628B
  8
AM_0
 10
655.57914922198825
 20
237.754524359675
 30
0.0
 40
52.000007999999987
 50
47.755664999999361
 51
84.78409399999758
  0
ARC
  5
628C
  8
AM_0
 10
676.84707922198811
 20
266.80062035967489
 30
0.0
 40
3.0
 50
266.00147416554199
 51
315.0
  0
ARC
  5
628D
  8
AM_0
 10
607.31245522198833
 20
278.2430643596748
 30
0.0
 40
3.0
 50
45.000001000003223
 51
140.00838999999601
  0
ARC
  5
628E
  8
AM_0
 10
684.62526322198812
 20
259.0224543596749
 30
0.0
 40
3.0
 50
135.0
 51
183.9989925467498
  0
ARC
  5
628F
  8
AM_0
 10
615.09059122198812
 20
286.02126335967489
 30
0.0
 40
3.0
 50
129.99160999999941
 51
225.0
  0
ARC
  5
6290
  8
AM_0
 10
385.86910293322489
 20
279.7061703596749
 30
0.0
 40
3.0
 50
179.9999899999998
 51
270.0
  0
ARC
  5
6291
  8
AM_0
 10
385.86910293322489
 20
190.60017935967491
 30
0.0
 40
3.0
 50
90.00000299999769
 51
180.0000100000002
  0
ARC
  5
6292
  8
AM_0
 10
615.86164822198828
 20
152.9585163596748
 30
0.0
 40
5.0000001000000003
 50
344.98364000000009
 51
56.872543000003112
  0
ARC
  5
6293
  8
AM_0
 10
627.45189022198815
 20
149.8493853596749
 30
0.0
 40
7.0000007999999987
 50
164.9194399999995
 51
270.0
  0
ARC
  5
6294
  8
AM_0
 10
695.29665022198833
 20
152.9585163596748
 30
0.0
 40
5.0000001000000003
 50
121.5067300000014
 51
195.01635000000289
  0
ARC
  5
6295
  8
AM_0
 10
596.54527222198817
 20
215.75452235967481
 30
0.0
 40
3.0
 50
200.43878000000279
 51
270.0
  0
ARC
  5
6296
  8
AM_0
 10
714.61304122198806
 20
215.75452235967481
 30
0.0
 40
3.0
 50
270.0
 51
339.56121999999698
  0
ARC
  5
6297
  8
AM_0
 10
617.5791632219881
 20
217.75453835967491
 30
0.0
 40
5.0000001000000003
 50
270.0
 51
0.0
  0
ARC
  5
6298
  8
AM_0
 10
693.57916522198832
 20
217.75453835967491
 30
0.0
 40
5.0000001000000003
 50
179.9999899999998
 51
270.0
  0
ARC
  5
6299
  8
AM_0
 10
379.86910293322501
 20
310.16512535967479
 30
0.0
 40
3.0
 50
271.9999999999971
 51
0.0
  0
ARC
  5
629A
  8
AM_0
 10
660.57916522198798
 20
292.52677535967501
 30
0.0
 40
3.0
 50
179.9999899999998
 51
264.78408999999982
  0
ARC
  5
629B
  8
AM_0
 10
600.80690122198826
 20
242.75452235967481
 30
0.0
 40
3.0
 50
270.0
 51
354.78408999999999
  0
ARC
  5
629C
  8
AM_0
 10
600.57914722198825
 20
232.75453835967491
 30
0.0
 40
3.0
 50
0.0
 51
90.00000299999769
  0
ARC
  5
629D
  8
AM_0
 10
710.57916622198832
 20
232.75453835967491
 30
0.0
 40
3.0
 50
90.00000299999769
 51
180.0000100000002
  0
ARC
  5
629E
  8
AM_0
 10
650.5791632219881
 20
292.52677535967501
 30
0.0
 40
3.0
 50
275.21591000000018
 51
0.0
  0
ARC
  5
629F
  8
AM_0
 10
660.57916522198798
 20
300.5557953596749
 30
0.0
 40
3.0
 50
85.447926999998117
 51
180.0000100000002
  0
ARC
  5
62A0
  8
AM_0
 10
710.35141222198843
 20
242.75452235967481
 30
0.0
 40
3.0
 50
185.21590999999989
 51
270.0
  0
ARC
  5
62A1
  8
AM_0
 10
626.53306522198818
 20
259.0224543596749
 30
0.0
 40
3.0
 50
356.0017853035049
 51
45.000001000003223
  0
ARC
  5
62A2
  8
AM_0
 10
650.5791632219881
 20
300.5557953596749
 30
0.0
 40
3.0
 50
0.0
 51
94.552071000002115
  0
ARC
  5
62A3
  8
AM_0
 10
718.38043522198825
 20
232.75453835967491
 30
0.0
 40
3.0
 50
355.44793000000038
 51
90.00000299999769
  0
ARC
  5
62A4
  8
AM_0
 10
718.38043522198825
 20
242.75452235967481
 30
0.0
 40
3.0
 50
270.0
 51
4.5520713999997291
  0
ARC
  5
62A5
  8
AM_0
 10
710.11024822198794
 20
278.37914435967491
 30
0.0
 40
2.00000007
 50
216.6854200000038
 51
304.99999999999739
  0
ARC
  5
62A6
  8
AM_0
 10
380.3251929332248
 20
277.41167435967498
 30
0.0
 40
3.0
 50
22.48353600000339
 51
90.00000299999769
  0
ARC
  5
62A7
  8
AM_0
 10
379.86910293322501
 20
294.74749535967487
 30
0.0
 40
3.0
 50
296.29843000000261
 51
0.0
  0
ARC
  5
62A8
  8
AM_0
 10
366.86914293322502
 20
282.41167535967492
 30
0.0
 40
2.00000007
 50
179.9999899999998
 51
270.0
  0
ARC
  5
62A9
  8
AM_0
 10
391.28323293322501
 20
268.0567863596749
 30
0.0
 40
3.0
 50
39.999999000003022
 51
58.086796999996537
  0
ARC
  5
62AA
  8
AM_0
 10
582.82020622198843
 20
165.2545203596749
 30
0.0
 40
10.000000200000001
 50
183.00000999999969
 51
270.0
  0
ARC
  5
62AB
  8
AM_0
 10
728.33810722198803
 20
165.2545203596749
 30
0.0
 40
10.000000200000001
 50
270.0
 51
357.00000000000023
  0
ARC
  5
62AC
  8
AM_0
 10
655.57914922198825
 20
217.75453835967491
 30
0.0
 40
71.000000999999983
 50
234.77579000000031
 51
238.4932699999986
  0
ARC
  5
62AD
  8
AM_0
 10
683.70643822198826
 20
149.8493853596749
 30
0.0
 40
7.0000007999999987
 50
270.000020000002
 51
15.08055899999691
  0
CIRCLE
  5
62AE
  8
AM_0
 10
627.45189022198815
 20
149.8493853596749
 30
0.0
 40
4.979646299999998
  0
CIRCLE
  5
62AF
  8
AM_0
 10
683.70643822198826
 20
149.8493853596749
 30
0.0
 40
4.979646299999998
  0
CIRCLE
  5
62B0
  8
AM_0
 10
597.26771422198817
 20
262.49852735967499
 30
0.0
 40
4.979646299999998
  0
CIRCLE
  5
62B1
  8
AM_0
 10
713.89064422198805
 20
262.49846735967492
 30
0.0
 40
4.979646299999998
  0
ARC
  5
62B2
  8
AM_0
 10
327.86917293322489
 20
148.75450535967491
 30
0.0
 40
2.00000007
 50
179.9999899999998
 51
270.0
  0
ARC
  5
62B3
  8
AM_0
 10
322.86910293322501
 20
146.25450635967491
 30
0.0
 40
2.00000007
 50
179.9999899999998
 51
270.0
  0
ARC
  5
62C9
  8
AM_0
 10
655.57913412172286
 20
237.754524359675
 30
0.0
 40
52.000007999999987
 50
95.215910999999593
 51
132.24432999999581
  0
LINE
  5
62D4
  8
ﾁｭｳｼﾝｾﾝ1
 10
734.77512659622653
 20
158.55857698543639
 30
0.0
 11
717.80456384774936
 21
175.52913973391381
 31
0.0
  0
ARC
  5
62D5
  8
ﾁｭｳｼﾝｾﾝ1
 10
655.57914922198813
 20
237.75452435967509
 30
0.0
 40
100.000011
 50
306.97203860268269
 51
323.0279857058552
  0
LINE
  5
62D6
  8
ﾁｭｳｼﾝｾﾝ1
 10
734.77509659622683
 20
316.95050173391348
 30
0.0
 11
717.80453384774944
 21
299.9799389854366
 31
0.0
  0
ARC
  5
62D7
  8
ﾁｭｳｼﾝｾﾝ1
 10
655.57914922198813
 20
237.754524359675
 30
0.0
 40
100.000011
 50
36.972038602678822
 51
53.027985705857567
  0
LINE
  5
62D8
  8
ﾁｭｳｼﾝｾﾝ1
 10
576.38317184774962
 20
316.9504717339135
 30
0.0
 11
593.35373459622667
 21
299.97990898543611
 31
0.0
  0
ARC
  5
62D9
  8
ﾁｭｳｼﾝｾﾝ1
 10
655.57914922198802
 20
237.75452435967489
 30
0.0
 40
100.000011
 50
126.9720386026827
 51
143.02798570585529
  0
LINE
  5
68A8
  8
ﾁｭｳｼﾝｾﾝ
 10
77.51414636076548
 20
513.64671565611582
 30
0.0
 11
446.08879293322491
 21
513.64671565611582
 31
0.0
  0
LINE
  5
68E6
  8
AM_0
 10
295.86913293322488
 20
450.14671565611582
 30
0.0
 11
295.86913293322488
 21
577.14671565611593
 31
0.0
  0
LINE
  5
693E
  8
AM_0
 10
132.8691329332263
 20
461.5853121473441
 30
0.0
 11
132.86913293322581
 21
499.30759906210142
 31
0.0
  0
LINE
  5
693F
  8
AM_0
 10
123.8691329332254
 20
459.6467156561161
 30
0.0
 11
123.8691329332254
 21
567.64671565611604
 31
0.0
  0
LINE
  5
6940
  8
AM_0
 10
123.8691329332254
 20
459.64671565611599
 30
0.0
 11
140.86913293322539
 21
460.64671565611599
 31
0.0
  0
LINE
  5
6941
  8
AM_0
 10
123.8691329332254
 20
567.64671565611604
 30
0.0
 11
140.86913293322539
 21
566.64671565611604
 31
0.0
  0
LINE
  5
6942
  8
AM_0
 10
132.86913293322601
 20
470.0528124580245
 30
0.0
 11
140.86913293322539
 21
470.05281245802468
 31
0.0
  0
LINE
  5
6943
  8
AM_0
 10
132.8691329332263
 20
461.5853121473441
 30
0.0
 11
140.86913293322539
 21
461.5853121473441
 31
0.0
  0
LINE
  5
6944
  8
AM_0
 10
129.36913293322601
 20
479.00584269085579
 30
0.0
 11
132.86913293322601
 21
479.00584269085579
 31
0.0
  0
LINE
  5
6945
  8
AM_0
 10
129.36913293322601
 20
470.50584269085579
 30
0.0
 11
132.8691329332263
 21
470.50584269085579
 31
0.0
  0
LINE
  5
6946
  8
AM_0
 10
128.8691329332261
 20
471.00584269085579
 30
0.0
 11
128.8691329332261
 21
478.50584269085579
 31
0.0
  0
ARC
  5
6947
  8
AM_0
 10
129.36913293322621
 20
471.00584269085579
 30
0.0
 40
0.5
 50
180.0
 51
270.0
  0
ARC
  5
6948
  8
AM_0
 10
129.36913293322621
 20
478.50584269085579
 30
0.0
 40
0.5
 50
90.0
 51
180.0
  0
LINE
  5
6949
  8
AM_0
 10
123.8691329332254
 20
471.37452116297578
 30
0.0
 11
128.8691329332261
 21
471.37452116297573
 31
0.0
  0
LINE
  5
694A
  8
AM_0
 10
123.8691329332254
 20
481.10960366127199
 30
0.0
 11
132.86913293322601
 21
481.10960366127199
 31
0.0
  0
LINE
  5
694B
  8
AM_0
 10
132.8691329332263
 20
565.7081191648881
 30
0.0
 11
132.86913293322581
 21
527.98583225013522
 31
0.0
  0
LINE
  5
694C
  8
AM_0
 10
132.86913293322601
 20
557.24061885420758
 30
0.0
 11
140.86913293322539
 21
557.24061885420758
 31
0.0
  0
LINE
  5
694D
  8
AM_0
 10
132.8691329332263
 20
565.7081191648881
 30
0.0
 11
140.86913293322539
 21
565.7081191648881
 31
0.0
  0
LINE
  5
694E
  8
AM_0
 10
129.36913293322601
 20
548.28758862137624
 30
0.0
 11
132.86913293322601
 21
548.28758862137624
 31
0.0
  0
LINE
  5
694F
  8
AM_0
 10
129.36913293322601
 20
556.78758862137624
 30
0.0
 11
132.8691329332263
 21
556.78758862137624
 31
0.0
  0
LINE
  5
6950
  8
AM_0
 10
128.8691329332261
 20
556.28758862137624
 30
0.0
 11
128.8691329332261
 21
548.78758862137624
 31
0.0
  0
ARC
  5
6951
  8
AM_0
 10
129.36913293322621
 20
556.28758862137602
 30
0.0
 40
0.5
 50
90.0
 51
180.0
  0
ARC
  5
6952
  8
AM_0
 10
129.36913293322621
 20
548.7875886213759
 30
0.0
 40
0.5
 50
180.0
 51
270.0
  0
LINE
  5
6953
  8
AM_0
 10
123.8691329332254
 20
555.91891014925625
 30
0.0
 11
128.8691329332261
 21
555.91891014925625
 31
0.0
  0
LINE
  5
6954
  8
AM_0
 10
123.8691329332254
 20
546.18382765096021
 30
0.0
 11
132.86913293322601
 21
546.18382765096021
 31
0.0
  0
LINE
  5
6955
  8
AM_0
 10
117.8691329332254
 20
567.64671565611604
 30
0.0
 11
117.8691329332254
 21
459.64671565611599
 31
0.0
  0
LINE
  5
6956
  8
AM_0
 10
123.8691329332254
 20
459.64671565611599
 30
0.0
 11
117.8691329332254
 21
459.64671565611599
 31
0.0
  0
LINE
  5
6957
  8
AM_0
 10
117.8691329332254
 20
567.64671565611604
 30
0.0
 11
123.8691329332251
 21
567.64671565611604
 31
0.0
  0
LINE
  5
6958
  8
AM_0
 10
116.8691329332254
 20
509.84671565611598
 30
0.0
 11
116.8691329332254
 21
517.446715656116
 31
0.0
  0
LINE
  5
6959
  8
AM_0
 10
116.8691329332254
 20
517.446715656116
 30
0.0
 11
117.8691329332254
 21
517.446715656116
 31
0.0
  0
LINE
  5
695A
  8
AM_0
 10
117.8691329332254
 20
513.84671565611586
 30
0.0
 11
116.8691329332254
 21
514.21068589038225
 31
0.0
  0
LINE
  5
695B
  8
AM_0
 10
117.8691329332254
 20
513.446715656116
 30
0.0
 11
116.8691329332254
 21
513.81068589038239
 31
0.0
  0
LINE
  5
695C
  8
AM_0
 10
117.8691329332254
 20
509.84671565611598
 30
0.0
 11
116.8691329332254
 21
509.84671565611598
 31
0.0
  0
LINE
  5
695D
  8
AM_0
 10
115.8101954210973
 20
517.55407062842255
 30
0.0
 11
116.8691329332254
 21
517.64671565611604
 31
0.0
  0
LINE
  5
695E
  8
AM_0
 10
115.8101954210973
 20
509.73936068380959
 30
0.0
 11
116.8691329332254
 21
509.64671565611599
 31
0.0
  0
ARC
  5
695F
  8
AM_0
 10
120.26913293322529
 20
513.64671565611604
 30
0.0
 40
6.5
 50
151.82726586813479
 51
208.1727341318651
  0
ARC
  5
6960
  8
AM_0
 10
115.9496446094939
 20
511.3332722007562
 30
0.0
 40
1.6000000000000001
 50
208.1727341318651
 51
265.00000000000028
  0
ARC
  5
6961
  8
AM_0
 10
115.9496446094939
 20
515.96015911147572
 30
0.0
 40
1.6000000000000001
 50
94.99999999999973
 51
151.82726586813479
  0
LINE
  5
6962
  8
AM_0
 10
116.8691329332254
 20
509.64671565611599
 30
0.0
 11
116.8691329332254
 21
517.64671565611604
 31
0.0
  0
LINE
  5
6963
  8
AM_0
 10
140.86913293322539
 20
499.30759906210147
 30
0.0
 11
132.86913293322601
 21
499.30759906210147
 31
0.0
  0
LINE
  5
6964
  8
AM_0
 10
140.8691329332251
 20
527.98583225013545
 30
0.0
 11
132.86913293322581
 21
527.98583225013545
 31
0.0
  0
LINE
  5
6965
  8
AM_0
 10
103.3691329332249
 20
479.64671565611701
 30
0.0
 11
103.3691329332249
 21
468.64671565611599
 31
0.0
  0
LINE
  5
6966
  8
AM_0
 10
117.8691329332249
 20
468.64671565611599
 30
0.0
 11
103.3691329332249
 21
468.6467156561161
 31
0.0
  0
LINE
  5
6967
  8
AM_0
 10
91.369132933225387
 20
473.6467156561169
 30
0.0
 11
91.36913293322516
 21
470.64671565611712
 31
0.0
  0
LINE
  5
6968
  8
AM_0
 10
91.36913293322516
 20
470.64671565611712
 30
0.0
 11
103.3691329332249
 21
470.64671565611712
 31
0.0
  0
LINE
  5
6969
  8
AM_0
 10
91.369132933224932
 20
471.64671565611712
 30
0.0
 11
91.369132933224932
 21
473.82438406226368
 31
0.0
  0
LINE
  5
696A
  8
AM_0
 10
85.869132933224947
 20
473.64671565611718
 30
0.0
 11
86.769132933225023
 21
473.64671565611718
 31
0.0
  0
LINE
  5
696B
  8
AM_0
 10
85.66913293322466
 20
476.64671565611718
 30
0.0
 11
85.66913293322466
 21
473.64671565611718
 31
0.0
  0
LINE
  5
696C
  8
AM_0
 10
86.769132933225023
 20
473.37436392153359
 30
0.0
 11
86.769132933225023
 21
476.919067390701
 31
0.0
  0
LINE
  5
696D
  8
AM_0
 10
85.369132933224932
 20
476.34671565611723
 30
0.0
 11
86.769132933223204
 21
476.34671565611723
 31
0.0
  0
LINE
  5
696E
  8
AM_0
 10
90.769132933225023
 20
472.76514579571
 30
0.0
 11
90.769132933225023
 21
471.64671565611712
 31
0.0
  0
LINE
  5
696F
  8
AM_0
 10
90.769132933225023
 20
473.64671565611718
 30
0.0
 11
90.769132933225023
 21
473.5467156561171
 31
0.0
  0
LINE
  5
6970
  8
AM_0
 10
90.769132933225023
 20
473.5467156561171
 30
0.0
 11
90.769132933225023
 21
472.76514579571
 31
0.0
  0
LINE
  5
6971
  8
AM_0
 10
90.769132933225023
 20
473.64671565611718
 30
0.0
 11
90.769132933225023
 21
473.5467156561171
 31
0.0
  0
LINE
  5
6972
  8
AM_0
 10
90.769132933225023
 20
474.03047833244682
 30
0.0
 11
90.769132933225023
 21
472.76514579571
 31
0.0
  0
LINE
  5
6973
  8
AM_0
 10
90.769132933225023
 20
471.64671565611712
 30
0.0
 11
91.369132933224932
 21
471.64671565611712
 31
0.0
  0
LINE
  5
6974
  8
AM_0
 10
88.069132933225205
 20
472.76514579571
 30
0.0
 11
88.069132933225205
 21
476.19667698811031
 31
0.0
  0
LINE
  5
6975
  8
AM_0
 10
87.90808870396755
 20
472.47845416736692
 30
0.0
 11
86.975535654460487
 21
473.01686392153363
 31
0.0
  0
LINE
  5
6976
  8
AM_0
 10
88.341584525255584
 20
471.97128917557433
 30
0.0
 11
90.496681341194588
 21
471.97128917557433
 31
0.0
  0
LINE
  5
6977
  8
AM_0
 10
88.341584525255584
 20
473.55900241584573
 30
0.0
 11
90.496681341194588
 21
473.5590024158459
 31
0.0
  0
LINE
  5
6978
  8
AM_0
 10
86.769132933223645
 20
476.64671565611718
 30
0.0
 11
85.66913293322466
 21
476.64671565611718
 31
0.0
  0
LINE
  5
6979
  8
AM_0
 10
85.66913293322466
 20
476.64671565611718
 30
0.0
 11
85.369132933224932
 21
476.34671565611723
 31
0.0
  0
LINE
  5
697A
  8
AM_0
 10
85.369132933224932
 20
476.34671565611723
 30
0.0
 11
85.369132933224932
 21
473.94671565611719
 31
0.0
  0
LINE
  5
697B
  8
AM_0
 10
85.66913293322466
 20
473.64671565611718
 30
0.0
 11
86.769132933223204
 21
473.64671565611718
 31
0.0
  0
LINE
  5
697C
  8
AM_0
 10
85.369132933224932
 20
473.94671565611719
 30
0.0
 11
85.66913293322466
 21
473.64671565611718
 31
0.0
  0
LINE
  5
697D
  8
AM_0
 10
86.769132933223204
 20
473.94671565611719
 30
0.0
 11
85.369132933224932
 21
473.94671565611719
 31
0.0
  0
ARC
  5
697E
  8
AM_0
 10
89.476356117198407
 20
472.76514579571
 30
0.0
 40
1.292776816026465
 50
322.11555894629771
 51
0.0
  0
ARC
  5
697F
  8
AM_0
 10
92.831562809284705
 20
475.14671565611712
 30
0.0
 40
4.762429876059711
 50
168.45024695876941
 51
199.4742400054138
  0
ARC
  5
6980
  8
AM_0
 10
89.361909749251595
 20
472.76514579571
 30
0.0
 40
1.292776816026556
 50
142.11555894629771
 51
217.88444105370229
  0
ARC
  5
6981
  8
AM_0
 10
86.00670305716551
 20
475.14671565611712
 30
0.0
 40
4.762429876059584
 50
340.52575999458628
 51
347.08714779821958
  0
ARC
  5
6982
  8
AM_0
 10
89.476356117198407
 20
472.76514579571
 30
0.0
 40
1.2927768160265021
 50
0.0
 51
37.884441053702282
  0
ARC
  5
6983
  8
AM_0
 10
87.181938375695495
 20
473.37436392153359
 30
0.0
 40
0.4128054424705854
 50
180.0
 51
239.99999999999949
  0
ARC
  5
6984
  8
AM_0
 10
87.495283261497093
 20
471.76345416736712
 30
0.0
 40
0.8256108849411369
 50
28.217424594182571
 51
59.999999999999439
  0
LINE
  5
6985
  8
AM_0
 10
86.984225465748196
 20
477.28158445558711
 30
0.0
 11
86.975535654460487
 21
477.2765673907009
 31
0.0
  0
ARC
  5
6986
  8
AM_0
 10
87.181938375695694
 20
476.91906739070112
 30
0.0
 40
0.4128054424705854
 50
119.9999999999924
 51
179.99999999999341
  0
CIRCLE
  5
6987
  8
AM_0
 10
89.369094265219104
 20
513.64671565611616
 30
0.0
 40
5.5
  0
LINE
  5
6988
  8
AM_0
 10
83.869094265219147
 20
510.4712891755733
 30
0.0
 11
89.369094265219573
 21
507.29586269503028
 31
0.0
  0
LINE
  5
6989
  8
AM_0
 10
89.369094265219573
 20
507.29586269503028
 30
0.0
 11
94.869094265219104
 21
510.47128917557359
 31
0.0
  0
LINE
  5
698A
  8
AM_0
 10
94.869094265219104
 20
510.47128917557359
 30
0.0
 11
94.869094265219104
 21
516.82214213665929
 31
0.0
  0
LINE
  5
698B
  8
AM_0
 10
94.869094265219104
 20
516.82214213665929
 30
0.0
 11
89.369094265219104
 21
519.99756861720232
 31
0.0
  0
LINE
  5
698C
  8
AM_0
 10
89.369094265219104
 20
519.99756861720232
 30
0.0
 11
83.869094265219147
 21
516.82214213665895
 31
0.0
  0
LINE
  5
698D
  8
AM_0
 10
83.869094265219147
 20
516.82214213665895
 30
0.0
 11
83.869094265219147
 21
510.4712891755733
 31
0.0
  0
CIRCLE
  5
698E
  8
AM_0
 10
89.369094265219104
 20
513.64671565611616
 30
0.0
 40
6.4999856554771771
  0
LINE
  5
698F
  8
AM_0
 10
100.4343864955902
 20
479.64671565611701
 30
0.0
 11
103.3691329332249
 21
479.64671565611701
 31
0.0
  0
LINE
  5
6990
  8
AM_0
 10
101.3885550473782
 20
478.1467156561169
 30
0.0
 11
103.3691329332249
 21
478.1467156561169
 31
0.0
  0
LINE
  5
6991
  8
AM_0
 10
92.690162077083983
 20
473.6467156561169
 30
0.0
 11
103.3691329332249
 21
473.6467156561169
 31
0.0
  0
ARC
  5
6992
  8
AM_0
 10
92.690162077083755
 20
478.64671565611712
 30
0.0
 40
5.0
 50
225.0
 51
270.0
1001
GENIUS_GENODEF_13
1002
{
1000
HIER
1070
     0
1002
}
1002
{
1000
MANEDIT
1070
     0
1002
}
1002
{
1000
NOSEL
1070
     0
1002
}
1002
{
1000
BEHIND
1070
     0
1002
}
1002
{
1000
OTHER
1070
     0
1002
}
1002
{
1000
REACTOR
1002
}
1001
GENIUS_GENOBJ-N-FIL_13
1002
{
1000
OWNER
1000
GEN
1002
}
  0
LINE
  5
6993
  8
AM_0
 10
101.38855504737791
 20
473.6467156561169
 30
0.0
 11
101.3885550473782
 21
478.1467156561169
 31
0.0
  0
LINE
  5
6994
  8
AM_0
 10
87.869094265219147
 20
507.32217507822372
 30
0.0
 11
87.869094265219346
 21
486.43474080240759
 31
0.0
  0
LINE
  5
6995
  8
AM_0
 10
90.869094265219104
 20
507.32217507822372
 30
0.0
 11
90.869094265219104
 21
486.43474080240759
 31
0.0
  0
LINE
  5
6996
  8
AM_0
 10
85.619094265219104
 20
508.33754307261421
 30
0.0
 11
85.619094265219104
 21
480.71778346798169
 31
0.0
  0
ARC
  5
6997
  8
AM_0
 10
90.619094265219118
 20
480.71778346798169
 30
0.0
 40
5.0
 50
180.0
 51
225.0
1001
GENIUS_GENOBJ-N-FIL_13
1002
{
1000
OWNER
1000
GEN
1002
}
1001
GENIUS_GENODEF_13
1002
{
1000
HIER
1070
     0
1002
}
1002
{
1000
MANEDIT
1070
     0
1002
}
1002
{
1000
NOSEL
1070
     0
1002
}
1002
{
1000
BEHIND
1070
     0
1002
}
1002
{
1000
OTHER
1070
     0
1002
}
1002
{
1000
REACTOR
1002
}
  0
LINE
  5
6998
  8
AM_0
 10
93.119094265219118
 20
508.33754307261421
 30
0.0
 11
93.119094265219118
 21
484.17763399936848
 31
0.0
  0
ARC
  5
6999
  8
AM_0
 10
98.119094265219147
 20
492.60223402544159
 30
0.0
 40
5.0
 50
180.0
 51
212.46094411513889
1001
GENIUS_GENODEF_13
1002
{
1000
HIER
1070
     0
1002
}
1002
{
1000
MANEDIT
1070
     0
1002
}
1002
{
1000
NOSEL
1070
     0
1002
}
1002
{
1000
BEHIND
1070
     0
1002
}
1002
{
1000
OTHER
1070
     0
1002
}
1002
{
1000
REACTOR
1002
}
1001
GENIUS_GENOBJ-N-FIL_13
1002
{
1000
OWNER
1000
GEN
1002
}
  0
ARC
  5
699A
  8
AM_0
 10
98.119094265219147
 20
484.17763399936848
 30
0.0
 40
5.0
 50
180.0
 51
224.2123722808945
1001
GENIUS_GENOBJ-N-FIL_13
1002
{
1000
OWNER
1000
GEN
1002
}
1001
GENIUS_GENODEF_13
1002
{
1000
HIER
1070
     0
1002
}
1002
{
1000
MANEDIT
1070
     0
1002
}
1002
{
1000
NOSEL
1070
     0
1002
}
1002
{
1000
BEHIND
1070
     0
1002
}
1002
{
1000
OTHER
1070
     0
1002
}
1002
{
1000
REACTOR
1002
}
  0
LINE
  5
699B
  8
AM_0
 10
101.38855504737791
 20
478.1467156561169
 30
0.0
 11
93.900306754452131
 21
489.9186111124759
 31
0.0
  0
LINE
  5
699C
  8
AM_0
 10
101.38855504737791
 20
473.6467156561169
 30
0.0
 11
94.535294029367691
 21
480.6910345286077
 31
0.0
  0
LINE
  5
699D
  8
AM_0
 10
87.08356035928648
 20
477.18224956204892
 30
0.0
 11
89.154628171151089
 21
475.11118175018419
 31
0.0
  0
ARC
  5
699E
  8
AM_0
 10
89.369094265219104
 20
486.43474080240759
 30
0.0
 40
1.5
 50
180.0
 51
0.0
  0
LINE
  5
699F
  8
AM_0
 10
103.3691329332254
 20
547.64671565611525
 30
0.0
 11
103.3691329332258
 21
558.64671565611616
 31
0.0
  0
LINE
  5
69A0
  8
AM_0
 10
117.8691329332258
 20
558.64671565611616
 30
0.0
 11
103.3691329332258
 21
558.64671565611616
 31
0.0
  0
LINE
  5
69A1
  8
AM_0
 10
91.369132933226055
 20
553.64671565611559
 30
0.0
 11
91.369132933226055
 21
556.6467156561157
 31
0.0
  0
LINE
  5
69A2
  8
AM_0
 10
91.369132933226055
 20
556.6467156561157
 30
0.0
 11
103.3691329332258
 21
556.64671565611525
 31
0.0
  0
LINE
  5
69A3
  8
AM_0
 10
91.369132933225799
 20
555.64671565611525
 30
0.0
 11
91.369132933225799
 21
553.46904724996887
 31
0.0
  0
LINE
  5
69A4
  8
AM_0
 10
85.869132933225842
 20
553.64671565611559
 30
0.0
 11
86.769132933225933
 21
553.64671565611559
 31
0.0
  0
LINE
  5
69A5
  8
AM_0
 10
85.669132933225555
 20
550.64671565611582
 30
0.0
 11
85.669132933225555
 21
553.64671565611559
 31
0.0
  0
LINE
  5
69A6
  8
AM_0
 10
86.769132933225933
 20
553.91906739069918
 30
0.0
 11
86.769132933225933
 21
550.37436392153177
 31
0.0
  0
LINE
  5
69A7
  8
AM_0
 10
85.369132933225842
 20
550.94671565611566
 30
0.0
 11
86.769132933225706
 21
550.94671565611554
 31
0.0
  0
LINE
  5
69A8
  8
AM_0
 10
90.769132933225919
 20
554.52828551652283
 30
0.0
 11
90.769132933225919
 21
555.6467156561157
 31
0.0
  0
LINE
  5
69A9
  8
AM_0
 10
90.769132933225919
 20
553.64671565611559
 30
0.0
 11
90.769132933225919
 21
553.74671565611561
 31
0.0
  0
LINE
  5
69AA
  8
AM_0
 10
90.769132933225919
 20
553.74671565611561
 30
0.0
 11
90.769132933225919
 21
554.52828551652283
 31
0.0
  0
LINE
  5
69AB
  8
AM_0
 10
90.769132933225919
 20
553.64671565611559
 30
0.0
 11
90.769132933225919
 21
553.74671565611561
 31
0.0
  0
LINE
  5
69AC
  8
AM_0
 10
90.769132933225919
 20
553.26295297978595
 30
0.0
 11
90.769132933225919
 21
554.52828551652283
 31
0.0
  0
LINE
  5
69AD
  8
AM_0
 10
90.769132933225919
 20
555.6467156561157
 30
0.0
 11
91.369132933225799
 21
555.64671565611525
 31
0.0
  0
LINE
  5
69AE
  8
AM_0
 10
88.069132933226115
 20
554.52828551652283
 30
0.0
 11
88.069132933225902
 21
551.09675432412234
 31
0.0
  0
LINE
  5
69AF
  8
AM_0
 10
87.908088703968446
 20
554.81497714486591
 30
0.0
 11
86.975535654461382
 21
554.27656739069926
 31
0.0
  0
LINE
  5
69B0
  8
AM_0
 10
88.341584525256522
 20
555.32214213665839
 30
0.0
 11
90.496681341195554
 21
555.32214213665839
 31
0.0
  0
LINE
  5
69B1
  8
AM_0
 10
88.341584525256522
 20
553.73442889638704
 30
0.0
 11
90.496681341195554
 21
553.73442889638704
 31
0.0
  0
LINE
  5
69B2
  8
AM_0
 10
86.769132933225933
 20
550.64671565611582
 30
0.0
 11
85.669132933225555
 21
550.64671565611582
 31
0.0
  0
LINE
  5
69B3
  8
AM_0
 10
85.669132933225555
 20
550.64671565611582
 30
0.0
 11
85.369132933225842
 21
550.94671565611566
 31
0.0
  0
LINE
  5
69B4
  8
AM_0
 10
85.369132933225842
 20
550.94671565611566
 30
0.0
 11
85.369132933225842
 21
553.34671565611575
 31
0.0
  0
LINE
  5
69B5
  8
AM_0
 10
85.669132933225555
 20
553.64671565611559
 30
0.0
 11
86.769132933225933
 21
553.64671565611559
 31
0.0
  0
LINE
  5
69B6
  8
AM_0
 10
85.369132933225842
 20
553.34671565611575
 30
0.0
 11
85.669132933225555
 21
553.64671565611559
 31
0.0
  0
LINE
  5
69B7
  8
AM_0
 10
86.769132933225933
 20
553.34671565611575
 30
0.0
 11
85.369132933225842
 21
553.34671565611575
 31
0.0
  0
ARC
  5
69B8
  8
AM_0
 10
89.476356117199288
 20
554.52828551652283
 30
0.0
 40
1.292776816026465
 50
0.0
 51
37.884441053702282
  0
ARC
  5
69B9
  8
AM_0
 10
92.831562809285415
 20
552.1467156561157
 30
0.0
 40
4.762429876059711
 50
160.52575999458611
 51
191.5497530412305
  0
ARC
  5
69BA
  8
AM_0
 10
89.36190974925249
 20
554.52828551652283
 30
0.0
 40
1.292776816026556
 50
142.11555894629771
 51
217.88444105370229
  0
ARC
  5
69BB
  8
AM_0
 10
86.006703057166192
 20
552.1467156561157
 30
0.0
 40
4.762429876059584
 50
12.912852201780369
 51
19.474240005413812
  0
ARC
  5
69BC
  8
AM_0
 10
89.476356117199288
 20
554.52828551652283
 30
0.0
 40
1.2927768160265021
 50
322.11555894629771
 51
0.0
  0
ARC
  5
69BD
  8
AM_0
 10
87.181938375696404
 20
553.91906739069918
 30
0.0
 40
0.4128054424705854
 50
120.0000000000005
 51
180.0
  0
ARC
  5
69BE
  8
AM_0
 10
87.495283261497775
 20
555.52997714486571
 30
0.0
 40
0.8256108849411369
 50
299.99999999999972
 51
331.7825754058174
  0
LINE
  5
69BF
  8
AM_0
 10
86.984225465749049
 20
550.01184685664578
 30
0.0
 11
86.975535654461382
 21
550.01686392153192
 31
0.0
  0
ARC
  5
69C0
  8
AM_0
 10
87.181938375696404
 20
550.37436392153177
 30
0.0
 40
0.4128054424705854
 50
180.00000000000659
 51
240.00000000000759
  0
LINE
  5
69C1
  8
AM_0
 10
100.4343864955911
 20
547.64671565611525
 30
0.0
 11
103.3691329332254
 21
547.64671565611525
 31
0.0
  0
LINE
  5
69C2
  8
AM_0
 10
101.3885550473788
 20
549.1467156561157
 30
0.0
 11
103.3691329332256
 21
549.14671565611525
 31
0.0
  0
LINE
  5
69C3
  8
AM_0
 10
92.690162077084864
 20
553.64671565611559
 30
0.0
 11
103.3691329332256
 21
553.64671565611525
 31
0.0
  0
ARC
  5
69C4
  8
AM_0
 10
92.690162077084437
 20
548.6467156561157
 30
0.0
 40
5.0
 50
90.0
 51
135.0
1001
GENIUS_GENODEF_13
1002
{
1000
HIER
1070
     0
1002
}
1002
{
1000
MANEDIT
1070
     0
1002
}
1002
{
1000
NOSEL
1070
     0
1002
}
1002
{
1000
BEHIND
1070
     0
1002
}
1002
{
1000
OTHER
1070
     0
1002
}
1002
{
1000
REACTOR
1002
}
1001
GENIUS_GENOBJ-N-FIL_13
1002
{
1000
OWNER
1000
GEN
1002
}
  0
LINE
  5
69C5
  8
AM_0
 10
101.3885550473788
 20
553.64671565611559
 30
0.0
 11
101.3885550473788
 21
549.1467156561157
 31
0.0
  0
LINE
  5
69C6
  8
AM_0
 10
87.869094265219559
 20
519.97125623400905
 30
0.0
 11
87.869094265220028
 21
540.85869050982524
 31
0.0
  0
LINE
  5
69C7
  8
AM_0
 10
90.86909426521936
 20
519.97125623400905
 30
0.0
 11
90.869094265220056
 21
540.85869050982524
 31
0.0
  0
LINE
  5
69C8
  8
AM_0
 10
85.619094265219573
 20
518.9558882396185
 30
0.0
 11
85.619094265220056
 21
546.57564784425119
 31
0.0
  0
ARC
  5
69C9
  8
AM_0
 10
90.6190942652198
 20
546.57564784425108
 30
0.0
 40
5.0
 50
135.0
 51
180.0
1001
GENIUS_GENOBJ-N-FIL_13
1002
{
1000
OWNER
1000
GEN
1002
}
1001
GENIUS_GENODEF_13
1002
{
1000
HIER
1070
     0
1002
}
1002
{
1000
MANEDIT
1070
     0
1002
}
1002
{
1000
NOSEL
1070
     0
1002
}
1002
{
1000
BEHIND
1070
     0
1002
}
1002
{
1000
OTHER
1070
     0
1002
}
1002
{
1000
REACTOR
1002
}
  0
LINE
  5
69CA
  8
AM_0
 10
93.119094265219573
 20
518.95588823961816
 30
0.0
 11
93.119094265220056
 21
543.11579731286395
 31
0.0
  0
ARC
  5
69CB
  8
AM_0
 10
98.119094265219573
 20
534.69119728679107
 30
0.0
 40
5.0
 50
147.53905588486111
 51
180.0
1001
GENIUS_GENODEF_13
1002
{
1000
HIER
1070
     0
1002
}
1002
{
1000
MANEDIT
1070
     0
1002
}
1002
{
1000
NOSEL
1070
     0
1002
}
1002
{
1000
BEHIND
1070
     0
1002
}
1002
{
1000
OTHER
1070
     0
1002
}
1002
{
1000
REACTOR
1002
}
1001
GENIUS_GENOBJ-N-FIL_13
1002
{
1000
OWNER
1000
GEN
1002
}
  0
ARC
  5
69CC
  8
AM_0
 10
98.1190942652198
 20
543.11579731286395
 30
0.0
 40
5.0
 50
135.7876277191055
 51
180.0
1001
GENIUS_GENOBJ-N-FIL_13
1002
{
1000
OWNER
1000
GEN
1002
}
1001
GENIUS_GENODEF_13
1002
{
1000
HIER
1070
     0
1002
}
1002
{
1000
MANEDIT
1070
     0
1002
}
1002
{
1000
NOSEL
1070
     0
1002
}
1002
{
1000
BEHIND
1070
     0
1002
}
1002
{
1000
OTHER
1070
     0
1002
}
1002
{
1000
REACTOR
1002
}
  0
LINE
  5
69CD
  8
AM_0
 10
101.3885550473786
 20
549.1467156561157
 30
0.0
 11
93.900306754452586
 21
537.37482019975675
 31
0.0
  0
LINE
  5
69CE
  8
AM_0
 10
101.3885550473788
 20
553.64671565611559
 30
0.0
 11
94.535294029368629
 21
546.60239678362495
 31
0.0
  0
LINE
  5
69CF
  8
AM_0
 10
87.083560359287162
 20
550.11118175018385
 30
0.0
 11
89.154628171152027
 21
552.18224956204858
 31
0.0
  0
ARC
  5
69D0
  8
AM_0
 10
89.369094265219829
 20
540.85869050982524
 30
0.0
 40
1.5
 50
0.0
 51
180.0
  0
LINE
  5
69D1
  8
AM_0
 10
111.4986260062056
 20
443.43419377529779
 30
0.0
 11
96.368538842127691
 21
470.64671565611712
 31
0.0
  0
LINE
  5
69D2
  8
AM_0
 10
116.74258607362989
 20
446.34982111967122
 30
0.0
 11
104.3455741648423
 21
468.64671565611599
 31
0.0
  0
LINE
  5
69D3
  8
AM_0
 10
287.86913293322488
 20
550.79673565611586
 30
0.0
 11
295.86913293322488
 21
550.79673565611586
 31
0.0
  0
LINE
  5
69D4
  8
AM_0
 10
288.86913293322499
 20
461.6066756561159
 30
0.0
 11
295.86913293322488
 21
461.60667565611601
 31
0.0
  0
LINE
  5
69D5
  8
AM_0
 10
287.86913293322488
 20
476.49668565611597
 30
0.0
 11
295.86913293322488
 21
476.49668565611597
 31
0.0
  0
LINE
  5
69D6
  8
AM_0
 10
288.86913293322499
 20
450.14671565611587
 30
0.0
 11
295.86913293322488
 21
450.14671565611599
 31
0.0
  0
LINE
  5
69D7
  8
AM_0
 10
288.86913293322499
 20
565.68674565611559
 30
0.0
 11
295.86913293322488
 21
565.68674565611559
 31
0.0
  0
LINE
  5
69D8
  8
AM_0
 10
288.86913293322499
 20
577.14671565611593
 30
0.0
 11
295.86913293322488
 21
577.14671565611593
 31
0.0
  0
LINE
  5
69D9
  8
AM_0
 10
140.86913293322519
 20
456.21665565611602
 30
0.0
 11
143.68908293322491
 21
456.15665565611579
 31
0.0
  0
LINE
  5
69DA
  8
AM_0
 10
181.8691329332253
 20
467.2967356561158
 30
0.0
 11
287.86913293322488
 21
467.2967356561158
 31
0.0
  0
LINE
  5
69DB
  8
AM_0
 10
282.57909293322518
 20
453.1467156561157
 30
0.0
 11
287.86913293322488
 21
453.1467156561157
 31
0.0
  0
LINE
  5
69DC
  8
AM_0
 10
154.53912293322509
 20
480.28672565611572
 30
0.0
 11
248.8890929332251
 21
480.28672565611572
 31
0.0
  0
LINE
  5
69DD
  8
AM_0
 10
236.86913293322519
 20
477.64671565611582
 30
0.0
 11
155.4048429332253
 21
477.64671565611582
 31
0.0
  0
LINE
  5
69DE
  8
AM_0
 10
236.86913293322519
 20
476.92674565611583
 30
0.0
 11
284.68914293322518
 21
476.92674565611583
 31
0.0
  0
LINE
  5
69DF
  8
AM_0
 10
154.53912293322509
 20
476.92674565611583
 30
0.0
 11
236.86913293322519
 21
476.92674565611583
 31
0.0
  0
LINE
  5
69E0
  8
AM_0
 10
154.56676293322499
 20
455.38670565611591
 30
0.0
 11
160.36913293322499
 21
455.38670565611591
 31
0.0
  0
LINE
  5
69E1
  8
AM_0
 10
163.86913293322499
 20
451.78672565611589
 30
0.0
 11
280.67913293322499
 21
451.78672565611589
 31
0.0
  0
LINE
  5
69E2
  8
AM_0
 10
154.6290229332252
 20
460.66673565611592
 30
0.0
 11
160.36913293322499
 21
460.66673565611592
 31
0.0
  0
LINE
  5
69E3
  8
AM_0
 10
150.86913293322499
 20
465.29673565611569
 30
0.0
 11
150.86913293322499
 21
479.3466656561157
 31
0.0
  0
LINE
  5
69E4
  8
AM_0
 10
140.86913293322519
 20
465.29673565611569
 30
0.0
 11
150.86913293322499
 21
465.29673565611569
 31
0.0
  0
LINE
  5
69E5
  8
AM_0
 10
282.60912293322508
 20
453.27662565611593
 30
0.0
 11
286.06914293322512
 21
466.18674565611587
 31
0.0
  0
LINE
  5
69E6
  8
AM_0
 10
144.63042293322519
 20
453.48771565611582
 30
0.0
 11
144.14916293322511
 21
455.3967156561157
 31
0.0
  0
LINE
  5
69E7
  8
AM_0
 10
145.05914293322519
 20
453.51664565611583
 30
0.0
 11
144.13909293322499
 21
457.3967456561158
 31
0.0
  0
LINE
  5
69E8
  8
AM_0
 10
161.8691329332251
 20
451.75767565611591
 30
0.0
 11
161.8691329332251
 21
459.1667356561158
 31
0.0
  0
LINE
  5
69E9
  8
AM_0
 10
142.69915293322501
 20
456.52671565611581
 30
0.0
 11
144.3491129332252
 21
456.52671565611581
 31
0.0
  0
LINE
  5
69EA
  8
AM_0
 10
181.8691329332253
 20
559.99668565611591
 30
0.0
 11
287.86913293322488
 21
559.99668565611591
 31
0.0
  0
LINE
  5
69EB
  8
AM_0
 10
287.86913293322488
 20
451.1467156561157
 30
0.0
 11
287.86913293322488
 21
576.14671565611593
 31
0.0
  0
LINE
  5
69EC
  8
AM_0
 10
140.86913293322519
 20
571.07670565611591
 30
0.0
 11
143.6891429332253
 21
571.14671565611593
 31
0.0
  0
LINE
  5
69ED
  8
AM_0
 10
140.86913293322519
 20
456.21665565611602
 30
0.0
 11
140.86913293322519
 21
571.07670565611613
 31
0.0
  0
LINE
  5
69EE
  8
AM_0
 10
281.20910293322498
 20
477.64671565611582
 30
0.0
 11
236.86913293322519
 21
477.64671565611582
 31
0.0
  0
LINE
  5
69EF
  8
AM_0
 10
150.86913293322499
 20
561.99668565611557
 30
0.0
 11
150.86913293322499
 21
547.95676565611575
 31
0.0
  0
LINE
  5
69F0
  8
AM_0
 10
140.86913293322519
 20
547.95676565611575
 30
0.0
 11
150.86913293322499
 21
547.95676565611575
 31
0.0
  0
LINE
  5
69F1
  8
AM_0
 10
140.86913293322519
 20
556.33665565611591
 30
0.0
 11
150.86913293322499
 21
556.33665565611591
 31
0.0
  0
LINE
  5
69F2
  8
AM_0
 10
140.86913293322519
 20
561.99668565611557
 30
0.0
 11
150.86913293322499
 21
561.99668565611557
 31
0.0
  0
LINE
  5
69F3
  8
AM_0
 10
216.31121293322511
 20
499.64671565611587
 30
0.0
 11
146.419122933225
 21
499.64671565611587
 31
0.0
  0
LINE
  5
69F4
  8
AM_0
 10
163.86913293322499
 20
575.50669565611565
 30
0.0
 11
280.67913293322499
 21
575.50669565611565
 31
0.0
  0
LINE
  5
69F5
  8
AM_0
 10
154.823422933225
 20
566.63670565611585
 30
0.0
 11
160.36913293322499
 21
566.63670565611585
 31
0.0
  0
LINE
  5
69F6
  8
AM_0
 10
152.078422933225
 20
560.64002565611565
 30
0.0
 11
152.86340293322519
 21
564.98670565611565
 31
0.0
  0
LINE
  5
69F7
  8
AM_0
 10
154.759572933225
 20
571.91673565611575
 30
0.0
 11
160.36913293322499
 21
571.91673565611575
 31
0.0
  0
LINE
  5
69F8
  8
AM_0
 10
146.99914293322499
 20
575.3167556561159
 30
0.0
 11
160.36913293322499
 21
575.3167556561159
 31
0.0
  0
LINE
  5
69F9
  8
AM_0
 10
146.9791229332252
 20
576.94675565611601
 30
0.0
 11
160.4791229332252
 21
576.94675565611601
 31
0.0
  0
LINE
  5
69FA
  8
AM_0
 10
163.86913293322499
 20
579.56675565611567
 30
0.0
 11
281.95275293322487
 21
579.56675565611567
 31
0.0
  0
LINE
  5
69FB
  8
AM_0
 10
163.86913293322499
 20
578.89671565611593
 30
0.0
 11
282.09679293322512
 21
578.89671565611593
 31
0.0
  0
LINE
  5
69FC
  8
AM_0
 10
163.86913293322499
 20
577.536725656116
 30
0.0
 11
282.38909293322507
 21
577.536725656116
 31
0.0
  0
LINE
  5
69FD
  8
AM_0
 10
150.383412933225
 20
564.68674565611593
 30
0.0
 11
152.80340293322499
 21
564.68674565611593
 31
0.0
  0
LINE
  5
69FE
  8
AM_0
 10
152.81335293322499
 20
570.33674565611591
 30
0.0
 11
151.85332293322529
 21
565.86665565611588
 31
0.0
  0
LINE
  5
69FF
  8
AM_0
 10
142.67913293322479
 20
568.74668565611591
 30
0.0
 11
152.47192293322499
 21
568.74668565611591
 31
0.0
  0
LINE
  5
6A00
  8
AM_0
 10
281.20910293322498
 20
549.64671565611593
 30
0.0
 11
155.4191229332252
 21
549.64671565611593
 31
0.0
  0
LINE
  5
6A01
  8
AM_0
 10
281.20910293322498
 20
547.64671565611593
 30
0.0
 11
266.86913293322499
 21
547.64671565611593
 31
0.0
  0
LINE
  5
6A02
  8
AM_0
 10
281.21624293322532
 20
539.64671565611593
 30
0.0
 11
266.86913293322499
 21
539.64671565611593
 31
0.0
  0
LINE
  5
6A03
  8
AM_0
 10
145.05914293322519
 20
573.77674565611585
 30
0.0
 11
144.13909293322499
 21
569.90669565611597
 31
0.0
  0
LINE
  5
6A04
  8
AM_0
 10
281.2019629332251
 20
537.64671565611593
 30
0.0
 11
155.4191229332252
 21
537.64671565611593
 31
0.0
  0
LINE
  5
6A05
  8
AM_0
 10
142.69915293322501
 20
570.76670565611596
 30
0.0
 11
144.3491129332252
 21
570.76670565611596
 31
0.0
  0
LINE
  5
6A06
  8
AM_0
 10
145.039122933225
 20
575.43665565611593
 30
0.0
 11
144.14916293322511
 21
571.90675565611559
 31
0.0
  0
LINE
  5
6A07
  8
AM_0
 10
216.30785293322529
 20
529.64671565611593
 30
0.0
 11
146.419122933225
 21
529.64671565611593
 31
0.0
  0
LINE
  5
6A08
  8
AM_0
 10
161.8691329332251
 20
575.536725656116
 30
0.0
 11
161.8691329332251
 21
568.13670565611596
 31
0.0
  0
LINE
  5
6A09
  8
AM_0
 10
216.30785293322529
 20
527.64671565611593
 30
0.0
 11
146.419122933225
 21
527.64671565611593
 31
0.0
  0
LINE
  5
6A0A
  8
AM_0
 10
216.31121293322511
 20
519.64671565611593
 30
0.0
 11
146.419122933225
 21
519.64671565611593
 31
0.0
  0
LINE
  5
6A0B
  8
AM_0
 10
216.31121293322511
 20
517.64671565611593
 30
0.0
 11
146.419122933225
 21
517.64671565611593
 31
0.0
  0
LINE
  5
6A0C
  8
AM_0
 10
282.60912293322508
 20
574.02674565611585
 30
0.0
 11
286.06914293322512
 21
561.10667565611595
 31
0.0
  0
LINE
  5
6A0D
  8
AM_0
 10
284.32952293322512
 20
574.14671565611593
 30
0.0
 11
287.86913293322488
 21
574.14671565611593
 31
0.0
  0
LINE
  5
6A0E
  8
AM_0
 10
287.57909293322518
 20
564.68674565611593
 30
0.0
 11
285.15911293322512
 21
564.68674565611593
 31
0.0
  0
LINE
  5
6A0F
  8
AM_0
 10
283.41933293322512
 20
578.38187565611565
 30
0.0
 11
286.109152933225
 21
565.86665565611588
 31
0.0
  0
LINE
  5
6A10
  8
AM_0
 10
140.86913293322519
 20
479.3466656561157
 30
0.0
 11
150.86913293322499
 21
479.3466656561157
 31
0.0
  0
LINE
  5
6A11
  8
AM_0
 10
146.56976293322509
 20
451.97666565611581
 30
0.0
 11
160.61187293322541
 21
451.97666565611581
 31
0.0
  0
LINE
  5
6A12
  8
AM_0
 10
140.86913293322519
 20
470.95676565611592
 30
0.0
 11
150.86913293322499
 21
470.95676565611592
 31
0.0
  0
LINE
  5
6A13
  8
AM_0
 10
142.67913293322479
 20
458.54673565611569
 30
0.0
 11
152.47192293322499
 21
458.54673565611569
 31
0.0
  0
LINE
  5
6A14
  8
AM_0
 10
163.86913293322499
 20
449.75669565611588
 30
0.0
 11
205.19549293322501
 21
449.75669565611588
 31
0.0
  0
LINE
  5
6A15
  8
AM_0
 10
154.329152933225
 20
487.16673565611569
 30
0.0
 11
248.86913293322499
 21
487.16673565611569
 31
0.0
  0
LINE
  5
6A16
  8
AM_0
 10
248.86913293322499
 20
479.64671565611582
 30
0.0
 11
155.4048429332253
 21
479.64671565611582
 31
0.0
  0
LINE
  5
6A17
  8
AM_0
 10
154.53912293322509
 20
550.37669565611566
 30
0.0
 11
284.68914293322518
 21
550.37669565611566
 31
0.0
  0
LINE
  5
6A18
  8
AM_0
 10
154.53912293322509
 20
547.01670565611585
 30
0.0
 11
248.8890929332251
 21
547.01670565611585
 31
0.0
  0
LINE
  5
6A19
  8
AM_0
 10
154.329152933225
 20
540.13670565611585
 30
0.0
 11
248.86913293322499
 21
540.13670565611585
 31
0.0
  0
LINE
  5
6A1A
  8
AM_0
 10
154.329152933225
 20
537.21665565611568
 30
0.0
 11
284.903372933225
 21
537.21665565611568
 31
0.0
  0
LINE
  5
6A1B
  8
AM_0
 10
145.19915293322521
 20
529.99668565611591
 30
0.0
 11
217.5404029332251
 21
529.99668565611591
 31
0.0
  0
LINE
  5
6A1C
  8
AM_0
 10
145.19915293322521
 20
527.32676565611575
 30
0.0
 11
217.527822933225
 21
527.32676565611575
 31
0.0
  0
LINE
  5
6A1D
  8
AM_0
 10
145.13915293322481
 20
519.92674565611583
 30
0.0
 11
217.60424293322501
 21
519.92674565611583
 31
0.0
  0
LINE
  5
6A1E
  8
AM_0
 10
145.13915293322481
 20
517.38670565611585
 30
0.0
 11
217.60424293322501
 21
517.38670565611585
 31
0.0
  0
LINE
  5
6A1F
  8
AM_0
 10
145.13915293322481
 20
509.91673565611569
 30
0.0
 11
217.60424293322501
 21
509.91673565611569
 31
0.0
  0
LINE
  5
6A20
  8
AM_0
 10
216.31121293322511
 20
507.64671565611587
 30
0.0
 11
146.419122933225
 21
507.64671565611587
 31
0.0
  0
LINE
  5
6A21
  8
AM_0
 10
216.31121293322511
 20
509.64671565611587
 30
0.0
 11
146.419122933225
 21
509.64671565611587
 31
0.0
  0
LINE
  5
6A22
  8
AM_0
 10
145.19915293322521
 20
499.96665565611602
 30
0.0
 11
217.5404029332251
 21
499.96665565611602
 31
0.0
  0
LINE
  5
6A23
  8
AM_0
 10
216.31121293322511
 20
497.64671565611587
 30
0.0
 11
146.419122933225
 21
497.64671565611587
 31
0.0
  0
LINE
  5
6A24
  8
AM_0
 10
145.19915293322521
 20
497.30674565611588
 30
0.0
 11
217.5404029332251
 21
497.30674565611588
 31
0.0
  0
LINE
  5
6A25
  8
AM_0
 10
281.2019629332251
 20
489.64671565611587
 30
0.0
 11
155.4048429332253
 21
489.64671565611587
 31
0.0
  0
LINE
  5
6A26
  8
AM_0
 10
154.329152933225
 20
490.08665565611591
 30
0.0
 11
284.903372933225
 21
490.08665565611591
 31
0.0
  0
LINE
  5
6A27
  8
AM_0
 10
281.2019629332251
 20
487.64671565611587
 30
0.0
 11
266.86913293322499
 21
487.64671565611587
 31
0.0
  0
LINE
  5
6A28
  8
AM_0
 10
281.20910293322498
 20
479.64671565611582
 30
0.0
 11
266.86913293322499
 21
479.64671565611582
 31
0.0
  0
LINE
  5
6A29
  8
AM_0
 10
145.13915293322481
 20
507.376695656116
 30
0.0
 11
217.60424293322501
 21
507.376695656116
 31
0.0
  0
LINE
  5
6A2A
  8
AM_0
 10
152.07836293322509
 20
466.65333565611593
 30
0.0
 11
152.86340293322519
 21
462.30665565611588
 31
0.0
  0
LINE
  5
6A2B
  8
AM_0
 10
150.383412933225
 20
462.6066756561159
 30
0.0
 11
152.80340293322499
 21
462.6066756561159
 31
0.0
  0
LINE
  5
6A2C
  8
AM_0
 10
152.8134129332251
 20
456.9567056561159
 30
0.0
 11
151.85339293322491
 21
461.426675656116
 31
0.0
  0
LINE
  5
6A2D
  8
AM_0
 10
268.38274293322519
 20
443.64671565611587
 30
0.0
 11
279.88531293322501
 21
443.64671565611587
 31
0.0
  0
LINE
  5
6A2E
  8
AM_0
 10
286.86916293322531
 20
453.14668565611572
 30
0.0
 11
281.14336293322532
 21
444.3297256561159
 31
0.0
  0
LINE
  5
6A2F
  8
AM_0
 10
250.36913293322499
 20
486.14671565611582
 30
0.0
 11
250.36913293322499
 21
481.14671565611587
 31
0.0
  0
LINE
  5
6A30
  8
AM_0
 10
265.36913293322499
 20
486.14671565611582
 30
0.0
 11
265.36913293322499
 21
481.14671565611587
 31
0.0
  0
LINE
  5
6A31
  8
AM_0
 10
248.86913293322499
 20
487.64671565611587
 30
0.0
 11
155.4048429332253
 21
487.64671565611587
 31
0.0
  0
LINE
  5
6A32
  8
AM_0
 10
249.88909293322521
 20
486.14671565611582
 30
0.0
 11
249.88909293322521
 21
481.286725656116
 31
0.0
  0
LINE
  5
6A33
  8
AM_0
 10
265.84911293322511
 20
486.14671565611582
 30
0.0
 11
265.84911293322511
 21
481.286725656116
 31
0.0
  0
LINE
  5
6A34
  8
AM_0
 10
266.86913293322499
 20
487.16673565611569
 30
0.0
 11
284.903372933225
 21
487.16673565611569
 31
0.0
  0
LINE
  5
6A35
  8
AM_0
 10
266.84911293322511
 20
480.28672565611572
 30
0.0
 11
284.68914293322518
 21
480.28672565611572
 31
0.0
  0
LINE
  5
6A36
  8
AM_0
 10
265.84911293322511
 20
541.14671565611593
 30
0.0
 11
265.84911293322511
 21
546.00669565611565
 31
0.0
  0
LINE
  5
6A37
  8
AM_0
 10
249.88909293322521
 20
541.14671565611593
 30
0.0
 11
249.88909293322521
 21
546.00669565611565
 31
0.0
  0
LINE
  5
6A38
  8
AM_0
 10
265.36913293322499
 20
541.14671565611593
 30
0.0
 11
265.36913293322499
 21
546.14671565611593
 31
0.0
  0
LINE
  5
6A39
  8
AM_0
 10
250.36913293322499
 20
541.14671565611593
 30
0.0
 11
250.36913293322499
 21
546.14671565611593
 31
0.0
  0
LINE
  5
6A3A
  8
AM_0
 10
248.86913293322499
 20
547.64671565611593
 30
0.0
 11
155.4191229332252
 21
547.64671565611593
 31
0.0
  0
LINE
  5
6A3B
  8
AM_0
 10
266.84911293322511
 20
547.01670565611585
 30
0.0
 11
284.68914293322518
 21
547.01670565611585
 31
0.0
  0
LINE
  5
6A3C
  8
AM_0
 10
266.86913293322499
 20
540.13670565611585
 30
0.0
 11
284.91485293322512
 21
540.13670565611585
 31
0.0
  0
LINE
  5
6A3D
  8
AM_0
 10
248.86913293322499
 20
539.64671565611593
 30
0.0
 11
155.4191229332252
 21
539.64671565611593
 31
0.0
  0
LINE
  5
6A3E
  8
AM_0
 10
221.86913293322499
 20
534.14671565611593
 30
0.0
 11
221.86913293322499
 21
493.14671565611587
 31
0.0
  0
LINE
  5
6A3F
  8
AM_0
 10
284.86913293322488
 20
534.14671565611593
 30
0.0
 11
284.86913293322488
 21
493.14671565611587
 31
0.0
  0
LINE
  5
6A40
  8
AM_0
 10
221.86913293322499
 20
534.14671565611593
 30
0.0
 11
284.86913293322488
 21
534.14671565611593
 31
0.0
  0
LINE
  5
6A41
  8
AM_0
 10
221.86913293322499
 20
493.14671565611587
 30
0.0
 11
284.86913293322488
 21
493.14671565611587
 31
0.0
  0
LINE
  5
6A42
  8
AM_0
 10
221.86913293322499
 20
526.64671565611593
 30
0.0
 11
284.86913293322488
 21
526.64671565611593
 31
0.0
  0
LINE
  5
6A43
  8
AM_0
 10
181.8691329332253
 20
559.99662565611595
 30
0.0
 11
150.86913293322499
 21
557.96662565611575
 31
0.0
  0
LINE
  5
6A44
  8
AM_0
 10
181.8691329332253
 20
467.29667565611589
 30
0.0
 11
150.86913293322499
 21
469.32667565611581
 31
0.0
  0
ARC
  5
6A45
  8
AM_0
 10
154.00994293322501
 20
472.43638565611582
 30
0.0
 40
1.0032491999999991
 50
314.981189999994
 51
5.167643400001003
  0
ARC
  5
6A46
  8
AM_0
 10
288.86895293322488
 20
576.14695565611578
 30
0.0
 40
0.99980682
 50
89.988930999997422
 51
180.0110699999974
  0
ARC
  5
6A47
  8
AM_0
 10
280.67040293322498
 20
453.79295565611591
 30
0.0
 40
2.0062942999999991
 50
270.24932999999891
 51
345.08844000000403
  0
ARC
  5
6A48
  8
AM_0
 10
288.86822293322518
 20
564.68760565611592
 30
0.0
 40
0.9990923399999999
 50
89.947921999999295
 51
180.05208000000431
  0
ARC
  5
6A49
  8
AM_0
 10
162.86193293322501
 20
518.64671565611593
 30
0.0
 40
1.0000259
 50
89.587534000000204
 51
270.4124599999987
  0
ARC
  5
6A4A
  8
AM_0
 10
154.828612933225
 20
564.64146565611588
 30
0.0
 40
1.9952742999999991
 50
90.148580000000095
 51
170.03521999999899
  0
ARC
  5
6A4B
  8
AM_0
 10
154.766472933225
 20
569.91965565611565
 30
0.0
 40
1.997119399999999
 50
89.801366999998493
 51
167.94475999999821
  0
ARC
  5
6A4C
  8
AM_0
 10
150.38598293322499
 20
566.18906565611564
 30
0.0
 40
1.502416299999999
 50
269.90137999999558
 51
347.60813000000093
  0
ARC
  5
6A4D
  8
AM_0
 10
146.99938293322509
 20
573.32444565611593
 30
0.0
 40
1.9922863
 50
90.007721000000544
 51
166.8783899999971
  0
ARC
  5
6A4E
  8
AM_0
 10
142.67437293322541
 20
570.25156565611587
 30
0.0
 40
1.5048382
 50
270.18264000000067
 51
346.75308000000138
  0
ARC
  5
6A4F
  8
AM_0
 10
142.68871293322519
 20
572.27207565611593
 30
0.0
 40
1.505448699999999
 50
270.39686999999992
 51
345.95247000000012
  0
ARC
  5
6A50
  8
AM_0
 10
146.97399293322519
 20
574.95213565611562
 30
0.0
 40
1.994612099999999
 50
89.851991999995732
 51
165.93885999999711
  0
ARC
  5
6A51
  8
AM_0
 10
163.86242293322499
 20
573.51340565611565
 30
0.0
 40
1.9933081999999991
 50
89.807323000004203
 51
180.19266999999849
  0
ARC
  5
6A52
  8
AM_0
 10
163.86327293322501
 20
575.54258565611565
 30
0.0
 40
1.994130499999996
 50
89.831105999995955
 51
180.16889000000049
  0
ARC
  5
6A53
  8
AM_0
 10
163.86565293322519
 20
576.90025565611575
 30
0.0
 40
1.996488899999999
 50
89.899148000001659
 51
180.10084999999879
  0
ARC
  5
6A54
  8
AM_0
 10
163.86291293322529
 20
577.57017565611591
 30
0.0
 40
1.9964978999999961
 50
89.821482000000245
 51
165.6006099999997
  0
ARC
  5
6A55
  8
AM_0
 10
160.3654129332252
 20
568.14048565611586
 30
0.0
 40
1.5037541000000001
 50
270.14287000000093
 51
359.85713999999848
  0
ARC
  5
6A56
  8
AM_0
 10
160.36425293322509
 20
573.42161565611582
 30
0.0
 40
1.504891299999997
 50
270.18592999999731
 51
359.81406999999621
  0
ARC
  5
6A57
  8
AM_0
 10
160.36224293322499
 20
576.82359565611569
 30
0.0
 40
1.506942899999999
 50
270.26336999999921
 51
359.73663000000079
  0
ARC
  5
6A58
  8
AM_0
 10
160.47405293322529
 20
578.45188565611556
 30
0.0
 40
1.505230099999999
 50
270.19421
 51
345.17177999999871
  0
ARC
  5
6A59
  8
AM_0
 10
287.51928293322487
 20
561.49900565611586
 30
0.0
 40
1.5022733999999991
 50
195.1365099999966
 51
269.99411999999722
  0
ARC
  5
6A5A
  8
AM_0
 10
280.67858293322507
 20
573.50755565611587
 30
0.0
 40
1.9991226
 50
15.05079100000003
 51
89.984388999999666
  0
ARC
  5
6A5B
  8
AM_0
 10
288.86211293322492
 20
451.13975565611599
 30
0.0
 40
0.99304521
 50
179.5973099999994
 51
270.40268000000009
  0
ARC
  5
6A5C
  8
AM_0
 10
288.86144293322508
 20
462.59910565611602
 30
0.0
 40
0.99237448
 50
179.55801999999801
 51
270.4419699999965
  0
ARC
  5
6A5D
  8
AM_0
 10
287.57482293322522
 20
566.18699565611576
 30
0.0
 40
1.500286
 50
192.32631000000171
 51
270.16416999999529
  0
ARC
  5
6A5E
  8
AM_0
 10
150.024712933225
 20
555.24094565611585
 30
0.0
 40
5.0059714
 50
279.71098000000438
 51
354.67888000000482
  0
ARC
  5
6A5F
  8
AM_0
 10
150.4901029332249
 20
551.314195656116
 30
0.0
 40
6.0044340999999992
 50
45.225578000003388
 51
86.380822000002553
  0
ARC
  5
6A60
  8
AM_0
 10
154.011102933225
 20
554.86741565611567
 30
0.0
 40
1.002184699999999
 50
354.8038600000034
 51
45.047307000001723
  0
ARC
  5
6A61
  8
AM_0
 10
150.48882293322501
 20
475.99204565611569
 30
0.0
 40
6.0073843
 50
273.62974000000389
 51
314.7638500000042
  0
ARC
  5
6A62
  8
AM_0
 10
150.03197293322501
 20
472.0582056561156
 30
0.0
 40
4.9991421999999961
 50
5.3780268999992682
 51
80.360064999998784
  0
ARC
  5
6A63
  8
AM_0
 10
147.00597293322531
 20
453.97727565611569
 30
0.0
 40
2.0005671999999981
 50
193.30959000000229
 51
269.80430999999942
  0
ARC
  5
6A64
  8
AM_0
 10
142.6823729332248
 20
457.04905565611602
 30
0.0
 40
1.497715799999999
 50
13.424378999996071
 51
90.122644999997888
  0
ARC
  5
6A65
  8
AM_0
 10
142.6968329332251
 20
455.02842565611581
 30
0.0
 40
1.4982997
 50
14.229739999998021
 51
89.910950000001222
  0
ARC
  5
6A66
  8
AM_0
 10
163.86919293322501
 20
453.786725656116
 30
0.0
 40
2.0000371999999991
 50
180.0010599999959
 51
269.99892999999639
  0
ARC
  5
6A67
  8
AM_0
 10
163.87005293322491
 20
451.75767565611591
 30
0.0
 40
2.0009109999999981
 50
180.00001000000091
 51
269.97390999999652
  0
ARC
  5
6A68
  8
AM_0
 10
160.36718293322511
 20
459.16477565611569
 30
0.0
 40
1.501982699999999
 50
0.0755872020005832
 51
89.924413000004819
  0
ARC
  5
6A69
  8
AM_0
 10
160.36602293322531
 20
453.88352565611569
 30
0.0
 40
1.503128599999999
 50
0.1191296500022061
 51
89.880869999998822
  0
ARC
  5
6A6A
  8
AM_0
 10
287.51275293322499
 20
465.8029656561157
 30
0.0
 40
1.4937901
 50
89.756423999995206
 51
165.1129200000008
  0
ARC
  5
6A6B
  8
AM_0
 10
162.86193293322501
 20
528.64671565611593
 30
0.0
 40
1.0000259
 50
89.587534000000204
 51
270.4124599999987
  0
ARC
  5
6A6C
  8
AM_0
 10
162.86193293322501
 20
538.64671565611593
 30
0.0
 40
1.0000259
 50
89.587534000000204
 51
270.4124599999987
  0
ARC
  5
6A6D
  8
AM_0
 10
162.86193293322501
 20
548.64671565611593
 30
0.0
 40
1.0000259
 50
89.587534000000204
 51
270.4124599999987
  0
ARC
  5
6A6E
  8
AM_0
 10
145.13091293322509
 20
518.6567256561159
 30
0.0
 40
1.2700266
 50
89.629328000002715
 51
270.37065999999629
  0
ARC
  5
6A6F
  8
AM_0
 10
145.1928629332252
 20
528.661725656116
 30
0.0
 40
1.3350147999999991
 50
89.730434999997087
 51
270.2695700000001
  0
ARC
  5
6A70
  8
AM_0
 10
154.323422933225
 20
538.67674565611605
 30
0.0
 40
1.460011199999999
 50
89.775247999997958
 51
270.22473999999698
  0
ARC
  5
6A71
  8
AM_0
 10
154.53912293322509
 20
548.69675565611567
 30
0.0
 40
1.6800002000000001
 50
90.00000299999769
 51
270.0
  0
ARC
  5
6A72
  8
AM_0
 10
146.419122933225
 20
518.64671565611593
 30
0.0
 40
1.0000056999999991
 50
90.00000299999769
 51
270.0
  0
ARC
  5
6A73
  8
AM_0
 10
146.419122933225
 20
528.64671565611593
 30
0.0
 40
1.0000056999999991
 50
90.00000299999769
 51
270.0
  0
ARC
  5
6A74
  8
AM_0
 10
155.41198293322481
 20
548.64671565611593
 30
0.0
 40
1.0000255999999981
 50
89.589474000000749
 51
270.41051999999962
  0
ARC
  5
6A75
  8
AM_0
 10
155.41198293322481
 20
538.64671565611593
 30
0.0
 40
1.0000255999999981
 50
89.589474000000749
 51
270.41051999999962
  0
ARC
  5
6A76
  8
AM_0
 10
284.68914293322518
 20
548.69675565611567
 30
0.0
 40
1.6800077
 50
269.999989999999
 51
90.00000299999769
  0
ARC
  5
6A77
  8
AM_0
 10
281.20910293322498
 20
548.64671565611593
 30
0.0
 40
1.0000040999999991
 50
269.999989999999
 51
90.00000299999769
  0
ARC
  5
6A78
  8
AM_0
 10
281.20910293322498
 20
478.64671565611559
 30
0.0
 40
1.0000040999999991
 50
269.999989999999
 51
90.00000299999769
  0
ARC
  5
6A79
  8
AM_0
 10
284.68914293322518
 20
478.6066756561159
 30
0.0
 40
1.6800077
 50
269.999989999999
 51
90.00000299999769
  0
ARC
  5
6A7A
  8
AM_0
 10
146.419122933225
 20
508.64671565611587
 30
0.0
 40
1.0000056999999991
 50
90.00000299999769
 51
270.0
  0
ARC
  5
6A7B
  8
AM_0
 10
162.86193293322501
 20
498.64671565611587
 30
0.0
 40
1.0000259
 50
89.587534000000204
 51
270.4124599999987
  0
ARC
  5
6A7C
  8
AM_0
 10
162.86193293322501
 20
488.64671565611582
 30
0.0
 40
1.0000259
 50
89.587534000000204
 51
270.4124599999987
  0
ARC
  5
6A7D
  8
AM_0
 10
145.1928629332252
 20
498.63670565611591
 30
0.0
 40
1.3300148000000001
 50
89.729417999999541
 51
270.27059000000321
  0
ARC
  5
6A7E
  8
AM_0
 10
162.86193293322501
 20
508.64671565611587
 30
0.0
 40
1.0000259
 50
89.587534000000204
 51
270.4124599999987
  0
ARC
  5
6A7F
  8
AM_0
 10
162.86193293322501
 20
478.64671565611559
 30
0.0
 40
1.0000259
 50
89.587534000000204
 51
270.4124599999987
  0
ARC
  5
6A80
  8
AM_0
 10
145.13091293322509
 20
508.64671565611587
 30
0.0
 40
1.2700266
 50
89.629321000002747
 51
270.37068999999542
  0
ARC
  5
6A81
  8
AM_0
 10
146.419122933225
 20
498.64671565611587
 30
0.0
 40
1.0000056999999991
 50
90.00000299999769
 51
270.0
  0
ARC
  5
6A82
  8
AM_0
 10
150.60229293322499
 20
560.9067256561159
 30
0.0
 40
1.5
 50
280.24788999999811
 51
349.76261999999917
  0
ARC
  5
6A83
  8
AM_0
 10
150.60229293322499
 20
466.38670565611591
 30
0.0
 40
1.5
 50
10.237378999998541
 51
79.75211000000192
  0
ARC
  5
6A84
  8
AM_0
 10
154.828612933225
 20
462.65195565611572
 30
0.0
 40
1.9952742999999991
 50
189.9647800000009
 51
269.85141999999991
  0
ARC
  5
6A85
  8
AM_0
 10
150.38598293322499
 20
461.10435565611601
 30
0.0
 40
1.502416299999999
 50
12.391887000000411
 51
90.098617000002307
  0
ARC
  5
6A86
  8
AM_0
 10
154.766472933225
 20
457.37376565611561
 30
0.0
 40
1.997119399999999
 50
192.0552400000017
 51
270.1986299999989
  0
ARC
  5
6A87
  8
AM_0
 10
154.53912293322509
 20
478.59666565611582
 30
0.0
 40
1.6800002000000001
 50
90.00000299999769
 51
270.0
  0
ARC
  5
6A88
  8
AM_0
 10
155.41198293322481
 20
478.64671565611559
 30
0.0
 40
1.0000255999999981
 50
89.589474000000749
 51
270.41051999999962
  0
ARC
  5
6A89
  8
AM_0
 10
155.41198293322481
 20
488.64671565611582
 30
0.0
 40
1.0000255999999981
 50
89.589474000000749
 51
270.41051999999962
  0
ARC
  5
6A8A
  8
AM_0
 10
154.323422933225
 20
488.61668565611581
 30
0.0
 40
1.460011199999999
 50
89.775247999997958
 51
270.22473999999698
  0
ARC
  5
6A8B
  8
AM_0
 10
205.19549293322501
 20
448.25669565611582
 30
0.0
 40
1.5
 50
1.5000027000022329
 51
90.00000299999769
  0
ARC
  5
6A8C
  8
AM_0
 10
279.88531293322501
 20
445.14671565611559
 30
0.0
 40
1.5
 50
269.999989999999
 51
326.99999999999892
  0
ARC
  5
6A8D
  8
AM_0
 10
268.38274293322519
 20
442.14671565611559
 30
0.0
 40
1.5
 50
90.00000299999769
 51
178.4999999999973
  0
ARC
  5
6A8E
  8
AM_0
 10
282.38909293322507
 20
576.036725656116
 30
0.0
 40
1.5
 50
12.12979199999535
 51
90.00000299999769
  0
ARC
  5
6A8F
  8
AM_0
 10
282.09679293322512
 20
577.39671565611593
 30
0.0
 40
1.5
 50
12.12979199999535
 51
90.00000299999769
  0
ARC
  5
6A90
  8
AM_0
 10
281.95275293322487
 20
578.0667556561159
 30
0.0
 40
1.5
 50
12.12979199999535
 51
90.00000299999769
  0
ARC
  5
6A91
  8
AM_0
 10
284.90911293322512
 20
488.61668565611581
 30
0.0
 40
1.460011199999999
 50
269.77524999999667
 51
90.224749999996845
  0
ARC
  5
6A92
  8
AM_0
 10
281.20910293322498
 20
488.64671565611582
 30
0.0
 40
1.0000255999999981
 50
269.5894700000033
 51
90.410530999997775
  0
ARC
  5
6A93
  8
AM_0
 10
284.90911293322512
 20
538.67674565611605
 30
0.0
 40
1.460011199999999
 50
269.77524999999667
 51
90.224749999996845
  0
ARC
  5
6A94
  8
AM_0
 10
281.20910293322498
 20
538.64671565611593
 30
0.0
 40
1.0000255999999981
 50
269.5894700000033
 51
90.410530999997775
  0
ARC
  5
6A95
  8
AM_0
 10
217.53411293322509
 20
528.661725656116
 30
0.0
 40
1.3350147999999991
 50
269.7304299999999
 51
90.269556000001344
  0
ARC
  5
6A96
  8
AM_0
 10
216.30785293322529
 20
528.64671565611593
 30
0.0
 40
1.0000056999999991
 50
269.999989999999
 51
90.00000299999769
  0
ARC
  5
6A97
  8
AM_0
 10
216.30785293322529
 20
518.64671565611593
 30
0.0
 40
1.0000056999999991
 50
269.999989999999
 51
90.00000299999769
  0
ARC
  5
6A98
  8
AM_0
 10
217.59606293322511
 20
518.6567256561159
 30
0.0
 40
1.2700266
 50
269.62932000000001
 51
90.370670000004722
  0
ARC
  5
6A99
  8
AM_0
 10
216.30785293322529
 20
508.64671565611587
 30
0.0
 40
1.0000056999999991
 50
269.999989999999
 51
90.00000299999769
  0
ARC
  5
6A9A
  8
AM_0
 10
217.59606293322511
 20
508.64671565611587
 30
0.0
 40
1.2700266
 50
269.62932000000001
 51
90.370670000004722
  0
ARC
  5
6A9B
  8
AM_0
 10
216.30785293322529
 20
498.64671565611587
 30
0.0
 40
1.0000056999999991
 50
269.999989999999
 51
90.00000299999769
  0
ARC
  5
6A9C
  8
AM_0
 10
217.53411293322509
 20
498.63670565611591
 30
0.0
 40
1.3300148000000001
 50
269.7294199999987
 51
90.270567000000995
  0
ARC
  5
6A9D
  8
AM_0
 10
266.86913293322499
 20
486.14671565611582
 30
0.0
 40
1.5
 50
90.00000299999769
 51
180.00001000000091
  0
ARC
  5
6A9E
  8
AM_0
 10
266.86913293322499
 20
481.14671565611587
 30
0.0
 40
1.5
 50
179.999989999999
 51
270.0
  0
ARC
  5
6A9F
  8
AM_0
 10
248.86913293322499
 20
486.14671565611582
 30
0.0
 40
1.5
 50
0.0
 51
90.00000299999769
  0
ARC
  5
6AA0
  8
AM_0
 10
248.86913293322499
 20
481.14671565611587
 30
0.0
 40
1.5
 50
269.999989999999
 51
0.0000006832495047
  0
ARC
  5
6AA1
  8
AM_0
 10
266.86913293322499
 20
486.14671565611582
 30
0.0
 40
1.02
 50
90.00000299999769
 51
180.00001000000091
  0
ARC
  5
6AA2
  8
AM_0
 10
248.86913293322499
 20
486.14671565611582
 30
0.0
 40
1.02
 50
0.0
 51
90.00000299999769
  0
ARC
  5
6AA3
  8
AM_0
 10
248.8890929332251
 20
481.286725656116
 30
0.0
 40
1.0
 50
269.999989999999
 51
0.0000006832495047
  0
ARC
  5
6AA4
  8
AM_0
 10
266.84911293322511
 20
481.286725656116
 30
0.0
 40
1.0
 50
179.999989999999
 51
270.0
  0
CIRCLE
  5
6AA5
  8
AM_0
 10
255.36913293322499
 20
485.14671565611587
 30
0.0
 40
1.1000000000000001
  0
CIRCLE
  5
6AA6
  8
AM_0
 10
255.36913293322499
 20
485.14671565611587
 30
0.0
 40
1.149999999999999
  0
CIRCLE
  5
6AA7
  8
AM_0
 10
260.36913293322499
 20
485.14671565611587
 30
0.0
 40
1.0
  0
ARC
  5
6AA8
  8
AM_0
 10
266.86913293322499
 20
541.14671565611593
 30
0.0
 40
1.5
 50
179.999989999999
 51
270.0
  0
ARC
  5
6AA9
  8
AM_0
 10
266.86913293322499
 20
546.14671565611593
 30
0.0
 40
1.5
 50
90.00000299999769
 51
180.00001000000091
  0
ARC
  5
6AAA
  8
AM_0
 10
248.86913293322499
 20
541.14671565611593
 30
0.0
 40
1.5
 50
269.999989999999
 51
0.0000006832495047
  0
ARC
  5
6AAB
  8
AM_0
 10
248.86913293322499
 20
546.14671565611593
 30
0.0
 40
1.5
 50
0.0
 51
90.00000299999769
  0
ARC
  5
6AAC
  8
AM_0
 10
266.86913293322499
 20
541.14671565611593
 30
0.0
 40
1.02
 50
179.999989999999
 51
270.0
  0
ARC
  5
6AAD
  8
AM_0
 10
248.86913293322499
 20
541.14671565611593
 30
0.0
 40
1.02
 50
269.999989999999
 51
0.0000006832429909
  0
ARC
  5
6AAE
  8
AM_0
 10
248.8890929332251
 20
546.00669565611565
 30
0.0
 40
1.0
 50
0.0
 51
90.00000299999769
  0
ARC
  5
6AAF
  8
AM_0
 10
266.84911293322511
 20
546.00669565611565
 30
0.0
 40
1.0
 50
90.00000299999769
 51
180.00001000000091
  0
CIRCLE
  5
6AB0
  8
AM_0
 10
260.36913293322499
 20
542.14671565611593
 30
0.0
 40
1.0
  0
CIRCLE
  5
6AB1
  8
AM_0
 10
255.36913293322499
 20
542.14671565611593
 30
0.0
 40
1.149999999999999
  0
CIRCLE
  5
6AB2
  8
AM_0
 10
255.36913293322499
 20
542.14671565611593
 30
0.0
 40
1.1000000000000001
  0
ARC
  5
6AB3
  8
AM_0
 10
146.56976293322509
 20
453.97666565611581
 30
0.0
 40
2.0
 50
194.15074999999919
 51
269.999989999999
  0
ARC
  5
6AB4
  8
AM_0
 10
160.61187293322541
 20
450.47666565611581
 30
0.0
 40
1.5
 50
21.46170899999715
 51
90.00000299999769
  0
LINE
  5
6AB5
  8
AM_0
 10
266.89528278226589
 20
439.64671565611587
 30
0.0
 11
267.21320873596011
 21
451.78672565611589
 31
0.0
  0
LINE
  5
6AB6
  8
AM_0
 10
206.84285078702521
 20
439.64671565611587
 30
0.0
 11
206.52500880559469
 21
451.78672565611589
 31
0.0
  0
LINE
  5
6AB7
  8
AM_0
 10
203.3690929332252
 20
437.64671565611587
 30
0.0
 11
270.36909293322537
 21
437.64671565611587
 31
0.0
  0
LINE
  5
6AB8
  8
AM_0
 10
203.3690929332252
 20
436.64671565611587
 30
0.0
 11
203.3690929332252
 21
437.64671565611587
 31
0.0
  0
LINE
  5
6AB9
  8
AM_0
 10
270.36909293322537
 20
436.64671565611587
 30
0.0
 11
270.36909293322537
 21
437.64671565611587
 31
0.0
  0
LINE
  5
6ABA
  8
AM_0
 10
188.8690929332252
 20
398.64671565611587
 30
0.0
 11
190.12867806948759
 21
434.71651464952072
 31
0.0
  0
LINE
  5
6ABB
  8
AM_0
 10
192.1274597235259
 20
436.64671565611587
 30
0.0
 11
281.61072614292499
 21
436.64671565611587
 31
0.0
  0
ARC
  5
6ABC
  8
AM_0
 10
192.1274597235259
 20
434.64671565611587
 30
0.0
 40
2.0
 50
90.0
 51
178.0000000000029
1001
GENIUS_GENODEF_13
1002
{
1000
HIER
1070
     0
1002
}
1002
{
1000
MANEDIT
1070
     0
1002
}
1002
{
1000
NOSEL
1070
     0
1002
}
1002
{
1000
BEHIND
1070
     0
1002
}
1002
{
1000
OTHER
1070
     0
1002
}
1002
{
1000
REACTOR
1002
}
1001
GENIUS_GENOBJ-N-FIL_13
1002
{
1000
OWNER
1000
GEN
1002
}
  0
LINE
  5
6ABD
  8
AM_0
 10
283.6095077969631
 20
434.71651464952072
 30
0.0
 11
284.86909293322549
 21
398.64671565611587
 31
0.0
  0
ARC
  5
6ABE
  8
AM_0
 10
281.61072614292499
 20
434.64671565611587
 30
0.0
 40
2.0
 50
1.9999999999971021
 51
90.0
1001
GENIUS_GENOBJ-N-FIL_13
1002
{
1000
OWNER
1000
GEN
1002
}
1001
GENIUS_GENODEF_13
1002
{
1000
HIER
1070
     0
1002
}
1002
{
1000
MANEDIT
1070
     0
1002
}
1002
{
1000
NOSEL
1070
     0
1002
}
1002
{
1000
BEHIND
1070
     0
1002
}
1002
{
1000
OTHER
1070
     0
1002
}
1002
{
1000
REACTOR
1002
}
  0
LINE
  5
6ABF
  8
AM_0
 10
284.86909293322549
 20
398.64671565611587
 30
0.0
 11
188.86909293322489
 21
398.64671565611587
 31
0.0
  0
LINE
  5
6AC0
  8
AM_0
 10
188.97385524170039
 20
401.6467156561157
 30
0.0
 11
187.86909293322509
 21
401.6467156561157
 31
0.0
  0
LINE
  5
6AC1
  8
AM_0
 10
190.0913198654365
 20
433.64671565611559
 30
0.0
 11
187.86909293322509
 21
433.64671565611559
 31
0.0
  0
LINE
  5
6AC2
  8
ﾁｭｳｼﾝｾﾝ1
 10
193.8690929332258
 20
388.382008156116
 30
0.0
 11
193.869092933226
 21
401.38200815611589
 31
0.0
  0
LINE
  5
6AC3
  8
ﾁｭｳｼﾝｾﾝ
 10
236.8690929332254
 20
443.93874632934478
 30
0.0
 11
236.8690929332254
 21
386.19619301530662
 31
0.0
  0
LINE
  5
6AC4
  8
AM_0
 10
185.3690929332252
 20
404.14671565611559
 30
0.0
 11
187.86909293322509
 21
404.14671565611542
 31
0.0
  0
LINE
  5
6AC5
  8
AM_0
 10
187.86909293322509
 20
431.1467156561153
 30
0.0
 11
185.3690929332252
 21
431.1467156561157
 31
0.0
  0
LINE
  5
6AC6
  8
AM_0
 10
174.4704218368793
 20
428.1467156561157
 30
0.0
 11
174.4704218368793
 21
407.1467156561157
 31
0.0
  0
LINE
  5
6AC7
  8
AM_0
 10
159.47042183687941
 20
409.61509060210051
 30
0.0
 11
159.47042183687941
 21
425.67834071013141
 31
0.0
  0
LINE
  5
6AC8
  8
AM_0
 10
172.47042183687941
 20
429.64671565611559
 30
0.0
 11
172.47042183687941
 21
405.6467156561157
 31
0.0
  0
LINE
  5
6AC9
  8
AM_0
 10
162.9704218368793
 20
417.6467156561157
 30
0.0
 11
163.47042183687941
 21
418.1467156561157
 31
0.0
  0
LINE
  5
6ACA
  8
AM_0
 10
169.9704218368793
 20
405.9467156561156
 30
0.0
 11
169.9704218368793
 21
429.34671565611552
 31
0.0
  0
LINE
  5
6ACB
  8
AM_0
 10
179.86909293322509
 20
406.1467156561157
 30
0.0
 11
179.86909293322509
 21
429.14671565611559
 31
0.0
  0
LINE
  5
6ACC
  8
AM_0
 10
173.97042183687941
 20
418.3467156561174
 30
0.0
 11
173.97042183687941
 21
416.94671565611452
 31
0.0
  0
LINE
  5
6ACD
  8
AM_0
 10
176.07005756345009
 20
426.7467156561155
 30
0.0
 11
175.3200575634512
 21
408.54671565611551
 31
0.0
  0
LINE
  5
6ACE
  8
AM_0
 10
175.1190929332252
 20
426.7467156561155
 30
0.0
 11
174.4704218368793
 21
411.00563038479942
 31
0.0
  0
LINE
  5
6ACF
  8
AM_0
 10
175.86778552379721
 20
427.46237436847969
 30
0.0
 11
175.12052548038929
 21
407.83434389494852
 31
0.0
  0
LINE
  5
6AD0
  8
AM_0
 10
175.3186250162872
 20
427.45908741728363
 30
0.0
 11
174.5700575634512
 21
407.79671565611562
 31
0.0
  0
LINE
  5
6AD1
  8
AM_0
 10
172.47042183687941
 20
405.6467156561157
 30
0.0
 11
170.27042183687931
 21
405.6467156561157
 31
0.0
  0
ARC
  5
6AD2
  8
AM_0
 10
184.3690929332254
 20
405.1467156561157
 30
0.0
 40
0.5
 50
0.0
 51
90.000000000013017
  0
ARC
  5
6AD3
  8
AM_0
 10
185.3690929332254
 20
404.64671565611559
 30
0.0
 40
0.5
 50
180.0
 51
270.0
  0
LINE
  5
6AD4
  8
AM_0
 10
184.86909293322509
 20
405.1467156561157
 30
0.0
 11
184.86909293322509
 21
404.64671565611559
 31
0.0
  0
LINE
  5
6AD5
  8
AM_0
 10
175.86909293322509
 20
408.54671565611551
 30
0.0
 11
179.3690929332252
 21
408.54671565611551
 31
0.0
  0
LINE
  5
6AD6
  8
AM_0
 10
184.86909293322509
 20
406.79064433470859
 30
0.0
 11
184.86909293322509
 21
416.5027869775235
 31
0.0
  0
LINE
  5
6AD7
  8
AM_0
 10
180.36909293322529
 20
405.6467156561157
 30
0.0
 11
184.3690929332252
 21
405.6467156561157
 31
0.0
  0
LINE
  5
6AD8
  8
AM_0
 10
184.3690929332252
 20
406.29064433470859
 30
0.0
 11
179.86909293322509
 21
406.29064433470859
 31
0.0
  0
ARC
  5
6AD9
  8
AM_0
 10
184.3690929332254
 20
406.79064433470859
 30
0.0
 40
0.5
 50
270.0
 51
0.0
  0
ARC
  5
6ADA
  8
AM_0
 10
179.3690929332252
 20
408.04671565611568
 30
0.0
 40
0.5
 50
0.0
 51
90.0
  0
ARC
  5
6ADB
  8
AM_0
 10
180.36909293322529
 20
406.1467156561157
 30
0.0
 40
0.5
 50
180.0
 51
270.0
  0
LINE
  5
6ADC
  8
AM_0
 10
184.3690929332252
 20
417.0027869775235
 30
0.0
 11
179.86909293322509
 21
417.0027869775235
 31
0.0
  0
ARC
  5
6ADD
  8
AM_0
 10
184.3690929332252
 20
416.50278697752361
 30
0.0
 40
0.5
 50
0.0
 51
90.0
  0
LINE
  5
6ADE
  8
AM_0
 10
173.97042183687941
 20
411.5015449038234
 30
0.0
 11
173.97042183687941
 21
412.67378809025649
 31
0.0
  0
LINE
  5
6ADF
  8
AM_0
 10
175.39678999187629
 20
408.54671565611551
 30
0.0
 11
175.86909293322509
 21
408.54671565611551
 31
0.0
  0
LINE
  5
6AE0
  8
AM_0
 10
175.300197497337
 20
408.47259788937868
 30
0.0
 11
175.3200575634512
 21
408.54671565611551
 31
0.0
  0
ARC
  5
6AE1
  8
AM_0
 10
175.39678999187629
 20
408.4467156561156
 30
0.0
 40
0.1000000000000346
 50
90.0
 51
164.99980499355539
  0
ARC
  5
6AE2
  8
AM_0
 10
173.67042183687931
 20
408.35988267560759
 30
0.0
 40
0.3000000000000043
 50
0.0
 51
90.0
  0
LINE
  5
6AE3
  8
AM_0
 10
172.47042183687941
 20
406.24671565611538
 30
0.0
 11
173.69037754003639
 21
406.32804603632661
 31
0.0
  0
LINE
  5
6AE4
  8
AM_0
 10
172.47042183687941
 20
407.40296769195561
 30
0.0
 11
173.6704218368792
 21
407.40296769195561
 31
0.0
  0
LINE
  5
6AE5
  8
AM_0
 10
173.97042183687941
 20
406.6467156561157
 30
0.0
 11
172.47042183687941
 21
406.6467156561157
 31
0.0
  0
ARC
  5
6AE6
  8
AM_0
 10
173.97042183687941
 20
407.1467156561157
 30
0.0
 40
0.5
 50
270.0
 51
0.0
  0
LINE
  5
6AE7
  8
AM_0
 10
173.97042183687941
 20
406.6273815836837
 30
0.0
 11
173.97042183687941
 21
406.6467156561157
 31
0.0
  0
LINE
  5
6AE8
  8
AM_0
 10
173.97042183687941
 20
406.34671565611569
 30
0.0
 11
173.97042183687941
 21
406.6273815836837
 31
0.0
  0
LINE
  5
6AE9
  8
AM_0
 10
173.69037754003639
 20
406.32804603632661
 30
0.0
 11
173.97042183687941
 21
406.34671565611569
 31
0.0
  0
ARC
  5
6AEA
  8
AM_0
 10
173.67042183687931
 20
406.6273815836837
 30
0.0
 40
0.3000000000000007
 50
273.8140748342816
 51
0.0
  0
LINE
  5
6AEB
  8
AM_0
 10
175.04236050480031
 20
407.79671565611562
 30
0.0
 11
175.1190929332262
 21
407.79671565611562
 31
0.0
  0
LINE
  5
6AEC
  8
AM_0
 10
175.1190929332262
 20
407.79671565611562
 30
0.0
 11
175.13895299933921
 21
407.870833422852
 31
0.0
  0
LINE
  5
6AED
  8
AM_0
 10
174.55019749733711
 20
407.870833422852
 30
0.0
 11
174.5700575634512
 21
407.79671565611562
 31
0.0
  0
LINE
  5
6AEE
  8
AM_0
 10
174.5700575634512
 20
407.79671565611562
 30
0.0
 11
174.64678999187629
 21
407.79671565611562
 31
0.0
  0
LINE
  5
6AEF
  8
AM_0
 10
175.13895299933921
 20
407.870833422852
 30
0.0
 11
175.300197497337
 21
408.47259788937868
 31
0.0
  0
LINE
  5
6AF0
  8
AM_0
 10
174.64678999187629
 20
407.79671565611562
 30
0.0
 11
175.04236050480031
 21
407.79671565611562
 31
0.0
  0
LINE
  5
6AF1
  8
AM_0
 10
174.47042183688021
 20
408.16855618767642
 30
0.0
 11
174.55019749733711
 21
407.870833422852
 31
0.0
  0
ARC
  5
6AF2
  8
AM_0
 10
175.04236050480031
 20
407.8967156561157
 30
0.0
 40
0.0999999999999866
 50
270.0
 51
344.99980499343371
  0
ARC
  5
6AF3
  8
AM_0
 10
174.64678999187629
 20
407.8967156561157
 30
0.0
 40
0.1000000000000014
 50
195.00019500656629
 51
270.0
  0
LINE
  5
6AF4
  8
AM_0
 10
173.97042183687941
 20
407.70296769195551
 30
0.0
 11
173.97042183687941
 21
408.35988267560759
 31
0.0
  0
ARC
  5
6AF5
  8
AM_0
 10
173.67042183687931
 20
407.70296769195568
 30
0.0
 40
0.3000000000000007
 50
270.0
 51
0.0
  0
LINE
  5
6AF6
  8
AM_0
 10
172.47042183687941
 20
411.20154490382339
 30
0.0
 11
173.6704218368792
 21
411.20154490382339
 31
0.0
  0
LINE
  5
6AF7
  8
AM_0
 10
173.6704218368792
 20
408.65988267560761
 30
0.0
 11
172.47042183687941
 21
408.65988267560761
 31
0.0
  0
LINE
  5
6AF8
  8
AM_0
 10
175.3200575634512
 20
408.54671565611551
 30
0.0
 11
175.39678999187629
 21
408.54671565611551
 31
0.0
  0
ARC
  5
6AF9
  8
AM_0
 10
173.67042183687931
 20
411.50154490382369
 30
0.0
 40
0.3000000000000007
 50
270.0
 51
0.0
  0
LINE
  5
6AFA
  8
AM_0
 10
173.6704218368792
 20
412.97378809025662
 30
0.0
 11
172.47042183687941
 21
412.97378809025662
 31
0.0
  0
ARC
  5
6AFB
  8
AM_0
 10
173.67042183687931
 20
412.67378809025672
 30
0.0
 40
0.3000000000000043
 50
0.0
 51
90.0
  0
LINE
  5
6AFC
  8
AM_0
 10
173.6704218368792
 20
416.64671565611451
 30
0.0
 11
172.47042183687941
 21
416.64671565611451
 31
0.0
  0
ARC
  5
6AFD
  8
AM_0
 10
173.67042183687931
 20
416.94671565611458
 30
0.0
 40
0.3000000000000007
 50
270.0
 51
0.0
  0
LINE
  5
6AFE
  8
AM_0
 10
163.47042183687941
 20
407.51343582746841
 30
0.0
 11
169.9704218368793
 21
407.51343582746841
 31
0.0
  0
LINE
  5
6AFF
  8
AM_0
 10
163.47042183687941
 20
407.01343582746841
 30
0.0
 11
169.9704218368793
 21
407.01343582746841
 31
0.0
  0
LINE
  5
6B00
  8
AM_0
 10
169.9704218368793
 20
417.14671565611559
 30
0.0
 11
163.47042183687941
 21
417.14671565611559
 31
0.0
  0
LINE
  5
6B01
  8
AM_0
 10
162.9704218368793
 20
416.64671565611559
 30
0.0
 11
169.9704218368793
 21
416.64671565611559
 31
0.0
  0
LINE
  5
6B02
  8
AM_0
 10
169.6704218368792
 20
406.6467156561157
 30
0.0
 11
162.83247177206121
 21
406.6467156561157
 31
0.0
  0
LINE
  5
6B03
  8
AM_0
 10
169.9704218368793
 20
416.30002758757428
 30
0.0
 11
163.47042183687941
 21
416.30002758757428
 31
0.0
  0
LINE
  5
6B04
  8
AM_0
 10
169.9704218368793
 20
407.99340372465662
 30
0.0
 11
163.47042183687941
 21
407.99340372465662
 31
0.0
  0
ARC
  5
6B05
  8
AM_0
 10
170.27042183687931
 20
405.9467156561156
 30
0.0
 40
0.2999999999999971
 50
180.0
 51
270.0
  0
ARC
  5
6B06
  8
AM_0
 10
169.67042183687931
 20
406.34671565611569
 30
0.0
 40
0.2999999999999971
 50
0.0
 51
90.0
  0
ARC
  5
6B07
  8
AM_0
 10
171.59542183687941
 20
412.14671565611559
 30
0.0
 40
9.124999999999984
 50
152.92493329271929
 51
207.07506670728071
  0
LINE
  5
6B08
  8
AM_0
 10
162.19228737239681
 20
406.87849437651812
 30
0.0
 11
159.83023743721481
 21
408.8468693225031
 31
0.0
  0
LINE
  5
6B09
  8
AM_0
 10
162.9704218368793
 20
407.22514823962359
 30
0.0
 11
163.47042183687941
 21
406.6467156561157
 31
0.0
  0
ARC
  5
6B0A
  8
AM_0
 10
162.83247177206121
 20
407.64671565611559
 30
0.0
 40
1.0
 50
230.19442890774391
 51
270.0
  0
LINE
  5
6B0B
  8
AM_0
 10
163.47042183687941
 20
407.01343582746841
 30
0.0
 11
162.9704218368793
 21
407.22514823962359
 31
0.0
  0
LINE
  5
6B0C
  8
AM_0
 10
162.9704218368793
 20
407.68742351259471
 30
0.0
 11
163.47042183687941
 21
407.01343582746841
 31
0.0
  0
LINE
  5
6B0D
  8
AM_0
 10
163.47042183687941
 20
407.51343582746841
 30
0.0
 11
162.9704218368793
 21
407.68742351259471
 31
0.0
  0
LINE
  5
6B0E
  8
AM_0
 10
162.9704218368793
 20
408.22514823962359
 30
0.0
 11
163.47042183687941
 21
407.51343582746841
 31
0.0
  0
LINE
  5
6B0F
  8
AM_0
 10
163.47042183687941
 20
407.99340372465662
 30
0.0
 11
162.9704218368793
 21
408.22514823962359
 31
0.0
  0
ARC
  5
6B10
  8
AM_0
 10
160.47042183687941
 20
409.61509060210068
 30
0.0
 40
1.0000000000000291
 50
180.0
 51
230.19442890773581
  0
LINE
  5
6B11
  8
AM_0
 10
163.47042183687941
 20
417.14671565611559
 30
0.0
 11
162.9704218368793
 21
417.6467156561157
 31
0.0
  0
LINE
  5
6B12
  8
AM_0
 10
162.9704218368793
 20
416.64671565611559
 30
0.0
 11
163.47042183687941
 21
417.14671565611559
 31
0.0
  0
LINE
  5
6B13
  8
AM_0
 10
163.47042183687941
 20
416.30002758757428
 30
0.0
 11
162.9704218368793
 21
416.64671565611559
 31
0.0
  0
LINE
  5
6B14
  8
AM_0
 10
170.27042183687931
 20
429.64671565611559
 30
0.0
 11
172.47042183687941
 21
429.64671565611559
 31
0.0
  0
ARC
  5
6B15
  8
AM_0
 10
184.3690929332252
 20
430.1467156561157
 30
0.0
 40
0.5
 50
269.99999999998693
 51
0.0
  0
LINE
  5
6B16
  8
AM_0
 10
179.3690929332252
 20
426.7467156561155
 30
0.0
 11
176.14678999187629
 21
426.7467156561155
 31
0.0
  0
LINE
  5
6B17
  8
AM_0
 10
184.86909293322509
 20
418.79064433470859
 30
0.0
 11
184.86909293322509
 21
428.50278697752373
 31
0.0
  0
LINE
  5
6B18
  8
AM_0
 10
179.86909293322509
 20
418.2906443347087
 30
0.0
 11
184.3690929332252
 21
418.2906443347087
 31
0.0
  0
ARC
  5
6B19
  8
AM_0
 10
184.3690929332252
 20
418.79064433470859
 30
0.0
 40
0.5
 50
270.0
 51
0.0
  0
LINE
  5
6B1A
  8
AM_0
 10
179.86909293322509
 20
429.00278697752361
 30
0.0
 11
184.3690929332252
 21
429.00278697752361
 31
0.0
  0
LINE
  5
6B1B
  8
AM_0
 10
184.3690929332252
 20
429.64671565611559
 30
0.0
 11
180.36909293322529
 21
429.64671565611559
 31
0.0
  0
ARC
  5
6B1C
  8
AM_0
 10
184.3690929332252
 20
428.50278697752373
 30
0.0
 40
0.5
 50
0.0
 51
90.0
  0
ARC
  5
6B1D
  8
AM_0
 10
179.3690929332252
 20
427.24671565611538
 30
0.0
 40
0.5
 50
270.0
 51
0.0
  0
ARC
  5
6B1E
  8
AM_0
 10
180.36909293322529
 20
429.14671565611559
 30
0.0
 40
0.5
 50
90.0
 51
180.0
  0
ARC
  5
6B1F
  8
AM_0
 10
173.67042183687931
 20
423.79188640840749
 30
0.0
 40
0.3000000000000114
 50
0.0
 51
90.0
  0
LINE
  5
6B20
  8
AM_0
 10
172.47042183687941
 20
418.64671565611752
 30
0.0
 11
173.6704218368792
 21
418.64671565611752
 31
0.0
  0
ARC
  5
6B21
  8
AM_0
 10
173.67042183687931
 20
418.34671565611762
 30
0.0
 40
0.2999999999999971
 50
0.0
 51
90.0
  0
LINE
  5
6B22
  8
AM_0
 10
172.47042183687941
 20
422.3196432219745
 30
0.0
 11
173.6704218368792
 21
422.3196432219745
 31
0.0
  0
ARC
  5
6B23
  8
AM_0
 10
173.67042183687931
 20
422.61964322197463
 30
0.0
 40
0.3000000000000007
 50
270.0
 51
0.0
  0
LINE
  5
6B24
  8
AM_0
 10
173.97042183687941
 20
422.61964322197463
 30
0.0
 11
173.97042183687941
 21
423.79188640840749
 31
0.0
  0
LINE
  5
6B25
  8
AM_0
 10
175.39678999187629
 20
427.49671565611573
 30
0.0
 11
175.79236050480031
 21
427.49671565611573
 31
0.0
  0
LINE
  5
6B26
  8
AM_0
 10
175.39678999187629
 20
427.49671565611573
 30
0.0
 11
175.79236050480031
 21
427.49671565611573
 31
0.0
  0
LINE
  5
6B27
  8
AM_0
 10
175.88895299933921
 20
427.42259788937918
 30
0.0
 11
176.05019749733711
 21
426.82083342285199
 31
0.0
  0
LINE
  5
6B28
  8
AM_0
 10
175.88895299933921
 20
427.42259788937918
 30
0.0
 11
176.05019749733711
 21
426.82083342285199
 31
0.0
  0
ARC
  5
6B29
  8
AM_0
 10
176.14678999187629
 20
426.84671565611569
 30
0.0
 40
0.0999999999999943
 50
195.00019500651879
 51
270.0
  0
ARC
  5
6B2A
  8
AM_0
 10
175.79236050480031
 20
427.39671565611559
 30
0.0
 40
0.0999999999999943
 50
15.000195006505431
 51
90.0
  0
LINE
  5
6B2B
  8
AM_0
 10
174.46957524833809
 20
427.12171565611561
 30
0.0
 11
174.55019749733711
 21
426.82083342285199
 31
0.0
  0
LINE
  5
6B2C
  8
AM_0
 10
175.12180358543111
 20
426.7859801892136
 30
0.0
 11
175.300197497337
 21
427.42259788937918
 31
0.0
  0
LINE
  5
6B2D
  8
AM_0
 10
175.13895299933921
 20
426.82083342285199
 30
0.0
 11
175.300197497337
 21
427.42259788937918
 31
0.0
  0
LINE
  5
6B2E
  8
AM_0
 10
173.97042183687941
 20
426.93354863662449
 30
0.0
 11
173.97042183687941
 21
427.5904636202755
 31
0.0
  0
LINE
  5
6B2F
  8
AM_0
 10
174.4704218368793
 20
427.11855618767748
 30
0.0
 11
174.55019749733711
 21
426.82083342285199
 31
0.0
  0
LINE
  5
6B30
  8
AM_0
 10
172.47042183687941
 20
426.63354863662471
 30
0.0
 11
173.6704218368792
 21
426.63354863662471
 31
0.0
  0
LINE
  5
6B31
  8
AM_0
 10
173.6704218368792
 20
424.09188640840762
 30
0.0
 11
172.47042183687941
 21
424.09188640840841
 31
0.0
  0
LINE
  5
6B32
  8
AM_0
 10
175.07499277031539
 20
426.7467156561155
 30
0.0
 11
175.12180358543111
 21
426.7859801892136
 31
0.0
  0
LINE
  5
6B33
  8
AM_0
 10
174.64678999187629
 20
426.7467156561155
 30
0.0
 11
175.07499277031539
 21
426.7467156561155
 31
0.0
  0
LINE
  5
6B34
  8
AM_0
 10
174.64678999187629
 20
426.7467156561155
 30
0.0
 11
175.04236050480031
 21
426.7467156561155
 31
0.0
  0
ARC
  5
6B35
  8
AM_0
 10
174.64678999187629
 20
426.84671565611569
 30
0.0
 40
0.0999999999999943
 50
195.00019500651879
 51
270.0
  0
ARC
  5
6B36
  8
AM_0
 10
175.04236050480031
 20
426.84671565611569
 30
0.0
 40
0.0999999999999608
 50
270.0
 51
344.99980499348112
  0
ARC
  5
6B37
  8
AM_0
 10
173.67042183687931
 20
426.93354863662449
 30
0.0
 40
0.3000000000000007
 50
270.0
 51
0.0
  0
LINE
  5
6B38
  8
AM_0
 10
172.47042183687941
 20
428.64671565611559
 30
0.0
 11
173.97042183687941
 21
428.64671565611559
 31
0.0
  0
LINE
  5
6B39
  8
AM_0
 10
173.6704218368792
 20
427.89046362027563
 30
0.0
 11
172.47042183687941
 21
427.89046362027563
 31
0.0
  0
LINE
  5
6B3A
  8
AM_0
 10
173.69037754003639
 20
428.96538527590548
 30
0.0
 11
172.47042183687941
 21
429.04671565611551
 31
0.0
  0
ARC
  5
6B3B
  8
AM_0
 10
173.97042183687941
 20
428.1467156561157
 30
0.0
 40
0.5
 50
0.0
 51
90.0
  0
ARC
  5
6B3C
  8
AM_0
 10
175.39678999187629
 20
427.39671565611559
 30
0.0
 40
0.0999999999999606
 50
90.0
 51
164.99980499349451
  0
ARC
  5
6B3D
  8
AM_0
 10
173.67042183687931
 20
427.5904636202755
 30
0.0
 40
0.2999999999999971
 50
0.0
 51
90.0
  0
LINE
  5
6B3E
  8
AM_0
 10
173.97042183687941
 20
428.64671565611559
 30
0.0
 11
173.97042183687941
 21
428.66604972854861
 31
0.0
  0
ARC
  5
6B3F
  8
AM_0
 10
173.67042183687931
 20
428.66604972854861
 30
0.0
 40
0.3000000000000043
 50
0.0
 51
86.185925165718416
  0
ARC
  5
6B40
  8
AM_0
 10
185.3690929332252
 20
430.6467156561157
 30
0.0
 40
0.5
 50
90.0
 51
180.0
  0
LINE
  5
6B41
  8
AM_0
 10
184.86909293322509
 20
430.6467156561157
 30
0.0
 11
184.86909293322509
 21
430.1467156561157
 31
0.0
  0
LINE
  5
6B42
  8
AM_0
 10
163.47042183687941
 20
427.30002758757439
 30
0.0
 11
169.9704218368793
 21
427.30002758757439
 31
0.0
  0
LINE
  5
6B43
  8
AM_0
 10
163.47042183687941
 20
418.9934037246565
 30
0.0
 11
169.9704218368793
 21
418.9934037246565
 31
0.0
  0
LINE
  5
6B44
  8
AM_0
 10
162.83247177206121
 20
428.64671565611559
 30
0.0
 11
169.6704218368792
 21
428.64671565611559
 31
0.0
  0
LINE
  5
6B45
  8
AM_0
 10
169.9704218368793
 20
418.6467156561157
 30
0.0
 11
162.9704218368793
 21
418.6467156561157
 31
0.0
  0
LINE
  5
6B46
  8
AM_0
 10
163.47042183687941
 20
418.1467156561157
 30
0.0
 11
169.9704218368793
 21
418.1467156561157
 31
0.0
  0
LINE
  5
6B47
  8
AM_0
 10
169.9704218368793
 20
428.2799954847635
 30
0.0
 11
163.47042183687941
 21
428.2799954847635
 31
0.0
  0
LINE
  5
6B48
  8
AM_0
 10
169.9704218368793
 20
427.7799954847635
 30
0.0
 11
163.47042183687941
 21
427.7799954847635
 31
0.0
  0
ARC
  5
6B49
  8
AM_0
 10
169.67042183687931
 20
428.94671565611571
 30
0.0
 40
0.3000000000000043
 50
270.0
 51
0.0
  0
ARC
  5
6B4A
  8
AM_0
 10
170.27042183687931
 20
429.34671565611569
 30
0.0
 40
0.2999999999999971
 50
90.0
 51
180.0
  0
ARC
  5
6B4B
  8
AM_0
 10
171.59542183687941
 20
423.1467156561157
 30
0.0
 40
9.124999999999984
 50
152.92493329271929
 51
207.07506670728071
  0
LINE
  5
6B4C
  8
AM_0
 10
162.9704218368793
 20
418.6467156561157
 30
0.0
 11
163.47042183687941
 21
418.9934037246565
 31
0.0
  0
LINE
  5
6B4D
  8
AM_0
 10
163.47042183687941
 20
418.1467156561157
 30
0.0
 11
162.9704218368793
 21
418.6467156561157
 31
0.0
  0
LINE
  5
6B4E
  8
AM_0
 10
159.83023743721481
 20
426.44656198972882
 30
0.0
 11
162.19228737239681
 21
428.41493693571289
 31
0.0
  0
LINE
  5
6B4F
  8
AM_0
 10
163.47042183687941
 20
428.64671565611559
 30
0.0
 11
162.9704218368793
 21
428.06828307260861
 31
0.0
  0
ARC
  5
6B50
  8
AM_0
 10
162.83247177206121
 20
427.6467156561157
 30
0.0
 40
1.0000000000000411
 50
90.0
 51
129.805571092256
  0
LINE
  5
6B51
  8
AM_0
 10
162.9704218368793
 20
427.06828307260861
 30
0.0
 11
163.47042183687941
 21
427.30002758757439
 31
0.0
  0
LINE
  5
6B52
  8
AM_0
 10
163.47042183687941
 20
427.7799954847635
 30
0.0
 11
162.9704218368793
 21
427.06828307260861
 31
0.0
  0
LINE
  5
6B53
  8
AM_0
 10
162.9704218368793
 20
427.60600779963647
 30
0.0
 11
163.47042183687941
 21
427.7799954847635
 31
0.0
  0
LINE
  5
6B54
  8
AM_0
 10
163.47042183687941
 20
428.2799954847635
 30
0.0
 11
162.9704218368793
 21
427.60600779963647
 31
0.0
  0
LINE
  5
6B55
  8
AM_0
 10
162.9704218368793
 20
428.06828307260861
 30
0.0
 11
163.47042183687941
 21
428.2799954847635
 31
0.0
  0
ARC
  5
6B56
  8
AM_0
 10
160.47042183687941
 20
425.67834071013141
 30
0.0
 40
1.0
 50
129.8055710922641
 51
180.0
  0
LINE
  5
6B57
  8
AM_0
 10
284.86909293322537
 20
394.64671565611587
 30
0.0
 11
264.05458803369299
 21
394.64671565611587
 31
0.0
  0
LINE
  5
6B58
  8
AM_0
 10
209.68359783275781
 20
394.64671565611587
 30
0.0
 11
188.8690929332258
 21
394.64671565611587
 31
0.0
  0
LINE
  5
6B59
  8
AM_0
 10
278.73331126406441
 20
390.64671565611587
 30
0.0
 11
195.0048746023862
 21
390.64671565611587
 31
0.0
  0
LINE
  5
6B5A
  8
AM_0
 10
197.77644790553231
 20
392.58777814398798
 30
0.0
 11
197.8690929332258
 21
393.64671565611587
 31
0.0
  0
LINE
  5
6B5B
  8
AM_0
 10
189.96173796091921
 20
392.58777814398798
 30
0.0
 11
189.86909293322589
 21
393.64671565611587
 31
0.0
  0
ARC
  5
6B5C
  8
AM_0
 10
193.8690929332258
 20
397.04671565611602
 30
0.0
 40
6.5
 50
241.82726586813479
 51
298.17273413186518
  0
ARC
  5
6B5D
  8
AM_0
 10
191.55564947786621
 20
392.72722733238447
 30
0.0
 40
1.6000000000000001
 50
184.99999999999969
 51
241.82726586813479
  0
LINE
  5
6B5E
  8
AM_0
 10
196.1690929332259
 20
390.96724199468758
 30
0.0
 11
193.8690929332258
 21
393.2568016734831
 31
0.0
  0
LINE
  5
6B5F
  8
AM_0
 10
194.18059293322591
 20
392.94671565611588
 30
0.0
 11
193.55759293322589
 21
392.94671565611588
 31
0.0
  0
LINE
  5
6B60
  8
AM_0
 10
191.56909293322599
 20
390.96724199468758
 30
0.0
 11
193.8690929332258
 21
393.2568016734831
 31
0.0
  0
LINE
  5
6B61
  8
AM_0
 10
194.18059293322591
 20
390.55418396578119
 30
0.0
 11
194.18059293322591
 21
392.94671565611588
 31
0.0
  0
LINE
  5
6B62
  8
AM_0
 10
193.55759293322589
 20
390.55418396578119
 30
0.0
 11
193.55759293322589
 21
392.94671565611588
 31
0.0
  0
ARC
  5
6B63
  8
AM_0
 10
196.18253638858559
 20
392.72722733238447
 30
0.0
 40
1.6000000000000001
 50
298.17273413186518
 51
355.00000000000023
  0
LINE
  5
6B64
  8
AM_0
 10
284.86909293322549
 20
394.64671565611587
 30
0.0
 11
284.86909293322549
 21
398.64671565611587
 31
0.0
  0
LINE
  5
6B65
  8
AM_0
 10
188.86909293322489
 20
398.64671565611587
 30
0.0
 11
188.8690929332262
 21
394.64671565611587
 31
0.0
  0
LINE
  5
6B66
  8
AM_0N
 10
197.6690929332259
 20
394.64671565611587
 30
0.0
 11
197.6690929332259
 21
393.64671565611587
 31
0.0
  0
LINE
  5
6B67
  8
AM_0N
 10
194.06909293322599
 20
393.64671565611587
 30
0.0
 11
194.43306316749209
 21
394.64671565611587
 31
0.0
  0
LINE
  5
6B68
  8
AM_0N
 10
193.6690929332259
 20
393.64671565611587
 30
0.0
 11
194.033063167492
 21
394.64671565611587
 31
0.0
  0
LINE
  5
6B69
  8
AM_0N
 10
189.86909293322589
 20
393.64671565611587
 30
0.0
 11
197.8690929332258
 21
393.64671565611587
 31
0.0
  0
LINE
  5
6B6A
  8
AM_0N
 10
190.06909293322599
 20
393.64671565611587
 30
0.0
 11
190.06909293322599
 21
394.64671565611587
 31
0.0
  0
LINE
  5
6B6B
  8
AM_0
 10
209.6835978327575
 20
390.64671565611587
 30
0.0
 11
209.6835978327575
 21
394.64671565611587
 31
0.0
  0
LINE
  5
6B6C
  8
AM_0
 10
208.0267435832651
 20
394.64671565611587
 30
0.0
 11
209.6835978327575
 21
390.64671565611587
 31
0.0
  0
LINE
  5
6B6D
  8
AM_0
 10
264.05458803369299
 20
390.64671565611587
 30
0.0
 11
264.05458803369299
 21
394.64671565611587
 31
0.0
  0
LINE
  5
6B6E
  8
AM_0
 10
265.71144228318548
 20
394.64671565611587
 30
0.0
 11
264.05458803369299
 21
390.64671565611587
 31
0.0
  0
LINE
  5
6B6F
  8
AM_0
 10
203.3690929332252
 20
439.64671565611587
 30
0.0
 11
270.36909293322537
 21
439.64671565611587
 31
0.0
  0
LINE
  5
6B70
  8
AM_0
 10
203.3690929332252
 20
439.64671565611587
 30
0.0
 11
203.3690929332252
 21
437.64671565611587
 31
0.0
  0
LINE
  5
6B71
  8
AM_0
 10
270.36909293322537
 20
439.64671565611587
 30
0.0
 11
270.36909293322537
 21
437.64671565611587
 31
0.0
  0
LINE
  5
6B72
  8
ﾁｭｳｼﾝｾﾝ1
 10
279.86909293322469
 20
388.382008156116
 30
0.0
 11
279.86909293322469
 21
401.38200815611589
 31
0.0
  0
LINE
  5
6B73
  8
AM_0
 10
275.9617379609183
 20
392.58777814398798
 30
0.0
 11
275.86909293322481
 21
393.64671565611587
 31
0.0
  0
LINE
  5
6B74
  8
AM_0
 10
283.77644790553131
 20
392.58777814398798
 30
0.0
 11
283.86909293322469
 21
393.64671565611587
 31
0.0
  0
ARC
  5
6B75
  8
AM_0
 10
279.86909293322492
 20
397.04671565611579
 30
0.0
 40
6.5
 50
241.82726586813479
 51
298.17273413186518
  0
ARC
  5
6B76
  8
AM_0
 10
282.18253638858459
 20
392.72722733238419
 30
0.0
 40
1.6000000000000001
 50
298.17273413186518
 51
355.00000000000023
  0
LINE
  5
6B77
  8
AM_0
 10
277.56909293322479
 20
390.96724199468758
 30
0.0
 11
279.86909293322481
 21
393.2568016734831
 31
0.0
  0
LINE
  5
6B78
  8
AM_0
 10
279.55759293322478
 20
392.94671565611588
 30
0.0
 11
280.18059293322477
 21
392.94671565611588
 31
0.0
  0
LINE
  5
6B79
  8
AM_0
 10
282.16909293322482
 20
390.96724199468758
 30
0.0
 11
279.86909293322481
 21
393.2568016734831
 31
0.0
  0
LINE
  5
6B7A
  8
AM_0
 10
279.55759293322478
 20
390.55418396578119
 30
0.0
 11
279.55759293322478
 21
392.94671565611588
 31
0.0
  0
LINE
  5
6B7B
  8
AM_0
 10
280.18059293322477
 20
390.55418396578119
 30
0.0
 11
280.18059293322477
 21
392.94671565611588
 31
0.0
  0
ARC
  5
6B7C
  8
AM_0
 10
277.5556494778653
 20
392.72722733238419
 30
0.0
 40
1.6000000000000001
 50
184.99999999999969
 51
241.82726586813479
  0
LINE
  5
6B7D
  8
AM_0N
 10
276.06909293322468
 20
394.64671565611587
 30
0.0
 11
276.06909293322468
 21
393.64671565611587
 31
0.0
  0
LINE
  5
6B7E
  8
AM_0N
 10
279.6690929332247
 20
393.64671565611587
 30
0.0
 11
279.3051226989586
 21
394.64671565611587
 31
0.0
  0
LINE
  5
6B7F
  8
AM_0N
 10
280.06909293322468
 20
393.64671565611587
 30
0.0
 11
279.70512269895858
 21
394.64671565611587
 31
0.0
  0
LINE
  5
6B80
  8
AM_0N
 10
283.86909293322481
 20
393.64671565611587
 30
0.0
 11
275.86909293322481
 21
393.64671565611587
 31
0.0
  0
LINE
  5
6B81
  8
AM_0N
 10
283.6690929332247
 20
393.64671565611587
 30
0.0
 11
283.6690929332247
 21
394.64671565611587
 31
0.0
  0
LINE
  5
6B82
  8
AM_0
 10
187.86909293322509
 20
401.6467156561157
 30
0.0
 11
187.86909293322509
 21
433.64671565611559
 31
0.0
  0
ARC
  5
6B83
  8
AM_0
 10
160.4422533021671
 20
470.64671565611587
 30
0.0
 40
56.0
 50
209.07393874564249
 51
269.00563148839018
1001
GENIUS_GENOBJ-N-FIL_13
1002
{
1000
OWNER
1000
GEN
1002
}
1001
GENIUS_GENODEF_13
1002
{
1000
HIER
1070
     0
1002
}
1002
{
1000
MANEDIT
1070
     0
1002
}
1002
{
1000
NOSEL
1070
     0
1002
}
1002
{
1000
BEHIND
1070
     0
1002
}
1002
{
1000
OTHER
1070
     0
1002
}
1002
{
1000
REACTOR
1002
}
  0
ARC
  5
6B84
  8
AM_0
 10
160.44225330216699
 20
470.64671565611587
 30
0.0
 40
50.0
 50
209.07393874564249
 51
268.88629304213589
1001
GENIUS_GENOBJ-N-FIL_13
1002
{
1000
OWNER
1000
GEN
1002
}
1001
GENIUS_GENODEF_13
1002
{
1000
HIER
1070
     0
1002
}
1002
{
1000
MANEDIT
1070
     0
1002
}
1002
{
1000
NOSEL
1070
     0
1002
}
1002
{
1000
BEHIND
1070
     0
1002
}
1002
{
1000
OTHER
1070
     0
1002
}
1002
{
1000
REACTOR
1002
}
  0
LINE
  5
6C32
  8
AM_0
 10
332.86910293322512
 20
584.64671565611593
 30
0.0
 11
332.86910293322512
 21
442.6467156561157
 31
0.0
  0
LINE
  5
6C33
  8
AM_0
 10
332.86913293322488
 20
442.6467456561158
 30
0.0
 11
327.81679293322492
 21
442.7790356561157
 31
0.0
  0
LINE
  5
6C34
  8
AM_0
 10
332.86910293322512
 20
584.64671565611593
 30
0.0
 11
327.81679293322492
 21
584.51441565611583
 31
0.0
  0
LINE
  5
6C35
  8
AM_0
 10
325.8691329332251
 20
444.77833565611559
 30
0.0
 11
325.8691329332251
 21
582.51508565611562
 31
0.0
  0
LINE
  5
6C36
  8
AM_0
 10
321.10893293322511
 20
449.48579565611573
 30
0.0
 11
295.86916293322508
 21
450.14671565611582
 31
0.0
  0
LINE
  5
6C37
  8
AM_0
 10
322.86910293322512
 20
448.4354356561156
 30
0.0
 11
323.8691329332251
 21
448.4354356561156
 31
0.0
  0
LINE
  5
6C38
  8
AM_0
 10
320.86910293322512
 20
450.43543565611537
 30
0.0
 11
320.86910293322512
 21
459.60667565611573
 31
0.0
  0
LINE
  5
6C39
  8
AM_0
 10
320.86910293322512
 20
576.85801565611575
 30
0.0
 11
320.86910293322512
 21
567.68675565611557
 31
0.0
  0
LINE
  5
6C3A
  8
AM_0
 10
321.10893293322511
 20
577.80766565611555
 30
0.0
 11
295.86916293322508
 21
577.14674565611585
 31
0.0
  0
LINE
  5
6C3B
  8
AM_0
 10
322.86910293322512
 20
578.85801565611575
 30
0.0
 11
323.8691329332251
 21
578.85801565611575
 31
0.0
  0
LINE
  5
6C3C
  8
AM_0
 10
295.86913293322488
 20
461.60667565611573
 30
0.0
 11
325.8691329332251
 21
461.60667565611573
 31
0.0
  0
LINE
  5
6C3D
  8
AM_0
 10
295.86913293322488
 20
476.4966856561158
 30
0.0
 11
325.8691329332251
 21
476.4966856561158
 31
0.0
  0
LINE
  5
6C3E
  8
AM_0
 10
295.86913293322488
 20
550.79673565611574
 30
0.0
 11
325.8691329332251
 21
550.79673565611574
 31
0.0
  0
LINE
  5
6C3F
  8
AM_0
 10
295.86913293322488
 20
565.68675565611591
 30
0.0
 11
325.8691329332251
 21
565.68675565611591
 31
0.0
  0
LINE
  5
6C40
  8
AM_0
 10
365.86910293322518
 20
561.34483565611583
 30
0.0
 11
380.86910293322518
 21
561.34483565611583
 31
0.0
  0
LINE
  5
6C41
  8
AM_0
 10
384.79930293322508
 20
428.92851565611568
 30
0.0
 11
392.86910293322512
 21
428.64671565611559
 31
0.0
  0
LINE
  5
6C42
  8
AM_0
 10
364.86910293322518
 20
584.03568565611556
 30
0.0
 11
364.86910293322518
 21
443.25773565611559
 31
0.0
  0
LINE
  5
6C43
  8
AM_0
 10
367.79058293322493
 20
587.03468565611558
 30
0.0
 11
379.94762293322509
 21
587.35301565611564
 31
0.0
  0
LINE
  5
6C44
  8
AM_0
 10
392.86910293322512
 20
583.64671565611559
 30
0.0
 11
396.86913293322488
 21
583.64671565611559
 31
0.0
  0
LINE
  5
6C45
  8
AM_0
 10
365.86910293322518
 20
465.9485956561158
 30
0.0
 11
380.86910293322518
 21
465.9485956561158
 31
0.0
  0
LINE
  5
6C46
  8
AM_0
 10
392.86910293322512
 20
443.6467156561157
 30
0.0
 11
396.86913293322488
 21
443.6467156561157
 31
0.0
  0
LINE
  5
6C47
  8
AM_0
 10
367.79061293322508
 20
440.25877565611592
 30
0.0
 11
379.9476529332249
 21
439.9404456561158
 31
0.0
  0
LINE
  5
6C48
  8
AM_0
 10
363.89269293322508
 20
441.83430565611559
 30
0.0
 11
332.86910293322512
 21
442.6467156561157
 31
0.0
  0
LINE
  5
6C49
  8
AM_0
 10
384.79927293322521
 20
598.36494565611565
 30
0.0
 11
392.86910293322512
 21
598.64674565611585
 31
0.0
  0
LINE
  5
6C4A
  8
AM_0
 10
382.86910293322512
 20
555.59837565611576
 30
0.0
 11
382.86910293322512
 21
596.36610565611556
 31
0.0
  0
LINE
  5
6C4B
  8
AM_0
 10
392.86910293322512
 20
428.64671565611559
 30
0.0
 11
392.86910293322512
 21
598.64674565611585
 31
0.0
  0
LINE
  5
6C4C
  8
AM_0
 10
386.86910293322518
 20
446.86536565611573
 30
0.0
 11
386.86910293322518
 21
580.42805565611593
 31
0.0
  0
LINE
  5
6C4D
  8
AM_0
 10
380.4119129332251
 20
451.48463565611559
 30
0.0
 11
367.32628293322489
 21
459.2136956561157
 31
0.0
  0
LINE
  5
6C4E
  8
AM_0
 10
396.86913293322488
 20
583.64671565611559
 30
0.0
 11
396.86913293322488
 21
443.6467156561157
 31
0.0
  0
LINE
  5
6C4F
  8
AM_0
 10
380.41194293322502
 20
572.32456565611562
 30
0.0
 11
367.32628293322489
 21
564.59550565611585
 31
0.0
  0
LINE
  5
6C50
  8
AM_0
 10
382.86910293322512
 20
471.69505565611558
 30
0.0
 11
382.86910293322512
 21
430.92732565611573
 31
0.0
  0
LINE
  5
6C51
  8
AM_0
 10
380.4119129332251
 20
454.96885565611592
 30
0.0
 11
367.3263129332251
 21
462.6978856561156
 31
0.0
  0
LINE
  5
6C52
  8
AM_0
 10
380.41194293322502
 20
575.80879565611576
 30
0.0
 11
367.32628293322489
 21
568.07972565611556
 31
0.0
  0
LINE
  5
6C53
  8
AM_0
 10
363.892722933225
 20
585.45908565611569
 30
0.0
 11
332.86910293322512
 21
584.64671565611593
 31
0.0
  0
ARC
  5
6C54
  8
AM_0
 10
327.8691329332251
 20
444.77833565611559
 30
0.0
 40
2.0
 50
180.00001000000091
 51
268.49999999999733
  0
ARC
  5
6C55
  8
AM_0
 10
327.8691329332251
 20
582.51508565611562
 30
0.0
 40
2.0
 50
91.500001000001546
 51
180.00001000000091
  0
ARC
  5
6C56
  8
AM_0
 10
322.86910293322512
 20
450.43543565611537
 30
0.0
 40
2.0
 50
180.00001000000091
 51
270.0
  0
ARC
  5
6C57
  8
AM_0
 10
323.8691329332251
 20
446.43543565611537
 30
0.0
 40
2.0
 50
0.0
 51
90.00000299999769
  0
ARC
  5
6C58
  8
AM_0
 10
323.8691329332251
 20
580.85801565611575
 30
0.0
 40
2.0
 50
270.0
 51
0.0
  0
ARC
  5
6C59
  8
AM_0
 10
322.86910293322512
 20
576.85801565611575
 30
0.0
 40
2.0
 50
90.00000299999769
 51
180.00001000000091
  0
ARC
  5
6C5A
  8
AM_0
 10
318.86910293322512
 20
459.60667565611573
 30
0.0
 40
2.0
 50
0.0
 51
90.00000299999769
  0
ARC
  5
6C5B
  8
AM_0
 10
318.86910293322512
 20
567.68675565611557
 30
0.0
 40
2.0
 50
270.0
 51
0.0
  0
ARC
  5
6C5C
  8
AM_0
 10
377.86910293322512
 20
576.62968565611584
 30
0.0
 40
5.0
 50
300.56828999999891
 51
0.0
  0
ARC
  5
6C5D
  8
AM_0
 10
385.86910293322512
 20
471.69505565611558
 30
0.0
 40
3.0
 50
90.00000299999769
 51
180.00001000000091
  0
ARC
  5
6C5E
  8
AM_0
 10
363.81417293322511
 20
588.45805565611556
 30
0.0
 40
3.0
 50
271.50000000000267
 51
312.51811999999683
  0
ARC
  5
6C5F
  8
AM_0
 10
367.86910293322512
 20
443.25773565611559
 30
0.0
 40
3.0
 50
179.999989999999
 51
268.50000999999878
  0
ARC
  5
6C60
  8
AM_0
 10
384.86913293322488
 20
430.92732565611573
 30
0.0
 40
2.0
 50
179.999989999999
 51
268.00000999999861
  0
ARC
  5
6C61
  8
AM_0
 10
367.86910293322512
 20
584.03568565611556
 30
0.0
 40
3.0
 50
91.500001000001546
 51
180.00001000000091
  0
ARC
  5
6C62
  8
AM_0
 10
379.86910293322512
 20
590.35197565611566
 30
0.0
 40
3.0
 50
271.50000000000267
 51
0.0
  0
ARC
  5
6C63
  8
AM_0
 10
379.86910293322512
 20
436.94145565611592
 30
0.0
 40
3.0
 50
0.0
 51
88.499997000000647
  0
ARC
  5
6C64
  8
AM_0
 10
363.81417293322511
 20
438.83534565611569
 30
0.0
 40
3.0
 50
47.481951999999431
 51
88.499997000000647
  0
ARC
  5
6C65
  8
AM_0
 10
384.86913293322488
 20
596.36610565611556
 30
0.0
 40
2.0
 50
91.999998000000545
 51
180.00001000000091
  0
ARC
  5
6C66
  8
AM_0
 10
380.86910293322518
 20
463.94859565611569
 30
0.0
 40
2.0
 50
0.0
 51
90.00000299999769
  0
ARC
  5
6C67
  8
AM_0
 10
380.86910293322518
 20
563.34483565611583
 30
0.0
 40
2.0
 50
270.0
 51
0.0
  0
ARC
  5
6C68
  8
AM_0
 10
383.86910293322512
 20
580.42805565611593
 30
0.0
 40
3.0
 50
0.0
 51
90.00000299999769
  0
ARC
  5
6C69
  8
AM_0
 10
385.86910293322512
 20
555.59837565611576
 30
0.0
 40
3.0
 50
179.999989999999
 51
270.0
  0
ARC
  5
6C6A
  8
AM_0
 10
377.86910293322512
 20
447.17948565611567
 30
0.0
 40
5.0
 50
0.0
 51
59.431709000002151
  0
ARC
  5
6C6B
  8
AM_0
 10
383.86910293322512
 20
446.86536565611573
 30
0.0
 40
3.0
 50
270.0
 51
0.0
  0
ARC
  5
6C6C
  8
AM_0
 10
369.86910293322512
 20
463.51878565611571
 30
0.0
 40
5.0
 50
179.999989999999
 51
239.431710000001
  0
ARC
  5
6C6D
  8
AM_0
 10
377.86910293322512
 20
580.11393565611593
 30
0.0
 40
5.0
 50
300.56828999999891
 51
0.0
  0
ARC
  5
6C6E
  8
AM_0
 10
369.86910293322512
 20
560.29038565611563
 30
0.0
 40
5.0
 50
120.5682899999989
 51
180.00001000000091
  0
ARC
  5
6C6F
  8
AM_0
 10
369.86910293322512
 20
563.77464565611592
 30
0.0
 40
5.0
 50
120.5682899999989
 51
180.00001000000091
  0
ARC
  5
6C70
  8
AM_0
 10
365.86910293322518
 20
466.9485956561158
 30
0.0
 40
1.0
 50
179.999989999999
 51
270.0
  0
ARC
  5
6C71
  8
AM_0
 10
365.86910293322518
 20
560.34483565611583
 30
0.0
 40
1.0
 50
90.00000299999769
 51
180.00001000000091
  0
ARC
  5
6C72
  8
AM_0
 10
369.86910293322512
 20
467.00303565611569
 30
0.0
 40
5.0
 50
179.999989999999
 51
239.431710000001
  0
ARC
  5
6C73
  8
AM_0
 10
377.86910293322512
 20
450.66374565611568
 30
0.0
 40
5.0
 50
0.0
 51
59.431709000002151
  0
LINE
  5
6C74
  8
AM_0
 10
407.86910293322489
 20
517.64668565611601
 30
0.0
 11
439.86910293322478
 21
517.64668565611601
 31
0.0
  0
LINE
  5
6C75
  8
AM_0
 10
407.86910293322489
 20
517.64668565611601
 30
0.0
 11
407.86910293322489
 21
509.64671565611582
 31
0.0
  0
LINE
  5
6C76
  8
AM_0
 10
405.86905293322468
 20
501.6467156561157
 30
0.0
 11
439.86910293322478
 21
501.64671565611582
 31
0.0
  0
LINE
  5
6C77
  8
AM_0
 10
405.86905293322468
 20
525.64671565611559
 30
0.0
 11
439.86910293322478
 21
525.64671565611582
 31
0.0
  0
LINE
  5
6C78
  8
AM_0
 10
439.86910293322478
 20
525.64671565611582
 30
0.0
 11
439.86910293322478
 21
501.64671565611582
 31
0.0
  0
LINE
  5
6C79
  8
AM_0
 10
407.86910293322489
 20
509.64671565611582
 30
0.0
 11
439.86910293322478
 21
509.64671565611582
 31
0.0
  0
ARC
  5
6C7A
  8
AM_0
 10
407.86910293322489
 20
513.64668565611601
 30
0.0
 40
3.9999962
 50
90.000003000000945
 51
120.0008584236207
  0
ARC
  5
6C7B
  8
AM_0
 10
407.86910293322489
 20
513.64668565611601
 30
0.0
 40
3.9999962
 50
239.99914157637929
 51
270.0
  0
LINE
  5
6C7C
  8
AM_0
 10
400.86905293322468
 20
547.14671265611571
 30
0.0
 11
405.86905293322479
 21
542.14671265611605
 31
0.0
  0
LINE
  5
6C7D
  8
AM_0
 10
396.86913293322488
 20
547.14671265611571
 30
0.0
 11
400.86905293322468
 21
547.14671265611571
 31
0.0
  0
LINE
  5
6C7E
  8
AM_0
 10
405.86905293322479
 20
542.14671265611605
 30
0.0
 11
405.86905293322479
 21
485.14671265611588
 31
0.0
  0
LINE
  5
6C7F
  8
AM_0
 10
396.86913293322488
 20
480.1467126561156
 30
0.0
 11
400.86905293322468
 21
480.1467126561156
 31
0.0
  0
LINE
  5
6C80
  8
AM_0
 10
400.86905293322468
 20
480.1467126561156
 30
0.0
 11
405.86905293322479
 21
485.14671265611588
 31
0.0
  0
LINE
  5
6C81
  8
AM_0
 10
400.86905293322468
 20
547.14671265611571
 30
0.0
 11
400.86905293322468
 21
480.1467126561156
 31
0.0
  0
TEXT
  5
6EDA
  8
AM_0
 10
521.95228804496105
 20
532.02553927214296
 30
0.0
 40
10.0
  1
VX04-015BFW~VX04-030BFW
  0
ENDSEC
  0
EOF
