  0
SECTION
  2
HEADER
  9
$ACADVER
  1
AC1009
  9
$INSBASE
 10
0.0
 20
0.0
 30
0.0
  9
$EXTMIN
 10
75.314188171078285
 20
144.1536088111327
 30
-250.41841640509659
  9
$EXTMAX
 10
771.99971197533841
 20
602.89108994000981
 30
8206587.2096418813
  9
$LIMMIN
 10
0.0
 20
0.0
  9
$LIMMAX
 10
853.5
 20
555.00000000000011
  9
$ORTHOMODE
 70
     0
  9
$REGENMODE
 70
     1
  9
$FILLMODE
 70
     1
  9
$QTEXTMODE
 70
     0
  9
$MIRRTEXT
 70
     1
  9
$DRAGMODE
 70
     2
  9
$LTSCALE
 40
3.0
  9
$OSMODE
 70
   551
  9
$ATTMODE
 70
     1
  9
$TEXTSIZE
 40
2.5
  9
$TRACEWID
 40
1.0
  9
$TEXTSTYLE
  7
STANDARD
  9
$CLAYER
  8
AM_0
  9
$CELTYPE
  6
BYLAYER
  9
$CECOLOR
 62
   256
  9
$DIMSCALE
 40
1.0
  9
$DIMASZ
 40
2.5
  9
$DIMEXO
 40
1.0
  9
$DIMDLI
 40
8.0
  9
$DIMRND
 40
0.0
  9
$DIMDLE
 40
0.0
  9
$DIMEXE
 40
0.6
  9
$DIMTP
 40
0.1
  9
$DIMTM
 40
0.1
  9
$DIMTXT
 40
2.5
  9
$DIMCEN
 40
0.0
  9
$DIMTSZ
 40
0.0
  9
$DIMTOL
 70
     0
  9
$DIMLIM
 70
     0
  9
$DIMTIH
 70
     0
  9
$DIMTOH
 70
     0
  9
$DIMSE1
 70
     0
  9
$DIMSE2
 70
     0
  9
$DIMTAD
 70
     1
  9
$DIMZIN
 70
     8
  9
$DIMBLK
  1

  9
$DIMASO
 70
     1
  9
$DIMSHO
 70
     1
  9
$DIMPOST
  1

  9
$DIMAPOST
  1
"
  9
$DIMALT
 70
     0
  9
$DIMALTD
 70
     2
  9
$DIMALTF
 40
0.0393701
  9
$DIMLFAC
 40
1.0
  9
$DIMTOFL
 70
     1
  9
$DIMTVP
 40
0.0
  9
$DIMTIX
 70
     0
  9
$DIMSOXD
 70
     0
  9
$DIMSAH
 70
     0
  9
$DIMBLK1
  1

  9
$DIMBLK2
  1

  9
$DIMSTYLE
  2
AM_ISO
  9
$DIMCLRD
 70
   256
  9
$DIMCLRE
 70
   256
  9
$DIMCLRT
 70
     4
  9
$DIMTFAC
 40
0.71
  9
$DIMGAP
 40
0.8
  9
$LUNITS
 70
     2
  9
$LUPREC
 70
     2
  9
$SKETCHINC
 40
1.0
  9
$FILLETRAD
 40
15.0
  9
$AUNITS
 70
     0
  9
$AUPREC
 70
     0
  9
$MENU
  1
.
  9
$ELEVATION
 40
0.0
  9
$PELEVATION
 40
0.0
  9
$THICKNESS
 40
0.0
  9
$LIMCHECK
 70
     0
  9
$BLIPMODE
 70
     0
  9
$CHAMFERA
 40
6.0
  9
$CHAMFERB
 40
3.0
  9
$SKPOLY
 70
     0
  9
$TDCREATE
 40
2452065.7887456599
  9
$TDUPDATE
 40
2458541.6153160422
  9
$TDINDWG
 40
0.1355870023
  9
$TDUSRTIMER
 40
0.1355869907
  9
$USRTIMER
 70
     1
  9
$ANGBASE
 50
0.0
  9
$ANGDIR
 70
     0
  9
$PDMODE
 70
     0
  9
$PDSIZE
 40
0.0
  9
$PLINEWID
 40
0.0
  9
$COORDS
 70
     1
  9
$SPLFRAME
 70
     0
  9
$SPLINETYPE
 70
     6
  9
$SPLINESEGS
 70
     8
  9
$ATTDIA
 70
     1
  9
$ATTREQ
 70
     1
  9
$HANDLING
 70
     1
  9
$HANDSEED
  5
7BEC
  9
$SURFTAB1
 70
     6
  9
$SURFTAB2
 70
     6
  9
$SURFTYPE
 70
     6
  9
$SURFU
 70
     6
  9
$SURFV
 70
     6
  9
$UCSNAME
  2

  9
$UCSORG
 10
0.0
 20
0.0
 30
0.0
  9
$UCSXDIR
 10
1.0
 20
0.0
 30
0.0
  9
$UCSYDIR
 10
0.0
 20
1.0
 30
0.0
  9
$PUCSNAME
  2

  9
$PUCSORG
 10
0.0
 20
0.0
 30
0.0
  9
$PUCSXDIR
 10
1.0
 20
0.0
 30
0.0
  9
$PUCSYDIR
 10
0.0
 20
1.0
 30
0.0
  9
$USERI1
 70
     0
  9
$USERI2
 70
     0
  9
$USERI3
 70
     0
  9
$USERI4
 70
     0
  9
$USERI5
 70
     0
  9
$USERR1
 40
0.0
  9
$USERR2
 40
0.0
  9
$USERR3
 40
0.0
  9
$USERR4
 40
0.0
  9
$USERR5
 40
0.0
  9
$WORLDVIEW
 70
     1
  9
$SHADEDGE
 70
     3
  9
$SHADEDIF
 70
    70
  9
$TILEMODE
 70
     1
  9
$MAXACTVP
 70
    64
  9
$PLIMCHECK
 70
     0
  9
$PEXTMIN
 10
1.0000000000000000E+020
 20
1.0000000000000000E+020
 30
1.0000000000000000E+020
  9
$PEXTMAX
 10
-1.0000000000000000E+020
 20
-1.0000000000000000E+020
 30
-1.0000000000000000E+020
  9
$PLIMMIN
 10
0.0
 20
0.0
  9
$PLIMMAX
 10
420.0
 20
297.0
  9
$UNITMODE
 70
     0
  9
$VISRETAIN
 70
     1
  9
$PLINEGEN
 70
     0
  9
$PSLTSCALE
 70
     1
  0
ENDSEC
  0
SECTION
  2
TABLES
  0
TABLE
  2
VPORT
 70
     1
  0
VPORT
  2
*ACTIVE
 70
     0
 10
0.0
 20
0.0
 11
1.0
 21
1.0
 12
423.65695007320818
 22
373.52234937557131
 13
0.0
 23
0.0
 14
7.5
 24
7.5
 15
30.0
 25
30.0
 16
0.0
 26
0.0
 36
1.0
 17
0.0
 27
0.0
 37
0.0
 40
461.8867086881142
 41
1.7571592210767459
 42
50.0
 43
0.0
 44
0.0
 50
0.0
 51
0.0
 71
     0
 72
   100
 73
     1
 74
     3
 75
     0
 76
     0
 77
     0
 78
     0
  0
ENDTAB
  0
TABLE
  2
LTYPE
 70
    26
  0
LTYPE
  2
CONTINUOUS
 70
     0
  3
Solid line
 72
    65
 73
     0
 40
0.0
  0
LTYPE
  2
AM_ISO02W050
 70
     0
  3
__ __ __ __ __ __ __ __ __ __ __ __ __ __ __
 72
    65
 73
     2
 40
7.5
 49
6.0
 49
-1.5
  0
LTYPE
  2
AM_ISO08W050
 70
     0
  3
____ . ____ . ____ . ____ . ____ . ____ . ____
 72
    65
 73
     4
 40
18.0
 49
12.0
 49
-1.5
 49
3.0
 49
-1.5
  0
LTYPE
  2
AM_ISO09W050
 70
     0
  3
_____ . . _____ . . _____ . . ____ .. ____
 72
    65
 73
     6
 40
22.5
 49
12.0
 49
-1.5
 49
3.0
 49
-1.5
 49
3.0
 49
-1.5
  0
LTYPE
  2
AMCONSTR
 70
     0
  3
_______________________
 72
    65
 73
     2
 40
9999.0
 49
9999.0
 49
0.0
  0
LTYPE
  2
AM_ISO08W050X2
 70
     0
  3
__ . __ . __ . __ . __ . __
 72
    65
 73
     4
 40
9.0
 49
6.0
 49
-0.75
 49
1.5
 49
-0.75
  0
LTYPE
  2
AM_ISO02W050X2
 70
     0
  3
 _ _ _ _ _ _ _ _ _ _ _ _
 72
    65
 73
     2
 40
3.75
 49
3.0
 49
-0.75
  0
LTYPE
  2
AMZIGZAG
 70
     0
  3
/\/-/\/-/\/-/\/-/\/-/\/
 72
    65
 73
     2
 40
11.0001
 49
0.0001
 49
-11.0
  0
LTYPE
  2
ACISOWELD
 70
     0
  3
_ _ _ _ _
 72
    65
 73
     2
 40
2.0
 49
2.0
 49
-1.0
  0
LTYPE
  2
ACISOTGB
 70
     0
  3
__ . . __ . .
 72
    65
 73
     6
 40
9.0
 49
4.0
 49
-1.0
 49
1.0
 49
-1.0
 49
1.0
 49
-1.0
  0
LTYPE
  2
ACISOTGL
 70
     0
  3
_ _ _ _ _
 72
    65
 73
     2
 40
3.0
 49
2.0
 49
-1.0
  0
LTYPE
  2
CENTER
 70
     0
  3
__ . __
 72
    65
 73
     4
 40
7.0
 49
4.0
 49
-1.0
 49
1.0
 49
-1.0
  0
LTYPE
  2
HIDDEN
 70
     0
  3
Hidden __ __ __ __ __ __ __ __ __ __ __ __ __ _
 72
    65
 73
     2
 40
9.5249999999999986
 49
6.3499999999999979
 49
-3.174999999999998
  0
LTYPE
  2
PHANTOM2
 70
     0
  3
Phantom (.5x) ___ _ _ ___ _ _ ___ _ _ ___ _ _
 72
    65
 73
     6
 40
31.75
 49
15.875
 49
-3.174999999999998
 49
3.174999999999998
 49
-3.174999999999998
 49
3.174999999999998
 49
-3.174999999999998
  0
LTYPE
  2
ACANSTGBM
 70
     0
  3
__ . . __ . .
 72
    65
 73
     6
 40
9.0
 49
4.0
 49
-1.0
 49
1.0
 49
-1.0
 49
1.0
 49
-1.0
  0
LTYPE
  2
ACANSTGLM
 70
     0
  3
_ _ _ _ _
 72
    65
 73
     2
 40
3.0
 49
2.0
 49
-1.0
  0
LTYPE
  2
GEN7
 70
     0
  3
____ . ____ . ____ . ____ . ____ . ____ . ____
 72
    65
 73
     4
 40
14.25
 49
9.75
 49
-1.5
 49
1.5
 49
-1.5
  0
LTYPE
  2
GEN7A
 70
     0
  3
__ . __ . __
 72
    65
 73
     4
 40
7.375
 49
4.75
 49
-0.875
 49
0.875
 49
-0.875
  0
LTYPE
  2
ACJISTGB
 70
     0
  3
__ . . __ . .
 72
    65
 73
     6
 40
9.0
 49
4.0
 49
-1.0
 49
1.0
 49
-1.0
 49
1.0
 49
-1.0
  0
LTYPE
  2
ACJISTGL
 70
     0
  3
_ _ _ _ _
 72
    65
 73
     2
 40
3.0
 49
2.0
 49
-1.0
  0
LTYPE
  2
CENTER2
 70
     0
  3
Center (.5x) ___ _ ___ _ ___ _ ___ _ ___ _ ___
 72
    65
 73
     4
 40
1.125
 49
0.75
 49
-0.125
 49
0.125
 49
-0.125
  0
LTYPE
  2
HIDDEN2
 70
     0
  3
Hidden (.5x) _ _ _ _ _ _ _ _ _ _ _ _ _ _ _ _ _
 72
    65
 73
     2
 40
0.1875
 49
0.125
 49
-0.0625
  0
LTYPE
  2
AMZIGZAG2
 70
     0
  3
/\/-/\/-/\/-/\/-/\/-/\/
 72
    65
 73
     2
 40
0.4401
 49
0.0001
 49
-0.4400000000000001
  0
LTYPE
  2
ACANSTGB
 70
     0
  3
__ . . __ . .
 72
    65
 73
     6
 40
0.35433070866
 49
0.15748031496
 49
-0.03937007874
 49
0.03937007874
 49
-0.03937007874
 49
0.03937007874
 49
-0.03937007874
  0
LTYPE
  2
ACANSTGL
 70
     0
  3
_ _ _ _ _
 72
    65
 73
     2
 40
0.11811023622
 49
0.07874015748
 49
-0.03937007874
  0
ENDTAB
  0
TABLE
  2
LAYER
 70
     7
  0
LAYER
  2
0
 70
     0
 62
     7
  6
CONTINUOUS
  0
LAYER
  2
AM_0
 70
     0
 62
     7
  6
CONTINUOUS
  0
LAYER
  2
AM_5
 70
     0
 62
     2
  6
CONTINUOUS
  0
LAYER
  2
DEFPOINTS
 70
     0
 62
     7
  6
CONTINUOUS
  0
LAYER
  2
ﾁｭｳｼﾝｾﾝ
 70
     0
 62
     1
  6
GEN7
  0
LAYER
  2
ﾁｭｳｼﾝｾﾝ1
 70
     0
 62
     1
  6
GEN7A
  0
LAYER
  2
AM_0N
 70
     0
 62
     7
  6
CONTINUOUS
  0
ENDTAB
  0
TABLE
  2
STYLE
 70
    10
  0
STYLE
  2
STANDARD
 70
     0
 40
0.0
 41
0.8299999999999999
 50
0.0
 71
     0
 42
2.5
  3
txt.shx
  4
bigfont.shx
  0
STYLE
  2
ANNOTATIVE
 70
     0
 40
0.0
 41
1.0
 50
0.0
 71
     0
 42
0.2
  3
txt
  4

  0
STYLE
  2

 70
     1
 40
0.0
 41
1.0
 50
0.0
 71
     0
 42
2.5
  3
ltypeshp.shx
  4

  0
STYLE
  2
ACISOTS
 70
     0
 40
1.0
 41
1.0
 50
0.0
 71
     0
 42
2.5
  3
isocp.shx
  4
extfont.shx
  0
STYLE
  2
ACISOGDT
 70
     0
 40
0.0
 41
1.0
 50
0.0
 71
     0
 42
2.5
  3
amgdt.shx
  4

  0
STYLE
  2
ACANSTS
 70
     0
 40
1.0
 41
1.0
 50
0.0
 71
     0
 42
2.5
  3
romans.shx
  4
bigfont.shx
  0
STYLE
  2
ACANSGDT
 70
     0
 40
0.0
 41
1.0
 50
0.0
 71
     0
 42
2.5
  3
amgdt.shx
  4

  0
STYLE
  2
ACJISTS
 70
     0
 40
1.0
 41
1.0
 50
0.0
 71
     0
 42
2.5
  3
isocp.shx
  4
bigfont.shx
  0
STYLE
  2
ACJISGDT
 70
     0
 40
0.0
 41
1.0
 50
0.0
 71
     0
 42
2.5
  3
amgdt.shx
  4

  0
STYLE
  2

 70
     1
 40
0.0
 41
1.0
 50
0.0
 71
     0
 42
2.5
  3
genltshp.shx
  4

  0
ENDTAB
  0
TABLE
  2
VIEW
 70
     6
  0
VIEW
  2
AM_VIEW1
 70
     0
 40
277.50000000000011
 10
249.64779005524869
 20
416.25
 41
499.29558011049721
 11
0.0
 21
0.0
 31
1.0
 12
0.0
 22
0.0
 32
0.0
 42
50.0
 43
0.0
 44
0.0
 50
0.0
 71
     0
  0
VIEW
  2
AM_VIEW2
 70
     0
 40
277.50000000000011
 10
603.85220994475117
 20
416.25
 41
499.29558011049721
 11
0.0
 21
0.0
 31
1.0
 12
0.0
 22
0.0
 32
0.0
 42
50.0
 43
0.0
 44
0.0
 50
0.0
 71
     0
  0
VIEW
  2
AM_VIEW3
 70
     0
 40
277.50000000000011
 10
249.64779005524869
 20
138.75
 41
499.29558011049721
 11
0.0
 21
0.0
 31
1.0
 12
0.0
 22
0.0
 32
0.0
 42
50.0
 43
0.0
 44
0.0
 50
0.0
 71
     0
  0
VIEW
  2
AM_VIEW4
 70
     0
 40
277.50000000000011
 10
603.85220994475117
 20
138.75
 41
499.29558011049721
 11
0.0
 21
0.0
 31
1.0
 12
0.0
 22
0.0
 32
0.0
 42
50.0
 43
0.0
 44
0.0
 50
0.0
 71
     0
  0
VIEW
  2
AM_VIEW5
 70
     0
 40
277.50000000000011
 10
426.75
 20
277.50000000000011
 41
499.2955801104971
 11
0.0
 21
0.0
 31
1.0
 12
0.0
 22
0.0
 32
0.0
 42
50.0
 43
0.0
 44
0.0
 50
0.0
 71
     0
  0
VIEW
  2
AM_VIEW6
 70
     0
 40
554.99445000000014
 10
426.75
 20
277.5
 41
998.5811743093924
 11
0.0
 21
0.0
 31
1.0
 12
0.0
 22
0.0
 32
0.0
 42
50.0
 43
0.0
 44
0.0
 50
0.0
 71
     0
  0
ENDTAB
  0
TABLE
  2
UCS
 70
     0
  0
ENDTAB
  0
TABLE
  2
APPID
 70
    98
  0
APPID
  2
ACAD
 70
     0
  0
APPID
  2
ACADANNOTATIVE
 70
     0
  0
APPID
  2
MCAD_NO_VIS
 70
     0
  0
APPID
  2
ACAD_TEMP_GRAPHIC
 70
     0
  0
APPID
  2
ACATTRIBSERVICES
 70
     0
  0
APPID
  2
GENIUS_GENREC_14
 70
     0
  0
APPID
  2
GENIUS_GENOBJ-N-REC_13
 70
     0
  0
APPID
  2
GENIUS_GENODEF_13
 70
     0
  0
APPID
  2
GENIUS_GENOLIS_13
 70
     0
  0
APPID
  2
GENIUS_GENOBJ-N-TIT_13
 70
     0
  0
APPID
  2
GENIUS_GENOENT_13
 70
     0
  0
APPID
  2
GENIUS_GENTITLE_13
 70
     0
  0
APPID
  2
GENIUS_GENOREF_13
 70
     0
  0
APPID
  2
GENIUS_GENSCREG_15
 70
     0
  0
APPID
  2
GENIUS_GENOBJ-N-SDF_13
 70
     0
  0
APPID
  2
GENIUS_GENFIL_13
 70
     0
  0
APPID
  2
GENIUS_GENOBJ-N-CHA_13
 70
     0
  0
APPID
  2
GENIUS_GENDTOL_13
 70
     0
  0
APPID
  2
GENIUS_GENOBJ-N-FIL_13
 70
     0
  0
APPID
  2
AD_DRAW
 70
     0
  0
APPID
  2
DESIGNERASSEMBLIES
 70
     0
  0
APPID
  2
ASURF_PCURVE_APPNAME
 70
     0
  0
APPID
  2
GENIUS_GE3SECT_13
 70
     0
  0
APPID
  2
GENIUS_GENCFG_13
 70
     0
  0
APPID
  2
GENIUS_GE3CFG0_13
 70
     0
  0
APPID
  2
GENIUS_GENCFG0_13
 70
     0
  0
APPID
  2
GENIUS_GENCFG1_13
 70
     0
  0
APPID
  2
GENIUS_GENCFG2_13
 70
     0
  0
APPID
  2
GENIUS_GENCFG3_13
 70
     0
  0
APPID
  2
GENIUS_GENCFG4_13
 70
     0
  0
APPID
  2
GENIUS_GEVCFG0_13
 70
     0
  0
APPID
  2
GENIUS_GENHINW_13
 70
     0
  0
APPID
  2
GENIUS_FIRSTVISTXT_14
 70
     0
  0
APPID
  2
GENIUS_GENOBJ-N-LEADER_13
 70
     0
  0
APPID
  2
GEV_VCCNULL_SWITCH_OFF
 70
     0
  0
APPID
  2
GENIUS_GEFCFG0_13
 70
     0
  0
APPID
  2
GENIUS_GENZVEED_13
 70
     0
  0
APPID
  2
GENIUS_GENSCREG_13
 70
     0
  0
APPID
  2
GENIUS_DUMCFG0_13
 70
     0
  0
APPID
  2
GEVID936201362
 70
     0
  0
APPID
  2
GEVDC
 70
     0
  0
APPID
  2
GEVCON
 70
     0
  0
APPID
  2
VCC
 70
     0
  0
APPID
  2
GEVPT
 70
     0
  0
APPID
  2
GEVIT
 70
     0
  0
APPID
  2
GENBH
 70
     0
  0
APPID
  2
GEVMK
 70
     0
  0
APPID
  2
GENIUS_GENBH_13
 70
     0
  0
APPID
  2
GENIUS_GENOBJ-NBEHI-BHF_13
 70
     0
  0
APPID
  2
GENIUS_GENOBJ-NBEHI-BHB_13
 70
     0
  0
APPID
  2
GENIUS_GENOBJ-F-DESC_13
 70
     0
  0
APPID
  2
GENIUS_GEFDESC_14
 70
     0
  0
APPID
  2
GENIUS_GENOBJ-F-PART_13
 70
     0
  0
APPID
  2
GENIUS_GEFSTDP_13
 70
     0
  0
APPID
  2
GENIUS_GEFPARTINS_13
 70
     0
  0
APPID
  2
GENIUS_GENTRA_14
 70
     0
  0
APPID
  2
GENIUS_GENINF13_13
 70
     0
  0
APPID
  2
GENIUS_GENOBJ-N-INFOPT_13
 70
     0
  0
APPID
  2
GENIUS_GENOBJ-N-RSSYM_13
 70
     0
  0
APPID
  2
GENIUS_GENSYMENT_13
 70
     0
  0
APPID
  2
GENIUS_GENSCSYM_13
 70
     0
  0
APPID
  2
GENIUS_GEFINFNAM_13
 70
     0
  0
APPID
  2
GENIUS_GENOBJ-N-CEN_13
 70
     0
  0
APPID
  2
GENIUS_GENOBJ-N-CRS_13
 70
     0
  0
APPID
  2
GENIUS_GENOBJ-N-CRC_13
 70
     0
  0
APPID
  2
GENIUS_GENCRC_14
 70
     0
  0
APPID
  2
GEVID942827039
 70
     0
  0
APPID
  2
GEVID942827040
 70
     0
  0
APPID
  2
GEVID942827041
 70
     0
  0
APPID
  2
GENIUS_GENOBJ-F-SCPASSM_13
 70
     0
  0
APPID
  2
GENIUS_GENDIMSH_14
 70
     0
  0
APPID
  2
GEVID942827042
 70
     0
  0
APPID
  2
GEVID946020473
 70
     0
  0
APPID
  2
GEVID946020474
 70
     0
  0
APPID
  2
GEVID946020475
 70
     0
  0
APPID
  2
GENIUS_GENOBJ-N-HTC_13
 70
     0
  0
APPID
  2
GENIUS_GENHATCH_13
 70
     0
  0
APPID
  2
GEVID948854295
 70
     0
  0
APPID
  2
GEVID939402019
 70
     0
  0
APPID
  2
GEVID952919491
 70
     0
  0
APPID
  2
GEVID952919492
 70
     0
  0
APPID
  2
GENIUS_GEFWELD_13
 70
     0
  0
APPID
  2
GENIUS_GENOBJ-F-WELS_13
 70
     0
  0
APPID
  2
GEVID952919493
 70
     0
  0
APPID
  2
GENIUS_GENOBJ-N-RSBK_13
 70
     0
  0
APPID
  2
GENIUS_GENOBJ-N-LIB_13
 70
     0
  0
APPID
  2
GENIUS_GENSCALE_13
 70
     0
  0
APPID
  2
GEVID986376691
 70
     0
  0
APPID
  2
DCO15
 70
     0
  0
APPID
  2
ACADM_DIM_EDIT
 70
     0
  0
APPID
  2
AMDT_DM_ADJ
 70
     0
  0
APPID
  2
ACAD_PSEXT
 70
     0
  0
APPID
  2
ACAD_DSTYLE_DIMJAG
 70
     0
  0
APPID
  2
ACAD_DSTYLE_DIMBREAK
 70
     0
  0
APPID
  2
ACAD_NAV_VCDISPLAY
 70
     0
  0
APPID
  2
ACADANNOPO
 70
     0
  0
APPID
  2
ACAD_EXEMPT_FROM_CAD_STANDARDS
 70
     0
  0
APPID
  2
ACAD_MLEADERVER
 70
     0
  0
ENDTAB
  0
TABLE
  2
DIMSTYLE
 70
    22
  0
DIMSTYLE
  2
STANDARD
 70
     0
  3

  4

  5

  6

  7

 40
1.0
 41
0.18
 42
0.0625
 43
0.38
 44
0.18
 45
0.0
 46
0.0
 47
0.0
 48
0.0
140
0.18
141
0.09
142
0.0
143
25.399999999999999
144
1.0
145
0.0
146
1.0
147
0.09
 71
     0
 72
     0
 73
     1
 74
     1
 75
     0
 76
     0
 77
     0
 78
     0
170
     0
171
     2
172
     0
173
     0
174
     0
175
     0
176
     0
177
     0
178
     0
  0
DIMSTYLE
  2
ANNOTATIVE
 70
     0
  3

  4

  5

  6

  7

 40
1.0
 41
0.18
 42
0.0625
 43
0.38
 44
0.18
 45
0.0
 46
0.0
 47
0.0
 48
0.0
140
0.18
141
0.09
142
0.0
143
25.399999999999999
144
1.0
145
0.0
146
1.0
147
0.09
 71
     0
 72
     0
 73
     1
 74
     1
 75
     0
 76
     0
 77
     0
 78
     0
170
     0
171
     2
172
     0
173
     0
174
     0
175
     0
176
     0
177
     0
178
     0
  0
DIMSTYLE
  2
AM_ISO
 70
     0
  3

  4
"
  5

  6

  7

 40
1.0
 41
2.5
 42
1.0
 43
8.0
 44
0.6
 45
0.0
 46
0.0
 47
0.1
 48
0.1
140
2.5
141
0.0
142
0.0
143
0.0393701
144
1.0
145
0.0
146
0.71
147
0.8
 71
     0
 72
     0
 73
     0
 74
     0
 75
     0
 76
     0
 77
     1
 78
     8
170
     0
171
     2
172
     1
173
     0
174
     0
175
     0
176
   256
177
   256
178
     4
  0
DIMSTYLE
  2
AM_ISO$3
 70
     0
  3

  4
"
  5

  6

  7

 40
1.0
 41
2.5
 42
1.0
 43
8.0
 44
0.6
 45
0.0
 46
0.0
 47
0.1
 48
0.1
140
2.5
141
0.0
142
0.0
143
0.0393701
144
1.0
145
0.0
146
0.71
147
0.8
 71
     0
 72
     0
 73
     0
 74
     1
 75
     0
 76
     0
 77
     1
 78
     8
170
     0
171
     2
172
     0
173
     0
174
     0
175
     0
176
   256
177
   256
178
     4
  0
DIMSTYLE
  2
AM_ISO$4
 70
     0
  3

  4
"
  5

  6

  7

 40
1.0
 41
2.5
 42
1.0
 43
8.0
 44
0.6
 45
0.0
 46
0.0
 47
0.1
 48
0.1
140
2.5
141
0.0
142
0.0
143
0.0393701
144
1.0
145
0.0
146
0.71
147
0.8
 71
     0
 72
     0
 73
     0
 74
     1
 75
     0
 76
     0
 77
     1
 78
     8
170
     0
171
     2
172
     0
173
     0
174
     0
175
     0
176
   256
177
   256
178
     4
  0
DIMSTYLE
  2
AM_ISO$6
 70
     0
  3

  4
"
  5

  6

  7

 40
1.0
 41
2.5
 42
1.0
 43
8.0
 44
0.6
 45
0.0
 46
0.0
 47
0.1
 48
0.1
140
2.5
141
0.0
142
0.0
143
0.0393701
144
1.0
145
0.0
146
0.71
147
0.8
 71
     0
 72
     0
 73
     0
 74
     0
 75
     0
 76
     0
 77
     0
 78
     8
170
     0
171
     2
172
     1
173
     0
174
     0
175
     0
176
   256
177
   256
178
     4
  0
DIMSTYLE
  2
AM_ISO$7
 70
     0
  3

  4
"
  5

  6

  7

 40
1.0
 41
2.5
 42
1.0
 43
8.0
 44
0.6
 45
0.0
 46
0.0
 47
0.1
 48
0.1
140
2.5
141
0.0
142
0.0
143
0.0393701
144
1.0
145
0.0
146
0.71
147
0.8
 71
     0
 72
     0
 73
     0
 74
     0
 75
     0
 76
     0
 77
     1
 78
     8
170
     0
171
     2
172
     1
173
     0
174
     0
175
     0
176
   256
177
   256
178
     4
  0
DIMSTYLE
  2
AM_ISO$SF
 70
     0
  3

  4
"
  5

  6

  7

 40
1.0
 41
2.5
 42
1.0
 43
10.0
 44
1.0
 45
0.0
 46
0.0
 47
0.1
 48
0.1
140
3.5
141
0.0
142
0.0
143
0.0393701
144
1.0
145
0.0
146
0.71
147
1.5
 71
     0
 72
     0
 73
     0
 74
     0
 75
     1
 76
     1
 77
     1
 78
     8
170
     0
171
     2
172
     1
173
     0
174
     0
175
     0
176
   256
177
   256
178
     2
  0
DIMSTYLE
  2
AM_ISO$SH
 70
     0
  3

  4
"
  5

  6

  7

 40
1.0
 41
2.5
 42
1.0
 43
10.0
 44
1.0
 45
0.0
 46
0.0
 47
0.1
 48
0.1
140
3.5
141
0.0
142
0.0
143
0.0393701
144
2.0
145
0.0
146
0.71
147
1.5
 71
     0
 72
     0
 73
     0
 74
     0
 75
     1
 76
     1
 77
     1
 78
     8
170
     0
171
     2
172
     1
173
     1
174
     0
175
     0
176
   256
177
   256
178
     2
  0
DIMSTYLE
  2
AM_JIS
 70
     0
  3

  4
"
  5

  6

  7

 40
1.0
 41
2.5
 42
1.0
 43
7.0
 44
1.0
 45
0.0
 46
0.0
 47
0.1
 48
0.1000000001
140
2.5
141
0.0
142
0.0
143
0.0393701
144
1.0
145
0.0
146
0.71
147
1.0
 71
     0
 72
     0
 73
     0
 74
     0
 75
     0
 76
     0
 77
     3
 78
     8
170
     0
171
     2
172
     1
173
     0
174
     0
175
     0
176
   256
177
   256
178
     4
  0
DIMSTYLE
  2
AM_JIS$3
 70
     0
  3

  4
"
  5

  6

  7

 40
1.0
 41
2.5
 42
1.0
 43
7.0
 44
1.0
 45
0.0
 46
0.0
 47
0.1
 48
0.1000000001
140
2.5
141
0.0
142
0.0
143
0.0393701
144
1.0
145
0.0
146
0.71
147
1.0
 71
     0
 72
     0
 73
     0
 74
     1
 75
     0
 76
     0
 77
     3
 78
     8
170
     0
171
     2
172
     0
173
     0
174
     0
175
     0
176
   256
177
   256
178
     4
  0
DIMSTYLE
  2
AM_JIS$4
 70
     0
  3

  4
"
  5

  6

  7

 40
1.0
 41
2.5
 42
1.0
 43
7.0
 44
1.0
 45
0.0
 46
0.0
 47
0.1
 48
0.1000000001
140
2.5
141
0.0
142
0.0
143
0.0393701
144
1.0
145
0.0
146
0.71
147
1.0
 71
     0
 72
     0
 73
     0
 74
     0
 75
     0
 76
     0
 77
     3
 78
     8
170
     0
171
     2
172
     0
173
     0
174
     0
175
     0
176
   256
177
   256
178
     4
  0
DIMSTYLE
  2
AM_JIS$6
 70
     0
  3

  4
"
  5

  6

  7

 40
1.0
 41
2.5
 42
1.0
 43
7.0
 44
1.0
 45
0.0
 46
0.0
 47
0.1
 48
0.1000000001
140
2.5
141
0.0
142
0.0
143
0.0393701
144
1.0
145
0.0
146
0.71
147
1.0
 71
     0
 72
     0
 73
     0
 74
     0
 75
     0
 76
     0
 77
     0
 78
     8
170
     0
171
     2
172
     1
173
     0
174
     0
175
     0
176
   256
177
   256
178
     4
  0
DIMSTYLE
  2
AM_JIS$7
 70
     0
  3

  4
"
  5

  6

  7

 40
1.0
 41
2.5
 42
1.0
 43
7.0
 44
1.0
 45
0.0
 46
0.0
 47
0.1
 48
0.1000000001
140
2.5
141
0.0
142
0.0
143
0.0393701
144
1.0
145
0.0
146
0.71
147
1.0
 71
     0
 72
     0
 73
     0
 74
     0
 75
     0
 76
     0
 77
     3
 78
     8
170
     0
171
     2
172
     1
173
     0
174
     0
175
     0
176
   256
177
   256
178
     4
  0
DIMSTYLE
  2
AM_JIS$SF
 70
     0
  3

  4
"
  5

  6

  7

 40
1.0
 41
2.5
 42
1.0
 43
10.0
 44
1.0
 45
0.0
 46
0.0
 47
0.1
 48
0.1
140
3.5
141
0.0
142
0.0
143
0.0393701
144
1.0
145
0.0
146
0.71
147
1.5
 71
     0
 72
     0
 73
     0
 74
     0
 75
     1
 76
     1
 77
     3
 78
     8
170
     0
171
     2
172
     1
173
     0
174
     0
175
     0
176
   256
177
   256
178
     4
  0
DIMSTYLE
  2
AM_JIS$SH
 70
     0
  3

  4
"
  5

  6

  7

 40
1.0
 41
2.5
 42
1.0
 43
10.0
 44
1.0
 45
0.0
 46
0.0
 47
0.1
 48
0.1
140
3.5
141
0.0
142
0.0
143
0.0393701
144
1.0
145
0.0
146
0.71
147
1.5
 71
     0
 72
     0
 73
     0
 74
     0
 75
     1
 76
     0
 77
     3
 78
     8
170
     0
171
     2
172
     1
173
     1
174
     0
175
     0
176
   256
177
   256
178
     4
  0
DIMSTYLE
  2
AM_ANSI
 70
     0
  3

  4
mm
  5

  6

  7

 40
1.0
 41
0.12
 42
0.05
 43
0.5
 44
0.1
 45
0.0
 46
0.0
 47
0.1
 48
0.1
140
0.12
141
0.0
142
0.0
143
25.399999999999999
144
1.0
145
0.0
146
0.71
147
0.06
 71
     0
 72
     0
 73
     1
 74
     1
 75
     0
 76
     0
 77
     0
 78
     7
170
     0
171
     2
172
     0
173
     0
174
     0
175
     0
176
   256
177
   256
178
     2
  0
DIMSTYLE
  2
AM_ANSI$3
 70
     0
  3

  4
mm
  5

  6

  7

 40
1.0
 41
0.12
 42
0.05
 43
0.5
 44
0.1
 45
0.0
 46
0.0
 47
0.1
 48
0.1
140
0.12
141
0.0
142
0.0
143
25.399999999999999
144
1.0
145
0.0
146
0.71
147
0.06
 71
     0
 72
     0
 73
     1
 74
     1
 75
     0
 76
     0
 77
     0
 78
     7
170
     0
171
     2
172
     0
173
     0
174
     0
175
     0
176
   256
177
   256
178
     2
  0
DIMSTYLE
  2
AM_ANSI$4
 70
     0
  3

  4
mm
  5

  6

  7

 40
1.0
 41
0.12
 42
0.05
 43
0.5
 44
0.1
 45
0.0
 46
0.0
 47
0.1
 48
0.1
140
0.12
141
0.0
142
0.0
143
25.399999999999999
144
1.0
145
0.0
146
0.71
147
0.06
 71
     0
 72
     0
 73
     1
 74
     1
 75
     0
 76
     0
 77
     0
 78
     7
170
     0
171
     2
172
     0
173
     0
174
     0
175
     0
176
   256
177
   256
178
     2
  0
DIMSTYLE
  2
AM_ANSI$7
 70
     0
  3

  4
mm
  5

  6

  7

 40
1.0
 41
0.12
 42
0.05
 43
0.5
 44
0.1
 45
0.0
 46
0.0
 47
0.1
 48
0.1
140
0.12
141
0.0
142
0.0
143
25.399999999999999
144
1.0
145
0.0
146
0.71
147
0.06
 71
     0
 72
     0
 73
     1
 74
     1
 75
     0
 76
     0
 77
     0
 78
     7
170
     0
171
     2
172
     0
173
     0
174
     0
175
     0
176
   256
177
   256
178
     2
  0
DIMSTYLE
  2
AM_ANSI$SF
 70
     0
  3

  4
mm
  5

  6

  7

 40
1.0
 41
0.12
 42
0.05
 43
0.5
 44
0.1
 45
0.0
 46
0.0
 47
0.1
 48
0.1
140
0.12
141
0.0
142
0.0
143
25.399999999999999
144
1.0
145
0.0
146
0.71
147
0.06
 71
     0
 72
     0
 73
     1
 74
     1
 75
     1
 76
     1
 77
     0
 78
     7
170
     0
171
     2
172
     0
173
     0
174
     0
175
     0
176
   256
177
   256
178
     2
  0
DIMSTYLE
  2
AM_ANSI$SH
 70
     0
  3

  4
mm
  5

  6
GENAXEH
  7

 40
1.0
 41
0.12
 42
0.05
 43
0.5
 44
0.1
 45
0.0
 46
0.0
 47
0.1
 48
0.1
140
0.12
141
0.0
142
0.0
143
25.399999999999999
144
1.0
145
0.0
146
0.71
147
0.06
 71
     0
 72
     0
 73
     1
 74
     1
 75
     1
 76
     1
 77
     0
 78
     7
170
     0
171
     2
172
     0
173
     1
174
     0
175
     0
176
   256
177
   256
178
     2
  0
ENDTAB
  0
ENDSEC
  0
SECTION
  2
BLOCKS
  0
BLOCK
  8
0
  2
$MODEL_SPACE
 70
     0
 10
0.0
 20
0.0
 30
0.0
  3
$MODEL_SPACE
  1

  0
ENDBLK
  5
7A6A
  8
0
  0
BLOCK
 67
     1
  8
0
  2
$PAPER_SPACE
 70
     0
 10
0.0
 20
0.0
 30
0.0
  3
$PAPER_SPACE
  1

  0
ENDBLK
  5
7A66
 67
     1
  8
0
  0
BLOCK
  8
0
  2
GENAXEH
 70
     0
 10
0.0
 20
0.0
 30
0.0
  3
GENAXEH
  1

  0
LINE
  5
73
  8
0
 10
-1.0
 20
0.0
 30
0.0
 11
1.0
 21
0.0
 31
0.0
  0
ENDBLK
  5
75
  8
0
  0
BLOCK
  8
0
  2
_OPEN30
 70
     0
 10
0.0
 20
0.0
 30
0.0
  3
_OPEN30
  1

  0
LINE
  5
31A
  8
0
 62
     0
 10
-1.0
 20
0.26794919
 30
0.0
 11
0.0
 21
0.0
 31
0.0
  0
LINE
  5
31B
  8
0
 62
     0
 10
0.0
 20
0.0
 30
0.0
 11
-1.0
 21
-0.26794919
 31
0.0
  0
LINE
  5
31C
  8
0
 62
     0
 10
0.0
 20
0.0
 30
0.0
 11
-1.0
 21
0.0
 31
0.0
  0
ENDBLK
  5
31E
  8
0
  0
BLOCK
  8
0
  2
_NONE
 70
     0
 10
0.0
 20
0.0
 30
0.0
  3
_NONE
  1

  0
ENDBLK
  5
579
  8
0
  0
BLOCK
  8
0
  2
*U5
 70
     1
 10
0.0
 20
0.0
 30
0.0
  3
*U5
  1

  0
TEXT
  5
7975
  8
AM_0
 10
575.83034987744486
 20
511.4276349726432
 30
0.0
 40
10.0
  1
ＶＸ０４－０４０～０５０ＢＦＷ
 41
0.8299999999999999
  0
ENDBLK
  5
7977
  8
0
  0
BLOCK
  8
0
  2
_ACMFILLEDHALF
 70
     0
 10
0.0
 20
0.0
 30
0.0
  3
_ACMFILLEDHALF
  1

  0
TRACE
  5
7B68
  8
AM_0
 62
     0
 10
-0.8
 20
0.0
 30
0.0
 11
-1.0
 21
0.166666666
 31
0.0
 12
0.0
 22
0.0
 32
0.0
 13
0.0
 23
0.0
 33
0.0
  0
LINE
  5
7B69
  8
AM_0
 62
     0
 10
-1.0
 20
0.0
 30
0.0
 11
-0.8
 21
0.0
 31
0.0
  0
ENDBLK
  5
7B67
  8
0
  0
ENDSEC
  0
SECTION
  2
ENTITIES
  0
LINE
  5
4BB5
  8
AM_0
 10
407.869062933225
 20
258.96444968497377
 30
0.0
 11
407.869062933225
 21
255.9644496849738
 31
0.0
  0
LINE
  5
4BB6
  8
AM_0
 10
407.869062933225
 20
258.96444968497377
 30
0.0
 11
439.86910293322478
 21
258.96444968497377
 31
0.0
  0
LINE
  5
4BB7
  8
AM_0
 10
405.86905293322479
 20
227.96443268497379
 30
0.0
 11
439.86910293322478
 21
227.96443268497379
 31
0.0
  0
LINE
  5
4BB8
  8
AM_0
 10
405.86905293322468
 20
255.9644496849738
 30
0.0
 11
439.86910293322478
 21
255.9644496849738
 31
0.0
  0
LINE
  5
4BB9
  8
AM_0
 10
439.86910293322478
 20
258.96444968497377
 30
0.0
 11
439.86910293322478
 21
227.96443268497379
 31
0.0
  0
LINE
  5
4BBA
  8
AM_0
 10
662.02419187847147
 20
258.96444968497133
 30
0.0
 11
670.02417787847128
 21
258.96444968497133
 31
0.0
  0
LINE
  5
4BBB
  8
AM_0
 10
662.02419187847147
 20
251.96442968497141
 30
0.0
 11
670.02417787847128
 21
251.96442968497141
 31
0.0
  0
LINE
  5
4BBC
  8
AM_0
 10
670.02417787847128
 20
251.96442968497141
 30
0.0
 11
670.02417787847128
 21
258.96444968497133
 31
0.0
  0
LINE
  5
4BBD
  8
AM_0
 10
662.02419187847147
 20
251.96442968497141
 30
0.0
 11
662.02419187847147
 21
258.96444968497133
 31
0.0
  0
CIRCLE
  5
4BBE
  8
AM_5
 10
666.02419387847135
 20
241.96440368497139
 30
0.0
 40
4.0000001999999979
  0
ARC
  5
4BBF
  8
AM_0
 10
666.02419387847135
 20
241.96440368497139
 30
0.0
 40
14.000001299999999
 50
106.60154000000141
 51
73.398451999997818
  0
CIRCLE
  5
4BC0
  8
AM_0
 10
666.02419387847135
 20
241.96440368497139
 30
0.0
 40
3.0
  0
ARC
  5
6B86
  8
AM_0
 10
666.02419387847021
 20
317.46441768497391
 30
0.0
 40
9.9999999999999964
 50
71.80507261330871
 51
90.0
  0
ARC
  5
6B87
  8
AM_0
 10
666.02419387847021
 20
317.46441768497391
 30
0.0
 40
10.0
 50
90.0
 51
108.19492738669121
  0
LINE
  5
6B88
  8
ﾁｭｳｼﾝｾﾝ1
 10
155.88560576764951
 20
236.9643501849738
 30
0.0
 11
193.86909293322509
 21
236.9643501849738
 31
0.0
  0
LINE
  5
6B89
  8
AM_0
 10
141.36910293322501
 20
279.40679649678231
 30
0.0
 11
141.36910293322501
 21
203.6828512775549
 31
0.0
  0
LINE
  5
6B8A
  8
AM_0
 10
141.36910293322501
 20
197.5247742639101
 30
0.0
 11
141.36910293322501
 21
164.52194117076101
 31
0.0
  0
LINE
  5
6B8B
  8
AM_0
 10
185.86909293322509
 20
175.6143561849737
 30
0.0
 11
150.869082933225
 21
177.64435718497359
 31
0.0
  0
LINE
  5
6B8C
  8
AM_0
 10
185.86909293322509
 20
268.31436518497372
 30
0.0
 11
150.869082933225
 21
266.28435518497372
 31
0.0
  0
LINE
  5
6B8D
  8
AM_0
 10
141.36910293322501
 20
164.52194117076101
 30
0.0
 11
143.68909293322511
 21
164.46434618497369
 31
0.0
  0
LINE
  5
6B8E
  8
AM_0
 10
288.86914293322508
 20
158.46436118497371
 30
0.0
 11
295.86910293322501
 21
158.46436118497371
 31
0.0
  0
LINE
  5
6B8F
  8
AM_0
 10
288.86914293322508
 20
169.92435518497371
 30
0.0
 11
295.86910293322501
 21
169.92435518497371
 31
0.0
  0
LINE
  5
6B90
  8
AM_0
 10
185.86909293322509
 20
175.6143561849737
 30
0.0
 11
287.86909293322498
 21
175.6143561849737
 31
0.0
  0
LINE
  5
6B91
  8
AM_0
 10
287.57911293322519
 20
170.93435018497371
 30
0.0
 11
285.16915293322512
 21
170.93435018497371
 31
0.0
  0
LINE
  5
6B92
  8
AM_0
 10
284.66908293322501
 20
163.04435018497361
 30
0.0
 11
286.10908293322512
 21
169.74434618497381
 31
0.0
  0
LINE
  5
6B93
  8
AM_0
 10
282.5791029332251
 20
161.46436418497359
 30
0.0
 11
287.86909293322498
 21
161.46436418497359
 31
0.0
  0
LINE
  5
6B94
  8
AM_0
 10
145.5490929332251
 20
188.59433918497359
 30
0.0
 11
188.86909293322509
 21
188.59433918497359
 31
0.0
  0
LINE
  5
6B95
  8
AM_0
 10
188.86909293322509
 20
185.9643471849738
 30
0.0
 11
146.41915293322501
 21
185.9643471849738
 31
0.0
  0
LINE
  5
6B96
  8
AM_0
 10
145.5490929332251
 20
185.24436218497371
 30
0.0
 11
188.86909293322509
 21
185.24436218497371
 31
0.0
  0
LINE
  5
6B97
  8
AM_0
 10
141.36910293322501
 20
187.6643451849736
 30
0.0
 11
144.03913293322509
 21
187.6643451849736
 31
0.0
  0
LINE
  5
6B98
  8
AM_0
 10
147.03913293322509
 20
163.7043531849738
 30
0.0
 11
160.36909293322509
 21
163.7043531849738
 31
0.0
  0
LINE
  5
6B99
  8
AM_0
 10
163.86910293322501
 20
160.1043471849737
 30
0.0
 11
280.67908293322512
 21
160.1043471849737
 31
0.0
  0
LINE
  5
6B9A
  8
AM_0
 10
146.9790729332251
 20
158.66435918497359
 30
0.0
 11
160.4790729332251
 21
158.66435918497359
 31
0.0
  0
LINE
  5
6B9B
  8
AM_0
 10
147.09913293322501
 20
168.98433818497361
 30
0.0
 11
160.36909293322509
 21
168.98433818497361
 31
0.0
  0
LINE
  5
6B9C
  8
AM_0
 10
144.58906293322511
 20
173.61435818497361
 30
0.0
 11
145.12909293322511
 21
170.62435118497359
 31
0.0
  0
LINE
  5
6B9D
  8
AM_0
 10
141.36910293322501
 20
173.61434318497371
 30
0.0
 11
150.86914293322511
 21
173.61434318497371
 31
0.0
  0
LINE
  5
6B9E
  8
AM_0
 10
150.86914293322511
 20
173.61434318497371
 30
0.0
 11
150.86914293322511
 21
187.6643451849736
 31
0.0
  0
LINE
  5
6B9F
  8
AM_0
 10
282.60907293322498
 20
161.58435818497381
 30
0.0
 11
286.06909293322508
 21
174.50435618497369
 31
0.0
  0
LINE
  5
6BA0
  8
AM_0
 10
145.03906293322521
 20
160.17435518497371
 30
0.0
 11
144.14905293322511
 21
163.71434618497369
 31
0.0
  0
LINE
  5
6BA1
  8
AM_0
 10
145.05910293322501
 20
161.83435718497381
 30
0.0
 11
144.13906293322509
 21
165.7143621849736
 31
0.0
  0
LINE
  5
6BA2
  8
AM_0
 10
218.86909293322509
 20
158.05434518497361
 30
0.0
 11
218.86909293322509
 21
160.1043471849737
 31
0.0
  0
LINE
  5
6BA3
  8
AM_0
 10
161.86909293322509
 20
160.07436218497361
 30
0.0
 11
161.86909293322509
 21
167.48433518497359
 31
0.0
  0
LINE
  5
6BA4
  8
AM_0
 10
142.69909293322519
 20
164.84435318497381
 30
0.0
 11
144.34912293322481
 21
164.84435318497381
 31
0.0
  0
LINE
  5
6BA5
  8
AM_0
 10
185.86909293322509
 20
268.3143351849738
 30
0.0
 11
287.86909293322498
 21
268.3143351849738
 31
0.0
  0
LINE
  5
6BA6
  8
AM_0
 10
287.86909293322498
 20
284.46435518497378
 30
0.0
 11
287.86909293322498
 21
159.46434818497369
 31
0.0
  0
LINE
  5
6BA7
  8
AM_0
 10
288.86914293322508
 20
285.46434518497381
 30
0.0
 11
295.86910293322501
 21
285.46434518497381
 31
0.0
  0
LINE
  5
6BA8
  8
AM_0
 10
287.86909293322498
 20
259.11434318497368
 30
0.0
 11
295.86910293322501
 21
259.11434318497368
 31
0.0
  0
LINE
  5
6BA9
  8
AM_0
 10
288.86914293322508
 20
274.00431518497362
 30
0.0
 11
295.86910293322501
 21
274.00431518497362
 31
0.0
  0
LINE
  5
6BAA
  8
AM_0
 10
287.86909293322498
 20
184.81435418497381
 30
0.0
 11
295.86910293322501
 21
184.81435418497381
 31
0.0
  0
LINE
  5
6BAB
  8
AM_0
 10
141.36910293322501
 20
279.40679649678208
 30
0.0
 11
143.68903293322509
 21
279.46437518497368
 31
0.0
  0
LINE
  5
6BAC
  8
AM_0
 10
150.86914293322511
 20
270.31434518497372
 30
0.0
 11
150.86914293322511
 21
256.27434818497358
 31
0.0
  0
LINE
  5
6BAD
  8
AM_0
 10
141.36910293322501
 20
256.27434818497358
 30
0.0
 11
150.86914293322511
 21
256.27434818497358
 31
0.0
  0
LINE
  5
6BAE
  8
AM_0
 10
141.36910293322501
 20
264.65436518497381
 30
0.0
 11
150.86914293322511
 21
264.65436518497381
 31
0.0
  0
LINE
  5
6BAF
  8
AM_0
 10
141.36910293322501
 20
270.31434518497372
 30
0.0
 11
150.86914293322511
 21
270.31434518497372
 31
0.0
  0
LINE
  5
6BB0
  8
AM_0
 10
166.1607712665573
 20
207.96436418497359
 30
0.0
 11
146.41915293322501
 21
207.96436418497379
 31
0.0
  0
LINE
  5
6BB1
  8
AM_0
 10
163.86910293322501
 20
283.82436518497371
 30
0.0
 11
280.67908293322512
 21
283.82436518497371
 31
0.0
  0
LINE
  5
6BB2
  8
AM_0
 10
147.09913293322501
 20
274.94436518497378
 30
0.0
 11
160.36909293322509
 21
274.94436518497378
 31
0.0
  0
LINE
  5
6BB3
  8
AM_0
 10
144.5891229332251
 20
270.31437518497358
 30
0.0
 11
145.12909293322511
 21
273.30438518497363
 31
0.0
  0
LINE
  5
6BB4
  8
AM_0
 10
147.03913293322509
 20
280.23432518497373
 30
0.0
 11
160.36909293322509
 21
280.23432518497373
 31
0.0
  0
LINE
  5
6BB5
  8
AM_0
 10
147.00910293322511
 20
283.63434518497371
 30
0.0
 11
160.36909293322509
 21
283.63434518497371
 31
0.0
  0
LINE
  5
6BB6
  8
AM_0
 10
146.9790729332251
 20
285.26433518497367
 30
0.0
 11
160.4790729332251
 21
285.26433518497367
 31
0.0
  0
LINE
  5
6BB7
  8
AM_0
 10
163.86910293322501
 20
287.88435518497357
 30
0.0
 11
216.86914293322511
 21
287.88435518497357
 31
0.0
  0
LINE
  5
6BB8
  8
AM_0
 10
163.86910293322501
 20
287.20434518497382
 30
0.0
 11
216.86914293322511
 21
287.20434518497382
 31
0.0
  0
LINE
  5
6BB9
  8
AM_0
 10
163.86910293322501
 20
285.85437518497378
 30
0.0
 11
216.86914293322511
 21
285.85437518497378
 31
0.0
  0
LINE
  5
6BBA
  8
AM_0
 10
142.65907293322499
 20
273.0043551849738
 30
0.0
 11
145.06909293322499
 21
273.0043551849738
 31
0.0
  0
LINE
  5
6BBB
  8
AM_0
 10
145.079052933225
 20
278.65437518497379
 30
0.0
 11
144.1190229332251
 21
274.18437518497382
 31
0.0
  0
LINE
  5
6BBC
  8
AM_0
 10
142.67908293322509
 20
277.0643451849736
 30
0.0
 11
144.739152933225
 21
277.0643451849736
 31
0.0
  0
LINE
  5
6BBD
  8
AM_0
 10
188.86909293322509
 20
257.96435018497391
 30
0.0
 11
155.41915293322501
 21
257.96435018497368
 31
0.0
  0
LINE
  5
6BBE
  8
AM_0
 10
188.86909293322509
 20
255.9643491849738
 30
0.0
 11
155.41915293322501
 21
255.9643491849738
 31
0.0
  0
LINE
  5
6BBF
  8
AM_0
 10
162.47042303687931
 20
247.96435118497359
 30
0.0
 11
155.41884613155941
 21
247.96435118497359
 31
0.0
  0
LINE
  5
6BC0
  8
AM_0
 10
145.05910293322501
 20
282.09435518497372
 30
0.0
 11
144.139122933225
 21
278.21436518497381
 31
0.0
  0
LINE
  5
6BC1
  8
AM_0
 10
160.07042183687921
 20
245.96435018497371
 30
0.0
 11
155.41915293322501
 21
245.96435018497371
 31
0.0
  0
LINE
  5
6BC2
  8
AM_0
 10
142.69909293322519
 20
279.08433518497372
 30
0.0
 11
144.34912293322481
 21
279.08433518497372
 31
0.0
  0
LINE
  5
6BC3
  8
AM_0
 10
145.03906293322521
 20
283.75434518497377
 30
0.0
 11
144.14905293322511
 21
280.22436518497369
 31
0.0
  0
LINE
  5
6BC4
  8
AM_0
 10
159.4704218368791
 20
237.9643491849738
 30
0.0
 11
146.41915293322501
 21
237.9643491849738
 31
0.0
  0
LINE
  5
6BC5
  8
AM_0
 10
161.86909293322509
 20
283.85433518497371
 30
0.0
 11
161.86909293322509
 21
276.44436518497378
 31
0.0
  0
LINE
  5
6BC6
  8
AM_0
 10
159.4704218368791
 20
235.96435118497379
 30
0.0
 11
146.41915293322501
 21
235.96435118497379
 31
0.0
  0
LINE
  5
6BC7
  8
AM_0
 10
160.07042183687881
 20
227.9643501849738
 30
0.0
 11
146.41915293322501
 21
227.9643501849738
 31
0.0
  0
LINE
  5
6BC8
  8
AM_0
 10
218.86909293322509
 20
285.8843451849736
 30
0.0
 11
218.86909293322509
 21
283.82436518497371
 31
0.0
  0
LINE
  5
6BC9
  8
AM_0
 10
162.8324717720611
 20
225.96434918497371
 30
0.0
 11
146.41915293322501
 21
225.96434918497371
 31
0.0
  0
LINE
  5
6BCA
  8
AM_0
 10
282.60907293322498
 20
282.34434518497369
 30
0.0
 11
286.06909293322508
 21
269.42436518497368
 31
0.0
  0
LINE
  5
6BCB
  8
AM_0
 10
282.5791029332251
 20
282.46434518497381
 30
0.0
 11
287.86909293322498
 21
282.46434518497381
 31
0.0
  0
LINE
  5
6BCC
  8
AM_0
 10
287.57911293322519
 20
273.0043551849738
 30
0.0
 11
285.16915293322512
 21
273.0043551849738
 31
0.0
  0
LINE
  5
6BCD
  8
AM_0
 10
284.66914293322509
 20
280.88436518497377
 30
0.0
 11
286.10914293322497
 21
274.18437518497382
 31
0.0
  0
LINE
  5
6BCE
  8
AM_0
 10
163.86910293322501
 20
156.0443481849737
 30
0.0
 11
216.86914293322511
 21
156.0443481849737
 31
0.0
  0
LINE
  5
6BCF
  8
AM_0
 10
147.00910293322511
 20
160.2943641849738
 30
0.0
 11
160.36909293322509
 21
160.2943641849738
 31
0.0
  0
LINE
  5
6BD0
  8
AM_0
 10
141.36910293322501
 20
179.27434418497359
 30
0.0
 11
150.86914293322511
 21
179.27434418497359
 31
0.0
  0
LINE
  5
6BD1
  8
AM_0
 10
163.86910293322501
 20
156.72435818497371
 30
0.0
 11
216.86914293322511
 21
156.72435818497371
 31
0.0
  0
LINE
  5
6BD2
  8
AM_0
 10
142.67908293322509
 20
166.8643401849738
 30
0.0
 11
144.739152933225
 21
166.8643401849738
 31
0.0
  0
LINE
  5
6BD3
  8
AM_0
 10
142.65907293322499
 20
170.93435018497371
 30
0.0
 11
145.06909293322499
 21
170.93435018497371
 31
0.0
  0
LINE
  5
6BD4
  8
AM_0
 10
145.0791129332251
 20
165.28435418497361
 30
0.0
 11
144.119082933225
 21
169.74434618497381
 31
0.0
  0
LINE
  5
6BD5
  8
AM_0
 10
163.86910293322501
 20
158.07434918497361
 30
0.0
 11
216.86914293322511
 21
158.07434918497361
 31
0.0
  0
LINE
  5
6BD6
  8
AM_0
 10
145.32910293322499
 20
195.4743441849738
 30
0.0
 11
166.5690979332241
 21
195.47434418497369
 31
0.0
  0
LINE
  5
6BD7
  8
AM_0
 10
188.86909293322509
 20
187.96434818497369
 30
0.0
 11
146.85913293322511
 21
187.96434818497369
 31
0.0
  0
LINE
  5
6BD8
  8
AM_0
 10
154.5490929332251
 20
258.6843501849736
 30
0.0
 11
188.86909293322509
 21
258.6843501849736
 31
0.0
  0
LINE
  5
6BD9
  8
AM_0
 10
154.5490929332251
 20
255.33434618497381
 30
0.0
 11
188.86909293322509
 21
255.33434618497381
 31
0.0
  0
LINE
  5
6BDA
  8
AM_0
 10
154.32910293322499
 20
248.4543411849738
 30
0.0
 11
169.9704218368791
 21
248.4543411849738
 31
0.0
  0
LINE
  5
6BDB
  8
AM_0
 10
172.47042183687901
 20
248.4543411849738
 30
0.0
 11
179.86909293322509
 21
248.4543411849738
 31
0.0
  0
LINE
  5
6BDC
  8
AM_0
 10
154.32910293322499
 20
245.52434618497361
 30
0.0
 11
159.62140820716559
 21
245.52434618497361
 31
0.0
  0
LINE
  5
6BDD
  8
AM_0
 10
145.19911293322511
 20
238.30434518497361
 30
0.0
 11
159.4704218368791
 21
238.30434518497361
 31
0.0
  0
LINE
  5
6BDE
  8
AM_0
 10
145.19911293322511
 20
235.64434118497371
 30
0.0
 11
159.4704218368791
 21
235.64434118497371
 31
0.0
  0
LINE
  5
6BDF
  8
AM_0
 10
145.13911293322499
 20
228.23433818497369
 30
0.0
 11
159.74643623687871
 21
228.23433818497369
 31
0.0
  0
LINE
  5
6BE0
  8
AM_0
 10
145.13911293322499
 20
225.7043391849738
 30
0.0
 11
169.9704218368791
 21
225.7043391849738
 31
0.0
  0
LINE
  5
6BE1
  8
AM_0
 10
145.13911293322499
 20
218.2343541849738
 30
0.0
 11
187.86909293322509
 21
218.2343541849738
 31
0.0
  0
LINE
  5
6BE2
  8
AM_0
 10
187.86909293322509
 20
215.96435018497371
 30
0.0
 11
146.41915293322501
 21
215.96435018497371
 31
0.0
  0
LINE
  5
6BE3
  8
AM_0
 10
187.86909293322509
 20
217.96434818497369
 30
0.0
 11
146.41915293322501
 21
217.96434818497369
 31
0.0
  0
LINE
  5
6BE4
  8
AM_0
 10
145.19911293322511
 20
208.28435618497369
 30
0.0
 11
166.42743126655679
 21
208.28435618497369
 31
0.0
  0
LINE
  5
6BE5
  8
AM_0
 10
160.86909293322509
 20
205.96434818497369
 30
0.0
 11
146.41915293322501
 21
205.96434818497369
 31
0.0
  0
LINE
  5
6BE6
  8
AM_0
 10
145.19911293322511
 20
205.62433718497371
 30
0.0
 11
160.86909293322509
 21
205.62433718497371
 31
0.0
  0
LINE
  5
6BE7
  8
AM_0
 10
160.86909293322501
 20
197.9643471849738
 30
0.0
 11
146.41915293322501
 21
197.9643471849738
 31
0.0
  0
LINE
  5
6BE8
  8
AM_0
 10
145.32910293322499
 20
198.40435118497371
 30
0.0
 11
160.86909293322509
 21
198.40435118497371
 31
0.0
  0
LINE
  5
6BE9
  8
AM_0
 10
166.16074793322491
 20
195.96436418497359
 30
0.0
 11
146.41915293322501
 21
195.96436418497359
 31
0.0
  0
LINE
  5
6BEA
  8
AM_0
 10
145.13911293322499
 20
215.69435918497371
 30
0.0
 11
187.86909293322509
 21
215.69435918497371
 31
0.0
  0
ARC
  5
6BEB
  8
AM_0
 10
154.0097829332251
 20
180.74523218497359
 30
0.0
 40
1.00423602
 50
314.93783000000229
 51
5.6649239000007681
  0
ARC
  5
6BEC
  8
AM_0
 10
288.86932293322508
 20
159.46453118497371
 30
0.0
 40
1.0001800499999991
 50
180.01030999999901
 51
269.98967999999991
  0
ARC
  5
6BED
  8
AM_0
 10
280.67377293322511
 20
162.10973318497369
 30
0.0
 40
2.0053919100000002
 50
270.15274999999968
 51
344.81207000000018
  0
ARC
  5
6BEE
  8
AM_0
 10
288.86860293322519
 20
170.92382018497369
 30
0.0
 40
0.99947604
 50
179.97008999999869
 51
270.02992000000029
  0
ARC
  5
6BEF
  8
AM_0
 10
147.09016293322509
 20
272.95191518497381
 30
0.0
 40
1.9924480200000001
 50
89.742107999997444
 51
169.81178999999909
  0
ARC
  5
6BF0
  8
AM_0
 10
147.03394293322509
 20
278.23506518497368
 30
0.0
 40
1.9992880199999981
 50
89.851815000002887
 51
167.89433000000241
  0
ARC
  5
6BF1
  8
AM_0
 10
142.65340293322501
 20
274.50456518497373
 30
0.0
 40
1.5002480099999991
 50
270.21661999999759
 51
347.67500000000092
  0
ARC
  5
6BF2
  8
AM_0
 10
147.0011829332251
 20
281.63982518497369
 30
0.0
 40
1.9945160699999991
 50
89.771334999999539
 51
166.82804000000101
  0
ARC
  5
6BF3
  8
AM_0
 10
142.677552933225
 20
278.56815518497359
 30
0.0
 40
1.5037760099999991
 50
270.05983999999802
 51
346.3931299999972
  0
ARC
  5
6BF4
  8
AM_0
 10
142.6903929332251
 20
280.58754518497381
 30
0.0
 40
1.503232049999998
 50
270.33131999999961
 51
346.01802999999978
  0
ARC
  5
6BF5
  8
AM_0
 10
146.97565293322509
 20
283.26753518497361
 30
0.0
 40
1.996816109999999
 50
89.901436000000672
 51
165.8894099999998
  0
ARC
  5
6BF6
  8
AM_0
 10
163.86451293322509
 20
281.82897518497367
 30
0.0
 40
1.9953641399999991
 50
89.86675900000246
 51
180.13323000000119
  0
ARC
  5
6BF7
  8
AM_0
 10
163.86529293322499
 20
283.85814518497358
 30
0.0
 40
1.99618809
 50
89.890487000003006
 51
180.10951000000031
  0
ARC
  5
6BF8
  8
AM_0
 10
163.8626829332251
 20
285.2108151849738
 30
0.0
 40
1.993556189999999
 50
89.814515000000938
 51
180.1854899999997
  0
ARC
  5
6BF9
  8
AM_0
 10
163.8646329332251
 20
285.88560518497371
 30
0.0
 40
1.998724049999999
 50
89.871136999999536
 51
165.5509599999977
  0
ARC
  5
6BFA
  8
AM_0
 10
160.36243293322511
 20
276.45105518497371
 30
0.0
 40
1.5066999599999991
 50
270.25416000000098
 51
359.74583999999908
  0
ARC
  5
6BFB
  8
AM_0
 10
160.3662729332251
 20
281.73717518497369
 30
0.0
 40
1.5028360199999991
 50
270.10793999999891
 51
359.89206000000121
  0
ARC
  5
6BFC
  8
AM_0
 10
160.36426293322521
 20
285.13920518497372
 30
0.0
 40
1.5048719999999991
 50
270.1851800000012
 51
359.81481999999869
  0
ARC
  5
6BFD
  8
AM_0
 10
160.475712933225
 20
286.76736518497381
 30
0.0
 40
1.50301605
 50
270.12944999999672
 51
345.2365400000013
  0
ARC
  5
6BFE
  8
AM_0
 10
216.8681829332252
 20
283.85340518497378
 30
0.0
 40
2.0009239199999991
 50
0.0264629989995744
 51
89.973535999999072
  0
ARC
  5
6BFF
  8
AM_0
 10
216.87079293322509
 20
285.20604518497362
 30
0.0
 40
1.9982920200000001
 50
359.95103000000051
 51
90.048974999995266
  0
ARC
  5
6C00
  8
AM_0
 10
216.86731293322509
 20
285.88254518497371
 30
0.0
 40
2.0018279999999979
 50
0.0523009999990686
 51
89.947697000000545
  0
ARC
  5
6C01
  8
AM_0
 10
287.51935293322498
 20
269.81673518497382
 30
0.0
 40
1.50239199
 50
195.14001000000141
 51
269.99063999999998
  0
ARC
  5
6C02
  8
AM_0
 10
280.6786629332251
 20
281.82537518497378
 30
0.0
 40
1.99898796
 50
15.04780099999898
 51
89.987372999998755
  0
ARC
  5
6C03
  8
AM_0
 10
288.8641629332252
 20
284.46930518497368
 30
0.0
 40
0.9950640599999999
 50
89.714938000000444
 51
180.28506000000129
  0
ARC
  5
6C04
  8
AM_0
 10
288.86347293322518
 20
273.00996518497368
 30
0.0
 40
0.99440004
 50
89.676491000000041
 51
180.32351000000091
  0
ARC
  5
6C05
  8
AM_0
 10
287.57497293322518
 20
274.50480518497369
 30
0.0
 40
1.5004760399999979
 50
192.3322299999987
 51
270.15827999999971
  0
ARC
  5
6C06
  8
AM_0
 10
282.71656293322508
 20
280.46787518497382
 30
0.0
 40
1.9964880300000001
 50
12.04087499999966
 51
89.926441000002598
  0
ARC
  5
6C07
  8
AM_0
 10
150.02740293322501
 20
263.5571541849738
 30
0.0
 40
5.004112499999998
 50
279.68356999999992
 51
354.57834000000122
  0
ARC
  5
6C08
  8
AM_0
 10
150.48988293322509
 20
259.63143518497372
 30
0.0
 40
6.0049157999999991
 50
45.227307000001929
 51
86.379093999999739
  0
ARC
  5
6C09
  8
AM_0
 10
154.01308293322501
 20
263.18462618497369
 30
0.0
 40
1.001108069999999
 50
354.25024999999869
 51
45.14699399999617
  0
ARC
  5
6C0A
  8
AM_0
 10
282.71155293322522
 20
163.46695718497361
 30
0.0
 40
2.0026238699999981
 50
270.21534000000469
 51
347.8173399999996
  0
ARC
  5
6C0B
  8
AM_0
 10
287.576172933225
 20
169.4350341849738
 30
0.0
 40
1.499328059999999
 50
89.888151000000079
 51
168.0938400000021
  0
ARC
  5
6C0C
  8
AM_0
 10
150.49909293322511
 20
184.31153018497369
 30
0.0
 40
6.0085923000000001
 50
273.5309499999961
 51
314.61477999999761
  0
ARC
  5
6C0D
  8
AM_0
 10
150.03247293322499
 20
180.37627418497371
 30
0.0
 40
4.9985837999999987
 50
5.3731199000009289
 51
80.364976000003551
  0
ARC
  5
6C0E
  8
AM_0
 10
147.0951729332248
 20
170.98277918497371
 30
0.0
 40
1.998444029999999
 50
190.33240000000021
 51
270.11369000000047
  0
ARC
  5
6C0F
  8
AM_0
 10
147.03400293322511
 20
165.70372718497379
 30
0.0
 40
1.9993920899999991
 50
192.10804000000181
 51
270.14581999999967
  0
ARC
  5
6C10
  8
AM_0
 10
142.65223293322509
 20
169.43526518497359
 30
0.0
 40
1.499099999999999
 50
11.89856000000028
 51
89.736657999997206
  0
ARC
  5
6C11
  8
AM_0
 10
147.00610293322501
 20
162.29511218497359
 30
0.0
 40
2.0007560699999991
 50
193.314160000002
 51
270.0864499999966
  0
ARC
  5
6C12
  8
AM_0
 10
142.68250293322509
 20
165.36684518497361
 30
0.0
 40
1.497512039999999
 50
13.41823299999986
 51
90.128792999998822
  0
ARC
  5
6C13
  8
AM_0
 10
142.696902933225
 20
163.34622818497371
 30
0.0
 40
1.498128089999998
 50
14.224575000000939
 51
89.916113999998927
  0
ARC
  5
6C14
  8
AM_0
 10
146.98060293322499
 20
160.6674891849737
 30
0.0
 40
2.0031319199999991
 50
194.2515899999988
 51
269.9575499999994
  0
ARC
  5
6C15
  8
AM_0
 10
163.8695829332251
 20
162.10478918497361
 30
0.0
 40
2.000452109999999
 50
180.01290000000029
 51
269.98709999999971
  0
ARC
  5
6C16
  8
AM_0
 10
163.87042293322509
 20
160.0756611849738
 30
0.0
 40
2.0013120899999981
 50
180.03755999999879
 51
269.9624399999978
  0
ARC
  5
6C17
  8
AM_0
 10
163.86775293322501
 20
158.72296718497361
 30
0.0
 40
1.9986199799999991
 50
179.96046999999851
 51
270.03953000000138
  0
ARC
  5
6C18
  8
AM_0
 10
163.86304293322519
 20
158.0544051849738
 30
0.0
 40
2.0000761200000001
 50
194.77498000000031
 51
270.17352999999531
  0
ARC
  5
6C19
  8
AM_0
 10
160.36756293322509
 20
167.48278118497359
 30
0.0
 40
1.5015680099999991
 50
0.0598050030010001
 51
89.940197000002485
  0
ARC
  5
6C1A
  8
AM_0
 10
160.36639293322509
 20
162.20163818497369
 30
0.0
 40
1.50271599
 50
0.1034359999993118
 51
89.896566000000206
  0
ARC
  5
6C1B
  8
AM_0
 10
160.36939293322521
 20
158.79459218497371
 30
0.0
 40
1.49975601
 50
359.99059000000068
 51
90.009407999996412
  0
ARC
  5
6C1C
  8
AM_0
 10
160.4806629332252
 20
157.16770118497379
 30
0.0
 40
1.49664405
 50
14.57573999999874
 51
90.058277999998381
  0
ARC
  5
6C1D
  8
AM_0
 10
216.8631129332251
 20
160.08037418497369
 30
0.0
 40
2.0060480100000002
 50
270.17248999999549
 51
359.82751000000133
  0
ARC
  5
6C1E
  8
AM_0
 10
216.8657229332251
 20
158.72771318497371
 30
0.0
 40
2.0033560499999989
 50
270.09594000000141
 51
359.90405999999848
  0
ARC
  5
6C1F
  8
AM_0
 10
216.867192933225
 20
158.05623518497359
 30
0.0
 40
2.0019000299999989
 50
270.05437999999742
 51
359.94561999999922
  0
ARC
  5
6C20
  8
AM_0
 10
287.51449293322509
 20
174.11837018497371
 30
0.0
 40
1.49599605
 50
89.821706999999776
 51
165.04766000000009
  0
ARC
  5
6C21
  8
AM_0
 10
162.86434293322509
 20
256.96435118497368
 30
0.0
 40
1.000011959999999
 50
89.726507999996457
 51
270.27347999999972
  0
ARC
  5
6C22
  8
AM_0
 10
145.133322933225
 20
226.96935518497381
 30
0.0
 40
1.26501207
 50
89.737716000001527
 51
270.26227999999639
  0
ARC
  5
6C23
  8
AM_0
 10
145.19911293322511
 20
236.9743581849736
 30
0.0
 40
1.330008059999999
 50
90.00000299999769
 51
270.0
  0
ARC
  5
6C24
  8
AM_0
 10
154.32910293322499
 20
246.9893451849737
 30
0.0
 40
1.465004009999999
 50
90.00000299999769
 51
270.0
  0
ARC
  5
6C25
  8
AM_0
 10
154.54225293322509
 20
257.00933318497368
 30
0.0
 40
1.6750160999999979
 50
89.766540000003914
 51
270.23345999999611
  0
ARC
  5
6C26
  8
AM_0
 10
146.41915293322501
 20
226.96434818497369
 30
0.0
 40
1.0000000199999981
 50
90.00000299999769
 51
270.0
  0
ARC
  5
6C27
  8
AM_0
 10
146.41915293322501
 20
236.96435018497371
 30
0.0
 40
1.0000000199999981
 50
90.00000299999769
 51
270.0
  0
ARC
  5
6C28
  8
AM_0
 10
155.414382933225
 20
256.96435118497368
 30
0.0
 40
1.000011959999999
 50
89.728448000002629
 51
270.27153999999558
  0
ARC
  5
6C29
  8
AM_0
 10
155.414382933225
 20
246.9643491849738
 30
0.0
 40
1.000011959999999
 50
89.728448000002629
 51
270.27153999999558
  0
ARC
  5
6C2A
  8
AM_0
 10
284.68909293322508
 20
257.00933318497368
 30
0.0
 40
1.675004159999999
 50
276.16905573844627
 51
83.830944261553654
  0
ARC
  5
6C2B
  8
AM_0
 10
284.68909293322508
 20
186.9193641849738
 30
0.0
 40
1.675004159999999
 50
276.16905573845293
 51
83.83094426154706
  0
ARC
  5
6C2C
  8
AM_0
 10
146.41915293322501
 20
216.96436418497379
 30
0.0
 40
1.0000000199999981
 50
90.00000299999769
 51
270.0
  0
ARC
  5
6C2D
  8
AM_0
 10
162.86434293322509
 20
206.96435018497371
 30
0.0
 40
1.000011959999999
 50
89.726507999996457
 51
227.40544825727639
  0
ARC
  5
6C2E
  8
AM_0
 10
162.86434293322509
 20
196.9643481849736
 30
0.0
 40
1.000011959999999
 50
132.59438434211839
 51
270.27347999999972
  0
ARC
  5
6C2F
  8
AM_0
 10
145.19911293322511
 20
206.95435418497371
 30
0.0
 40
1.330008059999999
 50
90.00000299999769
 51
270.0
  0
ARC
  5
6C30
  8
AM_0
 10
145.32910293322499
 20
196.93935518497381
 30
0.0
 40
1.465004009999999
 50
90.00000299999769
 51
270.0
  0
ARC
  5
6C31
  8
AM_0
 10
146.414382933225
 20
186.9643641849737
 30
0.0
 40
1.000011959999999
 50
89.728461999997137
 51
270.27153999999558
  0
ARC
  5
6C32
  8
AM_0
 10
162.86434293322509
 20
186.9643641849737
 30
0.0
 40
1.000011959999999
 50
89.726507999996457
 51
270.27347999999972
  0
ARC
  5
6C33
  8
AM_0
 10
145.133322933225
 20
216.96436418497379
 30
0.0
 40
1.2700120500000001
 50
89.738748000000555
 51
270.26124000000118
  0
ARC
  5
6C34
  8
AM_0
 10
145.54225293322509
 20
186.9193641849738
 30
0.0
 40
1.6750160999999979
 50
89.764983000003838
 51
270.23500999999908
  0
ARC
  5
6C35
  8
AM_0
 10
146.41915293322501
 20
206.96435018497371
 30
0.0
 40
1.0000000199999981
 50
90.00000299999769
 51
270.0
  0
ARC
  5
6C36
  8
AM_0
 10
146.414382933225
 20
196.9643481849736
 30
0.0
 40
1.000011959999999
 50
89.728461999997137
 51
270.27153999999558
  0
LINE
  5
6C37
  8
ﾁｭｳｼﾝｾﾝ
 10
236.8690929332252
 20
272.96435018497391
 30
0.0
 11
236.8690929332252
 21
170.9643501849738
 31
0.0
  0
LINE
  5
6C38
  8
AM_0
 10
280.86909293322532
 20
175.9643501849738
 30
0.0
 11
192.86909293322509
 21
175.9643501849738
 31
0.0
  0
ARC
  5
6C39
  8
AM_0
 10
210.94016074509059
 20
180.9643501849738
 30
0.0
 40
5.0
 50
225.0
 51
270.0
1001
GENIUS_GENOBJ-N-FIL_13
1002
{
1000
OWNER
1000
GEN
1002
}
1001
GENIUS_GENODEF_13
1002
{
1000
HIER
1070
     0
1002
}
1002
{
1000
MANEDIT
1070
     0
1002
}
1002
{
1000
NOSEL
1070
     0
1002
}
1002
{
1000
BEHIND
1070
     0
1002
}
1002
{
1000
OTHER
1070
     0
1002
}
1002
{
1000
REACTOR
1002
}
  0
LINE
  5
6C3A
  8
AM_0
 10
262.14117087186747
 20
180.9643501849738
 30
0.0
 11
211.59701499458279
 21
180.9643501849738
 31
0.0
  0
ARC
  5
6C3B
  8
AM_0
 10
262.14117087186747
 20
185.9643501849738
 30
0.0
 40
5.0
 50
270.0
 51
315.0
1001
GENIUS_GENOBJ-N-FIL_13
1002
{
1000
OWNER
1000
GEN
1002
}
1001
GENIUS_GENODEF_13
1002
{
1000
HIER
1070
     0
1002
}
1002
{
1000
MANEDIT
1070
     0
1002
}
1002
{
1000
NOSEL
1070
     0
1002
}
1002
{
1000
BEHIND
1070
     0
1002
}
1002
{
1000
OTHER
1070
     0
1002
}
1002
{
1000
REACTOR
1002
}
  0
ARC
  5
6C3C
  8
AM_0
 10
280.86909293322532
 20
179.9643501849738
 30
0.0
 40
4.0
 50
270.0
 51
0.0
1001
GENIUS_GENOBJ-N-FIL_13
1002
{
1000
OWNER
1000
GEN
1002
}
1001
GENIUS_GENODEF_13
1002
{
1000
HIER
1070
     0
1002
}
1002
{
1000
MANEDIT
1070
     0
1002
}
1002
{
1000
NOSEL
1070
     0
1002
}
1002
{
1000
BEHIND
1070
     0
1002
}
1002
{
1000
OTHER
1070
     0
1002
}
1002
{
1000
REACTOR
1002
}
  0
LINE
  5
6C3D
  8
AM_0
 10
280.86909293322498
 20
267.96435018497391
 30
0.0
 11
192.86909293322509
 21
267.96435018497391
 31
0.0
  0
ARC
  5
6C3E
  8
AM_0
 10
262.79802512135961
 20
262.96435018497402
 30
0.0
 40
5.0
 50
45.0
 51
90.0
1001
GENIUS_GENOBJ-N-FIL_13
1002
{
1000
OWNER
1000
GEN
1002
}
1001
GENIUS_GENODEF_13
1002
{
1000
HIER
1070
     0
1002
}
1002
{
1000
MANEDIT
1070
     0
1002
}
1002
{
1000
NOSEL
1070
     0
1002
}
1002
{
1000
BEHIND
1070
     0
1002
}
1002
{
1000
OTHER
1070
     0
1002
}
1002
{
1000
REACTOR
1002
}
  0
ARC
  5
6C3F
  8
AM_0
 10
210.94016074509079
 20
262.96435018497402
 30
0.0
 40
5.0
 50
90.0
 51
135.0
1001
GENIUS_GENODEF_13
1002
{
1000
HIER
1070
     0
1002
}
1002
{
1000
MANEDIT
1070
     0
1002
}
1002
{
1000
NOSEL
1070
     0
1002
}
1002
{
1000
BEHIND
1070
     0
1002
}
1002
{
1000
OTHER
1070
     0
1002
}
1002
{
1000
REACTOR
1002
}
1001
GENIUS_GENOBJ-N-FIL_13
1002
{
1000
OWNER
1000
GEN
1002
}
  0
LINE
  5
6C40
  8
AM_0
 10
262.1411708718673
 20
262.96435018497402
 30
0.0
 11
211.59701499458299
 21
262.96435018497402
 31
0.0
  0
ARC
  5
6C41
  8
AM_0
 10
211.59701499458299
 20
257.96435018497402
 30
0.0
 40
5.0
 50
90.0
 51
135.0
1001
GENIUS_GENODEF_13
1002
{
1000
HIER
1070
     0
1002
}
1002
{
1000
MANEDIT
1070
     0
1002
}
1002
{
1000
NOSEL
1070
     0
1002
}
1002
{
1000
BEHIND
1070
     0
1002
}
1002
{
1000
OTHER
1070
     0
1002
}
1002
{
1000
REACTOR
1002
}
1001
GENIUS_GENOBJ-N-FIL_13
1002
{
1000
OWNER
1000
GEN
1002
}
  0
ARC
  5
6C42
  8
AM_0
 10
192.86909293322509
 20
263.96435018497391
 30
0.0
 40
4.0
 50
90.0
 51
180.0
1001
GENIUS_GENODEF_13
1002
{
1000
HIER
1070
     0
1002
}
1002
{
1000
MANEDIT
1070
     0
1002
}
1002
{
1000
NOSEL
1070
     0
1002
}
1002
{
1000
BEHIND
1070
     0
1002
}
1002
{
1000
OTHER
1070
     0
1002
}
1002
{
1000
REACTOR
1002
}
1001
GENIUS_GENOBJ-N-FIL_13
1002
{
1000
OWNER
1000
GEN
1002
}
  0
LINE
  5
6C43
  8
AM_0
 10
188.86909293322509
 20
263.96435018497391
 30
0.0
 11
188.86909293322509
 21
179.9643501849738
 31
0.0
  0
ARC
  5
6C44
  8
AM_0
 10
193.86909293322509
 20
198.0354179968391
 30
0.0
 40
5.0
 50
180.0
 51
225.0
1001
GENIUS_GENOBJ-N-FIL_13
1002
{
1000
OWNER
1000
GEN
1002
}
1001
GENIUS_GENODEF_13
1002
{
1000
HIER
1070
     0
1002
}
1002
{
1000
MANEDIT
1070
     0
1002
}
1002
{
1000
NOSEL
1070
     0
1002
}
1002
{
1000
BEHIND
1070
     0
1002
}
1002
{
1000
OTHER
1070
     0
1002
}
1002
{
1000
REACTOR
1002
}
  0
ARC
  5
6C45
  8
AM_0
 10
193.86909293322509
 20
245.89328237310869
 30
0.0
 40
5.0
 50
135.0
 51
180.0
1001
GENIUS_GENOBJ-N-FIL_13
1002
{
1000
OWNER
1000
GEN
1002
}
1001
GENIUS_GENODEF_13
1002
{
1000
HIER
1070
     0
1002
}
1002
{
1000
MANEDIT
1070
     0
1002
}
1002
{
1000
NOSEL
1070
     0
1002
}
1002
{
1000
BEHIND
1070
     0
1002
}
1002
{
1000
OTHER
1070
     0
1002
}
1002
{
1000
REACTOR
1002
}
  0
LINE
  5
6C46
  8
AM_0
 10
193.86909293322509
 20
245.23642812361609
 30
0.0
 11
193.86909293322489
 21
198.69227224633141
 31
0.0
  0
ARC
  5
6C47
  8
AM_0
 10
198.86909293322501
 20
198.69227224633141
 30
0.0
 40
5.0
 50
180.0
 51
225.0
1001
GENIUS_GENOBJ-N-FIL_13
1002
{
1000
OWNER
1000
GEN
1002
}
1001
GENIUS_GENODEF_13
1002
{
1000
HIER
1070
     0
1002
}
1002
{
1000
MANEDIT
1070
     0
1002
}
1002
{
1000
NOSEL
1070
     0
1002
}
1002
{
1000
BEHIND
1070
     0
1002
}
1002
{
1000
OTHER
1070
     0
1002
}
1002
{
1000
REACTOR
1002
}
  0
ARC
  5
6C48
  8
AM_0
 10
192.86909293322509
 20
179.9643501849738
 30
0.0
 40
4.0
 50
180.0
 51
270.0
1001
GENIUS_GENODEF_13
1002
{
1000
HIER
1070
     0
1002
}
1002
{
1000
MANEDIT
1070
     0
1002
}
1002
{
1000
NOSEL
1070
     0
1002
}
1002
{
1000
BEHIND
1070
     0
1002
}
1002
{
1000
OTHER
1070
     0
1002
}
1002
{
1000
REACTOR
1002
}
1001
GENIUS_GENOBJ-N-FIL_13
1002
{
1000
OWNER
1000
GEN
1002
}
  0
LINE
  5
6C49
  8
AM_0
 10
284.86909293322498
 20
263.96435018497391
 30
0.0
 11
284.86909293322532
 21
179.9643501849738
 31
0.0
  0
ARC
  5
6C4A
  8
AM_0
 10
279.86909293322532
 20
245.89328237310849
 30
0.0
 40
5.0
 50
0.0
 51
45.0
1001
GENIUS_GENOBJ-N-FIL_13
1002
{
1000
OWNER
1000
GEN
1002
}
1001
GENIUS_GENODEF_13
1002
{
1000
HIER
1070
     0
1002
}
1002
{
1000
MANEDIT
1070
     0
1002
}
1002
{
1000
NOSEL
1070
     0
1002
}
1002
{
1000
BEHIND
1070
     0
1002
}
1002
{
1000
OTHER
1070
     0
1002
}
1002
{
1000
REACTOR
1002
}
  0
ARC
  5
6C4B
  8
AM_0
 10
279.86909293322532
 20
198.0354179968393
 30
0.0
 40
5.0
 50
315.0
 51
0.0
1001
GENIUS_GENOBJ-N-FIL_13
1002
{
1000
OWNER
1000
GEN
1002
}
1001
GENIUS_GENODEF_13
1002
{
1000
HIER
1070
     0
1002
}
1002
{
1000
MANEDIT
1070
     0
1002
}
1002
{
1000
NOSEL
1070
     0
1002
}
1002
{
1000
BEHIND
1070
     0
1002
}
1002
{
1000
OTHER
1070
     0
1002
}
1002
{
1000
REACTOR
1002
}
  0
LINE
  5
6C4C
  8
AM_0
 10
266.33355902729238
 20
266.49988409090668
 30
0.0
 11
283.40462683915803
 21
249.42881627904131
 31
0.0
  0
LINE
  5
6C4D
  8
AM_0
 10
265.67670477780001
 20
261.49988409090668
 30
0.0
 11
278.40462683915769
 21
248.77196202954909
 31
0.0
  0
ARC
  5
6C4E
  8
AM_0
 10
262.1411708718673
 20
257.96435018497402
 30
0.0
 40
5.0
 50
45.0
 51
90.0
1001
GENIUS_GENOBJ-N-FIL_13
1002
{
1000
OWNER
1000
GEN
1002
}
1001
GENIUS_GENODEF_13
1002
{
1000
HIER
1070
     0
1002
}
1002
{
1000
MANEDIT
1070
     0
1002
}
1002
{
1000
NOSEL
1070
     0
1002
}
1002
{
1000
BEHIND
1070
     0
1002
}
1002
{
1000
OTHER
1070
     0
1002
}
1002
{
1000
REACTOR
1002
}
  0
LINE
  5
6C4F
  8
AM_0
 10
279.86909293322498
 20
245.23642812361629
 30
0.0
 11
279.86909293322532
 21
198.69227224633141
 31
0.0
  0
ARC
  5
6C50
  8
AM_0
 10
274.86909293322509
 20
245.23642812361629
 30
0.0
 40
5.0
 50
0.0
 51
45.0
1001
GENIUS_GENODEF_13
1002
{
1000
HIER
1070
     0
1002
}
1002
{
1000
MANEDIT
1070
     0
1002
}
1002
{
1000
NOSEL
1070
     0
1002
}
1002
{
1000
BEHIND
1070
     0
1002
}
1002
{
1000
OTHER
1070
     0
1002
}
1002
{
1000
REACTOR
1002
}
1001
GENIUS_GENOBJ-N-FIL_13
1002
{
1000
OWNER
1000
GEN
1002
}
  0
ARC
  5
6C51
  8
AM_0
 10
280.86909293322498
 20
263.96435018497391
 30
0.0
 40
4.0
 50
0.0
 51
90.0
1001
GENIUS_GENODEF_13
1002
{
1000
HIER
1070
     0
1002
}
1002
{
1000
MANEDIT
1070
     0
1002
}
1002
{
1000
NOSEL
1070
     0
1002
}
1002
{
1000
BEHIND
1070
     0
1002
}
1002
{
1000
OTHER
1070
     0
1002
}
1002
{
1000
REACTOR
1002
}
1001
GENIUS_GENOBJ-N-FIL_13
1002
{
1000
OWNER
1000
GEN
1002
}
  0
LINE
  5
6C52
  8
ﾁｭｳｼﾝｾﾝ1
 10
279.86909293322663
 20
256.96435018497363
 30
0.0
 11
279.86909293322731
 21
268.96435018497363
 31
0.0
  0
LINE
  5
6C53
  8
ﾁｭｳｼﾝｾﾝ1
 10
285.86909293322691
 20
262.96435018497328
 30
0.0
 11
273.86909293322702
 21
262.96435018497402
 31
0.0
  0
LINE
  5
6C54
  8
AM_0
 10
185.36909293322509
 20
250.46435018497399
 30
0.0
 11
187.86909293322501
 21
250.46435018497411
 31
0.0
  0
LINE
  5
6C55
  8
AM_0
 10
187.86909293322509
 20
223.46435018497399
 30
0.0
 11
185.36909293322509
 21
223.46435018497399
 31
0.0
  0
LINE
  5
6C56
  8
AM_0
 10
174.47042183687901
 20
226.46435018497399
 30
0.0
 11
174.47042183687901
 21
247.46435018497399
 31
0.0
  0
LINE
  5
6C57
  8
AM_0
 10
159.4704218368791
 20
244.99597523898899
 30
0.0
 11
159.4704218368791
 21
228.932725130958
 31
0.0
  0
LINE
  5
6C58
  8
AM_0
 10
172.47042183687901
 20
224.96435018497399
 30
0.0
 11
172.47042183687901
 21
248.96435018497399
 31
0.0
  0
LINE
  5
6C59
  8
AM_0
 10
162.9704218368791
 20
236.96435018497399
 30
0.0
 11
163.4704218368791
 21
236.46435018497399
 31
0.0
  0
LINE
  5
6C5A
  8
AM_0
 10
169.9704218368791
 20
248.6643501849739
 30
0.0
 11
169.9704218368791
 21
225.26435018497401
 31
0.0
  0
LINE
  5
6C5B
  8
AM_0
 10
179.86909293322509
 20
248.46435018497399
 30
0.0
 11
179.86909293322509
 21
225.46435018497399
 31
0.0
  0
LINE
  5
6C5C
  8
AM_0
 10
173.9704218368791
 20
236.2643501849721
 30
0.0
 11
173.9704218368791
 21
237.66435018497501
 31
0.0
  0
LINE
  5
6C5D
  8
AM_0
 10
176.07005756345009
 20
227.864350184974
 30
0.0
 11
175.32005756345109
 21
246.0643501849741
 31
0.0
  0
LINE
  5
6C5E
  8
AM_0
 10
175.11909293322509
 20
227.864350184974
 30
0.0
 11
174.47042183687901
 21
243.60543545629
 31
0.0
  0
LINE
  5
6C5F
  8
AM_0
 10
175.8677855237971
 20
227.14869147261001
 30
0.0
 11
175.12052548038909
 21
246.77672194614109
 31
0.0
  0
LINE
  5
6C60
  8
AM_0
 10
175.31862501628709
 20
227.15197842380601
 30
0.0
 11
174.57005756345109
 21
246.8143501849739
 31
0.0
  0
LINE
  5
6C61
  8
AM_0
 10
172.47042183687901
 20
248.96435018497399
 30
0.0
 11
170.27042183687911
 21
248.96435018497399
 31
0.0
  0
ARC
  5
6C62
  8
AM_0
 10
184.3690929332252
 20
249.46435018497399
 30
0.0
 40
0.5
 50
269.99999999998693
 51
0.0
  0
ARC
  5
6C63
  8
AM_0
 10
185.3690929332252
 20
249.96435018497399
 30
0.0
 40
0.5
 50
90.0
 51
180.0
  0
LINE
  5
6C64
  8
AM_0
 10
184.86909293322509
 20
249.46435018497399
 30
0.0
 11
184.86909293322509
 21
249.96435018497399
 31
0.0
  0
LINE
  5
6C65
  8
AM_0
 10
175.86909293322509
 20
246.0643501849741
 30
0.0
 11
179.36909293322509
 21
246.0643501849739
 31
0.0
  0
LINE
  5
6C66
  8
AM_0
 10
184.86909293322509
 20
247.820421506381
 30
0.0
 11
184.86909293322509
 21
238.108278863566
 31
0.0
  0
LINE
  5
6C67
  8
AM_0
 10
180.36909293322509
 20
248.96435018497399
 30
0.0
 11
184.36909293322501
 21
248.96435018497399
 31
0.0
  0
LINE
  5
6C68
  8
AM_0
 10
184.36909293322509
 20
248.320421506381
 30
0.0
 11
179.86909293322509
 21
248.320421506381
 31
0.0
  0
ARC
  5
6C69
  8
AM_0
 10
184.3690929332252
 20
247.820421506381
 30
0.0
 40
0.5
 50
0.0
 51
90.0
  0
ARC
  5
6C6A
  8
AM_0
 10
179.36909293322509
 20
246.56435018497399
 30
0.0
 40
0.5
 50
270.0
 51
0.0
  0
ARC
  5
6C6B
  8
AM_0
 10
180.36909293322509
 20
248.46435018497399
 30
0.0
 40
0.5
 50
90.0
 51
180.0
  0
LINE
  5
6C6C
  8
AM_0
 10
184.36909293322509
 20
237.608278863566
 30
0.0
 11
179.86909293322509
 21
237.608278863566
 31
0.0
  0
ARC
  5
6C6D
  8
AM_0
 10
184.36909293322509
 20
238.108278863566
 30
0.0
 40
0.5
 50
270.0
 51
0.0
  0
LINE
  5
6C6E
  8
AM_0
 10
173.9704218368791
 20
243.10952093726601
 30
0.0
 11
173.9704218368791
 21
241.937277750833
 31
0.0
  0
LINE
  5
6C6F
  8
AM_0
 10
175.39678999187601
 20
246.0643501849741
 30
0.0
 11
175.86909293322509
 21
246.0643501849741
 31
0.0
  0
LINE
  5
6C70
  8
AM_0
 10
175.3001974973368
 20
246.1384679517106
 30
0.0
 11
175.32005756345109
 21
246.0643501849741
 31
0.0
  0
ARC
  5
6C71
  8
AM_0
 10
175.3967899918762
 20
246.16435018497401
 30
0.0
 40
0.1000000000000346
 50
195.00019500644621
 51
270.0
  0
ARC
  5
6C72
  8
AM_0
 10
173.6704218368792
 20
246.25118316548199
 30
0.0
 40
0.3000000000000043
 50
270.0
 51
0.0
  0
LINE
  5
6C73
  8
AM_0
 10
172.47042183687901
 20
248.364350184974
 30
0.0
 11
173.6903775400362
 21
248.28301980476309
 31
0.0
  0
LINE
  5
6C74
  8
AM_0
 10
172.47042183687901
 20
247.208098149134
 30
0.0
 11
173.6704218368792
 21
247.208098149134
 31
0.0
  0
LINE
  5
6C75
  8
AM_0
 10
173.9704218368791
 20
247.96435018497399
 30
0.0
 11
172.47042183687901
 21
247.96435018497399
 31
0.0
  0
ARC
  5
6C76
  8
AM_0
 10
173.9704218368791
 20
247.46435018497399
 30
0.0
 40
0.5
 50
0.0
 51
90.0
  0
LINE
  5
6C77
  8
AM_0
 10
173.9704218368791
 20
247.983684257406
 30
0.0
 11
173.9704218368791
 21
247.96435018497399
 31
0.0
  0
ARC
  5
6C78
  8
AM_0
 10
173.6704218368792
 20
247.983684257406
 30
0.0
 40
0.3000000000000007
 50
0.0
 51
86.185925165718459
  0
LINE
  5
6C79
  8
AM_0
 10
175.0423605048
 20
246.8143501849739
 30
0.0
 11
175.1190929332262
 21
246.8143501849739
 31
0.0
  0
LINE
  5
6C7A
  8
AM_0
 10
175.1190929332262
 20
246.8143501849739
 30
0.0
 11
175.13895299933921
 21
246.7402324182375
 31
0.0
  0
LINE
  5
6C7B
  8
AM_0
 10
174.55019749733711
 20
246.7402324182375
 30
0.0
 11
174.57005756345109
 21
246.8143501849739
 31
0.0
  0
LINE
  5
6C7C
  8
AM_0
 10
174.57005756345109
 20
246.8143501849739
 30
0.0
 11
174.64678999187601
 21
246.8143501849739
 31
0.0
  0
LINE
  5
6C7D
  8
AM_0
 10
175.13895299933921
 20
246.7402324182375
 30
0.0
 11
175.3001974973368
 21
246.1384679517106
 31
0.0
  0
LINE
  5
6C7E
  8
AM_0
 10
174.64678999187601
 20
246.8143501849739
 30
0.0
 11
175.0423605048
 21
246.8143501849739
 31
0.0
  0
LINE
  5
6C7F
  8
AM_0
 10
174.47042183688001
 20
246.442509653413
 30
0.0
 11
174.55019749733711
 21
246.7402324182375
 31
0.0
  0
ARC
  5
6C80
  8
AM_0
 10
175.04236050480009
 20
246.71435018497399
 30
0.0
 40
0.0999999999999866
 50
15.00019500657419
 51
90.0
  0
ARC
  5
6C81
  8
AM_0
 10
174.64678999187609
 20
246.71435018497399
 30
0.0
 40
0.1000000000000014
 50
90.0
 51
164.99980499342581
  0
LINE
  5
6C82
  8
AM_0
 10
173.9704218368791
 20
246.90809814913391
 30
0.0
 11
173.9704218368791
 21
246.25118316548199
 31
0.0
  0
ARC
  5
6C83
  8
AM_0
 10
173.6704218368792
 20
246.90809814913391
 30
0.0
 40
0.3000000000000007
 50
0.0
 51
90.0
  0
LINE
  5
6C84
  8
AM_0
 10
172.47042183687901
 20
243.40952093726611
 30
0.0
 11
173.6704218368792
 21
243.40952093726611
 31
0.0
  0
LINE
  5
6C85
  8
AM_0
 10
173.6704218368792
 20
245.95118316548201
 30
0.0
 11
172.47042183687901
 21
245.95118316548201
 31
0.0
  0
LINE
  5
6C86
  8
AM_0
 10
175.32005756345109
 20
246.0643501849741
 30
0.0
 11
175.39678999187601
 21
246.0643501849741
 31
0.0
  0
ARC
  5
6C87
  8
AM_0
 10
173.6704218368792
 20
243.10952093726601
 30
0.0
 40
0.3000000000000007
 50
0.0
 51
90.0
  0
LINE
  5
6C88
  8
AM_0
 10
173.6704218368792
 20
241.63727775083311
 30
0.0
 11
172.47042183687901
 21
241.63727775083311
 31
0.0
  0
ARC
  5
6C89
  8
AM_0
 10
173.6704218368792
 20
241.937277750833
 30
0.0
 40
0.3000000000000043
 50
270.0
 51
0.0
  0
LINE
  5
6C8A
  8
AM_0
 10
173.6704218368792
 20
237.96435018497499
 30
0.0
 11
172.47042183687901
 21
237.96435018497499
 31
0.0
  0
ARC
  5
6C8B
  8
AM_0
 10
173.6704218368792
 20
237.66435018497501
 30
0.0
 40
0.3000000000000007
 50
0.0
 51
90.0
  0
LINE
  5
6C8C
  8
AM_0
 10
163.4704218368791
 20
247.09763001362089
 30
0.0
 11
169.9704218368791
 21
247.09763001362089
 31
0.0
  0
LINE
  5
6C8D
  8
AM_0
 10
163.4704218368791
 20
247.59763001362089
 30
0.0
 11
169.9704218368791
 21
247.59763001362089
 31
0.0
  0
LINE
  5
6C8E
  8
AM_0
 10
169.9704218368791
 20
237.46435018497399
 30
0.0
 11
163.4704218368791
 21
237.46435018497399
 31
0.0
  0
LINE
  5
6C8F
  8
AM_0
 10
162.9704218368791
 20
237.96435018497399
 30
0.0
 11
169.9704218368791
 21
237.96435018497399
 31
0.0
  0
LINE
  5
6C90
  8
AM_0
 10
169.6704218368792
 20
247.96435018497399
 30
0.0
 11
162.8324717720611
 21
247.96435018497399
 31
0.0
  0
LINE
  5
6C91
  8
AM_0
 10
169.9704218368791
 20
238.31103825351499
 30
0.0
 11
163.4704218368791
 21
238.31103825351499
 31
0.0
  0
LINE
  5
6C92
  8
AM_0
 10
169.9704218368791
 20
246.61766211643311
 30
0.0
 11
163.4704218368791
 21
246.61766211643311
 31
0.0
  0
ARC
  5
6C93
  8
AM_0
 10
170.27042183687911
 20
248.6643501849739
 30
0.0
 40
0.2999999999999971
 50
90.0
 51
180.0
  0
ARC
  5
6C94
  8
AM_0
 10
169.6704218368792
 20
248.26435018497401
 30
0.0
 40
0.2999999999999971
 50
270.0
 51
0.0
  0
ARC
  5
6C95
  8
AM_0
 10
171.5954218368791
 20
242.46435018497399
 30
0.0
 40
9.124999999999984
 50
152.92493329272071
 51
207.07506670727921
  0
LINE
  5
6C96
  8
AM_0
 10
162.19228737239661
 20
247.73257146457149
 30
0.0
 11
159.83023743721461
 21
245.76419651858649
 31
0.0
  0
LINE
  5
6C97
  8
AM_0
 10
162.9704218368791
 20
247.38591760146599
 30
0.0
 11
163.4704218368791
 21
247.96435018497399
 31
0.0
  0
ARC
  5
6C98
  8
AM_0
 10
162.8324717720611
 20
246.96435018497399
 30
0.0
 40
1.0
 50
90.0
 51
129.80557109225549
  0
LINE
  5
6C99
  8
AM_0
 10
163.4704218368791
 20
247.59763001362089
 30
0.0
 11
162.9704218368791
 21
247.38591760146599
 31
0.0
  0
LINE
  5
6C9A
  8
AM_0
 10
162.9704218368791
 20
246.92364232849499
 30
0.0
 11
163.4704218368791
 21
247.59763001362089
 31
0.0
  0
LINE
  5
6C9B
  8
AM_0
 10
163.4704218368791
 20
247.09763001362089
 30
0.0
 11
162.9704218368791
 21
246.92364232849499
 31
0.0
  0
LINE
  5
6C9C
  8
AM_0
 10
162.9704218368791
 20
246.38591760146591
 30
0.0
 11
163.4704218368791
 21
247.09763001362089
 31
0.0
  0
LINE
  5
6C9D
  8
AM_0
 10
163.4704218368791
 20
246.61766211643311
 30
0.0
 11
162.9704218368791
 21
246.38591760146591
 31
0.0
  0
ARC
  5
6C9E
  8
AM_0
 10
160.4704218368791
 20
244.99597523898899
 30
0.0
 40
1.0000000000000291
 50
129.80557109226461
 51
180.0
  0
LINE
  5
6C9F
  8
AM_0
 10
163.4704218368791
 20
237.46435018497399
 30
0.0
 11
162.9704218368791
 21
236.96435018497399
 31
0.0
  0
LINE
  5
6CA0
  8
AM_0
 10
162.9704218368791
 20
237.96435018497399
 30
0.0
 11
163.4704218368791
 21
237.46435018497399
 31
0.0
  0
LINE
  5
6CA1
  8
AM_0
 10
163.4704218368791
 20
238.31103825351499
 30
0.0
 11
162.9704218368791
 21
237.96435018497399
 31
0.0
  0
LINE
  5
6CA2
  8
AM_0
 10
170.27042183687911
 20
224.96435018497399
 30
0.0
 11
172.47042183687901
 21
224.96435018497399
 31
0.0
  0
ARC
  5
6CA3
  8
AM_0
 10
184.36909293322509
 20
224.46435018497399
 30
0.0
 40
0.5
 50
0.0
 51
90.000000000006537
  0
LINE
  5
6CA4
  8
AM_0
 10
179.36909293322509
 20
227.864350184974
 30
0.0
 11
176.14678999187601
 21
227.864350184974
 31
0.0
  0
LINE
  5
6CA5
  8
AM_0
 10
184.86909293322509
 20
235.820421506381
 30
0.0
 11
184.86909293322509
 21
226.10827886356591
 31
0.0
  0
LINE
  5
6CA6
  8
AM_0
 10
179.86909293322509
 20
236.32042150638091
 30
0.0
 11
184.36909293322509
 21
236.32042150638091
 31
0.0
  0
ARC
  5
6CA7
  8
AM_0
 10
184.36909293322509
 20
235.820421506381
 30
0.0
 40
0.5
 50
0.0
 51
90.0
  0
LINE
  5
6CA8
  8
AM_0
 10
179.86909293322509
 20
225.608278863566
 30
0.0
 11
184.36909293322509
 21
225.608278863566
 31
0.0
  0
LINE
  5
6CA9
  8
AM_0
 10
184.36909293322501
 20
224.96435018497399
 30
0.0
 11
180.36909293322509
 21
224.96435018497399
 31
0.0
  0
ARC
  5
6CAA
  8
AM_0
 10
184.36909293322509
 20
226.10827886356591
 30
0.0
 40
0.5
 50
270.0
 51
0.0
  0
ARC
  5
6CAB
  8
AM_0
 10
179.36909293322509
 20
227.364350184974
 30
0.0
 40
0.5
 50
0.0
 51
90.0
  0
ARC
  5
6CAC
  8
AM_0
 10
180.36909293322509
 20
225.46435018497399
 30
0.0
 40
0.5
 50
180.0
 51
270.0
  0
ARC
  5
6CAD
  8
AM_0
 10
173.6704218368792
 20
230.81917943268201
 30
0.0
 40
0.3000000000000114
 50
270.0
 51
0.0
  0
LINE
  5
6CAE
  8
AM_0
 10
172.47042183687901
 20
235.96435018497201
 30
0.0
 11
173.6704218368792
 21
235.96435018497201
 31
0.0
  0
ARC
  5
6CAF
  8
AM_0
 10
173.6704218368792
 20
236.2643501849719
 30
0.0
 40
0.2999999999999971
 50
270.0
 51
0.0
  0
LINE
  5
6CB0
  8
AM_0
 10
172.47042183687901
 20
232.291422619115
 30
0.0
 11
173.6704218368792
 21
232.291422619115
 31
0.0
  0
ARC
  5
6CB1
  8
AM_0
 10
173.6704218368792
 20
231.9914226191149
 30
0.0
 40
0.3000000000000007
 50
0.0
 51
90.0
  0
LINE
  5
6CB2
  8
AM_0
 10
173.9704218368791
 20
231.99142261911501
 30
0.0
 11
173.9704218368791
 21
230.81917943268209
 31
0.0
  0
LINE
  5
6CB3
  8
AM_0
 10
175.39678999187601
 20
227.114350184974
 30
0.0
 11
175.7923605048
 21
227.114350184974
 31
0.0
  0
LINE
  5
6CB4
  8
AM_0
 10
175.39678999187601
 20
227.114350184974
 30
0.0
 11
175.7923605048
 21
227.114350184974
 31
0.0
  0
LINE
  5
6CB5
  8
AM_0
 10
175.88895299933921
 20
227.18846795171061
 30
0.0
 11
176.05019749733711
 21
227.79023241823759
 31
0.0
  0
LINE
  5
6CB6
  8
AM_0
 10
175.88895299933921
 20
227.18846795171061
 30
0.0
 11
176.05019749733711
 21
227.79023241823759
 31
0.0
  0
ARC
  5
6CB7
  8
AM_0
 10
176.14678999187601
 20
227.76435018497401
 30
0.0
 40
0.0999999999999943
 50
90.0
 51
164.99980499348811
  0
ARC
  5
6CB8
  8
AM_0
 10
175.7923605048
 20
227.21435018497399
 30
0.0
 40
0.0999999999999943
 50
270.0
 51
344.99980499349448
  0
LINE
  5
6CB9
  8
AM_0
 10
174.469575248338
 20
227.4893501849738
 30
0.0
 11
174.55019749733711
 21
227.79023241823759
 31
0.0
  0
LINE
  5
6CBA
  8
AM_0
 10
175.12180358543111
 20
227.8250856518759
 30
0.0
 11
175.300197497337
 21
227.18846795171061
 31
0.0
  0
LINE
  5
6CBB
  8
AM_0
 10
175.13895299933921
 20
227.79023241823759
 30
0.0
 11
175.300197497337
 21
227.18846795171061
 31
0.0
  0
LINE
  5
6CBC
  8
AM_0
 10
173.9704218368791
 20
227.67751720446509
 30
0.0
 11
173.9704218368791
 21
227.020602220814
 31
0.0
  0
LINE
  5
6CBD
  8
AM_0
 10
174.47042183687901
 20
227.4925096534119
 30
0.0
 11
174.55019749733711
 21
227.79023241823759
 31
0.0
  0
LINE
  5
6CBE
  8
AM_0
 10
172.47042183687901
 20
227.9775172044649
 30
0.0
 11
173.6704218368792
 21
227.9775172044649
 31
0.0
  0
LINE
  5
6CBF
  8
AM_0
 10
173.6704218368792
 20
230.51917943268199
 30
0.0
 11
172.47042183687901
 21
230.519179432681
 31
0.0
  0
LINE
  5
6CC0
  8
AM_0
 10
175.07499277031511
 20
227.864350184974
 30
0.0
 11
175.12180358543111
 21
227.8250856518759
 31
0.0
  0
LINE
  5
6CC1
  8
AM_0
 10
174.64678999187601
 20
227.864350184974
 30
0.0
 11
175.07499277031511
 21
227.864350184974
 31
0.0
  0
LINE
  5
6CC2
  8
AM_0
 10
174.64678999187601
 20
227.864350184974
 30
0.0
 11
175.0423605048
 21
227.864350184974
 31
0.0
  0
ARC
  5
6CC3
  8
AM_0
 10
174.64678999187601
 20
227.76435018497401
 30
0.0
 40
0.0999999999999943
 50
90.0
 51
164.99980499348811
  0
ARC
  5
6CC4
  8
AM_0
 10
175.0423605048
 20
227.76435018497401
 30
0.0
 40
0.0999999999999608
 50
15.000195006510941
 51
90.0
  0
ARC
  5
6CC5
  8
AM_0
 10
173.6704218368792
 20
227.67751720446481
 30
0.0
 40
0.3000000000000007
 50
0.0
 51
90.0
  0
LINE
  5
6CC6
  8
AM_0
 10
172.47042183687901
 20
225.96435018497399
 30
0.0
 11
173.9704218368791
 21
225.96435018497399
 31
0.0
  0
LINE
  5
6CC7
  8
AM_0
 10
173.6704218368792
 20
226.72060222081399
 30
0.0
 11
172.47042183687901
 21
226.72060222081399
 31
0.0
  0
LINE
  5
6CC8
  8
AM_0
 10
173.6903775400362
 20
225.64568056518399
 30
0.0
 11
172.47042183687901
 21
225.56435018497399
 31
0.0
  0
ARC
  5
6CC9
  8
AM_0
 10
173.9704218368791
 20
226.46435018497399
 30
0.0
 40
0.5
 50
270.0
 51
0.0
  0
ARC
  5
6CCA
  8
AM_0
 10
175.39678999187601
 20
227.21435018497399
 30
0.0
 40
0.0999999999999606
 50
195.00019500650541
 51
270.0
  0
ARC
  5
6CCB
  8
AM_0
 10
173.6704218368792
 20
227.020602220814
 30
0.0
 40
0.2999999999999971
 50
270.0
 51
0.0
  0
LINE
  5
6CCC
  8
AM_0
 10
173.9704218368791
 20
225.96435018497399
 30
0.0
 11
173.9704218368791
 21
225.945016112541
 31
0.0
  0
ARC
  5
6CCD
  8
AM_0
 10
173.6704218368792
 20
225.945016112541
 30
0.0
 40
0.3000000000000043
 50
273.81407483428148
 51
0.0
  0
ARC
  5
6CCE
  8
AM_0
 10
185.36909293322509
 20
223.96435018497399
 30
0.0
 40
0.5
 50
180.0
 51
270.0
  0
LINE
  5
6CCF
  8
AM_0
 10
184.86909293322509
 20
223.96435018497399
 30
0.0
 11
184.86909293322509
 21
224.46435018497399
 31
0.0
  0
LINE
  5
6CD0
  8
AM_0
 10
163.4704218368791
 20
227.31103825351499
 30
0.0
 11
169.9704218368791
 21
227.31103825351499
 31
0.0
  0
LINE
  5
6CD1
  8
AM_0
 10
163.4704218368791
 20
235.61766211643319
 30
0.0
 11
169.9704218368791
 21
235.61766211643319
 31
0.0
  0
LINE
  5
6CD2
  8
AM_0
 10
162.8324717720611
 20
225.96435018497399
 30
0.0
 11
169.6704218368792
 21
225.96435018497399
 31
0.0
  0
LINE
  5
6CD3
  8
AM_0
 10
169.9704218368791
 20
235.96435018497399
 30
0.0
 11
162.9704218368791
 21
235.96435018497399
 31
0.0
  0
LINE
  5
6CD4
  8
AM_0
 10
163.4704218368791
 20
236.46435018497399
 30
0.0
 11
169.9704218368791
 21
236.46435018497399
 31
0.0
  0
LINE
  5
6CD5
  8
AM_0
 10
169.9704218368791
 20
226.33107035632599
 30
0.0
 11
163.4704218368791
 21
226.33107035632599
 31
0.0
  0
LINE
  5
6CD6
  8
AM_0
 10
169.9704218368791
 20
226.83107035632599
 30
0.0
 11
163.4704218368791
 21
226.83107035632599
 31
0.0
  0
ARC
  5
6CD7
  8
AM_0
 10
169.6704218368792
 20
225.6643501849739
 30
0.0
 40
0.3000000000000043
 50
0.0
 51
90.0
  0
ARC
  5
6CD8
  8
AM_0
 10
170.27042183687911
 20
225.26435018497401
 30
0.0
 40
0.2999999999999971
 50
180.0
 51
270.0
  0
ARC
  5
6CD9
  8
AM_0
 10
171.5954218368791
 20
231.46435018497399
 30
0.0
 40
9.124999999999984
 50
152.92493329272071
 51
207.07506670727921
  0
LINE
  5
6CDA
  8
AM_0
 10
162.9704218368791
 20
235.96435018497399
 30
0.0
 11
163.4704218368791
 21
235.61766211643319
 31
0.0
  0
LINE
  5
6CDB
  8
AM_0
 10
163.4704218368791
 20
236.46435018497399
 30
0.0
 11
162.9704218368791
 21
235.96435018497399
 31
0.0
  0
LINE
  5
6CDC
  8
AM_0
 10
159.83023743721461
 20
228.16450385136059
 30
0.0
 11
162.19228737239661
 21
226.19612890537661
 31
0.0
  0
LINE
  5
6CDD
  8
AM_0
 10
163.4704218368791
 20
225.96435018497399
 30
0.0
 11
162.9704218368791
 21
226.54278276848109
 31
0.0
  0
ARC
  5
6CDE
  8
AM_0
 10
162.8324717720611
 20
226.96435018497399
 30
0.0
 40
1.0000000000000411
 50
230.19442890774451
 51
270.0
  0
LINE
  5
6CDF
  8
AM_0
 10
162.9704218368791
 20
227.542782768481
 30
0.0
 11
163.4704218368791
 21
227.31103825351499
 31
0.0
  0
LINE
  5
6CE0
  8
AM_0
 10
163.4704218368791
 20
226.83107035632599
 30
0.0
 11
162.9704218368791
 21
227.542782768481
 31
0.0
  0
LINE
  5
6CE1
  8
AM_0
 10
162.9704218368791
 20
227.005058041453
 30
0.0
 11
163.4704218368791
 21
226.83107035632599
 31
0.0
  0
LINE
  5
6CE2
  8
AM_0
 10
163.4704218368791
 20
226.33107035632599
 30
0.0
 11
162.9704218368791
 21
227.005058041453
 31
0.0
  0
LINE
  5
6CE3
  8
AM_0
 10
162.9704218368791
 20
226.54278276848109
 30
0.0
 11
163.4704218368791
 21
226.33107035632599
 31
0.0
  0
ARC
  5
6CE4
  8
AM_0
 10
160.4704218368791
 20
228.93272513095789
 30
0.0
 40
1.0
 50
180.0
 51
230.1944289077353
  0
CIRCLE
  5
6CE5
  8
AM_0
 10
193.86909293322341
 20
262.96435018497363
 30
0.0
 40
4.0
  0
LINE
  5
6CE6
  8
AM_0
 10
193.55759293322339
 20
260.68554177924921
 30
0.0
 11
194.18059293322341
 21
260.68554177924921
 31
0.0
  0
LINE
  5
6CE7
  8
AM_0
 10
193.55759293322339
 20
265.2431585906981
 30
0.0
 11
194.18059293322341
 21
265.2431585906981
 31
0.0
  0
LINE
  5
6CE8
  8
AM_0
 10
193.55759293322339
 20
260.68554177924921
 30
0.0
 11
193.55759293322339
 21
262.65285018497372
 31
0.0
  0
LINE
  5
6CE9
  8
AM_0
 10
193.55759293322339
 20
263.27585018497359
 30
0.0
 11
193.55759293322339
 21
265.2431585906981
 31
0.0
  0
LINE
  5
6CEA
  8
AM_0
 10
193.55759293322339
 20
263.27585018497359
 30
0.0
 11
191.59028452749911
 21
263.27585018497359
 31
0.0
  0
LINE
  5
6CEB
  8
AM_0
 10
193.55759293322339
 20
262.65285018497372
 30
0.0
 11
191.59028452749911
 21
262.65285018497372
 31
0.0
  0
LINE
  5
6CEC
  8
AM_0
 10
191.59028452749911
 20
263.27585018497359
 30
0.0
 11
191.59028452749911
 21
262.65285018497372
 31
0.0
  0
LINE
  5
6CED
  8
AM_0
 10
194.18059293322341
 20
260.68554177924921
 30
0.0
 11
194.18059293322341
 21
262.65285018497372
 31
0.0
  0
LINE
  5
6CEE
  8
AM_0
 10
194.18059293322341
 20
263.27585018497359
 30
0.0
 11
194.18059293322341
 21
265.2431585906981
 31
0.0
  0
LINE
  5
6CEF
  8
AM_0
 10
196.1479013389478
 20
262.65285018497372
 30
0.0
 11
194.18059293322341
 21
262.65285018497372
 31
0.0
  0
LINE
  5
6CF0
  8
AM_0
 10
196.1479013389478
 20
263.27585018497359
 30
0.0
 11
194.18059293322341
 21
263.27585018497359
 31
0.0
  0
LINE
  5
6CF1
  8
AM_0
 10
196.1479013389478
 20
263.27585018497359
 30
0.0
 11
196.1479013389478
 21
262.65285018497372
 31
0.0
  0
CIRCLE
  5
6CF2
  8
AM_0
 10
279.86909293322702
 20
262.96435018497363
 30
0.0
 40
4.0
  0
LINE
  5
6CF3
  8
AM_0
 10
279.55759293322711
 20
260.68554177924921
 30
0.0
 11
280.18059293322699
 21
260.68554177924921
 31
0.0
  0
LINE
  5
6CF4
  8
AM_0
 10
279.55759293322711
 20
265.24315859069787
 30
0.0
 11
280.18059293322699
 21
265.24315859069787
 31
0.0
  0
LINE
  5
6CF5
  8
AM_0
 10
279.55759293322711
 20
260.68554177924921
 30
0.0
 11
279.55759293322711
 21
262.65285018497337
 31
0.0
  0
LINE
  5
6CF6
  8
AM_0
 10
279.55759293322711
 20
263.27585018497359
 30
0.0
 11
279.55759293322711
 21
265.24315859069787
 31
0.0
  0
LINE
  5
6CF7
  8
AM_0
 10
279.55759293322711
 20
263.27585018497359
 30
0.0
 11
277.5902845275026
 21
263.27585018497359
 31
0.0
  0
LINE
  5
6CF8
  8
AM_0
 10
279.55759293322711
 20
262.65285018497337
 30
0.0
 11
277.5902845275026
 21
262.65285018497337
 31
0.0
  0
LINE
  5
6CF9
  8
AM_0
 10
277.5902845275026
 20
263.27585018497359
 30
0.0
 11
277.5902845275026
 21
262.65285018497337
 31
0.0
  0
LINE
  5
6CFA
  8
AM_0
 10
280.18059293322699
 20
260.68554177924921
 30
0.0
 11
280.18059293322699
 21
262.65285018497337
 31
0.0
  0
LINE
  5
6CFB
  8
AM_0
 10
280.18059293322699
 20
263.27585018497359
 30
0.0
 11
280.18059293322699
 21
265.24315859069787
 31
0.0
  0
LINE
  5
6CFC
  8
AM_0
 10
282.14790133895133
 20
262.65285018497337
 30
0.0
 11
280.18059293322699
 21
262.65285018497337
 31
0.0
  0
LINE
  5
6CFD
  8
AM_0
 10
282.14790133895133
 20
263.27585018497359
 30
0.0
 11
280.18059293322699
 21
263.27585018497359
 31
0.0
  0
LINE
  5
6CFE
  8
AM_0
 10
282.14790133895133
 20
263.27585018497359
 30
0.0
 11
282.14790133895133
 21
262.65285018497337
 31
0.0
  0
LINE
  5
6CFF
  8
AM_0
 10
207.40462683915811
 20
266.49988409090679
 30
0.0
 11
190.33355902729241
 21
249.42881627904151
 31
0.0
  0
LINE
  5
6D00
  8
AM_0
 10
208.06148108865031
 20
261.49988409090668
 30
0.0
 11
195.33355902729241
 21
248.77196202954889
 31
0.0
  0
ARC
  5
6D01
  8
AM_0
 10
198.86909293322509
 20
245.23642812361609
 30
0.0
 40
5.0
 50
135.0
 51
180.0
1001
GENIUS_GENOBJ-N-FIL_13
1002
{
1000
OWNER
1000
GEN
1002
}
1001
GENIUS_GENODEF_13
1002
{
1000
HIER
1070
     0
1002
}
1002
{
1000
MANEDIT
1070
     0
1002
}
1002
{
1000
NOSEL
1070
     0
1002
}
1002
{
1000
BEHIND
1070
     0
1002
}
1002
{
1000
OTHER
1070
     0
1002
}
1002
{
1000
REACTOR
1002
}
  0
LINE
  5
6D02
  8
AM_0
 10
266.33355902729238
 20
177.428816279041
 30
0.0
 11
283.40462683915803
 21
194.49988409090639
 31
0.0
  0
ARC
  5
6D03
  8
AM_0
 10
262.79802512135967
 20
180.9643501849738
 30
0.0
 40
5.0
 50
270.0
 51
315.0
1001
GENIUS_GENODEF_13
1002
{
1000
HIER
1070
     0
1002
}
1002
{
1000
MANEDIT
1070
     0
1002
}
1002
{
1000
NOSEL
1070
     0
1002
}
1002
{
1000
BEHIND
1070
     0
1002
}
1002
{
1000
OTHER
1070
     0
1002
}
1002
{
1000
REACTOR
1002
}
1001
GENIUS_GENOBJ-N-FIL_13
1002
{
1000
OWNER
1000
GEN
1002
}
  0
LINE
  5
6D04
  8
AM_0
 10
265.67670477780013
 20
182.42881627904109
 30
0.0
 11
278.40462683915791
 21
195.15673834039879
 31
0.0
  0
ARC
  5
6D05
  8
AM_0
 10
274.86909293322532
 20
198.69227224633141
 30
0.0
 40
5.0
 50
315.0
 51
0.0
1001
GENIUS_GENOBJ-N-FIL_13
1002
{
1000
OWNER
1000
GEN
1002
}
1001
GENIUS_GENODEF_13
1002
{
1000
HIER
1070
     0
1002
}
1002
{
1000
MANEDIT
1070
     0
1002
}
1002
{
1000
NOSEL
1070
     0
1002
}
1002
{
1000
BEHIND
1070
     0
1002
}
1002
{
1000
OTHER
1070
     0
1002
}
1002
{
1000
REACTOR
1002
}
  0
LINE
  5
6D06
  8
AM_0
 10
207.40462683915791
 20
177.428816279041
 30
0.0
 11
190.33355902729241
 21
194.49988409090631
 31
0.0
  0
LINE
  5
6D07
  8
AM_0
 10
208.06148108865011
 20
182.42881627904109
 30
0.0
 11
195.33355902729241
 21
195.15673834039879
 31
0.0
  0
ARC
  5
6D08
  8
AM_0
 10
211.59701499458279
 20
185.9643501849738
 30
0.0
 40
5.0
 50
225.0
 51
270.0
1001
GENIUS_GENOBJ-N-FIL_13
1002
{
1000
OWNER
1000
GEN
1002
}
1001
GENIUS_GENODEF_13
1002
{
1000
HIER
1070
     0
1002
}
1002
{
1000
MANEDIT
1070
     0
1002
}
1002
{
1000
NOSEL
1070
     0
1002
}
1002
{
1000
BEHIND
1070
     0
1002
}
1002
{
1000
OTHER
1070
     0
1002
}
1002
{
1000
REACTOR
1002
}
  0
CIRCLE
  5
6D09
  8
AM_0
 10
193.8690929332233
 20
180.96435018497411
 30
0.0
 40
4.0
  0
LINE
  5
6D0A
  8
AM_0
 10
193.55759293322339
 20
183.24315859069861
 30
0.0
 11
194.18059293322321
 21
183.24315859069861
 31
0.0
  0
LINE
  5
6D0B
  8
AM_0
 10
193.55759293322339
 20
178.68554177924989
 30
0.0
 11
194.18059293322321
 21
178.68554177924989
 31
0.0
  0
LINE
  5
6D0C
  8
AM_0
 10
193.55759293322339
 20
183.24315859069861
 30
0.0
 11
193.55759293322339
 21
181.2758501849741
 31
0.0
  0
LINE
  5
6D0D
  8
AM_0
 10
193.55759293322339
 20
180.65285018497411
 30
0.0
 11
193.55759293322339
 21
178.68554177924989
 31
0.0
  0
LINE
  5
6D0E
  8
AM_0
 10
193.55759293322339
 20
180.65285018497411
 30
0.0
 11
191.59028452749899
 21
180.65285018497411
 31
0.0
  0
LINE
  5
6D0F
  8
AM_0
 10
193.55759293322339
 20
181.2758501849741
 30
0.0
 11
191.59028452749899
 21
181.2758501849741
 31
0.0
  0
LINE
  5
6D10
  8
AM_0
 10
191.59028452749899
 20
180.65285018497411
 30
0.0
 11
191.59028452749899
 21
181.2758501849741
 31
0.0
  0
LINE
  5
6D11
  8
AM_0
 10
194.18059293322321
 20
183.24315859069861
 30
0.0
 11
194.18059293322321
 21
181.2758501849741
 31
0.0
  0
LINE
  5
6D12
  8
AM_0
 10
194.18059293322321
 20
180.65285018497411
 30
0.0
 11
194.18059293322321
 21
178.68554177924989
 31
0.0
  0
LINE
  5
6D13
  8
AM_0
 10
196.14790133894769
 20
181.2758501849741
 30
0.0
 11
194.18059293322321
 21
181.2758501849741
 31
0.0
  0
LINE
  5
6D14
  8
AM_0
 10
196.14790133894769
 20
180.65285018497411
 30
0.0
 11
194.18059293322321
 21
180.65285018497411
 31
0.0
  0
LINE
  5
6D15
  8
AM_0
 10
196.14790133894769
 20
180.65285018497411
 30
0.0
 11
196.14790133894769
 21
181.2758501849741
 31
0.0
  0
CIRCLE
  5
6D16
  8
AM_0
 10
279.86909293322691
 20
180.96435018497399
 30
0.0
 40
4.0
  0
LINE
  5
6D17
  8
AM_0
 10
279.55759293322677
 20
183.2431585906985
 30
0.0
 11
280.18059293322688
 21
183.2431585906985
 31
0.0
  0
LINE
  5
6D18
  8
AM_0
 10
279.55759293322677
 20
178.6855417792498
 30
0.0
 11
280.18059293322688
 21
178.6855417792498
 31
0.0
  0
LINE
  5
6D19
  8
AM_0
 10
279.55759293322677
 20
183.2431585906985
 30
0.0
 11
279.55759293322677
 21
181.27585018497399
 31
0.0
  0
LINE
  5
6D1A
  8
AM_0
 10
279.55759293322677
 20
180.65285018497389
 30
0.0
 11
279.55759293322677
 21
178.6855417792498
 31
0.0
  0
LINE
  5
6D1B
  8
AM_0
 10
279.55759293322677
 20
180.65285018497389
 30
0.0
 11
277.59028452750249
 21
180.65285018497389
 31
0.0
  0
LINE
  5
6D1C
  8
AM_0
 10
279.55759293322677
 20
181.27585018497399
 30
0.0
 11
277.59028452750249
 21
181.27585018497399
 31
0.0
  0
LINE
  5
6D1D
  8
AM_0
 10
277.59028452750249
 20
180.65285018497389
 30
0.0
 11
277.59028452750249
 21
181.27585018497399
 31
0.0
  0
LINE
  5
6D1E
  8
AM_0
 10
280.18059293322688
 20
183.2431585906985
 30
0.0
 11
280.18059293322688
 21
181.27585018497399
 31
0.0
  0
LINE
  5
6D1F
  8
AM_0
 10
280.18059293322688
 20
180.65285018497389
 30
0.0
 11
280.18059293322688
 21
178.6855417792498
 31
0.0
  0
LINE
  5
6D20
  8
AM_0
 10
282.14790133895121
 20
181.27585018497399
 30
0.0
 11
280.18059293322688
 21
181.27585018497399
 31
0.0
  0
LINE
  5
6D21
  8
AM_0
 10
282.14790133895121
 20
180.65285018497389
 30
0.0
 11
280.18059293322688
 21
180.65285018497389
 31
0.0
  0
LINE
  5
6D22
  8
AM_0
 10
282.14790133895121
 20
180.65285018497389
 30
0.0
 11
282.14790133895121
 21
181.27585018497399
 31
0.0
  0
LINE
  5
6D23
  8
AM_0
 10
188.86909293322509
 20
190.96435018497391
 30
0.0
 11
187.86909293322509
 21
190.96435018497391
 31
0.0
  0
LINE
  5
6D24
  8
AM_0
 10
188.86909293322509
 20
252.96435018497399
 30
0.0
 11
187.86909293322509
 21
252.96435018497391
 31
0.0
  0
LINE
  5
6D25
  8
AM_0
 10
187.86909293322509
 20
190.96435018497391
 30
0.0
 11
187.86909293322509
 21
252.96435018497391
 31
0.0
  0
LINE
  5
6D26
  8
ﾁｭｳｼﾝｾﾝ1
 10
193.86909293322299
 20
256.96435018497363
 30
0.0
 11
193.8690929332237
 21
268.96435018497363
 31
0.0
  0
LINE
  5
6D27
  8
ﾁｭｳｼﾝｾﾝ1
 10
199.86909293322341
 20
262.96435018497328
 30
0.0
 11
187.86909293322341
 21
262.96435018497402
 31
0.0
  0
LINE
  5
6D28
  8
ﾁｭｳｼﾝｾﾝ1
 10
193.8690929332229
 20
174.96435018497411
 30
0.0
 11
193.8690929332237
 21
186.96435018497411
 31
0.0
  0
LINE
  5
6D29
  8
ﾁｭｳｼﾝｾﾝ1
 10
199.8690929332233
 20
180.96435018497399
 30
0.0
 11
187.8690929332233
 21
180.96435018497451
 31
0.0
  0
LINE
  5
6D2A
  8
ﾁｭｳｼﾝｾﾝ1
 10
279.86909293322651
 20
174.96435018497399
 30
0.0
 11
279.86909293322708
 21
186.96435018497399
 31
0.0
  0
LINE
  5
6D2B
  8
ﾁｭｳｼﾝｾﾝ1
 10
285.86909293322691
 20
180.9643501849738
 30
0.0
 11
273.8690929332268
 21
180.96435018497451
 31
0.0
  0
LINE
  5
6D2F
  8
AM_0
 10
173.84951571320329
 20
225.7043391849738
 30
0.0
 11
179.86909293322509
 21
225.7043391849738
 31
0.0
  0
LINE
  5
6D30
  8
ﾁｭｳｼﾝｾﾝ1
 10
157.86909293322509
 20
201.9643501849738
 30
0.0
 11
191.16703907171541
 21
201.9643501849738
 31
0.0
  0
LINE
  5
6D31
  8
AM_0
 10
177.74409293322611
 20
195.57429612884971
 30
0.0
 11
177.75480253777121
 21
195.3643501849738
 31
0.0
  0
LINE
  5
6D32
  8
AM_0
 10
177.75480253777121
 20
195.3643501849738
 30
0.0
 11
177.7911079249721
 21
194.65263681108669
 31
0.0
  0
LINE
  5
6D33
  8
AM_0
 10
177.74409293322611
 20
199.3316276764908
 30
0.0
 11
177.990119155906
 21
195.3643501849738
 31
0.0
  0
LINE
  5
6D34
  8
AM_0
 10
178.4624220972552
 20
195.3643501849738
 30
0.0
 11
178.06685158433109
 21
195.3643501849738
 31
0.0
  0
LINE
  5
6D35
  8
AM_0
 10
177.97025908979211
 20
195.29023241823811
 30
0.0
 11
177.80901459179429
 21
194.68846795171021
 31
0.0
  0
LINE
  5
6D36
  8
AM_0
 10
177.990119155906
 20
195.3643501849738
 30
0.0
 11
177.97025908979211
 21
195.29023241823811
 31
0.0
  0
LINE
  5
6D37
  8
AM_0
 10
176.2440929332262
 20
192.96435018497391
 30
0.0
 11
176.2440929332262
 21
193.2643501849748
 31
0.0
  0
LINE
  5
6D38
  8
AM_0
 10
165.74409293322509
 20
201.96435018497391
 30
0.0
 11
165.74409293322509
 21
196.6453751525647
 31
0.0
  0
LINE
  5
6D39
  8
AM_0
 10
176.2440929332262
 20
193.46435018497479
 30
0.0
 11
177.5440929332261
 21
193.46435018497479
 31
0.0
  0
LINE
  5
6D3A
  8
AM_0
 10
177.24409293322509
 20
193.43584645360869
 30
0.0
 11
177.2440929332262
 21
193.46435018497479
 31
0.0
  0
LINE
  5
6D3B
  8
AM_0
 10
168.2440929332231
 20
194.4321589768378
 30
0.0
 11
174.2440929332262
 21
194.4321589768378
 31
0.0
  0
LINE
  5
6D3C
  8
AM_0
 10
174.2440929332262
 20
193.9321589768378
 30
0.0
 11
168.24409293322219
 21
193.9321589768378
 31
0.0
  0
LINE
  5
6D3D
  8
AM_0
 10
168.24409293322219
 20
193.9321589768378
 30
0.0
 11
168.74409293322219
 21
193.46435018497391
 31
0.0
  0
LINE
  5
6D3E
  8
AM_0
 10
168.74409293322219
 20
193.9321589768378
 30
0.0
 11
168.2440929332231
 21
194.4321589768378
 31
0.0
  0
LINE
  5
6D3F
  8
AM_0
 10
168.2440929332231
 20
195.1031342528068
 30
0.0
 11
168.74409293322219
 21
194.4321589768378
 31
0.0
  0
LINE
  5
6D40
  8
AM_0
 10
168.74409293322219
 20
195.1526124934837
 30
0.0
 11
168.2440929332231
 21
195.1031342528068
 31
0.0
  0
LINE
  5
6D41
  8
AM_0
 10
174.2440929332262
 20
200.87415634991589
 30
0.0
 11
174.2440929332262
 21
201.96435018497391
 31
0.0
  0
LINE
  5
6D42
  8
AM_0
 10
168.24409293322219
 20
200.96435018497391
 30
0.0
 11
174.2440929332262
 21
200.96435018497391
 31
0.0
  0
LINE
  5
6D43
  8
AM_0
 10
168.74409293322219
 20
200.27608787646389
 30
0.0
 11
168.24409293322219
 21
200.96435018497391
 31
0.0
  0
LINE
  5
6D44
  8
AM_0
 10
168.24409293322219
 20
200.96435018497391
 30
0.0
 11
168.7440929332231
 21
201.46435018497391
 31
0.0
  0
LINE
  5
6D45
  8
AM_0
 10
168.2440929332231
 20
201.96435018497391
 30
0.0
 11
168.7440929332231
 21
201.46435018497391
 31
0.0
  0
LINE
  5
6D46
  8
AM_0
 10
168.7440929332231
 20
201.46435018497391
 30
0.0
 11
174.2440929332262
 21
201.46435018497391
 31
0.0
  0
LINE
  5
6D47
  8
AM_0
 10
168.74409293322219
 20
200.27608787646389
 30
0.0
 11
174.2440929332262
 21
200.27608787646389
 31
0.0
  0
LINE
  5
6D48
  8
AM_0
 10
168.74409293322219
 20
195.1526124934837
 30
0.0
 11
174.2440929332262
 21
195.1526124934849
 31
0.0
  0
LINE
  5
6D49
  8
AM_0
 10
177.24409293322509
 20
201.5143501849748
 30
0.0
 11
177.2440929332262
 21
201.96435018497391
 31
0.0
  0
LINE
  5
6D4A
  8
AM_0
 10
176.2440929332262
 20
193.2643501849748
 30
0.0
 11
176.2440929332262
 21
201.96435018497581
 31
0.0
  0
LINE
  5
6D4B
  8
AM_0
 10
176.94409293322511
 20
195.00684549694171
 30
0.0
 11
176.2440929332262
 21
195.00684549694171
 31
0.0
  0
LINE
  5
6D4C
  8
AM_0
 10
177.24409293322509
 20
194.30173463965181
 30
0.0
 11
177.24409293322509
 21
194.70684549694181
 31
0.0
  0
LINE
  5
6D4D
  8
AM_0
 10
176.2440929332262
 20
194.0017346396518
 30
0.0
 11
176.94409293322511
 21
194.0017346396518
 31
0.0
  0
LINE
  5
6D4E
  8
AM_0
 10
176.94409293322511
 20
198.38044568234281
 30
0.0
 11
176.2440929332262
 21
198.38044568234281
 31
0.0
  0
LINE
  5
6D4F
  8
AM_0
 10
177.24409293322509
 20
197.2805294160508
 30
0.0
 11
177.24409293322509
 21
198.08044568234271
 31
0.0
  0
LINE
  5
6D50
  8
AM_0
 10
176.2440929332262
 20
196.98052941605081
 30
0.0
 11
176.94409293322511
 21
196.98052941605081
 31
0.0
  0
LINE
  5
6D51
  8
AM_0
 10
176.2440929332262
 20
201.21435018497391
 30
0.0
 11
176.94409293322511
 21
201.21435018497391
 31
0.0
  0
LINE
  5
6D52
  8
AM_0
 10
177.74409293322611
 20
201.9643501849738
 30
0.0
 11
177.74409293322611
 21
193.66435018497489
 31
0.0
  0
LINE
  5
6D53
  8
AM_0
 10
174.44409293322511
 20
192.96435018497391
 30
0.0
 11
176.2440929332262
 21
192.96435018497391
 31
0.0
  0
LINE
  5
6D54
  8
AM_0
 10
165.8599822934261
 20
196.32528295273269
 30
0.0
 11
168.094169766416
 21
193.64425798514009
 31
0.0
  0
LINE
  5
6D55
  8
AM_0
 10
176.9739440489318
 20
193.13733529654581
 30
0.0
 11
176.2440929332262
 21
193.06435018497481
 31
0.0
  0
LINE
  5
6D56
  8
AM_0
 10
174.0440929332261
 20
193.46435018497391
 30
0.0
 11
168.47828040621519
 21
193.46435018497181
 31
0.0
  0
LINE
  5
6D57
  8
AM_0
 10
174.2440929332262
 20
200.87415634991589
 30
0.0
 11
174.2440929332262
 21
193.26435018497369
 31
0.0
  0
LINE
  5
6D58
  8
AM_0
 10
174.2440929332262
 20
193.26435018497369
 30
0.0
 11
174.24409293322509
 21
193.16435018497381
 31
0.0
  0
LINE
  5
6D59
  8
AM_0
 10
181.86909293322509
 20
193.6643501849739
 30
0.0
 11
181.86909293322509
 21
200.27608787646389
 31
0.0
  0
LINE
  5
6D5A
  8
AM_0
 10
178.36909293322611
 20
201.9643501849738
 30
0.0
 11
178.74184679123621
 21
194.6482118374538
 31
0.0
  0
LINE
  5
6D5B
  8
AM_0
 10
178.91812830300111
 20
201.9643501849738
 30
0.0
 11
179.29110792497201
 21
194.65263681108669
 31
0.0
  0
LINE
  5
6D5C
  8
AM_0
 10
178.55901459179421
 20
195.2902324182372
 30
0.0
 11
178.53915452568111
 21
195.3643501849738
 31
0.0
  0
LINE
  5
6D5D
  8
AM_0
 10
179.49011915590609
 20
195.3643501849738
 30
0.0
 11
179.47025908979211
 21
195.29023241823811
 31
0.0
  0
LINE
  5
6D5E
  8
AM_0
 10
179.21242209725509
 20
194.61435018497369
 30
0.0
 11
178.8168515843312
 21
194.61435018497369
 31
0.0
  0
LINE
  5
6D5F
  8
AM_0
 10
178.72025908979191
 20
194.68846795171041
 30
0.0
 11
178.55901459179421
 21
195.2902324182372
 31
0.0
  0
LINE
  5
6D60
  8
AM_0
 10
179.47025908979211
 20
195.29023241823811
 30
0.0
 11
179.30901459179421
 21
194.68846795171021
 31
0.0
  0
LINE
  5
6D61
  8
AM_0
 10
178.1298629968781
 20
201.9643501849738
 30
0.0
 11
178.53915452568111
 21
195.3643501849738
 31
0.0
  0
LINE
  5
6D62
  8
AM_0
 10
179.08082762710319
 20
201.9643501849738
 30
0.0
 11
179.49011915590609
 21
195.3643501849738
 31
0.0
  0
LINE
  5
6D63
  8
AM_0
 10
179.5668515843312
 20
195.3643501849738
 30
0.0
 11
181.36909293322509
 21
195.3643501849738
 31
0.0
  0
LINE
  5
6D64
  8
AM_0
 10
181.86909293322509
 20
200.27608787646389
 30
0.0
 11
181.86909293322509
 21
201.96435018497479
 31
0.0
  0
LINE
  5
6D65
  8
AM_0
 10
182.06909293322511
 20
193.4643501849738
 30
0.0
 11
185.6690929332251
 21
193.4643501849738
 31
0.0
  0
LINE
  5
6D66
  8
AM_0
 10
185.6690929332251
 20
200.27608787646389
 30
0.0
 11
181.86909293322509
 21
200.27608787646389
 31
0.0
  0
LINE
  5
6D67
  8
AM_0
 10
181.86909293322509
 20
195.1526124934849
 30
0.0
 11
185.6690929332251
 21
195.1526124934849
 31
0.0
  0
LINE
  5
6D68
  8
AM_0
 10
160.86909293322509
 20
201.96435018497391
 30
0.0
 11
160.86909293322509
 21
197.71435018497391
 31
0.0
  0
LINE
  5
6D69
  8
AM_0
 10
165.74409293322509
 20
197.66321382133791
 30
0.0
 11
160.86909293322509
 21
197.71435018497391
 31
0.0
  0
LINE
  5
6D6A
  8
AM_0
 10
160.86909293322509
 20
206.21435018497391
 30
0.0
 11
165.74409293322509
 21
206.26548654861091
 31
0.0
  0
LINE
  5
6D6B
  8
AM_0
 10
160.86909293322509
 20
206.21435018497391
 30
0.0
 11
160.86909293322509
 21
201.96435018497391
 31
0.0
  0
LINE
  5
6D6C
  8
AM_0
 10
185.6690929332251
 20
208.77608787646389
 30
0.0
 11
181.86909293322509
 21
208.77608787646389
 31
0.0
  0
LINE
  5
6D6D
  8
AM_0
 10
181.86909293322509
 20
203.65261249348481
 30
0.0
 11
185.6690929332251
 21
203.65261249348481
 31
0.0
  0
LINE
  5
6D6E
  8
AM_0
 10
185.6690929332251
 20
210.4643501849738
 30
0.0
 11
182.06909293322511
 21
210.4643501849738
 31
0.0
  0
LINE
  5
6D6F
  8
AM_0
 10
181.86909293322509
 20
201.96435018497479
 30
0.0
 11
181.86909293322509
 21
203.65261249348481
 31
0.0
  0
LINE
  5
6D70
  8
AM_0
 10
181.36909293322509
 20
208.5643501849737
 30
0.0
 11
178.8208253616512
 21
208.5643501849737
 31
0.0
  0
LINE
  5
6D71
  8
AM_0
 10
178.74409293322509
 20
208.5643501849737
 30
0.0
 11
179.08082762710319
 21
201.9643501849738
 31
0.0
  0
LINE
  5
6D72
  8
AM_0
 10
177.79312830300009
 20
208.5643501849737
 30
0.0
 11
178.1298629968781
 21
201.9643501849738
 31
0.0
  0
LINE
  5
6D73
  8
AM_0
 10
178.56298836911409
 20
209.2402324182373
 30
0.0
 11
178.72423286711199
 21
208.6384679517102
 31
0.0
  0
LINE
  5
6D74
  8
AM_0
 10
177.81298836911421
 20
208.6384679517102
 30
0.0
 11
177.97423286711199
 21
209.2402324182371
 31
0.0
  0
LINE
  5
6D75
  8
AM_0
 10
178.0708253616512
 20
209.31435018497379
 30
0.0
 11
178.4663958745752
 21
209.31435018497379
 31
0.0
  0
LINE
  5
6D76
  8
AM_0
 10
178.72423286711199
 20
208.6384679517102
 30
0.0
 11
178.74409293322509
 21
208.5643501849737
 31
0.0
  0
LINE
  5
6D77
  8
AM_0
 10
177.79312830300009
 20
208.5643501849737
 30
0.0
 11
177.81298836911421
 21
208.6384679517102
 31
0.0
  0
LINE
  5
6D78
  8
AM_0
 10
178.54508170229221
 20
209.2760635588609
 30
0.0
 11
178.91812830300111
 21
201.9643501849738
 31
0.0
  0
LINE
  5
6D79
  8
AM_0
 10
177.9958205685561
 20
209.28048853249479
 30
0.0
 11
178.36909293322611
 21
201.9643501849738
 31
0.0
  0
LINE
  5
6D7A
  8
AM_0
 10
181.86909293322509
 20
203.65261249348481
 30
0.0
 11
181.86909293322509
 21
210.26435018497449
 31
0.0
  0
LINE
  5
6D7B
  8
AM_0
 10
174.24409293322509
 20
210.7643501849748
 30
0.0
 11
174.2440929332262
 21
210.66435018497481
 31
0.0
  0
LINE
  5
6D7C
  8
AM_0
 10
174.2440929332262
 20
210.66435018497481
 30
0.0
 11
174.2440929332262
 21
203.05454402003281
 31
0.0
  0
LINE
  5
6D7D
  8
AM_0
 10
168.47828040621519
 20
210.46435018497689
 30
0.0
 11
174.04409293322621
 21
210.46435018497479
 31
0.0
  0
LINE
  5
6D7E
  8
AM_0
 10
176.2440929332262
 20
210.8643501849738
 30
0.0
 11
176.9739440489318
 21
210.79136507340289
 31
0.0
  0
LINE
  5
6D7F
  8
AM_0
 10
168.09416976641609
 20
210.2844423848085
 30
0.0
 11
165.8599822934263
 21
207.60341741721581
 31
0.0
  0
LINE
  5
6D80
  8
AM_0
 10
176.2440929332262
 20
210.96435018497391
 30
0.0
 11
174.44409293322511
 21
210.96435018497391
 31
0.0
  0
LINE
  5
6D81
  8
AM_0
 10
177.74409293322611
 20
210.26435018497389
 30
0.0
 11
177.74409293322611
 21
201.9643501849738
 31
0.0
  0
LINE
  5
6D82
  8
AM_0
 10
176.94409293322511
 20
202.71435018497391
 30
0.0
 11
176.2440929332262
 21
202.71435018497391
 31
0.0
  0
LINE
  5
6D83
  8
AM_0
 10
176.94409293322511
 20
206.9481709538978
 30
0.0
 11
176.2440929332262
 21
206.9481709538978
 31
0.0
  0
LINE
  5
6D84
  8
AM_0
 10
177.24409293322509
 20
205.8482546876057
 30
0.0
 11
177.24409293322509
 21
206.6481709538977
 31
0.0
  0
LINE
  5
6D85
  8
AM_0
 10
176.2440929332262
 20
205.54825468760581
 30
0.0
 11
176.94409293322511
 21
205.54825468760581
 31
0.0
  0
LINE
  5
6D86
  8
AM_0
 10
176.94409293322511
 20
209.92696573029681
 30
0.0
 11
176.2440929332262
 21
209.92696573029681
 31
0.0
  0
LINE
  5
6D87
  8
AM_0
 10
177.24409293322509
 20
209.22185487300681
 30
0.0
 11
177.24409293322509
 21
209.6269657302968
 31
0.0
  0
LINE
  5
6D88
  8
AM_0
 10
176.2440929332262
 20
208.92185487300691
 30
0.0
 11
176.94409293322511
 21
208.92185487300691
 31
0.0
  0
LINE
  5
6D89
  8
AM_0
 10
176.2440929332262
 20
201.96435018497581
 30
0.0
 11
176.2440929332262
 21
210.66435018497381
 31
0.0
  0
LINE
  5
6D8A
  8
AM_0
 10
177.2440929332262
 20
201.96435018497391
 30
0.0
 11
177.24409293322509
 21
202.41435018497381
 31
0.0
  0
LINE
  5
6D8B
  8
AM_0
 10
174.2440929332262
 20
208.77608787646389
 30
0.0
 11
168.74409293322219
 21
208.77608787646389
 31
0.0
  0
LINE
  5
6D8C
  8
AM_0
 10
174.2440929332262
 20
203.65261249348481
 30
0.0
 11
168.74409293322219
 21
203.6526124934837
 31
0.0
  0
LINE
  5
6D8D
  8
AM_0
 10
174.2440929332262
 20
202.46435018497391
 30
0.0
 11
168.7440929332231
 21
202.46435018497391
 31
0.0
  0
LINE
  5
6D8E
  8
AM_0
 10
168.7440929332231
 20
202.46435018497391
 30
0.0
 11
168.2440929332231
 21
201.96435018497391
 31
0.0
  0
LINE
  5
6D8F
  8
AM_0
 10
168.7440929332231
 20
202.46435018497391
 30
0.0
 11
168.24409293322219
 21
202.96435018497391
 31
0.0
  0
LINE
  5
6D90
  8
AM_0
 10
168.24409293322219
 20
202.96435018497391
 30
0.0
 11
168.74409293322219
 21
203.6526124934837
 31
0.0
  0
LINE
  5
6D91
  8
AM_0
 10
174.2440929332262
 20
202.96435018497391
 30
0.0
 11
168.24409293322219
 21
202.96435018497391
 31
0.0
  0
LINE
  5
6D92
  8
AM_0
 10
174.2440929332262
 20
201.96435018497391
 30
0.0
 11
174.2440929332262
 21
203.05454402003281
 31
0.0
  0
LINE
  5
6D93
  8
AM_0
 10
168.24409293322319
 20
208.82556611714179
 30
0.0
 11
168.74409293322219
 21
208.77608787646389
 31
0.0
  0
LINE
  5
6D94
  8
AM_0
 10
168.74409293322219
 20
209.4965413931109
 30
0.0
 11
168.24409293322319
 21
208.82556611714179
 31
0.0
  0
LINE
  5
6D95
  8
AM_0
 10
168.24409293322319
 20
209.4965413931109
 30
0.0
 11
168.74409293322219
 21
209.9965413931109
 31
0.0
  0
LINE
  5
6D96
  8
AM_0
 10
168.74409293322219
 20
210.46435018497391
 30
0.0
 11
168.24409293322219
 21
209.9965413931109
 31
0.0
  0
LINE
  5
6D97
  8
AM_0
 10
168.24409293322219
 20
209.9965413931109
 30
0.0
 11
174.2440929332262
 21
209.9965413931109
 31
0.0
  0
LINE
  5
6D98
  8
AM_0
 10
174.2440929332262
 20
209.4965413931109
 30
0.0
 11
168.24409293322319
 21
209.4965413931109
 31
0.0
  0
LINE
  5
6D99
  8
AM_0
 10
177.2440929332262
 20
210.46435018497391
 30
0.0
 11
177.24409293322509
 21
210.49285391633981
 31
0.0
  0
LINE
  5
6D9A
  8
AM_0
 10
177.54409293322621
 20
210.4643501849738
 30
0.0
 11
176.2440929332262
 21
210.46435018497391
 31
0.0
  0
LINE
  5
6D9B
  8
AM_0
 10
165.74409293322509
 20
207.28332521738389
 30
0.0
 11
165.74409293322509
 21
201.96435018497391
 31
0.0
  0
LINE
  5
6D9C
  8
AM_0
 10
176.2440929332262
 20
210.66435018497381
 30
0.0
 11
176.2440929332262
 21
210.96435018497391
 31
0.0
  0
ARC
  5
6D9D
  8
AM_0
 10
178.4624220972552
 20
195.26435018497381
 30
0.0
 40
0.0999999999999643
 50
15.000195006510941
 51
90.0
  0
ARC
  5
6D9E
  8
AM_0
 10
175.05659293322219
 20
197.71435018497391
 30
0.0
 40
6.8125000000000382
 50
157.91171016505959
 51
202.0882898349403
  0
ARC
  5
6D9F
  8
AM_0
 10
185.6690929332251
 20
193.26435018497389
 30
0.0
 40
0.1999999999999993
 50
0.0
 51
90.0
  0
ARC
  5
6DA0
  8
AM_0
 10
185.6690929332251
 20
210.6643501849737
 30
0.0
 40
0.2000000000000028
 50
270.0
 51
0.0
  0
ARC
  5
6DA1
  8
AM_0
 10
175.05659293322219
 20
206.21435018497391
 30
0.0
 40
6.8125000000000382
 50
157.91171016505959
 51
202.0882898349403
  0
ARC
  5
6DA2
  8
AM_0
 10
177.71242209725509
 20
194.71435018497391
 30
0.0
 40
0.1000000000000547
 50
288.4639767572973
 51
344.99980499348823
  0
ARC
  5
6DA3
  8
AM_0
 10
178.06685158433109
 20
195.2643501849748
 30
0.0
 40
0.1000000000000014
 50
90.0
 51
164.9998049934859
  0
ARC
  5
6DA4
  8
AM_0
 10
168.47828040621519
 20
193.96435018497181
 30
0.0
 40
0.499999999999975
 50
219.80557109218611
 51
270.0
  0
ARC
  5
6DA5
  8
AM_0
 10
166.24409293322509
 20
196.64537515256481
 30
0.0
 40
0.5
 50
180.00000000000969
 51
219.80557109222789
  0
ARC
  5
6DA6
  8
AM_0
 10
176.94409293322511
 20
194.7068454969419
 30
0.0
 40
0.3000000000000007
 50
0.0
 51
90.0
  0
ARC
  5
6DA7
  8
AM_0
 10
176.94409293322511
 20
194.30173463965181
 30
0.0
 40
0.3000000000000043
 50
270.0
 51
0.0
  0
ARC
  5
6DA8
  8
AM_0
 10
176.94409293322511
 20
198.08044568234271
 30
0.0
 40
0.3000000000000007
 50
0.0
 51
90.0
  0
ARC
  5
6DA9
  8
AM_0
 10
176.94409293322511
 20
197.2805294160508
 30
0.0
 40
0.2999999999999971
 50
270.0
 51
0.0
  0
ARC
  5
6DAA
  8
AM_0
 10
176.94409293322511
 20
201.5143501849748
 30
0.0
 40
0.2999999999999971
 50
270.0
 51
0.0
  0
ARC
  5
6DAB
  8
AM_0
 10
176.94409293322511
 20
193.4358464536088
 30
0.0
 40
0.3000000000000302
 50
275.71059313755632
 51
0.0
  0
ARC
  5
6DAC
  8
AM_0
 10
174.44409293322511
 20
193.16435018497381
 30
0.0
 40
0.1999999999999993
 50
180.0
 51
270.0
  0
ARC
  5
6DAD
  8
AM_0
 10
177.5440929332261
 20
193.66435018497489
 30
0.0
 40
0.1999999999999957
 50
270.0
 51
0.0
  0
ARC
  5
6DAE
  8
AM_0
 10
174.0440929332261
 20
193.26435018497389
 30
0.0
 40
0.1999999999999993
 50
359.99999999997061
 51
90.0
  0
ARC
  5
6DAF
  8
AM_0
 10
179.5668515843312
 20
195.2643501849748
 30
0.0
 40
0.1000000000000014
 50
90.0
 51
164.9998049934859
  0
ARC
  5
6DB0
  8
AM_0
 10
179.21242209725509
 20
194.71435018497391
 30
0.0
 40
0.1000000000000014
 50
270.0
 51
344.99980499348823
  0
ARC
  5
6DB1
  8
AM_0
 10
178.8168515843312
 20
194.71435018497391
 30
0.0
 40
0.1000000000000311
 50
195.00019500644621
 51
270.0
  0
ARC
  5
6DB2
  8
AM_0
 10
181.36909293322509
 20
194.86435018497369
 30
0.0
 40
0.5
 50
359.99999999997721
 51
90.0
  0
ARC
  5
6DB3
  8
AM_0
 10
185.6690929332251
 20
200.0760878764637
 30
0.0
 40
0.1999999999999993
 50
0.0
 51
90.0
  0
ARC
  5
6DB4
  8
AM_0
 10
185.6690929332251
 20
195.3526124934848
 30
0.0
 40
0.2000000000000028
 50
270.0
 51
0.0
  0
ARC
  5
6DB5
  8
AM_0
 10
182.06909293322511
 20
193.66435018497361
 30
0.0
 40
0.1999999999999993
 50
179.99999999994131
 51
270.0
  0
ARC
  5
6DB6
  8
AM_0
 10
182.06909293322511
 20
210.2643501849748
 30
0.0
 40
0.2000000000000028
 50
90.0
 51
180.00000000005531
  0
ARC
  5
6DB7
  8
AM_0
 10
185.6690929332251
 20
208.57608787646379
 30
0.0
 40
0.1999999999999993
 50
0.0
 51
90.0
  0
ARC
  5
6DB8
  8
AM_0
 10
185.6690929332251
 20
203.8526124934838
 30
0.0
 40
0.2000000000000028
 50
270.0
 51
0.0
  0
ARC
  5
6DB9
  8
AM_0
 10
181.36909293322509
 20
209.06435018497379
 30
0.0
 40
0.5
 50
270.0
 51
0.0000000000227982
  0
ARC
  5
6DBA
  8
AM_0
 10
178.07082536165109
 20
209.21435018497391
 30
0.0
 40
0.1000000000000014
 50
90.0
 51
164.99980499355379
  0
ARC
  5
6DBB
  8
AM_0
 10
178.46639587457511
 20
209.21435018497391
 30
0.0
 40
0.0999999999999608
 50
15.00019500651408
 51
90.0
  0
ARC
  5
6DBC
  8
AM_0
 10
178.82082536165109
 20
208.66435018497381
 30
0.0
 40
0.0999999999999608
 50
195.0001950065141
 51
270.0
  0
ARC
  5
6DBD
  8
AM_0
 10
177.71639587457511
 20
208.66435018497381
 30
0.0
 40
0.0999999999999803
 50
286.0794827387204
 51
344.9998049934859
  0
ARC
  5
6DBE
  8
AM_0
 10
174.0440929332261
 20
210.66435018497481
 30
0.0
 40
0.1999999999999957
 50
270.0
 51
0.000000000029312
  0
ARC
  5
6DBF
  8
AM_0
 10
177.5440929332261
 20
210.26435018497389
 30
0.0
 40
0.1999999999999993
 50
0.0
 51
90.0
  0
ARC
  5
6DC0
  8
AM_0
 10
174.44409293322511
 20
210.7643501849748
 30
0.0
 40
0.2000000000000028
 50
90.0
 51
180.0
  0
ARC
  5
6DC1
  8
AM_0
 10
176.94409293322511
 20
210.49285391633981
 30
0.0
 40
0.3000000000000007
 50
0.0
 51
84.289406862443698
  0
ARC
  5
6DC2
  8
AM_0
 10
176.94409293322511
 20
202.41435018497381
 30
0.0
 40
0.3000000000000007
 50
0.0
 51
90.0
  0
ARC
  5
6DC3
  8
AM_0
 10
176.94409293322511
 20
206.6481709538979
 30
0.0
 40
0.3000000000000007
 50
0.0
 51
90.0
  0
ARC
  5
6DC4
  8
AM_0
 10
176.94409293322511
 20
205.8482546876057
 30
0.0
 40
0.2999999999999971
 50
270.0
 51
0.0
  0
ARC
  5
6DC5
  8
AM_0
 10
176.94409293322511
 20
209.6269657302968
 30
0.0
 40
0.3000000000000007
 50
0.0
 51
90.0
  0
ARC
  5
6DC6
  8
AM_0
 10
176.94409293322511
 20
209.22185487300681
 30
0.0
 40
0.3000000000000043
 50
270.0
 51
0.0
  0
ARC
  5
6DC7
  8
AM_0
 10
166.24409293322509
 20
207.28332521738389
 30
0.0
 40
0.5000000000000059
 50
140.19442890777211
 51
179.99999999998701
  0
ARC
  5
6DC8
  8
AM_0
 10
168.47828040621519
 20
209.96435018497689
 30
0.0
 40
0.5
 50
90.0
 51
140.1944289078138
  0
LINE
  5
6DC9
  8
AM_0
 10
186.06909293322511
 20
192.9643501849738
 30
0.0
 11
187.86909293322509
 21
192.9643501849738
 31
0.0
  0
LINE
  5
6DCA
  8
AM_0
 10
185.86909293322509
 20
193.16435018497361
 30
0.0
 11
185.86909293322509
 21
210.7643501849748
 31
0.0
  0
LINE
  5
6DCB
  8
AM_0
 10
187.86909293322509
 20
210.9643501849738
 30
0.0
 11
186.06909293322511
 21
210.96435018497391
 31
0.0
  0
ARC
  5
6DCC
  8
AM_0
 10
186.06909293322511
 20
193.16435018497361
 30
0.0
 40
0.1999999999999993
 50
180.0
 51
270.0
  0
ARC
  5
6DCD
  8
AM_0
 10
186.06909293322511
 20
210.7643501849748
 30
0.0
 40
0.2000000000000028
 50
90.0
 51
180.0
  0
LINE
  5
6DCE
  8
AM_0
 10
133.36910293322589
 20
274.02575369374591
 30
0.0
 11
133.36910293322549
 21
236.30346677898859
 31
0.0
  0
LINE
  5
6DCF
  8
AM_0
 10
124.36910293322499
 20
275.96435018497368
 30
0.0
 11
124.36910293322499
 21
196.92398570542571
 31
0.0
  0
LINE
  5
6DD0
  8
AM_0
 10
124.36910293322499
 20
189.75806457460919
 30
0.0
 11
124.36910293322499
 21
167.9643501849738
 31
0.0
  0
LINE
  5
6DD1
  8
AM_0
 10
124.36910293322499
 20
275.96435018497391
 30
0.0
 11
141.36910293322501
 21
274.9643501849738
 31
0.0
  0
LINE
  5
6DD2
  8
AM_0
 10
124.36910293322499
 20
167.96435018497391
 30
0.0
 11
141.36910293322501
 21
168.96435018497391
 31
0.0
  0
LINE
  5
6DD3
  8
AM_0
 10
133.3691029332258
 20
265.55825338306522
 30
0.0
 11
141.36910293322501
 21
265.55825338306522
 31
0.0
  0
LINE
  5
6DD4
  8
AM_0
 10
133.36910293322589
 20
274.02575369374591
 30
0.0
 11
141.36910293322501
 21
274.02575369374591
 31
0.0
  0
LINE
  5
6DD5
  8
AM_0
 10
129.8691029332258
 20
256.60522315023388
 30
0.0
 11
133.3691029332258
 21
256.60522315023388
 31
0.0
  0
LINE
  5
6DD6
  8
AM_0
 10
129.8691029332258
 20
265.10522315023388
 30
0.0
 11
133.3691029332258
 21
265.10522315023388
 31
0.0
  0
LINE
  5
6DD7
  8
AM_0
 10
129.3691029332258
 20
264.60522315023388
 30
0.0
 11
129.3691029332258
 21
257.10522315023388
 31
0.0
  0
ARC
  5
6DD8
  8
AM_0
 10
129.8691029332258
 20
264.60522315023388
 30
0.0
 40
0.5
 50
90.0
 51
180.0
  0
ARC
  5
6DD9
  8
AM_0
 10
129.8691029332258
 20
257.10522315023388
 30
0.0
 40
0.5
 50
180.0
 51
270.0
  0
LINE
  5
6DDA
  8
AM_0
 10
124.36910293322499
 20
264.23654467811389
 30
0.0
 11
129.3691029332258
 21
264.236544678114
 31
0.0
  0
LINE
  5
6DDB
  8
AM_0
 10
124.36910293322499
 20
254.50146217981799
 30
0.0
 11
133.36910293322569
 21
254.50146217981799
 31
0.0
  0
LINE
  5
6DDC
  8
AM_0
 10
133.3691029332258
 20
178.3704469868824
 30
0.0
 11
141.36910293322501
 21
178.3704469868824
 31
0.0
  0
LINE
  5
6DDD
  8
AM_0
 10
133.36910293322589
 20
169.90294667620171
 30
0.0
 11
141.36910293322501
 21
169.90294667620171
 31
0.0
  0
LINE
  5
6DDE
  8
AM_0
 10
129.8691029332258
 20
187.3234772197136
 30
0.0
 11
133.3691029332258
 21
187.3234772197136
 31
0.0
  0
LINE
  5
6DDF
  8
AM_0
 10
129.8691029332258
 20
178.82347721971371
 30
0.0
 11
133.3691029332258
 21
178.82347721971371
 31
0.0
  0
LINE
  5
6DE0
  8
AM_0
 10
129.3691029332258
 20
179.32347721971371
 30
0.0
 11
129.3691029332258
 21
186.82347721971371
 31
0.0
  0
ARC
  5
6DE1
  8
AM_0
 10
129.8691029332258
 20
179.32347721971371
 30
0.0
 40
0.5
 50
180.0
 51
270.0
  0
ARC
  5
6DE2
  8
AM_0
 10
129.8691029332258
 20
186.82347721971371
 30
0.0
 40
0.5
 50
90.0
 51
180.0
  0
LINE
  5
6DE3
  8
AM_0
 10
124.36910293322499
 20
179.69215569183359
 30
0.0
 11
129.3691029332258
 21
179.69215569183359
 31
0.0
  0
LINE
  5
6DE4
  8
AM_0
 10
124.36910293322499
 20
189.42723819012949
 30
0.0
 11
133.36910293322569
 21
189.42723819012949
 31
0.0
  0
LINE
  5
6DE5
  8
AM_0
 10
133.36910293322549
 20
236.30346677898859
 30
0.0
 11
141.36910293322501
 21
236.30346677898851
 31
0.0
  0
LINE
  5
6DE6
  8
AM_0
 10
133.36910293322589
 20
169.90294667620179
 30
0.0
 11
133.36910293322569
 21
194.8286314463038
 31
0.0
  0
LINE
  5
6DE7
  8
AM_0
 10
133.36910293322549
 20
201.3048875222681
 30
0.0
 11
133.36910293322549
 21
207.62523359095911
 31
0.0
  0
LINE
  5
6DE8
  8
AM_0
 10
133.36910293322549
 20
207.62523359095891
 30
0.0
 11
141.36910293322501
 21
207.6252335909592
 31
0.0
  0
LINE
  5
6DE9
  8
AM_0
 10
153.28052025457691
 20
198.9643156849736
 30
0.0
 11
160.86909293322509
 21
198.9643156849736
 31
0.0
  0
ARC
  5
6DEA
  8
AM_0
 10
153.28052025457691
 20
148.9643156849736
 30
0.0
 40
50.0
 50
90.0
 51
122.4712801930125
1001
GENIUS_GENOBJ-N-FIL_13
1002
{
1000
OWNER
1000
GEN
1002
}
1001
GENIUS_GENODEF_13
1002
{
1000
HIER
1070
     0
1002
}
1002
{
1000
MANEDIT
1070
     0
1002
}
1002
{
1000
NOSEL
1070
     0
1002
}
1002
{
1000
BEHIND
1070
     0
1002
}
1002
{
1000
OTHER
1070
     0
1002
}
1002
{
1000
REACTOR
1002
}
  0
LINE
  5
6DEB
  8
AM_0
 10
153.28052025457669
 20
204.9643156849734
 30
0.0
 11
160.86909293322509
 21
204.9643156849734
 31
0.0
  0
ARC
  5
6DEC
  8
AM_0
 10
153.28052025457609
 20
148.96431568497329
 30
0.0
 40
56.0
 50
90.0
 51
122.4712801930125
1001
GENIUS_GENODEF_13
1002
{
1000
HIER
1070
     0
1002
}
1002
{
1000
MANEDIT
1070
     0
1002
}
1002
{
1000
NOSEL
1070
     0
1002
}
1002
{
1000
BEHIND
1070
     0
1002
}
1002
{
1000
OTHER
1070
     0
1002
}
1002
{
1000
REACTOR
1002
}
1001
GENIUS_GENOBJ-N-FIL_13
1002
{
1000
OWNER
1000
GEN
1002
}
  0
LINE
  5
6DED
  8
AM_0
 10
89.458518181889389
 20
257.9547265298998
 30
0.0
 11
89.458518181889389
 21
251.44312163094099
 31
0.0
  0
LINE
  5
6DEE
  8
AM_0
 10
86.369102933224909
 20
210.9643156849736
 30
0.0
 11
86.369102933224909
 21
205.4643156849736
 31
0.0
  0
LINE
  5
6DEF
  8
AM_0
 10
91.869102933224866
 20
218.4643156849736
 30
0.0
 11
91.869102933224866
 21
225.46431568497351
 31
0.0
  0
LINE
  5
6DF0
  8
AM_0
 10
103.5691029332249
 20
205.4643156849736
 30
0.0
 11
86.369102933224909
 21
205.4643156849736
 31
0.0
  0
LINE
  5
6DF1
  8
AM_0
 10
118.3691029332248
 20
167.9643156849736
 30
0.0
 11
118.3691029332248
 21
186.01341822923371
 31
0.0
  0
LINE
  5
6DF2
  8
AM_0
 10
118.3691029332248
 20
193.1252823418512
 30
0.0
 11
118.3691029332248
 21
275.96431568497371
 31
0.0
  0
LINE
  5
6DF3
  8
AM_0
 10
86.369102933224909
 20
220.4643156849736
 30
0.0
 11
87.269102933224886
 21
220.4643156849736
 31
0.0
  0
LINE
  5
6DF4
  8
AM_0
 10
103.8691029332248
 20
213.4643156849736
 30
0.0
 11
103.8691029332248
 21
216.0488253695776
 31
0.0
  0
LINE
  5
6DF5
  8
AM_0
 10
84.169102933224622
 20
223.4643156849736
 30
0.0
 11
84.169102933224622
 21
220.4643156849736
 31
0.0
  0
LINE
  5
6DF6
  8
AM_0
 10
87.269102933224886
 20
220.19196395039009
 30
0.0
 11
87.269102933224886
 21
223.73666741955739
 31
0.0
  0
LINE
  5
6DF7
  8
AM_0
 10
83.869102933224767
 20
223.16431568497359
 30
0.0
 11
87.269102933224985
 21
223.16431568497359
 31
0.0
  0
LINE
  5
6DF8
  8
AM_0
 10
91.269102933224843
 20
219.5827458245665
 30
0.0
 11
91.269102933224843
 21
218.4643156849736
 31
0.0
  0
LINE
  5
6DF9
  8
AM_0
 10
91.269102933224843
 20
220.4643156849736
 30
0.0
 11
91.269102933224843
 21
220.36431568497369
 31
0.0
  0
LINE
  5
6DFA
  8
AM_0
 10
91.269102933224843
 20
220.36431568497369
 30
0.0
 11
91.269102933224843
 21
219.5827458245665
 31
0.0
  0
LINE
  5
6DFB
  8
AM_0
 10
86.369102933224909
 20
205.4643156849736
 30
0.0
 11
86.369102933224909
 21
197.22678167555131
 31
0.0
  0
LINE
  5
6DFC
  8
AM_0
 10
103.7226563238182
 20
216.4023787601709
 30
0.0
 11
103.3675891976299
 21
216.75744588635919
 31
0.0
  0
LINE
  5
6DFD
  8
AM_0
 10
86.369102933224909
 20
223.4643156849736
 30
0.0
 11
86.369102933224909
 21
246.70184969439609
 31
0.0
  0
LINE
  5
6DFE
  8
AM_0
 10
118.3691029332248
 20
266.96431568497383
 30
0.0
 11
94.599094232592293
 21
266.9643156849736
 31
0.0
  0
LINE
  5
6DFF
  8
AM_0
 10
86.369102933224909
 20
211.8907188606947
 30
0.0
 11
86.369102933224909
 21
220.4643156849736
 31
0.0
  0
LINE
  5
6E00
  8
AM_0
 10
124.36910293322499
 20
275.96431568497371
 30
0.0
 11
118.3691029332248
 21
275.96431568497371
 31
0.0
  0
LINE
  5
6E01
  8
AM_0
 10
118.3691029332248
 20
167.9643156849736
 30
0.0
 11
124.3691029332248
 21
167.9643156849736
 31
0.0
  0
LINE
  5
6E02
  8
AM_0
 10
118.3691029332248
 20
176.9643156849736
 30
0.0
 11
108.8691029332248
 21
176.9643156849736
 31
0.0
  0
LINE
  5
6E03
  8
AM_0
 10
86.414679674188292
 20
247.22279422739669
 30
0.0
 11
88.98412312185053
 21
261.79483213866052
 31
0.0
  0
LINE
  5
6E04
  8
AM_0
 10
86.369102933224909
 20
211.8907188606947
 30
0.0
 11
86.369102933224909
 21
210.9643156849736
 31
0.0
  0
LINE
  5
6E05
  8
AM_0
 10
108.8691029332248
 20
177.0329381353595
 30
0.0
 11
106.3063156343279
 21
177.0329381353595
 31
0.0
  0
LINE
  5
6E06
  8
AM_0
 10
92.412941440926062
 20
176.9643156849736
 30
0.0
 11
93.369102933224866
 21
176.9643156849736
 31
0.0
  0
LINE
  5
6E07
  8
AM_0
 10
86.414679674188292
 20
196.70583714255051
 30
0.0
 11
89.458518181889389
 21
179.4433711519728
 31
0.0
  0
LINE
  5
6E08
  8
AM_0
 10
86.369102933224909
 20
196.9643156849736
 30
0.0
 11
86.414679674188292
 21
196.70583714255051
 31
0.0
  0
LINE
  5
6E09
  8
AM_0
 10
86.369102933224909
 20
197.22678167555131
 30
0.0
 11
86.369102933224909
 21
196.9643156849736
 31
0.0
  0
LINE
  5
6E0A
  8
AM_0
 10
85.869064265217958
 20
275.4643156849736
 30
0.0
 11
85.869041812819333
 21
302.4643156849736
 31
0.0
  0
LINE
  5
6E0B
  8
AM_0
 10
85.869041812819333
 20
302.4643156849736
 30
0.0
 11
93.869041812821919
 21
302.4643156849736
 31
0.0
  0
LINE
  5
6E0C
  8
AM_0
 10
93.869041812821919
 20
302.4643156849736
 30
0.0
 11
95.369037157642865
 21
308.06237452296227
 31
0.0
  0
LINE
  5
6E0D
  8
AM_0
 10
95.369037157642865
 20
308.06237452296227
 30
0.0
 11
95.369022394282496
 21
325.81596680285247
 31
0.0
  0
LINE
  5
6E0E
  8
AM_0
 10
85.869041812819333
 20
302.4643156849736
 30
0.0
 11
84.369037157610222
 21
308.06240926980348
 31
0.0
  0
LINE
  5
6E0F
  8
AM_0
 10
84.369037157610222
 20
308.06240926980348
 30
0.0
 11
84.369022394286276
 21
325.8159576555791
 31
0.0
  0
LINE
  5
6E10
  8
AM_0
 10
89.869064265219293
 20
325.8159576555791
 30
0.0
 11
89.869064265219293
 21
308.06240926980348
 31
0.0
  0
LINE
  5
6E11
  8
AM_0
 10
93.869041812821919
 20
302.4643156849736
 30
0.0
 11
93.869064265220771
 21
275.4643156849736
 31
0.0
  0
LINE
  5
6E12
  8
AM_0
 10
103.8691029332248
 20
251.44312163094099
 30
0.0
 11
103.8691029332248
 21
205.7643156849735
 31
0.0
  0
LINE
  5
6E13
  8
AM_0
 10
91.869102933224866
 20
216.0488253695776
 30
0.0
 11
91.869102933224866
 21
213.4643156849736
 31
0.0
  0
LINE
  5
6E14
  8
AM_0
 10
92.37061666881992
 20
216.75744588635919
 30
0.0
 11
92.015549542631689
 21
216.4023787601709
 31
0.0
  0
LINE
  5
6E15
  8
AM_0
 10
103.3691029332248
 20
212.9643156849736
 30
0.0
 11
92.369102933224866
 21
212.9643156849736
 31
0.0
  0
LINE
  5
6E16
  8
AM_0
 10
83.369065096723929
 20
274.46431027976638
 30
0.0
 11
83.369092122759412
 21
269.46431027976661
 31
0.0
  0
LINE
  5
6E17
  8
AM_0
 10
96.369065096855522
 20
274.4643210901807
 30
0.0
 11
96.369091024675186
 21
269.66749843681009
 31
0.0
  0
LINE
  5
6E18
  8
AM_0
 10
86.989606185305789
 20
267.4643156849736
 30
0.0
 11
86.418044283940503
 21
268.12089950703398
 31
0.0
  0
LINE
  5
6E19
  8
AM_0
 10
84.369092122744846
 20
268.4643156849736
 30
0.0
 11
95.369091024675186
 21
268.4643156849736
 31
0.0
  0
LINE
  5
6E1A
  8
AM_0
 10
96.369091024675186
 20
269.66749843681009
 30
0.0
 11
96.369091024675186
 21
269.4643156849736
 31
0.0
  0
LINE
  5
6E1B
  8
AM_0
 10
96.369091024675186
 20
269.66749843681009
 30
0.0
 11
96.369092122890933
 21
269.46432109018048
 31
0.0
  0
LINE
  5
6E1C
  8
AM_0
 10
84.369065096709377
 20
275.4643156849736
 30
0.0
 11
95.369065096870116
 21
275.4643156849736
 31
0.0
  0
LINE
  5
6E1D
  8
AM_0
 10
94.376538895387043
 20
267.49490275525909
 30
0.0
 11
101.4993386287325
 21
250.51366343651239
 31
0.0
  0
LINE
  5
6E1E
  8
AM_0
 10
86.989606185305789
 20
267.4643156849736
 30
0.0
 11
93.566321260616036
 21
248.7697750545714
 31
0.0
  0
LINE
  5
6E1F
  8
AM_0
 10
91.269102933224843
 20
220.4643156849736
 30
0.0
 11
91.269102933224843
 21
220.36431568497369
 31
0.0
  0
LINE
  5
6E20
  8
AM_0
 10
91.269102933224843
 20
220.36431568497369
 30
0.0
 11
91.269102933224843
 21
219.5827458245665
 31
0.0
  0
LINE
  5
6E21
  8
AM_0
 10
91.269102933224843
 20
218.4643156849736
 30
0.0
 11
91.869102933224866
 21
218.4643156849736
 31
0.0
  0
LINE
  5
6E22
  8
AM_0
 10
88.56910293322494
 20
219.5827458245665
 30
0.0
 11
88.56910293322494
 21
224.3458855453809
 31
0.0
  0
LINE
  5
6E23
  8
AM_0
 10
88.408058703967399
 20
219.29605419622351
 30
0.0
 11
87.475505654460221
 21
219.8344639503901
 31
0.0
  0
LINE
  5
6E24
  8
AM_0
 10
91.269102933224843
 20
225.46431568497351
 30
0.0
 11
91.269102933224843
 21
220.4643156849736
 31
0.0
  0
LINE
  5
6E25
  8
AM_0
 10
88.841554525255432
 20
218.78888920443069
 30
0.0
 11
90.996651341194223
 21
218.78888920443069
 31
0.0
  0
LINE
  5
6E26
  8
AM_0
 10
88.841554525255432
 20
220.3766024447022
 30
0.0
 11
90.996651341194223
 21
220.3766024447022
 31
0.0
  0
LINE
  5
6E27
  8
AM_0
 10
87.269102933224985
 20
223.4643156849736
 30
0.0
 11
84.169102933224622
 21
223.4643156849736
 31
0.0
  0
LINE
  5
6E28
  8
AM_0
 10
84.169102933224622
 20
223.4643156849736
 30
0.0
 11
83.869102933224767
 21
223.16431568497359
 31
0.0
  0
LINE
  5
6E29
  8
AM_0
 10
83.869102933224767
 20
223.16431568497359
 30
0.0
 11
83.869102933224767
 21
220.7643156849737
 31
0.0
  0
LINE
  5
6E2A
  8
AM_0
 10
84.169102933224622
 20
220.4643156849736
 30
0.0
 11
86.369102933224909
 21
220.4643156849736
 31
0.0
  0
LINE
  5
6E2B
  8
AM_0
 10
83.869102933224767
 20
220.7643156849737
 30
0.0
 11
84.169102933224622
 21
220.4643156849736
 31
0.0
  0
LINE
  5
6E2C
  8
AM_0
 10
87.269102933224886
 20
220.7643156849737
 30
0.0
 11
83.869102933224767
 21
220.7643156849737
 31
0.0
  0
ARC
  5
6E2D
  8
AM_0
 10
85.869102933224909
 20
221.9643156849736
 30
0.0
 40
18.000000000000082
 50
344.79096035988778
 51
15.209039640109051
  0
ARC
  5
6E2E
  8
AM_0
 10
89.976326117198354
 20
219.5827458245665
 30
0.0
 40
1.292776816026465
 50
322.11555894630823
 51
0.0
  0
ARC
  5
6E2F
  8
AM_0
 10
109.8691029332248
 20
221.9643156849736
 30
0.0
 40
17.999999999999918
 50
164.7909603598878
 51
195.2090396401122
  0
ARC
  5
6E30
  8
AM_0
 10
89.869029339265808
 20
317.4643156849736
 30
0.0
 40
10.0
 50
56.63303467623421
 51
123.3670606147017
  0
ARC
  5
6E31
  8
AM_0
 10
87.119043329752785
 20
321.38330929597322
 30
0.0
 40
5.2164151124522951
 50
58.184480448431877
 51
121.8155195515681
  0
ARC
  5
6E32
  8
AM_0
 10
92.619050703387416
 20
321.38243440521319
 30
0.0
 40
5.217140387381062
 50
58.190058295970758
 51
121.8101322873589
  0
ARC
  5
6E33
  8
AM_0
 10
87.119050711414843
 20
309.43036328414632
 30
0.0
 40
3.0714610092699122
 50
206.44737672421971
 51
333.55262327578032
  0
ARC
  5
6E34
  8
AM_0
 10
92.619059342786045
 20
309.42862307945097
 30
0.0
 40
3.070669812974502
 50
206.41845794672909
 51
333.58081810520508
  0
ARC
  5
6E35
  8
AM_0
 10
93.331532809284539
 20
221.9643156849736
 30
0.0
 40
4.762429876059711
 50
160.52575999458611
 51
199.4742400054138
  0
ARC
  5
6E36
  8
AM_0
 10
89.861879749251443
 20
219.5827458245665
 30
0.0
 40
1.292776816026556
 50
142.11555894629831
 51
217.8844410536918
  0
ARC
  5
6E37
  8
AM_0
 10
86.50667305716533
 20
221.9643156849736
 30
0.0
 40
4.762429876059584
 50
340.52575999458628
 51
19.474240005411509
  0
ARC
  5
6E38
  8
AM_0
 10
89.976326117198354
 20
219.5827458245665
 30
0.0
 40
1.2927768160265021
 50
0.0
 51
37.884441053701622
  0
ARC
  5
6E39
  8
AM_0
 10
103.5691029332249
 20
205.7643156849735
 30
0.0
 40
0.2999999999999972
 50
270.0
 51
0.0
  0
ARC
  5
6E3A
  8
AM_0
 10
103.7211425882232
 20
217.1109992769525
 30
0.0
 40
0.4999999999998723
 50
164.79096035990051
 51
225.00000000001839
  0
ARC
  5
6E3B
  8
AM_0
 10
89.369102933224895
 20
197.22678167555131
 30
0.0
 40
3.0
 50
180.0
 51
190.00000000000171
  0
ARC
  5
6E3C
  8
AM_0
 10
89.369102933224895
 20
246.70184969439609
 30
0.0
 40
2.999999999999992
 50
169.9999999999981
 51
180.0
  0
ARC
  5
6E3D
  8
AM_0
 10
92.412941440926062
 20
179.9643156849736
 30
0.0
 40
2.9999999999999631
 50
190.00000000000171
 51
270.0
  0
ARC
  5
6E3E
  8
AM_0
 10
92.369102933224866
 20
213.4643156849736
 30
0.0
 40
0.5
 50
180.0
 51
270.0
  0
ARC
  5
6E3F
  8
AM_0
 10
103.3691029332248
 20
213.4643156849736
 30
0.0
 40
0.5
 50
270.0
 51
0.0
  0
ARC
  5
6E40
  8
AM_0
 10
103.3691029332248
 20
216.0488253695776
 30
0.0
 40
0.5
 50
0.0
 51
45.0
  0
ARC
  5
6E41
  8
AM_0
 10
92.017063278226587
 20
217.1109992769525
 30
0.0
 40
0.5000000000001048
 50
314.99999999998278
 51
15.20903964009948
  0
ARC
  5
6E42
  8
AM_0
 10
92.369102933224866
 20
216.0488253695776
 30
0.0
 40
0.499999999999984
 50
134.99999999999079
 51
180.0
  0
ARC
  5
6E43
  8
AM_0
 10
84.369065096709377
 20
274.4643156849736
 30
0.0
 40
1.0
 50
90.0
 51
180.00030969555451
  0
ARC
  5
6E44
  8
AM_0
 10
95.369065096870116
 20
274.4643156849736
 30
0.0
 40
0.9999999999999992
 50
0.0003096955479991
 51
90.0
  0
ARC
  5
6E45
  8
AM_0
 10
84.369092122744846
 20
269.4643156849736
 30
0.0
 40
0.9999999999999992
 50
180.00030969555451
 51
270.0
  0
ARC
  5
6E46
  8
AM_0
 10
95.369091024675186
 20
269.4643156849736
 30
0.0
 40
1.0
 50
270.0
 51
0.0
  0
ARC
  5
6E47
  8
AM_0
 10
94.849332811760405
 20
267.86431568497369
 30
0.0
 40
0.5999999999999944
 50
90.0
 51
218.00194433773009
  0
ARC
  5
6E48
  8
AM_0
 10
85.663791219903942
 20
267.4643156849736
 30
0.0
 40
0.9999999999999468
 50
41.039853109576811
 51
90.0
  0
ARC
  5
6E49
  8
AM_0
 10
87.681908375695457
 20
220.19196395039009
 30
0.0
 40
0.4128054424705854
 50
180.0
 51
239.9999999999998
  0
ARC
  5
6E4A
  8
AM_0
 10
87.995253261496813
 20
218.5810541962235
 30
0.0
 40
0.8256108849411369
 50
28.217424594177551
 51
59.999999999999851
  0
LINE
  5
6E4B
  8
AM_0
 10
87.158837262856423
 20
251.44312163094079
 30
0.0
 11
92.625841412625263
 21
251.44312163094079
 31
0.0
  0
LINE
  5
6E4C
  8
AM_0
 10
101.1094763545389
 20
251.44312163094079
 30
0.0
 11
103.8691029332248
 21
251.44312163094079
 31
0.0
  0
LINE
  5
6E4D
  8
AM_0
 10
91.269102933225227
 20
225.4643156849736
 30
0.0
 11
91.869102933225122
 21
225.46431568497351
 31
0.0
  0
LINE
  5
6E4E
  8
AM_0
 10
88.408058703967654
 20
224.6325771737238
 30
0.0
 11
87.475505654460335
 21
224.09416741955741
 31
0.0
  0
LINE
  5
6E4F
  8
AM_0
 10
88.841554525255773
 20
225.13974216551671
 30
0.0
 11
90.996651341194607
 21
225.13974216551651
 31
0.0
  0
LINE
  5
6E50
  8
AM_0
 10
88.84155452525556
 20
223.5520289252452
 30
0.0
 11
90.996651341194465
 21
223.5520289252448
 31
0.0
  0
ARC
  5
6E51
  8
AM_0
 10
89.976326117198596
 20
224.3458855453807
 30
0.0
 40
1.292776816026465
 50
359.99999999999352
 51
37.88444105369058
  0
ARC
  5
6E52
  8
AM_0
 10
89.861879749251557
 20
224.3458855453809
 30
0.0
 40
1.292776816026556
 50
142.11555894629831
 51
217.8844410536918
  0
ARC
  5
6E53
  8
AM_0
 10
89.976326117198596
 20
224.3458855453807
 30
0.0
 40
1.2927768160265021
 50
322.11555894628992
 51
359.99999999999352
  0
ARC
  5
6E54
  8
AM_0
 10
87.681908375695571
 20
223.73666741955739
 30
0.0
 40
0.4128054424705854
 50
119.9999999999924
 51
179.99999999999341
  0
ARC
  5
6E55
  8
AM_0
 10
87.995253261497055
 20
225.34757717372389
 30
0.0
 40
0.8256108849411369
 50
300.0
 51
331.7825754058203
  0
LINE
  5
6E56
  8
AM_0
 10
103.86910293322541
 20
230.46431568497309
 30
0.0
 11
103.86910293322519
 21
227.87980600036909
 31
0.0
  0
LINE
  5
6E57
  8
AM_0
 10
103.7226563238185
 20
227.52625260977581
 30
0.0
 11
103.3675891976302
 21
227.17118548358761
 31
0.0
  0
LINE
  5
6E58
  8
AM_0
 10
91.869102933225236
 20
227.8798060003698
 30
0.0
 11
91.869102933225449
 21
230.4643156849738
 31
0.0
  0
LINE
  5
6E59
  8
AM_0
 10
92.37061666882029
 20
227.17118548358829
 30
0.0
 11
92.015549542632144
 21
227.52625260977649
 31
0.0
  0
LINE
  5
6E5A
  8
AM_0
 10
103.36910293322541
 20
230.96431568497309
 30
0.0
 11
102.888525047378
 21
230.96431568497309
 31
0.0
  0
LINE
  5
6E5B
  8
AM_0
 10
92.849680819072759
 20
230.9643156849738
 30
0.0
 11
92.369102933225463
 21
230.9643156849738
 31
0.0
  0
ARC
  5
6E5C
  8
AM_0
 10
103.7211425882235
 20
226.8176320929943
 30
0.0
 40
0.4999999999998723
 50
134.99999999997351
 51
195.20903964009699
  0
ARC
  5
6E5D
  8
AM_0
 10
92.369102933225463
 20
230.4643156849738
 30
0.0
 40
0.5
 50
89.999999999993477
 51
179.99999999999659
  0
ARC
  5
6E5E
  8
AM_0
 10
103.36910293322541
 20
230.46431568497309
 30
0.0
 40
0.5
 50
359.99999999999682
 51
89.999999999993477
  0
ARC
  5
6E5F
  8
AM_0
 10
103.36910293322519
 20
227.8798060003692
 30
0.0
 40
0.5
 50
314.99999999999193
 51
359.99999999999682
  0
ARC
  5
6E60
  8
AM_0
 10
92.0170632782268
 20
226.8176320929949
 30
0.0
 40
0.5000000000001048
 50
344.79096035989738
 51
45.000000000009209
  0
ARC
  5
6E61
  8
AM_0
 10
92.369102933225236
 20
227.8798060003698
 30
0.0
 40
0.499999999999984
 50
179.99999999999659
 51
225.0000000000081
  0
LINE
  5
6E62
  8
AM_0
 10
93.849680819072859
 20
247.11046708279551
 30
0.0
 11
93.849680819072759
 21
231.9643156849738
 31
0.0
  0
ARC
  5
6E63
  8
AM_0
 10
92.849680819072759
 20
231.9643156849738
 30
0.0
 40
1.0
 50
269.99999999999352
 51
0.0
1001
GENIUS_GENODEF_13
1002
{
1000
HIER
1070
     0
1002
}
1002
{
1000
MANEDIT
1070
     0
1002
}
1002
{
1000
NOSEL
1070
     0
1002
}
1002
{
1000
BEHIND
1070
     0
1002
}
1002
{
1000
OTHER
1070
     0
1002
}
1002
{
1000
REACTOR
1002
}
1001
GENIUS_GENOBJ-N-FIL_13
1002
{
1000
OWNER
1000
GEN
1002
}
  0
ARC
  5
6E64
  8
AM_0
 10
88.849680819072859
 20
247.11046708279551
 30
0.0
 40
5.0
 50
0.0
 51
19.38180569902201
1001
GENIUS_GENOBJ-N-FIL_13
1002
{
1000
OWNER
1000
GEN
1002
}
1001
GENIUS_GENODEF_13
1002
{
1000
HIER
1070
     0
1002
}
1002
{
1000
MANEDIT
1070
     0
1002
}
1002
{
1000
NOSEL
1070
     0
1002
}
1002
{
1000
BEHIND
1070
     0
1002
}
1002
{
1000
OTHER
1070
     0
1002
}
1002
{
1000
REACTOR
1002
}
  0
LINE
  5
6E65
  8
AM_0
 10
101.8885250473781
 20
248.5796525477121
 30
0.0
 11
101.8885250473781
 21
231.96431568497309
 31
0.0
  0
ARC
  5
6E66
  8
AM_0
 10
102.8885250473781
 20
231.96431568497309
 30
0.0
 40
1.0
 50
180.0
 51
269.99999999999352
1001
GENIUS_GENOBJ-N-FIL_13
1002
{
1000
OWNER
1000
GEN
1002
}
1001
GENIUS_GENODEF_13
1002
{
1000
HIER
1070
     0
1002
}
1002
{
1000
MANEDIT
1070
     0
1002
}
1002
{
1000
NOSEL
1070
     0
1002
}
1002
{
1000
BEHIND
1070
     0
1002
}
1002
{
1000
OTHER
1070
     0
1002
}
1002
{
1000
REACTOR
1002
}
  0
ARC
  5
6E67
  8
AM_0
 10
96.888525047378167
 20
248.5796525477121
 30
0.0
 40
5.0
 50
0.0
 51
22.755667319206839
1001
GENIUS_GENODEF_13
1002
{
1000
HIER
1070
     0
1002
}
1002
{
1000
MANEDIT
1070
     0
1002
}
1002
{
1000
NOSEL
1070
     0
1002
}
1002
{
1000
BEHIND
1070
     0
1002
}
1002
{
1000
OTHER
1070
     0
1002
}
1002
{
1000
REACTOR
1002
}
1001
GENIUS_GENOBJ-N-FIL_13
1002
{
1000
OWNER
1000
GEN
1002
}
  0
LINE
  5
6E68
  8
AM_0
 10
92.595641779882925
 20
226.94616037252561
 30
0.0
 11
103.1425640865682
 21
226.94616037252561
 31
0.0
  0
LINE
  5
6E69
  8
AM_0
 10
92.595641779882584
 20
216.98247099742181
 30
0.0
 11
103.14256408656711
 21
216.98247099742181
 31
0.0
  0
LINE
  5
6E6A
  8
AM_0
 10
89.458518181889389
 20
185.97390484004751
 30
0.0
 11
89.458518181889389
 21
205.4643156849736
 31
0.0
  0
LINE
  5
6E6B
  8
AM_0
 10
92.412941440926062
 20
176.9643156849736
 30
0.0
 11
92.412941440926062
 21
205.4643156849736
 31
0.0
  0
LINE
  5
6E86
  8
AM_0
 10
102.16795599760179
 20
175.70356253101929
 30
0.0
 11
126.4366809284296
 21
191.1473488882888
 31
0.0
  0
LINE
  5
6E87
  8
AM_0
 10
98.946695278464176
 20
180.76552651541709
 30
0.0
 11
123.2154202092912
 21
196.2093128726863
 31
0.0
  0
POLYLINE
  5
6E88
  8
AM_0
 66
     1
 10
0.0
 20
0.0
 30
0.0
 70
     8
  0
VERTEX
  5
7978
  8
AM_0
 10
98.946700000000007
 20
180.76599999999999
 30
0.0
 70
    32
  0
VERTEX
  5
7979
  8
AM_0
 10
98.870700000000014
 20
180.71600000000001
 30
0.0
 70
    32
  0
VERTEX
  5
797A
  8
AM_0
 10
98.795700000000011
 20
180.66499999999999
 30
0.0
 70
    32
  0
VERTEX
  5
797B
  8
AM_0
 10
98.721699999999998
 20
180.613
 30
0.0
 70
    32
  0
VERTEX
  5
797C
  8
AM_0
 10
98.648899999999998
 20
180.559
 30
0.0
 70
    32
  0
VERTEX
  5
797D
  8
AM_0
 10
98.577200000000005
 20
180.50399999999999
 30
0.0
 70
    32
  0
VERTEX
  5
797E
  8
AM_0
 10
98.506699999999995
 20
180.447
 30
0.0
 70
    32
  0
VERTEX
  5
797F
  8
AM_0
 10
98.437399999999997
 20
180.38900000000001
 30
0.0
 70
    32
  0
VERTEX
  5
7980
  8
AM_0
 10
98.369500000000016
 20
180.33000000000001
 30
0.0
 70
    32
  0
VERTEX
  5
7981
  8
AM_0
 10
98.302800000000005
 20
180.26900000000001
 30
0.0
 70
    32
  0
VERTEX
  5
7982
  8
AM_0
 10
98.237499999999997
 20
180.208
 30
0.0
 70
    32
  0
VERTEX
  5
7983
  8
AM_0
 10
98.173599999999993
 20
180.14500000000001
 30
0.0
 70
    32
  0
VERTEX
  5
7984
  8
AM_0
 10
98.111099999999993
 20
180.08099999999999
 30
0.0
 70
    32
  0
VERTEX
  5
7985
  8
AM_0
 10
98.050100000000015
 20
180.01499999999999
 30
0.0
 70
    32
  0
VERTEX
  5
7986
  8
AM_0
 10
97.990600000000001
 20
179.94900000000001
 30
0.0
 70
    32
  0
VERTEX
  5
7987
  8
AM_0
 10
97.932599999999994
 20
179.88200000000001
 30
0.0
 70
    32
  0
VERTEX
  5
7988
  8
AM_0
 10
97.876300000000001
 20
179.81399999999999
 30
0.0
 70
    32
  0
VERTEX
  5
7989
  8
AM_0
 10
97.821500000000015
 20
179.744
 30
0.0
 70
    32
  0
VERTEX
  5
798A
  8
AM_0
 10
97.768399999999986
 20
179.67400000000001
 30
0.0
 70
    32
  0
VERTEX
  5
798B
  8
AM_0
 10
97.716999999999999
 20
179.60300000000001
 30
0.0
 70
    32
  0
VERTEX
  5
798C
  8
AM_0
 10
97.667299999999997
 20
179.53099999999989
 30
0.0
 70
    32
  0
VERTEX
  5
798D
  8
AM_0
 10
97.619299999999996
 20
179.459
 30
0.0
 70
    32
  0
VERTEX
  5
798E
  8
AM_0
 10
97.573099999999997
 20
179.386
 30
0.0
 70
    32
  0
VERTEX
  5
798F
  8
AM_0
 10
97.528700000000015
 20
179.31099999999989
 30
0.0
 70
    32
  0
VERTEX
  5
7990
  8
AM_0
 10
97.486099999999993
 20
179.23699999999999
 30
0.0
 70
    32
  0
VERTEX
  5
7991
  8
AM_0
 10
97.445400000000006
 20
179.16200000000001
 30
0.0
 70
    32
  0
VERTEX
  5
7992
  8
AM_0
 10
97.406599999999997
 20
179.08600000000001
 30
0.0
 70
    32
  0
VERTEX
  5
7993
  8
AM_0
 10
97.369600000000005
 20
179.00899999999999
 30
0.0
 70
    32
  0
VERTEX
  5
7994
  8
AM_0
 10
97.334599999999995
 20
178.93199999999999
 30
0.0
 70
    32
  0
VERTEX
  5
7995
  8
AM_0
 10
97.301500000000004
 20
178.85499999999999
 30
0.0
 70
    32
  0
VERTEX
  5
7996
  8
AM_0
 10
97.270300000000006
 20
178.77799999999999
 30
0.0
 70
    32
  0
VERTEX
  5
7997
  8
AM_0
 10
97.241200000000006
 20
178.69999999999999
 30
0.0
 70
    32
  0
VERTEX
  5
7998
  8
AM_0
 10
97.213999999999999
 20
178.62100000000001
 30
0.0
 70
    32
  0
VERTEX
  5
7999
  8
AM_0
 10
97.188900000000004
 20
178.54300000000001
 30
0.0
 70
    32
  0
VERTEX
  5
799A
  8
AM_0
 10
97.165800000000004
 20
178.464
 30
0.0
 70
    32
  0
VERTEX
  5
799B
  8
AM_0
 10
97.1447
 20
178.386
 30
0.0
 70
    32
  0
VERTEX
  5
799C
  8
AM_0
 10
97.125699999999995
 20
178.30699999999999
 30
0.0
 70
    32
  0
VERTEX
  5
799D
  8
AM_0
 10
97.108699999999985
 20
178.22800000000001
 30
0.0
 70
    32
  0
VERTEX
  5
799E
  8
AM_0
 10
97.093900000000005
 20
178.149
 30
0.0
 70
    32
  0
VERTEX
  5
799F
  8
AM_0
 10
97.081100000000006
 20
178.06999999999999
 30
0.0
 70
    32
  0
VERTEX
  5
79A0
  8
AM_0
 10
97.070400000000006
 20
177.99100000000001
 30
0.0
 70
    32
  0
VERTEX
  5
79A1
  8
AM_0
 10
97.061800000000005
 20
177.91300000000001
 30
0.0
 70
    32
  0
VERTEX
  5
79A2
  8
AM_0
 10
97.055300000000017
 20
177.834
 30
0.0
 70
    32
  0
VERTEX
  5
79A3
  8
AM_0
 10
97.051000000000016
 20
177.756
 30
0.0
 70
    32
  0
VERTEX
  5
79A4
  8
AM_0
 10
97.048699999999997
 20
177.678
 30
0.0
 70
    32
  0
VERTEX
  5
79A5
  8
AM_0
 10
97.048500000000004
 20
177.59999999999999
 30
0.0
 70
    32
  0
VERTEX
  5
79A6
  8
AM_0
 10
97.050499999999985
 20
177.523
 30
0.0
 70
    32
  0
VERTEX
  5
79A7
  8
AM_0
 10
97.054599999999994
 20
177.447
 30
0.0
 70
    32
  0
VERTEX
  5
79A8
  8
AM_0
 10
97.0608
 20
177.37
 30
0.0
 70
    32
  0
VERTEX
  5
79A9
  8
AM_0
 10
97.069100000000006
 20
177.29400000000001
 30
0.0
 70
    32
  0
VERTEX
  5
79AA
  8
AM_0
 10
97.079499999999996
 20
177.21899999999999
 30
0.0
 70
    32
  0
VERTEX
  5
79AB
  8
AM_0
 10
97.091999999999999
 20
177.14500000000001
 30
0.0
 70
    32
  0
VERTEX
  5
79AC
  8
AM_0
 10
97.106500000000011
 20
177.071
 30
0.0
 70
    32
  0
VERTEX
  5
79AD
  8
AM_0
 10
97.123199999999997
 20
176.99799999999999
 30
0.0
 70
    32
  0
VERTEX
  5
79AE
  8
AM_0
 10
97.141900000000021
 20
176.92500000000001
 30
0.0
 70
    32
  0
VERTEX
  5
79AF
  8
AM_0
 10
97.162700000000015
 20
176.85300000000001
 30
0.0
 70
    32
  0
VERTEX
  5
79B0
  8
AM_0
 10
97.185500000000005
 20
176.78299999999999
 30
0.0
 70
    32
  0
VERTEX
  5
79B1
  8
AM_0
 10
97.210400000000021
 20
176.71299999999999
 30
0.0
 70
    32
  0
VERTEX
  5
79B2
  8
AM_0
 10
97.237200000000001
 20
176.64400000000001
 30
0.0
 70
    32
  0
VERTEX
  5
79B3
  8
AM_0
 10
97.266099999999994
 20
176.57499999999999
 30
0.0
 70
    32
  0
VERTEX
  5
79B4
  8
AM_0
 10
97.297000000000011
 20
176.50800000000001
 30
0.0
 70
    32
  0
VERTEX
  5
79B5
  8
AM_0
 10
97.329800000000006
 20
176.44200000000001
 30
0.0
 70
    32
  0
VERTEX
  5
79B6
  8
AM_0
 10
97.36460000000001
 20
176.37700000000001
 30
0.0
 70
    32
  0
VERTEX
  5
79B7
  8
AM_0
 10
97.401200000000003
 20
176.31299999999999
 30
0.0
 70
    32
  0
VERTEX
  5
79B8
  8
AM_0
 10
97.439800000000005
 20
176.25099999999989
 30
0.0
 70
    32
  0
VERTEX
  5
79B9
  8
AM_0
 10
97.480299999999986
 20
176.18899999999999
 30
0.0
 70
    32
  0
VERTEX
  5
79BA
  8
AM_0
 10
97.522599999999997
 20
176.12899999999999
 30
0.0
 70
    32
  0
VERTEX
  5
79BB
  8
AM_0
 10
97.566800000000015
 20
176.06999999999999
 30
0.0
 70
    32
  0
VERTEX
  5
79BC
  8
AM_0
 10
97.612700000000004
 20
176.012
 30
0.0
 70
    32
  0
VERTEX
  5
79BD
  8
AM_0
 10
97.660399999999996
 20
175.95599999999999
 30
0.0
 70
    32
  0
VERTEX
  5
79BE
  8
AM_0
 10
97.709900000000005
 20
175.90100000000001
 30
0.0
 70
    32
  0
VERTEX
  5
79BF
  8
AM_0
 10
97.761099999999999
 20
175.84700000000001
 30
0.0
 70
    32
  0
VERTEX
  5
79C0
  8
AM_0
 10
97.813999999999993
 20
175.79499999999999
 30
0.0
 70
    32
  0
VERTEX
  5
79C1
  8
AM_0
 10
97.868500000000012
 20
175.744
 30
0.0
 70
    32
  0
VERTEX
  5
79C2
  8
AM_0
 10
97.924599999999998
 20
175.69499999999999
 30
0.0
 70
    32
  0
VERTEX
  5
79C3
  8
AM_0
 10
97.982299999999995
 20
175.64699999999999
 30
0.0
 70
    32
  0
VERTEX
  5
79C4
  8
AM_0
 10
98.041600000000017
 20
175.601
 30
0.0
 70
    32
  0
VERTEX
  5
79C5
  8
AM_0
 10
98.102400000000003
 20
175.55699999999999
 30
0.0
 70
    32
  0
VERTEX
  5
79C6
  8
AM_0
 10
98.164699999999996
 20
175.51400000000001
 30
0.0
 70
    32
  0
VERTEX
  5
79C7
  8
AM_0
 10
98.228399999999993
 20
175.47300000000001
 30
0.0
 70
    32
  0
VERTEX
  5
79C8
  8
AM_0
 10
98.293499999999995
 20
175.43299999999999
 30
0.0
 70
    32
  0
VERTEX
  5
79C9
  8
AM_0
 10
98.359999999999999
 20
175.39500000000001
 30
0.0
 70
    32
  0
VERTEX
  5
79CA
  8
AM_0
 10
98.427800000000005
 20
175.35900000000001
 30
0.0
 70
    32
  0
VERTEX
  5
79CB
  8
AM_0
 10
98.496899999999997
 20
175.32499999999999
 30
0.0
 70
    32
  0
VERTEX
  5
79CC
  8
AM_0
 10
98.567200000000014
 20
175.292
 30
0.0
 70
    32
  0
VERTEX
  5
79CD
  8
AM_0
 10
98.6387
 20
175.261
 30
0.0
 70
    32
  0
VERTEX
  5
79CE
  8
AM_0
 10
98.711399999999998
 20
175.232
 30
0.0
 70
    32
  0
VERTEX
  5
79CF
  8
AM_0
 10
98.785200000000003
 20
175.20400000000001
 30
0.0
 70
    32
  0
VERTEX
  5
79D0
  8
AM_0
 10
98.860000000000014
 20
175.179
 30
0.0
 70
    32
  0
VERTEX
  5
79D1
  8
AM_0
 10
98.935900000000004
 20
175.155
 30
0.0
 70
    32
  0
VERTEX
  5
79D2
  8
AM_0
 10
99.012799999999984
 20
175.13300000000001
 30
0.0
 70
    32
  0
VERTEX
  5
79D3
  8
AM_0
 10
99.090599999999995
 20
175.113
 30
0.0
 70
    32
  0
VERTEX
  5
79D4
  8
AM_0
 10
99.169200000000004
 20
175.095
 30
0.0
 70
    32
  0
VERTEX
  5
79D5
  8
AM_0
 10
99.248800000000017
 20
175.07900000000001
 30
0.0
 70
    32
  0
VERTEX
  5
79D6
  8
AM_0
 10
99.328999999999994
 20
175.065
 30
0.0
 70
    32
  0
VERTEX
  5
79D7
  8
AM_0
 10
99.4101
 20
175.053
 30
0.0
 70
    32
  0
VERTEX
  5
79D8
  8
AM_0
 10
99.491799999999998
 20
175.042
 30
0.0
 70
    32
  0
VERTEX
  5
79D9
  8
AM_0
 10
99.574200000000005
 20
175.03399999999999
 30
0.0
 70
    32
  0
VERTEX
  5
79DA
  8
AM_0
 10
99.657100000000014
 20
175.02699999999999
 30
0.0
 70
    32
  0
VERTEX
  5
79DB
  8
AM_0
 10
99.740600000000015
 20
175.02199999999999
 30
0.0
 70
    32
  0
VERTEX
  5
79DC
  8
AM_0
 10
99.824600000000004
 20
175.02000000000001
 30
0.0
 70
    32
  0
VERTEX
  5
79DD
  8
AM_0
 10
99.909099999999995
 20
175.01900000000001
 30
0.0
 70
    32
  0
VERTEX
  5
79DE
  8
AM_0
 10
99.993899999999996
 20
175.02000000000001
 30
0.0
 70
    32
  0
VERTEX
  5
79DF
  8
AM_0
 10
100.07899999999999
 20
175.023
 30
0.0
 70
    32
  0
VERTEX
  5
79E0
  8
AM_0
 10
100.16500000000001
 20
175.02799999999999
 30
0.0
 70
    32
  0
VERTEX
  5
79E1
  8
AM_0
 10
100.25
 20
175.035
 30
0.0
 70
    32
  0
VERTEX
  5
79E2
  8
AM_0
 10
100.336
 20
175.04400000000001
 30
0.0
 70
    32
  0
VERTEX
  5
79E3
  8
AM_0
 10
100.422
 20
175.05500000000001
 30
0.0
 70
    32
  0
VERTEX
  5
79E4
  8
AM_0
 10
100.508
 20
175.06700000000001
 30
0.0
 70
    32
  0
VERTEX
  5
79E5
  8
AM_0
 10
100.59399999999999
 20
175.08199999999999
 30
0.0
 70
    32
  0
VERTEX
  5
79E6
  8
AM_0
 10
100.68000000000001
 20
175.09800000000001
 30
0.0
 70
    32
  0
VERTEX
  5
79E7
  8
AM_0
 10
100.76600000000001
 20
175.11699999999999
 30
0.0
 70
    32
  0
VERTEX
  5
79E8
  8
AM_0
 10
100.852
 20
175.137
 30
0.0
 70
    32
  0
VERTEX
  5
79E9
  8
AM_0
 10
100.938
 20
175.15899999999999
 30
0.0
 70
    32
  0
VERTEX
  5
79EA
  8
AM_0
 10
101.024
 20
175.18299999999999
 30
0.0
 70
    32
  0
VERTEX
  5
79EB
  8
AM_0
 10
101.10899999999999
 20
175.209
 30
0.0
 70
    32
  0
VERTEX
  5
79EC
  8
AM_0
 10
101.194
 20
175.23699999999999
 30
0.0
 70
    32
  0
VERTEX
  5
79ED
  8
AM_0
 10
101.27800000000001
 20
175.26599999999999
 30
0.0
 70
    32
  0
VERTEX
  5
79EE
  8
AM_0
 10
101.36199999999999
 20
175.297
 30
0.0
 70
    32
  0
VERTEX
  5
79EF
  8
AM_0
 10
101.446
 20
175.33000000000001
 30
0.0
 70
    32
  0
VERTEX
  5
79F0
  8
AM_0
 10
101.529
 20
175.36500000000001
 30
0.0
 70
    32
  0
VERTEX
  5
79F1
  8
AM_0
 10
101.611
 20
175.40199999999999
 30
0.0
 70
    32
  0
VERTEX
  5
79F2
  8
AM_0
 10
101.693
 20
175.44
 30
0.0
 70
    32
  0
VERTEX
  5
79F3
  8
AM_0
 10
101.774
 20
175.47999999999999
 30
0.0
 70
    32
  0
VERTEX
  5
79F4
  8
AM_0
 10
101.855
 20
175.52099999999999
 30
0.0
 70
    32
  0
VERTEX
  5
79F5
  8
AM_0
 10
101.934
 20
175.56399999999999
 30
0.0
 70
    32
  0
VERTEX
  5
79F6
  8
AM_0
 10
102.01300000000001
 20
175.60900000000001
 30
0.0
 70
    32
  0
VERTEX
  5
79F7
  8
AM_0
 10
102.09099999999999
 20
175.65600000000001
 30
0.0
 70
    32
  0
VERTEX
  5
79F8
  8
AM_0
 10
102.16800000000001
 20
175.70400000000001
 30
0.0
 70
    32
  0
SEQEND
  5
79F9
  8
AM_0
  0
LINE
  5
6E89
  8
AM_0
 10
117.3691029332248
 20
275.76431568497372
 30
0.0
 11
117.3691029332248
 21
268.16431568497359
 31
0.0
1001
GENIUS_GENOREF_13
1005
0
  0
LINE
  5
6E8A
  8
AM_0
 10
117.3691029332248
 20
268.16431568497359
 30
0.0
 11
118.3691029332248
 21
268.16431568497359
 31
0.0
1001
GENIUS_GENOREF_13
1005
0
  0
LINE
  5
6E8B
  8
AM_0
 10
118.3691029332248
 20
271.76431568497372
 30
0.0
 11
117.3691029332248
 21
271.40034545070728
 31
0.0
1001
GENIUS_GENOREF_13
1005
0
  0
LINE
  5
6E8C
  8
AM_0
 10
118.3691029332248
 20
272.1643156849737
 30
0.0
 11
117.3691029332248
 21
271.80034545070748
 31
0.0
1001
GENIUS_GENOREF_13
1005
0
  0
LINE
  5
6E8D
  8
AM_0
 10
118.3691029332248
 20
275.76431568497372
 30
0.0
 11
117.3691029332248
 21
275.76431568497372
 31
0.0
1001
GENIUS_GENOREF_13
1005
0
  0
LINE
  5
6E8E
  8
AM_0N
 10
116.310165421097
 20
268.05696071266721
 30
0.0
 11
117.3691029332248
 21
267.9643156849736
 31
0.0
  0
LINE
  5
6E8F
  8
AM_0N
 10
116.310165421097
 20
275.87167065728022
 30
0.0
 11
117.3691029332248
 21
275.9643156849736
 31
0.0
  0
ARC
  5
6E90
  8
AM_0N
 10
120.7691029332248
 20
271.9643156849736
 30
0.0
 40
6.5
 50
151.82726586813479
 51
208.1727341318651
  0
ARC
  5
6E91
  8
AM_0N
 10
116.4496146094933
 20
274.27775914033327
 30
0.0
 40
1.6000000000000001
 50
94.999999999999758
 51
151.82726586813479
  0
ARC
  5
6E92
  8
AM_0N
 10
116.4496146094933
 20
269.65087222961392
 30
0.0
 40
1.6000000000000001
 50
208.1727341318651
 51
265.00000000000028
  0
LINE
  5
6E93
  8
AM_0N
 10
117.3691029332248
 20
275.9643156849736
 30
0.0
 11
117.3691029332248
 21
267.9643156849736
 31
0.0
  0
LINE
  5
6E9C
  8
AM_0
 10
97.419102933225076
 20
192.96325929660151
 30
0.0
 11
102.3191029332249
 21
192.96325929660151
 31
0.0
  0
LINE
  5
6E9D
  8
AM_0
 10
97.419102933225076
 20
191.75023897816899
 30
0.0
 11
102.3191029332249
 21
191.75023897816899
 31
0.0
  0
LINE
  5
6E9E
  8
AM_0
 10
96.619102933224866
 20
192.16325929660161
 30
0.0
 11
96.619102933224866
 21
186.5221278761552
 31
0.0
  0
LINE
  5
6E9F
  8
AM_0
 10
96.619102933224866
 20
184.6907220072226
 30
0.0
 11
96.619102933224866
 21
186.5221278761552
 31
0.0
  0
LINE
  5
6EA0
  8
AM_0
 10
92.769102933224872
 20
178.00102534729939
 30
0.0
 11
92.769102933224872
 21
184.62358972542651
 31
0.0
  0
LINE
  5
6EA1
  8
AM_0
 10
103.1191029332248
 20
184.6907220072226
 30
0.0
 11
103.1191029332248
 21
186.5221278761552
 31
0.0
  0
LINE
  5
6EA2
  8
AM_0
 10
103.1191029332248
 20
192.16325929660161
 30
0.0
 11
103.1191029332248
 21
186.5221278761552
 31
0.0
  0
LINE
  5
6EA3
  8
AM_0
 10
106.9691029332249
 20
178.75884820239099
 30
0.0
 11
106.9691029332249
 21
178.00102534729939
 31
0.0
  0
LINE
  5
6EA4
  8
AM_0
 10
99.86910293322488
 20
182.88050851947591
 30
0.0
 11
93.369102933224866
 21
180.6147390518843
 31
0.0
  0
LINE
  5
6EA5
  8
AM_0
 10
101.4204506989547
 20
182.33973984236709
 30
0.0
 11
99.86910293322488
 21
182.88050851947591
 31
0.0
  0
LINE
  5
6EA6
  8
AM_0
 10
99.67164655935494
 20
181.22686071131801
 30
0.0
 11
93.369102933224866
 21
179.02992057035661
 31
0.0
  0
LINE
  5
6EA7
  8
AM_0
 10
106.3691029332248
 20
178.37702872729409
 30
0.0
 11
106.3691029332248
 21
177.7455979030394
 31
0.0
  0
LINE
  5
6EA8
  8
AM_0
 10
106.3691029332248
 20
177.7455979030394
 30
0.0
 11
106.3691029332248
 21
175.72635528491861
 31
0.0
  0
LINE
  5
6EA9
  8
AM_0
 10
99.869060671398771
 20
173.46057108570321
 30
0.0
 11
106.3691029332248
 21
175.72635528491861
 31
0.0
  0
LINE
  5
6EAA
  8
AM_0
 10
93.369102933224866
 20
175.72635528491861
 30
0.0
 11
93.369102933224866
 21
177.7455979030394
 31
0.0
  0
LINE
  5
6EAB
  8
AM_0
 10
93.369102933224866
 20
175.72635528491861
 30
0.0
 11
99.869060671398771
 21
173.46060054895099
 31
0.0
  0
LINE
  5
6EAC
  8
AM_0
 10
93.369102933224866
 20
177.7455979030394
 30
0.0
 11
93.369102933224866
 21
180.6147390518843
 31
0.0
  0
LINE
  5
6EAD
  8
AM_0
 10
99.880668885790783
 20
181.53429801681699
 30
0.0
 11
99.86910293322488
 21
182.88050851947591
 31
0.0
  0
ARC
  5
6EAE
  8
AM_0
 10
97.172915784293423
 20
178.71472777863909
 30
0.0
 40
6.001601094213977
 50
95.294644622328306
 51
137.203637805271
  0
ARC
  5
6EAF
  8
AM_0
 10
97.172915784293423
 20
180.54613364757191
 30
0.0
 40
6.0016010942139628
 50
95.294644622328306
 51
137.203637805271
  0
ARC
  5
6EB0
  8
AM_0
 10
93.638834618422166
 20
179.21161343572331
 30
0.0
 40
1.4906229315522701
 50
234.3051223779035
 51
259.5747650501786
  0
ARC
  5
6EB1
  8
AM_0
 10
102.56529008215649
 20
180.54613364757191
 30
0.0
 40
6.0016010942138758
 50
53.23679043834629
 51
84.705355377678273
  0
ARC
  5
6EB2
  8
AM_0
 10
102.56529008215649
 20
178.71472777863909
 30
0.0
 40
6.0016010942138758
 50
70.204787517108272
 51
84.705355377678273
  0
ARC
  5
6EB3
  8
AM_0
 10
106.09937124802779
 20
179.21161343572331
 30
0.0
 40
1.490622931552253
 50
280.42523494982129
 51
305.6948776220961
  0
ARC
  5
6EB4
  8
AM_0
 10
99.601651090521273
 20
187.03942085956021
 30
8206336.7530117426
 40
12.9134744604336
 50
271.18655406403423
 51
287.92670513354869
  0
LINE
  5
6EB5
  8
AM_0
 10
103.57642001991979
 20
174.7528821037447
 30
8206336.7530117426
 11
103.989000787121
 21
174.90612378913741
 31
8206336.7530117426
  0
LINE
  5
6EB6
  8
AM_0
 10
103.989000787121
 20
174.90612378913741
 30
8206336.7530117426
 11
104.39149253137759
 21
175.0850931518431
 31
8206336.7530117426
  0
ARC
  5
6EB7
  8
AM_0
 10
101.8877308906217
 20
180.36989371556541
 30
8206336.7530117426
 40
5.8479004225482916
 50
295.35002817212552
 51
303.56705104006159
  0
LINE
  5
6EB8
  8
AM_0
 10
105.1211079666316
 20
175.49719302330311
 30
8206336.7530117426
 11
105.4356508458828
 21
175.72946647847351
 31
8206336.7530117426
  0
LINE
  5
6EB9
  8
AM_0
 10
105.4356508458828
 20
175.72946647847351
 30
8206336.7530117426
 11
105.7248399940801
 21
175.9923373545123
 31
8206336.7530117426
  0
ARC
  5
6EBA
  8
AM_0
 10
103.845957030702
 20
177.85802174471971
 30
8206336.7530117426
 40
2.647825416060579
 50
315.20195107610181
 51
327.66908745373388
  0
LINE
  5
6EBB
  8
AM_0
 10
106.0832991105478
 20
176.44194270325079
 30
8206336.7530117426
 11
106.2122150668272
 21
176.68147446848681
 31
8206336.7530117426
  0
LINE
  5
6EBC
  8
AM_0
 10
106.2122150668272
 20
176.68147446848681
 30
8206336.7530117426
 11
106.3063156343279
 21
176.93613345697111
 31
8206336.7530117426
  0
ARC
  5
6EBD
  8
AM_0
 10
104.7074953953789
 20
177.3912221215744
 30
8206336.7530117426
 40
1.6623272388802151
 50
344.11151119415172
 51
352.55958186686132
  0
LINE
  5
6EBE
  8
AM_0
 10
106.3558259377068
 20
177.17595885867979
 30
8206336.7530117426
 11
106.36573060214791
 21
177.27682461240039
 31
8206336.7530117426
  0
LINE
  5
6EBF
  8
AM_0
 10
106.36573060214791
 20
177.27682461240039
 30
8206336.7530117426
 11
106.3691029332248
 21
177.3781233261393
 31
8206336.7530117426
  0
ARC
  5
6EC0
  8
AM_0
 10
104.7740095145554
 20
177.37514717464111
 30
8206336.7530117426
 40
1.595096195143147
 50
0.1069032823798332
 51
11.47976002760999
  0
LINE
  5
6EC1
  8
AM_0
 10
106.337195923614
 20
177.69260602598271
 30
8206336.7530117426
 11
106.29656401342871
 21
177.85317990150719
 31
8206336.7530117426
  0
LINE
  5
6EC2
  8
AM_0
 10
106.29656401342871
 20
177.85317990150719
 30
8206336.7530117426
 11
106.2409239488951
 21
178.00914819492979
 31
8206336.7530117426
  0
ARC
  5
6EC3
  8
AM_0
 10
104.36544965524131
 20
177.23376541354489
 30
8206336.7530117426
 40
2.029438908620818
 50
22.461811304462358
 51
29.330593568206702
  0
ARC
  5
6EC4
  8
AM_0
 10
100.13655477594421
 20
187.0394208596133
 30
8206336.7530117426
 40
12.91347446048893
 50
252.07329486645801
 51
268.8130708325474
  0
LINE
  5
6EC5
  8
AM_0
 10
96.161785846529924
 20
174.7528821037447
 30
8206336.7530117426
 11
95.749205079328803
 21
174.90612378913741
 31
8206336.7530117426
  0
LINE
  5
6EC6
  8
AM_0
 10
95.749205079328803
 20
174.90612378913741
 30
8206336.7530117426
 11
95.346713335072209
 21
175.0850931518431
 31
8206336.7530117426
  0
ARC
  5
6EC7
  8
AM_0
 10
97.850474975833066
 20
180.36989371557411
 30
8206336.7530117426
 40
5.8479004225582418
 50
236.43294895995331
 51
244.64997182786749
  0
LINE
  5
6EC8
  8
AM_0
 10
94.617097899818205
 20
175.49719302330311
 30
8206336.7530117426
 11
94.302555020567084
 21
175.72946647847351
 31
8206336.7530117426
  0
LINE
  5
6EC9
  8
AM_0
 10
94.302555020567084
 20
175.72946647847351
 30
8206336.7530117426
 11
94.013365872369604
 21
175.9923373545123
 31
8206336.7530117426
  0
ARC
  5
6ECA
  8
AM_0
 10
95.892248835747495
 20
177.858021744719
 30
8206336.7530117426
 40
2.6478254160599781
 50
212.3309125462558
 51
224.79804892389021
  0
LINE
  5
6ECB
  8
AM_0
 10
93.654906755902076
 20
176.44194270325079
 30
8206336.7530117426
 11
93.525990799622718
 21
176.68147446848681
 31
8206336.7530117426
  0
LINE
  5
6ECC
  8
AM_0
 10
93.525990799622718
 20
176.68147446848681
 30
8206336.7530117426
 11
93.431890232121987
 21
176.93613345697111
 31
8206336.7530117426
  0
ARC
  5
6ECD
  8
AM_0
 10
95.030710471100534
 20
177.391222121581
 30
8206336.7530117426
 40
1.6623272389105701
 50
187.4404181332275
 51
195.88848880578911
  0
LINE
  5
6ECE
  8
AM_0
 10
93.382379928742921
 20
177.17595885867979
 30
8206336.7530117426
 11
93.372475264302025
 21
177.27682461240039
 31
8206336.7530117426
  0
LINE
  5
6ECF
  8
AM_0
 10
93.372475264302025
 20
177.27682461240039
 30
8206336.7530117426
 11
93.369102933224866
 21
177.3781233261393
 31
8206336.7530117426
  0
ARC
  5
6ED0
  8
AM_0
 10
94.964196351891474
 20
177.37514717464111
 30
8206336.7530117426
 40
1.5950961951403351
 50
168.52023997236881
 51
179.8930967176201
  0
LINE
  5
6ED1
  8
AM_0
 10
93.401009942835927
 20
177.69260602598271
 30
8206336.7530117426
 11
93.441641853021224
 21
177.85317990150719
 31
8206336.7530117426
  0
LINE
  5
6ED2
  8
AM_0
 10
93.441641853021224
 20
177.85317990150719
 30
8206336.7530117426
 11
93.497281917554574
 21
178.00914819492979
 31
8206336.7530117426
  0
ARC
  5
6ED3
  8
AM_0
 10
95.372756211218075
 20
177.233765413539
 30
8206336.7530117426
 40
2.02943890863216
 50
147.8557105642179
 51
157.538188695488
  0
LINE
  5
6ED4
  8
AM_0
 10
93.654408168211731
 20
178.31353496625189
 30
8206336.7530117426
 11
93.776696914746225
 21
178.490845558974
 31
8206336.7530117426
  0
LINE
  5
6ED5
  8
AM_0
 10
93.776696914746225
 20
178.490845558974
 30
8206336.7530117426
 11
93.913550515084466
 21
178.65722748136341
 31
8206336.7530117426
  0
ARC
  5
6ED6
  8
AM_0
 10
96.41170850127709
 20
176.4142157955423
 30
8206336.7530117426
 40
3.3573642558870951
 50
129.08137847167879
 51
138.08040406443681
  0
LINE
  5
6ED7
  8
AM_0
 10
94.295146996260854
 20
179.0203742984333
 30
8206336.7530117426
 11
94.714285613661005
 21
179.3230707760591
 31
8206336.7530117426
  0
LINE
  5
6ED8
  8
AM_0
 10
94.714285613661005
 20
179.3230707760591
 30
8206336.7530117426
 11
95.163439293558653
 21
179.5804224773137
 31
8206336.7530117426
  0
ARC
  5
6ED9
  8
AM_0
 10
98.494664976585128
 20
173.0528121830481
 30
8206336.7530117426
 40
7.3284896605682359
 50
109.0382363849763
 51
117.0365170347013
  0
LINE
  5
6EDA
  8
AM_0
 10
96.104118431807365
 20
179.9804414977782
 30
8206336.7530117426
 11
96.780616326374684
 21
180.18732134739651
 31
8206336.7530117426
  0
LINE
  5
6EDB
  8
AM_0
 10
96.780616326374684
 20
180.18732134739651
 30
8206336.7530117426
 11
97.470382889074472
 21
180.3451347798989
 31
8206336.7530117426
  0
ARC
  5
6EDC
  8
AM_0
 10
99.779254205938287
 20
168.4050349369779
 30
8206336.7530117426
 40
12.16128574685901
 50
96.390354906719651
 51
100.94427627624781
  0
LINE
  5
6EDD
  8
AM_0
 10
98.425683144509321
 20
180.49075859749641
 30
8206336.7530117426
 11
98.530646917673153
 21
180.50076757086339
 31
8206336.7530117426
  0
ARC
  5
6EDE
  8
AM_0
 10
97.419102933225076
 20
192.16325929660161
 30
0.0
 40
0.7999999999998977
 50
90.0
 51
180.0
  0
ARC
  5
6EDF
  8
AM_0
 10
97.419102933225076
 20
190.9502389781689
 30
0.0
 40
0.7999999999999972
 50
90.0
 51
180.0
  0
ARC
  5
6EE0
  8
AM_0
 10
102.3191029332249
 20
192.16325929660161
 30
0.0
 40
0.8000000000000112
 50
0.0
 51
90.0
  0
ARC
  5
6EE1
  8
AM_0
 10
102.3191029332249
 20
190.9502389781689
 30
0.0
 40
0.8000000000000112
 50
0.0
 51
90.0
  0
LINE
  5
6EE6
  8
AM_0
 10
400.86905293322468
 20
275.46440068497401
 30
0.0
 11
405.86905293322479
 21
270.46440068497412
 31
0.0
  0
LINE
  5
6EE7
  8
AM_0
 10
396.36905293322479
 20
275.46440068497401
 30
0.0
 11
400.86905293322468
 21
275.46440068497401
 31
0.0
  0
LINE
  5
6EE8
  8
AM_0
 10
395.86905293322479
 20
274.9644006849739
 30
0.0
 11
395.86905293322479
 21
253.76736668497389
 31
0.0
  0
LINE
  5
6EE9
  8
AM_0
 10
405.86905293322479
 20
270.46440068497412
 30
0.0
 11
405.86905293322479
 21
213.46440068497401
 31
0.0
  0
LINE
  5
6EEA
  8
AM_0
 10
396.86914293322502
 20
208.4644006849739
 30
0.0
 11
400.86905293322468
 21
208.4644006849739
 31
0.0
  0
LINE
  5
6EEB
  8
AM_0
 10
400.86905293322468
 20
208.4644006849739
 30
0.0
 11
405.86905293322479
 21
213.46440068497401
 31
0.0
  0
LINE
  5
6EEC
  8
AM_0
 10
396.36905293322479
 20
275.46440068497401
 30
0.0
 11
395.86905293322479
 21
274.9644006849739
 31
0.0
1001
GENIUS_GENFIL_13
1070
     0
1040
0.5
1040
0.5
1040
20.0
1040
0.0
1002
{
1002
}
1001
GENIUS_GENOBJ-N-CHA_13
1002
{
1000
OWNER
1000
GEN
1002
}
1001
GENIUS_GENODEF_13
1002
{
1000
HIER
1070
     0
1002
}
1002
{
1000
MANEDIT
1070
     0
1002
}
1002
{
1000
NOSEL
1070
     0
1002
}
1002
{
1000
BEHIND
1070
     0
1002
}
1002
{
1000
OTHER
1070
     0
1002
}
1002
{
1000
REACTOR
1002
}
  0
LINE
  5
6EED
  8
AM_0
 10
400.86905293322468
 20
275.46440068497401
 30
0.0
 11
400.86905293322468
 21
208.4644006849739
 31
0.0
  0
CIRCLE
  5
6EEE
  8
AM_0
 10
666.02419387847021
 20
241.964403684974
 30
0.0
 40
33.499999999999893
  0
CIRCLE
  5
6EEF
  8
AM_0
 10
666.02419387847021
 20
241.964403684974
 30
0.0
 40
28.49999999999994
  0
LINE
  5
6EF1
  8
AM_0
 10
551.02419387847021
 20
175.9625482573864
 30
0.0
 11
582.85271832899718
 21
177.07402482298559
 31
0.0
  0
LINE
  5
6EF2
  8
AM_0
 10
581.02421287847005
 20
266.9149245091395
 30
0.0
 11
551.02419387847021
 21
267.96254825738652
 31
0.0
  0
LINE
  5
6EF3
  8
AM_0
 10
551.02419387847021
 20
267.96254825738652
 30
0.0
 11
551.02419387847021
 21
175.96254825738609
 31
0.0
  0
LINE
  5
6EF4
  8
ﾁｭｳｼﾝｾﾝ1
 10
540.02419387846999
 20
180.96254825738711
 30
0.0
 11
555.85171689100684
 21
180.962548257387
 31
0.0
  0
LINE
  5
6EF5
  8
AM_0
 10
547.02419387847021
 20
267.96254825738652
 30
0.0
 11
547.02419387847021
 21
247.14804335785399
 31
0.0
  0
LINE
  5
6EF6
  8
AM_0
 10
547.02419387847021
 20
196.77705315691881
 30
0.0
 11
547.02419387847021
 21
175.9625482573872
 31
0.0
  0
LINE
  5
6EF7
  8
AM_0
 10
543.02419387847021
 20
261.82676658822589
 30
0.0
 11
543.02419387847021
 21
182.098329926547
 31
0.0
  0
LINE
  5
6EF8
  8
AM_0
 10
544.96525636634215
 20
184.86990322969331
 30
0.0
 11
546.02419387847021
 21
184.962548257387
 31
0.0
  0
LINE
  5
6EF9
  8
AM_0
 10
544.96525636634215
 20
177.05519328508041
 30
0.0
 11
546.02419387847021
 21
176.962548257387
 31
0.0
  0
ARC
  5
6EFA
  8
AM_0
 10
549.42419387847031
 20
180.962548257387
 30
0.0
 40
6.5
 50
151.82726586813479
 51
208.1727341318651
  0
ARC
  5
6EFB
  8
AM_0
 10
545.10470555473853
 20
178.6491048020273
 30
0.0
 40
1.6000000000000001
 50
208.1727341318651
 51
265.00000000000028
  0
LINE
  5
6EFC
  8
AM_0
 10
543.34472021704175
 20
183.2625482573869
 30
0.0
 11
545.63427989583715
 21
180.962548257387
 31
0.0
  0
LINE
  5
6EFD
  8
AM_0
 10
545.32419387847006
 20
181.27404825738699
 30
0.0
 11
545.32419387847006
 21
180.6510482573868
 31
0.0
  0
LINE
  5
6EFE
  8
AM_0
 10
543.34472021704175
 20
178.66254825738699
 30
0.0
 11
545.63427989583715
 21
180.962548257387
 31
0.0
  0
LINE
  5
6EFF
  8
AM_0
 10
542.93166218813553
 20
181.27404825738699
 30
0.0
 11
545.32419387847006
 21
181.27404825738699
 31
0.0
  0
LINE
  5
6F00
  8
AM_0
 10
542.93166218813553
 20
180.6510482573868
 30
0.0
 11
545.32419387847006
 21
180.6510482573868
 31
0.0
  0
ARC
  5
6F01
  8
AM_0
 10
545.10470555473853
 20
183.2759917127465
 30
0.0
 40
1.6000000000000001
 50
94.999999999999758
 51
151.82726586813479
  0
LINE
  5
6F02
  8
AM_0
 10
547.02419387847021
 20
267.96254825738652
 30
0.0
 11
551.02419387847021
 21
267.96254825738652
 31
0.0
  0
LINE
  5
6F03
  8
AM_0
 10
546.02419387846976
 20
266.96254825738629
 30
0.0
 11
547.02419387847021
 21
267.96254825738652
 31
0.0
  0
LINE
  5
6F04
  8
AM_0
 10
551.02419387847021
 20
175.96254825738609
 30
0.0
 11
547.02419387847021
 21
175.9625482573872
 31
0.0
  0
LINE
  5
6F05
  8
AM_0N
 10
547.02419387847021
 20
184.76254825738701
 30
0.0
 11
546.02419387847021
 21
184.76254825738701
 31
0.0
  0
LINE
  5
6F06
  8
AM_0N
 10
546.02419387847021
 20
181.1625482573869
 30
0.0
 11
547.02419387847021
 21
181.52651849165309
 31
0.0
  0
LINE
  5
6F07
  8
AM_0N
 10
546.02419387847021
 20
180.76254825738701
 30
0.0
 11
547.02419387847021
 21
181.1265184916532
 31
0.0
  0
LINE
  5
6F08
  8
AM_0N
 10
546.02419387847021
 20
176.962548257387
 30
0.0
 11
546.02419387847021
 21
184.962548257387
 31
0.0
  0
LINE
  5
6F09
  8
AM_0N
 10
546.02419387847021
 20
177.16254825738699
 30
0.0
 11
547.02419387847021
 21
177.16254825738699
 31
0.0
  0
LINE
  5
6F0A
  8
AM_0
 10
543.02419387847021
 20
196.77705315691861
 30
0.0
 11
547.02419387847021
 21
196.77705315691881
 31
0.0
  0
LINE
  5
6F0B
  8
AM_0
 10
547.02419387847021
 20
195.1201989074261
 30
0.0
 11
543.02419387847021
 21
196.77705315691861
 31
0.0
  0
LINE
  5
6F0C
  8
AM_0
 10
543.02419387847021
 20
247.14804335785399
 30
0.0
 11
547.02419387847021
 21
247.14804335785399
 31
0.0
  0
LINE
  5
6F0D
  8
AM_0
 10
547.02419387847021
 20
248.80489760734659
 30
0.0
 11
543.02419387847021
 21
247.14804335785399
 31
0.0
  0
LINE
  5
6F0E
  8
ﾁｭｳｼﾝｾﾝ1
 10
540.02419387846999
 20
262.96254825738572
 30
0.0
 11
555.85171689100684
 21
262.96254825738578
 31
0.0
  0
LINE
  5
6F0F
  8
AM_0
 10
544.96525636634215
 20
259.05519328507933
 30
0.0
 11
546.02419387847021
 21
258.96254825738578
 31
0.0
  0
LINE
  5
6F10
  8
AM_0
 10
544.96525636634215
 20
266.86990322969228
 30
0.0
 11
546.02419387847021
 21
266.96254825738589
 31
0.0
  0
ARC
  5
6F11
  8
AM_0
 10
549.42419387847031
 20
262.96254825738578
 30
0.0
 40
6.5
 50
151.82726586813479
 51
208.1727341318651
  0
ARC
  5
6F12
  8
AM_0
 10
545.10470555473853
 20
265.27599171274551
 30
0.0
 40
1.6000000000000001
 50
94.999999999999758
 51
151.82726586813479
  0
LINE
  5
6F13
  8
AM_0
 10
543.34472021704175
 20
260.66254825738588
 30
0.0
 11
545.63427989583715
 21
262.96254825738578
 31
0.0
  0
LINE
  5
6F14
  8
AM_0
 10
545.32419387847006
 20
262.65104825738581
 30
0.0
 11
545.32419387847006
 21
263.27404825738591
 31
0.0
  0
LINE
  5
6F15
  8
AM_0
 10
543.34472021704175
 20
265.26254825738567
 30
0.0
 11
545.63427989583715
 21
262.96254825738578
 31
0.0
  0
LINE
  5
6F16
  8
AM_0
 10
542.93166218813553
 20
262.65104825738581
 30
0.0
 11
545.32419387847006
 21
262.65104825738581
 31
0.0
  0
LINE
  5
6F17
  8
AM_0
 10
542.93166218813553
 20
263.27404825738591
 30
0.0
 11
545.32419387847006
 21
263.27404825738591
 31
0.0
  0
ARC
  5
6F18
  8
AM_0
 10
545.10470555473853
 20
260.64910480202627
 30
0.0
 40
1.6000000000000001
 50
208.1727341318651
 51
265.00000000000028
  0
LINE
  5
6F19
  8
AM_0N
 10
547.02419387847021
 20
259.16254825738582
 30
0.0
 11
546.02419387847021
 21
259.16254825738582
 31
0.0
  0
LINE
  5
6F1A
  8
AM_0N
 10
546.02419387847021
 20
262.76254825738567
 30
0.0
 11
547.02419387847021
 21
262.39857802311963
 31
0.0
  0
LINE
  5
6F1B
  8
AM_0N
 10
546.02419387847021
 20
263.16254825738582
 30
0.0
 11
547.02419387847021
 21
262.7985780231196
 31
0.0
  0
LINE
  5
6F1C
  8
AM_0N
 10
546.02419387847021
 20
266.96254825738589
 30
0.0
 11
546.02419387847021
 21
258.96254825738578
 31
0.0
  0
LINE
  5
6F1D
  8
AM_0N
 10
546.02419387847021
 20
266.76254825738567
 30
0.0
 11
547.02419387847021
 21
266.76254825738567
 31
0.0
  0
LINE
  5
6F1E
  8
AM_0
 10
327.86917293322489
 20
292.96438868497381
 30
0.0
 11
332.86909293322492
 21
292.96438868497381
 31
0.0
  0
LINE
  5
6F1F
  8
AM_0
 10
332.86909293322492
 20
292.96438868497381
 30
0.0
 11
332.86909293322492
 21
148.46438468497379
 31
0.0
  0
LINE
  5
6F20
  8
AM_0
 10
295.86916293322508
 20
158.46440168497381
 30
0.0
 11
320.86909293322492
 21
157.80975368497391
 31
0.0
  0
LINE
  5
6F21
  8
AM_0
 10
320.86909293322492
 20
271.46441768497391
 30
0.0
 11
320.86909293322492
 21
256.83172868497388
 31
0.0
  0
LINE
  5
6F22
  8
AM_0
 10
295.86910293322501
 20
285.46438868497393
 30
0.0
 11
323.921472933225
 21
286.19894768497392
 31
0.0
  0
LINE
  5
6F23
  8
AM_0
 10
325.86910293322501
 20
290.96442068497379
 30
0.0
 11
325.86910293322501
 21
275.46438968497392
 31
0.0
  0
LINE
  5
6F24
  8
ﾁｭｳｼﾝｾﾝ
 10
75.364266470341946
 20
221.9643156849738
 30
0.0
 11
323.14774757835647
 21
221.96441768497391
 31
0.0
  0
LINE
  5
6F25
  8
AM_0
 10
320.86909293322492
 20
166.3343946849738
 30
0.0
 11
325.34908293322508
 21
166.3343946849738
 31
0.0
  0
LINE
  5
6F26
  8
AM_0
 10
320.86909293322492
 20
254.83172768497391
 30
0.0
 11
325.30978293322511
 21
254.83172768497391
 31
0.0
  0
LINE
  5
6F27
  8
AM_0
 10
322.86910293322501
 20
264.35241968497388
 30
0.0
 11
325.86910293322501
 21
264.35241968497388
 31
0.0
  0
LINE
  5
6F28
  8
AM_0
 10
322.86910293322501
 20
273.46438868497398
 30
0.0
 11
323.86909293322492
 21
273.46438868497398
 31
0.0
  0
LINE
  5
6F29
  8
AM_0
 10
320.86909293322492
 20
164.33439668497391
 30
0.0
 11
320.86909293322492
 21
150.46438568497391
 31
0.0
  0
LINE
  5
6F2A
  8
AM_0
 10
325.86910293322501
 20
264.35241968497388
 30
0.0
 11
325.86910293322501
 21
152.96438468497391
 31
0.0
  0
LINE
  5
6F2B
  8
AM_0
 10
295.86910293322501
 20
273.46438868497398
 30
0.0
 11
321.86917293322489
 21
273.46438868497398
 31
0.0
  0
LINE
  5
6F2C
  8
AM_0
 10
295.86910293322501
 20
259.11233768497391
 30
0.0
 11
320.86909293322492
 21
259.11233768497391
 31
0.0
  0
LINE
  5
6F2D
  8
AM_0
 10
295.86910293322501
 20
184.81643768497381
 30
0.0
 11
325.86910293322501
 21
184.81643768497381
 31
0.0
  0
LINE
  5
6F2E
  8
AM_0
 10
295.86910293322501
 20
170.4643866849739
 30
0.0
 11
325.86910293322501
 21
170.4643866849739
 31
0.0
  0
LINE
  5
6F2F
  8
AM_0
 10
295.86910293322501
 20
285.46438868497393
 30
0.0
 11
295.86910293322501
 21
158.46432368497381
 31
0.0
  0
LINE
  5
6F31
  8
ﾁｭｳｼﾝｾﾝ
 10
446.01575101942427
 20
241.964403684974
 30
0.0
 11
315.82242966050683
 21
241.964403684974
 31
0.0
  0
LINE
  5
6F3A
  8
AM_0
 10
393.58135293322499
 20
274.19500868497391
 30
0.0
 11
395.86905293322479
 21
271.46864967782938
 31
0.0
  0
LINE
  5
6F3B
  8
AM_0
 10
392.86909293322492
 20
159.46438568497391
 30
0.0
 11
392.86909293322492
 21
326.96438468497388
 31
0.0
  0
LINE
  5
6F3C
  8
AM_0
 10
382.86910293322489
 20
161.74496468497381
 30
0.0
 11
382.86910293322489
 21
194.81005868497391
 31
0.0
  0
LINE
  5
6F3D
  8
AM_0
 10
364.86910293322489
 20
306.03839468497392
 30
0.0
 11
364.86910293322489
 21
260.80923668497388
 31
0.0
  0
LINE
  5
6F3E
  8
AM_0
 10
392.86909293322492
 20
311.96438468497388
 30
0.0
 11
396.86914293322502
 21
311.96438468497388
 31
0.0
  0
LINE
  5
6F3F
  8
AM_0
 10
384.79930293322508
 20
326.68256468497373
 30
0.0
 11
392.86909293322492
 21
326.9643546849739
 31
0.0
  0
LINE
  5
6F40
  8
AM_0
 10
370.19464293322488
 20
311.03534468497389
 30
0.0
 11
379.97380293322499
 21
311.37683468497403
 31
0.0
  0
LINE
  5
6F41
  8
ﾁｭｳｼﾝｾﾝ
 10
576.04837387847022
 20
241.964403684974
 30
0.0
 11
756.00001387847033
 21
241.964403684974
 31
0.0
  0
LINE
  5
6F42
  8
ﾁｭｳｼﾝｾﾝ
 10
703.32495783591219
 20
221.96441768497391
 30
0.0
 11
628.72342992102801
 21
221.96441768497391
 31
0.0
  0
LINE
  5
6F43
  8
ﾁｭｳｼﾝｾﾝ
 10
666.02419387847021
 20
330.9665249071266
 30
0.0
 11
666.02419387847021
 21
144.17838811667821
 31
0.0
  0
LINE
  5
6F44
  8
AM_0
 10
718.02421087847006
 20
236.96441768497391
 30
0.0
 11
718.02421087847006
 21
219.96440168497389
 31
0.0
  0
LINE
  5
6F45
  8
AM_0
 10
599.08626487847039
 20
253.76736668497389
 30
0.0
 11
599.08626487847039
 21
253.76736668497389
 31
0.0
  0
LINE
  5
6F46
  8
AM_0
 10
392.86909293322492
 20
171.96440168497381
 30
0.0
 11
396.86914293322502
 21
171.96440168497381
 31
0.0
  0
LINE
  5
6F47
  8
AM_0
 10
721.70244787847025
 20
280.95071768497388
 30
0.0
 11
721.70244787847025
 21
280.95071768497388
 31
0.0
  0
LINE
  5
6F48
  8
AM_0
 10
732.96215287847031
 20
253.76736668497389
 30
0.0
 11
732.96215287847031
 21
253.76736668497389
 31
0.0
  0
LINE
  5
6F49
  8
AM_0
 10
396.86914293322502
 20
253.76736668497389
 30
0.0
 11
396.86914293322502
 21
171.96440168497381
 31
0.0
  0
LINE
  5
6F4A
  8
AM_0
 10
610.34593987847029
 20
280.95074768497392
 30
0.0
 11
610.34593987847029
 21
280.95074768497392
 31
0.0
  0
LINE
  5
6F4B
  8
AM_0
 10
382.86910293322489
 20
283.91604968497393
 30
0.0
 11
382.86910293322489
 21
324.68381468497392
 31
0.0
  0
LINE
  5
6F4C
  8
ﾁｭｳｼﾝｾﾝ1
 10
586.82824650423163
 20
162.76842631073541
 30
0.0
 11
603.79880925270891
 21
179.7389890592124
 31
0.0
  0
LINE
  5
6F4D
  8
AM_0
 10
581.02421287847005
 20
271.96438868497398
 30
0.0
 11
583.29186187847006
 21
315.23378468497378
 31
0.0
  0
LINE
  5
6F4E
  8
AM_0
 10
636.02419387847021
 20
326.96441468497392
 30
0.0
 11
666.02419387847021
 21
326.96441468497392
 31
0.0
  0
LINE
  5
6F4F
  8
AM_0
 10
628.02420787847007
 20
216.96440168497389
 30
0.0
 11
606.99031687847025
 21
216.96440168497389
 31
0.0
  0
LINE
  5
6F50
  8
AM_0
 10
581.02421287847005
 20
271.96438868497398
 30
0.0
 11
581.02421287847005
 21
241.964403684974
 31
0.0
  0
LINE
  5
6F51
  8
AM_0
 10
636.02420887847006
 20
326.96438468497388
 30
0.0
 11
592.75478287847022
 21
324.69671468497393
 31
0.0
  0
LINE
  5
6F52
  8
AM_0
 10
369.86914293322502
 20
255.80926868497389
 30
0.0
 11
384.09985293322489
 21
255.80926868497389
 31
0.0
  0
LINE
  5
6F53
  8
AM_0
 10
386.86909293322492
 20
177.68304368497391
 30
0.0
 11
386.86909293322492
 21
308.74574468497389
 31
0.0
  0
LINE
  5
6F54
  8
AM_0
 10
384.79930293322508
 20
159.74619968497379
 30
0.0
 11
392.86912293322501
 21
159.46438568497391
 31
0.0
  0
LINE
  5
6F55
  8
AM_0
 10
332.86909293322492
 20
292.96438868497381
 30
0.0
 11
361.94764293322493
 21
293.72583368497402
 31
0.0
  0
LINE
  5
6F56
  8
AM_0
 10
581.02418287847024
 20
211.96438568497391
 30
0.0
 11
583.27895287847036
 21
168.94102568497391
 31
0.0
  0
LINE
  5
6F57
  8
AM_0
 10
581.02421287847005
 20
211.9644006849739
 30
0.0
 11
581.02421287847005
 21
241.964403684974
 31
0.0
  0
LINE
  5
6F58
  8
AM_0
 10
593.2652508784704
 20
159.46438568497391
 30
0.0
 11
622.47493687847043
 21
159.46438568497391
 31
0.0
  0
LINE
  5
6F59
  8
AM_0
 10
709.57348087847015
 20
159.46438568497391
 30
0.0
 11
738.78315187847033
 21
159.46438568497391
 31
0.0
  0
LINE
  5
6F5A
  8
AM_0
 10
751.02419587847032
 20
211.9644006849739
 30
0.0
 11
751.02419587847032
 21
241.964403684974
 31
0.0
  0
LINE
  5
6F5B
  8
AM_0
 10
696.02419387847033
 20
326.96441468497392
 30
0.0
 11
666.02419387847021
 21
326.96441468497392
 31
0.0
  0
LINE
  5
6F5C
  8
AM_0
 10
332.86909293322492
 20
270.76144568497392
 30
0.0
 11
363.1873629332249
 21
270.76144568497392
 31
0.0
  0
LINE
  5
6F5D
  8
AM_0
 10
332.869152933225
 20
148.46438468497379
 30
0.0
 11
368.869152933225
 21
146.96438468497391
 31
0.0
  0
LINE
  5
6F5E
  8
AM_0
 10
368.86909293322492
 20
162.37486268497389
 30
0.0
 11
368.86909293322492
 21
146.96438468497391
 31
0.0
  0
LINE
  5
6F5F
  8
AM_0
 10
369.842922933225
 20
163.3745106849739
 30
0.0
 11
382.86910293322489
 21
163.7156046849739
 31
0.0
  0
LINE
  5
6F60
  8
AM_0
 10
396.79930293322508
 20
175.9668426849739
 30
0.0
 11
396.86914293322502
 21
175.9644006849739
 31
0.0
  0
LINE
  5
6F61
  8
AM_0
 10
366.31729293322502
 20
281.69305568497367
 30
0.0
 11
383.35459293322492
 21
281.69305568497367
 31
0.0
  0
LINE
  5
6F62
  8
AM_0
 10
614.02419187847022
 20
236.96441768497391
 30
0.0
 11
614.02419187847022
 21
219.96440168497389
 31
0.0
  0
LINE
  5
6F63
  8
AM_0
 10
603.22295287847021
 20
243.96440168497381
 30
0.0
 11
611.25194587847022
 21
243.96440168497381
 31
0.0
  0
LINE
  5
6F64
  8
AM_0
 10
699.02419387847033
 20
236.1981223876391
 30
0.0
 11
699.02419387847033
 21
221.96441768497391
 31
0.0
  0
LINE
  5
6F65
  8
AM_0
 10
603.22295287847021
 20
239.96441768497391
 30
0.0
 11
611.02419187847011
 21
239.96441768497391
 31
0.0
  0
LINE
  5
6F66
  8
AM_0
 10
708.63407287847031
 20
288.10980668497388
 30
0.0
 11
689.41344487847016
 21
268.88919368497392
 31
0.0
  0
LINE
  5
6F67
  8
AM_0
 10
712.16962687847035
 20
284.57428268497392
 30
0.0
 11
692.94898387847036
 21
265.35363968497398
 31
0.0
  0
LINE
  5
6F68
  8
AM_0
 10
623.4143298784702
 20
288.10980668497388
 30
0.0
 11
642.63497287847019
 21
268.88916368497388
 31
0.0
  0
LINE
  5
6F69
  8
AM_0
 10
637.89693487847023
 20
147.05926268497379
 30
0.0
 11
694.15148287847035
 21
147.05926268497379
 31
0.0
  0
LINE
  5
6F6A
  8
AM_0
 10
704.02420987847029
 20
216.96440168497389
 30
0.0
 11
725.05808587847025
 21
216.96440168497389
 31
0.0
  0
LINE
  5
6F6B
  8
AM_0
 10
668.02420987847006
 20
304.76567468497387
 30
0.0
 11
668.02420987847006
 21
296.73665468497393
 31
0.0
  0
LINE
  5
6F6C
  8
AM_0
 10
664.02420787847018
 20
304.76567468497387
 30
0.0
 11
664.02420787847018
 21
296.73665468497393
 31
0.0
  0
LINE
  5
6F6D
  8
AM_0
 10
619.87880587847008
 20
284.57425268497389
 30
0.0
 11
639.09943387847022
 21
265.35363968497398
 31
0.0
  0
LINE
  5
6F6E
  8
AM_0
 10
728.82547987847033
 20
243.96440168497381
 30
0.0
 11
720.79645687847028
 21
243.96440168497381
 31
0.0
  0
LINE
  5
6F6F
  8
AM_0
 10
728.82547987847033
 20
239.96441768497391
 30
0.0
 11
721.02421087847029
 21
239.96441768497391
 31
0.0
  0
LINE
  5
6F70
  8
AM_0
 10
622.47493687847043
 20
159.46438568497391
 30
0.0
 11
625.0730208784704
 21
163.9644006849739
 31
0.0
  0
LINE
  5
6F71
  8
AM_0
 10
709.57348087847015
 20
159.46438568497391
 30
0.0
 11
706.97539687847006
 21
163.9644006849739
 31
0.0
  0
LINE
  5
6F72
  8
AM_0
 10
332.86909293322492
 20
159.0943146849738
 30
0.0
 11
368.86909293322492
 21
159.0943146849738
 31
0.0
  0
LINE
  5
6F73
  8
AM_0
 10
364.86913293322488
 20
288.19806068497383
 30
0.0
 11
381.19825293322492
 21
296.26785668497388
 31
0.0
  0
LINE
  5
6F74
  8
AM_0
 10
366.86914293322502
 20
284.621553684974
 30
0.0
 11
380.3251929332248
 21
284.621553684974
 31
0.0
  0
LINE
  5
6F75
  8
AM_0
 10
751.02419587847032
 20
271.96438868497398
 30
0.0
 11
751.02419587847032
 21
241.964403684974
 31
0.0
  0
LINE
  5
6F76
  8
AM_0
 10
751.02421087847006
 20
271.96438868497398
 30
0.0
 11
748.75655587847018
 21
315.23378468497378
 31
0.0
  0
LINE
  5
6F77
  8
AM_0
 10
751.02421087847006
 20
211.96438568497391
 30
0.0
 11
748.76944987847025
 21
168.94104068497381
 31
0.0
  0
LINE
  5
6F78
  8
AM_0
 10
696.02420887847029
 20
326.96438468497388
 30
0.0
 11
739.29361987847028
 21
324.69674468497402
 31
0.0
  0
LINE
  5
6F79
  8
AM_0
 10
625.0730208784704
 20
163.96438568497391
 30
0.0
 11
706.97541187847025
 21
163.96438568497391
 31
0.0
  0
LINE
  5
6F7A
  8
AM_0
 10
633.02419387847021
 20
236.1981223876391
 30
0.0
 11
633.02419387847021
 21
221.96441768497391
 31
0.0
  0
LINE
  5
6F7B
  8
AM_0
 10
392.86909293322492
 20
280.58902268497388
 30
0.0
 11
396.86914293322502
 21
280.58902268497388
 31
0.0
  0
LINE
  5
6F7C
  8
AM_0
 10
392.86909293322492
 20
253.76736668497389
 30
0.0
 11
396.86914293322502
 21
253.76736668497389
 31
0.0
  0
LINE
  5
6F7D
  8
AM_0
 10
396.86914293322502
 20
280.58902268497388
 30
0.0
 11
396.86914293322502
 21
311.96438468497388
 31
0.0
  0
LINE
  5
6F7E
  8
AM_0
 10
613.46275987847025
 20
266.70840668497391
 30
0.0
 11
610.58776087847025
 21
261.72876068497391
 31
0.0
  0
LINE
  5
6F7F
  8
AM_0
 10
643.64692087847027
 20
154.0592796849738
 30
0.0
 11
640.77191887847005
 21
149.0796336849738
 31
0.0
  0
LINE
  5
6F80
  8
AM_0
 10
640.77191887847005
 20
149.07961868497381
 30
0.0
 11
635.02191787847005
 21
149.07961868497381
 31
0.0
  0
LINE
  5
6F81
  8
AM_0
 10
635.02193587847023
 20
149.07961868497381
 30
0.0
 11
632.14691887847016
 21
154.0592796849738
 31
0.0
  0
LINE
  5
6F82
  8
AM_0
 10
632.14691887847016
 20
154.0592796849738
 30
0.0
 11
635.02191787847005
 21
159.0389256849738
 31
0.0
  0
LINE
  5
6F83
  8
AM_0
 10
640.77191887847005
 20
159.0389256849738
 30
0.0
 11
635.02191787847005
 21
159.0389256849738
 31
0.0
  0
LINE
  5
6F84
  8
AM_0
 10
643.64693587847023
 20
154.0592796849738
 30
0.0
 11
640.77193387847024
 21
159.0389256849738
 31
0.0
  0
LINE
  5
6F85
  8
AM_0
 10
699.90148387847034
 20
154.0592796849738
 30
0.0
 11
697.02648487847034
 21
159.0389256849738
 31
0.0
  0
LINE
  5
6F86
  8
AM_0
 10
697.02648487847034
 20
159.0389256849738
 30
0.0
 11
691.27649887847019
 21
159.0389256849738
 31
0.0
  0
LINE
  5
6F87
  8
AM_0
 10
688.40148187847035
 20
154.05926468497381
 30
0.0
 11
691.27649887847019
 21
159.0389256849738
 31
0.0
  0
LINE
  5
6F88
  8
AM_0
 10
691.27648387847034
 20
149.0796336849738
 30
0.0
 11
688.40148187847035
 21
154.0592796849738
 31
0.0
  0
LINE
  5
6F89
  8
AM_0
 10
697.02648487847034
 20
149.07961868497381
 30
0.0
 11
691.27649887847019
 21
149.07961868497381
 31
0.0
  0
LINE
  5
6F8A
  8
AM_0
 10
699.90148387847034
 20
154.0592796849738
 30
0.0
 11
697.02648487847034
 21
149.07961868497381
 31
0.0
  0
LINE
  5
6F8B
  8
AM_0
 10
610.58776087847025
 20
261.72876068497391
 30
0.0
 11
604.83775987847025
 21
261.72876068497391
 31
0.0
  0
LINE
  5
6F8C
  8
AM_0
 10
604.83775987847025
 20
261.72873068497398
 30
0.0
 11
601.96276087847025
 21
266.70837668497381
 31
0.0
  0
LINE
  5
6F8D
  8
AM_0
 10
601.96273087847021
 20
266.70840668497391
 30
0.0
 11
604.83772987847021
 21
271.68805268497391
 31
0.0
  0
LINE
  5
6F8E
  8
AM_0
 10
610.58776087847025
 20
271.68805268497391
 30
0.0
 11
604.83775987847025
 21
271.68805268497391
 31
0.0
  0
LINE
  5
6F8F
  8
AM_0
 10
613.46275987847025
 20
266.70837668497381
 30
0.0
 11
610.58776087847025
 21
271.68805268497391
 31
0.0
  0
LINE
  5
6F90
  8
AM_0
 10
730.08570487847032
 20
266.70831668497391
 30
0.0
 11
727.21070287847033
 21
261.72867068497391
 31
0.0
  0
LINE
  5
6F91
  8
AM_0
 10
727.21070287847033
 20
261.72870068497389
 30
0.0
 11
721.46070487847032
 21
261.72870068497389
 31
0.0
  0
LINE
  5
6F92
  8
AM_0
 10
721.46070487847032
 20
261.72867068497391
 30
0.0
 11
718.58568787847025
 21
266.70834668497389
 31
0.0
  0
LINE
  5
6F93
  8
AM_0
 10
718.58568787847025
 20
266.70834668497389
 30
0.0
 11
721.46068687847026
 21
271.6879896849739
 31
0.0
  0
LINE
  5
6F94
  8
AM_0
 10
727.21070287847033
 20
271.6879896849739
 30
0.0
 11
721.46070487847032
 21
271.6879896849739
 31
0.0
  0
LINE
  5
6F95
  8
AM_0
 10
730.08570487847032
 20
266.70831668497391
 30
0.0
 11
727.21070287847033
 21
271.6879896849739
 31
0.0
  0
LINE
  5
6F96
  8
AM_0
 10
327.86917293322489
 20
150.96438368497391
 30
0.0
 11
332.86909293322492
 21
150.96438368497391
 31
0.0
  0
LINE
  5
6F97
  8
AM_0
 10
322.86910293322501
 20
148.46438468497379
 30
0.0
 11
332.86909293322492
 21
148.46438468497379
 31
0.0
  0
ARC
  5
6F98
  8
AM_0
 10
327.86917293322489
 20
290.96442068497379
 30
0.0
 40
2.00000007
 50
90.00000299999769
 51
180.0000100000002
  0
ARC
  5
6F99
  8
AM_0
 10
323.86909293322492
 20
275.46438968497392
 30
0.0
 40
2.00000007
 50
270.0
 51
0.0
  0
ARC
  5
6F9A
  8
AM_0
 10
322.86910293322501
 20
271.46441768497391
 30
0.0
 40
2.00000007
 50
90.00000299999769
 51
180.0000100000002
  0
ARC
  5
6F9B
  8
AM_0
 10
322.86910293322501
 20
266.35242068497388
 30
0.0
 40
2.00000007
 50
179.9999899999998
 51
270.0
  0
ARC
  5
6F9C
  8
AM_0
 10
318.869172933225
 20
256.83172868497388
 30
0.0
 40
2.00000007
 50
270.0
 51
0.0
  0
ARC
  5
6F9D
  8
AM_0
 10
318.869172933225
 20
164.33439668497391
 30
0.0
 40
2.00000007
 50
0.0
 51
90.00000299999769
  0
ARC
  5
6F9E
  8
AM_0
 10
323.86909293322492
 20
288.19830668497389
 30
0.0
 40
2.00000007
 50
271.50000000000267
 51
0.0
  0
ARC
  5
6FA2
  8
AM_0
 10
369.86914293322502
 20
162.37486268497389
 30
0.0
 40
1.0000000199999981
 50
91.500001000001546
 51
180.0000100000002
  0
ARC
  5
6FA3
  8
AM_0
 10
598.73897587847023
 20
251.79776168497381
 30
0.0
 40
2.00000007
 50
351.68540999999948
 51
79.999998000000929
  0
ARC
  5
6FA4
  8
AM_0
 10
666.02419387847021
 20
241.964403684974
 30
0.0
 40
66.000003000000007
 50
34.109953999997551
 51
145.8900400000021
  0
ARC
  5
6FA5
  8
AM_0
 10
733.30945987847031
 20
251.79776168497381
 30
0.0
 40
2.00000007
 50
99.999999999998593
 51
188.31458999999981
  0
ARC
  5
6FA6
  8
AM_0
 10
608.89476787847036
 20
280.65841868497392
 30
0.0
 40
3.0
 50
265.15681999999839
 51
325.89005000000031
  0
ARC
  5
6FA7
  8
AM_0
 10
733.30945987847031
 20
251.79776168497381
 30
0.0
 40
2.00000007
 50
8.3145873999999225
 51
99.999999999998593
  0
ARC
  5
6FA8
  8
AM_0
 10
724.33564387847025
 20
266.70840668497391
 30
0.0
 40
11.000000399999999
 50
311.14394000000323
 51
94.843180000001595
  0
ARC
  5
6FA9
  8
AM_0
 10
361.86910293322501
 20
296.72483468497393
 30
0.0
 40
3.0
 50
271.50000000000267
 51
0.0
  0
ARC
  5
6FAA
  8
AM_0
 10
611.49312487847044
 20
282.58902368497388
 30
0.0
 40
2.00000007
 50
235.00000000000259
 51
323.31459000000137
  0
ARC
  5
6FAB
  8
AM_0
 10
369.86914293322502
 20
306.03839468497392
 30
0.0
 40
5.0000001000000003
 50
91.999998000000545
 51
180.0000100000002
  0
ARC
  5
6FAC
  8
AM_0
 10
598.50142687847006
 20
256.16559068497378
 30
0.0
 40
3.0
 50
348.12283999999642
 51
48.856062999999523
  0
ARC
  5
6FAD
  8
AM_0
 10
733.5469908784703
 20
256.16559068497378
 30
0.0
 40
3.0
 50
131.14394000000331
 51
191.87716000000279
  0
ARC
  5
6FAE
  8
AM_0
 10
383.86909293322492
 20
177.68304368497391
 30
0.0
 40
3.0
 50
270.0
 51
0.0
  0
ARC
  5
6FAF
  8
AM_0
 10
607.71275887847025
 20
266.70840668497391
 30
0.0
 40
11.000000399999999
 50
85.1568180000002
 51
228.8560599999966
  0
ARC
  5
6FB0
  8
AM_0
 10
666.02419387847021
 20
241.964403684974
 30
0.0
 40
70.000001999999995
 50
30.534626999999471
 51
149.46536999999981
  0
ARC
  5
6FB1
  8
AM_0
 10
666.02419387847021
 20
241.964403684974
 30
0.0
 40
66.000003000000007
 50
0.0
 51
11.87716199999964
  0
ARC
  5
6FB2
  8
AM_0
 10
666.02419387847021
 20
221.96441768497391
 30
0.0
 40
71.000000999999983
 50
301.50671999999952
 51
305.22420999999957
  0
ARC
  5
6FB3
  8
AM_0
 10
720.55529287847025
 20
282.58902368497388
 30
0.0
 40
2.00000007
 50
304.99999999999739
 51
36.685413999996868
  0
ARC
  5
6FB4
  8
AM_0
 10
666.02419387847021
 20
241.964403684974
 30
0.0
 40
52.000007999999987
 50
137.75567000000359
 51
174.78408999999999
  0
ARC
  5
6FB5
  8
AM_0
 10
706.51275187847034
 20
290.23114268497392
 30
0.0
 40
3.0
 50
315.0
 51
50.008388000003357
  0
ARC
  5
6FB6
  8
AM_0
 10
666.02419387847021
 20
241.964403684974
 30
0.0
 40
52.000007999999987
 50
5.2159077000001099
 51
42.244334000004017
  0
ARC
  5
6FB7
  8
AM_0
 10
384.86914293322502
 20
324.68381468497392
 30
0.0
 40
2.00000007
 50
91.999998000000545
 51
180.0000100000002
  0
ARC
  5
6FB8
  8
AM_0
 10
598.73897587847023
 20
251.79776168497381
 30
0.0
 40
2.00000007
 50
79.999998000000929
 51
171.68541000000019
  0
ARC
  5
6FB9
  8
AM_0
 10
666.02419387847021
 20
241.964403684974
 30
0.0
 40
66.000003000000007
 50
168.1228399999963
 51
0.0000100179130762
  0
ARC
  5
6FBA
  8
AM_0
 10
611.49312487847044
 20
282.58902368497388
 30
0.0
 40
2.00000007
 50
143.31457999999611
 51
235.00000999999719
  0
ARC
  5
6FBB
  8
AM_0
 10
721.02421087847029
 20
219.96440168497389
 30
0.0
 40
3.0
 50
179.9999899999998
 51
270.0
  0
ARC
  5
6FBC
  8
AM_0
 10
714.29093287847024
 20
282.45294368497389
 30
0.0
 40
3.0
 50
39.991611000003481
 51
135.0
  0
ARC
  5
6FBD
  8
AM_0
 10
666.02419387847021
 20
241.964403684974
 30
0.0
 40
70.000001999999995
 50
0.0
 51
15.45248699999985
  0
ARC
  5
6FBE
  8
AM_0
 10
723.15364987847033
 20
280.65841868497392
 30
0.0
 40
3.0
 50
214.1099599999979
 51
274.84318000000161
  0
ARC
  5
6FBF
  8
AM_0
 10
369.86914293322502
 20
260.80923668497388
 30
0.0
 40
5.0000001000000003
 50
179.9999899999998
 51
270.0
  0
ARC
  5
6FC0
  8
AM_0
 10
666.02419387847021
 20
241.964403684974
 30
0.0
 40
70.000001999999995
 50
164.54750999999871
 51
0.0000100179130762
  0
ARC
  5
6FC1
  8
AM_0
 10
384.86914293322502
 20
161.74496468497381
 30
0.0
 40
2.00000007
 50
179.9999899999998
 51
268.00000999999872
  0
ARC
  5
6FC2
  8
AM_0
 10
383.86909293322492
 20
308.74574468497389
 30
0.0
 40
3.0
 50
0.0
 51
90.00000299999769
  0
ARC
  5
6FC3
  8
ﾁｭｳｼﾝｾﾝ1
 10
666.02419387847021
 20
241.964403684974
 30
0.0
 40
100.000011
 50
216.97203860267811
 51
233.02798570585759
  0
CIRCLE
  5
6FC4
  8
AM_0
 10
595.31352787847015
 20
312.67508468497402
 30
0.0
 40
6.0000002999999991
  0
ARC
  5
6FC5
  8
AM_0
 10
593.27815987847021
 20
314.71046468497389
 30
0.0
 40
10.000000200000001
 50
92.999999000001623
 51
176.9999900000002
  0
CIRCLE
  5
6FC6
  8
AM_0
 10
595.31352787847015
 20
171.2537076849739
 30
0.0
 40
6.0000002999999991
  0
CIRCLE
  5
6FC7
  8
AM_0
 10
736.73487487847035
 20
171.2537076849739
 30
0.0
 40
6.0000002999999991
  0
CIRCLE
  5
6FC8
  8
AM_0
 10
736.73487487847035
 20
312.67508468497402
 30
0.0
 40
6.0000002999999991
  0
ARC
  5
6FC9
  8
AM_0
 10
738.77025787847015
 20
314.71046468497389
 30
0.0
 40
10.000000200000001
 50
3.0000000999996601
 51
86.999998999996933
  0
ARC
  5
6FCA
  8
AM_0
 10
611.02419187847011
 20
219.96440168497389
 30
0.0
 40
3.0
 50
270.0
 51
0.0
  0
ARC
  5
6FCB
  8
AM_0
 10
644.75629387847005
 20
271.01049968497392
 30
0.0
 40
3.0
 50
225.0
 51
273.99789711118041
  0
ARC
  5
6FCC
  8
AM_0
 10
603.22295287847021
 20
246.96440168497381
 30
0.0
 40
3.0
 50
175.4479300000003
 51
270.0
  0
ARC
  5
6FCD
  8
AM_0
 10
603.22295287847021
 20
236.96441768497391
 30
0.0
 40
3.0
 50
90.00000299999769
 51
184.5520699999995
  0
ARC
  5
6FCE
  8
AM_0
 10
666.02419387847021
 20
241.964403684974
 30
0.0
 40
52.000007999999987
 50
47.755664999999361
 51
84.78409399999758
  0
ARC
  5
6FCF
  8
AM_0
 10
687.29212387847019
 20
271.01049968497392
 30
0.0
 40
3.0
 50
266.00147416554199
 51
315.0
  0
ARC
  5
6FD0
  8
AM_0
 10
617.75749987847007
 20
282.45294368497389
 30
0.0
 40
3.0
 50
45.000001000003223
 51
140.00838999999601
  0
ARC
  5
6FD1
  8
AM_0
 10
695.07030787847032
 20
263.23233368497392
 30
0.0
 40
3.0
 50
135.0
 51
183.9989925467498
  0
ARC
  5
6FD2
  8
AM_0
 10
625.5356358784702
 20
290.23114268497392
 30
0.0
 40
3.0
 50
129.99160999999941
 51
225.0
  0
ARC
  5
6FD3
  8
AM_0
 10
385.86910293322489
 20
283.91604968497393
 30
0.0
 40
3.0
 50
179.9999899999998
 51
270.0
  0
ARC
  5
6FD4
  8
AM_0
 10
385.86910293322489
 20
194.81005868497391
 30
0.0
 40
3.0
 50
90.00000299999769
 51
180.0000100000002
  0
ARC
  5
6FD5
  8
AM_0
 10
626.30669287847024
 20
157.1683956849738
 30
0.0
 40
5.0000001000000003
 50
344.98364000000009
 51
56.872543000003112
  0
ARC
  5
6FD6
  8
AM_0
 10
637.89693487847023
 20
154.05926468497381
 30
0.0
 40
7.0000007999999987
 50
164.9194399999995
 51
270.0
  0
ARC
  5
6FD7
  8
AM_0
 10
705.7416948784703
 20
157.1683956849738
 30
0.0
 40
5.0000001000000003
 50
121.5067300000014
 51
195.01635000000289
  0
ARC
  5
6FD8
  8
AM_0
 10
606.99031687847025
 20
219.96440168497389
 30
0.0
 40
3.0
 50
200.43878000000441
 51
270.0
  0
ARC
  5
6FD9
  8
AM_0
 10
725.05808587847025
 20
219.96440168497389
 30
0.0
 40
3.0
 50
270.0
 51
339.56121999999561
  0
ARC
  5
6FDA
  8
AM_0
 10
628.02420787847007
 20
221.96441768497391
 30
0.0
 40
5.0000001000000003
 50
270.0
 51
0.0
  0
ARC
  5
6FDB
  8
AM_0
 10
704.02420987847029
 20
221.96441768497391
 30
0.0
 40
5.0000001000000003
 50
179.9999899999998
 51
270.0
  0
ARC
  5
6FDC
  8
AM_0
 10
379.86910293322501
 20
314.37500468497387
 30
0.0
 40
3.0
 50
271.9999999999971
 51
0.0
  0
ARC
  5
6FDD
  8
AM_0
 10
671.02420987847017
 20
296.73665468497393
 30
0.0
 40
3.0
 50
179.9999899999998
 51
264.78408999999982
  0
ARC
  5
6FDE
  8
AM_0
 10
611.25194587847022
 20
246.96440168497381
 30
0.0
 40
3.0
 50
270.0
 51
354.78408999999999
  0
ARC
  5
6FDF
  8
AM_0
 10
611.02419187847011
 20
236.96441768497391
 30
0.0
 40
3.0
 50
0.0
 51
90.00000299999769
  0
ARC
  5
6FE0
  8
AM_0
 10
721.02421087847029
 20
236.96441768497391
 30
0.0
 40
3.0
 50
90.00000299999769
 51
180.0000100000002
  0
ARC
  5
6FE1
  8
AM_0
 10
661.02420787847007
 20
296.73665468497393
 30
0.0
 40
3.0
 50
275.21591000000018
 51
0.0
  0
ARC
  5
6FE2
  8
AM_0
 10
671.02420987847017
 20
304.76567468497387
 30
0.0
 40
3.0
 50
85.447926999998117
 51
180.0000100000002
  0
ARC
  5
6FE3
  8
AM_0
 10
720.79645687847028
 20
246.96440168497381
 30
0.0
 40
3.0
 50
185.21590999999989
 51
270.0
  0
ARC
  5
6FE4
  8
AM_0
 10
636.97810987847015
 20
263.23233368497392
 30
0.0
 40
3.0
 50
356.0017853035049
 51
45.000001000003223
  0
ARC
  5
6FE5
  8
AM_0
 10
661.02420787847007
 20
304.76567468497387
 30
0.0
 40
3.0
 50
0.0
 51
94.552071000002115
  0
ARC
  5
6FE6
  8
AM_0
 10
728.82547987847033
 20
236.96441768497391
 30
0.0
 40
3.0
 50
355.44793000000038
 51
90.00000299999769
  0
ARC
  5
6FE7
  8
AM_0
 10
728.82547987847033
 20
246.96440168497381
 30
0.0
 40
3.0
 50
270.0
 51
4.5520713999997291
  0
ARC
  5
6FE8
  8
AM_0
 10
720.55529287847025
 20
282.58902368497388
 30
0.0
 40
2.00000007
 50
216.6854200000038
 51
304.99999999999739
  0
ARC
  5
6FE9
  8
AM_0
 10
380.3251929332248
 20
281.62155368497389
 30
0.0
 40
3.0
 50
22.4835360000049
 51
90.00000299999769
  0
ARC
  5
6FEA
  8
AM_0
 10
379.86910293322501
 20
298.9573746849739
 30
0.0
 40
3.0
 50
296.29843000000261
 51
0.0
  0
ARC
  5
6FEB
  8
AM_0
 10
366.86914293322502
 20
286.62155468497377
 30
0.0
 40
2.00000007
 50
179.9999899999998
 51
270.0
  0
ARC
  5
6FEC
  8
AM_0
 10
391.28323293322501
 20
272.26666568497387
 30
0.0
 40
3.0
 50
39.999999000003022
 51
58.086796999996537
  0
ARC
  5
6FED
  8
AM_0
 10
593.2652508784704
 20
169.46439968497381
 30
0.0
 40
10.000000200000001
 50
183.00000999999969
 51
270.0
  0
ARC
  5
6FEE
  8
AM_0
 10
738.78315187847033
 20
169.46439968497381
 30
0.0
 40
10.000000200000001
 50
270.0
 51
357.00000000000023
  0
ARC
  5
6FEF
  8
AM_0
 10
666.02419387847021
 20
221.96441768497391
 30
0.0
 40
71.000000999999983
 50
234.77579000000031
 51
238.4932699999986
  0
ARC
  5
6FF0
  8
AM_0
 10
694.15148287847035
 20
154.05926468497381
 30
0.0
 40
7.0000007999999987
 50
270.000020000002
 51
15.08055899999613
  0
CIRCLE
  5
6FF1
  8
AM_0
 10
637.89693487847023
 20
154.05926468497381
 30
0.0
 40
4.979646299999998
  0
CIRCLE
  5
6FF2
  8
AM_0
 10
694.15148287847035
 20
154.05926468497381
 30
0.0
 40
4.979646299999998
  0
CIRCLE
  5
6FF3
  8
AM_0
 10
607.71275887847025
 20
266.70840668497391
 30
0.0
 40
4.979646299999998
  0
CIRCLE
  5
6FF4
  8
AM_0
 10
724.33568887847025
 20
266.70834668497389
 30
0.0
 40
4.979646299999998
  0
ARC
  5
6FF5
  8
AM_0
 10
327.86917293322489
 20
152.96438468497391
 30
0.0
 40
2.00000007
 50
179.9999899999998
 51
270.0
  0
ARC
  5
6FF6
  8
AM_0
 10
322.86910293322501
 20
150.46438568497391
 30
0.0
 40
2.00000007
 50
179.9999899999998
 51
270.0
  0
ARC
  5
700C
  8
AM_0
 10
666.02417877820506
 20
241.964403684974
 30
0.0
 40
52.000007999999987
 50
95.215910999999593
 51
132.24432999999581
  0
LINE
  5
7017
  8
ﾁｭｳｼﾝｾﾝ1
 10
745.22017125270838
 20
162.7684563107353
 30
0.0
 11
728.24960850423145
 21
179.73901905921269
 31
0.0
  0
ARC
  5
7018
  8
ﾁｭｳｼﾝｾﾝ1
 10
666.02419387846987
 20
241.964403684974
 30
0.0
 40
100.000011
 50
306.97203860268269
 51
323.0279857058552
  0
LINE
  5
7019
  8
ﾁｭｳｼﾝｾﾝ1
 10
745.22014125270846
 20
321.16038105921251
 30
0.0
 11
728.24957850423141
 21
304.18981831073552
 31
0.0
  0
ARC
  5
701A
  8
ﾁｭｳｼﾝｾﾝ1
 10
666.02419387846987
 20
241.964403684974
 30
0.0
 40
100.000011
 50
36.972038602678168
 51
53.027985705857567
  0
LINE
  5
701B
  8
ﾁｭｳｼﾝｾﾝ1
 10
586.82821650423136
 20
321.1603510592123
 30
0.0
 11
603.79877925270864
 21
304.18978831073508
 31
0.0
  0
ARC
  5
701C
  8
ﾁｭｳｼﾝｾﾝ1
 10
666.02419387846976
 20
241.9644036849738
 30
0.0
 40
100.000011
 50
126.9720386026827
 51
143.02798570585529
  0
LINE
  5
755E
  8
ﾁｭｳｼﾝｾﾝ
 10
75.563961692891425
 20
517.85659498141467
 30
0.0
 11
446.08879293322491
 21
517.85659498141467
 31
0.0
  0
LINE
  5
759C
  8
AM_0
 10
295.86913293322488
 20
454.35659498141462
 30
0.0
 11
295.86913293322488
 21
581.35659498141445
 31
0.0
  0
LINE
  5
75F4
  8
AM_0
 10
132.8691329332263
 20
465.79519147264313
 30
0.0
 11
132.86913293322581
 21
503.51747838740022
 31
0.0
  0
LINE
  5
75F5
  8
AM_0
 10
123.8691329332254
 20
463.85659498141513
 30
0.0
 11
123.8691329332254
 21
571.85659498141513
 31
0.0
  0
LINE
  5
75F6
  8
AM_0
 10
123.8691329332254
 20
463.85659498141479
 30
0.0
 11
140.86913293322539
 21
464.85659498141479
 31
0.0
  0
LINE
  5
75F7
  8
AM_0
 10
123.8691329332254
 20
571.8565949814149
 30
0.0
 11
140.86913293322539
 21
570.8565949814149
 31
0.0
  0
LINE
  5
75F8
  8
AM_0
 10
132.86913293322601
 20
474.26269178332331
 30
0.0
 11
140.86913293322539
 21
474.26269178332348
 31
0.0
  0
LINE
  5
75F9
  8
AM_0
 10
132.8691329332263
 20
465.79519147264313
 30
0.0
 11
140.86913293322539
 21
465.79519147264313
 31
0.0
  0
LINE
  5
75FA
  8
AM_0
 10
129.36913293322601
 20
483.21572201615493
 30
0.0
 11
132.86913293322601
 21
483.21572201615493
 31
0.0
  0
LINE
  5
75FB
  8
AM_0
 10
129.36913293322601
 20
474.71572201615493
 30
0.0
 11
132.8691329332263
 21
474.71572201615493
 31
0.0
  0
LINE
  5
75FC
  8
AM_0
 10
128.8691329332261
 20
475.21572201615481
 30
0.0
 11
128.8691329332261
 21
482.71572201615493
 31
0.0
  0
ARC
  5
75FD
  8
AM_0
 10
129.36913293322621
 20
475.21572201615481
 30
0.0
 40
0.5
 50
180.0
 51
270.0
  0
ARC
  5
75FE
  8
AM_0
 10
129.36913293322621
 20
482.71572201615493
 30
0.0
 40
0.5
 50
90.0
 51
180.0
  0
LINE
  5
75FF
  8
AM_0
 10
123.8691329332254
 20
475.58440048827492
 30
0.0
 11
128.8691329332261
 21
475.5844004882747
 31
0.0
  0
LINE
  5
7600
  8
AM_0
 10
123.8691329332254
 20
485.31948298657062
 30
0.0
 11
132.86913293322601
 21
485.31948298657068
 31
0.0
  0
LINE
  5
7601
  8
AM_0
 10
132.8691329332263
 20
569.91799849018719
 30
0.0
 11
132.86913293322581
 21
532.19571157543419
 31
0.0
  0
LINE
  5
7602
  8
AM_0
 10
132.86913293322601
 20
561.45049817950633
 30
0.0
 11
140.86913293322539
 21
561.45049817950633
 31
0.0
  0
LINE
  5
7603
  8
AM_0
 10
132.8691329332263
 20
569.91799849018719
 30
0.0
 11
140.86913293322539
 21
569.91799849018719
 31
0.0
  0
LINE
  5
7604
  8
AM_0
 10
129.36913293322601
 20
552.49746794667521
 30
0.0
 11
132.86913293322601
 21
552.49746794667521
 31
0.0
  0
LINE
  5
7605
  8
AM_0
 10
129.36913293322601
 20
560.99746794667521
 30
0.0
 11
132.8691329332263
 21
560.99746794667521
 31
0.0
  0
LINE
  5
7606
  8
AM_0
 10
128.8691329332261
 20
560.49746794667521
 30
0.0
 11
128.8691329332261
 21
552.99746794667521
 31
0.0
  0
ARC
  5
7607
  8
AM_0
 10
129.36913293322621
 20
560.49746794667476
 30
0.0
 40
0.5
 50
90.0
 51
180.0
  0
ARC
  5
7608
  8
AM_0
 10
129.36913293322621
 20
552.99746794667476
 30
0.0
 40
0.5
 50
180.0
 51
270.0
  0
LINE
  5
7609
  8
AM_0
 10
123.8691329332254
 20
560.12878947455511
 30
0.0
 11
128.8691329332261
 21
560.12878947455533
 31
0.0
  0
LINE
  5
760A
  8
AM_0
 10
123.8691329332254
 20
550.39370697625907
 30
0.0
 11
132.86913293322601
 21
550.39370697625907
 31
0.0
  0
LINE
  5
760B
  8
AM_0
 10
117.8691329332254
 20
571.85659498141513
 30
0.0
 11
117.8691329332254
 21
463.85659498141479
 31
0.0
  0
LINE
  5
760C
  8
AM_0
 10
123.8691329332254
 20
463.85659498141479
 30
0.0
 11
117.8691329332254
 21
463.85659498141479
 31
0.0
  0
LINE
  5
760D
  8
AM_0
 10
117.8691329332254
 20
571.85659498141513
 30
0.0
 11
123.8691329332251
 21
571.85659498141513
 31
0.0
  0
LINE
  5
760E
  8
AM_0
 10
116.8691329332254
 20
514.05659498141495
 30
0.0
 11
116.8691329332254
 21
521.65659498141486
 31
0.0
  0
LINE
  5
760F
  8
AM_0
 10
116.8691329332254
 20
521.65659498141486
 30
0.0
 11
117.8691329332254
 21
521.65659498141486
 31
0.0
  0
LINE
  5
7610
  8
AM_0
 10
117.8691329332254
 20
518.05659498141495
 30
0.0
 11
116.8691329332254
 21
518.42056521568111
 31
0.0
  0
LINE
  5
7611
  8
AM_0
 10
117.8691329332254
 20
517.65659498141486
 30
0.0
 11
116.8691329332254
 21
518.02056521568124
 31
0.0
  0
LINE
  5
7612
  8
AM_0
 10
117.8691329332254
 20
514.05659498141495
 30
0.0
 11
116.8691329332254
 21
514.05659498141495
 31
0.0
  0
LINE
  5
7613
  8
AM_0
 10
115.8101954210973
 20
521.76394995372152
 30
0.0
 11
116.8691329332254
 21
521.8565949814149
 31
0.0
  0
LINE
  5
7614
  8
AM_0
 10
115.8101954210973
 20
513.94924000910851
 30
0.0
 11
116.8691329332254
 21
513.85659498141479
 31
0.0
  0
ARC
  5
7615
  8
AM_0
 10
120.26913293322529
 20
517.85659498141479
 30
0.0
 40
6.5
 50
151.82726586813479
 51
208.1727341318651
  0
ARC
  5
7616
  8
AM_0
 10
115.9496446094939
 20
515.54315152605523
 30
0.0
 40
1.6000000000000001
 50
208.1727341318651
 51
265.00000000000028
  0
ARC
  5
7617
  8
AM_0
 10
115.9496446094939
 20
520.17003843677458
 30
0.0
 40
1.6000000000000001
 50
94.99999999999973
 51
151.82726586813479
  0
LINE
  5
7618
  8
AM_0
 10
116.8691329332254
 20
513.85659498141479
 30
0.0
 11
116.8691329332254
 21
521.8565949814149
 31
0.0
  0
LINE
  5
7619
  8
AM_0
 10
140.86913293322539
 20
503.51747838740039
 30
0.0
 11
132.86913293322601
 21
503.51747838740039
 31
0.0
  0
LINE
  5
761A
  8
AM_0
 10
140.8691329332251
 20
532.1957115754343
 30
0.0
 11
132.86913293322581
 21
532.1957115754343
 31
0.0
  0
LINE
  5
761B
  8
AM_0
 10
103.3691329332249
 20
483.85659498141598
 30
0.0
 11
103.3691329332249
 21
472.85659498141513
 31
0.0
  0
LINE
  5
761C
  8
AM_0
 10
117.8691329332249
 20
472.85659498141513
 30
0.0
 11
103.3691329332249
 21
472.85659498141518
 31
0.0
  0
LINE
  5
761D
  8
AM_0
 10
91.369132933225387
 20
477.85659498141598
 30
0.0
 11
91.36913293322516
 21
474.85659498141598
 31
0.0
  0
LINE
  5
761E
  8
AM_0
 10
91.36913293322516
 20
474.85659498141598
 30
0.0
 11
103.3691329332249
 21
474.85659498141598
 31
0.0
  0
LINE
  5
761F
  8
AM_0
 10
91.369132933224932
 20
475.85659498141609
 30
0.0
 11
91.369132933224932
 21
478.03426338756248
 31
0.0
  0
LINE
  5
7620
  8
AM_0
 10
85.869132933224947
 20
477.85659498141609
 30
0.0
 11
86.769132933225023
 21
477.85659498141609
 31
0.0
  0
LINE
  5
7621
  8
AM_0
 10
85.66913293322466
 20
480.85659498141609
 30
0.0
 11
85.66913293322466
 21
477.85659498141609
 31
0.0
  0
LINE
  5
7622
  8
AM_0
 10
86.769132933225023
 20
477.5842432468325
 30
0.0
 11
86.769132933225023
 21
481.12894671599992
 31
0.0
  0
LINE
  5
7623
  8
AM_0
 10
85.369132933224932
 20
480.55659498141608
 30
0.0
 11
86.769132933223204
 21
480.55659498141608
 31
0.0
  0
LINE
  5
7624
  8
AM_0
 10
90.769132933225023
 20
476.97502512100908
 30
0.0
 11
90.769132933225023
 21
475.85659498141609
 31
0.0
  0
LINE
  5
7625
  8
AM_0
 10
90.769132933225023
 20
477.85659498141609
 30
0.0
 11
90.769132933225023
 21
477.75659498141601
 31
0.0
  0
LINE
  5
7626
  8
AM_0
 10
90.769132933225023
 20
477.75659498141601
 30
0.0
 11
90.769132933225023
 21
476.97502512100908
 31
0.0
  0
LINE
  5
7627
  8
AM_0
 10
90.769132933225023
 20
477.85659498141609
 30
0.0
 11
90.769132933225023
 21
477.75659498141601
 31
0.0
  0
LINE
  5
7628
  8
AM_0
 10
90.769132933225023
 20
478.24035765774568
 30
0.0
 11
90.769132933225023
 21
476.97502512100908
 31
0.0
  0
LINE
  5
7629
  8
AM_0
 10
90.769132933225023
 20
475.85659498141609
 30
0.0
 11
91.369132933224932
 21
475.85659498141609
 31
0.0
  0
LINE
  5
762A
  8
AM_0
 10
88.069132933225205
 20
476.97502512100908
 30
0.0
 11
88.069132933225205
 21
480.40655631340923
 31
0.0
  0
LINE
  5
762B
  8
AM_0
 10
87.90808870396755
 20
476.68833349266572
 30
0.0
 11
86.975535654460487
 21
477.2267432468326
 31
0.0
  0
LINE
  5
762C
  8
AM_0
 10
88.341584525255584
 20
476.1811685008733
 30
0.0
 11
90.496681341194588
 21
476.1811685008733
 31
0.0
  0
LINE
  5
762D
  8
AM_0
 10
88.341584525255584
 20
477.7688817411447
 30
0.0
 11
90.496681341194588
 21
477.76888174114492
 31
0.0
  0
LINE
  5
762E
  8
AM_0
 10
86.769132933223645
 20
480.85659498141609
 30
0.0
 11
85.66913293322466
 21
480.85659498141609
 31
0.0
  0
LINE
  5
762F
  8
AM_0
 10
85.66913293322466
 20
480.85659498141609
 30
0.0
 11
85.369132933224932
 21
480.55659498141608
 31
0.0
  0
LINE
  5
7630
  8
AM_0
 10
85.369132933224932
 20
480.55659498141608
 30
0.0
 11
85.369132933224932
 21
478.15659498141622
 31
0.0
  0
LINE
  5
7631
  8
AM_0
 10
85.66913293322466
 20
477.85659498141609
 30
0.0
 11
86.769132933223204
 21
477.85659498141609
 31
0.0
  0
LINE
  5
7632
  8
AM_0
 10
85.369132933224932
 20
478.15659498141622
 30
0.0
 11
85.66913293322466
 21
477.85659498141609
 31
0.0
  0
LINE
  5
7633
  8
AM_0
 10
86.769132933223204
 20
478.15659498141622
 30
0.0
 11
85.369132933224932
 21
478.15659498141622
 31
0.0
  0
ARC
  5
7634
  8
AM_0
 10
89.476356117198407
 20
476.97502512100908
 30
0.0
 40
1.292776816026465
 50
322.11555894629771
 51
0.0
  0
ARC
  5
7635
  8
AM_0
 10
92.831562809284705
 20
479.35659498141609
 30
0.0
 40
4.762429876059711
 50
168.45024695876941
 51
199.4742400054138
  0
ARC
  5
7636
  8
AM_0
 10
89.361909749251595
 20
476.97502512100908
 30
0.0
 40
1.292776816026556
 50
142.11555894629771
 51
217.88444105370229
  0
ARC
  5
7637
  8
AM_0
 10
86.00670305716551
 20
479.35659498141609
 30
0.0
 40
4.762429876059584
 50
340.52575999458628
 51
347.08714779821958
  0
ARC
  5
7638
  8
AM_0
 10
89.476356117198407
 20
476.97502512100908
 30
0.0
 40
1.2927768160265021
 50
0.0
 51
37.884441053702282
  0
ARC
  5
7639
  8
AM_0
 10
87.181938375695495
 20
477.5842432468325
 30
0.0
 40
0.4128054424705854
 50
180.0
 51
239.99999999999949
  0
ARC
  5
763A
  8
AM_0
 10
87.495283261497093
 20
475.97333349266609
 30
0.0
 40
0.8256108849411369
 50
28.217424594182571
 51
59.999999999999439
  0
LINE
  5
763B
  8
AM_0
 10
86.984225465748196
 20
481.49146378088602
 30
0.0
 11
86.975535654460487
 21
481.48644671599988
 31
0.0
  0
ARC
  5
763C
  8
AM_0
 10
87.181938375695694
 20
481.12894671599992
 30
0.0
 40
0.4128054424705854
 50
119.9999999999916
 51
179.99999999999341
  0
CIRCLE
  5
763D
  8
AM_0
 10
89.369094265219104
 20
517.85659498141536
 30
0.0
 40
5.5
  0
LINE
  5
763E
  8
AM_0
 10
83.869094265219147
 20
514.68116850087222
 30
0.0
 11
89.369094265219573
 21
511.50574202032908
 31
0.0
  0
LINE
  5
763F
  8
AM_0
 10
89.369094265219573
 20
511.50574202032908
 30
0.0
 11
94.869094265219104
 21
514.68116850087245
 31
0.0
  0
LINE
  5
7640
  8
AM_0
 10
94.869094265219104
 20
514.68116850087245
 30
0.0
 11
94.869094265219104
 21
521.03202146195815
 31
0.0
  0
LINE
  5
7641
  8
AM_0
 10
94.869094265219104
 20
521.03202146195815
 30
0.0
 11
89.369094265219104
 21
524.20744794250118
 31
0.0
  0
LINE
  5
7642
  8
AM_0
 10
89.369094265219104
 20
524.20744794250118
 30
0.0
 11
83.869094265219147
 21
521.03202146195781
 31
0.0
  0
LINE
  5
7643
  8
AM_0
 10
83.869094265219147
 20
521.03202146195781
 30
0.0
 11
83.869094265219147
 21
514.68116850087222
 31
0.0
  0
CIRCLE
  5
7644
  8
AM_0
 10
89.369094265219104
 20
517.85659498141536
 30
0.0
 40
6.4999856554771771
  0
LINE
  5
7645
  8
AM_0
 10
100.4343864955902
 20
483.85659498141592
 30
0.0
 11
103.3691329332249
 21
483.85659498141592
 31
0.0
  0
LINE
  5
7646
  8
AM_0
 10
101.3885550473782
 20
482.35659498141598
 30
0.0
 11
103.3691329332249
 21
482.35659498141598
 31
0.0
  0
LINE
  5
7647
  8
AM_0
 10
92.690162077083983
 20
477.85659498141598
 30
0.0
 11
103.3691329332249
 21
477.85659498141598
 31
0.0
  0
ARC
  5
7648
  8
AM_0
 10
92.690162077083755
 20
482.85659498141592
 30
0.0
 40
5.0
 50
225.0
 51
270.0
1001
GENIUS_GENODEF_13
1002
{
1000
HIER
1070
     0
1002
}
1002
{
1000
MANEDIT
1070
     0
1002
}
1002
{
1000
NOSEL
1070
     0
1002
}
1002
{
1000
BEHIND
1070
     0
1002
}
1002
{
1000
OTHER
1070
     0
1002
}
1002
{
1000
REACTOR
1002
}
1001
GENIUS_GENOBJ-N-FIL_13
1002
{
1000
OWNER
1000
GEN
1002
}
  0
LINE
  5
7649
  8
AM_0
 10
101.38855504737791
 20
477.85659498141598
 30
0.0
 11
101.3885550473782
 21
482.35659498141598
 31
0.0
  0
LINE
  5
764A
  8
AM_0
 10
87.869094265219147
 20
511.53205440352258
 30
0.0
 11
87.869094265219346
 21
490.6446201277065
 31
0.0
  0
LINE
  5
764B
  8
AM_0
 10
90.869094265219104
 20
511.53205440352258
 30
0.0
 11
90.869094265219104
 21
490.6446201277065
 31
0.0
  0
LINE
  5
764C
  8
AM_0
 10
85.619094265219104
 20
512.54742239791335
 30
0.0
 11
85.619094265219104
 21
484.92766279328072
 31
0.0
  0
ARC
  5
764D
  8
AM_0
 10
90.619094265219118
 20
484.92766279328072
 30
0.0
 40
5.0
 50
180.0
 51
225.0
1001
GENIUS_GENOBJ-N-FIL_13
1002
{
1000
OWNER
1000
GEN
1002
}
1001
GENIUS_GENODEF_13
1002
{
1000
HIER
1070
     0
1002
}
1002
{
1000
MANEDIT
1070
     0
1002
}
1002
{
1000
NOSEL
1070
     0
1002
}
1002
{
1000
BEHIND
1070
     0
1002
}
1002
{
1000
OTHER
1070
     0
1002
}
1002
{
1000
REACTOR
1002
}
  0
LINE
  5
764E
  8
AM_0
 10
93.119094265219118
 20
512.54742239791335
 30
0.0
 11
93.119094265219118
 21
488.38751332466751
 31
0.0
  0
ARC
  5
764F
  8
AM_0
 10
98.119094265219147
 20
496.81211335074062
 30
0.0
 40
5.0
 50
180.0
 51
212.46094411513889
1001
GENIUS_GENODEF_13
1002
{
1000
HIER
1070
     0
1002
}
1002
{
1000
MANEDIT
1070
     0
1002
}
1002
{
1000
NOSEL
1070
     0
1002
}
1002
{
1000
BEHIND
1070
     0
1002
}
1002
{
1000
OTHER
1070
     0
1002
}
1002
{
1000
REACTOR
1002
}
1001
GENIUS_GENOBJ-N-FIL_13
1002
{
1000
OWNER
1000
GEN
1002
}
  0
ARC
  5
7650
  8
AM_0
 10
98.119094265219147
 20
488.38751332466751
 30
0.0
 40
5.0
 50
180.0
 51
224.2123722808945
1001
GENIUS_GENOBJ-N-FIL_13
1002
{
1000
OWNER
1000
GEN
1002
}
1001
GENIUS_GENODEF_13
1002
{
1000
HIER
1070
     0
1002
}
1002
{
1000
MANEDIT
1070
     0
1002
}
1002
{
1000
NOSEL
1070
     0
1002
}
1002
{
1000
BEHIND
1070
     0
1002
}
1002
{
1000
OTHER
1070
     0
1002
}
1002
{
1000
REACTOR
1002
}
  0
LINE
  5
7651
  8
AM_0
 10
101.38855504737791
 20
482.35659498141598
 30
0.0
 11
93.900306754452131
 21
494.12849043777487
 31
0.0
  0
LINE
  5
7652
  8
AM_0
 10
101.38855504737791
 20
477.85659498141598
 30
0.0
 11
94.535294029367691
 21
484.90091385390662
 31
0.0
  0
LINE
  5
7653
  8
AM_0
 10
87.08356035928648
 20
481.39212888734789
 30
0.0
 11
89.154628171151089
 21
479.32106107548321
 31
0.0
  0
ARC
  5
7654
  8
AM_0
 10
89.369094265219104
 20
490.6446201277065
 30
0.0
 40
1.5
 50
180.0
 51
0.0
  0
LINE
  5
7655
  8
AM_0
 10
103.3691329332254
 20
551.85659498141445
 30
0.0
 11
103.3691329332258
 21
562.85659498141536
 31
0.0
  0
LINE
  5
7656
  8
AM_0
 10
117.8691329332258
 20
562.85659498141513
 30
0.0
 11
103.3691329332258
 21
562.85659498141536
 31
0.0
  0
LINE
  5
7657
  8
AM_0
 10
91.369132933226055
 20
557.85659498141445
 30
0.0
 11
91.369132933226055
 21
560.85659498141456
 31
0.0
  0
LINE
  5
7658
  8
AM_0
 10
91.369132933226055
 20
560.85659498141456
 30
0.0
 11
103.3691329332258
 21
560.85659498141445
 31
0.0
  0
LINE
  5
7659
  8
AM_0
 10
91.369132933225799
 20
559.85659498141445
 30
0.0
 11
91.369132933225799
 21
557.67892657526795
 31
0.0
  0
LINE
  5
765A
  8
AM_0
 10
85.869132933225842
 20
557.85659498141445
 30
0.0
 11
86.769132933225933
 21
557.85659498141445
 31
0.0
  0
LINE
  5
765B
  8
AM_0
 10
85.669132933225555
 20
554.85659498141445
 30
0.0
 11
85.669132933225555
 21
557.85659498141445
 31
0.0
  0
LINE
  5
765C
  8
AM_0
 10
86.769132933225933
 20
558.12894671599815
 30
0.0
 11
86.769132933225933
 21
554.58424324683085
 31
0.0
  0
LINE
  5
765D
  8
AM_0
 10
85.369132933225842
 20
555.15659498141451
 30
0.0
 11
86.769132933225706
 21
555.15659498141451
 31
0.0
  0
LINE
  5
765E
  8
AM_0
 10
90.769132933225919
 20
558.7381648418218
 30
0.0
 11
90.769132933225919
 21
559.85659498141467
 31
0.0
  0
LINE
  5
765F
  8
AM_0
 10
90.769132933225919
 20
557.85659498141445
 30
0.0
 11
90.769132933225919
 21
557.95659498141458
 31
0.0
  0
LINE
  5
7660
  8
AM_0
 10
90.769132933225919
 20
557.95659498141458
 30
0.0
 11
90.769132933225919
 21
558.7381648418218
 31
0.0
  0
LINE
  5
7661
  8
AM_0
 10
90.769132933225919
 20
557.85659498141445
 30
0.0
 11
90.769132933225919
 21
557.95659498141458
 31
0.0
  0
LINE
  5
7662
  8
AM_0
 10
90.769132933225919
 20
557.47283230508469
 30
0.0
 11
90.769132933225919
 21
558.7381648418218
 31
0.0
  0
LINE
  5
7663
  8
AM_0
 10
90.769132933225919
 20
559.85659498141467
 30
0.0
 11
91.369132933225799
 21
559.85659498141445
 31
0.0
  0
LINE
  5
7664
  8
AM_0
 10
88.069132933226115
 20
558.7381648418218
 30
0.0
 11
88.069132933225902
 21
555.30663364942143
 31
0.0
  0
LINE
  5
7665
  8
AM_0
 10
87.908088703968446
 20
559.02485647016465
 30
0.0
 11
86.975535654461382
 21
558.48644671599823
 31
0.0
  0
LINE
  5
7666
  8
AM_0
 10
88.341584525256522
 20
559.53202146195736
 30
0.0
 11
90.496681341195554
 21
559.53202146195736
 31
0.0
  0
LINE
  5
7667
  8
AM_0
 10
88.341584525256522
 20
557.94430822168601
 30
0.0
 11
90.496681341195554
 21
557.94430822168601
 31
0.0
  0
LINE
  5
7668
  8
AM_0
 10
86.769132933225933
 20
554.85659498141445
 30
0.0
 11
85.669132933225555
 21
554.85659498141445
 31
0.0
  0
LINE
  5
7669
  8
AM_0
 10
85.669132933225555
 20
554.85659498141445
 30
0.0
 11
85.369132933225842
 21
555.15659498141451
 31
0.0
  0
LINE
  5
766A
  8
AM_0
 10
85.369132933225842
 20
555.15659498141451
 30
0.0
 11
85.369132933225842
 21
557.55659498141472
 31
0.0
  0
LINE
  5
766B
  8
AM_0
 10
85.669132933225555
 20
557.85659498141445
 30
0.0
 11
86.769132933225933
 21
557.85659498141445
 31
0.0
  0
LINE
  5
766C
  8
AM_0
 10
85.369132933225842
 20
557.55659498141472
 30
0.0
 11
85.669132933225555
 21
557.85659498141445
 31
0.0
  0
LINE
  5
766D
  8
AM_0
 10
86.769132933225933
 20
557.55659498141472
 30
0.0
 11
85.369132933225842
 21
557.55659498141472
 31
0.0
  0
ARC
  5
766E
  8
AM_0
 10
89.476356117199288
 20
558.7381648418218
 30
0.0
 40
1.292776816026465
 50
0.0
 51
37.884441053702282
  0
ARC
  5
766F
  8
AM_0
 10
92.831562809285415
 20
556.35659498141445
 30
0.0
 40
4.762429876059711
 50
160.52575999458611
 51
191.5497530412305
  0
ARC
  5
7670
  8
AM_0
 10
89.36190974925249
 20
558.7381648418218
 30
0.0
 40
1.292776816026556
 50
142.11555894629771
 51
217.88444105370229
  0
ARC
  5
7671
  8
AM_0
 10
86.006703057166192
 20
556.35659498141456
 30
0.0
 40
4.762429876059584
 50
12.912852201780369
 51
19.474240005413812
  0
ARC
  5
7672
  8
AM_0
 10
89.476356117199288
 20
558.7381648418218
 30
0.0
 40
1.2927768160265021
 50
322.11555894629771
 51
0.0
  0
ARC
  5
7673
  8
AM_0
 10
87.181938375696404
 20
558.12894671599815
 30
0.0
 40
0.4128054424705854
 50
120.0000000000005
 51
180.0
  0
ARC
  5
7674
  8
AM_0
 10
87.495283261497775
 20
559.7398564701648
 30
0.0
 40
0.8256108849411369
 50
300.00000000000051
 51
331.7825754058174
  0
LINE
  5
7675
  8
AM_0
 10
86.984225465749049
 20
554.22172618194463
 30
0.0
 11
86.975535654461382
 21
554.22674324683078
 31
0.0
  0
ARC
  5
7676
  8
AM_0
 10
87.181938375696404
 20
554.58424324683074
 30
0.0
 40
0.4128054424705854
 50
180.00000000000659
 51
240.00000000000841
  0
LINE
  5
7677
  8
AM_0
 10
100.4343864955911
 20
551.85659498141445
 30
0.0
 11
103.3691329332254
 21
551.85659498141445
 31
0.0
  0
LINE
  5
7678
  8
AM_0
 10
101.3885550473788
 20
553.35659498141445
 30
0.0
 11
103.3691329332256
 21
553.35659498141445
 31
0.0
  0
LINE
  5
7679
  8
AM_0
 10
92.690162077084864
 20
557.85659498141445
 30
0.0
 11
103.3691329332256
 21
557.85659498141445
 31
0.0
  0
ARC
  5
767A
  8
AM_0
 10
92.690162077084437
 20
552.85659498141445
 30
0.0
 40
5.0
 50
90.0
 51
135.0
1001
GENIUS_GENODEF_13
1002
{
1000
HIER
1070
     0
1002
}
1002
{
1000
MANEDIT
1070
     0
1002
}
1002
{
1000
NOSEL
1070
     0
1002
}
1002
{
1000
BEHIND
1070
     0
1002
}
1002
{
1000
OTHER
1070
     0
1002
}
1002
{
1000
REACTOR
1002
}
1001
GENIUS_GENOBJ-N-FIL_13
1002
{
1000
OWNER
1000
GEN
1002
}
  0
LINE
  5
767B
  8
AM_0
 10
101.3885550473788
 20
557.85659498141445
 30
0.0
 11
101.3885550473788
 21
553.35659498141445
 31
0.0
  0
LINE
  5
767C
  8
AM_0
 10
87.869094265219559
 20
524.18113555930813
 30
0.0
 11
87.869094265220028
 21
545.06856983512421
 31
0.0
  0
LINE
  5
767D
  8
AM_0
 10
90.86909426521936
 20
524.18113555930768
 30
0.0
 11
90.869094265220056
 21
545.06856983512421
 31
0.0
  0
LINE
  5
767E
  8
AM_0
 10
85.619094265219573
 20
523.16576756491747
 30
0.0
 11
85.619094265220056
 21
550.78552716955005
 31
0.0
  0
ARC
  5
767F
  8
AM_0
 10
90.6190942652198
 20
550.78552716955005
 30
0.0
 40
5.0
 50
135.0
 51
180.0
1001
GENIUS_GENOBJ-N-FIL_13
1002
{
1000
OWNER
1000
GEN
1002
}
1001
GENIUS_GENODEF_13
1002
{
1000
HIER
1070
     0
1002
}
1002
{
1000
MANEDIT
1070
     0
1002
}
1002
{
1000
NOSEL
1070
     0
1002
}
1002
{
1000
BEHIND
1070
     0
1002
}
1002
{
1000
OTHER
1070
     0
1002
}
1002
{
1000
REACTOR
1002
}
  0
LINE
  5
7680
  8
AM_0
 10
93.119094265219573
 20
523.16576756491725
 30
0.0
 11
93.119094265220056
 21
547.32567663816303
 31
0.0
  0
ARC
  5
7681
  8
AM_0
 10
98.119094265219573
 20
538.90107661209004
 30
0.0
 40
5.0
 50
147.53905588486111
 51
180.0
1001
GENIUS_GENODEF_13
1002
{
1000
HIER
1070
     0
1002
}
1002
{
1000
MANEDIT
1070
     0
1002
}
1002
{
1000
NOSEL
1070
     0
1002
}
1002
{
1000
BEHIND
1070
     0
1002
}
1002
{
1000
OTHER
1070
     0
1002
}
1002
{
1000
REACTOR
1002
}
1001
GENIUS_GENOBJ-N-FIL_13
1002
{
1000
OWNER
1000
GEN
1002
}
  0
ARC
  5
7682
  8
AM_0
 10
98.1190942652198
 20
547.32567663816303
 30
0.0
 40
5.0
 50
135.7876277191055
 51
180.0
1001
GENIUS_GENOBJ-N-FIL_13
1002
{
1000
OWNER
1000
GEN
1002
}
1001
GENIUS_GENODEF_13
1002
{
1000
HIER
1070
     0
1002
}
1002
{
1000
MANEDIT
1070
     0
1002
}
1002
{
1000
NOSEL
1070
     0
1002
}
1002
{
1000
BEHIND
1070
     0
1002
}
1002
{
1000
OTHER
1070
     0
1002
}
1002
{
1000
REACTOR
1002
}
  0
LINE
  5
7683
  8
AM_0
 10
101.3885550473786
 20
553.35659498141445
 30
0.0
 11
93.900306754452586
 21
541.58469952505584
 31
0.0
  0
LINE
  5
7684
  8
AM_0
 10
101.3885550473788
 20
557.85659498141445
 30
0.0
 11
94.535294029368629
 21
550.81227610892381
 31
0.0
  0
LINE
  5
7685
  8
AM_0
 10
87.083560359287162
 20
554.32106107548282
 30
0.0
 11
89.154628171152027
 21
556.39212888734755
 31
0.0
  0
ARC
  5
7686
  8
AM_0
 10
89.369094265219829
 20
545.06856983512421
 30
0.0
 40
1.5
 50
0.0
 51
180.0
  0
LINE
  5
7687
  8
AM_0
 10
111.4986260062056
 20
447.6440731005967
 30
0.0
 11
96.368538842127691
 21
474.85659498141598
 31
0.0
  0
LINE
  5
7688
  8
AM_0
 10
116.74258607362989
 20
450.55970044497008
 30
0.0
 11
104.3455741648423
 21
472.85659498141513
 31
0.0
  0
LINE
  5
7689
  8
AM_0
 10
287.86913293322488
 20
555.00661498141483
 30
0.0
 11
295.86913293322488
 21
555.00661498141483
 31
0.0
  0
LINE
  5
768A
  8
AM_0
 10
288.86913293322499
 20
465.81655498141492
 30
0.0
 11
295.86913293322488
 21
465.81655498141492
 31
0.0
  0
LINE
  5
768B
  8
AM_0
 10
287.86913293322488
 20
480.70656498141472
 30
0.0
 11
295.86913293322488
 21
480.70656498141472
 31
0.0
  0
LINE
  5
768C
  8
AM_0
 10
288.86913293322499
 20
454.35659498141479
 30
0.0
 11
295.86913293322488
 21
454.35659498141479
 31
0.0
  0
LINE
  5
768D
  8
AM_0
 10
288.86913293322499
 20
569.89662498141456
 30
0.0
 11
295.86913293322488
 21
569.89662498141456
 31
0.0
  0
LINE
  5
768E
  8
AM_0
 10
288.86913293322499
 20
581.35659498141456
 30
0.0
 11
295.86913293322488
 21
581.35659498141445
 31
0.0
  0
LINE
  5
768F
  8
AM_0
 10
140.86913293322519
 20
460.42653498141487
 30
0.0
 11
143.68908293322491
 21
460.36653498141482
 31
0.0
  0
LINE
  5
7690
  8
AM_0
 10
181.8691329332253
 20
471.50661498141471
 30
0.0
 11
287.86913293322488
 21
471.50661498141471
 31
0.0
  0
LINE
  5
7691
  8
AM_0
 10
282.57909293322518
 20
457.35659498141439
 30
0.0
 11
287.86913293322488
 21
457.35659498141439
 31
0.0
  0
LINE
  5
7692
  8
AM_0
 10
154.53912293322509
 20
484.49660498141458
 30
0.0
 11
248.8890929332251
 21
484.49660498141458
 31
0.0
  0
LINE
  5
7693
  8
AM_0
 10
236.86913293322519
 20
481.8565949814145
 30
0.0
 11
155.4048429332253
 21
481.8565949814145
 31
0.0
  0
LINE
  5
7694
  8
AM_0
 10
236.86913293322519
 20
481.13662498141463
 30
0.0
 11
284.68914293322518
 21
481.13662498141463
 31
0.0
  0
LINE
  5
7695
  8
AM_0
 10
154.53912293322509
 20
481.13662498141463
 30
0.0
 11
236.86913293322519
 21
481.13662498141463
 31
0.0
  0
LINE
  5
7696
  8
AM_0
 10
154.56676293322499
 20
459.59658498141482
 30
0.0
 11
160.36913293322499
 21
459.59658498141482
 31
0.0
  0
LINE
  5
7697
  8
AM_0
 10
163.86913293322499
 20
455.99660498141481
 30
0.0
 11
280.67913293322499
 21
455.99660498141481
 31
0.0
  0
LINE
  5
7698
  8
AM_0
 10
154.6290229332252
 20
464.87661498141472
 30
0.0
 11
160.36913293322499
 21
464.87661498141472
 31
0.0
  0
LINE
  5
7699
  8
AM_0
 10
150.86913293322499
 20
469.50661498141471
 30
0.0
 11
150.86913293322499
 21
483.55654498141462
 31
0.0
  0
LINE
  5
769A
  8
AM_0
 10
140.86913293322519
 20
469.50661498141471
 30
0.0
 11
150.86913293322499
 21
469.50661498141471
 31
0.0
  0
LINE
  5
769B
  8
AM_0
 10
282.60912293322508
 20
457.48650498141478
 30
0.0
 11
286.06914293322512
 21
470.39662498141479
 31
0.0
  0
LINE
  5
769C
  8
AM_0
 10
144.63042293322519
 20
457.69759498141462
 30
0.0
 11
144.14916293322511
 21
459.60659498141439
 31
0.0
  0
LINE
  5
769D
  8
AM_0
 10
145.05914293322519
 20
457.72652498141451
 30
0.0
 11
144.13909293322499
 21
461.60662498141483
 31
0.0
  0
LINE
  5
769E
  8
AM_0
 10
161.8691329332251
 20
455.96755498141482
 30
0.0
 11
161.8691329332251
 21
463.37661498141478
 31
0.0
  0
LINE
  5
769F
  8
AM_0
 10
142.69915293322501
 20
460.73659498141473
 30
0.0
 11
144.3491129332252
 21
460.73659498141473
 31
0.0
  0
LINE
  5
76A0
  8
AM_0
 10
181.8691329332253
 20
564.20656498141466
 30
0.0
 11
287.86913293322488
 21
564.20656498141466
 31
0.0
  0
LINE
  5
76A1
  8
AM_0
 10
287.86913293322488
 20
455.3565949814145
 30
0.0
 11
287.86913293322488
 21
580.35659498141467
 31
0.0
  0
LINE
  5
76A2
  8
AM_0
 10
140.86913293322519
 20
575.28658498141476
 30
0.0
 11
143.6891429332253
 21
575.3565949814149
 31
0.0
  0
LINE
  5
76A3
  8
AM_0
 10
140.86913293322519
 20
460.42653498141487
 30
0.0
 11
140.86913293322519
 21
575.28658498141476
 31
0.0
  0
LINE
  5
76A4
  8
AM_0
 10
281.20910293322498
 20
481.8565949814145
 30
0.0
 11
236.86913293322519
 21
481.8565949814145
 31
0.0
  0
LINE
  5
76A5
  8
AM_0
 10
150.86913293322499
 20
566.20656498141454
 30
0.0
 11
150.86913293322499
 21
552.16664498141472
 31
0.0
  0
LINE
  5
76A6
  8
AM_0
 10
140.86913293322519
 20
552.16664498141472
 30
0.0
 11
150.86913293322499
 21
552.16664498141472
 31
0.0
  0
LINE
  5
76A7
  8
AM_0
 10
140.86913293322519
 20
560.54653498141477
 30
0.0
 11
150.86913293322499
 21
560.54653498141477
 31
0.0
  0
LINE
  5
76A8
  8
AM_0
 10
140.86913293322519
 20
566.20656498141454
 30
0.0
 11
150.86913293322499
 21
566.20656498141454
 31
0.0
  0
LINE
  5
76A9
  8
AM_0
 10
216.31121293322511
 20
503.85659498141479
 30
0.0
 11
146.419122933225
 21
503.85659498141479
 31
0.0
  0
LINE
  5
76AA
  8
AM_0
 10
163.86913293322499
 20
579.71657498141485
 30
0.0
 11
280.67913293322499
 21
579.71657498141485
 31
0.0
  0
LINE
  5
76AB
  8
AM_0
 10
154.823422933225
 20
570.84658498141482
 30
0.0
 11
160.36913293322499
 21
570.84658498141482
 31
0.0
  0
LINE
  5
76AC
  8
AM_0
 10
152.078422933225
 20
564.84990498141474
 30
0.0
 11
152.86340293322519
 21
569.19658498141484
 31
0.0
  0
LINE
  5
76AD
  8
AM_0
 10
154.759572933225
 20
576.1266149814146
 30
0.0
 11
160.36913293322499
 21
576.1266149814146
 31
0.0
  0
LINE
  5
76AE
  8
AM_0
 10
146.99914293322499
 20
579.52663498141487
 30
0.0
 11
160.36913293322499
 21
579.52663498141487
 31
0.0
  0
LINE
  5
76AF
  8
AM_0
 10
146.9791229332252
 20
581.15663498141498
 30
0.0
 11
160.4791229332252
 21
581.15663498141498
 31
0.0
  0
LINE
  5
76B0
  8
AM_0
 10
163.86913293322499
 20
583.77663498141465
 30
0.0
 11
281.95275293322487
 21
583.77663498141465
 31
0.0
  0
LINE
  5
76B1
  8
AM_0
 10
163.86913293322499
 20
583.10659498141467
 30
0.0
 11
282.09679293322512
 21
583.10659498141467
 31
0.0
  0
LINE
  5
76B2
  8
AM_0
 10
163.86913293322499
 20
581.74660498141475
 30
0.0
 11
282.38909293322507
 21
581.74660498141475
 31
0.0
  0
LINE
  5
76B3
  8
AM_0
 10
150.383412933225
 20
568.89662498141456
 30
0.0
 11
152.80340293322499
 21
568.89662498141456
 31
0.0
  0
LINE
  5
76B4
  8
AM_0
 10
152.81335293322499
 20
574.54662498141488
 30
0.0
 11
151.85332293322529
 21
570.07653498141485
 31
0.0
  0
LINE
  5
76B5
  8
AM_0
 10
142.67913293322479
 20
572.95656498141489
 30
0.0
 11
152.47192293322499
 21
572.95656498141489
 31
0.0
  0
LINE
  5
76B6
  8
AM_0
 10
281.20910293322498
 20
553.8565949814149
 30
0.0
 11
155.4191229332252
 21
553.8565949814149
 31
0.0
  0
LINE
  5
76B7
  8
AM_0
 10
281.20910293322498
 20
551.85659498141467
 30
0.0
 11
266.86913293322499
 21
551.85659498141467
 31
0.0
  0
LINE
  5
76B8
  8
AM_0
 10
281.21624293322532
 20
543.85659498141467
 30
0.0
 11
266.86913293322499
 21
543.85659498141467
 31
0.0
  0
LINE
  5
76B9
  8
AM_0
 10
145.05914293322519
 20
577.98662498141482
 30
0.0
 11
144.13909293322499
 21
574.11657498141483
 31
0.0
  0
LINE
  5
76BA
  8
AM_0
 10
281.2019629332251
 20
541.8565949814149
 30
0.0
 11
155.4191229332252
 21
541.8565949814149
 31
0.0
  0
LINE
  5
76BB
  8
AM_0
 10
142.69915293322501
 20
574.9765849814147
 30
0.0
 11
144.3491129332252
 21
574.9765849814147
 31
0.0
  0
LINE
  5
76BC
  8
AM_0
 10
145.039122933225
 20
579.64653498141456
 30
0.0
 11
144.14916293322511
 21
576.11663498141456
 31
0.0
  0
LINE
  5
76BD
  8
AM_0
 10
216.30785293322529
 20
533.8565949814149
 30
0.0
 11
146.419122933225
 21
533.8565949814149
 31
0.0
  0
LINE
  5
76BE
  8
AM_0
 10
161.8691329332251
 20
579.74660498141498
 30
0.0
 11
161.8691329332251
 21
572.34658498141471
 31
0.0
  0
LINE
  5
76BF
  8
AM_0
 10
216.30785293322529
 20
531.8565949814149
 30
0.0
 11
146.419122933225
 21
531.8565949814149
 31
0.0
  0
LINE
  5
76C0
  8
AM_0
 10
216.31121293322511
 20
523.8565949814149
 30
0.0
 11
146.419122933225
 21
523.8565949814149
 31
0.0
  0
LINE
  5
76C1
  8
AM_0
 10
216.31121293322511
 20
521.8565949814149
 30
0.0
 11
146.419122933225
 21
521.8565949814149
 31
0.0
  0
LINE
  5
76C2
  8
AM_0
 10
282.60912293322508
 20
578.23662498141448
 30
0.0
 11
286.06914293322512
 21
565.31655498141458
 31
0.0
  0
LINE
  5
76C3
  8
AM_0
 10
284.32952293322512
 20
578.3565949814149
 30
0.0
 11
287.86913293322488
 21
578.3565949814149
 31
0.0
  0
LINE
  5
76C4
  8
AM_0
 10
287.57909293322518
 20
568.89662498141456
 30
0.0
 11
285.15911293322512
 21
568.89662498141456
 31
0.0
  0
LINE
  5
76C5
  8
AM_0
 10
283.41933293322512
 20
582.59175498141485
 30
0.0
 11
286.109152933225
 21
570.07653498141485
 31
0.0
  0
LINE
  5
76C6
  8
AM_0
 10
140.86913293322519
 20
483.55654498141462
 30
0.0
 11
150.86913293322499
 21
483.55654498141462
 31
0.0
  0
LINE
  5
76C7
  8
AM_0
 10
146.56976293322509
 20
456.18654498141473
 30
0.0
 11
160.61187293322541
 21
456.18654498141473
 31
0.0
  0
LINE
  5
76C8
  8
AM_0
 10
140.86913293322519
 20
475.16664498141461
 30
0.0
 11
150.86913293322499
 21
475.16664498141461
 31
0.0
  0
LINE
  5
76C9
  8
AM_0
 10
142.67913293322479
 20
462.75661498141471
 30
0.0
 11
152.47192293322499
 21
462.75661498141471
 31
0.0
  0
LINE
  5
76CA
  8
AM_0
 10
163.86913293322499
 20
453.96657498141462
 30
0.0
 11
205.19549293322501
 21
453.96657498141462
 31
0.0
  0
LINE
  5
76CB
  8
AM_0
 10
154.329152933225
 20
491.37661498141472
 30
0.0
 11
248.86913293322499
 21
491.37661498141472
 31
0.0
  0
LINE
  5
76CC
  8
AM_0
 10
248.86913293322499
 20
483.85659498141462
 30
0.0
 11
155.4048429332253
 21
483.85659498141462
 31
0.0
  0
LINE
  5
76CD
  8
AM_0
 10
154.53912293322509
 20
554.58657498141474
 30
0.0
 11
284.68914293322518
 21
554.58657498141474
 31
0.0
  0
LINE
  5
76CE
  8
AM_0
 10
154.53912293322509
 20
551.22658498141482
 30
0.0
 11
248.8890929332251
 21
551.22658498141482
 31
0.0
  0
LINE
  5
76CF
  8
AM_0
 10
154.329152933225
 20
544.34658498141448
 30
0.0
 11
248.86913293322499
 21
544.34658498141448
 31
0.0
  0
LINE
  5
76D0
  8
AM_0
 10
154.329152933225
 20
541.42653498141465
 30
0.0
 11
284.903372933225
 21
541.42653498141465
 31
0.0
  0
LINE
  5
76D1
  8
AM_0
 10
145.19915293322521
 20
534.20656498141477
 30
0.0
 11
217.5404029332251
 21
534.20656498141477
 31
0.0
  0
LINE
  5
76D2
  8
AM_0
 10
145.19915293322521
 20
531.53664498141484
 30
0.0
 11
217.527822933225
 21
531.53664498141484
 31
0.0
  0
LINE
  5
76D3
  8
AM_0
 10
145.13915293322481
 20
524.1366249814148
 30
0.0
 11
217.60424293322501
 21
524.1366249814148
 31
0.0
  0
LINE
  5
76D4
  8
AM_0
 10
145.13915293322481
 20
521.59658498141482
 30
0.0
 11
217.60424293322501
 21
521.59658498141482
 31
0.0
  0
LINE
  5
76D5
  8
AM_0
 10
145.13915293322481
 20
514.12661498141483
 30
0.0
 11
217.60424293322501
 21
514.12661498141483
 31
0.0
  0
LINE
  5
76D6
  8
AM_0
 10
216.31121293322511
 20
511.85659498141467
 30
0.0
 11
146.419122933225
 21
511.85659498141467
 31
0.0
  0
LINE
  5
76D7
  8
AM_0
 10
216.31121293322511
 20
513.85659498141479
 30
0.0
 11
146.419122933225
 21
513.85659498141479
 31
0.0
  0
LINE
  5
76D8
  8
AM_0
 10
145.19915293322521
 20
504.17653498141487
 30
0.0
 11
217.5404029332251
 21
504.17653498141487
 31
0.0
  0
LINE
  5
76D9
  8
AM_0
 10
216.31121293322511
 20
501.85659498141467
 30
0.0
 11
146.419122933225
 21
501.85659498141467
 31
0.0
  0
LINE
  5
76DA
  8
AM_0
 10
145.19915293322521
 20
501.51662498141468
 30
0.0
 11
217.5404029332251
 21
501.51662498141468
 31
0.0
  0
LINE
  5
76DB
  8
AM_0
 10
281.2019629332251
 20
493.85659498141467
 30
0.0
 11
155.4048429332253
 21
493.85659498141467
 31
0.0
  0
LINE
  5
76DC
  8
AM_0
 10
154.329152933225
 20
494.29653498141482
 30
0.0
 11
284.903372933225
 21
494.29653498141482
 31
0.0
  0
LINE
  5
76DD
  8
AM_0
 10
281.2019629332251
 20
491.85659498141479
 30
0.0
 11
266.86913293322499
 21
491.85659498141479
 31
0.0
  0
LINE
  5
76DE
  8
AM_0
 10
281.20910293322498
 20
483.85659498141462
 30
0.0
 11
266.86913293322499
 21
483.85659498141462
 31
0.0
  0
LINE
  5
76DF
  8
AM_0
 10
145.13915293322481
 20
511.58657498141469
 30
0.0
 11
217.60424293322501
 21
511.58657498141469
 31
0.0
  0
LINE
  5
76E0
  8
AM_0
 10
152.07836293322509
 20
470.86321498141479
 30
0.0
 11
152.86340293322519
 21
466.51653498141479
 31
0.0
  0
LINE
  5
76E1
  8
AM_0
 10
150.383412933225
 20
466.81655498141481
 30
0.0
 11
152.80340293322499
 21
466.81655498141481
 31
0.0
  0
LINE
  5
76E2
  8
AM_0
 10
152.8134129332251
 20
461.16658498141481
 30
0.0
 11
151.85339293322491
 21
465.6365549814148
 31
0.0
  0
LINE
  5
76E3
  8
AM_0
 10
268.38274293322519
 20
447.85659498141467
 30
0.0
 11
279.88531293322501
 21
447.85659498141467
 31
0.0
  0
LINE
  5
76E4
  8
AM_0
 10
286.86916293322531
 20
457.35656498141452
 30
0.0
 11
281.14336293322532
 21
448.53960498141481
 31
0.0
  0
LINE
  5
76E5
  8
AM_0
 10
250.36913293322499
 20
490.3565949814145
 30
0.0
 11
250.36913293322499
 21
485.35659498141467
 31
0.0
  0
LINE
  5
76E6
  8
AM_0
 10
265.36913293322499
 20
490.3565949814145
 30
0.0
 11
265.36913293322499
 21
485.35659498141467
 31
0.0
  0
LINE
  5
76E7
  8
AM_0
 10
248.86913293322499
 20
491.85659498141479
 30
0.0
 11
155.4048429332253
 21
491.85659498141479
 31
0.0
  0
LINE
  5
76E8
  8
AM_0
 10
249.88909293322521
 20
490.3565949814145
 30
0.0
 11
249.88909293322521
 21
485.49660498141481
 31
0.0
  0
LINE
  5
76E9
  8
AM_0
 10
265.84911293322511
 20
490.3565949814145
 30
0.0
 11
265.84911293322511
 21
485.49660498141481
 31
0.0
  0
LINE
  5
76EA
  8
AM_0
 10
266.86913293322499
 20
491.37661498141472
 30
0.0
 11
284.903372933225
 21
491.37661498141472
 31
0.0
  0
LINE
  5
76EB
  8
AM_0
 10
266.84911293322511
 20
484.49660498141458
 30
0.0
 11
284.68914293322518
 21
484.49660498141458
 31
0.0
  0
LINE
  5
76EC
  8
AM_0
 10
265.84911293322511
 20
545.3565949814149
 30
0.0
 11
265.84911293322511
 21
550.21657498141485
 31
0.0
  0
LINE
  5
76ED
  8
AM_0
 10
249.88909293322521
 20
545.3565949814149
 30
0.0
 11
249.88909293322521
 21
550.21657498141485
 31
0.0
  0
LINE
  5
76EE
  8
AM_0
 10
265.36913293322499
 20
545.3565949814149
 30
0.0
 11
265.36913293322499
 21
550.3565949814149
 31
0.0
  0
LINE
  5
76EF
  8
AM_0
 10
250.36913293322499
 20
545.3565949814149
 30
0.0
 11
250.36913293322499
 21
550.3565949814149
 31
0.0
  0
LINE
  5
76F0
  8
AM_0
 10
248.86913293322499
 20
551.85659498141467
 30
0.0
 11
155.4191229332252
 21
551.85659498141467
 31
0.0
  0
LINE
  5
76F1
  8
AM_0
 10
266.84911293322511
 20
551.22658498141482
 30
0.0
 11
284.68914293322518
 21
551.22658498141482
 31
0.0
  0
LINE
  5
76F2
  8
AM_0
 10
266.86913293322499
 20
544.34658498141448
 30
0.0
 11
284.91485293322512
 21
544.34658498141448
 31
0.0
  0
LINE
  5
76F3
  8
AM_0
 10
248.86913293322499
 20
543.85659498141467
 30
0.0
 11
155.4191229332252
 21
543.85659498141467
 31
0.0
  0
LINE
  5
76F4
  8
AM_0
 10
221.86913293322499
 20
538.3565949814149
 30
0.0
 11
221.86913293322499
 21
497.35659498141479
 31
0.0
  0
LINE
  5
76F5
  8
AM_0
 10
284.86913293322488
 20
538.3565949814149
 30
0.0
 11
284.86913293322488
 21
497.35659498141479
 31
0.0
  0
LINE
  5
76F6
  8
AM_0
 10
221.86913293322499
 20
538.3565949814149
 30
0.0
 11
284.86913293322488
 21
538.3565949814149
 31
0.0
  0
LINE
  5
76F7
  8
AM_0
 10
221.86913293322499
 20
497.35659498141479
 30
0.0
 11
284.86913293322488
 21
497.35659498141479
 31
0.0
  0
LINE
  5
76F8
  8
AM_0
 10
221.86913293322499
 20
530.85659498141467
 30
0.0
 11
284.86913293322488
 21
530.85659498141467
 31
0.0
  0
LINE
  5
76F9
  8
AM_0
 10
181.8691329332253
 20
564.2065049814147
 30
0.0
 11
150.86913293322499
 21
562.17650498141484
 31
0.0
  0
LINE
  5
76FA
  8
AM_0
 10
181.8691329332253
 20
471.50655498141481
 30
0.0
 11
150.86913293322499
 21
473.53655498141461
 31
0.0
  0
ARC
  5
76FB
  8
AM_0
 10
154.00994293322501
 20
476.64626498141462
 30
0.0
 40
1.0032491999999991
 50
314.98118999999519
 51
5.167643400001003
  0
ARC
  5
76FC
  8
AM_0
 10
288.86895293322488
 20
580.35683498141475
 30
0.0
 40
0.99980682
 50
89.988930999997422
 51
180.0110699999974
  0
ARC
  5
76FD
  8
AM_0
 10
280.67040293322498
 20
458.00283498141482
 30
0.0
 40
2.0062942999999991
 50
270.24932999999891
 51
345.08844000000403
  0
ARC
  5
76FE
  8
AM_0
 10
288.86822293322518
 20
568.89748498141466
 30
0.0
 40
0.9990923399999999
 50
89.947921999999295
 51
180.05208000000431
  0
ARC
  5
76FF
  8
AM_0
 10
162.86193293322501
 20
522.85659498141467
 30
0.0
 40
1.0000259
 50
89.587534000000232
 51
270.4124599999987
  0
ARC
  5
7700
  8
AM_0
 10
154.828612933225
 20
568.85134498141474
 30
0.0
 40
1.9952742999999991
 50
90.148580000000095
 51
170.03521999999899
  0
ARC
  5
7701
  8
AM_0
 10
154.766472933225
 20
574.12953498141474
 30
0.0
 40
1.997119399999999
 50
89.801366999998493
 51
167.94475999999821
  0
ARC
  5
7702
  8
AM_0
 10
150.38598293322499
 20
570.39894498141484
 30
0.0
 40
1.502416299999999
 50
269.90137999999558
 51
347.60813000000093
  0
ARC
  5
7703
  8
AM_0
 10
146.99938293322509
 20
577.53432498141456
 30
0.0
 40
1.9922863
 50
90.007721000000544
 51
166.8783899999971
  0
ARC
  5
7704
  8
AM_0
 10
142.67437293322541
 20
574.46144498141484
 30
0.0
 40
1.5048382
 50
270.18264000000067
 51
346.75308000000138
  0
ARC
  5
7705
  8
AM_0
 10
142.68871293322519
 20
576.4819549814149
 30
0.0
 40
1.505448699999999
 50
270.39686999999992
 51
345.95247000000012
  0
ARC
  5
7706
  8
AM_0
 10
146.97399293322519
 20
579.16201498141447
 30
0.0
 40
1.994612099999999
 50
89.851991999995732
 51
165.93885999999711
  0
ARC
  5
7707
  8
AM_0
 10
163.86242293322499
 20
577.72328498141474
 30
0.0
 40
1.9933081999999991
 50
89.807323000004203
 51
180.19266999999849
  0
ARC
  5
7708
  8
AM_0
 10
163.86327293322501
 20
579.75246498141473
 30
0.0
 40
1.994130499999996
 50
89.831105999995955
 51
180.16889000000049
  0
ARC
  5
7709
  8
AM_0
 10
163.86565293322519
 20
581.11013498141472
 30
0.0
 40
1.996488899999999
 50
89.899148000001659
 51
180.10084999999879
  0
ARC
  5
770A
  8
AM_0
 10
163.86291293322529
 20
581.78005498141476
 30
0.0
 40
1.9964978999999961
 50
89.821482000000245
 51
165.6006099999997
  0
ARC
  5
770B
  8
AM_0
 10
160.3654129332252
 20
572.35036498141471
 30
0.0
 40
1.5037541000000001
 50
270.14287000000093
 51
359.85713999999848
  0
ARC
  5
770C
  8
AM_0
 10
160.36425293322509
 20
577.63149498141456
 30
0.0
 40
1.504891299999997
 50
270.18592999999731
 51
359.81406999999621
  0
ARC
  5
770D
  8
AM_0
 10
160.36224293322499
 20
581.03347498141466
 30
0.0
 40
1.506942899999999
 50
270.26336999999921
 51
359.73663000000079
  0
ARC
  5
770E
  8
AM_0
 10
160.47405293322529
 20
582.66176498141465
 30
0.0
 40
1.505230099999999
 50
270.19421
 51
345.17177999999871
  0
ARC
  5
770F
  8
AM_0
 10
287.51928293322487
 20
565.70888498141483
 30
0.0
 40
1.5022733999999991
 50
195.1365099999966
 51
269.99411999999722
  0
ARC
  5
7710
  8
AM_0
 10
280.67858293322507
 20
577.71743498141495
 30
0.0
 40
1.9991226
 50
15.05079100000003
 51
89.984388999999666
  0
ARC
  5
7711
  8
AM_0
 10
288.86211293322492
 20
455.34963498141479
 30
0.0
 40
0.99304521
 50
179.5973099999994
 51
270.40268000000009
  0
ARC
  5
7712
  8
AM_0
 10
288.86144293322508
 20
466.80898498141482
 30
0.0
 40
0.99237448
 50
179.55801999999801
 51
270.4419699999965
  0
ARC
  5
7713
  8
AM_0
 10
287.57482293322522
 20
570.39687498141484
 30
0.0
 40
1.500286
 50
192.32631000000171
 51
270.16416999999529
  0
ARC
  5
7714
  8
AM_0
 10
150.024712933225
 20
559.45082498141483
 30
0.0
 40
5.0059714
 50
279.71098000000438
 51
354.67888000000482
  0
ARC
  5
7715
  8
AM_0
 10
150.4901029332249
 20
555.52407498141486
 30
0.0
 40
6.0044340999999992
 50
45.225578000003388
 51
86.380822000002453
  0
ARC
  5
7716
  8
AM_0
 10
154.011102933225
 20
559.07729498141475
 30
0.0
 40
1.002184699999999
 50
354.8038600000034
 51
45.047307000000579
  0
ARC
  5
7717
  8
AM_0
 10
150.48882293322501
 20
480.20192498141472
 30
0.0
 40
6.0073843
 50
273.62974000000389
 51
314.7638500000042
  0
ARC
  5
7718
  8
AM_0
 10
150.03197293322501
 20
476.2680849814148
 30
0.0
 40
4.9991421999999961
 50
5.3780268999992682
 51
80.360064999998514
  0
ARC
  5
7719
  8
AM_0
 10
147.00597293322531
 20
458.18715498141472
 30
0.0
 40
2.0005671999999981
 50
193.30959000000229
 51
269.80430999999942
  0
ARC
  5
771A
  8
AM_0
 10
142.6823729332248
 20
461.25893498141488
 30
0.0
 40
1.497715799999999
 50
13.424378999996071
 51
90.122644999997888
  0
ARC
  5
771B
  8
AM_0
 10
142.6968329332251
 20
459.23830498141461
 30
0.0
 40
1.4982997
 50
14.229739999998021
 51
89.910950000001179
  0
ARC
  5
771C
  8
AM_0
 10
163.86919293322501
 20
457.99660498141492
 30
0.0
 40
2.0000371999999991
 50
180.0010599999959
 51
269.99892999999639
  0
ARC
  5
771D
  8
AM_0
 10
163.87005293322491
 20
455.96755498141482
 30
0.0
 40
2.0009109999999981
 50
180.00001000000091
 51
269.97390999999652
  0
ARC
  5
771E
  8
AM_0
 10
160.36718293322511
 20
463.37465498141472
 30
0.0
 40
1.501982699999999
 50
0.0755872020005832
 51
89.924413000004819
  0
ARC
  5
771F
  8
AM_0
 10
160.36602293322531
 20
458.09340498141472
 30
0.0
 40
1.503128599999999
 50
0.1191296500022061
 51
89.880869999998822
  0
ARC
  5
7720
  8
AM_0
 10
287.51275293322499
 20
470.0128449814145
 30
0.0
 40
1.4937901
 50
89.756423999995206
 51
165.1129200000008
  0
ARC
  5
7721
  8
AM_0
 10
162.86193293322501
 20
532.8565949814149
 30
0.0
 40
1.0000259
 50
89.587534000000232
 51
270.4124599999987
  0
ARC
  5
7722
  8
AM_0
 10
162.86193293322501
 20
542.85659498141479
 30
0.0
 40
1.0000259
 50
89.587534000000232
 51
270.4124599999987
  0
ARC
  5
7723
  8
AM_0
 10
162.86193293322501
 20
552.8565949814149
 30
0.0
 40
1.0000259
 50
89.587534000000232
 51
270.4124599999987
  0
ARC
  5
7724
  8
AM_0
 10
145.13091293322509
 20
522.86660498141475
 30
0.0
 40
1.2700266
 50
89.629328000002715
 51
270.37065999999629
  0
ARC
  5
7725
  8
AM_0
 10
145.1928629332252
 20
532.87160498141498
 30
0.0
 40
1.3350147999999991
 50
89.730434999997087
 51
270.2695700000001
  0
ARC
  5
7726
  8
AM_0
 10
154.323422933225
 20
542.8866249814148
 30
0.0
 40
1.460011199999999
 50
89.775247999997958
 51
270.22473999999698
  0
ARC
  5
7727
  8
AM_0
 10
154.53912293322509
 20
552.90663498141475
 30
0.0
 40
1.6800002000000001
 50
90.00000299999769
 51
270.0
  0
ARC
  5
7728
  8
AM_0
 10
146.419122933225
 20
522.85659498141467
 30
0.0
 40
1.0000056999999991
 50
90.00000299999769
 51
270.0
  0
ARC
  5
7729
  8
AM_0
 10
146.419122933225
 20
532.8565949814149
 30
0.0
 40
1.0000056999999991
 50
90.00000299999769
 51
270.0
  0
ARC
  5
772A
  8
AM_0
 10
155.41198293322481
 20
552.8565949814149
 30
0.0
 40
1.0000255999999981
 50
89.589474000000749
 51
270.41051999999962
  0
ARC
  5
772B
  8
AM_0
 10
155.41198293322481
 20
542.85659498141479
 30
0.0
 40
1.0000255999999981
 50
89.589474000000749
 51
270.41051999999962
  0
ARC
  5
772C
  8
AM_0
 10
284.68914293322518
 20
552.90663498141475
 30
0.0
 40
1.6800077
 50
269.999989999999
 51
90.00000299999769
  0
ARC
  5
772D
  8
AM_0
 10
281.20910293322498
 20
552.8565949814149
 30
0.0
 40
1.0000040999999991
 50
269.999989999999
 51
90.00000299999769
  0
ARC
  5
772E
  8
AM_0
 10
281.20910293322498
 20
482.85659498141462
 30
0.0
 40
1.0000040999999991
 50
269.999989999999
 51
90.00000299999769
  0
ARC
  5
772F
  8
AM_0
 10
284.68914293322518
 20
482.81655498141492
 30
0.0
 40
1.6800077
 50
269.999989999999
 51
90.00000299999769
  0
ARC
  5
7730
  8
AM_0
 10
146.419122933225
 20
512.8565949814149
 30
0.0
 40
1.0000056999999991
 50
90.00000299999769
 51
270.0
  0
ARC
  5
7731
  8
AM_0
 10
162.86193293322501
 20
502.85659498141467
 30
0.0
 40
1.0000259
 50
89.587534000000232
 51
270.4124599999987
  0
ARC
  5
7732
  8
AM_0
 10
162.86193293322501
 20
492.85659498141462
 30
0.0
 40
1.0000259
 50
89.587534000000232
 51
270.4124599999987
  0
ARC
  5
7733
  8
AM_0
 10
145.1928629332252
 20
502.84658498141482
 30
0.0
 40
1.3300148000000001
 50
89.729417999999541
 51
270.27059000000321
  0
ARC
  5
7734
  8
AM_0
 10
162.86193293322501
 20
512.8565949814149
 30
0.0
 40
1.0000259
 50
89.587534000000232
 51
270.4124599999987
  0
ARC
  5
7735
  8
AM_0
 10
162.86193293322501
 20
482.85659498141462
 30
0.0
 40
1.0000259
 50
89.587534000000232
 51
270.4124599999987
  0
ARC
  5
7736
  8
AM_0
 10
145.13091293322509
 20
512.8565949814149
 30
0.0
 40
1.2700266
 50
89.629321000002747
 51
270.37068999999542
  0
ARC
  5
7737
  8
AM_0
 10
146.419122933225
 20
502.85659498141467
 30
0.0
 40
1.0000056999999991
 50
90.00000299999769
 51
270.0
  0
ARC
  5
7738
  8
AM_0
 10
150.60229293322499
 20
565.11660498141487
 30
0.0
 40
1.5
 50
280.24788999999811
 51
349.76261999999917
  0
ARC
  5
7739
  8
AM_0
 10
150.60229293322499
 20
470.59658498141471
 30
0.0
 40
1.5
 50
10.237378999998541
 51
79.75211000000192
  0
ARC
  5
773A
  8
AM_0
 10
154.828612933225
 20
466.86183498141457
 30
0.0
 40
1.9952742999999991
 50
189.9647800000009
 51
269.85141999999991
  0
ARC
  5
773B
  8
AM_0
 10
150.38598293322499
 20
465.31423498141493
 30
0.0
 40
1.502416299999999
 50
12.391887000000411
 51
90.098617000002307
  0
ARC
  5
773C
  8
AM_0
 10
154.766472933225
 20
461.58364498141481
 30
0.0
 40
1.997119399999999
 50
192.0552400000017
 51
270.1986299999989
  0
ARC
  5
773D
  8
AM_0
 10
154.53912293322509
 20
482.80654498141479
 30
0.0
 40
1.6800002000000001
 50
90.00000299999769
 51
270.0
  0
ARC
  5
773E
  8
AM_0
 10
155.41198293322481
 20
482.85659498141462
 30
0.0
 40
1.0000255999999981
 50
89.589474000000749
 51
270.41051999999962
  0
ARC
  5
773F
  8
AM_0
 10
155.41198293322481
 20
492.85659498141462
 30
0.0
 40
1.0000255999999981
 50
89.589474000000749
 51
270.41051999999962
  0
ARC
  5
7740
  8
AM_0
 10
154.323422933225
 20
492.82656498141472
 30
0.0
 40
1.460011199999999
 50
89.775247999997958
 51
270.22473999999698
  0
ARC
  5
7741
  8
AM_0
 10
205.19549293322501
 20
452.46657498141479
 30
0.0
 40
1.5
 50
1.5000027000022329
 51
90.00000299999769
  0
ARC
  5
7742
  8
AM_0
 10
279.88531293322501
 20
449.3565949814145
 30
0.0
 40
1.5
 50
269.999989999999
 51
326.99999999999892
  0
ARC
  5
7743
  8
AM_0
 10
268.38274293322519
 20
446.3565949814145
 30
0.0
 40
1.5
 50
90.00000299999769
 51
178.4999999999973
  0
ARC
  5
7744
  8
AM_0
 10
282.38909293322507
 20
580.24660498141498
 30
0.0
 40
1.5
 50
12.12979199999535
 51
90.00000299999769
  0
ARC
  5
7745
  8
AM_0
 10
282.09679293322512
 20
581.6065949814149
 30
0.0
 40
1.5
 50
12.12979199999535
 51
90.00000299999769
  0
ARC
  5
7746
  8
AM_0
 10
281.95275293322487
 20
582.27663498141465
 30
0.0
 40
1.5
 50
12.12979199999535
 51
90.00000299999769
  0
ARC
  5
7747
  8
AM_0
 10
284.90911293322512
 20
492.82656498141472
 30
0.0
 40
1.460011199999999
 50
269.77524999999667
 51
90.224749999996845
  0
ARC
  5
7748
  8
AM_0
 10
281.20910293322498
 20
492.85659498141462
 30
0.0
 40
1.0000255999999981
 50
269.5894700000033
 51
90.410530999997775
  0
ARC
  5
7749
  8
AM_0
 10
284.90911293322512
 20
542.8866249814148
 30
0.0
 40
1.460011199999999
 50
269.77524999999667
 51
90.224749999996845
  0
ARC
  5
774A
  8
AM_0
 10
281.20910293322498
 20
542.85659498141479
 30
0.0
 40
1.0000255999999981
 50
269.5894700000033
 51
90.410530999997775
  0
ARC
  5
774B
  8
AM_0
 10
217.53411293322509
 20
532.87160498141498
 30
0.0
 40
1.3350147999999991
 50
269.7304299999999
 51
90.269556000001344
  0
ARC
  5
774C
  8
AM_0
 10
216.30785293322529
 20
532.8565949814149
 30
0.0
 40
1.0000056999999991
 50
269.999989999999
 51
90.00000299999769
  0
ARC
  5
774D
  8
AM_0
 10
216.30785293322529
 20
522.85659498141467
 30
0.0
 40
1.0000056999999991
 50
269.999989999999
 51
90.00000299999769
  0
ARC
  5
774E
  8
AM_0
 10
217.59606293322511
 20
522.86660498141475
 30
0.0
 40
1.2700266
 50
269.62932000000001
 51
90.370670000004694
  0
ARC
  5
774F
  8
AM_0
 10
216.30785293322529
 20
512.8565949814149
 30
0.0
 40
1.0000056999999991
 50
269.999989999999
 51
90.00000299999769
  0
ARC
  5
7750
  8
AM_0
 10
217.59606293322511
 20
512.8565949814149
 30
0.0
 40
1.2700266
 50
269.62932000000001
 51
90.370670000004694
  0
ARC
  5
7751
  8
AM_0
 10
216.30785293322529
 20
502.85659498141467
 30
0.0
 40
1.0000056999999991
 50
269.999989999999
 51
90.00000299999769
  0
ARC
  5
7752
  8
AM_0
 10
217.53411293322509
 20
502.84658498141482
 30
0.0
 40
1.3300148000000001
 50
269.7294199999987
 51
90.270567000000995
  0
ARC
  5
7753
  8
AM_0
 10
266.86913293322499
 20
490.3565949814145
 30
0.0
 40
1.5
 50
90.00000299999769
 51
180.00001000000091
  0
ARC
  5
7754
  8
AM_0
 10
266.86913293322499
 20
485.35659498141467
 30
0.0
 40
1.5
 50
179.999989999999
 51
270.0
  0
ARC
  5
7755
  8
AM_0
 10
248.86913293322499
 20
490.3565949814145
 30
0.0
 40
1.5
 50
0.0
 51
90.00000299999769
  0
ARC
  5
7756
  8
AM_0
 10
248.86913293322499
 20
485.35659498141467
 30
0.0
 40
1.5
 50
269.999989999999
 51
0.0000006832495047
  0
ARC
  5
7757
  8
AM_0
 10
266.86913293322499
 20
490.3565949814145
 30
0.0
 40
1.02
 50
90.00000299999769
 51
180.00001000000091
  0
ARC
  5
7758
  8
AM_0
 10
248.86913293322499
 20
490.3565949814145
 30
0.0
 40
1.02
 50
0.0
 51
90.00000299999769
  0
ARC
  5
7759
  8
AM_0
 10
248.8890929332251
 20
485.49660498141481
 30
0.0
 40
1.0
 50
269.999989999999
 51
0.0000006832495047
  0
ARC
  5
775A
  8
AM_0
 10
266.84911293322511
 20
485.49660498141481
 30
0.0
 40
1.0
 50
179.999989999999
 51
270.0
  0
CIRCLE
  5
775B
  8
AM_0
 10
255.36913293322499
 20
489.35659498141467
 30
0.0
 40
1.1000000000000001
  0
CIRCLE
  5
775C
  8
AM_0
 10
255.36913293322499
 20
489.35659498141467
 30
0.0
 40
1.149999999999999
  0
CIRCLE
  5
775D
  8
AM_0
 10
260.36913293322499
 20
489.35659498141467
 30
0.0
 40
1.0
  0
ARC
  5
775E
  8
AM_0
 10
266.86913293322499
 20
545.3565949814149
 30
0.0
 40
1.5
 50
179.999989999999
 51
270.0
  0
ARC
  5
775F
  8
AM_0
 10
266.86913293322499
 20
550.3565949814149
 30
0.0
 40
1.5
 50
90.00000299999769
 51
180.00001000000091
  0
ARC
  5
7760
  8
AM_0
 10
248.86913293322499
 20
545.3565949814149
 30
0.0
 40
1.5
 50
269.999989999999
 51
0.0000006832495047
  0
ARC
  5
7761
  8
AM_0
 10
248.86913293322499
 20
550.3565949814149
 30
0.0
 40
1.5
 50
0.0
 51
90.00000299999769
  0
ARC
  5
7762
  8
AM_0
 10
266.86913293322499
 20
545.3565949814149
 30
0.0
 40
1.02
 50
179.999989999999
 51
270.0
  0
ARC
  5
7763
  8
AM_0
 10
248.86913293322499
 20
545.3565949814149
 30
0.0
 40
1.02
 50
269.999989999999
 51
0.0000006832429909
  0
ARC
  5
7764
  8
AM_0
 10
248.8890929332251
 20
550.21657498141485
 30
0.0
 40
1.0
 50
0.0
 51
90.00000299999769
  0
ARC
  5
7765
  8
AM_0
 10
266.84911293322511
 20
550.21657498141485
 30
0.0
 40
1.0
 50
90.00000299999769
 51
180.00001000000091
  0
CIRCLE
  5
7766
  8
AM_0
 10
260.36913293322499
 20
546.3565949814149
 30
0.0
 40
1.0
  0
CIRCLE
  5
7767
  8
AM_0
 10
255.36913293322499
 20
546.3565949814149
 30
0.0
 40
1.149999999999999
  0
CIRCLE
  5
7768
  8
AM_0
 10
255.36913293322499
 20
546.3565949814149
 30
0.0
 40
1.1000000000000001
  0
ARC
  5
7769
  8
AM_0
 10
146.56976293322509
 20
458.18654498141478
 30
0.0
 40
2.0
 50
194.15074999999919
 51
269.999989999999
  0
ARC
  5
776A
  8
AM_0
 10
160.61187293322541
 20
454.68654498141478
 30
0.0
 40
1.5
 50
21.46170899999715
 51
90.00000299999769
  0
LINE
  5
776B
  8
AM_0
 10
266.89528278226589
 20
443.85659498141467
 30
0.0
 11
267.21320873596011
 21
455.99660498141481
 31
0.0
  0
LINE
  5
776C
  8
AM_0
 10
206.84285078702521
 20
443.85659498141467
 30
0.0
 11
206.52500880559469
 21
455.99660498141481
 31
0.0
  0
LINE
  5
776D
  8
AM_0
 10
203.3690929332252
 20
441.85659498141479
 30
0.0
 11
270.36909293322537
 21
441.85659498141479
 31
0.0
  0
LINE
  5
776E
  8
AM_0
 10
203.3690929332252
 20
440.85659498141467
 30
0.0
 11
203.3690929332252
 21
441.85659498141479
 31
0.0
  0
LINE
  5
776F
  8
AM_0
 10
270.36909293322537
 20
440.85659498141467
 30
0.0
 11
270.36909293322537
 21
441.85659498141479
 31
0.0
  0
LINE
  5
7770
  8
AM_0
 10
188.8690929332252
 20
402.85659498141467
 30
0.0
 11
190.12867806948759
 21
438.92639397481969
 31
0.0
  0
LINE
  5
7771
  8
AM_0
 10
192.1274597235259
 20
440.85659498141467
 30
0.0
 11
281.61072614292499
 21
440.85659498141467
 31
0.0
  0
ARC
  5
7772
  8
AM_0
 10
192.1274597235259
 20
438.85659498141479
 30
0.0
 40
2.0
 50
90.0
 51
178.0000000000029
1001
GENIUS_GENODEF_13
1002
{
1000
HIER
1070
     0
1002
}
1002
{
1000
MANEDIT
1070
     0
1002
}
1002
{
1000
NOSEL
1070
     0
1002
}
1002
{
1000
BEHIND
1070
     0
1002
}
1002
{
1000
OTHER
1070
     0
1002
}
1002
{
1000
REACTOR
1002
}
1001
GENIUS_GENOBJ-N-FIL_13
1002
{
1000
OWNER
1000
GEN
1002
}
  0
LINE
  5
7773
  8
AM_0
 10
283.6095077969631
 20
438.92639397481969
 30
0.0
 11
284.86909293322549
 21
402.85659498141467
 31
0.0
  0
ARC
  5
7774
  8
AM_0
 10
281.61072614292499
 20
438.85659498141479
 30
0.0
 40
2.0
 50
1.9999999999971021
 51
90.0
1001
GENIUS_GENOBJ-N-FIL_13
1002
{
1000
OWNER
1000
GEN
1002
}
1001
GENIUS_GENODEF_13
1002
{
1000
HIER
1070
     0
1002
}
1002
{
1000
MANEDIT
1070
     0
1002
}
1002
{
1000
NOSEL
1070
     0
1002
}
1002
{
1000
BEHIND
1070
     0
1002
}
1002
{
1000
OTHER
1070
     0
1002
}
1002
{
1000
REACTOR
1002
}
  0
LINE
  5
7775
  8
AM_0
 10
284.86909293322549
 20
402.85659498141467
 30
0.0
 11
188.86909293322489
 21
402.85659498141467
 31
0.0
  0
LINE
  5
7776
  8
AM_0
 10
188.97385524170039
 20
405.8565949814145
 30
0.0
 11
187.86909293322509
 21
405.8565949814145
 31
0.0
  0
LINE
  5
7777
  8
AM_0
 10
190.0913198654365
 20
437.8565949814145
 30
0.0
 11
187.86909293322509
 21
437.8565949814145
 31
0.0
  0
LINE
  5
7778
  8
ﾁｭｳｼﾝｾﾝ1
 10
193.8690929332258
 20
392.59188748141491
 30
0.0
 11
193.869092933226
 21
405.5918874814148
 31
0.0
  0
LINE
  5
7779
  8
ﾁｭｳｼﾝｾﾝ
 10
236.8690929332254
 20
448.14862565464381
 30
0.0
 11
236.8690929332254
 21
390.40607234060548
 31
0.0
  0
LINE
  5
777A
  8
AM_0
 10
185.3690929332252
 20
408.3565949814145
 30
0.0
 11
187.86909293322509
 21
408.35659498141428
 31
0.0
  0
LINE
  5
777B
  8
AM_0
 10
187.86909293322509
 20
435.35659498141428
 30
0.0
 11
185.3690929332252
 21
435.35659498141462
 31
0.0
  0
LINE
  5
777C
  8
AM_0
 10
174.4704218368793
 20
432.35659498141439
 30
0.0
 11
174.4704218368793
 21
411.3565949814145
 31
0.0
  0
LINE
  5
777D
  8
AM_0
 10
159.47042183687941
 20
413.82496992739931
 30
0.0
 11
159.47042183687941
 21
429.88822003543049
 31
0.0
  0
LINE
  5
777E
  8
AM_0
 10
172.47042183687941
 20
433.8565949814145
 30
0.0
 11
172.47042183687941
 21
409.8565949814145
 31
0.0
  0
LINE
  5
777F
  8
AM_0
 10
162.9704218368793
 20
421.8565949814145
 30
0.0
 11
163.47042183687941
 21
422.3565949814145
 31
0.0
  0
LINE
  5
7780
  8
AM_0
 10
169.9704218368793
 20
410.15659498141451
 30
0.0
 11
169.9704218368793
 21
433.55659498141432
 31
0.0
  0
LINE
  5
7781
  8
AM_0
 10
179.86909293322509
 20
410.3565949814145
 30
0.0
 11
179.86909293322509
 21
433.3565949814145
 31
0.0
  0
LINE
  5
7782
  8
AM_0
 10
173.97042183687941
 20
422.55659498141642
 30
0.0
 11
173.97042183687941
 21
421.15659498141332
 31
0.0
  0
LINE
  5
7783
  8
AM_0
 10
176.07005756345009
 20
430.95659498141441
 30
0.0
 11
175.3200575634512
 21
412.75659498141448
 31
0.0
  0
LINE
  5
7784
  8
AM_0
 10
175.1190929332252
 20
430.95659498141441
 30
0.0
 11
174.4704218368793
 21
415.2155097100985
 31
0.0
  0
LINE
  5
7785
  8
AM_0
 10
175.86778552379721
 20
431.6722536937786
 30
0.0
 11
175.12052548038929
 21
412.0442232202476
 31
0.0
  0
LINE
  5
7786
  8
AM_0
 10
175.3186250162872
 20
431.66896674258248
 30
0.0
 11
174.5700575634512
 21
412.00659498141431
 31
0.0
  0
LINE
  5
7787
  8
AM_0
 10
172.47042183687941
 20
409.8565949814145
 30
0.0
 11
170.27042183687931
 21
409.8565949814145
 31
0.0
  0
ARC
  5
7788
  8
AM_0
 10
184.3690929332254
 20
409.3565949814145
 30
0.0
 40
0.5
 50
0.0
 51
90.000000000013017
  0
ARC
  5
7789
  8
AM_0
 10
185.3690929332254
 20
408.8565949814145
 30
0.0
 40
0.5
 50
180.0
 51
270.0
  0
LINE
  5
778A
  8
AM_0
 10
184.86909293322509
 20
409.3565949814145
 30
0.0
 11
184.86909293322509
 21
408.8565949814145
 31
0.0
  0
LINE
  5
778B
  8
AM_0
 10
175.86909293322509
 20
412.75659498141448
 30
0.0
 11
179.3690929332252
 21
412.75659498141448
 31
0.0
  0
LINE
  5
778C
  8
AM_0
 10
184.86909293322509
 20
411.00052366000762
 30
0.0
 11
184.86909293322509
 21
420.71266630282241
 31
0.0
  0
LINE
  5
778D
  8
AM_0
 10
180.36909293322529
 20
409.8565949814145
 30
0.0
 11
184.3690929332252
 21
409.8565949814145
 31
0.0
  0
LINE
  5
778E
  8
AM_0
 10
184.3690929332252
 20
410.50052366000762
 30
0.0
 11
179.86909293322509
 21
410.50052366000762
 31
0.0
  0
ARC
  5
778F
  8
AM_0
 10
184.3690929332254
 20
411.00052366000762
 30
0.0
 40
0.5
 50
270.0
 51
0.0
  0
ARC
  5
7790
  8
AM_0
 10
179.3690929332252
 20
412.25659498141471
 30
0.0
 40
0.5
 50
0.0
 51
90.0
  0
ARC
  5
7791
  8
AM_0
 10
180.36909293322529
 20
410.3565949814145
 30
0.0
 40
0.5
 50
180.0
 51
270.0
  0
LINE
  5
7792
  8
AM_0
 10
184.3690929332252
 20
421.2126663028223
 30
0.0
 11
179.86909293322509
 21
421.2126663028223
 31
0.0
  0
ARC
  5
7793
  8
AM_0
 10
184.3690929332252
 20
420.71266630282253
 30
0.0
 40
0.5
 50
0.0
 51
90.0
  0
LINE
  5
7794
  8
AM_0
 10
173.97042183687941
 20
415.71142422912231
 30
0.0
 11
173.97042183687941
 21
416.88366741555529
 31
0.0
  0
LINE
  5
7795
  8
AM_0
 10
175.39678999187629
 20
412.75659498141448
 30
0.0
 11
175.86909293322509
 21
412.75659498141448
 31
0.0
  0
LINE
  5
7796
  8
AM_0
 10
175.300197497337
 20
412.6824772146777
 30
0.0
 11
175.3200575634512
 21
412.75659498141448
 31
0.0
  0
ARC
  5
7797
  8
AM_0
 10
175.39678999187629
 20
412.6565949814144
 30
0.0
 40
0.1000000000000346
 50
90.0
 51
164.99980499355539
  0
ARC
  5
7798
  8
AM_0
 10
173.67042183687931
 20
412.56976200090651
 30
0.0
 40
0.3000000000000043
 50
0.0
 51
90.0
  0
LINE
  5
7799
  8
AM_0
 10
172.47042183687941
 20
410.45659498141441
 30
0.0
 11
173.69037754003639
 21
410.53792536162558
 31
0.0
  0
LINE
  5
779A
  8
AM_0
 10
172.47042183687941
 20
411.61284701725452
 30
0.0
 11
173.6704218368792
 21
411.61284701725452
 31
0.0
  0
LINE
  5
779B
  8
AM_0
 10
173.97042183687941
 20
410.85659498141462
 30
0.0
 11
172.47042183687941
 21
410.85659498141462
 31
0.0
  0
ARC
  5
779C
  8
AM_0
 10
173.97042183687941
 20
411.3565949814145
 30
0.0
 40
0.5
 50
270.0
 51
0.0
  0
LINE
  5
779D
  8
AM_0
 10
173.97042183687941
 20
410.83726090898239
 30
0.0
 11
173.97042183687941
 21
410.85659498141462
 31
0.0
  0
LINE
  5
779E
  8
AM_0
 10
173.97042183687941
 20
410.55659498141449
 30
0.0
 11
173.97042183687941
 21
410.83726090898239
 31
0.0
  0
LINE
  5
779F
  8
AM_0
 10
173.69037754003639
 20
410.53792536162558
 30
0.0
 11
173.97042183687941
 21
410.55659498141449
 31
0.0
  0
ARC
  5
77A0
  8
AM_0
 10
173.67042183687931
 20
410.83726090898239
 30
0.0
 40
0.3000000000000007
 50
273.81407483428148
 51
0.0
  0
LINE
  5
77A1
  8
AM_0
 10
175.04236050480031
 20
412.00659498141431
 30
0.0
 11
175.1190929332262
 21
412.00659498141431
 31
0.0
  0
LINE
  5
77A2
  8
AM_0
 10
175.1190929332262
 20
412.00659498141431
 30
0.0
 11
175.13895299933921
 21
412.08071274815092
 31
0.0
  0
LINE
  5
77A3
  8
AM_0
 10
174.55019749733711
 20
412.08071274815092
 30
0.0
 11
174.5700575634512
 21
412.00659498141431
 31
0.0
  0
LINE
  5
77A4
  8
AM_0
 10
174.5700575634512
 20
412.00659498141431
 30
0.0
 11
174.64678999187629
 21
412.00659498141431
 31
0.0
  0
LINE
  5
77A5
  8
AM_0
 10
175.13895299933921
 20
412.08071274815092
 30
0.0
 11
175.300197497337
 21
412.6824772146777
 31
0.0
  0
LINE
  5
77A6
  8
AM_0
 10
174.64678999187629
 20
412.00659498141431
 30
0.0
 11
175.04236050480031
 21
412.00659498141431
 31
0.0
  0
LINE
  5
77A7
  8
AM_0
 10
174.47042183688021
 20
412.37843551297539
 30
0.0
 11
174.55019749733711
 21
412.08071274815092
 31
0.0
  0
ARC
  5
77A8
  8
AM_0
 10
175.04236050480031
 20
412.1065949814145
 30
0.0
 40
0.0999999999999866
 50
270.0
 51
344.99980499343371
  0
ARC
  5
77A9
  8
AM_0
 10
174.64678999187629
 20
412.1065949814145
 30
0.0
 40
0.1000000000000014
 50
195.00019500656629
 51
270.0
  0
LINE
  5
77AA
  8
AM_0
 10
173.97042183687941
 20
411.91284701725448
 30
0.0
 11
173.97042183687941
 21
412.56976200090651
 31
0.0
  0
ARC
  5
77AB
  8
AM_0
 10
173.67042183687931
 20
411.91284701725471
 30
0.0
 40
0.3000000000000007
 50
270.0
 51
0.0
  0
LINE
  5
77AC
  8
AM_0
 10
172.47042183687941
 20
415.41142422912247
 30
0.0
 11
173.6704218368792
 21
415.41142422912247
 31
0.0
  0
LINE
  5
77AD
  8
AM_0
 10
173.6704218368792
 20
412.86976200090652
 30
0.0
 11
172.47042183687941
 21
412.86976200090652
 31
0.0
  0
LINE
  5
77AE
  8
AM_0
 10
175.3200575634512
 20
412.75659498141448
 30
0.0
 11
175.39678999187629
 21
412.75659498141448
 31
0.0
  0
ARC
  5
77AF
  8
AM_0
 10
173.67042183687931
 20
415.71142422912271
 30
0.0
 40
0.3000000000000007
 50
270.0
 51
0.0
  0
LINE
  5
77B0
  8
AM_0
 10
173.6704218368792
 20
417.18366741555559
 30
0.0
 11
172.47042183687941
 21
417.18366741555559
 31
0.0
  0
ARC
  5
77B1
  8
AM_0
 10
173.67042183687931
 20
416.88366741555558
 30
0.0
 40
0.3000000000000043
 50
0.0
 51
90.0
  0
LINE
  5
77B2
  8
AM_0
 10
173.6704218368792
 20
420.85659498141348
 30
0.0
 11
172.47042183687941
 21
420.85659498141348
 31
0.0
  0
ARC
  5
77B3
  8
AM_0
 10
173.67042183687931
 20
421.1565949814136
 30
0.0
 40
0.3000000000000007
 50
270.0
 51
0.0
  0
LINE
  5
77B4
  8
AM_0
 10
163.47042183687941
 20
411.7233151527675
 30
0.0
 11
169.9704218368793
 21
411.7233151527675
 31
0.0
  0
LINE
  5
77B5
  8
AM_0
 10
163.47042183687941
 20
411.22331515276733
 30
0.0
 11
169.9704218368793
 21
411.22331515276733
 31
0.0
  0
LINE
  5
77B6
  8
AM_0
 10
169.9704218368793
 20
421.3565949814145
 30
0.0
 11
163.47042183687941
 21
421.3565949814145
 31
0.0
  0
LINE
  5
77B7
  8
AM_0
 10
162.9704218368793
 20
420.8565949814145
 30
0.0
 11
169.9704218368793
 21
420.8565949814145
 31
0.0
  0
LINE
  5
77B8
  8
AM_0
 10
169.6704218368792
 20
410.85659498141462
 30
0.0
 11
162.83247177206121
 21
410.85659498141462
 31
0.0
  0
LINE
  5
77B9
  8
AM_0
 10
169.9704218368793
 20
420.50990691287342
 30
0.0
 11
163.47042183687941
 21
420.50990691287342
 31
0.0
  0
LINE
  5
77BA
  8
AM_0
 10
169.9704218368793
 20
412.20328304995559
 30
0.0
 11
163.47042183687941
 21
412.20328304995559
 31
0.0
  0
ARC
  5
77BB
  8
AM_0
 10
170.27042183687931
 20
410.15659498141451
 30
0.0
 40
0.2999999999999971
 50
180.0
 51
270.0
  0
ARC
  5
77BC
  8
AM_0
 10
169.67042183687931
 20
410.55659498141449
 30
0.0
 40
0.2999999999999971
 50
0.0
 51
90.0
  0
ARC
  5
77BD
  8
AM_0
 10
171.59542183687941
 20
416.3565949814145
 30
0.0
 40
9.124999999999984
 50
152.92493329271929
 51
207.07506670728071
  0
LINE
  5
77BE
  8
AM_0
 10
162.19228737239681
 20
411.08837370181692
 30
0.0
 11
159.83023743721481
 21
413.0567486478019
 31
0.0
  0
LINE
  5
77BF
  8
AM_0
 10
162.9704218368793
 20
411.43502756492262
 30
0.0
 11
163.47042183687941
 21
410.85659498141462
 31
0.0
  0
ARC
  5
77C0
  8
AM_0
 10
162.83247177206121
 20
411.85659498141439
 30
0.0
 40
1.0
 50
230.19442890774391
 51
270.0
  0
LINE
  5
77C1
  8
AM_0
 10
163.47042183687941
 20
411.22331515276733
 30
0.0
 11
162.9704218368793
 21
411.43502756492262
 31
0.0
  0
LINE
  5
77C2
  8
AM_0
 10
162.9704218368793
 20
411.89730283789362
 30
0.0
 11
163.47042183687941
 21
411.22331515276733
 31
0.0
  0
LINE
  5
77C3
  8
AM_0
 10
163.47042183687941
 20
411.7233151527675
 30
0.0
 11
162.9704218368793
 21
411.89730283789362
 31
0.0
  0
LINE
  5
77C4
  8
AM_0
 10
162.9704218368793
 20
412.43502756492239
 30
0.0
 11
163.47042183687941
 21
411.7233151527675
 31
0.0
  0
LINE
  5
77C5
  8
AM_0
 10
163.47042183687941
 20
412.20328304995559
 30
0.0
 11
162.9704218368793
 21
412.43502756492239
 31
0.0
  0
ARC
  5
77C6
  8
AM_0
 10
160.47042183687941
 20
413.82496992739959
 30
0.0
 40
1.0000000000000291
 50
180.0
 51
230.19442890773479
  0
LINE
  5
77C7
  8
AM_0
 10
163.47042183687941
 20
421.3565949814145
 30
0.0
 11
162.9704218368793
 21
421.8565949814145
 31
0.0
  0
LINE
  5
77C8
  8
AM_0
 10
162.9704218368793
 20
420.8565949814145
 30
0.0
 11
163.47042183687941
 21
421.3565949814145
 31
0.0
  0
LINE
  5
77C9
  8
AM_0
 10
163.47042183687941
 20
420.50990691287342
 30
0.0
 11
162.9704218368793
 21
420.8565949814145
 31
0.0
  0
LINE
  5
77CA
  8
AM_0
 10
170.27042183687931
 20
433.8565949814145
 30
0.0
 11
172.47042183687941
 21
433.8565949814145
 31
0.0
  0
ARC
  5
77CB
  8
AM_0
 10
184.3690929332252
 20
434.3565949814145
 30
0.0
 40
0.5
 50
269.99999999998693
 51
0.0
  0
LINE
  5
77CC
  8
AM_0
 10
179.3690929332252
 20
430.95659498141441
 30
0.0
 11
176.14678999187629
 21
430.95659498141441
 31
0.0
  0
LINE
  5
77CD
  8
AM_0
 10
184.86909293322509
 20
423.00052366000762
 30
0.0
 11
184.86909293322509
 21
432.71266630282253
 31
0.0
  0
LINE
  5
77CE
  8
AM_0
 10
179.86909293322509
 20
422.5005236600075
 30
0.0
 11
184.3690929332252
 21
422.5005236600075
 31
0.0
  0
ARC
  5
77CF
  8
AM_0
 10
184.3690929332252
 20
423.00052366000762
 30
0.0
 40
0.5
 50
270.0
 51
0.0
  0
LINE
  5
77D0
  8
AM_0
 10
179.86909293322509
 20
433.21266630282253
 30
0.0
 11
184.3690929332252
 21
433.21266630282253
 31
0.0
  0
LINE
  5
77D1
  8
AM_0
 10
184.3690929332252
 20
433.8565949814145
 30
0.0
 11
180.36909293322529
 21
433.8565949814145
 31
0.0
  0
ARC
  5
77D2
  8
AM_0
 10
184.3690929332252
 20
432.71266630282253
 30
0.0
 40
0.5
 50
0.0
 51
90.0
  0
ARC
  5
77D3
  8
AM_0
 10
179.3690929332252
 20
431.45659498141441
 30
0.0
 40
0.5
 50
270.0
 51
0.0
  0
ARC
  5
77D4
  8
AM_0
 10
180.36909293322529
 20
433.3565949814145
 30
0.0
 40
0.5
 50
90.0
 51
180.0
  0
ARC
  5
77D5
  8
AM_0
 10
173.67042183687931
 20
428.00176573370652
 30
0.0
 40
0.3000000000000114
 50
0.0
 51
90.0
  0
LINE
  5
77D6
  8
AM_0
 10
172.47042183687941
 20
422.85659498141632
 30
0.0
 11
173.6704218368792
 21
422.85659498141632
 31
0.0
  0
ARC
  5
77D7
  8
AM_0
 10
173.67042183687931
 20
422.55659498141671
 30
0.0
 40
0.2999999999999971
 50
0.0
 51
90.0
  0
LINE
  5
77D8
  8
AM_0
 10
172.47042183687941
 20
426.52952254727319
 30
0.0
 11
173.6704218368792
 21
426.52952254727319
 31
0.0
  0
ARC
  5
77D9
  8
AM_0
 10
173.67042183687931
 20
426.82952254727343
 30
0.0
 40
0.3000000000000007
 50
270.0
 51
0.0
  0
LINE
  5
77DA
  8
AM_0
 10
173.97042183687941
 20
426.82952254727343
 30
0.0
 11
173.97042183687941
 21
428.00176573370652
 31
0.0
  0
LINE
  5
77DB
  8
AM_0
 10
175.39678999187629
 20
431.70659498141453
 30
0.0
 11
175.79236050480031
 21
431.70659498141453
 31
0.0
  0
LINE
  5
77DC
  8
AM_0
 10
175.39678999187629
 20
431.70659498141453
 30
0.0
 11
175.79236050480031
 21
431.70659498141453
 31
0.0
  0
LINE
  5
77DD
  8
AM_0
 10
175.88895299933921
 20
431.63247721467798
 30
0.0
 11
176.05019749733711
 21
431.03071274815079
 31
0.0
  0
LINE
  5
77DE
  8
AM_0
 10
175.88895299933921
 20
431.63247721467798
 30
0.0
 11
176.05019749733711
 21
431.03071274815079
 31
0.0
  0
ARC
  5
77DF
  8
AM_0
 10
176.14678999187629
 20
431.05659498141449
 30
0.0
 40
0.0999999999999943
 50
195.00019500651879
 51
270.0
  0
ARC
  5
77E0
  8
AM_0
 10
175.79236050480031
 20
431.6065949814145
 30
0.0
 40
0.0999999999999943
 50
15.000195006505431
 51
90.0
  0
LINE
  5
77E1
  8
AM_0
 10
174.46957524833809
 20
431.33159498141458
 30
0.0
 11
174.55019749733711
 21
431.03071274815079
 31
0.0
  0
LINE
  5
77E2
  8
AM_0
 10
175.12180358543111
 20
430.99585951451257
 30
0.0
 11
175.300197497337
 21
431.63247721467798
 31
0.0
  0
LINE
  5
77E3
  8
AM_0
 10
175.13895299933921
 20
431.03071274815079
 30
0.0
 11
175.300197497337
 21
431.63247721467798
 31
0.0
  0
LINE
  5
77E4
  8
AM_0
 10
173.97042183687941
 20
431.14342796192352
 30
0.0
 11
173.97042183687941
 21
431.80034294557441
 31
0.0
  0
LINE
  5
77E5
  8
AM_0
 10
174.4704218368793
 20
431.32843551297651
 30
0.0
 11
174.55019749733711
 21
431.03071274815079
 31
0.0
  0
LINE
  5
77E6
  8
AM_0
 10
172.47042183687941
 20
430.84342796192362
 30
0.0
 11
173.6704218368792
 21
430.84342796192362
 31
0.0
  0
LINE
  5
77E7
  8
AM_0
 10
173.6704218368792
 20
428.30176573370647
 30
0.0
 11
172.47042183687941
 21
428.30176573370733
 31
0.0
  0
LINE
  5
77E8
  8
AM_0
 10
175.07499277031539
 20
430.95659498141441
 30
0.0
 11
175.12180358543111
 21
430.99585951451257
 31
0.0
  0
LINE
  5
77E9
  8
AM_0
 10
174.64678999187629
 20
430.95659498141441
 30
0.0
 11
175.07499277031539
 21
430.95659498141441
 31
0.0
  0
LINE
  5
77EA
  8
AM_0
 10
174.64678999187629
 20
430.95659498141441
 30
0.0
 11
175.04236050480031
 21
430.95659498141441
 31
0.0
  0
ARC
  5
77EB
  8
AM_0
 10
174.64678999187629
 20
431.05659498141449
 30
0.0
 40
0.0999999999999943
 50
195.00019500651879
 51
270.0
  0
ARC
  5
77EC
  8
AM_0
 10
175.04236050480031
 20
431.05659498141449
 30
0.0
 40
0.0999999999999608
 50
270.0
 51
344.99980499348112
  0
ARC
  5
77ED
  8
AM_0
 10
173.67042183687931
 20
431.14342796192352
 30
0.0
 40
0.3000000000000007
 50
270.0
 51
0.0
  0
LINE
  5
77EE
  8
AM_0
 10
172.47042183687941
 20
432.8565949814145
 30
0.0
 11
173.97042183687941
 21
432.8565949814145
 31
0.0
  0
LINE
  5
77EF
  8
AM_0
 10
173.6704218368792
 20
432.10034294557443
 30
0.0
 11
172.47042183687941
 21
432.10034294557443
 31
0.0
  0
LINE
  5
77F0
  8
AM_0
 10
173.69037754003639
 20
433.1752646012045
 30
0.0
 11
172.47042183687941
 21
433.25659498141448
 31
0.0
  0
ARC
  5
77F1
  8
AM_0
 10
173.97042183687941
 20
432.35659498141439
 30
0.0
 40
0.5
 50
0.0
 51
90.0
  0
ARC
  5
77F2
  8
AM_0
 10
175.39678999187629
 20
431.6065949814145
 30
0.0
 40
0.0999999999999606
 50
90.0
 51
164.99980499349451
  0
ARC
  5
77F3
  8
AM_0
 10
173.67042183687931
 20
431.80034294557441
 30
0.0
 40
0.2999999999999971
 50
0.0
 51
90.0
  0
LINE
  5
77F4
  8
AM_0
 10
173.97042183687941
 20
432.8565949814145
 30
0.0
 11
173.97042183687941
 21
432.87592905384753
 31
0.0
  0
ARC
  5
77F5
  8
AM_0
 10
173.67042183687931
 20
432.87592905384753
 30
0.0
 40
0.3000000000000043
 50
0.0
 51
86.18592516571853
  0
ARC
  5
77F6
  8
AM_0
 10
185.3690929332252
 20
434.8565949814145
 30
0.0
 40
0.5
 50
90.0
 51
180.0
  0
LINE
  5
77F7
  8
AM_0
 10
184.86909293322509
 20
434.8565949814145
 30
0.0
 11
184.86909293322509
 21
434.3565949814145
 31
0.0
  0
LINE
  5
77F8
  8
AM_0
 10
163.47042183687941
 20
431.50990691287319
 30
0.0
 11
169.9704218368793
 21
431.50990691287319
 31
0.0
  0
LINE
  5
77F9
  8
AM_0
 10
163.47042183687941
 20
423.2032830499553
 30
0.0
 11
169.9704218368793
 21
423.2032830499553
 31
0.0
  0
LINE
  5
77FA
  8
AM_0
 10
162.83247177206121
 20
432.8565949814145
 30
0.0
 11
169.6704218368792
 21
432.8565949814145
 31
0.0
  0
LINE
  5
77FB
  8
AM_0
 10
169.9704218368793
 20
422.8565949814145
 30
0.0
 11
162.9704218368793
 21
422.8565949814145
 31
0.0
  0
LINE
  5
77FC
  8
AM_0
 10
163.47042183687941
 20
422.3565949814145
 30
0.0
 11
169.9704218368793
 21
422.3565949814145
 31
0.0
  0
LINE
  5
77FD
  8
AM_0
 10
169.9704218368793
 20
432.48987481006242
 30
0.0
 11
163.47042183687941
 21
432.48987481006242
 31
0.0
  0
LINE
  5
77FE
  8
AM_0
 10
169.9704218368793
 20
431.98987481006242
 30
0.0
 11
163.47042183687941
 21
431.98987481006242
 31
0.0
  0
ARC
  5
77FF
  8
AM_0
 10
169.67042183687931
 20
433.15659498141451
 30
0.0
 40
0.3000000000000043
 50
270.0
 51
0.0
  0
ARC
  5
7800
  8
AM_0
 10
170.27042183687931
 20
433.55659498141449
 30
0.0
 40
0.2999999999999971
 50
90.0
 51
180.0
  0
ARC
  5
7801
  8
AM_0
 10
171.59542183687941
 20
427.35659498141462
 30
0.0
 40
9.124999999999984
 50
152.92493329271929
 51
207.07506670728071
  0
LINE
  5
7802
  8
AM_0
 10
162.9704218368793
 20
422.8565949814145
 30
0.0
 11
163.47042183687941
 21
423.2032830499553
 31
0.0
  0
LINE
  5
7803
  8
AM_0
 10
163.47042183687941
 20
422.3565949814145
 30
0.0
 11
162.9704218368793
 21
422.8565949814145
 31
0.0
  0
LINE
  5
7804
  8
AM_0
 10
159.83023743721481
 20
430.65644131502779
 30
0.0
 11
162.19228737239681
 21
432.62481626101192
 31
0.0
  0
LINE
  5
7805
  8
AM_0
 10
163.47042183687941
 20
432.8565949814145
 30
0.0
 11
162.9704218368793
 21
432.27816239790741
 31
0.0
  0
ARC
  5
7806
  8
AM_0
 10
162.83247177206121
 20
431.8565949814145
 30
0.0
 40
1.0000000000000411
 50
90.0
 51
129.805571092256
  0
LINE
  5
7807
  8
AM_0
 10
162.9704218368793
 20
431.27816239790741
 30
0.0
 11
163.47042183687941
 21
431.50990691287319
 31
0.0
  0
LINE
  5
7808
  8
AM_0
 10
163.47042183687941
 20
431.98987481006242
 30
0.0
 11
162.9704218368793
 21
431.27816239790741
 31
0.0
  0
LINE
  5
7809
  8
AM_0
 10
162.9704218368793
 20
431.81588712493561
 30
0.0
 11
163.47042183687941
 21
431.98987481006242
 31
0.0
  0
LINE
  5
780A
  8
AM_0
 10
163.47042183687941
 20
432.48987481006242
 30
0.0
 11
162.9704218368793
 21
431.81588712493561
 31
0.0
  0
LINE
  5
780B
  8
AM_0
 10
162.9704218368793
 20
432.27816239790741
 30
0.0
 11
163.47042183687941
 21
432.48987481006242
 31
0.0
  0
ARC
  5
780C
  8
AM_0
 10
160.47042183687941
 20
429.88822003543049
 30
0.0
 40
1.0
 50
129.80557109226521
 51
180.0
  0
LINE
  5
780D
  8
AM_0
 10
284.86909293322537
 20
398.85659498141479
 30
0.0
 11
264.05458803369299
 21
398.85659498141479
 31
0.0
  0
LINE
  5
780E
  8
AM_0
 10
209.68359783275781
 20
398.85659498141479
 30
0.0
 11
188.8690929332258
 21
398.85659498141479
 31
0.0
  0
LINE
  5
780F
  8
AM_0
 10
278.73331126406441
 20
394.8565949814149
 30
0.0
 11
195.0048746023862
 21
394.8565949814149
 31
0.0
  0
LINE
  5
7810
  8
AM_0
 10
197.77644790553231
 20
396.79765746928712
 30
0.0
 11
197.8690929332258
 21
397.85659498141479
 31
0.0
  0
LINE
  5
7811
  8
AM_0
 10
189.96173796091921
 20
396.79765746928712
 30
0.0
 11
189.86909293322589
 21
397.85659498141479
 31
0.0
  0
ARC
  5
7812
  8
AM_0
 10
193.8690929332258
 20
401.25659498141482
 30
0.0
 40
6.5
 50
241.82726586813479
 51
298.17273413186518
  0
ARC
  5
7813
  8
AM_0
 10
191.55564947786621
 20
396.93710665768339
 30
0.0
 40
1.6000000000000001
 50
184.99999999999969
 51
241.82726586813479
  0
LINE
  5
7814
  8
AM_0
 10
196.1690929332259
 20
395.1771213199865
 30
0.0
 11
193.8690929332258
 21
397.4666809987819
 31
0.0
  0
LINE
  5
7815
  8
AM_0
 10
194.18059293322591
 20
397.1565949814148
 30
0.0
 11
193.55759293322589
 21
397.1565949814148
 31
0.0
  0
LINE
  5
7816
  8
AM_0
 10
191.56909293322599
 20
395.1771213199865
 30
0.0
 11
193.8690929332258
 21
397.4666809987819
 31
0.0
  0
LINE
  5
7817
  8
AM_0
 10
194.18059293322591
 20
394.76406329108022
 30
0.0
 11
194.18059293322591
 21
397.1565949814148
 31
0.0
  0
LINE
  5
7818
  8
AM_0
 10
193.55759293322589
 20
394.76406329108022
 30
0.0
 11
193.55759293322589
 21
397.1565949814148
 31
0.0
  0
ARC
  5
7819
  8
AM_0
 10
196.18253638858559
 20
396.93710665768339
 30
0.0
 40
1.6000000000000001
 50
298.17273413186518
 51
355.00000000000023
  0
LINE
  5
781A
  8
AM_0
 10
284.86909293322549
 20
398.85659498141479
 30
0.0
 11
284.86909293322549
 21
402.85659498141467
 31
0.0
  0
LINE
  5
781B
  8
AM_0
 10
188.86909293322489
 20
402.85659498141467
 30
0.0
 11
188.8690929332262
 21
398.85659498141479
 31
0.0
  0
LINE
  5
781C
  8
AM_0N
 10
197.6690929332259
 20
398.85659498141479
 30
0.0
 11
197.6690929332259
 21
397.85659498141479
 31
0.0
  0
LINE
  5
781D
  8
AM_0N
 10
194.06909293322599
 20
397.85659498141479
 30
0.0
 11
194.43306316749209
 21
398.85659498141479
 31
0.0
  0
LINE
  5
781E
  8
AM_0N
 10
193.6690929332259
 20
397.85659498141479
 30
0.0
 11
194.033063167492
 21
398.85659498141479
 31
0.0
  0
LINE
  5
781F
  8
AM_0N
 10
189.86909293322589
 20
397.85659498141479
 30
0.0
 11
197.8690929332258
 21
397.85659498141479
 31
0.0
  0
LINE
  5
7820
  8
AM_0N
 10
190.06909293322599
 20
397.85659498141479
 30
0.0
 11
190.06909293322599
 21
398.85659498141479
 31
0.0
  0
LINE
  5
7821
  8
AM_0
 10
209.6835978327575
 20
394.8565949814149
 30
0.0
 11
209.6835978327575
 21
398.85659498141479
 31
0.0
  0
LINE
  5
7822
  8
AM_0
 10
208.0267435832651
 20
398.85659498141479
 30
0.0
 11
209.6835978327575
 21
394.8565949814149
 31
0.0
  0
LINE
  5
7823
  8
AM_0
 10
264.05458803369299
 20
394.8565949814149
 30
0.0
 11
264.05458803369299
 21
398.85659498141479
 31
0.0
  0
LINE
  5
7824
  8
AM_0
 10
265.71144228318548
 20
398.85659498141479
 30
0.0
 11
264.05458803369299
 21
394.8565949814149
 31
0.0
  0
LINE
  5
7825
  8
AM_0
 10
203.3690929332252
 20
443.85659498141467
 30
0.0
 11
270.36909293322537
 21
443.85659498141467
 31
0.0
  0
LINE
  5
7826
  8
AM_0
 10
203.3690929332252
 20
443.85659498141467
 30
0.0
 11
203.3690929332252
 21
441.85659498141479
 31
0.0
  0
LINE
  5
7827
  8
AM_0
 10
270.36909293322537
 20
443.85659498141467
 30
0.0
 11
270.36909293322537
 21
441.85659498141479
 31
0.0
  0
LINE
  5
7828
  8
ﾁｭｳｼﾝｾﾝ1
 10
279.86909293322469
 20
392.59188748141491
 30
0.0
 11
279.86909293322469
 21
405.5918874814148
 31
0.0
  0
LINE
  5
7829
  8
AM_0
 10
275.9617379609183
 20
396.79765746928712
 30
0.0
 11
275.86909293322481
 21
397.85659498141479
 31
0.0
  0
LINE
  5
782A
  8
AM_0
 10
283.77644790553131
 20
396.79765746928712
 30
0.0
 11
283.86909293322469
 21
397.85659498141479
 31
0.0
  0
ARC
  5
782B
  8
AM_0
 10
279.86909293322492
 20
401.25659498141448
 30
0.0
 40
6.5
 50
241.82726586813479
 51
298.17273413186518
  0
ARC
  5
782C
  8
AM_0
 10
282.18253638858459
 20
396.93710665768322
 30
0.0
 40
1.6000000000000001
 50
298.17273413186518
 51
355.00000000000023
  0
LINE
  5
782D
  8
AM_0
 10
277.56909293322479
 20
395.1771213199865
 30
0.0
 11
279.86909293322481
 21
397.4666809987819
 31
0.0
  0
LINE
  5
782E
  8
AM_0
 10
279.55759293322478
 20
397.1565949814148
 30
0.0
 11
280.18059293322477
 21
397.1565949814148
 31
0.0
  0
LINE
  5
782F
  8
AM_0
 10
282.16909293322482
 20
395.1771213199865
 30
0.0
 11
279.86909293322481
 21
397.4666809987819
 31
0.0
  0
LINE
  5
7830
  8
AM_0
 10
279.55759293322478
 20
394.76406329108022
 30
0.0
 11
279.55759293322478
 21
397.1565949814148
 31
0.0
  0
LINE
  5
7831
  8
AM_0
 10
280.18059293322477
 20
394.76406329108022
 30
0.0
 11
280.18059293322477
 21
397.1565949814148
 31
0.0
  0
ARC
  5
7832
  8
AM_0
 10
277.5556494778653
 20
396.93710665768322
 30
0.0
 40
1.6000000000000001
 50
184.99999999999969
 51
241.82726586813479
  0
LINE
  5
7833
  8
AM_0N
 10
276.06909293322468
 20
398.85659498141479
 30
0.0
 11
276.06909293322468
 21
397.85659498141479
 31
0.0
  0
LINE
  5
7834
  8
AM_0N
 10
279.6690929332247
 20
397.85659498141479
 30
0.0
 11
279.3051226989586
 21
398.85659498141479
 31
0.0
  0
LINE
  5
7835
  8
AM_0N
 10
280.06909293322468
 20
397.85659498141479
 30
0.0
 11
279.70512269895858
 21
398.85659498141479
 31
0.0
  0
LINE
  5
7836
  8
AM_0N
 10
283.86909293322481
 20
397.85659498141479
 30
0.0
 11
275.86909293322481
 21
397.85659498141479
 31
0.0
  0
LINE
  5
7837
  8
AM_0N
 10
283.6690929332247
 20
397.85659498141479
 30
0.0
 11
283.6690929332247
 21
398.85659498141479
 31
0.0
  0
LINE
  5
7838
  8
AM_0
 10
187.86909293322509
 20
405.8565949814145
 30
0.0
 11
187.86909293322509
 21
437.8565949814145
 31
0.0
  0
ARC
  5
7839
  8
AM_0
 10
160.4422533021671
 20
474.85659498141479
 30
0.0
 40
56.0
 50
209.07393874564249
 51
269.00563148839018
1001
GENIUS_GENOBJ-N-FIL_13
1002
{
1000
OWNER
1000
GEN
1002
}
1001
GENIUS_GENODEF_13
1002
{
1000
HIER
1070
     0
1002
}
1002
{
1000
MANEDIT
1070
     0
1002
}
1002
{
1000
NOSEL
1070
     0
1002
}
1002
{
1000
BEHIND
1070
     0
1002
}
1002
{
1000
OTHER
1070
     0
1002
}
1002
{
1000
REACTOR
1002
}
  0
ARC
  5
783A
  8
AM_0
 10
160.44225330216699
 20
474.85659498141479
 30
0.0
 40
50.0
 50
209.07393874564249
 51
268.88629304213589
1001
GENIUS_GENOBJ-N-FIL_13
1002
{
1000
OWNER
1000
GEN
1002
}
1001
GENIUS_GENODEF_13
1002
{
1000
HIER
1070
     0
1002
}
1002
{
1000
MANEDIT
1070
     0
1002
}
1002
{
1000
NOSEL
1070
     0
1002
}
1002
{
1000
BEHIND
1070
     0
1002
}
1002
{
1000
OTHER
1070
     0
1002
}
1002
{
1000
REACTOR
1002
}
  0
LINE
  5
78E7
  8
AM_0
 10
407.86910293322489
 20
521.85656498141475
 30
0.0
 11
439.86910293322478
 21
521.85656498141475
 31
0.0
  0
LINE
  5
78E8
  8
AM_0
 10
407.86910293322489
 20
521.85656498141475
 30
0.0
 11
407.86910293322489
 21
513.85659498141467
 31
0.0
  0
LINE
  5
78E9
  8
AM_0
 10
405.86905293322468
 20
503.8565949814145
 30
0.0
 11
439.86910293322478
 21
503.8565949814145
 31
0.0
  0
LINE
  5
78EA
  8
AM_0
 10
405.86905293322468
 20
531.85659498141445
 30
0.0
 11
439.86910293322478
 21
531.85659498141445
 31
0.0
  0
LINE
  5
78EB
  8
AM_0
 10
439.86910293322478
 20
531.85659498141445
 30
0.0
 11
439.86910293322478
 21
503.8565949814145
 31
0.0
  0
LINE
  5
78EC
  8
AM_0
 10
407.86910293322489
 20
513.85659498141467
 30
0.0
 11
439.86910293322478
 21
513.85659498141467
 31
0.0
  0
ARC
  5
78ED
  8
AM_0
 10
407.86910293322489
 20
517.85656498141475
 30
0.0
 40
3.9999962
 50
90.000003000000945
 51
120.0008584236207
  0
ARC
  5
78EE
  8
AM_0
 10
407.86910293322489
 20
517.85656498141475
 30
0.0
 40
3.9999962
 50
239.99914157637929
 51
270.0
  0
LINE
  5
78EF
  8
AM_0
 10
400.86905293322468
 20
551.35659198141445
 30
0.0
 11
405.86905293322479
 21
546.35659198141479
 31
0.0
  0
LINE
  5
78F0
  8
AM_0
 10
396.86913293322488
 20
551.35659198141445
 30
0.0
 11
400.86905293322468
 21
551.35659198141445
 31
0.0
  0
LINE
  5
78F1
  8
AM_0
 10
405.86905293322479
 20
546.35659198141479
 30
0.0
 11
405.86905293322479
 21
489.35659198141491
 31
0.0
  0
LINE
  5
78F2
  8
AM_0
 10
396.86913293322488
 20
484.35659198141451
 30
0.0
 11
400.86905293322468
 21
484.35659198141451
 31
0.0
  0
LINE
  5
78F3
  8
AM_0
 10
400.86905293322468
 20
484.35659198141451
 30
0.0
 11
405.86905293322479
 21
489.35659198141491
 31
0.0
  0
LINE
  5
78F4
  8
AM_0
 10
400.86905293322468
 20
551.35659198141445
 30
0.0
 11
400.86905293322468
 21
484.35659198141451
 31
0.0
  0
LINE
  5
78F5
  8
AM_0
 10
332.86910293322512
 20
588.85659498141467
 30
0.0
 11
332.86910293322512
 21
446.8565949814145
 31
0.0
  0
LINE
  5
78F6
  8
AM_0
 10
332.86913293322488
 20
446.85662498141471
 30
0.0
 11
327.81679293322492
 21
446.9889149814145
 31
0.0
  0
LINE
  5
78F7
  8
AM_0
 10
332.86910293322512
 20
588.85659498141467
 30
0.0
 11
327.81679293322492
 21
588.72429498141435
 31
0.0
  0
LINE
  5
78F8
  8
AM_0
 10
325.8691329332251
 20
448.9882149814145
 30
0.0
 11
325.8691329332251
 21
586.72496498141436
 31
0.0
  0
LINE
  5
78F9
  8
AM_0
 10
321.10893293322511
 20
453.69567498141453
 30
0.0
 11
295.86916293322508
 21
454.3565949814145
 31
0.0
  0
LINE
  5
78FA
  8
AM_0
 10
322.86910293322512
 20
452.64531498141429
 30
0.0
 11
323.8691329332251
 21
452.64531498141429
 31
0.0
  0
LINE
  5
78FB
  8
AM_0
 10
320.86910293322512
 20
454.64531498141429
 30
0.0
 11
320.86910293322512
 21
463.81655498141458
 31
0.0
  0
LINE
  5
78FC
  8
AM_0
 10
320.86910293322512
 20
581.06789498141438
 30
0.0
 11
320.86910293322512
 21
571.89663498141454
 31
0.0
  0
LINE
  5
78FD
  8
AM_0
 10
321.10893293322511
 20
582.0175449814144
 30
0.0
 11
295.86916293322508
 21
581.3566249814146
 31
0.0
  0
LINE
  5
78FE
  8
AM_0
 10
322.86910293322512
 20
583.0678949814145
 30
0.0
 11
323.8691329332251
 21
583.0678949814145
 31
0.0
  0
LINE
  5
78FF
  8
AM_0
 10
295.86913293322488
 20
465.8165549814147
 30
0.0
 11
325.8691329332251
 21
465.8165549814147
 31
0.0
  0
LINE
  5
7900
  8
AM_0
 10
295.86913293322488
 20
480.70656498141472
 30
0.0
 11
325.8691329332251
 21
480.70656498141472
 31
0.0
  0
LINE
  5
7901
  8
AM_0
 10
295.86913293322488
 20
555.0066149814146
 30
0.0
 11
325.8691329332251
 21
555.0066149814146
 31
0.0
  0
LINE
  5
7902
  8
AM_0
 10
295.86913293322488
 20
569.89663498141465
 30
0.0
 11
325.8691329332251
 21
569.89663498141465
 31
0.0
  0
LINE
  5
7903
  8
AM_0
 10
365.86910293322518
 20
565.55471498141469
 30
0.0
 11
380.86910293322518
 21
565.55471498141469
 31
0.0
  0
LINE
  5
7904
  8
AM_0
 10
384.79930293322508
 20
433.13839498141471
 30
0.0
 11
392.86910293322512
 21
432.8565949814145
 31
0.0
  0
LINE
  5
7905
  8
AM_0
 10
364.86910293322518
 20
588.24556498141465
 30
0.0
 11
364.86910293322518
 21
447.4676149814145
 31
0.0
  0
LINE
  5
7906
  8
AM_0
 10
367.79058293322493
 20
591.24456498141444
 30
0.0
 11
379.94762293322509
 21
591.5628949814145
 31
0.0
  0
LINE
  5
7907
  8
AM_0
 10
392.86910293322512
 20
587.85659498141445
 30
0.0
 11
396.86913293322488
 21
587.85659498141445
 31
0.0
  0
LINE
  5
7908
  8
AM_0
 10
365.86910293322518
 20
470.1584749814146
 30
0.0
 11
380.86910293322518
 21
470.1584749814146
 31
0.0
  0
LINE
  5
7909
  8
AM_0
 10
392.86910293322512
 20
447.85659498141462
 30
0.0
 11
396.86913293322488
 21
447.85659498141462
 31
0.0
  0
LINE
  5
790A
  8
AM_0
 10
367.79061293322508
 20
444.46865498141472
 30
0.0
 11
379.9476529332249
 21
444.15032498141471
 31
0.0
  0
LINE
  5
790B
  8
AM_0
 10
363.89269293322508
 20
446.0441849814145
 30
0.0
 11
332.86910293322512
 21
446.8565949814145
 31
0.0
  0
LINE
  5
790C
  8
AM_0
 10
384.79927293322521
 20
602.57482498141451
 30
0.0
 11
392.86910293322512
 21
602.85662498141471
 31
0.0
  0
LINE
  5
790D
  8
AM_0
 10
382.86910293322512
 20
559.80825498141451
 30
0.0
 11
382.86910293322512
 21
600.57598498141465
 31
0.0
  0
LINE
  5
790E
  8
AM_0
 10
392.86910293322512
 20
432.8565949814145
 30
0.0
 11
392.86910293322512
 21
602.85662498141471
 31
0.0
  0
LINE
  5
790F
  8
AM_0
 10
386.86910293322518
 20
451.07524498141458
 30
0.0
 11
386.86910293322518
 21
584.63793498141467
 31
0.0
  0
LINE
  5
7910
  8
AM_0
 10
380.4119129332251
 20
455.6945149814145
 30
0.0
 11
367.32628293322489
 21
463.4235749814145
 31
0.0
  0
LINE
  5
7911
  8
AM_0
 10
396.86913293322488
 20
587.85659498141445
 30
0.0
 11
396.86913293322488
 21
447.85659498141462
 31
0.0
  0
LINE
  5
7912
  8
AM_0
 10
380.41194293322502
 20
576.53444498141425
 30
0.0
 11
367.32628293322489
 21
568.8053849814147
 31
0.0
  0
LINE
  5
7913
  8
AM_0
 10
382.86910293322512
 20
475.9049349814145
 30
0.0
 11
382.86910293322512
 21
435.13720498141458
 31
0.0
  0
LINE
  5
7914
  8
AM_0
 10
380.4119129332251
 20
459.17873498141472
 30
0.0
 11
367.3263129332251
 21
466.90776498141452
 31
0.0
  0
LINE
  5
7915
  8
AM_0
 10
380.41194293322502
 20
580.01867498141473
 30
0.0
 11
367.32628293322489
 21
572.28960498141453
 31
0.0
  0
LINE
  5
7916
  8
AM_0
 10
363.892722933225
 20
589.66896498141455
 30
0.0
 11
332.86910293322512
 21
588.85659498141467
 31
0.0
  0
ARC
  5
7917
  8
AM_0
 10
327.8691329332251
 20
448.9882149814145
 30
0.0
 40
2.0
 50
180.00001000000091
 51
268.49999999999733
  0
ARC
  5
7918
  8
AM_0
 10
327.8691329332251
 20
586.72496498141436
 30
0.0
 40
2.0
 50
91.500001000001546
 51
180.00001000000091
  0
ARC
  5
7919
  8
AM_0
 10
322.86910293322512
 20
454.64531498141429
 30
0.0
 40
2.0
 50
180.00001000000091
 51
270.0
  0
ARC
  5
791A
  8
AM_0
 10
323.8691329332251
 20
450.64531498141429
 30
0.0
 40
2.0
 50
0.0
 51
90.00000299999769
  0
ARC
  5
791B
  8
AM_0
 10
323.8691329332251
 20
585.06789498141438
 30
0.0
 40
2.0
 50
270.0
 51
0.0
  0
ARC
  5
791C
  8
AM_0
 10
322.86910293322512
 20
581.06789498141438
 30
0.0
 40
2.0
 50
90.00000299999769
 51
180.00001000000091
  0
ARC
  5
791D
  8
AM_0
 10
318.86910293322512
 20
463.81655498141458
 30
0.0
 40
2.0
 50
0.0
 51
90.00000299999769
  0
ARC
  5
791E
  8
AM_0
 10
318.86910293322512
 20
571.89663498141454
 30
0.0
 40
2.0
 50
270.0
 51
0.0
  0
ARC
  5
791F
  8
AM_0
 10
377.86910293322512
 20
580.8395649814147
 30
0.0
 40
5.0
 50
300.56828999999891
 51
0.0
  0
ARC
  5
7920
  8
AM_0
 10
385.86910293322512
 20
475.9049349814145
 30
0.0
 40
3.0
 50
90.00000299999769
 51
180.00001000000091
  0
ARC
  5
7921
  8
AM_0
 10
363.81417293322511
 20
592.66793498141465
 30
0.0
 40
3.0
 50
271.50000000000267
 51
312.51811999999683
  0
ARC
  5
7922
  8
AM_0
 10
367.86910293322512
 20
447.4676149814145
 30
0.0
 40
3.0
 50
179.999989999999
 51
268.50000999999878
  0
ARC
  5
7923
  8
AM_0
 10
384.86913293322488
 20
435.13720498141458
 30
0.0
 40
2.0
 50
179.999989999999
 51
268.00000999999861
  0
ARC
  5
7924
  8
AM_0
 10
367.86910293322512
 20
588.24556498141465
 30
0.0
 40
3.0
 50
91.500001000001546
 51
180.00001000000091
  0
ARC
  5
7925
  8
AM_0
 10
379.86910293322512
 20
594.5618549814144
 30
0.0
 40
3.0
 50
271.50000000000267
 51
0.0
  0
ARC
  5
7926
  8
AM_0
 10
379.86910293322512
 20
441.15133498141472
 30
0.0
 40
3.0
 50
0.0
 51
88.499997000000647
  0
ARC
  5
7927
  8
AM_0
 10
363.81417293322511
 20
443.04522498141449
 30
0.0
 40
3.0
 50
47.481951999999431
 51
88.499997000000647
  0
ARC
  5
7928
  8
AM_0
 10
384.86913293322488
 20
600.57598498141465
 30
0.0
 40
2.0
 50
91.999998000000545
 51
180.00001000000091
  0
ARC
  5
7929
  8
AM_0
 10
380.86910293322518
 20
468.1584749814146
 30
0.0
 40
2.0
 50
0.0
 51
90.00000299999769
  0
ARC
  5
792A
  8
AM_0
 10
380.86910293322518
 20
567.55471498141435
 30
0.0
 40
2.0
 50
270.0
 51
0.0
  0
ARC
  5
792B
  8
AM_0
 10
383.86910293322512
 20
584.63793498141467
 30
0.0
 40
3.0
 50
0.0
 51
90.00000299999769
  0
ARC
  5
792C
  8
AM_0
 10
385.86910293322512
 20
559.80825498141451
 30
0.0
 40
3.0
 50
179.999989999999
 51
270.0
  0
ARC
  5
792D
  8
AM_0
 10
377.86910293322512
 20
451.38936498141447
 30
0.0
 40
5.0
 50
0.0
 51
59.431709000002151
  0
ARC
  5
792E
  8
AM_0
 10
383.86910293322512
 20
451.07524498141458
 30
0.0
 40
3.0
 50
270.0
 51
0.0
  0
ARC
  5
792F
  8
AM_0
 10
369.86910293322512
 20
467.72866498141462
 30
0.0
 40
5.0
 50
179.999989999999
 51
239.431710000001
  0
ARC
  5
7930
  8
AM_0
 10
377.86910293322512
 20
584.32381498141467
 30
0.0
 40
5.0
 50
300.56828999999891
 51
0.0
  0
ARC
  5
7931
  8
AM_0
 10
369.86910293322512
 20
564.50026498141426
 30
0.0
 40
5.0
 50
120.5682899999989
 51
180.00001000000091
  0
ARC
  5
7932
  8
AM_0
 10
369.86910293322512
 20
567.98452498141455
 30
0.0
 40
5.0
 50
120.5682899999989
 51
180.00001000000091
  0
ARC
  5
7933
  8
AM_0
 10
365.86910293322518
 20
471.1584749814146
 30
0.0
 40
1.0
 50
179.999989999999
 51
270.0
  0
ARC
  5
7934
  8
AM_0
 10
365.86910293322518
 20
564.55471498141469
 30
0.0
 40
1.0
 50
90.00000299999769
 51
180.00001000000091
  0
ARC
  5
7935
  8
AM_0
 10
369.86910293322512
 20
471.21291498141449
 30
0.0
 40
5.0
 50
179.999989999999
 51
239.431710000001
  0
ARC
  5
7936
  8
AM_0
 10
377.86910293322512
 20
454.87362498141471
 30
0.0
 40
5.0
 50
0.0
 51
59.431709000002151
  0
TEXT
  5
7B8D
  8
AM_0
 10
541.97885200740109
 20
532.51073358182794
 30
0.0
 40
10.0
  1
VX04-040BFW~VX04-050BFW
  0
ENDSEC
  0
EOF
