  0
SECTION
  2
HEADER
  9
$ACADVER
  1
AC1009
  9
$INSBASE
 10
0.0
 20
0.0
 30
0.0
  9
$EXTMIN
 10
61.379175337472809
 20
134.615547281988
 30
-250.41841640509659
  9
$EXTMAX
 10
756.30654331693268
 20
617.16137258749814
 30
8206587.2096418813
  9
$LIMMIN
 10
0.0
 20
0.0
  9
$LIMMAX
 10
853.5
 20
555.00000000000011
  9
$ORTHOMODE
 70
     0
  9
$REGENMODE
 70
     1
  9
$FILLMODE
 70
     1
  9
$QTEXTMODE
 70
     0
  9
$MIRRTEXT
 70
     1
  9
$DRAGMODE
 70
     2
  9
$LTSCALE
 40
3.0
  9
$OSMODE
 70
   551
  9
$ATTMODE
 70
     1
  9
$TEXTSIZE
 40
2.5
  9
$TRACEWID
 40
1.0
  9
$TEXTSTYLE
  7
STANDARD
  9
$CLAYER
  8
AM_0
  9
$CELTYPE
  6
BYLAYER
  9
$CECOLOR
 62
   256
  9
$DIMSCALE
 40
1.0
  9
$DIMASZ
 40
2.5
  9
$DIMEXO
 40
1.0
  9
$DIMDLI
 40
8.0
  9
$DIMRND
 40
0.0
  9
$DIMDLE
 40
0.0
  9
$DIMEXE
 40
0.6
  9
$DIMTP
 40
0.1
  9
$DIMTM
 40
0.1
  9
$DIMTXT
 40
2.5
  9
$DIMCEN
 40
0.0
  9
$DIMTSZ
 40
0.0
  9
$DIMTOL
 70
     0
  9
$DIMLIM
 70
     0
  9
$DIMTIH
 70
     0
  9
$DIMTOH
 70
     0
  9
$DIMSE1
 70
     0
  9
$DIMSE2
 70
     0
  9
$DIMTAD
 70
     1
  9
$DIMZIN
 70
     8
  9
$DIMBLK
  1

  9
$DIMASO
 70
     1
  9
$DIMSHO
 70
     1
  9
$DIMPOST
  1

  9
$DIMAPOST
  1
"
  9
$DIMALT
 70
     0
  9
$DIMALTD
 70
     2
  9
$DIMALTF
 40
0.0393701
  9
$DIMLFAC
 40
1.0
  9
$DIMTOFL
 70
     1
  9
$DIMTVP
 40
0.0
  9
$DIMTIX
 70
     0
  9
$DIMSOXD
 70
     0
  9
$DIMSAH
 70
     0
  9
$DIMBLK1
  1

  9
$DIMBLK2
  1

  9
$DIMSTYLE
  2
AM_ISO
  9
$DIMCLRD
 70
   256
  9
$DIMCLRE
 70
   256
  9
$DIMCLRT
 70
     4
  9
$DIMTFAC
 40
0.71
  9
$DIMGAP
 40
0.8
  9
$LUNITS
 70
     2
  9
$LUPREC
 70
     2
  9
$SKETCHINC
 40
1.0
  9
$FILLETRAD
 40
56.0
  9
$AUNITS
 70
     0
  9
$AUPREC
 70
     0
  9
$MENU
  1
.
  9
$ELEVATION
 40
0.0
  9
$PELEVATION
 40
0.0
  9
$THICKNESS
 40
0.0
  9
$LIMCHECK
 70
     0
  9
$BLIPMODE
 70
     0
  9
$CHAMFERA
 40
6.0
  9
$CHAMFERB
 40
3.0
  9
$SKPOLY
 70
     0
  9
$TDCREATE
 40
2452065.7887456599
  9
$TDUPDATE
 40
2458541.615654896
  9
$TDINDWG
 40
0.1692675231
  9
$TDUSRTIMER
 40
0.1692675
  9
$USRTIMER
 70
     1
  9
$ANGBASE
 50
0.0
  9
$ANGDIR
 70
     0
  9
$PDMODE
 70
     0
  9
$PDSIZE
 40
0.0
  9
$PLINEWID
 40
0.0
  9
$COORDS
 70
     1
  9
$SPLFRAME
 70
     0
  9
$SPLINETYPE
 70
     6
  9
$SPLINESEGS
 70
     8
  9
$ATTDIA
 70
     1
  9
$ATTREQ
 70
     1
  9
$HANDLING
 70
     1
  9
$HANDSEED
  5
8306
  9
$SURFTAB1
 70
     6
  9
$SURFTAB2
 70
     6
  9
$SURFTYPE
 70
     6
  9
$SURFU
 70
     6
  9
$SURFV
 70
     6
  9
$UCSNAME
  2

  9
$UCSORG
 10
0.0
 20
0.0
 30
0.0
  9
$UCSXDIR
 10
1.0
 20
0.0
 30
0.0
  9
$UCSYDIR
 10
0.0
 20
1.0
 30
0.0
  9
$PUCSNAME
  2

  9
$PUCSORG
 10
0.0
 20
0.0
 30
0.0
  9
$PUCSXDIR
 10
1.0
 20
0.0
 30
0.0
  9
$PUCSYDIR
 10
0.0
 20
1.0
 30
0.0
  9
$USERI1
 70
     0
  9
$USERI2
 70
     0
  9
$USERI3
 70
     0
  9
$USERI4
 70
     0
  9
$USERI5
 70
     0
  9
$USERR1
 40
0.0
  9
$USERR2
 40
0.0
  9
$USERR3
 40
0.0
  9
$USERR4
 40
0.0
  9
$USERR5
 40
0.0
  9
$WORLDVIEW
 70
     1
  9
$SHADEDGE
 70
     3
  9
$SHADEDIF
 70
    70
  9
$TILEMODE
 70
     1
  9
$MAXACTVP
 70
    64
  9
$PLIMCHECK
 70
     0
  9
$PEXTMIN
 10
1.0000000000000000E+020
 20
1.0000000000000000E+020
 30
1.0000000000000000E+020
  9
$PEXTMAX
 10
-1.0000000000000000E+020
 20
-1.0000000000000000E+020
 30
-1.0000000000000000E+020
  9
$PLIMMIN
 10
0.0
 20
0.0
  9
$PLIMMAX
 10
420.0
 20
297.0
  9
$UNITMODE
 70
     0
  9
$VISRETAIN
 70
     1
  9
$PLINEGEN
 70
     0
  9
$PSLTSCALE
 70
     1
  0
ENDSEC
  0
SECTION
  2
TABLES
  0
TABLE
  2
VPORT
 70
     1
  0
VPORT
  2
*ACTIVE
 70
     0
 10
0.0
 20
0.0
 11
1.0
 21
1.0
 12
408.8428593272028
 22
375.88845993474308
 13
0.0
 23
0.0
 14
7.5
 24
7.5
 15
30.0
 25
30.0
 16
0.0
 26
0.0
 36
1.0
 17
0.0
 27
0.0
 37
0.0
 40
485.85849687511308
 41
1.757159221076747
 42
50.0
 43
0.0
 44
0.0
 50
0.0
 51
0.0
 71
     0
 72
   100
 73
     1
 74
     3
 75
     0
 76
     0
 77
     0
 78
     0
  0
ENDTAB
  0
TABLE
  2
LTYPE
 70
    26
  0
LTYPE
  2
CONTINUOUS
 70
     0
  3
Solid line
 72
    65
 73
     0
 40
0.0
  0
LTYPE
  2
AM_ISO02W050
 70
     0
  3
__ __ __ __ __ __ __ __ __ __ __ __ __ __ __
 72
    65
 73
     2
 40
7.5
 49
6.0
 49
-1.5
  0
LTYPE
  2
AM_ISO08W050
 70
     0
  3
____ . ____ . ____ . ____ . ____ . ____ . ____
 72
    65
 73
     4
 40
18.0
 49
12.0
 49
-1.5
 49
3.0
 49
-1.5
  0
LTYPE
  2
AM_ISO09W050
 70
     0
  3
_____ . . _____ . . _____ . . ____ .. ____
 72
    65
 73
     6
 40
22.5
 49
12.0
 49
-1.5
 49
3.0
 49
-1.5
 49
3.0
 49
-1.5
  0
LTYPE
  2
AMCONSTR
 70
     0
  3
_______________________
 72
    65
 73
     2
 40
9999.0
 49
9999.0
 49
0.0
  0
LTYPE
  2
AM_ISO08W050X2
 70
     0
  3
__ . __ . __ . __ . __ . __
 72
    65
 73
     4
 40
9.0
 49
6.0
 49
-0.75
 49
1.5
 49
-0.75
  0
LTYPE
  2
AM_ISO02W050X2
 70
     0
  3
 _ _ _ _ _ _ _ _ _ _ _ _
 72
    65
 73
     2
 40
3.75
 49
3.0
 49
-0.75
  0
LTYPE
  2
AMZIGZAG
 70
     0
  3
/\/-/\/-/\/-/\/-/\/-/\/
 72
    65
 73
     2
 40
11.0001
 49
0.0001
 49
-11.0
  0
LTYPE
  2
ACISOWELD
 70
     0
  3
_ _ _ _ _
 72
    65
 73
     2
 40
2.0
 49
2.0
 49
-1.0
  0
LTYPE
  2
ACISOTGB
 70
     0
  3
__ . . __ . .
 72
    65
 73
     6
 40
9.0
 49
4.0
 49
-1.0
 49
1.0
 49
-1.0
 49
1.0
 49
-1.0
  0
LTYPE
  2
ACISOTGL
 70
     0
  3
_ _ _ _ _
 72
    65
 73
     2
 40
3.0
 49
2.0
 49
-1.0
  0
LTYPE
  2
CENTER
 70
     0
  3
__ . __
 72
    65
 73
     4
 40
7.0
 49
4.0
 49
-1.0
 49
1.0
 49
-1.0
  0
LTYPE
  2
HIDDEN
 70
     0
  3
Hidden __ __ __ __ __ __ __ __ __ __ __ __ __ _
 72
    65
 73
     2
 40
9.5249999999999986
 49
6.3499999999999979
 49
-3.174999999999998
  0
LTYPE
  2
PHANTOM2
 70
     0
  3
Phantom (.5x) ___ _ _ ___ _ _ ___ _ _ ___ _ _
 72
    65
 73
     6
 40
31.75
 49
15.875
 49
-3.174999999999998
 49
3.174999999999998
 49
-3.174999999999998
 49
3.174999999999998
 49
-3.174999999999998
  0
LTYPE
  2
ACANSTGBM
 70
     0
  3
__ . . __ . .
 72
    65
 73
     6
 40
9.0
 49
4.0
 49
-1.0
 49
1.0
 49
-1.0
 49
1.0
 49
-1.0
  0
LTYPE
  2
ACANSTGLM
 70
     0
  3
_ _ _ _ _
 72
    65
 73
     2
 40
3.0
 49
2.0
 49
-1.0
  0
LTYPE
  2
GEN7
 70
     0
  3
____ . ____ . ____ . ____ . ____ . ____ . ____
 72
    65
 73
     4
 40
14.25
 49
9.75
 49
-1.5
 49
1.5
 49
-1.5
  0
LTYPE
  2
GEN7A
 70
     0
  3
__ . __ . __
 72
    65
 73
     4
 40
7.375
 49
4.75
 49
-0.875
 49
0.875
 49
-0.875
  0
LTYPE
  2
ACJISTGB
 70
     0
  3
__ . . __ . .
 72
    65
 73
     6
 40
9.0
 49
4.0
 49
-1.0
 49
1.0
 49
-1.0
 49
1.0
 49
-1.0
  0
LTYPE
  2
ACJISTGL
 70
     0
  3
_ _ _ _ _
 72
    65
 73
     2
 40
3.0
 49
2.0
 49
-1.0
  0
LTYPE
  2
CENTER2
 70
     0
  3
Center (.5x) ___ _ ___ _ ___ _ ___ _ ___ _ ___
 72
    65
 73
     4
 40
1.125
 49
0.75
 49
-0.125
 49
0.125
 49
-0.125
  0
LTYPE
  2
HIDDEN2
 70
     0
  3
Hidden (.5x) _ _ _ _ _ _ _ _ _ _ _ _ _ _ _ _ _
 72
    65
 73
     2
 40
0.1875
 49
0.125
 49
-0.0625
  0
LTYPE
  2
AMZIGZAG2
 70
     0
  3
/\/-/\/-/\/-/\/-/\/-/\/
 72
    65
 73
     2
 40
0.4401
 49
0.0001
 49
-0.4400000000000001
  0
LTYPE
  2
ACANSTGB
 70
     0
  3
__ . . __ . .
 72
    65
 73
     6
 40
0.35433070866
 49
0.15748031496
 49
-0.03937007874
 49
0.03937007874
 49
-0.03937007874
 49
0.03937007874
 49
-0.03937007874
  0
LTYPE
  2
ACANSTGL
 70
     0
  3
_ _ _ _ _
 72
    65
 73
     2
 40
0.11811023622
 49
0.07874015748
 49
-0.03937007874
  0
ENDTAB
  0
TABLE
  2
LAYER
 70
     7
  0
LAYER
  2
0
 70
     0
 62
     7
  6
CONTINUOUS
  0
LAYER
  2
AM_0
 70
     0
 62
     7
  6
CONTINUOUS
  0
LAYER
  2
AM_5
 70
     0
 62
     2
  6
CONTINUOUS
  0
LAYER
  2
DEFPOINTS
 70
     0
 62
     7
  6
CONTINUOUS
  0
LAYER
  2
ﾁｭｳｼﾝｾﾝ
 70
     0
 62
     1
  6
GEN7
  0
LAYER
  2
ﾁｭｳｼﾝｾﾝ1
 70
     0
 62
     1
  6
GEN7A
  0
LAYER
  2
AM_0N
 70
     0
 62
     7
  6
CONTINUOUS
  0
ENDTAB
  0
TABLE
  2
STYLE
 70
    10
  0
STYLE
  2
STANDARD
 70
     0
 40
0.0
 41
0.8299999999999999
 50
0.0
 71
     0
 42
2.5
  3
txt.shx
  4
bigfont.shx
  0
STYLE
  2
ANNOTATIVE
 70
     0
 40
0.0
 41
1.0
 50
0.0
 71
     0
 42
0.2
  3
txt
  4

  0
STYLE
  2

 70
     1
 40
0.0
 41
1.0
 50
0.0
 71
     0
 42
2.5
  3
ltypeshp.shx
  4

  0
STYLE
  2
ACISOTS
 70
     0
 40
1.0
 41
1.0
 50
0.0
 71
     0
 42
2.5
  3
isocp.shx
  4
extfont.shx
  0
STYLE
  2
ACISOGDT
 70
     0
 40
0.0
 41
1.0
 50
0.0
 71
     0
 42
2.5
  3
amgdt.shx
  4

  0
STYLE
  2
ACANSTS
 70
     0
 40
1.0
 41
1.0
 50
0.0
 71
     0
 42
2.5
  3
romans.shx
  4
bigfont.shx
  0
STYLE
  2
ACANSGDT
 70
     0
 40
0.0
 41
1.0
 50
0.0
 71
     0
 42
2.5
  3
amgdt.shx
  4

  0
STYLE
  2
ACJISTS
 70
     0
 40
1.0
 41
1.0
 50
0.0
 71
     0
 42
2.5
  3
isocp.shx
  4
bigfont.shx
  0
STYLE
  2
ACJISGDT
 70
     0
 40
0.0
 41
1.0
 50
0.0
 71
     0
 42
2.5
  3
amgdt.shx
  4

  0
STYLE
  2

 70
     1
 40
0.0
 41
1.0
 50
0.0
 71
     0
 42
2.5
  3
genltshp.shx
  4

  0
ENDTAB
  0
TABLE
  2
VIEW
 70
     6
  0
VIEW
  2
AM_VIEW1
 70
     0
 40
277.50000000000011
 10
249.64779005524869
 20
416.25
 41
499.29558011049721
 11
0.0
 21
0.0
 31
1.0
 12
0.0
 22
0.0
 32
0.0
 42
50.0
 43
0.0
 44
0.0
 50
0.0
 71
     0
  0
VIEW
  2
AM_VIEW2
 70
     0
 40
277.50000000000011
 10
603.85220994475117
 20
416.25
 41
499.29558011049721
 11
0.0
 21
0.0
 31
1.0
 12
0.0
 22
0.0
 32
0.0
 42
50.0
 43
0.0
 44
0.0
 50
0.0
 71
     0
  0
VIEW
  2
AM_VIEW3
 70
     0
 40
277.50000000000011
 10
249.64779005524869
 20
138.75
 41
499.29558011049721
 11
0.0
 21
0.0
 31
1.0
 12
0.0
 22
0.0
 32
0.0
 42
50.0
 43
0.0
 44
0.0
 50
0.0
 71
     0
  0
VIEW
  2
AM_VIEW4
 70
     0
 40
277.50000000000011
 10
603.85220994475117
 20
138.75
 41
499.29558011049721
 11
0.0
 21
0.0
 31
1.0
 12
0.0
 22
0.0
 32
0.0
 42
50.0
 43
0.0
 44
0.0
 50
0.0
 71
     0
  0
VIEW
  2
AM_VIEW5
 70
     0
 40
277.50000000000011
 10
426.75
 20
277.50000000000011
 41
499.2955801104971
 11
0.0
 21
0.0
 31
1.0
 12
0.0
 22
0.0
 32
0.0
 42
50.0
 43
0.0
 44
0.0
 50
0.0
 71
     0
  0
VIEW
  2
AM_VIEW6
 70
     0
 40
554.99445000000014
 10
426.75
 20
277.5
 41
998.5811743093924
 11
0.0
 21
0.0
 31
1.0
 12
0.0
 22
0.0
 32
0.0
 42
50.0
 43
0.0
 44
0.0
 50
0.0
 71
     0
  0
ENDTAB
  0
TABLE
  2
UCS
 70
     0
  0
ENDTAB
  0
TABLE
  2
APPID
 70
    98
  0
APPID
  2
ACAD
 70
     0
  0
APPID
  2
ACADANNOTATIVE
 70
     0
  0
APPID
  2
MCAD_NO_VIS
 70
     0
  0
APPID
  2
ACAD_TEMP_GRAPHIC
 70
     0
  0
APPID
  2
ACATTRIBSERVICES
 70
     0
  0
APPID
  2
GENIUS_GENREC_14
 70
     0
  0
APPID
  2
GENIUS_GENOBJ-N-REC_13
 70
     0
  0
APPID
  2
GENIUS_GENODEF_13
 70
     0
  0
APPID
  2
GENIUS_GENOLIS_13
 70
     0
  0
APPID
  2
GENIUS_GENOBJ-N-TIT_13
 70
     0
  0
APPID
  2
GENIUS_GENOENT_13
 70
     0
  0
APPID
  2
GENIUS_GENTITLE_13
 70
     0
  0
APPID
  2
GENIUS_GENOREF_13
 70
     0
  0
APPID
  2
GENIUS_GENSCREG_15
 70
     0
  0
APPID
  2
GENIUS_GENOBJ-N-SDF_13
 70
     0
  0
APPID
  2
GENIUS_GENFIL_13
 70
     0
  0
APPID
  2
GENIUS_GENOBJ-N-CHA_13
 70
     0
  0
APPID
  2
GENIUS_GENDTOL_13
 70
     0
  0
APPID
  2
GENIUS_GENOBJ-N-FIL_13
 70
     0
  0
APPID
  2
AD_DRAW
 70
     0
  0
APPID
  2
DESIGNERASSEMBLIES
 70
     0
  0
APPID
  2
ASURF_PCURVE_APPNAME
 70
     0
  0
APPID
  2
GENIUS_GE3SECT_13
 70
     0
  0
APPID
  2
GENIUS_GENCFG_13
 70
     0
  0
APPID
  2
GENIUS_GE3CFG0_13
 70
     0
  0
APPID
  2
GENIUS_GENCFG0_13
 70
     0
  0
APPID
  2
GENIUS_GENCFG1_13
 70
     0
  0
APPID
  2
GENIUS_GENCFG2_13
 70
     0
  0
APPID
  2
GENIUS_GENCFG3_13
 70
     0
  0
APPID
  2
GENIUS_GENCFG4_13
 70
     0
  0
APPID
  2
GENIUS_GEVCFG0_13
 70
     0
  0
APPID
  2
GENIUS_GENHINW_13
 70
     0
  0
APPID
  2
GENIUS_FIRSTVISTXT_14
 70
     0
  0
APPID
  2
GENIUS_GENOBJ-N-LEADER_13
 70
     0
  0
APPID
  2
GEV_VCCNULL_SWITCH_OFF
 70
     0
  0
APPID
  2
GENIUS_GEFCFG0_13
 70
     0
  0
APPID
  2
GENIUS_GENZVEED_13
 70
     0
  0
APPID
  2
GENIUS_GENSCREG_13
 70
     0
  0
APPID
  2
GENIUS_DUMCFG0_13
 70
     0
  0
APPID
  2
GEVID936201362
 70
     0
  0
APPID
  2
GEVDC
 70
     0
  0
APPID
  2
GEVCON
 70
     0
  0
APPID
  2
VCC
 70
     0
  0
APPID
  2
GEVPT
 70
     0
  0
APPID
  2
GEVIT
 70
     0
  0
APPID
  2
GENBH
 70
     0
  0
APPID
  2
GEVMK
 70
     0
  0
APPID
  2
GENIUS_GENBH_13
 70
     0
  0
APPID
  2
GENIUS_GENOBJ-NBEHI-BHF_13
 70
     0
  0
APPID
  2
GENIUS_GENOBJ-NBEHI-BHB_13
 70
     0
  0
APPID
  2
GENIUS_GENOBJ-F-DESC_13
 70
     0
  0
APPID
  2
GENIUS_GEFDESC_14
 70
     0
  0
APPID
  2
GENIUS_GENOBJ-F-PART_13
 70
     0
  0
APPID
  2
GENIUS_GEFSTDP_13
 70
     0
  0
APPID
  2
GENIUS_GEFPARTINS_13
 70
     0
  0
APPID
  2
GENIUS_GENTRA_14
 70
     0
  0
APPID
  2
GENIUS_GENINF13_13
 70
     0
  0
APPID
  2
GENIUS_GENOBJ-N-INFOPT_13
 70
     0
  0
APPID
  2
GENIUS_GENOBJ-N-RSSYM_13
 70
     0
  0
APPID
  2
GENIUS_GENSYMENT_13
 70
     0
  0
APPID
  2
GENIUS_GENSCSYM_13
 70
     0
  0
APPID
  2
GENIUS_GEFINFNAM_13
 70
     0
  0
APPID
  2
GENIUS_GENOBJ-N-CEN_13
 70
     0
  0
APPID
  2
GENIUS_GENOBJ-N-CRS_13
 70
     0
  0
APPID
  2
GENIUS_GENOBJ-N-CRC_13
 70
     0
  0
APPID
  2
GENIUS_GENCRC_14
 70
     0
  0
APPID
  2
GEVID942827039
 70
     0
  0
APPID
  2
GEVID942827040
 70
     0
  0
APPID
  2
GEVID942827041
 70
     0
  0
APPID
  2
GENIUS_GENOBJ-F-SCPASSM_13
 70
     0
  0
APPID
  2
GENIUS_GENDIMSH_14
 70
     0
  0
APPID
  2
GEVID942827042
 70
     0
  0
APPID
  2
GEVID946020473
 70
     0
  0
APPID
  2
GEVID946020474
 70
     0
  0
APPID
  2
GEVID946020475
 70
     0
  0
APPID
  2
GENIUS_GENOBJ-N-HTC_13
 70
     0
  0
APPID
  2
GENIUS_GENHATCH_13
 70
     0
  0
APPID
  2
GEVID948854295
 70
     0
  0
APPID
  2
GEVID939402019
 70
     0
  0
APPID
  2
GEVID952919491
 70
     0
  0
APPID
  2
GEVID952919492
 70
     0
  0
APPID
  2
GENIUS_GEFWELD_13
 70
     0
  0
APPID
  2
GENIUS_GENOBJ-F-WELS_13
 70
     0
  0
APPID
  2
GEVID952919493
 70
     0
  0
APPID
  2
GENIUS_GENOBJ-N-RSBK_13
 70
     0
  0
APPID
  2
GENIUS_GENOBJ-N-LIB_13
 70
     0
  0
APPID
  2
GENIUS_GENSCALE_13
 70
     0
  0
APPID
  2
GEVID986376691
 70
     0
  0
APPID
  2
DCO15
 70
     0
  0
APPID
  2
ACADM_DIM_EDIT
 70
     0
  0
APPID
  2
AMDT_DM_ADJ
 70
     0
  0
APPID
  2
ACAD_PSEXT
 70
     0
  0
APPID
  2
ACAD_DSTYLE_DIMJAG
 70
     0
  0
APPID
  2
ACAD_DSTYLE_DIMBREAK
 70
     0
  0
APPID
  2
ACAD_NAV_VCDISPLAY
 70
     0
  0
APPID
  2
ACADANNOPO
 70
     0
  0
APPID
  2
ACAD_EXEMPT_FROM_CAD_STANDARDS
 70
     0
  0
APPID
  2
ACAD_MLEADERVER
 70
     0
  0
ENDTAB
  0
TABLE
  2
DIMSTYLE
 70
    22
  0
DIMSTYLE
  2
STANDARD
 70
     0
  3

  4

  5

  6

  7

 40
1.0
 41
0.18
 42
0.0625
 43
0.38
 44
0.18
 45
0.0
 46
0.0
 47
0.0
 48
0.0
140
0.18
141
0.09
142
0.0
143
25.399999999999999
144
1.0
145
0.0
146
1.0
147
0.09
 71
     0
 72
     0
 73
     1
 74
     1
 75
     0
 76
     0
 77
     0
 78
     0
170
     0
171
     2
172
     0
173
     0
174
     0
175
     0
176
     0
177
     0
178
     0
  0
DIMSTYLE
  2
ANNOTATIVE
 70
     0
  3

  4

  5

  6

  7

 40
1.0
 41
0.18
 42
0.0625
 43
0.38
 44
0.18
 45
0.0
 46
0.0
 47
0.0
 48
0.0
140
0.18
141
0.09
142
0.0
143
25.399999999999999
144
1.0
145
0.0
146
1.0
147
0.09
 71
     0
 72
     0
 73
     1
 74
     1
 75
     0
 76
     0
 77
     0
 78
     0
170
     0
171
     2
172
     0
173
     0
174
     0
175
     0
176
     0
177
     0
178
     0
  0
DIMSTYLE
  2
AM_ISO
 70
     0
  3

  4
"
  5

  6

  7

 40
1.0
 41
2.5
 42
1.0
 43
8.0
 44
0.6
 45
0.0
 46
0.0
 47
0.1
 48
0.1
140
2.5
141
0.0
142
0.0
143
0.0393701
144
1.0
145
0.0
146
0.71
147
0.8
 71
     0
 72
     0
 73
     0
 74
     0
 75
     0
 76
     0
 77
     1
 78
     8
170
     0
171
     2
172
     1
173
     0
174
     0
175
     0
176
   256
177
   256
178
     4
  0
DIMSTYLE
  2
AM_ISO$3
 70
     0
  3

  4
"
  5

  6

  7

 40
1.0
 41
2.5
 42
1.0
 43
8.0
 44
0.6
 45
0.0
 46
0.0
 47
0.1
 48
0.1
140
2.5
141
0.0
142
0.0
143
0.0393701
144
1.0
145
0.0
146
0.71
147
0.8
 71
     0
 72
     0
 73
     0
 74
     1
 75
     0
 76
     0
 77
     1
 78
     8
170
     0
171
     2
172
     0
173
     0
174
     0
175
     0
176
   256
177
   256
178
     4
  0
DIMSTYLE
  2
AM_ISO$4
 70
     0
  3

  4
"
  5

  6

  7

 40
1.0
 41
2.5
 42
1.0
 43
8.0
 44
0.6
 45
0.0
 46
0.0
 47
0.1
 48
0.1
140
2.5
141
0.0
142
0.0
143
0.0393701
144
1.0
145
0.0
146
0.71
147
0.8
 71
     0
 72
     0
 73
     0
 74
     1
 75
     0
 76
     0
 77
     1
 78
     8
170
     0
171
     2
172
     0
173
     0
174
     0
175
     0
176
   256
177
   256
178
     4
  0
DIMSTYLE
  2
AM_ISO$6
 70
     0
  3

  4
"
  5

  6

  7

 40
1.0
 41
2.5
 42
1.0
 43
8.0
 44
0.6
 45
0.0
 46
0.0
 47
0.1
 48
0.1
140
2.5
141
0.0
142
0.0
143
0.0393701
144
1.0
145
0.0
146
0.71
147
0.8
 71
     0
 72
     0
 73
     0
 74
     0
 75
     0
 76
     0
 77
     0
 78
     8
170
     0
171
     2
172
     1
173
     0
174
     0
175
     0
176
   256
177
   256
178
     4
  0
DIMSTYLE
  2
AM_ISO$7
 70
     0
  3

  4
"
  5

  6

  7

 40
1.0
 41
2.5
 42
1.0
 43
8.0
 44
0.6
 45
0.0
 46
0.0
 47
0.1
 48
0.1
140
2.5
141
0.0
142
0.0
143
0.0393701
144
1.0
145
0.0
146
0.71
147
0.8
 71
     0
 72
     0
 73
     0
 74
     0
 75
     0
 76
     0
 77
     1
 78
     8
170
     0
171
     2
172
     1
173
     0
174
     0
175
     0
176
   256
177
   256
178
     4
  0
DIMSTYLE
  2
AM_ISO$SF
 70
     0
  3

  4
"
  5

  6

  7

 40
1.0
 41
2.5
 42
1.0
 43
10.0
 44
1.0
 45
0.0
 46
0.0
 47
0.1
 48
0.1
140
3.5
141
0.0
142
0.0
143
0.0393701
144
1.0
145
0.0
146
0.71
147
1.5
 71
     0
 72
     0
 73
     0
 74
     0
 75
     1
 76
     1
 77
     1
 78
     8
170
     0
171
     2
172
     1
173
     0
174
     0
175
     0
176
   256
177
   256
178
     2
  0
DIMSTYLE
  2
AM_ISO$SH
 70
     0
  3

  4
"
  5

  6

  7

 40
1.0
 41
2.5
 42
1.0
 43
10.0
 44
1.0
 45
0.0
 46
0.0
 47
0.1
 48
0.1
140
3.5
141
0.0
142
0.0
143
0.0393701
144
2.0
145
0.0
146
0.71
147
1.5
 71
     0
 72
     0
 73
     0
 74
     0
 75
     1
 76
     1
 77
     1
 78
     8
170
     0
171
     2
172
     1
173
     1
174
     0
175
     0
176
   256
177
   256
178
     2
  0
DIMSTYLE
  2
AM_JIS
 70
     0
  3

  4
"
  5

  6

  7

 40
1.0
 41
2.5
 42
1.0
 43
7.0
 44
1.0
 45
0.0
 46
0.0
 47
0.1
 48
0.1000000001
140
2.5
141
0.0
142
0.0
143
0.0393701
144
1.0
145
0.0
146
0.71
147
1.0
 71
     0
 72
     0
 73
     0
 74
     0
 75
     0
 76
     0
 77
     3
 78
     8
170
     0
171
     2
172
     1
173
     0
174
     0
175
     0
176
   256
177
   256
178
     4
  0
DIMSTYLE
  2
AM_JIS$3
 70
     0
  3

  4
"
  5

  6

  7

 40
1.0
 41
2.5
 42
1.0
 43
7.0
 44
1.0
 45
0.0
 46
0.0
 47
0.1
 48
0.1000000001
140
2.5
141
0.0
142
0.0
143
0.0393701
144
1.0
145
0.0
146
0.71
147
1.0
 71
     0
 72
     0
 73
     0
 74
     1
 75
     0
 76
     0
 77
     3
 78
     8
170
     0
171
     2
172
     0
173
     0
174
     0
175
     0
176
   256
177
   256
178
     4
  0
DIMSTYLE
  2
AM_JIS$4
 70
     0
  3

  4
"
  5

  6

  7

 40
1.0
 41
2.5
 42
1.0
 43
7.0
 44
1.0
 45
0.0
 46
0.0
 47
0.1
 48
0.1000000001
140
2.5
141
0.0
142
0.0
143
0.0393701
144
1.0
145
0.0
146
0.71
147
1.0
 71
     0
 72
     0
 73
     0
 74
     0
 75
     0
 76
     0
 77
     3
 78
     8
170
     0
171
     2
172
     0
173
     0
174
     0
175
     0
176
   256
177
   256
178
     4
  0
DIMSTYLE
  2
AM_JIS$6
 70
     0
  3

  4
"
  5

  6

  7

 40
1.0
 41
2.5
 42
1.0
 43
7.0
 44
1.0
 45
0.0
 46
0.0
 47
0.1
 48
0.1000000001
140
2.5
141
0.0
142
0.0
143
0.0393701
144
1.0
145
0.0
146
0.71
147
1.0
 71
     0
 72
     0
 73
     0
 74
     0
 75
     0
 76
     0
 77
     0
 78
     8
170
     0
171
     2
172
     1
173
     0
174
     0
175
     0
176
   256
177
   256
178
     4
  0
DIMSTYLE
  2
AM_JIS$7
 70
     0
  3

  4
"
  5

  6

  7

 40
1.0
 41
2.5
 42
1.0
 43
7.0
 44
1.0
 45
0.0
 46
0.0
 47
0.1
 48
0.1000000001
140
2.5
141
0.0
142
0.0
143
0.0393701
144
1.0
145
0.0
146
0.71
147
1.0
 71
     0
 72
     0
 73
     0
 74
     0
 75
     0
 76
     0
 77
     3
 78
     8
170
     0
171
     2
172
     1
173
     0
174
     0
175
     0
176
   256
177
   256
178
     4
  0
DIMSTYLE
  2
AM_JIS$SF
 70
     0
  3

  4
"
  5

  6

  7

 40
1.0
 41
2.5
 42
1.0
 43
10.0
 44
1.0
 45
0.0
 46
0.0
 47
0.1
 48
0.1
140
3.5
141
0.0
142
0.0
143
0.0393701
144
1.0
145
0.0
146
0.71
147
1.5
 71
     0
 72
     0
 73
     0
 74
     0
 75
     1
 76
     1
 77
     3
 78
     8
170
     0
171
     2
172
     1
173
     0
174
     0
175
     0
176
   256
177
   256
178
     4
  0
DIMSTYLE
  2
AM_JIS$SH
 70
     0
  3

  4
"
  5

  6

  7

 40
1.0
 41
2.5
 42
1.0
 43
10.0
 44
1.0
 45
0.0
 46
0.0
 47
0.1
 48
0.1
140
3.5
141
0.0
142
0.0
143
0.0393701
144
1.0
145
0.0
146
0.71
147
1.5
 71
     0
 72
     0
 73
     0
 74
     0
 75
     1
 76
     0
 77
     3
 78
     8
170
     0
171
     2
172
     1
173
     1
174
     0
175
     0
176
   256
177
   256
178
     4
  0
DIMSTYLE
  2
AM_ANSI
 70
     0
  3

  4
mm
  5

  6

  7

 40
1.0
 41
0.12
 42
0.05
 43
0.5
 44
0.1
 45
0.0
 46
0.0
 47
0.1
 48
0.1
140
0.12
141
0.0
142
0.0
143
25.399999999999999
144
1.0
145
0.0
146
0.71
147
0.06
 71
     0
 72
     0
 73
     1
 74
     1
 75
     0
 76
     0
 77
     0
 78
     7
170
     0
171
     2
172
     0
173
     0
174
     0
175
     0
176
   256
177
   256
178
     2
  0
DIMSTYLE
  2
AM_ANSI$3
 70
     0
  3

  4
mm
  5

  6

  7

 40
1.0
 41
0.12
 42
0.05
 43
0.5
 44
0.1
 45
0.0
 46
0.0
 47
0.1
 48
0.1
140
0.12
141
0.0
142
0.0
143
25.399999999999999
144
1.0
145
0.0
146
0.71
147
0.06
 71
     0
 72
     0
 73
     1
 74
     1
 75
     0
 76
     0
 77
     0
 78
     7
170
     0
171
     2
172
     0
173
     0
174
     0
175
     0
176
   256
177
   256
178
     2
  0
DIMSTYLE
  2
AM_ANSI$4
 70
     0
  3

  4
mm
  5

  6

  7

 40
1.0
 41
0.12
 42
0.05
 43
0.5
 44
0.1
 45
0.0
 46
0.0
 47
0.1
 48
0.1
140
0.12
141
0.0
142
0.0
143
25.399999999999999
144
1.0
145
0.0
146
0.71
147
0.06
 71
     0
 72
     0
 73
     1
 74
     1
 75
     0
 76
     0
 77
     0
 78
     7
170
     0
171
     2
172
     0
173
     0
174
     0
175
     0
176
   256
177
   256
178
     2
  0
DIMSTYLE
  2
AM_ANSI$7
 70
     0
  3

  4
mm
  5

  6

  7

 40
1.0
 41
0.12
 42
0.05
 43
0.5
 44
0.1
 45
0.0
 46
0.0
 47
0.1
 48
0.1
140
0.12
141
0.0
142
0.0
143
25.399999999999999
144
1.0
145
0.0
146
0.71
147
0.06
 71
     0
 72
     0
 73
     1
 74
     1
 75
     0
 76
     0
 77
     0
 78
     7
170
     0
171
     2
172
     0
173
     0
174
     0
175
     0
176
   256
177
   256
178
     2
  0
DIMSTYLE
  2
AM_ANSI$SF
 70
     0
  3

  4
mm
  5

  6

  7

 40
1.0
 41
0.12
 42
0.05
 43
0.5
 44
0.1
 45
0.0
 46
0.0
 47
0.1
 48
0.1
140
0.12
141
0.0
142
0.0
143
25.399999999999999
144
1.0
145
0.0
146
0.71
147
0.06
 71
     0
 72
     0
 73
     1
 74
     1
 75
     1
 76
     1
 77
     0
 78
     7
170
     0
171
     2
172
     0
173
     0
174
     0
175
     0
176
   256
177
   256
178
     2
  0
DIMSTYLE
  2
AM_ANSI$SH
 70
     0
  3

  4
mm
  5

  6
GENAXEH
  7

 40
1.0
 41
0.12
 42
0.05
 43
0.5
 44
0.1
 45
0.0
 46
0.0
 47
0.1
 48
0.1
140
0.12
141
0.0
142
0.0
143
25.399999999999999
144
1.0
145
0.0
146
0.71
147
0.06
 71
     0
 72
     0
 73
     1
 74
     1
 75
     1
 76
     1
 77
     0
 78
     7
170
     0
171
     2
172
     0
173
     1
174
     0
175
     0
176
   256
177
   256
178
     2
  0
ENDTAB
  0
ENDSEC
  0
SECTION
  2
BLOCKS
  0
BLOCK
  8
0
  2
$MODEL_SPACE
 70
     0
 10
0.0
 20
0.0
 30
0.0
  3
$MODEL_SPACE
  1

  0
ENDBLK
  5
8184
  8
0
  0
BLOCK
 67
     1
  8
0
  2
$PAPER_SPACE
 70
     0
 10
0.0
 20
0.0
 30
0.0
  3
$PAPER_SPACE
  1

  0
ENDBLK
  5
8180
 67
     1
  8
0
  0
BLOCK
  8
0
  2
GENAXEH
 70
     0
 10
0.0
 20
0.0
 30
0.0
  3
GENAXEH
  1

  0
LINE
  5
73
  8
0
 10
-1.0
 20
0.0
 30
0.0
 11
1.0
 21
0.0
 31
0.0
  0
ENDBLK
  5
75
  8
0
  0
BLOCK
  8
0
  2
_OPEN30
 70
     0
 10
0.0
 20
0.0
 30
0.0
  3
_OPEN30
  1

  0
LINE
  5
31A
  8
0
 62
     0
 10
-1.0
 20
0.26794919
 30
0.0
 11
0.0
 21
0.0
 31
0.0
  0
LINE
  5
31B
  8
0
 62
     0
 10
0.0
 20
0.0
 30
0.0
 11
-1.0
 21
-0.26794919
 31
0.0
  0
LINE
  5
31C
  8
0
 62
     0
 10
0.0
 20
0.0
 30
0.0
 11
-1.0
 21
0.0
 31
0.0
  0
ENDBLK
  5
31E
  8
0
  0
BLOCK
  8
0
  2
_NONE
 70
     0
 10
0.0
 20
0.0
 30
0.0
  3
_NONE
  1

  0
ENDBLK
  5
579
  8
0
  0
BLOCK
  8
0
  2
*U5
 70
     1
 10
0.0
 20
0.0
 30
0.0
  3
*U5
  1

  0
TEXT
  5
808F
  8
AM_0
 10
581.14089835792845
 20
518.19965977743186
 30
0.0
 40
10.0
  1
ＶＸ０４－０６０～１００ＢＦＷ
 41
0.8299999999999999
  0
ENDBLK
  5
8091
  8
0
  0
BLOCK
  8
0
  2
_ACMFILLEDHALF
 70
     0
 10
0.0
 20
0.0
 30
0.0
  3
_ACMFILLEDHALF
  1

  0
TRACE
  5
8282
  8
AM_0
 62
     0
 10
-0.8
 20
0.0
 30
0.0
 11
-1.0
 21
0.166666666
 31
0.0
 12
0.0
 22
0.0
 32
0.0
 13
0.0
 23
0.0
 33
0.0
  0
LINE
  5
8283
  8
AM_0
 62
     0
 10
-1.0
 20
0.0
 30
0.0
 11
-0.8
 21
0.0
 31
0.0
  0
ENDBLK
  5
8281
  8
0
  0
ENDSEC
  0
SECTION
  2
ENTITIES
  0
LINE
  5
5F93
  8
ﾁｭｳｼﾝｾﾝ1
 10
141.9326823051675
 20
235.96923646397559
 30
0.0
 11
179.91616947074311
 21
235.96923646397559
 31
0.0
  0
LINE
  5
5F94
  8
AM_0
 10
127.416179470743
 20
278.41168277578402
 30
0.0
 11
127.416179470743
 21
202.6877375565567
 31
0.0
  0
LINE
  5
5F95
  8
AM_0
 10
171.91616947074311
 20
174.6192424639755
 30
0.0
 11
136.91615947074311
 21
176.64924346397561
 31
0.0
  0
LINE
  5
5F96
  8
AM_0
 10
171.91616947074311
 20
267.31925146397549
 30
0.0
 11
136.91615947074311
 21
265.2892414639756
 31
0.0
  0
LINE
  5
5F97
  8
AM_0
 10
127.416179470743
 20
163.52682744976281
 30
0.0
 11
129.73616947074311
 21
163.4692324639756
 31
0.0
  0
LINE
  5
5F98
  8
AM_0
 10
274.91621947074321
 20
157.46924746397551
 30
0.0
 11
281.91617947074297
 21
157.46924746397551
 31
0.0
  0
LINE
  5
5F99
  8
AM_0
 10
274.91621947074321
 20
168.92924146397559
 30
0.0
 11
281.91617947074297
 21
168.92924146397559
 31
0.0
  0
LINE
  5
5F9A
  8
AM_0
 10
171.91616947074311
 20
174.6192424639755
 30
0.0
 11
273.91616947074323
 21
174.6192424639755
 31
0.0
  0
LINE
  5
5F9B
  8
AM_0
 10
273.6261894707431
 20
169.93923646397559
 30
0.0
 11
271.21622947074309
 21
169.93923646397559
 31
0.0
  0
LINE
  5
5F9C
  8
AM_0
 10
270.71615947074309
 20
162.0492364639756
 30
0.0
 11
272.15615947074309
 21
168.7492324639754
 31
0.0
  0
LINE
  5
5F9D
  8
AM_0
 10
268.62617947074301
 20
160.46925046397561
 30
0.0
 11
273.91616947074323
 21
160.46925046397561
 31
0.0
  0
LINE
  5
5F9E
  8
AM_0
 10
131.59616947074309
 20
187.59922546397561
 30
0.0
 11
174.91616947074311
 21
187.59922546397561
 31
0.0
  0
LINE
  5
5F9F
  8
AM_0
 10
174.91616947074311
 20
184.9692334639756
 30
0.0
 11
132.46622947074309
 21
184.9692334639756
 31
0.0
  0
LINE
  5
5FA0
  8
AM_0
 10
131.59616947074309
 20
184.2492484639755
 30
0.0
 11
174.91616947074311
 21
184.2492484639755
 31
0.0
  0
LINE
  5
5FA1
  8
AM_0
 10
127.416179470743
 20
186.66923146397551
 30
0.0
 11
130.08620947074311
 21
186.66923146397551
 31
0.0
  0
LINE
  5
5FA2
  8
AM_0
 10
133.08620947074311
 20
162.70923946397551
 30
0.0
 11
146.41616947074311
 21
162.70923946397551
 31
0.0
  0
LINE
  5
5FA3
  8
AM_0
 10
149.916179470743
 20
159.1092334639755
 30
0.0
 11
266.7261594707432
 21
159.1092334639755
 31
0.0
  0
LINE
  5
5FA4
  8
AM_0
 10
133.02614947074309
 20
157.66924546397561
 30
0.0
 11
146.52614947074309
 21
157.66924546397561
 31
0.0
  0
LINE
  5
5FA5
  8
AM_0
 10
133.14620947074309
 20
167.9892244639754
 30
0.0
 11
146.41616947074311
 21
167.9892244639754
 31
0.0
  0
LINE
  5
5FA6
  8
AM_0
 10
130.6361394707431
 20
172.61924446397549
 30
0.0
 11
131.1761694707431
 21
169.6292374639755
 31
0.0
  0
LINE
  5
5FA7
  8
AM_0
 10
127.416179470743
 20
172.6192294639755
 30
0.0
 11
136.9162194707431
 21
172.6192294639755
 31
0.0
  0
LINE
  5
5FA8
  8
AM_0
 10
136.9162194707431
 20
172.6192294639755
 30
0.0
 11
136.9162194707431
 21
186.66923146397551
 31
0.0
  0
LINE
  5
5FA9
  8
AM_0
 10
268.65614947074312
 20
160.5892444639754
 30
0.0
 11
272.1161694707431
 21
173.50924246397551
 31
0.0
  0
LINE
  5
5FAA
  8
AM_0
 10
131.08613947074321
 20
159.17924146397559
 30
0.0
 11
130.1961294707431
 21
162.7192324639754
 31
0.0
  0
LINE
  5
5FAB
  8
AM_0
 10
131.10617947074309
 20
160.83924346397541
 30
0.0
 11
130.18613947074309
 21
164.7192484639755
 31
0.0
  0
LINE
  5
5FAC
  8
AM_0
 10
204.9161694707432
 20
157.05923146397561
 30
0.0
 11
204.9161694707432
 21
159.1092334639755
 31
0.0
  0
LINE
  5
5FAD
  8
AM_0
 10
147.91616947074311
 20
159.0792484639754
 30
0.0
 11
147.91616947074311
 21
166.4892214639755
 31
0.0
  0
LINE
  5
5FAE
  8
AM_0
 10
128.74616947074321
 20
163.84923946397541
 30
0.0
 11
130.396199470743
 21
163.84923946397541
 31
0.0
  0
LINE
  5
5FAF
  8
AM_0
 10
171.91616947074311
 20
267.31922146397551
 30
0.0
 11
273.91616947074323
 21
267.31922146397551
 31
0.0
  0
LINE
  5
5FB0
  8
AM_0
 10
273.91616947074323
 20
283.46924146397549
 30
0.0
 11
273.91616947074323
 21
158.46923446397551
 31
0.0
  0
LINE
  5
5FB1
  8
AM_0
 10
274.91621947074321
 20
284.46923146397558
 30
0.0
 11
281.91617947074297
 21
284.46923146397558
 31
0.0
  0
LINE
  5
5FB2
  8
AM_0
 10
273.91616947074323
 20
258.1192294639755
 30
0.0
 11
281.91617947074297
 21
258.1192294639755
 31
0.0
  0
LINE
  5
5FB3
  8
AM_0
 10
274.91621947074321
 20
273.0092014639755
 30
0.0
 11
281.91617947074297
 21
273.0092014639755
 31
0.0
  0
LINE
  5
5FB4
  8
AM_0
 10
273.91616947074323
 20
183.81924046397549
 30
0.0
 11
281.91617947074297
 21
183.81924046397549
 31
0.0
  0
LINE
  5
5FB5
  8
AM_0
 10
127.416179470743
 20
278.41168277578402
 30
0.0
 11
129.73610947074309
 21
278.4692614639755
 31
0.0
  0
LINE
  5
5FB6
  8
AM_0
 10
136.9162194707431
 20
269.3192314639756
 30
0.0
 11
136.9162194707431
 21
255.27923446397551
 31
0.0
  0
LINE
  5
5FB7
  8
AM_0
 10
127.416179470743
 20
255.27923446397551
 30
0.0
 11
136.9162194707431
 21
255.27923446397551
 31
0.0
  0
LINE
  5
5FB8
  8
AM_0
 10
127.416179470743
 20
263.65925146397558
 30
0.0
 11
136.9162194707431
 21
263.65925146397558
 31
0.0
  0
LINE
  5
5FB9
  8
AM_0
 10
127.416179470743
 20
269.3192314639756
 30
0.0
 11
136.9162194707431
 21
269.3192314639756
 31
0.0
  0
LINE
  5
5FBA
  8
AM_0
 10
152.2078478040753
 20
206.9692504639755
 30
0.0
 11
132.46622947074309
 21
206.9692504639755
 31
0.0
  0
LINE
  5
5FBB
  8
AM_0
 10
149.916179470743
 20
282.82925146397548
 30
0.0
 11
266.7261594707432
 21
282.82925146397548
 31
0.0
  0
LINE
  5
5FBC
  8
AM_0
 10
133.14620947074309
 20
273.94925146397549
 30
0.0
 11
146.41616947074311
 21
273.94925146397549
 31
0.0
  0
LINE
  5
5FBD
  8
AM_0
 10
130.63619947074309
 20
269.31926146397552
 30
0.0
 11
131.1761694707431
 21
272.30927146397551
 31
0.0
  0
LINE
  5
5FBE
  8
AM_0
 10
133.08620947074311
 20
279.23921146397561
 30
0.0
 11
146.41616947074311
 21
279.23921146397561
 31
0.0
  0
LINE
  5
5FBF
  8
AM_0
 10
133.0561794707431
 20
282.63923146397548
 30
0.0
 11
146.41616947074311
 21
282.63923146397548
 31
0.0
  0
LINE
  5
5FC0
  8
AM_0
 10
133.02614947074309
 20
284.26922146397561
 30
0.0
 11
146.52614947074309
 21
284.26922146397561
 31
0.0
  0
LINE
  5
5FC1
  8
AM_0
 10
149.916179470743
 20
286.88924146397551
 30
0.0
 11
202.9162194707431
 21
286.88924146397551
 31
0.0
  0
LINE
  5
5FC2
  8
AM_0
 10
149.916179470743
 20
286.20923146397558
 30
0.0
 11
202.9162194707431
 21
286.20923146397558
 31
0.0
  0
LINE
  5
5FC3
  8
AM_0
 10
149.916179470743
 20
284.8592614639756
 30
0.0
 11
202.9162194707431
 21
284.8592614639756
 31
0.0
  0
LINE
  5
5FC4
  8
AM_0
 10
128.7061494707431
 20
272.00924146397551
 30
0.0
 11
131.1161694707431
 21
272.00924146397551
 31
0.0
  0
LINE
  5
5FC5
  8
AM_0
 10
131.12612947074311
 20
277.6592614639755
 30
0.0
 11
130.16609947074309
 21
273.18926146397558
 31
0.0
  0
LINE
  5
5FC6
  8
AM_0
 10
128.72615947074311
 20
276.0692314639756
 30
0.0
 11
130.786229470743
 21
276.0692314639756
 31
0.0
  0
LINE
  5
5FC7
  8
AM_0
 10
174.91616947074311
 20
256.96923646397562
 30
0.0
 11
141.46622947074309
 21
256.96923646397562
 31
0.0
  0
LINE
  5
5FC8
  8
AM_0
 10
174.91616947074311
 20
254.96923546397571
 30
0.0
 11
141.46622947074309
 21
254.96923546397559
 31
0.0
  0
LINE
  5
5FC9
  8
AM_0
 10
148.51749957439731
 20
246.96923746397539
 30
0.0
 11
141.46592266907749
 21
246.96923746397539
 31
0.0
  0
LINE
  5
5FCA
  8
AM_0
 10
131.10617947074309
 20
281.0992414639756
 30
0.0
 11
130.18619947074311
 21
277.2192514639757
 31
0.0
  0
LINE
  5
5FCB
  8
AM_0
 10
146.11749837439729
 20
244.96923646397551
 30
0.0
 11
141.46622947074309
 21
244.96923646397551
 31
0.0
  0
LINE
  5
5FCC
  8
AM_0
 10
128.74616947074321
 20
278.0892214639756
 30
0.0
 11
130.396199470743
 21
278.0892214639756
 31
0.0
  0
LINE
  5
5FCD
  8
AM_0
 10
131.08613947074321
 20
282.75923146397548
 30
0.0
 11
130.1961294707431
 21
279.22925146397552
 31
0.0
  0
LINE
  5
5FCE
  8
AM_0
 10
145.51749837439721
 20
236.96923546397571
 30
0.0
 11
132.46622947074309
 21
236.96923546397559
 31
0.0
  0
LINE
  5
5FCF
  8
AM_0
 10
147.91616947074311
 20
282.8592214639757
 30
0.0
 11
147.91616947074311
 21
275.4492514639756
 31
0.0
  0
LINE
  5
5FD0
  8
AM_0
 10
145.51749837439721
 20
234.96923746397559
 30
0.0
 11
132.46622947074309
 21
234.96923746397559
 31
0.0
  0
LINE
  5
5FD1
  8
AM_0
 10
146.1174983743968
 20
226.96923646397559
 30
0.0
 11
132.46622947074309
 21
226.96923646397559
 31
0.0
  0
LINE
  5
5FD2
  8
AM_0
 10
204.9161694707432
 20
284.88923146397548
 30
0.0
 11
204.9161694707432
 21
282.82925146397548
 31
0.0
  0
LINE
  5
5FD3
  8
AM_0
 10
148.87954830957909
 20
224.96923546397539
 30
0.0
 11
132.46622947074309
 21
224.96923546397539
 31
0.0
  0
LINE
  5
5FD4
  8
AM_0
 10
268.65614947074312
 20
281.34923146397563
 30
0.0
 11
272.1161694707431
 21
268.42925146397562
 31
0.0
  0
LINE
  5
5FD5
  8
AM_0
 10
268.62617947074301
 20
281.46923146397558
 30
0.0
 11
273.91616947074323
 21
281.46923146397558
 31
0.0
  0
LINE
  5
5FD6
  8
AM_0
 10
273.6261894707431
 20
272.00924146397551
 30
0.0
 11
271.21622947074309
 21
272.00924146397551
 31
0.0
  0
LINE
  5
5FD7
  8
AM_0
 10
270.71621947074323
 20
279.8892514639756
 30
0.0
 11
272.15621947074311
 21
273.18926146397558
 31
0.0
  0
LINE
  5
5FD8
  8
AM_0
 10
149.916179470743
 20
155.04923446397541
 30
0.0
 11
202.9162194707431
 21
155.04923446397541
 31
0.0
  0
LINE
  5
5FD9
  8
AM_0
 10
133.0561794707431
 20
159.29925046397551
 30
0.0
 11
146.41616947074311
 21
159.29925046397551
 31
0.0
  0
LINE
  5
5FDA
  8
AM_0
 10
127.416179470743
 20
178.27923046397549
 30
0.0
 11
136.9162194707431
 21
178.27923046397549
 31
0.0
  0
LINE
  5
5FDB
  8
AM_0
 10
149.916179470743
 20
155.7292444639755
 30
0.0
 11
202.9162194707431
 21
155.7292444639755
 31
0.0
  0
LINE
  5
5FDC
  8
AM_0
 10
128.72615947074311
 20
165.86922646397551
 30
0.0
 11
130.786229470743
 21
165.86922646397551
 31
0.0
  0
LINE
  5
5FDD
  8
AM_0
 10
128.7061494707431
 20
169.93923646397559
 30
0.0
 11
131.1161694707431
 21
169.93923646397559
 31
0.0
  0
LINE
  5
5FDE
  8
AM_0
 10
131.1261894707431
 20
164.2892404639756
 30
0.0
 11
130.16615947074311
 21
168.7492324639754
 31
0.0
  0
LINE
  5
5FDF
  8
AM_0
 10
149.916179470743
 20
157.07923546397541
 30
0.0
 11
202.9162194707431
 21
157.07923546397541
 31
0.0
  0
LINE
  5
5FE0
  8
AM_0
 10
131.37617947074301
 20
194.47923046397551
 30
0.0
 11
152.61617447074221
 21
194.47923046397551
 31
0.0
  0
LINE
  5
5FE1
  8
AM_0
 10
174.91616947074311
 20
186.96923446397551
 30
0.0
 11
132.90620947074319
 21
186.96923446397551
 31
0.0
  0
LINE
  5
5FE2
  8
AM_0
 10
140.59616947074309
 20
257.68923646397559
 30
0.0
 11
174.91616947074311
 21
257.68923646397559
 31
0.0
  0
LINE
  5
5FE3
  8
AM_0
 10
140.59616947074309
 20
254.33923246397561
 30
0.0
 11
174.91616947074311
 21
254.33923246397561
 31
0.0
  0
LINE
  5
5FE4
  8
AM_0
 10
140.37617947074301
 20
247.45922746397559
 30
0.0
 11
156.01749837439721
 21
247.45922746397559
 31
0.0
  0
LINE
  5
5FE5
  8
AM_0
 10
158.51749837439721
 20
247.45922746397559
 30
0.0
 11
165.91616947074311
 21
247.45922746397559
 31
0.0
  0
LINE
  5
5FE6
  8
AM_0
 10
140.37617947074301
 20
244.52923246397549
 30
0.0
 11
145.66848474468361
 21
244.52923246397549
 31
0.0
  0
LINE
  5
5FE7
  8
AM_0
 10
131.2461894707431
 20
237.30923146397549
 30
0.0
 11
145.51749837439721
 21
237.30923146397549
 31
0.0
  0
LINE
  5
5FE8
  8
AM_0
 10
131.2461894707431
 20
234.64922746397551
 30
0.0
 11
145.51749837439721
 21
234.64922746397551
 31
0.0
  0
LINE
  5
5FE9
  8
AM_0
 10
131.1861894707431
 20
227.2392244639756
 30
0.0
 11
145.79351277439659
 21
227.2392244639756
 31
0.0
  0
LINE
  5
5FEA
  8
AM_0
 10
131.1861894707431
 20
224.70922546397571
 30
0.0
 11
156.01749837439721
 21
224.70922546397571
 31
0.0
  0
LINE
  5
5FEB
  8
AM_0
 10
131.1861894707431
 20
217.23924046397551
 30
0.0
 11
173.9161694707432
 21
217.23924046397551
 31
0.0
  0
LINE
  5
5FEC
  8
AM_0
 10
173.9161694707432
 20
214.96923646397559
 30
0.0
 11
132.46622947074309
 21
214.96923646397559
 31
0.0
  0
LINE
  5
5FED
  8
AM_0
 10
173.9161694707432
 20
216.9692344639756
 30
0.0
 11
132.46622947074309
 21
216.9692344639756
 31
0.0
  0
LINE
  5
5FEE
  8
AM_0
 10
131.2461894707431
 20
207.28924246397551
 30
0.0
 11
152.47450780407479
 21
207.28924246397551
 31
0.0
  0
LINE
  5
5FEF
  8
AM_0
 10
146.91616947074311
 20
204.9692344639756
 30
0.0
 11
132.46622947074309
 21
204.9692344639756
 31
0.0
  0
LINE
  5
5FF0
  8
AM_0
 10
131.2461894707431
 20
204.62922346397559
 30
0.0
 11
146.91616947074311
 21
204.62922346397559
 31
0.0
  0
LINE
  5
5FF1
  8
AM_0
 10
146.916169470743
 20
196.96923346397551
 30
0.0
 11
132.46622947074309
 21
196.96923346397551
 31
0.0
  0
LINE
  5
5FF2
  8
AM_0
 10
131.37617947074301
 20
197.4092374639755
 30
0.0
 11
146.91616947074311
 21
197.4092374639755
 31
0.0
  0
LINE
  5
5FF3
  8
AM_0
 10
152.20782447074291
 20
194.9692504639755
 30
0.0
 11
132.46622947074309
 21
194.9692504639755
 31
0.0
  0
LINE
  5
5FF4
  8
AM_0
 10
131.1861894707431
 20
214.69924546397539
 30
0.0
 11
173.9161694707432
 21
214.69924546397539
 31
0.0
  0
ARC
  5
5FF5
  8
AM_0
 10
140.05685947074309
 20
179.75011846397561
 30
0.0
 40
1.00423602
 50
314.93782999999922
 51
5.664923900000927
  0
ARC
  5
5FF6
  8
AM_0
 10
274.91639947074322
 20
158.4694174639755
 30
0.0
 40
1.0001800499999991
 50
180.01030999999901
 51
269.98967999999991
  0
ARC
  5
5FF7
  8
AM_0
 10
266.72084947074308
 20
161.1146194639756
 30
0.0
 40
2.0053919100000002
 50
270.15274999999968
 51
344.81206999999978
  0
ARC
  5
5FF8
  8
AM_0
 10
274.91567947074321
 20
169.9287064639754
 30
0.0
 40
0.99947604
 50
179.97008999999869
 51
270.02992000000029
  0
ARC
  5
5FF9
  8
AM_0
 10
133.13723947074311
 20
271.95680146397558
 30
0.0
 40
1.9924480200000001
 50
89.742108000000741
 51
169.81178999999881
  0
ARC
  5
5FFA
  8
AM_0
 10
133.0810194707432
 20
277.23995146397561
 30
0.0
 40
1.9992880199999981
 50
89.851814999999618
 51
167.8943300000013
  0
ARC
  5
5FFB
  8
AM_0
 10
128.70047947074301
 20
273.50945146397549
 30
0.0
 40
1.5002480099999991
 50
270.21662000000089
 51
347.67499999999961
  0
ARC
  5
5FFC
  8
AM_0
 10
133.04825947074309
 20
280.64471146397563
 30
0.0
 40
1.9945160699999991
 50
89.771334999999524
 51
166.82803999999979
  0
ARC
  5
5FFD
  8
AM_0
 10
128.724629470743
 20
277.57304146397558
 30
0.0
 40
1.5037760099999991
 50
270.0598400000012
 51
346.39312999999879
  0
ARC
  5
5FFE
  8
AM_0
 10
128.73746947074309
 20
279.59243146397557
 30
0.0
 40
1.503232049999998
 50
270.33131999999961
 51
346.01803000000137
  0
ARC
  5
5FFF
  8
AM_0
 10
133.02272947074309
 20
282.27242146397549
 30
0.0
 40
1.996816109999999
 50
89.901436000000672
 51
165.88941000000099
  0
ARC
  5
6000
  8
AM_0
 10
149.91158947074311
 20
280.83386146397561
 30
0.0
 40
1.9953641399999991
 50
89.866758999999234
 51
180.13323000000119
  0
ARC
  5
6001
  8
AM_0
 10
149.9123694707431
 20
282.86303146397552
 30
0.0
 40
1.99618809
 50
89.890486999999737
 51
180.10951000000031
  0
ARC
  5
6002
  8
AM_0
 10
149.9097594707431
 20
284.21570146397562
 30
0.0
 40
1.993556189999999
 50
89.814515000000938
 51
180.1854899999997
  0
ARC
  5
6003
  8
AM_0
 10
149.91170947074309
 20
284.89049146397559
 30
0.0
 40
1.998724049999999
 50
89.871136999999536
 51
165.55095999999921
  0
ARC
  5
6004
  8
AM_0
 10
146.4095094707431
 20
275.45594146397559
 30
0.0
 40
1.5066999599999991
 50
270.25416000000098
 51
359.74583999999908
  0
ARC
  5
6005
  8
AM_0
 10
146.4133494707431
 20
280.74206146397557
 30
0.0
 40
1.5028360199999991
 50
270.10793999999891
 51
359.89206000000121
  0
ARC
  5
6006
  8
AM_0
 10
146.4113394707432
 20
284.14409146397549
 30
0.0
 40
1.5048719999999991
 50
270.1851800000012
 51
359.81481999999869
  0
ARC
  5
6007
  8
AM_0
 10
146.52278947074311
 20
285.77225146397558
 30
0.0
 40
1.50301605
 50
270.12944999999991
 51
345.23654000000067
  0
ARC
  5
6008
  8
AM_0
 10
202.91525947074319
 20
282.85829146397549
 30
0.0
 40
2.0009239199999991
 50
0.0264629989995744
 51
89.973535999999072
  0
ARC
  5
6009
  8
AM_0
 10
202.91786947074311
 20
284.2109314639755
 30
0.0
 40
1.9982920200000001
 50
359.95103000000051
 51
90.048974999998521
  0
ARC
  5
600A
  8
AM_0
 10
202.91438947074309
 20
284.88743146397559
 30
0.0
 40
2.0018279999999979
 50
0.0523009999990686
 51
89.947697000000545
  0
ARC
  5
600B
  8
AM_0
 10
273.56642947074312
 20
268.82162146397559
 30
0.0
 40
1.50239199
 50
195.14001000000141
 51
269.99063999999998
  0
ARC
  5
600C
  8
AM_0
 10
266.72573947074318
 20
280.8302614639756
 30
0.0
 40
1.99898796
 50
15.04780099999898
 51
89.987372999998755
  0
ARC
  5
600D
  8
AM_0
 10
274.91123947074328
 20
283.47419146397561
 30
0.0
 40
0.9950640599999999
 50
89.714938000000473
 51
180.28506000000129
  0
ARC
  5
600E
  8
AM_0
 10
274.91054947074321
 20
272.01485146397562
 30
0.0
 40
0.99440004
 50
89.676491000000041
 51
180.32351000000091
  0
ARC
  5
600F
  8
AM_0
 10
273.62204947074309
 20
273.50969146397551
 30
0.0
 40
1.5004760399999979
 50
192.3322299999987
 51
270.15827999999971
  0
ARC
  5
6010
  8
AM_0
 10
268.7636394707431
 20
279.47276146397547
 30
0.0
 40
1.9964880300000001
 50
12.04087499999966
 51
89.926440999999343
  0
ARC
  5
6011
  8
AM_0
 10
136.07447947074311
 20
262.56204046397551
 30
0.0
 40
5.004112499999998
 50
279.6835699999998
 51
354.57834000000088
  0
ARC
  5
6012
  8
AM_0
 10
136.53695947074311
 20
258.63632146397561
 30
0.0
 40
6.0049157999999991
 50
45.227306999999072
 51
86.379093999999796
  0
ARC
  5
6013
  8
AM_0
 10
140.06015947074309
 20
262.18951246397557
 30
0.0
 40
1.001108069999999
 50
354.25024999999829
 51
45.146993999999637
  0
ARC
  5
6014
  8
AM_0
 10
268.75862947074307
 20
162.4718434639756
 30
0.0
 40
2.0026238699999981
 50
270.21534000000139
 51
347.8173399999996
  0
ARC
  5
6015
  8
AM_0
 10
273.62324947074308
 20
168.43992046397551
 30
0.0
 40
1.499328059999999
 50
89.888151000000079
 51
168.09384000000071
  0
ARC
  5
6016
  8
AM_0
 10
136.54616947074311
 20
183.31641646397549
 30
0.0
 40
6.0085923000000001
 50
273.53094999999939
 51
314.61478000000108
  0
ARC
  5
6017
  8
AM_0
 10
136.07954947074299
 20
179.38116046397539
 30
0.0
 40
4.9985837999999987
 50
5.3731199000009289
 51
80.36497600000034
  0
ARC
  5
6018
  8
AM_0
 10
133.142249470743
 20
169.9876654639755
 30
0.0
 40
1.998444029999999
 50
190.3324000000004
 51
270.11369000000047
  0
ARC
  5
6019
  8
AM_0
 10
133.08107947074311
 20
164.7086134639755
 30
0.0
 40
1.9993920899999991
 50
192.10804000000149
 51
270.14581999999967
  0
ARC
  5
601A
  8
AM_0
 10
128.69930947074309
 20
168.4401514639755
 30
0.0
 40
1.499099999999999
 50
11.89856000000028
 51
89.736658000000475
  0
ARC
  5
601B
  8
AM_0
 10
133.05317947074309
 20
161.29999846397561
 30
0.0
 40
2.0007560699999991
 50
193.31416000000041
 51
270.0864499999999
  0
ARC
  5
601C
  8
AM_0
 10
128.72957947074309
 20
164.37173146397561
 30
0.0
 40
1.497512039999999
 50
13.41823300000142
 51
90.128792999998822
  0
ARC
  5
601D
  8
AM_0
 10
128.743979470743
 20
162.35111446397559
 30
0.0
 40
1.498128089999998
 50
14.224575000000939
 51
89.916113999998927
  0
ARC
  5
601E
  8
AM_0
 10
133.02767947074301
 20
159.67237546397561
 30
0.0
 40
2.0031319199999991
 50
194.2515899999988
 51
269.9575499999994
  0
ARC
  5
601F
  8
AM_0
 10
149.91665947074321
 20
161.10967546397561
 30
0.0
 40
2.000452109999999
 50
180.01290000000029
 51
269.98709999999971
  0
ARC
  5
6020
  8
AM_0
 10
149.91749947074311
 20
159.08054746397551
 30
0.0
 40
2.0013120899999981
 50
180.03755999999879
 51
269.9624400000011
  0
ARC
  5
6021
  8
AM_0
 10
149.914829470743
 20
157.72785346397541
 30
0.0
 40
1.9986199799999991
 50
179.96046999999851
 51
270.03953000000138
  0
ARC
  5
6022
  8
AM_0
 10
149.91011947074321
 20
157.05929146397551
 30
0.0
 40
2.0000761200000001
 50
194.77498000000151
 51
270.17352999999849
  0
ARC
  5
6023
  8
AM_0
 10
146.4146394707432
 20
166.4876674639755
 30
0.0
 40
1.5015680099999991
 50
0.0598050030010018
 51
89.940196999999216
  0
ARC
  5
6024
  8
AM_0
 10
146.41346947074311
 20
161.2065244639756
 30
0.0
 40
1.50271599
 50
0.1034359999993177
 51
89.896566000000206
  0
ARC
  5
6025
  8
AM_0
 10
146.41646947074321
 20
157.7994784639755
 30
0.0
 40
1.49975601
 50
359.99059000000068
 51
90.009407999999681
  0
ARC
  5
6026
  8
AM_0
 10
146.5277394707432
 20
156.1725874639755
 30
0.0
 40
1.49664405
 50
14.575739999999151
 51
90.058277999998381
  0
ARC
  5
6027
  8
AM_0
 10
202.91018947074309
 20
159.0852604639754
 30
0.0
 40
2.0060480100000002
 50
270.17248999999867
 51
359.82751000000133
  0
ARC
  5
6028
  8
AM_0
 10
202.9127994707431
 20
157.73259946397559
 30
0.0
 40
2.0033560499999989
 50
270.09594000000141
 51
359.90405999999848
  0
ARC
  5
6029
  8
AM_0
 10
202.91426947074311
 20
157.06112146397561
 30
0.0
 40
2.0019000299999989
 50
270.05438000000072
 51
359.94561999999922
  0
ARC
  5
602A
  8
AM_0
 10
273.56156947074322
 20
173.12325646397551
 30
0.0
 40
1.49599605
 50
89.821706999999776
 51
165.0476599999985
  0
ARC
  5
602B
  8
AM_0
 10
148.91141947074311
 20
255.96923746397559
 30
0.0
 40
1.000011959999999
 50
89.726507999999697
 51
270.27347999999972
  0
ARC
  5
602C
  8
AM_0
 10
131.180399470743
 20
225.9742414639756
 30
0.0
 40
1.26501207
 50
89.737716000001527
 51
270.26227999999981
  0
ARC
  5
602D
  8
AM_0
 10
131.2461894707431
 20
235.9792444639755
 30
0.0
 40
1.330008059999999
 50
90.000003000000945
 51
270.0
  0
ARC
  5
602E
  8
AM_0
 10
140.37617947074301
 20
245.9942314639755
 30
0.0
 40
1.465004009999999
 50
90.000003000000945
 51
270.0
  0
ARC
  5
602F
  8
AM_0
 10
140.58932947074311
 20
256.01421946397562
 30
0.0
 40
1.6750160999999979
 50
89.766540000000646
 51
270.23345999999941
  0
ARC
  5
6030
  8
AM_0
 10
132.46622947074309
 20
225.9692344639756
 30
0.0
 40
1.0000000199999981
 50
90.000003000000945
 51
270.0
  0
ARC
  5
6031
  8
AM_0
 10
132.46622947074309
 20
235.96923646397559
 30
0.0
 40
1.0000000199999981
 50
90.000003000000945
 51
270.0
  0
ARC
  5
6032
  8
AM_0
 10
141.46145947074311
 20
255.96923746397559
 30
0.0
 40
1.000011959999999
 50
89.728447999999375
 51
270.27153999999882
  0
ARC
  5
6033
  8
AM_0
 10
141.46145947074311
 20
245.96923546397559
 30
0.0
 40
1.000011959999999
 50
89.728447999999375
 51
270.27153999999882
  0
ARC
  5
6034
  8
AM_0
 10
270.73616947074322
 20
256.01421946397562
 30
0.0
 40
1.675004159999999
 50
276.1690557384461
 51
83.83094426155381
  0
ARC
  5
6035
  8
AM_0
 10
270.73616947074322
 20
185.92425046397551
 30
0.0
 40
1.675004159999999
 50
276.16905573844969
 51
83.830944261550229
  0
ARC
  5
6036
  8
AM_0
 10
132.46622947074309
 20
215.9692504639755
 30
0.0
 40
1.0000000199999981
 50
90.000003000000945
 51
270.0
  0
ARC
  5
6037
  8
AM_0
 10
148.91141947074311
 20
205.96923646397559
 30
0.0
 40
1.000011959999999
 50
89.726507999999697
 51
227.4054482572752
  0
ARC
  5
6038
  8
AM_0
 10
148.91141947074311
 20
195.96923446397551
 30
0.0
 40
1.000011959999999
 50
132.59438434211481
 51
270.27347999999972
  0
ARC
  5
6039
  8
AM_0
 10
131.2461894707431
 20
205.95924046397559
 30
0.0
 40
1.330008059999999
 50
90.000003000000945
 51
270.0
  0
ARC
  5
603A
  8
AM_0
 10
131.37617947074301
 20
195.9442414639756
 30
0.0
 40
1.465004009999999
 50
90.000003000000945
 51
270.0
  0
ARC
  5
603B
  8
AM_0
 10
132.46145947074311
 20
185.96925046397561
 30
0.0
 40
1.000011959999999
 50
89.728462000000377
 51
270.27153999999882
  0
ARC
  5
603C
  8
AM_0
 10
148.91141947074311
 20
185.96925046397561
 30
0.0
 40
1.000011959999999
 50
89.726507999999697
 51
270.27347999999972
  0
ARC
  5
603D
  8
AM_0
 10
131.180399470743
 20
215.9692504639755
 30
0.0
 40
1.2700120500000001
 50
89.738748000000555
 51
270.26124000000118
  0
ARC
  5
603E
  8
AM_0
 10
131.58932947074311
 20
185.92425046397551
 30
0.0
 40
1.6750160999999979
 50
89.764983000000569
 51
270.23500999999908
  0
ARC
  5
603F
  8
AM_0
 10
132.46622947074309
 20
205.96923646397559
 30
0.0
 40
1.0000000199999981
 50
90.000003000000945
 51
270.0
  0
ARC
  5
6040
  8
AM_0
 10
132.46145947074311
 20
195.96923446397551
 30
0.0
 40
1.000011959999999
 50
89.728462000000377
 51
270.27153999999882
  0
LINE
  5
6042
  8
ﾁｭｳｼﾝｾﾝ
 10
222.9161694707432
 20
271.96923646397568
 30
0.0
 11
222.9161694707432
 21
169.96923646397551
 31
0.0
  0
LINE
  5
6043
  8
AM_0
 10
266.91616947074328
 20
174.96923646397559
 30
0.0
 11
178.9161694707432
 21
174.96923646397559
 31
0.0
  0
ARC
  5
6044
  8
AM_0
 10
196.9872372826085
 20
179.96923646397551
 30
0.0
 40
5.0
 50
225.0
 51
270.0
1001
GENIUS_GENOBJ-N-FIL_13
1002
{
1000
OWNER
1000
GEN
1002
}
1001
GENIUS_GENODEF_13
1002
{
1000
HIER
1070
     0
1002
}
1002
{
1000
MANEDIT
1070
     0
1002
}
1002
{
1000
NOSEL
1070
     0
1002
}
1002
{
1000
BEHIND
1070
     0
1002
}
1002
{
1000
OTHER
1070
     0
1002
}
1002
{
1000
REACTOR
1002
}
  0
LINE
  5
6045
  8
AM_0
 10
248.18824740938541
 20
179.96923646397551
 30
0.0
 11
197.6440915321009
 21
179.96923646397551
 31
0.0
  0
ARC
  5
6046
  8
AM_0
 10
248.18824740938541
 20
184.96923646397551
 30
0.0
 40
5.0
 50
270.0
 51
315.0
1001
GENIUS_GENOBJ-N-FIL_13
1002
{
1000
OWNER
1000
GEN
1002
}
1001
GENIUS_GENODEF_13
1002
{
1000
HIER
1070
     0
1002
}
1002
{
1000
MANEDIT
1070
     0
1002
}
1002
{
1000
NOSEL
1070
     0
1002
}
1002
{
1000
BEHIND
1070
     0
1002
}
1002
{
1000
OTHER
1070
     0
1002
}
1002
{
1000
REACTOR
1002
}
  0
ARC
  5
6047
  8
AM_0
 10
266.91616947074328
 20
178.96923646397551
 30
0.0
 40
4.0
 50
270.0
 51
0.0
1001
GENIUS_GENOBJ-N-FIL_13
1002
{
1000
OWNER
1000
GEN
1002
}
1001
GENIUS_GENODEF_13
1002
{
1000
HIER
1070
     0
1002
}
1002
{
1000
MANEDIT
1070
     0
1002
}
1002
{
1000
NOSEL
1070
     0
1002
}
1002
{
1000
BEHIND
1070
     0
1002
}
1002
{
1000
OTHER
1070
     0
1002
}
1002
{
1000
REACTOR
1002
}
  0
LINE
  5
6048
  8
AM_0
 10
266.91616947074311
 20
266.96923646397568
 30
0.0
 11
178.9161694707432
 21
266.96923646397568
 31
0.0
  0
ARC
  5
6049
  8
AM_0
 10
248.84510165887761
 20
261.96923646397568
 30
0.0
 40
5.0
 50
45.0
 51
90.0
1001
GENIUS_GENOBJ-N-FIL_13
1002
{
1000
OWNER
1000
GEN
1002
}
1001
GENIUS_GENODEF_13
1002
{
1000
HIER
1070
     0
1002
}
1002
{
1000
MANEDIT
1070
     0
1002
}
1002
{
1000
NOSEL
1070
     0
1002
}
1002
{
1000
BEHIND
1070
     0
1002
}
1002
{
1000
OTHER
1070
     0
1002
}
1002
{
1000
REACTOR
1002
}
  0
ARC
  5
604A
  8
AM_0
 10
196.98723728260879
 20
261.96923646397568
 30
0.0
 40
5.0
 50
90.0
 51
135.0
1001
GENIUS_GENODEF_13
1002
{
1000
HIER
1070
     0
1002
}
1002
{
1000
MANEDIT
1070
     0
1002
}
1002
{
1000
NOSEL
1070
     0
1002
}
1002
{
1000
BEHIND
1070
     0
1002
}
1002
{
1000
OTHER
1070
     0
1002
}
1002
{
1000
REACTOR
1002
}
1001
GENIUS_GENOBJ-N-FIL_13
1002
{
1000
OWNER
1000
GEN
1002
}
  0
LINE
  5
604B
  8
AM_0
 10
248.1882474093853
 20
261.96923646397568
 30
0.0
 11
197.64409153210099
 21
261.96923646397568
 31
0.0
  0
ARC
  5
604C
  8
AM_0
 10
197.64409153210099
 20
256.96923646397568
 30
0.0
 40
5.0
 50
90.0
 51
135.0
1001
GENIUS_GENODEF_13
1002
{
1000
HIER
1070
     0
1002
}
1002
{
1000
MANEDIT
1070
     0
1002
}
1002
{
1000
NOSEL
1070
     0
1002
}
1002
{
1000
BEHIND
1070
     0
1002
}
1002
{
1000
OTHER
1070
     0
1002
}
1002
{
1000
REACTOR
1002
}
1001
GENIUS_GENOBJ-N-FIL_13
1002
{
1000
OWNER
1000
GEN
1002
}
  0
ARC
  5
604D
  8
AM_0
 10
178.9161694707432
 20
262.96923646397568
 30
0.0
 40
4.0
 50
90.0
 51
180.0
1001
GENIUS_GENODEF_13
1002
{
1000
HIER
1070
     0
1002
}
1002
{
1000
MANEDIT
1070
     0
1002
}
1002
{
1000
NOSEL
1070
     0
1002
}
1002
{
1000
BEHIND
1070
     0
1002
}
1002
{
1000
OTHER
1070
     0
1002
}
1002
{
1000
REACTOR
1002
}
1001
GENIUS_GENOBJ-N-FIL_13
1002
{
1000
OWNER
1000
GEN
1002
}
  0
LINE
  5
604E
  8
AM_0
 10
174.91616947074311
 20
262.96923646397568
 30
0.0
 11
174.91616947074311
 21
178.96923646397551
 31
0.0
  0
ARC
  5
604F
  8
AM_0
 10
179.91616947074311
 20
197.0403042758409
 30
0.0
 40
5.0
 50
180.0
 51
225.0
1001
GENIUS_GENOBJ-N-FIL_13
1002
{
1000
OWNER
1000
GEN
1002
}
1001
GENIUS_GENODEF_13
1002
{
1000
HIER
1070
     0
1002
}
1002
{
1000
MANEDIT
1070
     0
1002
}
1002
{
1000
NOSEL
1070
     0
1002
}
1002
{
1000
BEHIND
1070
     0
1002
}
1002
{
1000
OTHER
1070
     0
1002
}
1002
{
1000
REACTOR
1002
}
  0
ARC
  5
6050
  8
AM_0
 10
179.91616947074311
 20
244.89816865211051
 30
0.0
 40
5.0
 50
135.0
 51
180.0
1001
GENIUS_GENOBJ-N-FIL_13
1002
{
1000
OWNER
1000
GEN
1002
}
1001
GENIUS_GENODEF_13
1002
{
1000
HIER
1070
     0
1002
}
1002
{
1000
MANEDIT
1070
     0
1002
}
1002
{
1000
NOSEL
1070
     0
1002
}
1002
{
1000
BEHIND
1070
     0
1002
}
1002
{
1000
OTHER
1070
     0
1002
}
1002
{
1000
REACTOR
1002
}
  0
LINE
  5
6051
  8
AM_0
 10
179.91616947074311
 20
244.2413144026178
 30
0.0
 11
179.916169470743
 21
197.69715852533329
 31
0.0
  0
ARC
  5
6052
  8
AM_0
 10
184.916169470743
 20
197.69715852533329
 30
0.0
 40
5.0
 50
180.0
 51
225.0
1001
GENIUS_GENOBJ-N-FIL_13
1002
{
1000
OWNER
1000
GEN
1002
}
1001
GENIUS_GENODEF_13
1002
{
1000
HIER
1070
     0
1002
}
1002
{
1000
MANEDIT
1070
     0
1002
}
1002
{
1000
NOSEL
1070
     0
1002
}
1002
{
1000
BEHIND
1070
     0
1002
}
1002
{
1000
OTHER
1070
     0
1002
}
1002
{
1000
REACTOR
1002
}
  0
ARC
  5
6053
  8
AM_0
 10
178.9161694707432
 20
178.96923646397551
 30
0.0
 40
4.0
 50
180.0
 51
270.0
1001
GENIUS_GENODEF_13
1002
{
1000
HIER
1070
     0
1002
}
1002
{
1000
MANEDIT
1070
     0
1002
}
1002
{
1000
NOSEL
1070
     0
1002
}
1002
{
1000
BEHIND
1070
     0
1002
}
1002
{
1000
OTHER
1070
     0
1002
}
1002
{
1000
REACTOR
1002
}
1001
GENIUS_GENOBJ-N-FIL_13
1002
{
1000
OWNER
1000
GEN
1002
}
  0
LINE
  5
6054
  8
AM_0
 10
270.91616947074323
 20
262.96923646397568
 30
0.0
 11
270.91616947074328
 21
178.96923646397551
 31
0.0
  0
ARC
  5
6055
  8
AM_0
 10
265.91616947074328
 20
244.8981686521102
 30
0.0
 40
5.0
 50
0.0
 51
45.0
1001
GENIUS_GENOBJ-N-FIL_13
1002
{
1000
OWNER
1000
GEN
1002
}
1001
GENIUS_GENODEF_13
1002
{
1000
HIER
1070
     0
1002
}
1002
{
1000
MANEDIT
1070
     0
1002
}
1002
{
1000
NOSEL
1070
     0
1002
}
1002
{
1000
BEHIND
1070
     0
1002
}
1002
{
1000
OTHER
1070
     0
1002
}
1002
{
1000
REACTOR
1002
}
  0
ARC
  5
6056
  8
AM_0
 10
265.91616947074328
 20
197.04030427584109
 30
0.0
 40
5.0
 50
315.0
 51
0.0
1001
GENIUS_GENOBJ-N-FIL_13
1002
{
1000
OWNER
1000
GEN
1002
}
1001
GENIUS_GENODEF_13
1002
{
1000
HIER
1070
     0
1002
}
1002
{
1000
MANEDIT
1070
     0
1002
}
1002
{
1000
NOSEL
1070
     0
1002
}
1002
{
1000
BEHIND
1070
     0
1002
}
1002
{
1000
OTHER
1070
     0
1002
}
1002
{
1000
REACTOR
1002
}
  0
LINE
  5
6057
  8
AM_0
 10
252.3806355648104
 20
265.50477036990839
 30
0.0
 11
269.45170337667588
 21
248.43370255804319
 31
0.0
  0
LINE
  5
6058
  8
AM_0
 10
251.72378131531801
 20
260.5047703699085
 30
0.0
 11
264.45170337667571
 21
247.776848308551
 31
0.0
  0
ARC
  5
6059
  8
AM_0
 10
248.1882474093853
 20
256.96923646397568
 30
0.0
 40
5.0
 50
45.0
 51
90.0
1001
GENIUS_GENOBJ-N-FIL_13
1002
{
1000
OWNER
1000
GEN
1002
}
1001
GENIUS_GENODEF_13
1002
{
1000
HIER
1070
     0
1002
}
1002
{
1000
MANEDIT
1070
     0
1002
}
1002
{
1000
NOSEL
1070
     0
1002
}
1002
{
1000
BEHIND
1070
     0
1002
}
1002
{
1000
OTHER
1070
     0
1002
}
1002
{
1000
REACTOR
1002
}
  0
LINE
  5
605A
  8
AM_0
 10
265.91616947074311
 20
244.241314402618
 30
0.0
 11
265.91616947074328
 21
197.69715852533329
 31
0.0
  0
ARC
  5
605B
  8
AM_0
 10
260.916169470743
 20
244.241314402618
 30
0.0
 40
5.0
 50
0.0
 51
45.0
1001
GENIUS_GENODEF_13
1002
{
1000
HIER
1070
     0
1002
}
1002
{
1000
MANEDIT
1070
     0
1002
}
1002
{
1000
NOSEL
1070
     0
1002
}
1002
{
1000
BEHIND
1070
     0
1002
}
1002
{
1000
OTHER
1070
     0
1002
}
1002
{
1000
REACTOR
1002
}
1001
GENIUS_GENOBJ-N-FIL_13
1002
{
1000
OWNER
1000
GEN
1002
}
  0
ARC
  5
605C
  8
AM_0
 10
266.91616947074311
 20
262.96923646397568
 30
0.0
 40
4.0
 50
0.0
 51
90.0
1001
GENIUS_GENODEF_13
1002
{
1000
HIER
1070
     0
1002
}
1002
{
1000
MANEDIT
1070
     0
1002
}
1002
{
1000
NOSEL
1070
     0
1002
}
1002
{
1000
BEHIND
1070
     0
1002
}
1002
{
1000
OTHER
1070
     0
1002
}
1002
{
1000
REACTOR
1002
}
1001
GENIUS_GENOBJ-N-FIL_13
1002
{
1000
OWNER
1000
GEN
1002
}
  0
LINE
  5
605D
  8
ﾁｭｳｼﾝｾﾝ1
 10
265.91616947074448
 20
255.96923646397539
 30
0.0
 11
265.91616947074527
 21
267.96923646397528
 31
0.0
  0
LINE
  5
605E
  8
ﾁｭｳｼﾝｾﾝ1
 10
271.91616947074499
 20
261.96923646397522
 30
0.0
 11
259.91616947074499
 21
261.96923646397568
 31
0.0
  0
LINE
  5
605F
  8
AM_0
 10
171.4161694707432
 20
249.46923646397579
 30
0.0
 11
173.916169470743
 21
249.46923646397599
 31
0.0
  0
LINE
  5
6060
  8
AM_0
 10
173.9161694707432
 20
222.46923646397579
 30
0.0
 11
171.4161694707432
 21
222.46923646397579
 31
0.0
  0
LINE
  5
6061
  8
AM_0
 10
160.51749837439709
 20
225.46923646397579
 30
0.0
 11
160.51749837439709
 21
246.46923646397579
 31
0.0
  0
LINE
  5
6062
  8
AM_0
 10
145.51749837439721
 20
244.00086151799081
 30
0.0
 11
145.51749837439721
 21
227.93761140995991
 31
0.0
  0
LINE
  5
6063
  8
AM_0
 10
158.51749837439721
 20
223.96923646397579
 30
0.0
 11
158.51749837439721
 21
247.9692364639757
 31
0.0
  0
LINE
  5
6064
  8
AM_0
 10
149.01749837439709
 20
235.96923646397579
 30
0.0
 11
149.51749837439721
 21
235.4692364639757
 31
0.0
  0
LINE
  5
6065
  8
AM_0
 10
156.01749837439721
 20
247.66923646397581
 30
0.0
 11
156.01749837439721
 21
224.26923646397569
 31
0.0
  0
LINE
  5
6066
  8
AM_0
 10
165.91616947074311
 20
247.46923646397579
 30
0.0
 11
165.91616947074311
 21
224.46923646397579
 31
0.0
  0
LINE
  5
6067
  8
AM_0
 10
160.01749837439721
 20
235.2692364639739
 30
0.0
 11
160.01749837439721
 21
236.66923646397669
 31
0.0
  0
LINE
  5
6068
  8
AM_0
 10
162.1171341009682
 20
226.86923646397591
 30
0.0
 11
161.36713410096911
 21
245.0692364639759
 31
0.0
  0
LINE
  5
6069
  8
AM_0
 10
161.16616947074311
 20
226.86923646397591
 30
0.0
 11
160.51749837439709
 21
242.6103217352919
 31
0.0
  0
LINE
  5
606A
  8
AM_0
 10
161.91486206131509
 20
226.15357775161181
 30
0.0
 11
161.16760201790709
 21
245.78160822514289
 31
0.0
  0
LINE
  5
606B
  8
AM_0
 10
161.36570155380511
 20
226.15686470280789
 30
0.0
 11
160.61713410096911
 21
245.81923646397561
 31
0.0
  0
LINE
  5
606C
  8
AM_0
 10
158.51749837439721
 20
247.9692364639757
 30
0.0
 11
156.31749837439699
 21
247.9692364639757
 31
0.0
  0
ARC
  5
606D
  8
AM_0
 10
170.41616947074331
 20
248.46923646397579
 30
0.0
 40
0.5
 50
269.99999999998693
 51
0.0
  0
ARC
  5
606E
  8
AM_0
 10
171.41616947074331
 20
248.96923646397579
 30
0.0
 40
0.5
 50
90.0
 51
180.0
  0
LINE
  5
606F
  8
AM_0
 10
170.91616947074311
 20
248.46923646397579
 30
0.0
 11
170.91616947074311
 21
248.96923646397579
 31
0.0
  0
LINE
  5
6070
  8
AM_0
 10
161.91616947074311
 20
245.0692364639759
 30
0.0
 11
165.4161694707432
 21
245.0692364639757
 31
0.0
  0
LINE
  5
6071
  8
AM_0
 10
170.91616947074311
 20
246.82530778538271
 30
0.0
 11
170.91616947074311
 21
237.11316514256771
 31
0.0
  0
LINE
  5
6072
  8
AM_0
 10
166.4161694707432
 20
247.9692364639757
 30
0.0
 11
170.416169470743
 21
247.9692364639757
 31
0.0
  0
LINE
  5
6073
  8
AM_0
 10
170.4161694707432
 20
247.32530778538271
 30
0.0
 11
165.91616947074311
 21
247.32530778538271
 31
0.0
  0
ARC
  5
6074
  8
AM_0
 10
170.41616947074331
 20
246.82530778538271
 30
0.0
 40
0.5
 50
0.0
 51
90.0
  0
ARC
  5
6075
  8
AM_0
 10
165.4161694707432
 20
245.5692364639757
 30
0.0
 40
0.5
 50
270.0
 51
0.0
  0
ARC
  5
6076
  8
AM_0
 10
166.4161694707432
 20
247.46923646397579
 30
0.0
 40
0.5
 50
90.0
 51
180.0
  0
LINE
  5
6077
  8
AM_0
 10
170.4161694707432
 20
236.61316514256771
 30
0.0
 11
165.91616947074311
 21
236.61316514256771
 31
0.0
  0
ARC
  5
6078
  8
AM_0
 10
170.4161694707432
 20
237.11316514256771
 30
0.0
 40
0.5
 50
270.0
 51
0.0
  0
LINE
  5
6079
  8
AM_0
 10
160.01749837439721
 20
242.11440721626781
 30
0.0
 11
160.01749837439721
 21
240.9421640298348
 31
0.0
  0
LINE
  5
607A
  8
AM_0
 10
161.44386652939411
 20
245.0692364639759
 30
0.0
 11
161.91616947074311
 21
245.0692364639759
 31
0.0
  0
LINE
  5
607B
  8
AM_0
 10
161.34727403485479
 20
245.14335423071239
 30
0.0
 11
161.36713410096911
 21
245.0692364639759
 31
0.0
  0
ARC
  5
607C
  8
AM_0
 10
161.4438665293942
 20
245.16923646397581
 30
0.0
 40
0.1000000000000346
 50
195.00019500644461
 51
270.0
  0
ARC
  5
607D
  8
AM_0
 10
159.71749837439719
 20
245.2560694444839
 30
0.0
 40
0.3000000000000043
 50
270.0
 51
0.0
  0
LINE
  5
607E
  8
AM_0
 10
158.51749837439721
 20
247.36923646397591
 30
0.0
 11
159.7374540775543
 21
247.2879060837648
 31
0.0
  0
LINE
  5
607F
  8
AM_0
 10
158.51749837439721
 20
246.21298442813591
 30
0.0
 11
159.71749837439719
 21
246.21298442813591
 31
0.0
  0
LINE
  5
6080
  8
AM_0
 10
160.01749837439721
 20
246.96923646397579
 30
0.0
 11
158.51749837439721
 21
246.96923646397579
 31
0.0
  0
ARC
  5
6081
  8
AM_0
 10
160.01749837439721
 20
246.46923646397579
 30
0.0
 40
0.5
 50
0.0
 51
90.0
  0
LINE
  5
6082
  8
AM_0
 10
160.01749837439721
 20
246.98857053640771
 30
0.0
 11
160.01749837439721
 21
246.96923646397579
 31
0.0
  0
ARC
  5
6083
  8
AM_0
 10
159.71749837439719
 20
246.98857053640771
 30
0.0
 40
0.3000000000000007
 50
0.0
 51
86.18592516571853
  0
LINE
  5
6084
  8
AM_0
 10
161.08943704231811
 20
245.81923646397561
 30
0.0
 11
161.16616947074419
 21
245.81923646397561
 31
0.0
  0
LINE
  5
6085
  8
AM_0
 10
161.16616947074419
 20
245.81923646397561
 30
0.0
 11
161.18602953685729
 21
245.74511869723921
 31
0.0
  0
LINE
  5
6086
  8
AM_0
 10
160.5972740348551
 20
245.74511869723921
 30
0.0
 11
160.61713410096911
 21
245.81923646397561
 31
0.0
  0
LINE
  5
6087
  8
AM_0
 10
160.61713410096911
 20
245.81923646397561
 30
0.0
 11
160.69386652939411
 21
245.81923646397561
 31
0.0
  0
LINE
  5
6088
  8
AM_0
 10
161.18602953685729
 20
245.74511869723921
 30
0.0
 11
161.34727403485479
 21
245.14335423071239
 31
0.0
  0
LINE
  5
6089
  8
AM_0
 10
160.69386652939411
 20
245.81923646397561
 30
0.0
 11
161.08943704231811
 21
245.81923646397561
 31
0.0
  0
LINE
  5
608A
  8
AM_0
 10
160.51749837439809
 20
245.44739593241491
 30
0.0
 11
160.5972740348551
 21
245.74511869723921
 31
0.0
  0
ARC
  5
608B
  8
AM_0
 10
161.0894370423182
 20
245.7192364639757
 30
0.0
 40
0.0999999999999866
 50
15.000195006572991
 51
90.0
  0
ARC
  5
608C
  8
AM_0
 10
160.6938665293942
 20
245.7192364639757
 30
0.0
 40
0.1000000000000014
 50
90.0
 51
164.99980499342701
  0
LINE
  5
608D
  8
AM_0
 10
160.01749837439721
 20
245.9129844281357
 30
0.0
 11
160.01749837439721
 21
245.2560694444839
 31
0.0
  0
ARC
  5
608E
  8
AM_0
 10
159.71749837439719
 20
245.9129844281357
 30
0.0
 40
0.3000000000000007
 50
0.0
 51
90.0
  0
LINE
  5
608F
  8
AM_0
 10
158.51749837439721
 20
242.4144072162679
 30
0.0
 11
159.71749837439719
 21
242.4144072162679
 31
0.0
  0
LINE
  5
6090
  8
AM_0
 10
159.71749837439719
 20
244.9560694444838
 30
0.0
 11
158.51749837439721
 21
244.9560694444838
 31
0.0
  0
LINE
  5
6091
  8
AM_0
 10
161.36713410096911
 20
245.0692364639759
 30
0.0
 11
161.44386652939411
 21
245.0692364639759
 31
0.0
  0
ARC
  5
6092
  8
AM_0
 10
159.71749837439719
 20
242.11440721626781
 30
0.0
 40
0.3000000000000007
 50
0.0
 51
90.0
  0
LINE
  5
6093
  8
AM_0
 10
159.71749837439719
 20
240.64216402983479
 30
0.0
 11
158.51749837439721
 21
240.64216402983479
 31
0.0
  0
ARC
  5
6094
  8
AM_0
 10
159.71749837439719
 20
240.9421640298348
 30
0.0
 40
0.3000000000000043
 50
270.0
 51
0.0
  0
LINE
  5
6095
  8
AM_0
 10
159.71749837439719
 20
236.9692364639769
 30
0.0
 11
158.51749837439721
 21
236.9692364639769
 31
0.0
  0
ARC
  5
6096
  8
AM_0
 10
159.71749837439719
 20
236.66923646397669
 30
0.0
 40
0.3000000000000007
 50
0.0
 51
90.0
  0
LINE
  5
6097
  8
AM_0
 10
149.51749837439721
 20
246.10251629262271
 30
0.0
 11
156.01749837439721
 21
246.10251629262271
 31
0.0
  0
LINE
  5
6098
  8
AM_0
 10
149.51749837439721
 20
246.60251629262271
 30
0.0
 11
156.01749837439721
 21
246.60251629262271
 31
0.0
  0
LINE
  5
6099
  8
AM_0
 10
156.01749837439721
 20
236.46923646397579
 30
0.0
 11
149.51749837439721
 21
236.46923646397579
 31
0.0
  0
LINE
  5
609A
  8
AM_0
 10
149.01749837439709
 20
236.96923646397579
 30
0.0
 11
156.01749837439721
 21
236.96923646397579
 31
0.0
  0
LINE
  5
609B
  8
AM_0
 10
155.71749837439719
 20
246.96923646397579
 30
0.0
 11
148.87954830957909
 21
246.96923646397579
 31
0.0
  0
LINE
  5
609C
  8
AM_0
 10
156.01749837439721
 20
237.3159245325167
 30
0.0
 11
149.51749837439721
 21
237.3159245325167
 31
0.0
  0
LINE
  5
609D
  8
AM_0
 10
156.01749837439721
 20
245.62254839543479
 30
0.0
 11
149.51749837439721
 21
245.62254839543479
 31
0.0
  0
ARC
  5
609E
  8
AM_0
 10
156.31749837439699
 20
247.66923646397581
 30
0.0
 40
0.2999999999999971
 50
90.0
 51
180.0
  0
ARC
  5
609F
  8
AM_0
 10
155.71749837439719
 20
247.26923646397569
 30
0.0
 40
0.2999999999999971
 50
270.0
 51
0.0
  0
ARC
  5
60A0
  8
AM_0
 10
157.64249837439721
 20
241.46923646397579
 30
0.0
 40
9.124999999999984
 50
152.92493329271841
 51
207.07506670728151
  0
LINE
  5
60A1
  8
AM_0
 10
148.23936390991469
 20
246.7374577435734
 30
0.0
 11
145.8773139747326
 21
244.76908279758831
 31
0.0
  0
LINE
  5
60A2
  8
AM_0
 10
149.01749837439709
 20
246.3908038804679
 30
0.0
 11
149.51749837439721
 21
246.96923646397579
 31
0.0
  0
ARC
  5
60A3
  8
AM_0
 10
148.87954830957909
 20
245.9692364639757
 30
0.0
 40
1.0
 50
90.0
 51
129.805571092256
  0
LINE
  5
60A4
  8
AM_0
 10
149.51749837439721
 20
246.60251629262271
 30
0.0
 11
149.01749837439709
 21
246.3908038804679
 31
0.0
  0
LINE
  5
60A5
  8
AM_0
 10
149.01749837439709
 20
245.92852860749679
 30
0.0
 11
149.51749837439721
 21
246.60251629262271
 31
0.0
  0
LINE
  5
60A6
  8
AM_0
 10
149.51749837439721
 20
246.10251629262271
 30
0.0
 11
149.01749837439709
 21
245.92852860749679
 31
0.0
  0
LINE
  5
60A7
  8
AM_0
 10
149.01749837439709
 20
245.3908038804677
 30
0.0
 11
149.51749837439721
 21
246.10251629262271
 31
0.0
  0
LINE
  5
60A8
  8
AM_0
 10
149.51749837439721
 20
245.62254839543479
 30
0.0
 11
149.01749837439709
 21
245.3908038804677
 31
0.0
  0
ARC
  5
60A9
  8
AM_0
 10
146.51749837439709
 20
244.00086151799081
 30
0.0
 40
1.0000000000000291
 50
129.8055710922664
 51
180.0
  0
LINE
  5
60AA
  8
AM_0
 10
149.51749837439721
 20
236.46923646397579
 30
0.0
 11
149.01749837439709
 21
235.96923646397579
 31
0.0
  0
LINE
  5
60AB
  8
AM_0
 10
149.01749837439709
 20
236.96923646397579
 30
0.0
 11
149.51749837439721
 21
236.46923646397579
 31
0.0
  0
LINE
  5
60AC
  8
AM_0
 10
149.51749837439721
 20
237.3159245325167
 30
0.0
 11
149.01749837439709
 21
236.96923646397579
 31
0.0
  0
LINE
  5
60AD
  8
AM_0
 10
156.31749837439699
 20
223.96923646397579
 30
0.0
 11
158.51749837439721
 21
223.96923646397579
 31
0.0
  0
ARC
  5
60AE
  8
AM_0
 10
170.4161694707432
 20
223.46923646397579
 30
0.0
 40
0.5
 50
0.0
 51
90.000000000006537
  0
LINE
  5
60AF
  8
AM_0
 10
165.4161694707432
 20
226.86923646397591
 30
0.0
 11
162.19386652939411
 21
226.86923646397591
 31
0.0
  0
LINE
  5
60B0
  8
AM_0
 10
170.91616947074311
 20
234.82530778538271
 30
0.0
 11
170.91616947074311
 21
225.11316514256771
 31
0.0
  0
LINE
  5
60B1
  8
AM_0
 10
165.91616947074311
 20
235.32530778538271
 30
0.0
 11
170.4161694707432
 21
235.32530778538271
 31
0.0
  0
ARC
  5
60B2
  8
AM_0
 10
170.4161694707432
 20
234.82530778538271
 30
0.0
 40
0.5
 50
0.0
 51
90.0
  0
LINE
  5
60B3
  8
AM_0
 10
165.91616947074311
 20
224.61316514256771
 30
0.0
 11
170.4161694707432
 21
224.61316514256771
 31
0.0
  0
LINE
  5
60B4
  8
AM_0
 10
170.416169470743
 20
223.96923646397579
 30
0.0
 11
166.4161694707432
 21
223.96923646397579
 31
0.0
  0
ARC
  5
60B5
  8
AM_0
 10
170.4161694707432
 20
225.11316514256771
 30
0.0
 40
0.5
 50
270.0
 51
0.0
  0
ARC
  5
60B6
  8
AM_0
 10
165.4161694707432
 20
226.36923646397591
 30
0.0
 40
0.5
 50
0.0
 51
90.0
  0
ARC
  5
60B7
  8
AM_0
 10
166.4161694707432
 20
224.46923646397579
 30
0.0
 40
0.5
 50
180.0
 51
270.0
  0
ARC
  5
60B8
  8
AM_0
 10
159.71749837439719
 20
229.82406571168389
 30
0.0
 40
0.3000000000000114
 50
270.0
 51
0.0
  0
LINE
  5
60B9
  8
AM_0
 10
158.51749837439721
 20
234.9692364639738
 30
0.0
 11
159.71749837439719
 21
234.9692364639738
 31
0.0
  0
ARC
  5
60BA
  8
AM_0
 10
159.71749837439719
 20
235.2692364639737
 30
0.0
 40
0.2999999999999971
 50
270.0
 51
0.0
  0
LINE
  5
60BB
  8
AM_0
 10
158.51749837439721
 20
231.29630889811679
 30
0.0
 11
159.71749837439719
 21
231.29630889811679
 31
0.0
  0
ARC
  5
60BC
  8
AM_0
 10
159.71749837439719
 20
230.99630889811681
 30
0.0
 40
0.3000000000000007
 50
0.0
 51
90.0
  0
LINE
  5
60BD
  8
AM_0
 10
160.01749837439721
 20
230.99630889811681
 30
0.0
 11
160.01749837439721
 21
229.82406571168389
 31
0.0
  0
LINE
  5
60BE
  8
AM_0
 10
161.44386652939411
 20
226.11923646397591
 30
0.0
 11
161.83943704231811
 21
226.11923646397591
 31
0.0
  0
LINE
  5
60BF
  8
AM_0
 10
161.44386652939411
 20
226.11923646397591
 30
0.0
 11
161.83943704231811
 21
226.11923646397591
 31
0.0
  0
LINE
  5
60C0
  8
AM_0
 10
161.93602953685729
 20
226.19335423071229
 30
0.0
 11
162.0972740348551
 21
226.79511869723939
 31
0.0
  0
LINE
  5
60C1
  8
AM_0
 10
161.93602953685729
 20
226.19335423071229
 30
0.0
 11
162.0972740348551
 21
226.79511869723939
 31
0.0
  0
ARC
  5
60C2
  8
AM_0
 10
162.19386652939411
 20
226.76923646397569
 30
0.0
 40
0.0999999999999943
 50
90.0
 51
164.9998049934878
  0
ARC
  5
60C3
  8
AM_0
 10
161.83943704231811
 20
226.21923646397579
 30
0.0
 40
0.0999999999999943
 50
270.0
 51
344.99980499349448
  0
LINE
  5
60C4
  8
AM_0
 10
160.51665178585611
 20
226.49423646397571
 30
0.0
 11
160.5972740348551
 21
226.79511869723939
 31
0.0
  0
LINE
  5
60C5
  8
AM_0
 10
161.16888012294919
 20
226.8299719308778
 30
0.0
 11
161.3472740348551
 21
226.19335423071229
 31
0.0
  0
LINE
  5
60C6
  8
AM_0
 10
161.18602953685729
 20
226.79511869723939
 30
0.0
 11
161.3472740348551
 21
226.19335423071229
 31
0.0
  0
LINE
  5
60C7
  8
AM_0
 10
160.01749837439721
 20
226.6824034834668
 30
0.0
 11
160.01749837439721
 21
226.02548849981591
 31
0.0
  0
LINE
  5
60C8
  8
AM_0
 10
160.51749837439709
 20
226.4973959324137
 30
0.0
 11
160.5972740348551
 21
226.79511869723939
 31
0.0
  0
LINE
  5
60C9
  8
AM_0
 10
158.51749837439721
 20
226.98240348346681
 30
0.0
 11
159.71749837439719
 21
226.98240348346681
 31
0.0
  0
LINE
  5
60CA
  8
AM_0
 10
159.71749837439719
 20
229.5240657116839
 30
0.0
 11
158.51749837439721
 21
229.52406571168271
 31
0.0
  0
LINE
  5
60CB
  8
AM_0
 10
161.1220693078331
 20
226.86923646397591
 30
0.0
 11
161.16888012294919
 21
226.8299719308778
 31
0.0
  0
LINE
  5
60CC
  8
AM_0
 10
160.69386652939411
 20
226.86923646397591
 30
0.0
 11
161.1220693078331
 21
226.86923646397591
 31
0.0
  0
LINE
  5
60CD
  8
AM_0
 10
160.69386652939411
 20
226.86923646397591
 30
0.0
 11
161.08943704231811
 21
226.86923646397591
 31
0.0
  0
ARC
  5
60CE
  8
AM_0
 10
160.69386652939411
 20
226.76923646397569
 30
0.0
 40
0.0999999999999943
 50
90.0
 51
164.9998049934878
  0
ARC
  5
60CF
  8
AM_0
 10
161.08943704231811
 20
226.76923646397569
 30
0.0
 40
0.0999999999999608
 50
15.00019500651214
 51
90.0
  0
ARC
  5
60D0
  8
AM_0
 10
159.71749837439719
 20
226.6824034834668
 30
0.0
 40
0.3000000000000007
 50
0.0
 51
90.0
  0
LINE
  5
60D1
  8
AM_0
 10
158.51749837439721
 20
224.9692364639757
 30
0.0
 11
160.01749837439721
 21
224.9692364639757
 31
0.0
  0
LINE
  5
60D2
  8
AM_0
 10
159.71749837439719
 20
225.7254884998159
 30
0.0
 11
158.51749837439721
 21
225.7254884998159
 31
0.0
  0
LINE
  5
60D3
  8
AM_0
 10
159.7374540775543
 20
224.6505668441859
 30
0.0
 11
158.51749837439721
 21
224.5692364639759
 31
0.0
  0
ARC
  5
60D4
  8
AM_0
 10
160.01749837439721
 20
225.46923646397579
 30
0.0
 40
0.5
 50
270.0
 51
0.0
  0
ARC
  5
60D5
  8
AM_0
 10
161.44386652939411
 20
226.21923646397579
 30
0.0
 40
0.0999999999999606
 50
195.00019500650541
 51
270.0
  0
ARC
  5
60D6
  8
AM_0
 10
159.71749837439719
 20
226.02548849981591
 30
0.0
 40
0.2999999999999971
 50
270.0
 51
0.0
  0
LINE
  5
60D7
  8
AM_0
 10
160.01749837439721
 20
224.9692364639757
 30
0.0
 11
160.01749837439721
 21
224.94990239154291
 31
0.0
  0
ARC
  5
60D8
  8
AM_0
 10
159.71749837439719
 20
224.94990239154291
 30
0.0
 40
0.3000000000000043
 50
273.81407483428148
 51
0.0
  0
ARC
  5
60D9
  8
AM_0
 10
171.4161694707432
 20
222.9692364639757
 30
0.0
 40
0.5
 50
180.0
 51
270.0
  0
LINE
  5
60DA
  8
AM_0
 10
170.91616947074311
 20
222.9692364639757
 30
0.0
 11
170.91616947074311
 21
223.46923646397579
 31
0.0
  0
LINE
  5
60DB
  8
AM_0
 10
149.51749837439721
 20
226.31592453251679
 30
0.0
 11
156.01749837439721
 21
226.31592453251679
 31
0.0
  0
LINE
  5
60DC
  8
AM_0
 10
149.51749837439721
 20
234.62254839543479
 30
0.0
 11
156.01749837439721
 21
234.62254839543479
 31
0.0
  0
LINE
  5
60DD
  8
AM_0
 10
148.87954830957909
 20
224.9692364639757
 30
0.0
 11
155.71749837439719
 21
224.9692364639757
 31
0.0
  0
LINE
  5
60DE
  8
AM_0
 10
156.01749837439721
 20
234.96923646397579
 30
0.0
 11
149.01749837439709
 21
234.96923646397579
 31
0.0
  0
LINE
  5
60DF
  8
AM_0
 10
149.51749837439721
 20
235.4692364639757
 30
0.0
 11
156.01749837439721
 21
235.4692364639757
 31
0.0
  0
LINE
  5
60E0
  8
AM_0
 10
156.01749837439721
 20
225.33595663532779
 30
0.0
 11
149.51749837439721
 21
225.33595663532779
 31
0.0
  0
LINE
  5
60E1
  8
AM_0
 10
156.01749837439721
 20
225.83595663532779
 30
0.0
 11
149.51749837439721
 21
225.83595663532779
 31
0.0
  0
ARC
  5
60E2
  8
AM_0
 10
155.71749837439719
 20
224.66923646397581
 30
0.0
 40
0.3000000000000043
 50
0.0
 51
90.0
  0
ARC
  5
60E3
  8
AM_0
 10
156.31749837439699
 20
224.26923646397569
 30
0.0
 40
0.2999999999999971
 50
180.0
 51
270.0
  0
ARC
  5
60E4
  8
AM_0
 10
157.64249837439721
 20
230.46923646397579
 30
0.0
 40
9.124999999999984
 50
152.92493329271841
 51
207.07506670728151
  0
LINE
  5
60E5
  8
AM_0
 10
149.01749837439709
 20
234.96923646397579
 30
0.0
 11
149.51749837439721
 21
234.62254839543479
 31
0.0
  0
LINE
  5
60E6
  8
AM_0
 10
149.51749837439721
 20
235.4692364639757
 30
0.0
 11
149.01749837439709
 21
234.96923646397579
 31
0.0
  0
LINE
  5
60E7
  8
AM_0
 10
145.8773139747326
 20
227.1693901303623
 30
0.0
 11
148.23936390991469
 21
225.20101518437841
 31
0.0
  0
LINE
  5
60E8
  8
AM_0
 10
149.51749837439721
 20
224.9692364639757
 30
0.0
 11
149.01749837439709
 21
225.5476690474828
 31
0.0
  0
ARC
  5
60E9
  8
AM_0
 10
148.87954830957909
 20
225.96923646397579
 30
0.0
 40
1.0000000000000411
 50
230.19442890774391
 51
270.0
  0
LINE
  5
60EA
  8
AM_0
 10
149.01749837439709
 20
226.5476690474828
 30
0.0
 11
149.51749837439721
 21
226.31592453251679
 31
0.0
  0
LINE
  5
60EB
  8
AM_0
 10
149.51749837439721
 20
225.83595663532779
 30
0.0
 11
149.01749837439709
 21
226.5476690474828
 31
0.0
  0
LINE
  5
60EC
  8
AM_0
 10
149.01749837439709
 20
226.00994432045479
 30
0.0
 11
149.51749837439721
 21
225.83595663532779
 31
0.0
  0
LINE
  5
60ED
  8
AM_0
 10
149.51749837439721
 20
225.33595663532779
 30
0.0
 11
149.01749837439709
 21
226.00994432045479
 31
0.0
  0
LINE
  5
60EE
  8
AM_0
 10
149.01749837439709
 20
225.5476690474828
 30
0.0
 11
149.51749837439721
 21
225.33595663532779
 31
0.0
  0
ARC
  5
60EF
  8
AM_0
 10
146.51749837439709
 20
227.93761140995969
 30
0.0
 40
1.0
 50
180.0
 51
230.1944289077336
  0
CIRCLE
  5
60F0
  8
AM_0
 10
179.91616947074141
 20
261.96923646397528
 30
0.0
 40
4.0
  0
LINE
  5
60F1
  8
AM_0
 10
179.60466947074141
 20
259.69042805825109
 30
0.0
 11
180.2276694707414
 21
259.69042805825109
 31
0.0
  0
LINE
  5
60F2
  8
AM_0
 10
179.60466947074141
 20
264.24804486969981
 30
0.0
 11
180.2276694707414
 21
264.24804486969981
 31
0.0
  0
LINE
  5
60F3
  8
AM_0
 10
179.60466947074141
 20
259.69042805825109
 30
0.0
 11
179.60466947074141
 21
261.6577364639756
 31
0.0
  0
LINE
  5
60F4
  8
AM_0
 10
179.60466947074141
 20
262.28073646397547
 30
0.0
 11
179.60466947074141
 21
264.24804486969981
 31
0.0
  0
LINE
  5
60F5
  8
AM_0
 10
179.60466947074141
 20
262.28073646397547
 30
0.0
 11
177.6373610650171
 21
262.28073646397547
 31
0.0
  0
LINE
  5
60F6
  8
AM_0
 10
179.60466947074141
 20
261.6577364639756
 30
0.0
 11
177.6373610650171
 21
261.6577364639756
 31
0.0
  0
LINE
  5
60F7
  8
AM_0
 10
177.6373610650171
 20
262.28073646397547
 30
0.0
 11
177.6373610650171
 21
261.6577364639756
 31
0.0
  0
LINE
  5
60F8
  8
AM_0
 10
180.2276694707414
 20
259.69042805825109
 30
0.0
 11
180.2276694707414
 21
261.6577364639756
 31
0.0
  0
LINE
  5
60F9
  8
AM_0
 10
180.2276694707414
 20
262.28073646397547
 30
0.0
 11
180.2276694707414
 21
264.24804486969981
 31
0.0
  0
LINE
  5
60FA
  8
AM_0
 10
182.1949778764658
 20
261.6577364639756
 30
0.0
 11
180.2276694707414
 21
261.6577364639756
 31
0.0
  0
LINE
  5
60FB
  8
AM_0
 10
182.1949778764658
 20
262.28073646397547
 30
0.0
 11
180.2276694707414
 21
262.28073646397547
 31
0.0
  0
LINE
  5
60FC
  8
AM_0
 10
182.1949778764658
 20
262.28073646397547
 30
0.0
 11
182.1949778764658
 21
261.6577364639756
 31
0.0
  0
CIRCLE
  5
60FD
  8
AM_0
 10
265.91616947074499
 20
261.96923646397528
 30
0.0
 40
4.0
  0
LINE
  5
60FE
  8
AM_0
 10
265.60466947074508
 20
259.69042805825109
 30
0.0
 11
266.22766947074501
 21
259.69042805825109
 31
0.0
  0
LINE
  5
60FF
  8
AM_0
 10
265.60466947074508
 20
264.24804486969981
 30
0.0
 11
266.22766947074501
 21
264.24804486969981
 31
0.0
  0
LINE
  5
6100
  8
AM_0
 10
265.60466947074508
 20
259.69042805825109
 30
0.0
 11
265.60466947074508
 21
261.65773646397531
 31
0.0
  0
LINE
  5
6101
  8
AM_0
 10
265.60466947074508
 20
262.28073646397547
 30
0.0
 11
265.60466947074508
 21
264.24804486969981
 31
0.0
  0
LINE
  5
6102
  8
AM_0
 10
265.60466947074508
 20
262.28073646397547
 30
0.0
 11
263.63736106502063
 21
262.28073646397547
 31
0.0
  0
LINE
  5
6103
  8
AM_0
 10
265.60466947074508
 20
261.65773646397531
 30
0.0
 11
263.63736106502063
 21
261.65773646397531
 31
0.0
  0
LINE
  5
6104
  8
AM_0
 10
263.63736106502063
 20
262.28073646397547
 30
0.0
 11
263.63736106502063
 21
261.65773646397531
 31
0.0
  0
LINE
  5
6105
  8
AM_0
 10
266.22766947074501
 20
259.69042805825109
 30
0.0
 11
266.22766947074501
 21
261.65773646397531
 31
0.0
  0
LINE
  5
6106
  8
AM_0
 10
266.22766947074501
 20
262.28073646397547
 30
0.0
 11
266.22766947074501
 21
264.24804486969981
 31
0.0
  0
LINE
  5
6107
  8
AM_0
 10
268.1949778764693
 20
261.65773646397531
 30
0.0
 11
266.22766947074501
 21
261.65773646397531
 31
0.0
  0
LINE
  5
6108
  8
AM_0
 10
268.1949778764693
 20
262.28073646397547
 30
0.0
 11
266.22766947074501
 21
262.28073646397547
 31
0.0
  0
LINE
  5
6109
  8
AM_0
 10
268.1949778764693
 20
262.28073646397547
 30
0.0
 11
268.1949778764693
 21
261.65773646397531
 31
0.0
  0
LINE
  5
610A
  8
AM_0
 10
193.45170337667611
 20
265.50477036990873
 30
0.0
 11
176.3806355648104
 21
248.43370255804339
 31
0.0
  0
LINE
  5
610B
  8
AM_0
 10
194.10855762616831
 20
260.5047703699085
 30
0.0
 11
181.3806355648104
 21
247.77684830855071
 31
0.0
  0
ARC
  5
610C
  8
AM_0
 10
184.91616947074311
 20
244.2413144026178
 30
0.0
 40
5.0
 50
135.0
 51
180.0
1001
GENIUS_GENOBJ-N-FIL_13
1002
{
1000
OWNER
1000
GEN
1002
}
1001
GENIUS_GENODEF_13
1002
{
1000
HIER
1070
     0
1002
}
1002
{
1000
MANEDIT
1070
     0
1002
}
1002
{
1000
NOSEL
1070
     0
1002
}
1002
{
1000
BEHIND
1070
     0
1002
}
1002
{
1000
OTHER
1070
     0
1002
}
1002
{
1000
REACTOR
1002
}
  0
LINE
  5
610D
  8
AM_0
 10
252.3806355648104
 20
176.43370255804291
 30
0.0
 11
269.45170337667588
 21
193.5047703699081
 31
0.0
  0
ARC
  5
610E
  8
AM_0
 10
248.84510165887761
 20
179.96923646397551
 30
0.0
 40
5.0
 50
270.0
 51
315.0
1001
GENIUS_GENODEF_13
1002
{
1000
HIER
1070
     0
1002
}
1002
{
1000
MANEDIT
1070
     0
1002
}
1002
{
1000
NOSEL
1070
     0
1002
}
1002
{
1000
BEHIND
1070
     0
1002
}
1002
{
1000
OTHER
1070
     0
1002
}
1002
{
1000
REACTOR
1002
}
1001
GENIUS_GENOBJ-N-FIL_13
1002
{
1000
OWNER
1000
GEN
1002
}
  0
LINE
  5
610F
  8
AM_0
 10
251.72378131531821
 20
181.4337025580428
 30
0.0
 11
264.45170337667599
 21
194.16162461940061
 31
0.0
  0
ARC
  5
6110
  8
AM_0
 10
260.91616947074328
 20
197.69715852533329
 30
0.0
 40
5.0
 50
315.0
 51
0.0
1001
GENIUS_GENOBJ-N-FIL_13
1002
{
1000
OWNER
1000
GEN
1002
}
1001
GENIUS_GENODEF_13
1002
{
1000
HIER
1070
     0
1002
}
1002
{
1000
MANEDIT
1070
     0
1002
}
1002
{
1000
NOSEL
1070
     0
1002
}
1002
{
1000
BEHIND
1070
     0
1002
}
1002
{
1000
OTHER
1070
     0
1002
}
1002
{
1000
REACTOR
1002
}
  0
LINE
  5
6111
  8
AM_0
 10
193.45170337667591
 20
176.43370255804291
 30
0.0
 11
176.3806355648104
 21
193.5047703699081
 31
0.0
  0
LINE
  5
6112
  8
AM_0
 10
194.10855762616811
 20
181.4337025580428
 30
0.0
 11
181.3806355648104
 21
194.16162461940061
 31
0.0
  0
ARC
  5
6113
  8
AM_0
 10
197.6440915321009
 20
184.96923646397551
 30
0.0
 40
5.0
 50
225.0
 51
270.0
1001
GENIUS_GENOBJ-N-FIL_13
1002
{
1000
OWNER
1000
GEN
1002
}
1001
GENIUS_GENODEF_13
1002
{
1000
HIER
1070
     0
1002
}
1002
{
1000
MANEDIT
1070
     0
1002
}
1002
{
1000
NOSEL
1070
     0
1002
}
1002
{
1000
BEHIND
1070
     0
1002
}
1002
{
1000
OTHER
1070
     0
1002
}
1002
{
1000
REACTOR
1002
}
  0
CIRCLE
  5
6114
  8
AM_0
 10
179.91616947074121
 20
179.96923646397599
 30
0.0
 40
4.0
  0
LINE
  5
6115
  8
AM_0
 10
179.60466947074141
 20
182.24804486970049
 30
0.0
 11
180.2276694707414
 21
182.24804486970049
 31
0.0
  0
LINE
  5
6116
  8
AM_0
 10
179.60466947074141
 20
177.69042805825171
 30
0.0
 11
180.2276694707414
 21
177.69042805825171
 31
0.0
  0
LINE
  5
6117
  8
AM_0
 10
179.60466947074141
 20
182.24804486970049
 30
0.0
 11
179.60466947074141
 21
180.2807364639759
 31
0.0
  0
LINE
  5
6118
  8
AM_0
 10
179.60466947074141
 20
179.65773646397599
 30
0.0
 11
179.60466947074141
 21
177.69042805825171
 31
0.0
  0
LINE
  5
6119
  8
AM_0
 10
179.60466947074141
 20
179.65773646397599
 30
0.0
 11
177.63736106501699
 21
179.65773646397599
 31
0.0
  0
LINE
  5
611A
  8
AM_0
 10
179.60466947074141
 20
180.2807364639759
 30
0.0
 11
177.63736106501699
 21
180.2807364639759
 31
0.0
  0
LINE
  5
611B
  8
AM_0
 10
177.63736106501699
 20
179.65773646397599
 30
0.0
 11
177.63736106501699
 21
180.2807364639759
 31
0.0
  0
LINE
  5
611C
  8
AM_0
 10
180.2276694707414
 20
182.24804486970049
 30
0.0
 11
180.2276694707414
 21
180.2807364639759
 31
0.0
  0
LINE
  5
611D
  8
AM_0
 10
180.2276694707414
 20
179.65773646397599
 30
0.0
 11
180.2276694707414
 21
177.69042805825171
 31
0.0
  0
LINE
  5
611E
  8
AM_0
 10
182.19497787646571
 20
180.2807364639759
 30
0.0
 11
180.2276694707414
 21
180.2807364639759
 31
0.0
  0
LINE
  5
611F
  8
AM_0
 10
182.19497787646571
 20
179.65773646397599
 30
0.0
 11
180.2276694707414
 21
179.65773646397599
 31
0.0
  0
LINE
  5
6120
  8
AM_0
 10
182.19497787646571
 20
179.65773646397599
 30
0.0
 11
182.19497787646571
 21
180.2807364639759
 31
0.0
  0
CIRCLE
  5
6121
  8
AM_0
 10
265.91616947074488
 20
179.96923646397579
 30
0.0
 40
4.0
  0
LINE
  5
6122
  8
AM_0
 10
265.6046694707448
 20
182.24804486970021
 30
0.0
 11
266.2276694707449
 21
182.24804486970021
 31
0.0
  0
LINE
  5
6123
  8
AM_0
 10
265.6046694707448
 20
177.69042805825151
 30
0.0
 11
266.2276694707449
 21
177.69042805825151
 31
0.0
  0
LINE
  5
6124
  8
AM_0
 10
265.6046694707448
 20
182.24804486970021
 30
0.0
 11
265.6046694707448
 21
180.28073646397581
 31
0.0
  0
LINE
  5
6125
  8
AM_0
 10
265.6046694707448
 20
179.65773646397571
 30
0.0
 11
265.6046694707448
 21
177.69042805825151
 31
0.0
  0
LINE
  5
6126
  8
AM_0
 10
265.6046694707448
 20
179.65773646397571
 30
0.0
 11
263.6373610650204
 21
179.65773646397571
 31
0.0
  0
LINE
  5
6127
  8
AM_0
 10
265.6046694707448
 20
180.28073646397581
 30
0.0
 11
263.6373610650204
 21
180.28073646397581
 31
0.0
  0
LINE
  5
6128
  8
AM_0
 10
263.6373610650204
 20
179.65773646397571
 30
0.0
 11
263.6373610650204
 21
180.28073646397581
 31
0.0
  0
LINE
  5
6129
  8
AM_0
 10
266.2276694707449
 20
182.24804486970021
 30
0.0
 11
266.2276694707449
 21
180.28073646397581
 31
0.0
  0
LINE
  5
612A
  8
AM_0
 10
266.2276694707449
 20
179.65773646397571
 30
0.0
 11
266.2276694707449
 21
177.69042805825151
 31
0.0
  0
LINE
  5
612B
  8
AM_0
 10
268.1949778764693
 20
180.28073646397581
 30
0.0
 11
266.2276694707449
 21
180.28073646397581
 31
0.0
  0
LINE
  5
612C
  8
AM_0
 10
268.1949778764693
 20
179.65773646397571
 30
0.0
 11
266.2276694707449
 21
179.65773646397571
 31
0.0
  0
LINE
  5
612D
  8
AM_0
 10
268.1949778764693
 20
179.65773646397571
 30
0.0
 11
268.1949778764693
 21
180.28073646397581
 31
0.0
  0
LINE
  5
612E
  8
AM_0
 10
174.91616947074311
 20
189.9692364639757
 30
0.0
 11
173.9161694707432
 21
189.9692364639757
 31
0.0
  0
LINE
  5
612F
  8
AM_0
 10
174.91616947074311
 20
251.9692364639757
 30
0.0
 11
173.9161694707432
 21
251.9692364639757
 31
0.0
  0
LINE
  5
6130
  8
AM_0
 10
173.9161694707432
 20
189.9692364639757
 30
0.0
 11
173.9161694707432
 21
251.9692364639757
 31
0.0
  0
LINE
  5
6131
  8
ﾁｭｳｼﾝｾﾝ1
 10
179.91616947074101
 20
255.96923646397539
 30
0.0
 11
179.91616947074169
 21
267.96923646397528
 31
0.0
  0
LINE
  5
6132
  8
ﾁｭｳｼﾝｾﾝ1
 10
185.91616947074149
 20
261.96923646397522
 30
0.0
 11
173.91616947074141
 21
261.96923646397568
 31
0.0
  0
LINE
  5
6133
  8
ﾁｭｳｼﾝｾﾝ1
 10
179.91616947074101
 20
173.96923646397599
 30
0.0
 11
179.91616947074169
 21
185.96923646397599
 31
0.0
  0
LINE
  5
6134
  8
ﾁｭｳｼﾝｾﾝ1
 10
185.91616947074121
 20
179.96923646397579
 30
0.0
 11
173.91616947074121
 21
179.96923646397639
 31
0.0
  0
LINE
  5
6135
  8
ﾁｭｳｼﾝｾﾝ1
 10
265.91616947074448
 20
173.96923646397579
 30
0.0
 11
265.9161694707451
 21
185.9692364639757
 31
0.0
  0
LINE
  5
6136
  8
ﾁｭｳｼﾝｾﾝ1
 10
271.91616947074488
 20
179.96923646397551
 30
0.0
 11
259.91616947074488
 21
179.9692364639761
 31
0.0
  0
LINE
  5
613A
  8
AM_0
 10
159.8965922507214
 20
224.70922546397571
 30
0.0
 11
165.91616947074311
 21
224.70922546397571
 31
0.0
  0
LINE
  5
613B
  8
ﾁｭｳｼﾝｾﾝ1
 10
143.91616947074311
 20
200.96923646397551
 30
0.0
 11
177.21411560923349
 21
200.96923646397551
 31
0.0
  0
LINE
  5
613C
  8
AM_0
 10
163.79116947074419
 20
194.57918240785159
 30
0.0
 11
163.80187907528921
 21
194.3692364639756
 31
0.0
  0
LINE
  5
613D
  8
AM_0
 10
163.80187907528921
 20
194.3692364639756
 30
0.0
 11
163.8381844624902
 21
193.65752309008849
 31
0.0
  0
LINE
  5
613E
  8
AM_0
 10
163.79116947074419
 20
198.33651395549251
 30
0.0
 11
164.03719569342411
 21
194.3692364639756
 31
0.0
  0
LINE
  5
613F
  8
AM_0
 10
164.50949863477311
 20
194.3692364639756
 30
0.0
 11
164.1139281218492
 21
194.3692364639756
 31
0.0
  0
LINE
  5
6140
  8
AM_0
 10
164.01733562730999
 20
194.2951186972401
 30
0.0
 11
163.85609112931229
 21
193.69335423071209
 31
0.0
  0
LINE
  5
6141
  8
AM_0
 10
164.03719569342411
 20
194.3692364639756
 30
0.0
 11
164.01733562730999
 21
194.2951186972401
 31
0.0
  0
LINE
  5
6142
  8
AM_0
 10
162.29116947074419
 20
191.9692364639757
 30
0.0
 11
162.29116947074419
 21
192.2692364639766
 31
0.0
  0
LINE
  5
6143
  8
AM_0
 10
151.79116947074311
 20
200.9692364639757
 30
0.0
 11
151.79116947074311
 21
195.65026143156649
 31
0.0
  0
LINE
  5
6144
  8
AM_0
 10
162.29116947074419
 20
192.46923646397661
 30
0.0
 11
163.59116947074409
 21
192.46923646397661
 31
0.0
  0
LINE
  5
6145
  8
AM_0
 10
163.2911694707432
 20
192.4407327326106
 30
0.0
 11
163.29116947074419
 21
192.46923646397661
 31
0.0
  0
LINE
  5
6146
  8
AM_0
 10
154.2911694707411
 20
193.43704525583971
 30
0.0
 11
160.29116947074419
 21
193.43704525583971
 31
0.0
  0
LINE
  5
6147
  8
AM_0
 10
160.29116947074419
 20
192.93704525583959
 30
0.0
 11
154.29116947074019
 21
192.93704525583959
 31
0.0
  0
LINE
  5
6148
  8
AM_0
 10
154.29116947074019
 20
192.93704525583959
 30
0.0
 11
154.79116947074019
 21
192.4692364639757
 31
0.0
  0
LINE
  5
6149
  8
AM_0
 10
154.79116947074019
 20
192.93704525583959
 30
0.0
 11
154.2911694707411
 21
193.43704525583971
 31
0.0
  0
LINE
  5
614A
  8
AM_0
 10
154.2911694707411
 20
194.10802053180851
 30
0.0
 11
154.79116947074019
 21
193.43704525583971
 31
0.0
  0
LINE
  5
614B
  8
AM_0
 10
154.79116947074019
 20
194.1574987724855
 30
0.0
 11
154.2911694707411
 21
194.10802053180851
 31
0.0
  0
LINE
  5
614C
  8
AM_0
 10
160.29116947074419
 20
199.8790426289176
 30
0.0
 11
160.29116947074419
 21
200.9692364639757
 31
0.0
  0
LINE
  5
614D
  8
AM_0
 10
154.29116947074019
 20
199.9692364639757
 30
0.0
 11
160.29116947074419
 21
199.9692364639757
 31
0.0
  0
LINE
  5
614E
  8
AM_0
 10
154.79116947074019
 20
199.2809741554656
 30
0.0
 11
154.29116947074019
 21
199.9692364639757
 31
0.0
  0
LINE
  5
614F
  8
AM_0
 10
154.29116947074019
 20
199.9692364639757
 30
0.0
 11
154.79116947074121
 21
200.4692364639757
 31
0.0
  0
LINE
  5
6150
  8
AM_0
 10
154.2911694707411
 20
200.9692364639757
 30
0.0
 11
154.79116947074121
 21
200.4692364639757
 31
0.0
  0
LINE
  5
6151
  8
AM_0
 10
154.79116947074121
 20
200.4692364639757
 30
0.0
 11
160.29116947074419
 21
200.4692364639757
 31
0.0
  0
LINE
  5
6152
  8
AM_0
 10
154.79116947074019
 20
199.2809741554656
 30
0.0
 11
160.29116947074419
 21
199.2809741554656
 31
0.0
  0
LINE
  5
6153
  8
AM_0
 10
154.79116947074019
 20
194.1574987724855
 30
0.0
 11
160.29116947074419
 21
194.1574987724866
 31
0.0
  0
LINE
  5
6154
  8
AM_0
 10
163.2911694707432
 20
200.5192364639766
 30
0.0
 11
163.29116947074419
 21
200.9692364639757
 31
0.0
  0
LINE
  5
6155
  8
AM_0
 10
162.29116947074419
 20
192.2692364639766
 30
0.0
 11
162.29116947074419
 21
200.96923646397761
 31
0.0
  0
LINE
  5
6156
  8
AM_0
 10
162.99116947074319
 20
194.01173177594359
 30
0.0
 11
162.29116947074419
 21
194.01173177594359
 31
0.0
  0
LINE
  5
6157
  8
AM_0
 10
163.2911694707432
 20
193.30662091865369
 30
0.0
 11
163.2911694707432
 21
193.7117317759436
 31
0.0
  0
LINE
  5
6158
  8
AM_0
 10
162.29116947074419
 20
193.0066209186536
 30
0.0
 11
162.99116947074319
 21
193.0066209186536
 31
0.0
  0
LINE
  5
6159
  8
AM_0
 10
162.99116947074319
 20
197.3853319613446
 30
0.0
 11
162.29116947074419
 21
197.3853319613446
 31
0.0
  0
LINE
  5
615A
  8
AM_0
 10
163.2911694707432
 20
196.28541569505251
 30
0.0
 11
163.2911694707432
 21
197.08533196134451
 31
0.0
  0
LINE
  5
615B
  8
AM_0
 10
162.29116947074419
 20
195.98541569505269
 30
0.0
 11
162.99116947074319
 21
195.98541569505269
 31
0.0
  0
LINE
  5
615C
  8
AM_0
 10
162.29116947074419
 20
200.2192364639757
 30
0.0
 11
162.99116947074319
 21
200.2192364639757
 31
0.0
  0
LINE
  5
615D
  8
AM_0
 10
163.79116947074419
 20
200.96923646397551
 30
0.0
 11
163.79116947074419
 21
192.6692364639766
 31
0.0
  0
LINE
  5
615E
  8
AM_0
 10
160.4911694707431
 20
191.9692364639757
 30
0.0
 11
162.29116947074419
 21
191.9692364639757
 31
0.0
  0
LINE
  5
615F
  8
AM_0
 10
151.90705883094421
 20
195.3301692317346
 30
0.0
 11
154.141246303934
 21
192.64914426414191
 31
0.0
  0
LINE
  5
6160
  8
AM_0
 10
163.02102058644971
 20
192.14222157554761
 30
0.0
 11
162.29116947074419
 21
192.06923646397661
 31
0.0
  0
LINE
  5
6161
  8
AM_0
 10
160.09116947074409
 20
192.4692364639757
 30
0.0
 11
154.52535694373319
 21
192.46923646397349
 31
0.0
  0
LINE
  5
6162
  8
AM_0
 10
160.29116947074419
 20
199.8790426289176
 30
0.0
 11
160.29116947074419
 21
192.26923646397549
 31
0.0
  0
LINE
  5
6163
  8
AM_0
 10
160.29116947074419
 20
192.26923646397549
 30
0.0
 11
160.29116947074311
 21
192.16923646397561
 31
0.0
  0
LINE
  5
6164
  8
AM_0
 10
167.91616947074311
 20
192.66923646397581
 30
0.0
 11
167.91616947074311
 21
199.2809741554656
 31
0.0
  0
LINE
  5
6165
  8
AM_0
 10
164.41616947074419
 20
200.96923646397551
 30
0.0
 11
164.78892332875421
 21
193.65309811645571
 31
0.0
  0
LINE
  5
6166
  8
AM_0
 10
164.96520484051911
 20
200.96923646397551
 30
0.0
 11
165.3381844624902
 21
193.65752309008849
 31
0.0
  0
LINE
  5
6167
  8
AM_0
 10
164.60609112931229
 20
194.2951186972391
 30
0.0
 11
164.58623106319919
 21
194.3692364639756
 31
0.0
  0
LINE
  5
6168
  8
AM_0
 10
165.53719569342411
 20
194.3692364639756
 30
0.0
 11
165.5173356273101
 21
194.2951186972401
 31
0.0
  0
LINE
  5
6169
  8
AM_0
 10
165.25949863477311
 20
193.6192364639756
 30
0.0
 11
164.8639281218492
 21
193.6192364639756
 31
0.0
  0
LINE
  5
616A
  8
AM_0
 10
164.76733562730999
 20
193.6933542307122
 30
0.0
 11
164.60609112931229
 21
194.2951186972391
 31
0.0
  0
LINE
  5
616B
  8
AM_0
 10
165.5173356273101
 20
194.2951186972401
 30
0.0
 11
165.35609112931229
 21
193.69335423071209
 31
0.0
  0
LINE
  5
616C
  8
AM_0
 10
164.17693953439621
 20
200.96923646397551
 30
0.0
 11
164.58623106319919
 21
194.3692364639756
 31
0.0
  0
LINE
  5
616D
  8
AM_0
 10
165.12790416462121
 20
200.96923646397551
 30
0.0
 11
165.53719569342411
 21
194.3692364639756
 31
0.0
  0
LINE
  5
616E
  8
AM_0
 10
165.6139281218492
 20
194.3692364639756
 30
0.0
 11
167.41616947074311
 21
194.3692364639756
 31
0.0
  0
LINE
  5
616F
  8
AM_0
 10
167.91616947074311
 20
199.2809741554656
 30
0.0
 11
167.91616947074311
 21
200.9692364639767
 31
0.0
  0
LINE
  5
6170
  8
AM_0
 10
168.11616947074319
 20
192.46923646397551
 30
0.0
 11
171.7161694707431
 21
192.46923646397551
 31
0.0
  0
LINE
  5
6171
  8
AM_0
 10
171.71616947074321
 20
199.2809741554656
 30
0.0
 11
167.91616947074311
 21
199.2809741554656
 31
0.0
  0
LINE
  5
6172
  8
AM_0
 10
167.91616947074311
 20
194.1574987724866
 30
0.0
 11
171.71616947074321
 21
194.1574987724866
 31
0.0
  0
LINE
  5
6173
  8
AM_0
 10
146.91616947074311
 20
200.9692364639757
 30
0.0
 11
146.91616947074311
 21
196.7192364639757
 31
0.0
  0
LINE
  5
6174
  8
AM_0
 10
151.79116947074311
 20
196.66810010033959
 30
0.0
 11
146.91616947074311
 21
196.7192364639757
 31
0.0
  0
LINE
  5
6175
  8
AM_0
 10
146.91616947074311
 20
205.2192364639757
 30
0.0
 11
151.79116947074311
 21
205.27037282761279
 31
0.0
  0
LINE
  5
6176
  8
AM_0
 10
146.91616947074311
 20
205.2192364639757
 30
0.0
 11
146.91616947074311
 21
200.9692364639757
 31
0.0
  0
LINE
  5
6177
  8
AM_0
 10
171.71616947074321
 20
207.7809741554656
 30
0.0
 11
167.91616947074311
 21
207.7809741554656
 31
0.0
  0
LINE
  5
6178
  8
AM_0
 10
167.91616947074311
 20
202.6574987724866
 30
0.0
 11
171.71616947074321
 21
202.6574987724866
 31
0.0
  0
LINE
  5
6179
  8
AM_0
 10
171.71616947074321
 20
209.46923646397551
 30
0.0
 11
168.11616947074319
 21
209.46923646397551
 31
0.0
  0
LINE
  5
617A
  8
AM_0
 10
167.91616947074311
 20
200.9692364639767
 30
0.0
 11
167.91616947074311
 21
202.6574987724866
 31
0.0
  0
LINE
  5
617B
  8
AM_0
 10
167.41616947074311
 20
207.5692364639757
 30
0.0
 11
164.8679018991692
 21
207.5692364639757
 31
0.0
  0
LINE
  5
617C
  8
AM_0
 10
164.79116947074311
 20
207.5692364639757
 30
0.0
 11
165.12790416462121
 21
200.96923646397551
 31
0.0
  0
LINE
  5
617D
  8
AM_0
 10
163.8402048405182
 20
207.5692364639757
 30
0.0
 11
164.17693953439621
 21
200.96923646397551
 31
0.0
  0
LINE
  5
617E
  8
AM_0
 10
164.61006490663229
 20
208.24511869723901
 30
0.0
 11
164.7713094046301
 21
207.64335423071211
 31
0.0
  0
LINE
  5
617F
  8
AM_0
 10
163.86006490663229
 20
207.64335423071211
 30
0.0
 11
164.02130940462999
 21
208.24511869723901
 31
0.0
  0
LINE
  5
6180
  8
AM_0
 10
164.11790189916911
 20
208.31923646397561
 30
0.0
 11
164.51347241209319
 21
208.31923646397561
 31
0.0
  0
LINE
  5
6181
  8
AM_0
 10
164.7713094046301
 20
207.64335423071211
 30
0.0
 11
164.79116947074311
 21
207.5692364639757
 31
0.0
  0
LINE
  5
6182
  8
AM_0
 10
163.8402048405182
 20
207.5692364639757
 30
0.0
 11
163.86006490663229
 21
207.64335423071211
 31
0.0
  0
LINE
  5
6183
  8
AM_0
 10
164.59215823981009
 20
208.28094983786261
 30
0.0
 11
164.96520484051911
 21
200.96923646397551
 31
0.0
  0
LINE
  5
6184
  8
AM_0
 10
164.04289710607421
 20
208.28537481149661
 30
0.0
 11
164.41616947074419
 21
200.96923646397551
 31
0.0
  0
LINE
  5
6185
  8
AM_0
 10
167.91616947074311
 20
202.6574987724866
 30
0.0
 11
167.91616947074311
 21
209.2692364639764
 31
0.0
  0
LINE
  5
6186
  8
AM_0
 10
160.29116947074311
 20
209.76923646397671
 30
0.0
 11
160.29116947074419
 21
209.66923646397669
 31
0.0
  0
LINE
  5
6187
  8
AM_0
 10
160.29116947074419
 20
209.66923646397669
 30
0.0
 11
160.29116947074419
 21
202.05943029903469
 31
0.0
  0
LINE
  5
6188
  8
AM_0
 10
154.52535694373319
 20
209.4692364639786
 30
0.0
 11
160.09116947074409
 21
209.4692364639767
 31
0.0
  0
LINE
  5
6189
  8
AM_0
 10
162.29116947074419
 20
209.8692364639756
 30
0.0
 11
163.02102058644979
 21
209.7962513524046
 31
0.0
  0
LINE
  5
618A
  8
AM_0
 10
154.14124630393411
 20
209.28932866381041
 30
0.0
 11
151.90705883094429
 21
206.6083036962176
 31
0.0
  0
LINE
  5
618B
  8
AM_0
 10
162.29116947074419
 20
209.9692364639757
 30
0.0
 11
160.49116947074319
 21
209.9692364639757
 31
0.0
  0
LINE
  5
618C
  8
AM_0
 10
163.79116947074419
 20
209.2692364639756
 30
0.0
 11
163.79116947074419
 21
200.96923646397551
 31
0.0
  0
LINE
  5
618D
  8
AM_0
 10
162.99116947074319
 20
201.7192364639757
 30
0.0
 11
162.29116947074419
 21
201.7192364639757
 31
0.0
  0
LINE
  5
618E
  8
AM_0
 10
162.99116947074319
 20
205.9530572328996
 30
0.0
 11
162.29116947074419
 21
205.9530572328996
 31
0.0
  0
LINE
  5
618F
  8
AM_0
 10
163.2911694707432
 20
204.85314096660761
 30
0.0
 11
163.2911694707432
 21
205.6530572328997
 31
0.0
  0
LINE
  5
6190
  8
AM_0
 10
162.29116947074419
 20
204.55314096660771
 30
0.0
 11
162.99116947074319
 21
204.55314096660771
 31
0.0
  0
LINE
  5
6191
  8
AM_0
 10
162.99116947074319
 20
208.93185200929869
 30
0.0
 11
162.29116947074419
 21
208.93185200929869
 31
0.0
  0
LINE
  5
6192
  8
AM_0
 10
163.2911694707432
 20
208.22674115200871
 30
0.0
 11
163.2911694707432
 21
208.63185200929871
 31
0.0
  0
LINE
  5
6193
  8
AM_0
 10
162.29116947074419
 20
207.9267411520087
 30
0.0
 11
162.99116947074319
 21
207.9267411520087
 31
0.0
  0
LINE
  5
6194
  8
AM_0
 10
162.29116947074419
 20
200.96923646397761
 30
0.0
 11
162.29116947074419
 21
209.66923646397561
 31
0.0
  0
LINE
  5
6195
  8
AM_0
 10
163.29116947074419
 20
200.9692364639757
 30
0.0
 11
163.2911694707432
 21
201.41923646397561
 31
0.0
  0
LINE
  5
6196
  8
AM_0
 10
160.29116947074419
 20
207.7809741554656
 30
0.0
 11
154.79116947074019
 21
207.7809741554656
 31
0.0
  0
LINE
  5
6197
  8
AM_0
 10
160.29116947074419
 20
202.6574987724866
 30
0.0
 11
154.79116947074019
 21
202.65749877248561
 31
0.0
  0
LINE
  5
6198
  8
AM_0
 10
160.29116947074419
 20
201.4692364639757
 30
0.0
 11
154.79116947074121
 21
201.4692364639757
 31
0.0
  0
LINE
  5
6199
  8
AM_0
 10
154.79116947074121
 20
201.4692364639757
 30
0.0
 11
154.2911694707411
 21
200.9692364639757
 31
0.0
  0
LINE
  5
619A
  8
AM_0
 10
154.79116947074121
 20
201.4692364639757
 30
0.0
 11
154.29116947074019
 21
201.9692364639757
 31
0.0
  0
LINE
  5
619B
  8
AM_0
 10
154.29116947074019
 20
201.9692364639757
 30
0.0
 11
154.79116947074019
 21
202.65749877248561
 31
0.0
  0
LINE
  5
619C
  8
AM_0
 10
160.29116947074419
 20
201.9692364639757
 30
0.0
 11
154.29116947074019
 21
201.9692364639757
 31
0.0
  0
LINE
  5
619D
  8
AM_0
 10
160.29116947074419
 20
200.9692364639757
 30
0.0
 11
160.29116947074419
 21
202.05943029903469
 31
0.0
  0
LINE
  5
619E
  8
AM_0
 10
154.29116947074121
 20
207.8304523961437
 30
0.0
 11
154.79116947074019
 21
207.7809741554656
 31
0.0
  0
LINE
  5
619F
  8
AM_0
 10
154.79116947074019
 20
208.5014276721127
 30
0.0
 11
154.29116947074121
 21
207.8304523961437
 31
0.0
  0
LINE
  5
61A0
  8
AM_0
 10
154.29116947074121
 20
208.5014276721127
 30
0.0
 11
154.79116947074019
 21
209.00142767211261
 31
0.0
  0
LINE
  5
61A1
  8
AM_0
 10
154.79116947074019
 20
209.4692364639757
 30
0.0
 11
154.29116947074019
 21
209.00142767211261
 31
0.0
  0
LINE
  5
61A2
  8
AM_0
 10
154.29116947074019
 20
209.00142767211261
 30
0.0
 11
160.29116947074419
 21
209.00142767211261
 31
0.0
  0
LINE
  5
61A3
  8
AM_0
 10
160.29116947074419
 20
208.5014276721127
 30
0.0
 11
154.29116947074121
 21
208.5014276721127
 31
0.0
  0
LINE
  5
61A4
  8
AM_0
 10
163.29116947074419
 20
209.4692364639757
 30
0.0
 11
163.2911694707432
 21
209.49774019534161
 31
0.0
  0
LINE
  5
61A5
  8
AM_0
 10
163.59116947074421
 20
209.46923646397551
 30
0.0
 11
162.29116947074419
 21
209.4692364639757
 31
0.0
  0
LINE
  5
61A6
  8
AM_0
 10
151.79116947074311
 20
206.2882114963858
 30
0.0
 11
151.79116947074311
 21
200.9692364639757
 31
0.0
  0
LINE
  5
61A7
  8
AM_0
 10
162.29116947074419
 20
209.66923646397561
 30
0.0
 11
162.29116947074419
 21
209.9692364639757
 31
0.0
  0
ARC
  5
61A8
  8
AM_0
 10
164.50949863477311
 20
194.26923646397569
 30
0.0
 40
0.0999999999999643
 50
15.00019500651214
 51
90.0
  0
ARC
  5
61A9
  8
AM_0
 10
161.10366947074019
 20
196.7192364639757
 30
0.0
 40
6.8125000000000382
 50
157.91171016505771
 51
202.08828983494229
  0
ARC
  5
61AA
  8
AM_0
 10
171.7161694707431
 20
192.2692364639756
 30
0.0
 40
0.1999999999999993
 50
0.0
 51
90.0
  0
ARC
  5
61AB
  8
AM_0
 10
171.7161694707431
 20
209.66923646397561
 30
0.0
 40
0.2000000000000028
 50
270.0
 51
0.0
  0
ARC
  5
61AC
  8
AM_0
 10
161.10366947074019
 20
205.2192364639757
 30
0.0
 40
6.8125000000000382
 50
157.91171016505771
 51
202.08828983494229
  0
ARC
  5
61AD
  8
AM_0
 10
163.75949863477311
 20
193.7192364639757
 30
0.0
 40
0.1000000000000547
 50
288.4639767573006
 51
344.99980499348783
  0
ARC
  5
61AE
  8
AM_0
 10
164.1139281218492
 20
194.2692364639766
 30
0.0
 40
0.1000000000000014
 50
90.0
 51
164.9998049934843
  0
ARC
  5
61AF
  8
AM_0
 10
154.52535694373319
 20
192.96923646397369
 30
0.0
 40
0.499999999999975
 50
219.8055710921868
 51
270.0
  0
ARC
  5
61B0
  8
AM_0
 10
152.29116947074311
 20
195.65026143156669
 30
0.0
 40
0.5
 50
180.00000000000969
 51
219.80557109223059
  0
ARC
  5
61B1
  8
AM_0
 10
162.99116947074319
 20
193.71173177594369
 30
0.0
 40
0.3000000000000007
 50
0.0
 51
90.0
  0
ARC
  5
61B2
  8
AM_0
 10
162.99116947074319
 20
193.30662091865369
 30
0.0
 40
0.3000000000000043
 50
270.0
 51
0.0
  0
ARC
  5
61B3
  8
AM_0
 10
162.99116947074319
 20
197.08533196134451
 30
0.0
 40
0.3000000000000007
 50
0.0
 51
90.0
  0
ARC
  5
61B4
  8
AM_0
 10
162.99116947074319
 20
196.28541569505251
 30
0.0
 40
0.2999999999999971
 50
270.0
 51
0.0
  0
ARC
  5
61B5
  8
AM_0
 10
162.99116947074319
 20
200.5192364639766
 30
0.0
 40
0.2999999999999971
 50
270.0
 51
0.0
  0
ARC
  5
61B6
  8
AM_0
 10
162.99116947074319
 20
192.4407327326106
 30
0.0
 40
0.3000000000000302
 50
275.71059313755637
 51
0.0
  0
ARC
  5
61B7
  8
AM_0
 10
160.4911694707431
 20
192.16923646397561
 30
0.0
 40
0.1999999999999993
 50
180.0
 51
270.0
  0
ARC
  5
61B8
  8
AM_0
 10
163.59116947074409
 20
192.6692364639766
 30
0.0
 40
0.1999999999999957
 50
270.0
 51
0.0
  0
ARC
  5
61B9
  8
AM_0
 10
160.09116947074409
 20
192.26923646397569
 30
0.0
 40
0.1999999999999993
 50
359.99999999997061
 51
90.0
  0
ARC
  5
61BA
  8
AM_0
 10
165.6139281218492
 20
194.2692364639766
 30
0.0
 40
0.1000000000000014
 50
90.0
 51
164.9998049934843
  0
ARC
  5
61BB
  8
AM_0
 10
165.25949863477311
 20
193.7192364639757
 30
0.0
 40
0.1000000000000014
 50
270.0
 51
344.99980499348783
  0
ARC
  5
61BC
  8
AM_0
 10
164.8639281218492
 20
193.7192364639757
 30
0.0
 40
0.1000000000000311
 50
195.00019500644461
 51
270.0
  0
ARC
  5
61BD
  8
AM_0
 10
167.41616947074311
 20
193.8692364639756
 30
0.0
 40
0.5
 50
359.99999999997721
 51
90.0
  0
ARC
  5
61BE
  8
AM_0
 10
171.7161694707431
 20
199.0809741554657
 30
0.0
 40
0.1999999999999993
 50
0.0
 51
90.0
  0
ARC
  5
61BF
  8
AM_0
 10
171.7161694707431
 20
194.35749877248639
 30
0.0
 40
0.2000000000000028
 50
270.0
 51
0.0
  0
ARC
  5
61C0
  8
AM_0
 10
168.11616947074319
 20
192.66923646397561
 30
0.0
 40
0.1999999999999993
 50
179.99999999994131
 51
270.0
  0
ARC
  5
61C1
  8
AM_0
 10
168.11616947074319
 20
209.2692364639766
 30
0.0
 40
0.2000000000000028
 50
90.0
 51
180.00000000005531
  0
ARC
  5
61C2
  8
AM_0
 10
171.7161694707431
 20
207.5809741554657
 30
0.0
 40
0.1999999999999993
 50
0.0
 51
90.0
  0
ARC
  5
61C3
  8
AM_0
 10
171.7161694707431
 20
202.8574987724856
 30
0.0
 40
0.2000000000000028
 50
270.0
 51
0.0
  0
ARC
  5
61C4
  8
AM_0
 10
167.41616947074311
 20
208.0692364639757
 30
0.0
 40
0.5
 50
270.0
 51
0.0000000000227982
  0
ARC
  5
61C5
  8
AM_0
 10
164.11790189916911
 20
208.2192364639757
 30
0.0
 40
0.1000000000000014
 50
90.0
 51
164.99980499355539
  0
ARC
  5
61C6
  8
AM_0
 10
164.51347241209311
 20
208.2192364639757
 30
0.0
 40
0.0999999999999608
 50
15.00019500651571
 51
90.0
  0
ARC
  5
61C7
  8
AM_0
 10
164.8679018991692
 20
207.66923646397561
 30
0.0
 40
0.0999999999999608
 50
195.00019500651561
 51
270.0
  0
ARC
  5
61C8
  8
AM_0
 10
163.76347241209311
 20
207.66923646397561
 30
0.0
 40
0.0999999999999803
 50
286.07948273872381
 51
344.99980499348419
  0
ARC
  5
61C9
  8
AM_0
 10
160.09116947074409
 20
209.66923646397669
 30
0.0
 40
0.1999999999999957
 50
270.0
 51
0.000000000029312
  0
ARC
  5
61CA
  8
AM_0
 10
163.59116947074409
 20
209.26923646397569
 30
0.0
 40
0.1999999999999993
 50
0.0
 51
90.0
  0
ARC
  5
61CB
  8
AM_0
 10
160.4911694707431
 20
209.76923646397671
 30
0.0
 40
0.2000000000000028
 50
90.0
 51
180.0
  0
ARC
  5
61CC
  8
AM_0
 10
162.99116947074319
 20
209.49774019534161
 30
0.0
 40
0.3000000000000007
 50
0.0
 51
84.289406862443656
  0
ARC
  5
61CD
  8
AM_0
 10
162.99116947074319
 20
201.41923646397561
 30
0.0
 40
0.3000000000000007
 50
0.0
 51
90.0
  0
ARC
  5
61CE
  8
AM_0
 10
162.99116947074319
 20
205.6530572328997
 30
0.0
 40
0.3000000000000007
 50
0.0
 51
90.0
  0
ARC
  5
61CF
  8
AM_0
 10
162.99116947074319
 20
204.85314096660761
 30
0.0
 40
0.2999999999999971
 50
270.0
 51
0.0
  0
ARC
  5
61D0
  8
AM_0
 10
162.99116947074319
 20
208.63185200929871
 30
0.0
 40
0.3000000000000007
 50
0.0
 51
90.0
  0
ARC
  5
61D1
  8
AM_0
 10
162.99116947074319
 20
208.22674115200871
 30
0.0
 40
0.3000000000000043
 50
270.0
 51
0.0
  0
ARC
  5
61D2
  8
AM_0
 10
152.29116947074311
 20
206.28821149638571
 30
0.0
 40
0.5000000000000059
 50
140.19442890776941
 51
179.99999999998701
  0
ARC
  5
61D3
  8
AM_0
 10
154.52535694373319
 20
208.9692364639788
 30
0.0
 40
0.5
 50
90.0
 51
140.19442890781301
  0
LINE
  5
61D4
  8
AM_0
 10
172.11616947074319
 20
191.96923646397551
 30
0.0
 11
173.9161694707432
 21
191.96923646397551
 31
0.0
  0
LINE
  5
61D5
  8
AM_0
 10
171.91616947074311
 20
192.16923646397561
 30
0.0
 11
171.91616947074311
 21
209.76923646397671
 31
0.0
  0
LINE
  5
61D6
  8
AM_0
 10
173.9161694707432
 20
209.96923646397559
 30
0.0
 11
172.11616947074319
 21
209.9692364639757
 31
0.0
  0
ARC
  5
61D7
  8
AM_0
 10
172.11616947074319
 20
192.16923646397561
 30
0.0
 40
0.1999999999999993
 50
180.0
 51
270.0
  0
ARC
  5
61D8
  8
AM_0
 10
172.11616947074319
 20
209.76923646397671
 30
0.0
 40
0.2000000000000028
 50
90.0
 51
180.0
  0
LINE
  5
61DA
  8
AM_0
 10
119.4161794707439
 20
273.03063997274762
 30
0.0
 11
119.4161794707436
 21
235.30835305799039
 31
0.0
  0
LINE
  5
61DB
  8
AM_0
 10
110.416179470743
 20
274.96923646397562
 30
0.0
 11
110.416179470743
 21
195.92887198442739
 31
0.0
  0
LINE
  5
61DC
  8
AM_0
 10
110.416179470743
 20
274.96923646397562
 30
0.0
 11
127.416179470743
 21
273.96923646397551
 31
0.0
  0
LINE
  5
61DD
  8
AM_0
 10
110.416179470743
 20
166.9692364639757
 30
0.0
 11
127.416179470743
 21
167.96923646397559
 31
0.0
  0
LINE
  5
61DE
  8
AM_0
 10
119.4161794707438
 20
264.5631396620671
 30
0.0
 11
127.416179470743
 21
264.5631396620671
 31
0.0
  0
LINE
  5
61DF
  8
AM_0
 10
119.4161794707439
 20
273.03063997274762
 30
0.0
 11
127.416179470743
 21
273.03063997274762
 31
0.0
  0
LINE
  5
61E0
  8
AM_0
 10
115.9161794707438
 20
255.61010942923559
 30
0.0
 11
119.4161794707438
 21
255.61010942923559
 31
0.0
  0
LINE
  5
61E1
  8
AM_0
 10
115.9161794707438
 20
264.11010942923559
 30
0.0
 11
119.4161794707438
 21
264.11010942923559
 31
0.0
  0
LINE
  5
61E2
  8
AM_0
 10
115.4161794707438
 20
263.61010942923571
 30
0.0
 11
115.4161794707438
 21
256.11010942923559
 31
0.0
  0
ARC
  5
61E3
  8
AM_0
 10
115.9161794707438
 20
263.61010942923571
 30
0.0
 40
0.5
 50
90.0
 51
180.0
  0
ARC
  5
61E4
  8
AM_0
 10
115.9161794707438
 20
256.11010942923559
 30
0.0
 40
0.5
 50
180.0
 51
270.0
  0
LINE
  5
61E5
  8
AM_0
 10
110.416179470743
 20
263.24143095711588
 30
0.0
 11
115.4161794707438
 21
263.24143095711588
 31
0.0
  0
LINE
  5
61E6
  8
AM_0
 10
110.416179470743
 20
253.5063484588197
 30
0.0
 11
119.4161794707437
 21
253.5063484588197
 31
0.0
  0
LINE
  5
61E7
  8
AM_0
 10
119.4161794707438
 20
177.37533326588411
 30
0.0
 11
127.416179470743
 21
177.37533326588411
 31
0.0
  0
LINE
  5
61E8
  8
AM_0
 10
119.4161794707439
 20
168.90783295520359
 30
0.0
 11
127.416179470743
 21
168.90783295520359
 31
0.0
  0
LINE
  5
61E9
  8
AM_0
 10
115.9161794707438
 20
186.3283634987155
 30
0.0
 11
119.4161794707438
 21
186.32836349871559
 31
0.0
  0
LINE
  5
61EA
  8
AM_0
 10
115.9161794707438
 20
177.82836349871539
 30
0.0
 11
119.4161794707438
 21
177.82836349871559
 31
0.0
  0
LINE
  5
61EB
  8
AM_0
 10
115.4161794707438
 20
178.3283634987155
 30
0.0
 11
115.4161794707438
 21
185.82836349871531
 31
0.0
  0
ARC
  5
61EC
  8
AM_0
 10
115.9161794707438
 20
178.3283634987155
 30
0.0
 40
0.5
 50
180.0
 51
270.0
  0
ARC
  5
61ED
  8
AM_0
 10
115.9161794707438
 20
185.82836349871531
 30
0.0
 40
0.5
 50
90.0
 51
180.0
  0
LINE
  5
61EE
  8
AM_0
 10
110.416179470743
 20
178.69704197083539
 30
0.0
 11
115.4161794707438
 21
178.69704197083539
 31
0.0
  0
LINE
  5
61EF
  8
AM_0
 10
110.416179470743
 20
188.4321244691314
 30
0.0
 11
119.4161794707437
 21
188.43212446913151
 31
0.0
  0
LINE
  5
61F1
  8
AM_0
 10
119.4161794707436
 20
235.3083530579905
 30
0.0
 11
127.416179470743
 21
235.3083530579903
 31
0.0
  0
LINE
  5
61F2
  8
AM_0
 10
119.4161794707439
 20
168.90783295520359
 30
0.0
 11
119.4161794707437
 21
193.83351772530551
 31
0.0
  0
LINE
  5
61F3
  8
AM_0
 10
119.4161794707436
 20
206.63011986996079
 30
0.0
 11
127.416179470743
 21
206.63011986996079
 31
0.0
  0
LINE
  5
6636
  8
AM_0
 10
139.32759679209479
 20
197.96920196397551
 30
0.0
 11
146.91616947074311
 21
197.96920196397551
 31
0.0
  0
LINE
  5
6638
  8
AM_0
 10
139.32759679209471
 20
203.96920196397519
 30
0.0
 11
146.91616947074311
 21
203.96920196397511
 31
0.0
  0
LINE
  5
663A
  8
AM_0
 10
75.505594719407441
 20
256.95961280890162
 30
0.0
 11
75.505594719407441
 21
250.4480079099427
 31
0.0
  0
LINE
  5
663B
  8
AM_0
 10
72.416179470742904
 20
209.96920196397551
 30
0.0
 11
72.416179470742904
 21
204.46920196397551
 31
0.0
  0
LINE
  5
663C
  8
AM_0
 10
77.916179470742904
 20
217.46920196397551
 30
0.0
 11
77.916179470742904
 21
224.46920196397531
 31
0.0
  0
LINE
  5
663D
  8
AM_0
 10
89.616179470742935
 20
204.46920196397551
 30
0.0
 11
72.416179470742904
 21
204.46920196397551
 31
0.0
  0
LINE
  5
663E
  8
AM_0
 10
104.4161794707429
 20
166.96920196397551
 30
0.0
 11
104.4161794707429
 21
185.01830450823559
 31
0.0
  0
LINE
  5
663F
  8
AM_0
 10
104.4161794707429
 20
192.130168620853
 30
0.0
 11
104.4161794707429
 21
274.96920196397548
 31
0.0
  0
LINE
  5
6640
  8
AM_0
 10
72.416179470742904
 20
219.46920196397551
 30
0.0
 11
73.31617947074291
 21
219.46920196397551
 31
0.0
  0
LINE
  5
6641
  8
AM_0
 10
89.916179470742918
 20
212.46920196397551
 30
0.0
 11
89.916179470742918
 21
215.05371164857951
 31
0.0
  0
LINE
  5
6642
  8
AM_0
 10
70.216179470742645
 20
222.46920196397551
 30
0.0
 11
70.216179470742645
 21
219.46920196397551
 31
0.0
  0
LINE
  5
6643
  8
AM_0
 10
73.31617947074291
 20
219.19685022939191
 30
0.0
 11
73.31617947074291
 21
222.74155369855919
 31
0.0
  0
LINE
  5
6644
  8
AM_0
 10
69.916179470742804
 20
222.1692019639755
 30
0.0
 11
73.316179470743023
 21
222.1692019639755
 31
0.0
  0
LINE
  5
6645
  8
AM_0
 10
77.316179470742895
 20
218.58763210356841
 30
0.0
 11
77.316179470742895
 21
217.46920196397551
 31
0.0
  0
LINE
  5
6646
  8
AM_0
 10
77.316179470742895
 20
219.46920196397551
 30
0.0
 11
77.316179470742895
 21
219.36920196397551
 31
0.0
  0
LINE
  5
6647
  8
AM_0
 10
77.316179470742895
 20
219.36920196397551
 30
0.0
 11
77.316179470742895
 21
218.58763210356841
 31
0.0
  0
LINE
  5
6648
  8
AM_0
 10
72.416179470742904
 20
204.46920196397551
 30
0.0
 11
72.416179470742904
 21
196.2316679545531
 31
0.0
  0
LINE
  5
6649
  8
AM_0
 10
89.769732861336266
 20
215.40726503917281
 30
0.0
 11
89.414665735148006
 21
215.76233216536099
 31
0.0
  0
LINE
  5
664A
  8
AM_0
 10
72.416179470742904
 20
222.46920196397551
 30
0.0
 11
72.416179470742904
 21
245.70673597339771
 31
0.0
  0
LINE
  5
664B
  8
AM_0
 10
104.4161794707429
 20
265.96920196397559
 30
0.0
 11
80.646170770110274
 21
265.96920196397548
 31
0.0
  0
LINE
  5
664C
  8
AM_0
 10
72.416179470742904
 20
210.89560513969661
 30
0.0
 11
72.416179470742904
 21
219.46920196397551
 31
0.0
  0
LINE
  5
664D
  8
AM_0
 10
110.4161794707431
 20
274.96920196397548
 30
0.0
 11
104.4161794707429
 21
274.96920196397548
 31
0.0
  0
LINE
  5
664E
  8
AM_0
 10
104.4161794707429
 20
166.96920196397551
 30
0.0
 11
110.4161794707429
 21
166.96920196397551
 31
0.0
  0
LINE
  5
664F
  8
AM_0
 10
104.4161794707429
 20
175.96920196397539
 30
0.0
 11
94.916179470742946
 21
175.96920196397539
 31
0.0
  0
LINE
  5
6650
  8
AM_0
 10
72.461756211706302
 20
246.2276805063984
 30
0.0
 11
75.031199659368525
 21
260.79971841766218
 31
0.0
  0
LINE
  5
6651
  8
AM_0
 10
72.416179470742904
 20
210.89560513969661
 30
0.0
 11
72.416179470742904
 21
209.96920196397551
 31
0.0
  0
LINE
  5
6652
  8
AM_0
 10
94.916179470742946
 20
176.0378244143613
 30
0.0
 11
92.353392171845911
 21
176.0378244143613
 31
0.0
  0
LINE
  5
6653
  8
AM_0
 10
78.460017978444043
 20
175.96920196397539
 30
0.0
 11
79.416179470742904
 21
175.96920196397539
 31
0.0
  0
LINE
  5
6654
  8
AM_0
 10
72.461756211706302
 20
195.71072342155239
 30
0.0
 11
75.505594719407441
 21
178.44825743097459
 31
0.0
  0
LINE
  5
6655
  8
AM_0
 10
72.416179470742904
 20
195.96920196397551
 30
0.0
 11
72.461756211706302
 21
195.71072342155239
 31
0.0
  0
LINE
  5
6656
  8
AM_0
 10
72.416179470742904
 20
196.2316679545531
 30
0.0
 11
72.416179470742904
 21
195.96920196397551
 31
0.0
  0
LINE
  5
6668
  8
AM_0
 10
71.916140802735981
 20
274.46920196397548
 30
0.0
 11
71.916118350337342
 21
301.46920196397548
 31
0.0
  0
LINE
  5
6669
  8
AM_0
 10
71.916118350337342
 20
301.46920196397548
 30
0.0
 11
79.916118350339957
 21
301.46920196397548
 31
0.0
  0
LINE
  5
666A
  8
AM_0
 10
79.916118350339957
 20
301.46920196397548
 30
0.0
 11
81.416113695160888
 21
307.06726080196398
 31
0.0
  0
LINE
  5
666B
  8
AM_0
 10
81.416113695160888
 20
307.06726080196398
 30
0.0
 11
81.416098931800548
 21
324.82085308185441
 31
0.0
  0
LINE
  5
666C
  8
AM_0
 10
71.916118350337342
 20
301.46920196397548
 30
0.0
 11
70.416113695128274
 21
307.0672955488053
 31
0.0
  0
LINE
  5
666D
  8
AM_0
 10
70.416113695128274
 20
307.0672955488053
 30
0.0
 11
70.416098931804299
 21
324.82084393458092
 31
0.0
  0
LINE
  5
666E
  8
AM_0
 10
75.916140802737345
 20
324.82084393458092
 30
0.0
 11
75.916140802737345
 21
307.0672955488053
 31
0.0
  0
LINE
  5
666F
  8
AM_0
 10
79.916118350339957
 20
301.46920196397548
 30
0.0
 11
79.916140802738809
 21
274.46920196397548
 31
0.0
  0
LINE
  5
6670
  8
AM_0
 10
89.916179470742918
 20
250.4480079099427
 30
0.0
 11
89.916179470742918
 21
204.76920196397541
 31
0.0
  0
LINE
  5
6671
  8
AM_0
 10
77.916179470742904
 20
215.05371164857951
 30
0.0
 11
77.916179470742904
 21
212.46920196397551
 31
0.0
  0
LINE
  5
6672
  8
AM_0
 10
78.417693206337958
 20
215.76233216536099
 30
0.0
 11
78.062626080149712
 21
215.40726503917281
 31
0.0
  0
LINE
  5
6673
  8
AM_0
 10
89.416179470742904
 20
211.96920196397551
 30
0.0
 11
78.416179470742904
 21
211.96920196397551
 31
0.0
  0
LINE
  5
6674
  8
AM_0
 10
69.416141634241967
 20
273.46919655876837
 30
0.0
 11
69.416168660277435
 21
268.46919655876837
 31
0.0
  0
LINE
  5
6675
  8
AM_0
 10
82.416141634373503
 20
273.46920736918253
 30
0.0
 11
82.416167562193181
 21
268.6723847158118
 31
0.0
  0
LINE
  5
6676
  8
AM_0
 10
73.036682722823784
 20
266.46920196397548
 30
0.0
 11
72.465120821458527
 21
267.12578578603581
 31
0.0
  0
LINE
  5
6677
  8
AM_0
 10
70.416168660262869
 20
267.46920196397548
 30
0.0
 11
81.416167562193195
 21
267.46920196397548
 31
0.0
  0
LINE
  5
6678
  8
AM_0
 10
82.416167562193181
 20
268.6723847158118
 30
0.0
 11
82.416167562193181
 21
268.46920196397548
 31
0.0
  0
LINE
  5
6679
  8
AM_0
 10
82.416167562193181
 20
268.6723847158118
 30
0.0
 11
82.416168660408985
 21
268.46920736918253
 31
0.0
  0
LINE
  5
667A
  8
AM_0
 10
70.416141634227415
 20
274.46920196397548
 30
0.0
 11
81.416141634388154
 21
274.46920196397548
 31
0.0
  0
LINE
  5
667B
  8
AM_0
 10
80.423615432905095
 20
266.49978903426091
 30
0.0
 11
87.546415166250554
 21
249.51854971551421
 31
0.0
  0
LINE
  5
667C
  8
AM_0
 10
73.036682722823784
 20
266.46920196397548
 30
0.0
 11
79.613397798134073
 21
247.77466133357311
 31
0.0
  0
LINE
  5
667D
  8
AM_0
 10
77.316179470742895
 20
219.46920196397551
 30
0.0
 11
77.316179470742895
 21
219.36920196397551
 31
0.0
  0
LINE
  5
667E
  8
AM_0
 10
77.316179470742895
 20
219.36920196397551
 30
0.0
 11
77.316179470742895
 21
218.58763210356841
 31
0.0
  0
LINE
  5
667F
  8
AM_0
 10
77.316179470742895
 20
217.46920196397551
 30
0.0
 11
77.916179470742904
 21
217.46920196397551
 31
0.0
  0
LINE
  5
6680
  8
AM_0
 10
74.616179470742935
 20
218.58763210356841
 30
0.0
 11
74.616179470742935
 21
223.3507718243826
 31
0.0
  0
LINE
  5
6681
  8
AM_0
 10
74.455135241485422
 20
218.3009404752253
 30
0.0
 11
73.522582191978231
 21
218.8393502293919
 31
0.0
  0
LINE
  5
6682
  8
AM_0
 10
77.316179470742895
 20
224.46920196397531
 30
0.0
 11
77.316179470742895
 21
219.46920196397551
 31
0.0
  0
LINE
  5
6683
  8
AM_0
 10
74.88863106277347
 20
217.7937754834326
 30
0.0
 11
77.043727878712261
 21
217.7937754834326
 31
0.0
  0
LINE
  5
6684
  8
AM_0
 10
74.88863106277347
 20
219.381488723704
 30
0.0
 11
77.043727878712261
 21
219.38148872370411
 31
0.0
  0
LINE
  5
6685
  8
AM_0
 10
73.316179470743023
 20
222.46920196397551
 30
0.0
 11
70.216179470742645
 21
222.46920196397551
 31
0.0
  0
LINE
  5
6686
  8
AM_0
 10
70.216179470742645
 20
222.46920196397551
 30
0.0
 11
69.916179470742804
 21
222.1692019639755
 31
0.0
  0
LINE
  5
6687
  8
AM_0
 10
69.916179470742804
 20
222.1692019639755
 30
0.0
 11
69.916179470742804
 21
219.76920196397541
 31
0.0
  0
LINE
  5
6688
  8
AM_0
 10
70.216179470742645
 20
219.46920196397551
 30
0.0
 11
72.416179470742904
 21
219.46920196397551
 31
0.0
  0
LINE
  5
6689
  8
AM_0
 10
69.916179470742804
 20
219.76920196397541
 30
0.0
 11
70.216179470742645
 21
219.46920196397551
 31
0.0
  0
LINE
  5
668A
  8
AM_0
 10
73.31617947074291
 20
219.76920196397541
 30
0.0
 11
69.916179470742804
 21
219.76920196397541
 31
0.0
  0
ARC
  5
668B
  8
AM_0
 10
71.916179470742904
 20
220.96920196397559
 30
0.0
 40
18.000000000000082
 50
344.79096035988908
 51
15.20903964010761
  0
ARC
  5
668C
  8
AM_0
 10
76.023402654716378
 20
218.58763210356841
 30
0.0
 40
1.292776816026465
 50
322.11555894630482
 51
0.0
  0
ARC
  5
668D
  8
AM_0
 10
95.916179470742932
 20
220.96920196397559
 30
0.0
 40
17.999999999999918
 50
164.790960359889
 51
195.209039640111
  0
ARC
  5
6694
  8
AM_0
 10
75.916105876783803
 20
316.46920196397548
 30
0.0
 40
10.0
 50
56.63303467623782
 51
123.3670606147022
  0
ARC
  5
6695
  8
AM_0
 10
73.166119867270808
 20
320.38819557497487
 30
0.0
 40
5.2164151124522951
 50
58.18448044842868
 51
121.8155195515713
  0
ARC
  5
6696
  8
AM_0
 10
78.666127240905425
 20
320.38732068421501
 30
0.0
 40
5.217140387381062
 50
58.190058295972818
 51
121.8101322873604
  0
ARC
  5
6697
  8
AM_0
 10
73.166127248932852
 20
308.4352495631482
 30
0.0
 40
3.0714610092699122
 50
206.44737672421749
 51
333.55262327578248
  0
ARC
  5
6698
  8
AM_0
 10
78.666135880304054
 20
308.4335093584528
 30
0.0
 40
3.070669812974502
 50
206.418457946731
 51
333.58081810520707
  0
ARC
  5
6699
  8
AM_0
 10
79.378609346802591
 20
220.96920196397559
 30
0.0
 40
4.762429876059711
 50
160.52575999458639
 51
199.47424000541341
  0
ARC
  5
669A
  8
AM_0
 10
75.908956286769453
 20
218.58763210356841
 30
0.0
 40
1.292776816026556
 50
142.1155589462972
 51
217.8844410536951
  0
ARC
  5
669B
  8
AM_0
 10
72.553749594683367
 20
220.96920196397559
 30
0.0
 40
4.762429876059584
 50
340.52575999458651
 51
19.474240005409921
  0
ARC
  5
669C
  8
AM_0
 10
76.023402654716378
 20
218.58763210356841
 30
0.0
 40
1.2927768160265021
 50
0.0
 51
37.884441053702773
  0
ARC
  5
66CB
  8
AM_0
 10
89.616179470742935
 20
204.76920196397541
 30
0.0
 40
0.2999999999999972
 50
270.0
 51
0.0
  0
ARC
  5
66CC
  8
AM_0
 10
89.768219125741226
 20
216.11588555595441
 30
0.0
 40
0.4999999999998723
 50
164.7909603598992
 51
225.00000000001839
  0
ARC
  5
66CD
  8
AM_0
 10
75.416179470742904
 20
196.2316679545531
 30
0.0
 40
3.0
 50
180.0
 51
190.00000000000171
  0
ARC
  5
66CE
  8
AM_0
 10
75.416179470742904
 20
245.70673597339771
 30
0.0
 40
2.999999999999992
 50
169.9999999999981
 51
180.0
  0
ARC
  5
66CF
  8
AM_0
 10
78.460017978444043
 20
178.96920196397551
 30
0.0
 40
2.9999999999999631
 50
190.00000000000171
 51
270.0
  0
ARC
  5
66D4
  8
AM_0
 10
78.416179470742904
 20
212.46920196397551
 30
0.0
 40
0.5
 50
180.0
 51
270.0
  0
ARC
  5
66D5
  8
AM_0
 10
89.416179470742904
 20
212.46920196397551
 30
0.0
 40
0.5
 50
270.0
 51
0.0
  0
ARC
  5
66D6
  8
AM_0
 10
89.416179470742904
 20
215.05371164857951
 30
0.0
 40
0.5
 50
0.0
 51
45.0
  0
ARC
  5
66D7
  8
AM_0
 10
78.064139815744625
 20
216.11588555595441
 30
0.0
 40
0.5000000000001048
 50
314.99999999998619
 51
15.20903964010069
  0
ARC
  5
66D8
  8
AM_0
 10
78.416179470742904
 20
215.05371164857951
 30
0.0
 40
0.499999999999984
 50
134.99999999999079
 51
180.0
  0
ARC
  5
66D9
  8
AM_0
 10
70.416141634227415
 20
273.46920196397548
 30
0.0
 40
1.0
 50
90.0
 51
180.00030969555451
  0
ARC
  5
66DA
  8
AM_0
 10
81.416141634388154
 20
273.46920196397548
 30
0.0
 40
0.9999999999999992
 50
0.0003096955479991
 51
90.0
  0
ARC
  5
66DB
  8
AM_0
 10
70.416168660262869
 20
268.46920196397548
 30
0.0
 40
0.9999999999999992
 50
180.00030969555451
 51
270.0
  0
ARC
  5
66DC
  8
AM_0
 10
81.416167562193195
 20
268.46920196397548
 30
0.0
 40
1.0
 50
270.0
 51
0.0
  0
ARC
  5
66DD
  8
AM_0
 10
80.896409349278414
 20
266.86920196397551
 30
0.0
 40
0.5999999999999944
 50
90.0
 51
218.00194433773009
  0
ARC
  5
66DE
  8
AM_0
 10
71.710867757421966
 20
266.46920196397548
 30
0.0
 40
0.9999999999999468
 50
41.03985310957902
 51
90.0
  0
ARC
  5
66DF
  8
AM_0
 10
73.72898491321348
 20
219.19685022939191
 30
0.0
 40
0.4128054424705854
 50
180.0
 51
239.99999999999869
  0
ARC
  5
66E0
  8
AM_0
 10
74.042329799014851
 20
217.5859404752253
 30
0.0
 40
0.8256108849411369
 50
28.217424594175679
 51
59.999999999996653
  0
LINE
  5
66E1
  8
AM_0
 10
73.205913800374447
 20
250.4480079099427
 30
0.0
 11
78.672917950143301
 21
250.4480079099427
 31
0.0
  0
LINE
  5
66E2
  8
AM_0
 10
87.156552892056965
 20
250.4480079099427
 30
0.0
 11
89.916179470742918
 21
250.4480079099427
 31
0.0
  0
LINE
  5
66E3
  8
AM_0
 10
77.316179470743236
 20
224.46920196397531
 30
0.0
 11
77.916179470743145
 21
224.46920196397531
 31
0.0
  0
LINE
  5
66E4
  8
AM_0
 10
74.45513524148565
 20
223.63746345272571
 30
0.0
 11
73.522582191978344
 21
223.09905369855929
 31
0.0
  0
LINE
  5
66E5
  8
AM_0
 10
74.888631062773811
 20
224.1446284445185
 30
0.0
 11
77.043727878712602
 21
224.1446284445183
 31
0.0
  0
LINE
  5
66E6
  8
AM_0
 10
74.888631062773584
 20
222.5569152042471
 30
0.0
 11
77.043727878712502
 21
222.55691520424679
 31
0.0
  0
ARC
  5
66E7
  8
AM_0
 10
76.02340265471662
 20
223.3507718243826
 30
0.0
 40
1.292776816026465
 50
359.99999999999352
 51
37.88444105369058
  0
ARC
  5
66E8
  8
AM_0
 10
75.90895628676958
 20
223.3507718243826
 30
0.0
 40
1.292776816026556
 50
142.1155589462972
 51
217.8844410536951
  0
ARC
  5
66E9
  8
AM_0
 10
76.02340265471662
 20
223.3507718243826
 30
0.0
 40
1.2927768160265021
 50
322.11555894629322
 51
359.99999999999352
  0
ARC
  5
66EA
  8
AM_0
 10
73.728984913213566
 20
222.74155369855919
 30
0.0
 40
0.4128054424705854
 50
119.999999999994
 51
179.99999999999341
  0
ARC
  5
66EB
  8
AM_0
 10
74.042329799015064
 20
224.35246345272569
 30
0.0
 40
0.8256108849411369
 50
300.00000000000119
 51
331.78257540582069
  0
LINE
  5
66EC
  8
AM_0
 10
89.916179470743486
 20
229.46920196397491
 30
0.0
 11
89.916179470743273
 21
226.8846922793708
 31
0.0
  0
LINE
  5
66ED
  8
AM_0
 10
89.769732861336593
 20
226.5311388887776
 30
0.0
 11
89.414665735148333
 21
226.1760717625894
 31
0.0
  0
LINE
  5
66EE
  8
AM_0
 10
77.916179470743259
 20
226.88469227937171
 30
0.0
 11
77.916179470743486
 21
229.46920196397571
 31
0.0
  0
LINE
  5
66EF
  8
AM_0
 10
78.417693206338257
 20
226.1760717625902
 30
0.0
 11
78.062626080150139
 21
226.5311388887784
 31
0.0
  0
LINE
  5
66F0
  8
AM_0
 10
89.416179470743486
 20
229.96920196397491
 30
0.0
 11
88.935601584896062
 21
229.969201963975
 31
0.0
  0
LINE
  5
66F1
  8
AM_0
 10
78.896757356590783
 20
229.96920196397571
 30
0.0
 11
78.416179470743486
 21
229.96920196397571
 31
0.0
  0
ARC
  5
66F2
  8
AM_0
 10
89.768219125741538
 20
225.82251837199601
 30
0.0
 40
0.4999999999998723
 50
134.99999999997701
 51
195.20903964009739
  0
ARC
  5
66F3
  8
AM_0
 10
78.416179470743486
 20
229.46920196397571
 30
0.0
 40
0.5
 50
89.999999999996732
 51
179.99999999999659
  0
ARC
  5
66F4
  8
AM_0
 10
89.416179470743486
 20
229.46920196397491
 30
0.0
 40
0.5
 50
359.99999999999682
 51
89.999999999996732
  0
ARC
  5
66F5
  8
AM_0
 10
89.416179470743231
 20
226.88469227937091
 30
0.0
 40
0.5
 50
314.9999999999954
 51
359.99999999999682
  0
ARC
  5
66F6
  8
AM_0
 10
78.064139815744852
 20
225.82251837199681
 30
0.0
 40
0.5000000000001048
 50
344.79096035989579
 51
45.000000000009209
  0
ARC
  5
66F7
  8
AM_0
 10
78.416179470743231
 20
226.88469227937171
 30
0.0
 40
0.499999999999984
 50
179.99999999999659
 51
225.0000000000046
  0
LINE
  5
66F8
  8
AM_0
 10
79.896757356590911
 20
246.11535336179719
 30
0.0
 11
79.896757356590783
 21
230.96920196397571
 31
0.0
  0
ARC
  5
66F9
  8
AM_0
 10
78.896757356590783
 20
230.96920196397571
 30
0.0
 40
1.0
 50
269.99999999999682
 51
0.0
1001
GENIUS_GENODEF_13
1002
{
1000
HIER
1070
     0
1002
}
1002
{
1000
MANEDIT
1070
     0
1002
}
1002
{
1000
NOSEL
1070
     0
1002
}
1002
{
1000
BEHIND
1070
     0
1002
}
1002
{
1000
OTHER
1070
     0
1002
}
1002
{
1000
REACTOR
1002
}
1001
GENIUS_GENOBJ-N-FIL_13
1002
{
1000
OWNER
1000
GEN
1002
}
  0
ARC
  5
66FA
  8
AM_0
 10
74.896757356590911
 20
246.11535336179719
 30
0.0
 40
5.0
 50
0.0
 51
19.381805699020159
1001
GENIUS_GENOBJ-N-FIL_13
1002
{
1000
OWNER
1000
GEN
1002
}
1001
GENIUS_GENODEF_13
1002
{
1000
HIER
1070
     0
1002
}
1002
{
1000
MANEDIT
1070
     0
1002
}
1002
{
1000
NOSEL
1070
     0
1002
}
1002
{
1000
BEHIND
1070
     0
1002
}
1002
{
1000
OTHER
1070
     0
1002
}
1002
{
1000
REACTOR
1002
}
  0
LINE
  5
66FB
  8
AM_0
 10
87.935601584896176
 20
247.58453882671401
 30
0.0
 11
87.935601584896176
 21
230.969201963975
 31
0.0
  0
ARC
  5
66FC
  8
AM_0
 10
88.935601584896176
 20
230.969201963975
 30
0.0
 40
1.0
 50
180.0
 51
269.99999999999352
1001
GENIUS_GENOBJ-N-FIL_13
1002
{
1000
OWNER
1000
GEN
1002
}
1001
GENIUS_GENODEF_13
1002
{
1000
HIER
1070
     0
1002
}
1002
{
1000
MANEDIT
1070
     0
1002
}
1002
{
1000
NOSEL
1070
     0
1002
}
1002
{
1000
BEHIND
1070
     0
1002
}
1002
{
1000
OTHER
1070
     0
1002
}
1002
{
1000
REACTOR
1002
}
  0
ARC
  5
66FD
  8
AM_0
 10
82.935601584896176
 20
247.58453882671401
 30
0.0
 40
5.0
 50
0.0
 51
22.755667319207159
1001
GENIUS_GENODEF_13
1002
{
1000
HIER
1070
     0
1002
}
1002
{
1000
MANEDIT
1070
     0
1002
}
1002
{
1000
NOSEL
1070
     0
1002
}
1002
{
1000
BEHIND
1070
     0
1002
}
1002
{
1000
OTHER
1070
     0
1002
}
1002
{
1000
REACTOR
1002
}
1001
GENIUS_GENOBJ-N-FIL_13
1002
{
1000
OWNER
1000
GEN
1002
}
  0
LINE
  5
66FE
  8
AM_0
 10
78.642718317400977
 20
225.95104665152741
 30
0.0
 11
89.189640624086223
 21
225.95104665152741
 31
0.0
  0
LINE
  5
66FF
  8
AM_0
 10
78.642718317400622
 20
215.98735727642369
 30
0.0
 11
89.1896406240852
 21
215.98735727642369
 31
0.0
  0
LINE
  5
6700
  8
AM_0
 10
75.505594719407441
 20
184.9787911190493
 30
0.0
 11
75.505594719407441
 21
204.46920196397551
 31
0.0
  0
LINE
  5
6701
  8
AM_0
 10
78.460017978444043
 20
175.96920196397539
 30
0.0
 11
78.460017978444043
 21
204.46920196397551
 31
0.0
  0
LINE
  5
671C
  8
AM_0
 10
88.215032535119818
 20
174.708448810021
 30
0.0
 11
112.4837574659476
 21
190.1522351672906
 31
0.0
  0
LINE
  5
671D
  8
AM_0
 10
84.993771815982143
 20
179.7704127944188
 30
0.0
 11
109.26249674680921
 21
195.21419915168809
 31
0.0
  0
POLYLINE
  5
671E
  8
AM_0
 66
     1
 10
0.0
 20
0.0
 30
0.0
 70
     8
  0
VERTEX
  5
8092
  8
AM_0
 10
84.993799999999993
 20
179.77000000000001
 30
0.0
 70
    32
  0
VERTEX
  5
8093
  8
AM_0
 10
84.917699999999996
 20
179.72099999999989
 30
0.0
 70
    32
  0
VERTEX
  5
8094
  8
AM_0
 10
84.842699999999994
 20
179.66999999999999
 30
0.0
 70
    32
  0
VERTEX
  5
8095
  8
AM_0
 10
84.768799999999985
 20
179.61799999999999
 30
0.0
 70
    32
  0
VERTEX
  5
8096
  8
AM_0
 10
84.695999999999984
 20
179.56399999999999
 30
0.0
 70
    32
  0
VERTEX
  5
8097
  8
AM_0
 10
84.624300000000005
 20
179.50899999999999
 30
0.0
 70
    32
  0
VERTEX
  5
8098
  8
AM_0
 10
84.553799999999995
 20
179.452
 30
0.0
 70
    32
  0
VERTEX
  5
8099
  8
AM_0
 10
84.484499999999997
 20
179.39400000000001
 30
0.0
 70
    32
  0
VERTEX
  5
809A
  8
AM_0
 10
84.416499999999999
 20
179.33500000000001
 30
0.0
 70
    32
  0
VERTEX
  5
809B
  8
AM_0
 10
84.349900000000005
 20
179.274
 30
0.0
 70
    32
  0
VERTEX
  5
809C
  8
AM_0
 10
84.284599999999983
 20
179.21299999999999
 30
0.0
 70
    32
  0
VERTEX
  5
809D
  8
AM_0
 10
84.220600000000005
 20
179.15000000000001
 30
0.0
 70
    32
  0
VERTEX
  5
809E
  8
AM_0
 10
84.158199999999994
 20
179.08600000000001
 30
0.0
 70
    32
  0
VERTEX
  5
809F
  8
AM_0
 10
84.097200000000001
 20
179.02000000000001
 30
0.0
 70
    32
  0
VERTEX
  5
80A0
  8
AM_0
 10
84.037699999999987
 20
178.95400000000001
 30
0.0
 70
    32
  0
VERTEX
  5
80A1
  8
AM_0
 10
83.979699999999994
 20
178.887
 30
0.0
 70
    32
  0
VERTEX
  5
80A2
  8
AM_0
 10
83.923400000000001
 20
178.81899999999999
 30
0.0
 70
    32
  0
VERTEX
  5
80A3
  8
AM_0
 10
83.868600000000001
 20
178.749
 30
0.0
 70
    32
  0
VERTEX
  5
80A4
  8
AM_0
 10
83.8155
 20
178.679
 30
0.0
 70
    32
  0
VERTEX
  5
80A5
  8
AM_0
 10
83.764099999999985
 20
178.608
 30
0.0
 70
    32
  0
VERTEX
  5
80A6
  8
AM_0
 10
83.714399999999983
 20
178.536
 30
0.0
 70
    32
  0
VERTEX
  5
80A7
  8
AM_0
 10
83.666399999999996
 20
178.464
 30
0.0
 70
    32
  0
VERTEX
  5
80A8
  8
AM_0
 10
83.620199999999997
 20
178.38999999999999
 30
0.0
 70
    32
  0
VERTEX
  5
80A9
  8
AM_0
 10
83.575800000000001
 20
178.316
 30
0.0
 70
    32
  0
VERTEX
  5
80AA
  8
AM_0
 10
83.533199999999994
 20
178.24199999999999
 30
0.0
 70
    32
  0
VERTEX
  5
80AB
  8
AM_0
 10
83.492500000000007
 20
178.166
 30
0.0
 70
    32
  0
VERTEX
  5
80AC
  8
AM_0
 10
83.453599999999994
 20
178.09099999999989
 30
0.0
 70
    32
  0
VERTEX
  5
80AD
  8
AM_0
 10
83.416700000000006
 20
178.01400000000001
 30
0.0
 70
    32
  0
VERTEX
  5
80AE
  8
AM_0
 10
83.381699999999995
 20
177.93700000000001
 30
0.0
 70
    32
  0
VERTEX
  5
80AF
  8
AM_0
 10
83.348600000000005
 20
177.86000000000001
 30
0.0
 70
    32
  0
VERTEX
  5
80B0
  8
AM_0
 10
83.317400000000006
 20
177.78200000000001
 30
0.0
 70
    32
  0
VERTEX
  5
80B1
  8
AM_0
 10
83.288300000000007
 20
177.70500000000001
 30
0.0
 70
    32
  0
VERTEX
  5
80B2
  8
AM_0
 10
83.261099999999985
 20
177.62599999999989
 30
0.0
 70
    32
  0
VERTEX
  5
80B3
  8
AM_0
 10
83.236000000000004
 20
177.548
 30
0.0
 70
    32
  0
VERTEX
  5
80B4
  8
AM_0
 10
83.212900000000005
 20
177.46899999999999
 30
0.0
 70
    32
  0
VERTEX
  5
80B5
  8
AM_0
 10
83.191800000000015
 20
177.38999999999999
 30
0.0
 70
    32
  0
VERTEX
  5
80B6
  8
AM_0
 10
83.172799999999995
 20
177.31200000000001
 30
0.0
 70
    32
  0
VERTEX
  5
80B7
  8
AM_0
 10
83.155799999999999
 20
177.233
 30
0.0
 70
    32
  0
VERTEX
  5
80B8
  8
AM_0
 10
83.141000000000005
 20
177.154
 30
0.0
 70
    32
  0
VERTEX
  5
80B9
  8
AM_0
 10
83.128200000000007
 20
177.07499999999999
 30
0.0
 70
    32
  0
VERTEX
  5
80BA
  8
AM_0
 10
83.117500000000007
 20
176.99600000000001
 30
0.0
 70
    32
  0
VERTEX
  5
80BB
  8
AM_0
 10
83.108900000000006
 20
176.917
 30
0.0
 70
    32
  0
VERTEX
  5
80BC
  8
AM_0
 10
83.102400000000003
 20
176.839
 30
0.0
 70
    32
  0
VERTEX
  5
80BD
  8
AM_0
 10
83.097999999999999
 20
176.761
 30
0.0
 70
    32
  0
VERTEX
  5
80BE
  8
AM_0
 10
83.095799999999997
 20
176.68299999999999
 30
0.0
 70
    32
  0
VERTEX
  5
80BF
  8
AM_0
 10
83.095600000000005
 20
176.60499999999999
 30
0.0
 70
    32
  0
VERTEX
  5
80C0
  8
AM_0
 10
83.0976
 20
176.52799999999999
 30
0.0
 70
    32
  0
VERTEX
  5
80C1
  8
AM_0
 10
83.101699999999994
 20
176.45099999999999
 30
0.0
 70
    32
  0
VERTEX
  5
80C2
  8
AM_0
 10
83.107900000000001
 20
176.375
 30
0.0
 70
    32
  0
VERTEX
  5
80C3
  8
AM_0
 10
83.116099999999989
 20
176.29900000000001
 30
0.0
 70
    32
  0
VERTEX
  5
80C4
  8
AM_0
 10
83.126499999999993
 20
176.22399999999999
 30
0.0
 70
    32
  0
VERTEX
  5
80C5
  8
AM_0
 10
83.138999999999996
 20
176.15000000000001
 30
0.0
 70
    32
  0
VERTEX
  5
80C6
  8
AM_0
 10
83.153599999999997
 20
176.07599999999999
 30
0.0
 70
    32
  0
VERTEX
  5
80C7
  8
AM_0
 10
83.170299999999997
 20
176.00200000000001
 30
0.0
 70
    32
  0
VERTEX
  5
80C8
  8
AM_0
 10
83.188999999999993
 20
175.93000000000001
 30
0.0
 70
    32
  0
VERTEX
  5
80C9
  8
AM_0
 10
83.209800000000001
 20
175.858
 30
0.0
 70
    32
  0
VERTEX
  5
80CA
  8
AM_0
 10
83.232600000000005
 20
175.78700000000001
 30
0.0
 70
    32
  0
VERTEX
  5
80CB
  8
AM_0
 10
83.257400000000004
 20
175.71700000000001
 30
0.0
 70
    32
  0
VERTEX
  5
80CC
  8
AM_0
 10
83.284300000000002
 20
175.648
 30
0.0
 70
    32
  0
VERTEX
  5
80CD
  8
AM_0
 10
83.313199999999995
 20
175.58000000000001
 30
0.0
 70
    32
  0
VERTEX
  5
80CE
  8
AM_0
 10
83.343999999999994
 20
175.51300000000001
 30
0.0
 70
    32
  0
VERTEX
  5
80CF
  8
AM_0
 10
83.376900000000006
 20
175.447
 30
0.0
 70
    32
  0
VERTEX
  5
80D0
  8
AM_0
 10
83.411600000000007
 20
175.38200000000001
 30
0.0
 70
    32
  0
VERTEX
  5
80D1
  8
AM_0
 10
83.448299999999989
 20
175.31800000000001
 30
0.0
 70
    32
  0
VERTEX
  5
80D2
  8
AM_0
 10
83.486900000000006
 20
175.25599999999989
 30
0.0
 70
    32
  0
VERTEX
  5
80D3
  8
AM_0
 10
83.5274
 20
175.19399999999999
 30
0.0
 70
    32
  0
VERTEX
  5
80D4
  8
AM_0
 10
83.569699999999997
 20
175.13399999999999
 30
0.0
 70
    32
  0
VERTEX
  5
80D5
  8
AM_0
 10
83.613799999999998
 20
175.07499999999999
 30
0.0
 70
    32
  0
VERTEX
  5
80D6
  8
AM_0
 10
83.659800000000004
 20
175.017
 30
0.0
 70
    32
  0
VERTEX
  5
80D7
  8
AM_0
 10
83.707499999999996
 20
174.96100000000001
 30
0.0
 70
    32
  0
VERTEX
  5
80D8
  8
AM_0
 10
83.757000000000005
 20
174.90600000000001
 30
0.0
 70
    32
  0
VERTEX
  5
80D9
  8
AM_0
 10
83.808199999999985
 20
174.852
 30
0.0
 70
    32
  0
VERTEX
  5
80DA
  8
AM_0
 10
83.861000000000004
 20
174.80000000000001
 30
0.0
 70
    32
  0
VERTEX
  5
80DB
  8
AM_0
 10
83.915499999999994
 20
174.749
 30
0.0
 70
    32
  0
VERTEX
  5
80DC
  8
AM_0
 10
83.971699999999998
 20
174.69999999999999
 30
0.0
 70
    32
  0
VERTEX
  5
80DD
  8
AM_0
 10
84.029399999999995
 20
174.65199999999999
 30
0.0
 70
    32
  0
VERTEX
  5
80DE
  8
AM_0
 10
84.088700000000003
 20
174.60599999999999
 30
0.0
 70
    32
  0
VERTEX
  5
80DF
  8
AM_0
 10
84.149500000000003
 20
174.56200000000001
 30
0.0
 70
    32
  0
VERTEX
  5
80E0
  8
AM_0
 10
84.211699999999993
 20
174.51900000000001
 30
0.0
 70
    32
  0
VERTEX
  5
80E1
  8
AM_0
 10
84.275499999999994
 20
174.47799999999989
 30
0.0
 70
    32
  0
VERTEX
  5
80E2
  8
AM_0
 10
84.340599999999995
 20
174.43799999999999
 30
0.0
 70
    32
  0
VERTEX
  5
80E3
  8
AM_0
 10
84.407100000000014
 20
174.40000000000001
 30
0.0
 70
    32
  0
VERTEX
  5
80E4
  8
AM_0
 10
84.474900000000005
 20
174.364
 30
0.0
 70
    32
  0
VERTEX
  5
80E5
  8
AM_0
 10
84.543899999999994
 20
174.32900000000001
 30
0.0
 70
    32
  0
VERTEX
  5
80E6
  8
AM_0
 10
84.6143
 20
174.297
 30
0.0
 70
    32
  0
VERTEX
  5
80E7
  8
AM_0
 10
84.685800000000015
 20
174.26599999999999
 30
0.0
 70
    32
  0
VERTEX
  5
80E8
  8
AM_0
 10
84.758499999999984
 20
174.23699999999999
 30
0.0
 70
    32
  0
VERTEX
  5
80E9
  8
AM_0
 10
84.832300000000004
 20
174.209
 30
0.0
 70
    32
  0
VERTEX
  5
80EA
  8
AM_0
 10
84.907099999999986
 20
174.184
 30
0.0
 70
    32
  0
VERTEX
  5
80EB
  8
AM_0
 10
84.983000000000004
 20
174.16
 30
0.0
 70
    32
  0
VERTEX
  5
80EC
  8
AM_0
 10
85.059899999999999
 20
174.13800000000001
 30
0.0
 70
    32
  0
VERTEX
  5
80ED
  8
AM_0
 10
85.137600000000006
 20
174.11799999999999
 30
0.0
 70
    32
  0
VERTEX
  5
80EE
  8
AM_0
 10
85.216300000000004
 20
174.09999999999999
 30
0.0
 70
    32
  0
VERTEX
  5
80EF
  8
AM_0
 10
85.295800000000014
 20
174.084
 30
0.0
 70
    32
  0
VERTEX
  5
80F0
  8
AM_0
 10
85.376099999999994
 20
174.06999999999999
 30
0.0
 70
    32
  0
VERTEX
  5
80F1
  8
AM_0
 10
85.457200000000014
 20
174.05699999999999
 30
0.0
 70
    32
  0
VERTEX
  5
80F2
  8
AM_0
 10
85.538899999999998
 20
174.047
 30
0.0
 70
    32
  0
VERTEX
  5
80F3
  8
AM_0
 10
85.621300000000005
 20
174.03800000000001
 30
0.0
 70
    32
  0
VERTEX
  5
80F4
  8
AM_0
 10
85.7042
 20
174.03200000000001
 30
0.0
 70
    32
  0
VERTEX
  5
80F5
  8
AM_0
 10
85.787700000000001
 20
174.02699999999999
 30
0.0
 70
    32
  0
VERTEX
  5
80F6
  8
AM_0
 10
85.871700000000004
 20
174.024
 30
0.0
 70
    32
  0
VERTEX
  5
80F7
  8
AM_0
 10
85.956199999999995
 20
174.024
 30
0.0
 70
    32
  0
VERTEX
  5
80F8
  8
AM_0
 10
86.040999999999997
 20
174.02500000000001
 30
0.0
 70
    32
  0
VERTEX
  5
80F9
  8
AM_0
 10
86.126199999999983
 20
174.02799999999999
 30
0.0
 70
    32
  0
VERTEX
  5
80FA
  8
AM_0
 10
86.211600000000004
 20
174.03299999999999
 30
0.0
 70
    32
  0
VERTEX
  5
80FB
  8
AM_0
 10
86.297300000000007
 20
174.03999999999999
 30
0.0
 70
    32
  0
VERTEX
  5
80FC
  8
AM_0
 10
86.383200000000002
 20
174.04900000000001
 30
0.0
 70
    32
  0
VERTEX
  5
80FD
  8
AM_0
 10
86.469199999999987
 20
174.059
 30
0.0
 70
    32
  0
VERTEX
  5
80FE
  8
AM_0
 10
86.555300000000003
 20
174.072
 30
0.0
 70
    32
  0
VERTEX
  5
80FF
  8
AM_0
 10
86.641400000000004
 20
174.08699999999999
 30
0.0
 70
    32
  0
VERTEX
  5
8100
  8
AM_0
 10
86.727500000000006
 20
174.10300000000001
 30
0.0
 70
    32
  0
VERTEX
  5
8101
  8
AM_0
 10
86.813500000000005
 20
174.12200000000001
 30
0.0
 70
    32
  0
VERTEX
  5
8102
  8
AM_0
 10
86.899399999999986
 20
174.142
 30
0.0
 70
    32
  0
VERTEX
  5
8103
  8
AM_0
 10
86.985100000000003
 20
174.16399999999999
 30
0.0
 70
    32
  0
VERTEX
  5
8104
  8
AM_0
 10
87.070599999999999
 20
174.18799999999999
 30
0.0
 70
    32
  0
VERTEX
  5
8105
  8
AM_0
 10
87.155799999999999
 20
174.214
 30
0.0
 70
    32
  0
VERTEX
  5
8106
  8
AM_0
 10
87.240700000000004
 20
174.24199999999999
 30
0.0
 70
    32
  0
VERTEX
  5
8107
  8
AM_0
 10
87.325199999999995
 20
174.27099999999999
 30
0.0
 70
    32
  0
VERTEX
  5
8108
  8
AM_0
 10
87.409300000000002
 20
174.30199999999999
 30
0.0
 70
    32
  0
VERTEX
  5
8109
  8
AM_0
 10
87.492900000000006
 20
174.33500000000001
 30
0.0
 70
    32
  0
VERTEX
  5
810A
  8
AM_0
 10
87.575900000000004
 20
174.37
 30
0.0
 70
    32
  0
VERTEX
  5
810B
  8
AM_0
 10
87.658299999999997
 20
174.40700000000001
 30
0.0
 70
    32
  0
VERTEX
  5
810C
  8
AM_0
 10
87.740200000000002
 20
174.44499999999999
 30
0.0
 70
    32
  0
VERTEX
  5
810D
  8
AM_0
 10
87.821299999999994
 20
174.48500000000001
 30
0.0
 70
    32
  0
VERTEX
  5
810E
  8
AM_0
 10
87.901700000000005
 20
174.52600000000001
 30
0.0
 70
    32
  0
VERTEX
  5
810F
  8
AM_0
 10
87.981300000000005
 20
174.56899999999999
 30
0.0
 70
    32
  0
VERTEX
  5
8110
  8
AM_0
 10
88.060100000000006
 20
174.614
 30
0.0
 70
    32
  0
VERTEX
  5
8111
  8
AM_0
 10
88.138000000000005
 20
174.66099999999989
 30
0.0
 70
    32
  0
VERTEX
  5
8112
  8
AM_0
 10
88.215000000000003
 20
174.708
 30
0.0
 70
    32
  0
SEQEND
  5
8113
  8
AM_0
  0
LINE
  5
671F
  8
AM_0
 10
103.4161794707429
 20
274.76920196397538
 30
0.0
 11
103.4161794707429
 21
267.16920196397552
 31
0.0
1001
GENIUS_GENOREF_13
1005
0
  0
LINE
  5
6720
  8
AM_0
 10
103.4161794707429
 20
267.16920196397552
 30
0.0
 11
104.4161794707429
 21
267.16920196397552
 31
0.0
1001
GENIUS_GENOREF_13
1005
0
  0
LINE
  5
6721
  8
AM_0
 10
104.4161794707429
 20
270.76920196397538
 30
0.0
 11
103.4161794707429
 21
270.40523172970933
 31
0.0
1001
GENIUS_GENOREF_13
1005
0
  0
LINE
  5
6722
  8
AM_0
 10
104.4161794707429
 20
271.16920196397552
 30
0.0
 11
103.4161794707429
 21
270.80523172970919
 31
0.0
1001
GENIUS_GENOREF_13
1005
0
  0
LINE
  5
6723
  8
AM_0
 10
104.4161794707429
 20
274.76920196397538
 30
0.0
 11
103.4161794707429
 21
274.76920196397538
 31
0.0
1001
GENIUS_GENOREF_13
1005
0
  0
LINE
  5
6724
  8
AM_0N
 10
102.35724195861511
 20
267.06184699166897
 30
0.0
 11
103.4161794707429
 21
266.96920196397548
 31
0.0
  0
LINE
  5
6725
  8
AM_0N
 10
102.35724195861511
 20
274.87655693628199
 30
0.0
 11
103.4161794707429
 21
274.96920196397548
 31
0.0
  0
ARC
  5
6726
  8
AM_0N
 10
106.8161794707429
 20
270.96920196397548
 30
0.0
 40
6.5
 50
151.82726586813521
 51
208.17273413186479
  0
ARC
  5
6727
  8
AM_0N
 10
102.4966911470113
 20
273.28264541933521
 30
0.0
 40
1.6000000000000001
 50
94.99999999999973
 51
151.82726586813521
  0
ARC
  5
6728
  8
AM_0N
 10
102.4966911470113
 20
268.6557585086158
 30
0.0
 40
1.6000000000000001
 50
208.17273413186479
 51
265.00000000000028
  0
LINE
  5
6729
  8
AM_0N
 10
103.4161794707429
 20
274.96920196397548
 30
0.0
 11
103.4161794707429
 21
266.96920196397548
 31
0.0
  0
LINE
  5
67ED
  8
AM_0
 10
83.466179470743043
 20
191.9681455756033
 30
0.0
 11
88.366179470742935
 21
191.9681455756033
 31
0.0
  0
LINE
  5
67EE
  8
AM_0
 10
83.466179470743043
 20
190.75512525717079
 30
0.0
 11
88.366179470742935
 21
190.75512525717079
 31
0.0
  0
LINE
  5
67EF
  8
AM_0
 10
82.666179470742904
 20
191.16814557560349
 30
0.0
 11
82.666179470742904
 21
185.52701415515679
 31
0.0
  0
LINE
  5
67F0
  8
AM_0
 10
82.666179470742904
 20
183.69560828622431
 30
0.0
 11
82.666179470742904
 21
185.52701415515679
 31
0.0
  0
LINE
  5
67F1
  8
AM_0
 10
78.81617947074291
 20
177.0059116263013
 30
0.0
 11
78.81617947074291
 21
183.62847600442831
 31
0.0
  0
LINE
  5
67F2
  8
AM_0
 10
89.166179470742904
 20
183.69560828622431
 30
0.0
 11
89.166179470742904
 21
185.52701415515679
 31
0.0
  0
LINE
  5
67F3
  8
AM_0
 10
89.166179470742904
 20
191.16814557560349
 30
0.0
 11
89.166179470742904
 21
185.52701415515679
 31
0.0
  0
LINE
  5
67F4
  8
AM_0
 10
93.016179470742927
 20
177.7637344813929
 30
0.0
 11
93.016179470742927
 21
177.0059116263013
 31
0.0
  0
LINE
  5
67F5
  8
AM_0
 10
85.916179470742918
 20
181.88539479847759
 30
0.0
 11
79.416179470742904
 21
179.61962533088601
 31
0.0
  0
LINE
  5
67F6
  8
AM_0
 10
87.467527236472733
 20
181.3446261213688
 30
0.0
 11
85.916179470742918
 21
181.88539479847759
 31
0.0
  0
LINE
  5
67F7
  8
AM_0
 10
85.718723096872907
 20
180.23174699031989
 30
0.0
 11
79.416179470742904
 21
178.0348068493584
 31
0.0
  0
LINE
  5
67F9
  8
AM_0
 10
92.416179470742946
 20
177.381915006296
 30
0.0
 11
92.416179470742946
 21
176.7504841820413
 31
0.0
  0
LINE
  5
67FA
  8
AM_0
 10
92.416179470742946
 20
176.7504841820413
 30
0.0
 11
92.416179470742946
 21
174.73124156392061
 31
0.0
  0
LINE
  5
67FB
  8
AM_0
 10
85.916137208916766
 20
172.465457364705
 30
0.0
 11
92.416179470742946
 21
174.73124156392061
 31
0.0
  0
LINE
  5
67FC
  8
AM_0
 10
79.416179470742904
 20
174.73124156392061
 30
0.0
 11
79.416179470742904
 21
176.7504841820413
 31
0.0
  0
LINE
  5
67FD
  8
AM_0
 10
79.416179470742904
 20
174.73124156392061
 30
0.0
 11
85.916137208916766
 21
172.4654868279527
 31
0.0
  0
LINE
  5
67FE
  8
AM_0
 10
79.416179470742904
 20
176.7504841820413
 30
0.0
 11
79.416179470742904
 21
179.61962533088601
 31
0.0
  0
LINE
  5
67FF
  8
AM_0
 10
85.927745423308792
 20
180.53918429581881
 30
0.0
 11
85.916179470742918
 21
181.88539479847759
 31
0.0
  0
ARC
  5
6803
  8
AM_0
 10
83.219992321811432
 20
177.719614057641
 30
0.0
 40
6.001601094213977
 50
95.294644622324995
 51
137.2036378052716
  0
ARC
  5
6804
  8
AM_0
 10
83.219992321811432
 20
179.55101992657359
 30
0.0
 40
6.0016010942139628
 50
95.294644622324995
 51
137.2036378052716
  0
ARC
  5
6805
  8
AM_0
 10
79.685911155940119
 20
178.21649971472499
 30
0.0
 40
1.4906229315522701
 50
234.30512237790029
 51
259.57476505017542
  0
ARC
  5
6806
  8
AM_0
 10
88.612366619674575
 20
179.55101992657359
 30
0.0
 40
6.0016010942138758
 50
53.236790438343071
 51
84.705355377678273
  0
ARC
  5
6807
  8
AM_0
 10
88.612366619674575
 20
177.719614057641
 30
0.0
 40
6.0016010942138758
 50
70.204787517104251
 51
84.705355377678273
  0
ARC
  5
6808
  8
AM_0
 10
92.146447785545888
 20
178.21649971472499
 30
0.0
 40
1.490622931552253
 50
280.42523494982129
 51
305.6948776220961
  0
ARC
  5
6809
  8
AM_0
 10
85.648727628039296
 20
186.04430713856209
 30
8206336.7530117426
 40
12.9134744604336
 50
271.18655406403798
 51
287.92670513354892
  0
LINE
  5
680A
  8
AM_0
 10
89.623496557437875
 20
173.75776838274641
 30
8206336.7530117426
 11
90.036077324639095
 21
173.91101006813901
 31
8206336.7530117426
  0
LINE
  5
680B
  8
AM_0
 10
90.036077324639095
 20
173.91101006813901
 30
8206336.7530117426
 11
90.438569068895575
 21
174.08997943084489
 31
8206336.7530117426
  0
ARC
  5
680C
  8
AM_0
 10
87.93480742813972
 20
179.37477999456729
 30
8206336.7530117426
 40
5.8479004225482916
 50
295.35002817212552
 51
303.5670510400584
  0
LINE
  5
680D
  8
AM_0
 10
91.168184504149622
 20
174.50207930230491
 30
8206336.7530117426
 11
91.482727383400842
 21
174.73435275747539
 31
8206336.7530117426
  0
LINE
  5
680E
  8
AM_0
 10
91.482727383400842
 20
174.73435275747539
 30
8206336.7530117426
 11
91.771916531598265
 21
174.99722363351421
 31
8206336.7530117426
  0
ARC
  5
680F
  8
AM_0
 10
89.893033568220062
 20
176.8629080237215
 30
8206336.7530117426
 40
2.647825416060579
 50
315.20195107610522
 51
327.66908745373422
  0
LINE
  5
6810
  8
AM_0
 10
92.130375648065851
 20
175.4468289822525
 30
8206336.7530117426
 11
92.259291604345265
 21
175.68636074748861
 31
8206336.7530117426
  0
LINE
  5
6811
  8
AM_0
 10
92.259291604345265
 20
175.68636074748861
 30
8206336.7530117426
 11
92.353392171845911
 21
175.94101973597299
 31
8206336.7530117426
  0
ARC
  5
6812
  8
AM_0
 10
90.754571932896951
 20
176.39610840057631
 30
8206336.7530117426
 40
1.6623272388802151
 50
344.11151119415149
 51
352.5595818668628
  0
LINE
  5
6813
  8
AM_0
 10
92.402902475224863
 20
176.1808451376815
 30
8206336.7530117426
 11
92.412807139665944
 21
176.28171089140221
 31
8206336.7530117426
  0
LINE
  5
6814
  8
AM_0
 10
92.412807139665944
 20
176.28171089140221
 30
8206336.7530117426
 11
92.416179470742946
 21
176.38300960514121
 31
8206336.7530117426
  0
ARC
  5
6815
  8
AM_0
 10
90.821086052073483
 20
176.38003345364299
 30
8206336.7530117426
 40
1.595096195143147
 50
0.1069032823798393
 51
11.47976002760983
  0
LINE
  5
6816
  8
AM_0
 10
92.384272461131957
 20
176.69749230498459
 30
8206336.7530117426
 11
92.343640550946773
 21
176.85806618050901
 31
8206336.7530117426
  0
LINE
  5
6817
  8
AM_0
 10
92.343640550946773
 20
176.85806618050901
 30
8206336.7530117426
 11
92.288000486413111
 21
177.0140344739317
 31
8206336.7530117426
  0
ARC
  5
6818
  8
AM_0
 10
90.412526192759401
 20
176.2386516925468
 30
8206336.7530117426
 40
2.029438908620818
 50
22.461811304460682
 51
29.330593568207401
  0
ARC
  5
6825
  8
AM_0
 10
86.183631313462243
 20
186.04430713861521
 30
8206336.7530117426
 40
12.91347446048893
 50
252.0732948664546
 51
268.81307083254637
  0
LINE
  5
6826
  8
AM_0
 10
82.208862384048004
 20
173.75776838274641
 30
8206336.7530117426
 11
81.796281616846841
 21
173.91101006813901
 31
8206336.7530117426
  0
LINE
  5
6827
  8
AM_0
 10
81.796281616846841
 20
173.91101006813901
 30
8206336.7530117426
 11
81.393789872590204
 21
174.08997943084489
 31
8206336.7530117426
  0
ARC
  5
6828
  8
AM_0
 10
83.897551513351104
 20
179.37477999457599
 30
8206336.7530117426
 40
5.8479004225582418
 50
236.4329489599497
 51
244.64997182786729
  0
LINE
  5
6829
  8
AM_0
 10
80.6641744373362
 20
174.50207930230491
 30
8206336.7530117426
 11
80.349631558085093
 21
174.73435275747539
 31
8206336.7530117426
  0
LINE
  5
682A
  8
AM_0
 10
80.349631558085093
 20
174.73435275747539
 30
8206336.7530117426
 11
80.060442409887614
 21
174.99722363351421
 31
8206336.7530117426
  0
ARC
  5
682B
  8
AM_0
 10
81.939325373265547
 20
176.86290802372091
 30
8206336.7530117426
 40
2.6478254160599781
 50
212.3309125462562
 51
224.79804892389021
  0
LINE
  5
682C
  8
AM_0
 10
79.701983293420071
 20
175.4468289822525
 30
8206336.7530117426
 11
79.573067337140728
 21
175.68636074748861
 31
8206336.7530117426
  0
LINE
  5
682D
  8
AM_0
 10
79.573067337140728
 20
175.68636074748861
 30
8206336.7530117426
 11
79.478966769639953
 21
175.94101973597299
 31
8206336.7530117426
  0
ARC
  5
682E
  8
AM_0
 10
81.0777870086186
 20
176.39610840058279
 30
8206336.7530117426
 40
1.6623272389105701
 50
187.44041813322769
 51
195.88848880578581
  0
LINE
  5
682F
  8
AM_0
 10
79.429456466260945
 20
176.1808451376815
 30
8206336.7530117426
 11
79.419551801820035
 21
176.28171089140221
 31
8206336.7530117426
  0
LINE
  5
6830
  8
AM_0
 10
79.419551801820035
 20
176.28171089140221
 30
8206336.7530117426
 11
79.416179470742904
 21
176.38300960514121
 31
8206336.7530117426
  0
ARC
  5
6831
  8
AM_0
 10
81.011272889409469
 20
176.38003345364299
 30
8206336.7530117426
 40
1.5950961951403351
 50
168.52023997237021
 51
179.8930967176201
  0
LINE
  5
6832
  8
AM_0
 10
79.448086480353936
 20
176.69749230498459
 30
8206336.7530117426
 11
79.488718390539233
 21
176.85806618050901
 31
8206336.7530117426
  0
LINE
  5
6833
  8
AM_0
 10
79.488718390539233
 20
176.85806618050901
 30
8206336.7530117426
 11
79.544358455072569
 21
177.0140344739317
 31
8206336.7530117426
  0
ARC
  5
6834
  8
AM_0
 10
81.419832748736155
 20
176.23865169254091
 30
8206336.7530117426
 40
2.02943890863216
 50
147.8557105642179
 51
157.53818869548999
  0
LINE
  5
6835
  8
AM_0
 10
79.701484705729726
 20
177.3184212452538
 30
8206336.7530117426
 11
79.823773452264348
 21
177.49573183797571
 31
8206336.7530117426
  0
LINE
  5
6836
  8
AM_0
 10
79.823773452264348
 20
177.49573183797571
 30
8206336.7530117426
 11
79.960627052602476
 21
177.66211376036529
 31
8206336.7530117426
  0
ARC
  5
6837
  8
AM_0
 10
82.458785038795057
 20
175.41910207454401
 30
8206336.7530117426
 40
3.3573642558870951
 50
129.08137847167831
 51
138.0804040644328
  0
LINE
  5
6838
  8
AM_0
 10
80.342223533778906
 20
178.02526057743509
 30
8206336.7530117426
 11
80.761362151179014
 21
178.32795705506089
 31
8206336.7530117426
  0
LINE
  5
6839
  8
AM_0
 10
80.761362151179014
 20
178.32795705506089
 30
8206336.7530117426
 11
81.210515831076734
 21
178.5853087563155
 31
8206336.7530117426
  0
ARC
  5
683A
  8
AM_0
 10
84.541741514103137
 20
172.05769846205001
 30
8206336.7530117426
 40
7.3284896605682359
 50
109.0382363849763
 51
117.0365170347017
  0
LINE
  5
683B
  8
AM_0
 10
82.151194969325374
 20
178.98532777678011
 30
8206336.7530117426
 11
82.827692863892764
 21
179.19220762639841
 31
8206336.7530117426
  0
LINE
  5
683C
  8
AM_0
 10
82.827692863892764
 20
179.19220762639841
 30
8206336.7530117426
 11
83.517459426592538
 21
179.35002105890061
 31
8206336.7530117426
  0
ARC
  5
683D
  8
AM_0
 10
85.82633074345631
 20
167.40992121597981
 30
8206336.7530117426
 40
12.16128574685901
 50
96.390354906716382
 51
100.944276276251
  0
LINE
  5
683E
  8
AM_0
 10
84.472759682027345
 20
179.49564487649829
 30
8206336.7530117426
 11
84.577723455191176
 21
179.5056538498653
 31
8206336.7530117426
  0
ARC
  5
6869
  8
AM_0
 10
83.466179470743043
 20
191.16814557560349
 30
0.0
 40
0.7999999999998977
 50
90.0
 51
180.0
  0
ARC
  5
686A
  8
AM_0
 10
83.466179470743043
 20
189.95512525717081
 30
0.0
 40
0.7999999999999972
 50
90.0
 51
180.0
  0
ARC
  5
686B
  8
AM_0
 10
88.366179470742935
 20
191.16814557560349
 30
0.0
 40
0.8000000000000112
 50
0.0
 51
90.0
  0
ARC
  5
686C
  8
AM_0
 10
88.366179470742935
 20
189.95512525717081
 30
0.0
 40
0.8000000000000112
 50
0.0
 51
90.0
  0
ARC
  5
686F
  8
AM_0
 10
139.32759679209479
 20
147.96920196397539
 30
0.0
 40
50.0
 50
90.0
 51
122.47128019301221
1001
GENIUS_GENOBJ-N-FIL_13
1002
{
1000
OWNER
1000
GEN
1002
}
1001
GENIUS_GENODEF_13
1002
{
1000
HIER
1070
     0
1002
}
1002
{
1000
MANEDIT
1070
     0
1002
}
1002
{
1000
NOSEL
1070
     0
1002
}
1002
{
1000
BEHIND
1070
     0
1002
}
1002
{
1000
OTHER
1070
     0
1002
}
1002
{
1000
REACTOR
1002
}
  0
ARC
  5
6872
  8
AM_0
 10
139.3275967920942
 20
147.96920196397519
 30
0.0
 40
56.0
 50
89.99999999999946
 51
122.4712801930124
1001
GENIUS_GENODEF_13
1002
{
1000
HIER
1070
     0
1002
}
1002
{
1000
MANEDIT
1070
     0
1002
}
1002
{
1000
NOSEL
1070
     0
1002
}
1002
{
1000
BEHIND
1070
     0
1002
}
1002
{
1000
OTHER
1070
     0
1002
}
1002
{
1000
REACTOR
1002
}
1001
GENIUS_GENOBJ-N-FIL_13
1002
{
1000
OWNER
1000
GEN
1002
}
  0
LINE
  5
687C
  8
AM_0
 10
127.416179470743
 20
196.52966054291181
 30
0.0
 11
127.416179470743
 21
163.52682744976281
 31
0.0
  0
LINE
  5
687D
  8
AM_0
 10
119.4161794707436
 20
200.30977380127001
 30
0.0
 11
119.4161794707436
 21
206.63011986996079
 31
0.0
  0
LINE
  5
687E
  8
AM_0
 10
110.416179470743
 20
188.7629508536109
 30
0.0
 11
110.416179470743
 21
166.96923646397551
 31
0.0
  0
CIRCLE
  5
75E3
  8
AM_0
 10
656.16104527668392
 20
244.16914246397539
 30
0.0
 40
33.499999999999893
  0
CIRCLE
  5
75E4
  8
AM_0
 10
656.16104527668392
 20
244.16914246397539
 30
0.0
 40
28.49999999999994
  0
LINE
  5
75E5
  8
AM_0
 10
404.416079470743
 20
277.6691424639755
 30
0.0
 11
409.41607947074289
 21
272.66914246397562
 31
0.0
  0
LINE
  5
75E6
  8
AM_0
 10
409.41607947074289
 20
272.66914246397562
 30
0.0
 11
409.416079470743
 21
215.66914246397559
 31
0.0
  0
LINE
  5
75E7
  8
AM_0
 10
404.416079470743
 20
210.6691424639755
 30
0.0
 11
409.416079470743
 21
215.66914246397559
 31
0.0
  0
LINE
  5
75E9
  8
AM_0
 10
541.16104527668358
 20
174.96729203638799
 30
0.0
 11
565.67062636678497
 21
175.8231854679747
 31
0.0
  0
LINE
  5
75EA
  8
AM_0
 10
563.66103127668384
 20
266.18157521171457
 30
0.0
 11
541.16104527668358
 21
266.96729203638807
 31
0.0
  0
LINE
  5
75EB
  8
AM_0
 10
541.16104527668358
 20
266.96729203638807
 30
0.0
 11
541.16104527668358
 21
174.96729203638779
 31
0.0
  0
LINE
  5
75EC
  8
ﾁｭｳｼﾝｾﾝ1
 10
530.16104527668381
 20
179.9672920363887
 30
0.0
 11
545.98856828922055
 21
179.96729203638861
 31
0.0
  0
LINE
  5
75ED
  8
AM_0
 10
537.16104527668358
 20
266.96729203638807
 30
0.0
 11
537.16104527668358
 21
246.15278713685561
 31
0.0
  0
LINE
  5
75EE
  8
AM_0
 10
537.16104527668358
 20
195.7817969359204
 30
0.0
 11
537.16104527668358
 21
174.96729203638881
 31
0.0
  0
LINE
  5
75EF
  8
AM_0
 10
533.16104527668358
 20
260.83151036722739
 30
0.0
 11
533.16104527668358
 21
181.10307370554861
 31
0.0
  0
LINE
  5
75F0
  8
AM_0
 10
535.10210776455585
 20
183.87464700869509
 30
0.0
 11
536.16104527668381
 21
183.96729203638861
 31
0.0
  0
LINE
  5
75F1
  8
AM_0
 10
535.10210776455585
 20
176.05993706408219
 30
0.0
 11
536.16104527668381
 21
175.96729203638861
 31
0.0
  0
ARC
  5
75F2
  8
AM_0
 10
539.56104527668367
 20
179.96729203638861
 30
0.0
 40
6.5
 50
151.82726586813479
 51
208.1727341318651
  0
ARC
  5
75F3
  8
AM_0
 10
535.24155695295235
 20
177.65384858102891
 30
0.0
 40
1.6000000000000001
 50
208.1727341318651
 51
265.00000000000028
  0
LINE
  5
75F4
  8
AM_0
 10
533.48157161525535
 20
182.26729203638851
 30
0.0
 11
535.77113129405075
 21
179.96729203638861
 31
0.0
  0
LINE
  5
75F5
  8
AM_0
 10
535.46104527668365
 20
180.27879203638861
 30
0.0
 11
535.46104527668365
 21
179.6557920363885
 31
0.0
  0
LINE
  5
75F6
  8
AM_0
 10
533.48157161525535
 20
177.6672920363886
 30
0.0
 11
535.77113129405075
 21
179.96729203638861
 31
0.0
  0
LINE
  5
75F7
  8
AM_0
 10
533.06851358634913
 20
180.27879203638861
 30
0.0
 11
535.46104527668365
 21
180.27879203638861
 31
0.0
  0
LINE
  5
75F8
  8
AM_0
 10
533.06851358634913
 20
179.6557920363885
 30
0.0
 11
535.46104527668365
 21
179.6557920363885
 31
0.0
  0
ARC
  5
75F9
  8
AM_0
 10
535.24155695295235
 20
182.2807354917482
 30
0.0
 40
1.6000000000000001
 50
94.999999999999758
 51
151.82726586813479
  0
LINE
  5
75FA
  8
AM_0
 10
537.16104527668358
 20
266.96729203638807
 30
0.0
 11
541.16104527668358
 21
266.96729203638807
 31
0.0
  0
LINE
  5
75FB
  8
AM_0
 10
536.16104527668369
 20
265.9672920363879
 30
0.0
 11
537.16104527668404
 21
266.96729203638807
 31
0.0
  0
LINE
  5
75FC
  8
AM_0
 10
541.16104527668358
 20
174.96729203638779
 30
0.0
 11
537.16104527668358
 21
174.96729203638881
 31
0.0
  0
LINE
  5
75FD
  8
AM_0N
 10
537.16104527668358
 20
183.7672920363886
 30
0.0
 11
536.16104527668381
 21
183.7672920363886
 31
0.0
  0
LINE
  5
75FE
  8
AM_0N
 10
536.16104527668381
 20
180.1672920363886
 30
0.0
 11
537.16104527668358
 21
180.53126227065479
 31
0.0
  0
LINE
  5
75FF
  8
AM_0N
 10
536.16104527668381
 20
179.7672920363886
 30
0.0
 11
537.16104527668358
 21
180.13126227065479
 31
0.0
  0
LINE
  5
7600
  8
AM_0N
 10
536.16104527668381
 20
175.96729203638861
 30
0.0
 11
536.16104527668381
 21
183.96729203638861
 31
0.0
  0
LINE
  5
7601
  8
AM_0N
 10
536.16104527668381
 20
176.1672920363886
 30
0.0
 11
537.16104527668358
 21
176.1672920363886
 31
0.0
  0
LINE
  5
7602
  8
AM_0
 10
533.16104527668358
 20
195.78179693592031
 30
0.0
 11
537.16104527668358
 21
195.7817969359204
 31
0.0
  0
LINE
  5
7603
  8
AM_0
 10
537.16104527668358
 20
194.1249426864278
 30
0.0
 11
533.16104527668358
 21
195.78179693592031
 31
0.0
  0
LINE
  5
7604
  8
AM_0
 10
533.16104527668358
 20
246.15278713685561
 30
0.0
 11
537.16104527668358
 21
246.15278713685561
 31
0.0
  0
LINE
  5
7605
  8
AM_0
 10
537.16104527668358
 20
247.8096413863482
 30
0.0
 11
533.16104527668358
 21
246.15278713685561
 31
0.0
  0
LINE
  5
7606
  8
ﾁｭｳｼﾝｾﾝ1
 10
530.16104527668381
 20
261.96729203638739
 30
0.0
 11
545.98856828922055
 21
261.96729203638739
 31
0.0
  0
LINE
  5
7607
  8
AM_0
 10
535.10210776455585
 20
258.05993706408088
 30
0.0
 11
536.16104527668381
 21
257.96729203638739
 31
0.0
  0
LINE
  5
7608
  8
AM_0
 10
535.10210776455585
 20
265.87464700869373
 30
0.0
 11
536.16104527668381
 21
265.96729203638739
 31
0.0
  0
ARC
  5
7609
  8
AM_0
 10
539.56104527668367
 20
261.96729203638739
 30
0.0
 40
6.5
 50
151.82726586813479
 51
208.1727341318651
  0
ARC
  5
760A
  8
AM_0
 10
535.24155695295235
 20
264.28073549174712
 30
0.0
 40
1.6000000000000001
 50
94.999999999999758
 51
151.82726586813479
  0
LINE
  5
760B
  8
AM_0
 10
533.48157161525535
 20
259.66729203638749
 30
0.0
 11
535.77113129405075
 21
261.96729203638739
 31
0.0
  0
LINE
  5
760C
  8
AM_0
 10
535.46104527668365
 20
261.65579203638742
 30
0.0
 11
535.46104527668365
 21
262.27879203638747
 31
0.0
  0
LINE
  5
760D
  8
AM_0
 10
533.48157161525535
 20
264.2672920363874
 30
0.0
 11
535.77113129405075
 21
261.96729203638739
 31
0.0
  0
LINE
  5
760E
  8
AM_0
 10
533.06851358634913
 20
261.65579203638742
 30
0.0
 11
535.46104527668365
 21
261.65579203638742
 31
0.0
  0
LINE
  5
760F
  8
AM_0
 10
533.06851358634913
 20
262.27879203638747
 30
0.0
 11
535.46104527668365
 21
262.27879203638747
 31
0.0
  0
ARC
  5
7610
  8
AM_0
 10
535.24155695295235
 20
259.65384858102777
 30
0.0
 40
1.6000000000000001
 50
208.1727341318651
 51
265.00000000000028
  0
LINE
  5
7611
  8
AM_0N
 10
537.16104527668358
 20
258.16729203638738
 30
0.0
 11
536.16104527668381
 21
258.16729203638738
 31
0.0
  0
LINE
  5
7612
  8
AM_0N
 10
536.16104527668381
 20
261.7672920363874
 30
0.0
 11
537.16104527668358
 21
261.40332180212118
 31
0.0
  0
LINE
  5
7613
  8
AM_0N
 10
536.16104527668381
 20
262.16729203638738
 30
0.0
 11
537.16104527668358
 21
261.80332180212122
 31
0.0
  0
LINE
  5
7614
  8
AM_0N
 10
536.16104527668381
 20
265.96729203638739
 30
0.0
 11
536.16104527668381
 21
257.96729203638739
 31
0.0
  0
LINE
  5
7615
  8
AM_0N
 10
536.16104527668381
 20
265.7672920363874
 30
0.0
 11
537.16104527668358
 21
265.7672920363874
 31
0.0
  0
POINT
  5
761B
  8
AM_0
 10
656.16104527668392
 20
244.1691424639755
 30
0.0
  0
LINE
  5
761C
  8
AM_0
 10
446.41610947074309
 20
261.1691434639755
 30
0.0
 11
446.41610947074309
 21
230.16915946397549
 31
0.0
  0
LINE
  5
761D
  8
AM_0
 10
409.41607947074289
 20
258.1691434639755
 30
0.0
 11
446.41610947074309
 21
258.1691434639755
 31
0.0
  0
LINE
  5
761E
  8
AM_0
 10
404.41610947074309
 20
329.1691204639755
 30
0.0
 11
404.41610947074309
 21
159.16914046397551
 31
0.0
  0
LINE
  5
761F
  8
AM_0
 10
409.416079470743
 20
230.16915946397549
 30
0.0
 11
446.41610947074309
 21
230.16915946397549
 31
0.0
  0
LINE
  5
7620
  8
ﾁｭｳｼﾝｾﾝ
 10
299.77511947074288
 20
244.1691424639755
 30
0.0
 11
451.36388947074289
 21
244.1691424639755
 31
0.0
  0
LINE
  5
7621
  8
AM_0
 10
414.41609947074278
 20
261.1691434639755
 30
0.0
 11
446.41610947074309
 21
261.1691434639755
 31
0.0
  0
LINE
  5
7622
  8
AM_0
 10
414.41609947074278
 20
261.1691434639755
 30
0.0
 11
414.41609947074278
 21
258.1691434639755
 31
0.0
  0
LINE
  5
7623
  8
AM_0
 10
325.41617947074297
 20
301.9691704639755
 30
0.0
 11
325.41617947074297
 21
139.96914346397551
 31
0.0
  0
LINE
  5
7624
  8
AM_0
 10
281.9161194707429
 20
284.46913246397548
 30
0.0
 11
304.00319947074308
 21
285.24043246397548
 31
0.0
  0
LINE
  5
7625
  8
AM_0
 10
281.9161194707429
 20
157.4691604639755
 30
0.0
 11
304.14296947074308
 21
156.69297646397541
 31
0.0
  0
LINE
  5
7626
  8
ﾁｭｳｼﾝｾﾝ
 10
61.411343007859962
 20
220.96916746397551
 30
0.0
 11
303.5842740401061
 21
220.9691614639755
 31
0.0
  0
LINE
  5
7627
  8
AM_0
 10
325.41611947074301
 20
301.96914046397541
 30
0.0
 11
320.34635947074293
 21
301.7921104639754
 31
0.0
  0
LINE
  5
7628
  8
AM_0
 10
304.55918947074298
 20
156.6492424639755
 30
0.0
 11
305.93711947074308
 21
156.4062784639755
 31
0.0
  0
LINE
  5
7629
  8
AM_0
 10
304.69697947074297
 20
285.31334146397552
 30
0.0
 11
305.93711947074308
 21
285.53199946397552
 31
0.0
  0
LINE
  5
762A
  8
AM_0
 10
313.24160947074301
 20
296.7884704639755
 30
0.0
 11
313.88681947074309
 21
296.8110004639754
 31
0.0
  0
LINE
  5
762B
  8
AM_0
 10
308.41610947074298
 20
291.79149046397549
 30
0.0
 11
308.41610947074298
 21
142.4941834639755
 31
0.0
  0
LINE
  5
762C
  8
AM_0
 10
281.91617947074297
 20
272.46913246397548
 30
0.0
 11
308.41610947074298
 21
272.46913246397548
 31
0.0
  0
LINE
  5
762D
  8
AM_0
 10
281.91617947074297
 20
258.11708146397552
 30
0.0
 11
308.41610947074298
 21
258.11708146397552
 31
0.0
  0
LINE
  5
762E
  8
AM_0
 10
281.91617947074297
 20
183.82122646397531
 30
0.0
 11
308.41610947074298
 21
183.82122646397531
 31
0.0
  0
LINE
  5
762F
  8
AM_0
 10
281.91617947074297
 20
169.4691604639755
 30
0.0
 11
308.41610947074298
 21
169.4691604639755
 31
0.0
  0
LINE
  5
7630
  8
AM_0
 10
318.41609947074301
 20
299.79333046397551
 30
0.0
 11
318.41609947074301
 21
277.30320946397552
 31
0.0
  0
LINE
  5
7631
  8
AM_0
 10
310.41617947074297
 20
254.1183634639755
 30
0.0
 11
316.41617947074297
 21
254.1183634639755
 31
0.0
  0
LINE
  5
7632
  8
AM_0
 10
310.41617947074297
 20
275.3032384639755
 30
0.0
 11
316.41617947074297
 21
275.3032384639755
 31
0.0
  0
LINE
  5
7633
  8
AM_0
 10
309.33158947074293
 20
247.64121946397549
 30
0.0
 11
316.41617947074297
 21
247.64121946397549
 31
0.0
  0
LINE
  5
7634
  8
AM_0
 10
310.41617947074297
 20
159.42516946397541
 30
0.0
 11
316.41617947074297
 21
159.42516946397541
 31
0.0
  0
LINE
  5
7635
  8
AM_0
 10
318.41609947074301
 20
252.11833246397549
 30
0.0
 11
318.41609947074301
 21
161.4251824639754
 31
0.0
  0
LINE
  5
7636
  8
AM_0
 10
281.91617947074297
 20
284.46913246397548
 30
0.0
 11
281.91617947074297
 21
157.4690974639754
 31
0.0
  0
LINE
  5
7637
  8
AM_0
 10
652.16103127668384
 20
261.1691434639755
 30
0.0
 11
660.16103227668361
 21
261.1691434639755
 31
0.0
  0
LINE
  5
7638
  8
AM_0
 10
652.16103127668384
 20
254.1691444639755
 30
0.0
 11
660.16103227668361
 21
254.1691444639755
 31
0.0
  0
LINE
  5
7639
  8
AM_0
 10
660.16103227668361
 20
254.1691444639755
 30
0.0
 11
660.16103227668361
 21
261.1691434639755
 31
0.0
  0
LINE
  5
763A
  8
AM_0
 10
652.16103127668384
 20
254.1691444639755
 30
0.0
 11
652.16103127668384
 21
261.1691434639755
 31
0.0
  0
LINE
  5
763B
  8
AM_0
 10
350.41610947074309
 20
168.88436746397551
 30
0.0
 11
350.41610947074309
 21
181.20437446397551
 31
0.0
  0
LINE
  5
763C
  8
AM_0
 10
350.41610947074309
 20
182.36468446397549
 30
0.0
 11
390.41609947074289
 21
182.36468446397549
 31
0.0
  0
LINE
  5
763D
  8
AM_0
 10
350.41610947074309
 20
167.70136846397551
 30
0.0
 11
390.41609947074289
 21
167.70136846397551
 31
0.0
  0
LINE
  5
763E
  8
AM_0
 10
656.16104527668392
 20
151.66914046397551
 30
0.0
 11
686.16103327668384
 21
151.66914046397551
 31
0.0
  0
LINE
  5
763F
  8
AM_0
 10
656.16104527668392
 20
151.66914046397551
 30
0.0
 11
626.16104527668392
 21
151.66914046397551
 31
0.0
  0
LINE
  5
7640
  8
AM_0
 10
563.66103127668384
 20
274.1691454639755
 30
0.0
 11
566.06655127668375
 21
320.06922046397551
 31
0.0
  0
LINE
  5
7641
  8
AM_0
 10
563.66103127668384
 20
244.1691424639755
 30
0.0
 11
563.66103127668384
 21
274.1691454639755
 31
0.0
  0
LINE
  5
7642
  8
AM_0
 10
388.99088947074301
 20
262.64341846397548
 30
0.0
 11
384.65441947074311
 21
239.51265046397549
 31
0.0
  0
LINE
  5
7643
  8
AM_0
 10
686.16103327668384
 20
336.66915046397548
 30
0.0
 11
732.06112027668382
 21
334.2636304639754
 31
0.0
  0
LINE
  5
7644
  8
AM_0
 10
656.16104527668392
 20
336.6691204639755
 30
0.0
 11
686.16103327668384
 21
336.6691204639755
 31
0.0
  0
LINE
  5
7645
  8
AM_0
 10
626.16103027668362
 20
151.66914046397551
 30
0.0
 11
580.26095827668394
 21
154.07465746397551
 31
0.0
  0
LINE
  5
7646
  8
AM_0
 10
658.66104727668358
 20
304.78890046397549
 30
0.0
 11
658.66104727668358
 21
315.35697046397547
 31
0.0
  0
LINE
  5
7647
  8
AM_0
 10
748.66102627668363
 20
244.1691424639755
 30
0.0
 11
748.66102627668363
 21
214.1691424639755
 31
0.0
  0
LINE
  5
7648
  8
AM_0
 10
748.66103527668383
 20
214.1691424639755
 30
0.0
 11
746.25551527668381
 21
168.26905546397541
 31
0.0
  0
LINE
  5
7649
  8
AM_0
 10
748.66104127668382
 20
274.1691454639755
 30
0.0
 11
746.25551527668381
 21
320.06922046397551
 31
0.0
  0
LINE
  5
764A
  8
AM_0
 10
748.66102627668363
 20
244.1691424639755
 30
0.0
 11
748.66102627668363
 21
274.1691454639755
 31
0.0
  0
LINE
  5
764B
  8
AM_0
 10
563.66100127668392
 20
214.1691424639755
 30
0.0
 11
566.06652127668383
 21
168.26905546397541
 31
0.0
  0
LINE
  5
764C
  8
AM_0
 10
381.34622947074303
 20
285.54026746397551
 30
0.0
 11
381.34622947074303
 21
285.54026746397551
 31
0.0
  0
LINE
  5
764D
  8
AM_0
 10
361.993439470743
 20
303.24645046397552
 30
0.0
 11
381.34622947074303
 21
285.54026746397551
 31
0.0
  0
LINE
  5
764E
  8
AM_0
 10
392.346329470743
 20
336.3873304639755
 30
0.0
 11
400.41614947074282
 21
336.6691204639755
 31
0.0
  0
LINE
  5
764F
  8
AM_0
 10
368.17004947074281
 20
138.4761634639755
 30
0.0
 11
390.41609947074289
 21
151.3199284639754
 31
0.0
  0
LINE
  5
7650
  8
AM_0
 10
390.41609947074289
 20
220.2587734639755
 30
0.0
 11
390.41609947074289
 21
295.2943504639756
 31
0.0
  0
LINE
  5
7651
  8
AM_0
 10
325.41611947074301
 20
301.96914046397541
 30
0.0
 11
360.81242947074293
 21
303.20523046397551
 31
0.0
  0
LINE
  5
7652
  8
AM_0
 10
325.41611947074301
 20
139.96914346397551
 30
0.0
 11
368.17004947074281
 21
138.47614846397551
 31
0.0
  0
LINE
  5
7653
  8
AM_0
 10
628.88847727668383
 20
275.68434346397549
 30
0.0
 11
604.00067527668375
 21
300.5721304639755
 31
0.0
  0
LINE
  5
7654
  8
AM_0
 10
624.64583227668356
 20
271.44169546397552
 30
0.0
 11
599.75806027668375
 21
296.3294704639755
 31
0.0
  0
LINE
  5
7655
  8
AM_0
 10
325.41617947074297
 20
267.21913246397548
 30
0.0
 11
387.36143947074288
 21
267.21913246397548
 31
0.0
  0
LINE
  5
7656
  8
AM_0
 10
390.41609947074289
 20
154.4265274639755
 30
0.0
 11
390.41609947074289
 21
189.7984894639755
 31
0.0
  0
LINE
  5
7657
  8
AM_0
 10
362.829059470743
 20
304.08207046397558
 30
0.0
 11
390.41609947074289
 21
331.66914046397551
 31
0.0
  0
LINE
  5
7658
  8
AM_0
 10
581.2960842766837
 20
215.96914546397551
 30
0.0
 11
612.16104427668358
 21
215.96914546397551
 31
0.0
  0
LINE
  5
7659
  8
AM_0
 10
731.02597927668364
 20
215.96914546397551
 30
0.0
 11
700.16103127668384
 21
215.96914546397551
 31
0.0
  0
LINE
  5
765A
  8
AM_0
 10
392.04512947074289
 20
218.25878746397549
 30
0.0
 11
394.41614947074288
 21
218.25878746397549
 31
0.0
  0
LINE
  5
765B
  8
AM_0
 10
686.16103327668384
 20
151.66914046397551
 30
0.0
 11
732.06112027668382
 21
154.07465746397551
 31
0.0
  0
LINE
  5
765C
  8
AM_0
 10
563.66103127668384
 20
244.1691424639755
 30
0.0
 11
563.66103127668384
 21
214.1691424639755
 31
0.0
  0
LINE
  5
765D
  8
ﾁｭｳｼﾝｾﾝ1
 10
588.63235336798527
 20
176.6404391211471
 30
0.0
 11
571.66177968972454
 21
159.66988730246069
 31
0.0
  0
LINE
  5
765E
  8
AM_0
 10
400.41614947074282
 20
151.66914046397551
 30
0.0
 11
400.41614947074282
 21
244.1691424639755
 31
0.0
  0
LINE
  5
765F
  8
AM_0
 10
390.41609947074289
 20
151.3199284639754
 30
0.0
 11
400.41614947074282
 21
151.6691254639754
 31
0.0
  0
LINE
  5
7660
  8
ﾁｭｳｼﾝｾﾝ
 10
609.180564753574
 20
220.9691614639755
 30
0.0
 11
703.14152579979373
 21
220.9691614639755
 31
0.0
  0
LINE
  5
7661
  8
ﾁｭｳｼﾝｾﾝ
 10
656.16104527668392
 20
134.63441146397551
 30
0.0
 11
656.16104527668392
 21
341.78826041791569
 31
0.0
  0
LINE
  5
7662
  8
ﾁｭｳｼﾝｾﾝ
 10
556.06935060516275
 20
244.1691424639755
 30
0.0
 11
756.25273994820441
 21
244.1691424639755
 31
0.0
  0
LINE
  5
7663
  8
AM_0
 10
653.66103127668384
 20
304.78890046397549
 30
0.0
 11
653.66103127668384
 21
315.35697046397547
 31
0.0
  0
LINE
  5
7664
  8
AM_0
 10
687.67624627668363
 20
271.44169546397552
 30
0.0
 11
712.56403327668363
 21
296.3294704639755
 31
0.0
  0
LINE
  5
7665
  8
AM_0
 10
626.16101527668366
 20
336.66915046397548
 30
0.0
 11
580.26095827668394
 21
334.2636304639754
 31
0.0
  0
LINE
  5
7666
  8
AM_0
 10
617.16101527668366
 20
244.1691424639755
 30
0.0
 11
617.16101527668366
 21
220.9691614639755
 31
0.0
  0
LINE
  5
7667
  8
AM_0
 10
400.41614947074282
 20
329.1691204639755
 30
0.0
 11
404.41610947074309
 21
329.1691204639755
 31
0.0
  0
LINE
  5
7668
  8
AM_0
 10
695.1610482766838
 20
244.1691424639755
 30
0.0
 11
695.1610482766838
 21
220.9691614639755
 31
0.0
  0
LINE
  5
7669
  8
AM_0
 10
683.43360127668393
 20
275.68434346397549
 30
0.0
 11
708.32138827668382
 21
300.5721304639755
 31
0.0
  0
LINE
  5
766A
  8
AM_0
 10
394.41614947074288
 20
173.66912746397551
 30
0.0
 11
394.41614947074288
 21
314.34141046397548
 31
0.0
  0
LINE
  5
766B
  8
AM_0
 10
325.41617947074297
 20
154.8589294639755
 30
0.0
 11
390.41609947074289
 21
154.8589294639755
 31
0.0
  0
LINE
  5
766C
  8
AM_0
 10
656.16104527668392
 20
336.6691204639755
 30
0.0
 11
626.16104527668392
 21
336.6691204639755
 31
0.0
  0
LINE
  5
766D
  8
AM_0
 10
400.41614947074282
 20
159.16914046397551
 30
0.0
 11
404.41610947074309
 21
159.16914046397551
 31
0.0
  0
LINE
  5
766E
  8
AM_0
 10
400.41614947074282
 20
244.1691424639755
 30
0.0
 11
400.41614947074282
 21
336.6691204639755
 31
0.0
  0
LINE
  5
766F
  8
AM_0
 10
390.41609947074289
 20
295.2943504639756
 30
0.0
 11
390.41609947074289
 21
334.38855046397549
 31
0.0
  0
LINE
  5
7670
  8
AM_0
 10
325.41611947074301
 20
139.9691584639755
 30
0.0
 11
310.34633947074292
 21
140.49540346397549
 31
0.0
  0
ARC
  5
7671
  8
AM_0
 10
303.82877947074292
 20
290.23740046397552
 30
0.0
 40
5.0000001000000003
 50
271.9999999999971
 51
279.99999999999852
  0
ARC
  5
7672
  8
AM_0
 10
304.03823947074289
 20
153.69480646397551
 30
0.0
 40
3.0
 50
79.999998000000929
 51
88.000000000002842
  0
ARC
  5
7673
  8
AM_0
 10
305.41610947074298
 20
153.45185446397551
 30
0.0
 40
3.0
 50
0.0
 51
79.999998000000929
  0
ARC
  5
7674
  8
AM_0
 10
313.71230947074298
 20
301.80795046397549
 30
0.0
 40
5.0000001000000003
 50
271.9999999999971
 51
343.27365999999847
  0
ARC
  5
7675
  8
AM_0
 10
320.41610947074298
 20
299.79333046397551
 30
0.0
 40
2.00000007
 50
91.999998000000545
 51
163.27364999999961
  0
ARC
  5
7676
  8
AM_0
 10
305.41610947074298
 20
288.48646546397549
 30
0.0
 40
3.0
 50
279.99999999999852
 51
0.0
  0
ARC
  5
7677
  8
AM_0
 10
313.41617947074297
 20
291.79149046397549
 30
0.0
 40
5.0000001000000003
 50
91.999998000000545
 51
180.00000999999941
  0
ARC
  5
7678
  8
AM_0
 10
316.41617947074297
 20
161.4251824639754
 30
0.0
 40
2.00000007
 50
270.0
 51
0.0
  0
ARC
  5
7679
  8
AM_0
 10
310.41617947074297
 20
157.4251684639755
 30
0.0
 40
2.00000007
 50
90.00000299999769
 51
180.00000999999941
  0
ARC
  5
767A
  8
AM_0
 10
310.41617947074297
 20
256.11836146397548
 30
0.0
 40
2.00000007
 50
179.99999000000059
 51
270.0
  0
ARC
  5
767B
  8
AM_0
 10
310.41617947074297
 20
273.30323746397551
 30
0.0
 40
2.00000007
 50
90.00000299999769
 51
180.00000999999941
  0
ARC
  5
767C
  8
AM_0
 10
316.41617947074297
 20
277.30320946397552
 30
0.0
 40
2.00000007
 50
270.0
 51
0.0
  0
ARC
  5
767D
  8
AM_0
 10
316.41617947074297
 20
252.11833246397549
 30
0.0
 40
2.00000007
 50
0.0
 51
90.00000299999769
  0
ARC
  5
767E
  8
AM_0
 10
316.41617947074297
 20
245.64121846397549
 30
0.0
 40
2.00000007
 50
0.0
 51
90.00000299999769
  0
CIRCLE
  5
767F
  8
AM_5
 10
656.16104527668392
 20
244.1691424639755
 30
0.0
 40
4.0000001999999979
  0
ARC
  5
7680
  8
AM_0
 10
656.16104527668392
 20
244.1691424639755
 30
0.0
 40
14.000001299999999
 50
106.6015400000021
 51
73.398451999998059
  0
CIRCLE
  5
7681
  8
AM_0
 10
656.16104527668392
 20
244.1691424639755
 30
0.0
 40
3.0
  0
ARC
  5
7682
  8
AM_0
 10
350.41775947074302
 20
175.0330324639755
 30
0.0
 40
7.331659199999998
 50
90.00000299999769
 51
270.0
  0
ARC
  5
7683
  8
AM_0
 10
656.16104527668392
 20
220.9691614639755
 30
0.0
 40
76.000001999999981
 50
358.60644999999948
 51
12.760202000001
  0
ARC
  5
7684
  8
AM_0
 10
656.16104527668392
 20
220.9691614639755
 30
0.0
 40
76.000001999999981
 50
167.23980000000071
 51
181.39354000000071
  0
ARC
  5
7685
  8
AM_0
 10
656.16104527668392
 20
244.1691424639755
 30
0.0
 40
74.400002999999998
 50
171.88345000000001
 51
184.9454200000003
  0
ARC
  5
7686
  8
AM_0
 10
581.04602227668363
 20
319.28418046397547
 30
0.0
 40
15.000000299999989
 50
92.999999000001623
 51
176.9999900000002
  0
ARC
  5
7687
  8
AM_0
 10
731.27605327668346
 20
319.28418046397547
 30
0.0
 40
15.000000299999989
 50
3.0000001000004741
 51
86.999998999996933
  0
ARC
  5
7688
  8
AM_0
 10
731.27605327668346
 20
169.05410446397551
 30
0.0
 40
15.000000299999989
 50
272.99999999999909
 51
356.99999999999949
  0
ARC
  5
7689
  8
AM_0
 10
661.66104727668358
 20
304.78890046397549
 30
0.0
 40
3.0
 50
180.00000999999941
 51
266.24579999999759
  0
ARC
  5
768A
  8
AM_0
 10
731.27605327668346
 20
319.28418046397547
 30
0.0
 40
15.000000299999989
 50
3.0000001000004741
 51
86.999998999996933
  0
ARC
  5
768B
  8
AM_0
 10
650.66103127668384
 20
315.35697046397547
 30
0.0
 40
3.0
 50
0.0
 51
94.417918999996871
  0
ARC
  5
768C
  8
AM_0
 10
731.27605327668346
 20
169.05410446397551
 30
0.0
 40
15.000000299999989
 50
272.99999999999909
 51
356.99999999999949
  0
ARC
  5
768D
  8
AM_0
 10
661.66104727668358
 20
315.35697046397547
 30
0.0
 40
3.0
 50
85.582086000002178
 51
180.00000999999941
  0
ARC
  5
768E
  8
AM_0
 10
656.16104527668392
 20
244.1691424639755
 30
0.0
 40
74.400002999999998
 50
355.0545799999997
 51
8.1165494000001388
  0
ARC
  5
768F
  8
AM_0
 10
581.04602227668363
 20
169.05410446397551
 30
0.0
 40
15.000000299999989
 50
183.00000999999969
 51
267.0000000000008
  0
ARC
  5
7690
  8
AM_0
 10
409.0613994707428
 20
234.9369184639755
 30
0.0
 40
24.832211399999998
 50
169.3816799999974
 51
218.7932100000007
  0
ARC
  5
7691
  8
AM_0
 10
656.16104527668392
 20
220.9691614639755
 30
0.0
 40
81.000003000000007
 50
125.47417000000191
 51
155.4112299999982
  0
ARC
  5
7692
  8
AM_0
 10
364.58390947074292
 20
267.21913246397548
 30
0.0
 40
24.832211399999998
 50
349.3816799999974
 51
47.544066000002253
  0
ARC
  5
7693
  8
AM_0
 10
700.16103127668384
 20
220.9691614639755
 30
0.0
 40
5.0000001000000003
 50
179.99999000000059
 51
270.0
  0
ARC
  5
7694
  8
AM_0
 10
393.41609947074289
 20
154.4265274639755
 30
0.0
 40
3.0
 50
179.99999000000059
 51
271.99999000000128
  0
ARC
  5
7695
  8
AM_0
 10
393.41609947074289
 20
189.7984894639755
 30
0.0
 40
3.0
 50
90.00000299999769
 51
180.00000999999941
  0
ARC
  5
7696
  8
AM_0
 10
656.16104527668392
 20
244.1691424639755
 30
0.0
 40
39.000011999999998
 50
0.0
 51
36.786791000004008
  0
ARC
  5
7697
  8
AM_0
 10
391.41614947074288
 20
314.34141046397548
 30
0.0
 40
3.0
 50
0.0
 51
91.999998000000545
  0
ARC
  5
7698
  8
AM_0
 10
391.41614947074288
 20
173.66912746397551
 30
0.0
 40
3.0
 50
270.0
 51
0.0
  0
ARC
  5
7699
  8
AM_0
 10
631.00978627668394
 20
277.8056494639755
 30
0.0
 40
3.0
 50
225.0
 51
306.78678999999988
  0
ARC
  5
769A
  8
AM_0
 10
622.52452627668356
 20
269.32035946397548
 30
0.0
 40
3.0
 50
323.21321000000228
 51
45.000001000003223
  0
ARC
  5
769B
  8
AM_0
 10
656.16104527668392
 20
244.1691424639755
 30
0.0
 40
39.000011999999998
 50
53.213208000001529
 51
126.7867899999999
  0
ARC
  5
769C
  8
AM_0
 10
606.12201427668367
 20
302.6934304639754
 30
0.0
 40
3.0
 50
130.5308599999974
 51
225.0
  0
ARC
  5
769D
  8
AM_0
 10
656.16104527668392
 20
220.9691614639755
 30
0.0
 40
81.000003000000007
 50
58.860945000003653
 51
86.245802999997196
  0
ARC
  5
769E
  8
AM_0
 10
656.16104527668392
 20
244.1691424639755
 30
0.0
 40
39.000011999999998
 50
143.21321000000231
 51
180.00000999999941
  0
ARC
  5
769F
  8
AM_0
 10
612.16104427668358
 20
220.9691614639755
 30
0.0
 40
5.0000001000000003
 50
270.0
 51
0.0
  0
ARC
  5
76A0
  8
AM_0
 10
624.82887727668356
 20
140.8798504639754
 30
0.0
 40
5.0000001000000003
 50
68.633797999996744
 51
143.26126000000099
  0
ARC
  5
76A1
  8
AM_0
 10
614.41104427668358
 20
148.6560184639755
 30
0.0
 40
8.0000000999999976
 50
156.738740000001
 51
323.26127000000349
  0
ARC
  5
76A2
  8
AM_0
 10
697.91101627668365
 20
148.6560184639755
 30
0.0
 40
8.0000000999999976
 50
216.7387399999989
 51
23.2612579999997
  0
ARC
  5
76A3
  8
AM_0
 10
656.16104527668392
 20
220.9691614639755
 30
0.0
 40
81.000003000000007
 50
248.63379999999751
 51
270.0
  0
ARC
  5
76A4
  8
AM_0
 10
687.49320127668375
 20
140.8798504639754
 30
0.0
 40
5.0000001000000003
 50
36.738737000000562
 51
111.3662099999999
  0
CIRCLE
  5
76A5
  8
AM_0
 10
732.1750092766838
 20
320.18313046397549
 30
0.0
 40
6.0000002999999991
  0
CIRCLE
  5
76A6
  8
AM_0
 10
580.14706627668363
 20
320.18313046397549
 30
0.0
 40
6.0000002999999991
  0
ARC
  5
76A7
  8
AM_0
 10
597.63675127668375
 20
294.2081404639755
 30
0.0
 40
3.0
 50
45.000001000003223
 51
139.46914000000129
  0
ARC
  5
76A8
  8
AM_0
 10
581.04602227668363
 20
169.05410446397551
 30
0.0
 40
15.000000299999989
 50
183.00000999999969
 51
267.0000000000008
  0
ARC
  5
76A9
  8
ﾁｭｳｼﾝｾﾝ1
 10
656.1610452766871
 20
244.16914246397869
 30
0.0
 40
107.50001100000451
 50
216.99874048807271
 51
233.00125951192521
  0
CIRCLE
  5
76AA
  8
AM_0
 10
580.14706627668363
 20
168.1551634639755
 30
0.0
 40
6.0000002999999991
  0
ARC
  5
76AB
  8
AM_0
 10
392.41610947074309
 20
334.38855046397549
 30
0.0
 40
2.00000007
 50
91.999998000000545
 51
180.00000999999941
  0
CIRCLE
  5
76AC
  8
AM_0
 10
732.1750092766838
 20
168.1551634639755
 30
0.0
 40
6.0000002999999991
  0
CIRCLE
  5
76AD
  8
AM_0
 10
656.16104527668392
 20
244.1691424639755
 30
0.0
 40
80.000000999999983
  0
ARC
  5
76AE
  8
AM_0
 10
656.16104527668392
 20
220.9691614639755
 30
0.0
 40
81.000003000000007
 50
24.588775000001409
 51
54.525829999998038
  0
CIRCLE
  5
76AF
  8
AM_0
 10
656.16104527668392
 20
244.1691424639755
 30
0.0
 40
85.000001999999981
  0
ARC
  5
76B0
  8
AM_0
 10
714.68533927668375
 20
294.2081404639755
 30
0.0
 40
3.0
 50
40.530864999996624
 51
135.0
  0
ARC
  5
76B1
  8
AM_0
 10
681.31229227668371
 20
277.8056494639755
 30
0.0
 40
3.0
 50
233.21321000000009
 51
315.0
  0
ARC
  5
76B2
  8
AM_0
 10
689.79755227668375
 20
269.32035946397548
 30
0.0
 40
3.0
 50
135.0
 51
216.78678999999761
  0
ARC
  5
76B3
  8
AM_0
 10
706.20004927668379
 20
302.6934304639754
 30
0.0
 40
3.0
 50
315.0
 51
49.469136999996117
  0
ARC
  5
76B4
  8
AM_0
 10
581.04602227668363
 20
319.28418046397547
 30
0.0
 40
15.000000299999989
 50
92.999999000001623
 51
176.9999900000002
  0
ARC
  5
76B5
  8
AM_0
 10
656.16104527668392
 20
220.9691614639755
 30
0.0
 40
81.000003000000007
 50
270.0
 51
291.36620000000238
  0
ARC
  5
76B6
  8
AM_0
 10
650.66103127668384
 20
304.78890046397549
 30
0.0
 40
3.0
 50
273.75420000000253
 51
0.0
  0
ARC
  5
76B7
  8
AM_0
 10
360.70772947074312
 20
306.20340046397558
 30
0.0
 40
3.0
 50
271.9999999999971
 51
315.0
  0
ARC
  5
76B8
  8
AM_0
 10
393.41609947074289
 20
295.2943504639756
 30
0.0
 40
3.0
 50
179.99999000000059
 51
270.0
  0
ARC
  5
76B9
  8
AM_0
 10
392.04512947074289
 20
221.25878746397549
 30
0.0
 40
3.0
 50
218.7932199999976
 51
270.0
  0
ARC
  5
76BA
  8
AM_0
 10
310.41617947074297
 20
142.4941834639755
 30
0.0
 40
2.00000007
 50
179.99999000000059
 51
268.00000999999872
  0
ARC
  5
76D2
  8
AM_0
 10
656.16105875005996
 20
220.96913146397549
 30
0.0
 40
81.000003000000007
 50
93.754195000000863
 51
121.1390599999999
  0
LINE
  5
76D6
  8
ﾁｭｳｼﾝｾﾝ1
 10
723.68974861951222
 20
176.6404505552768
 30
0.0
 11
740.66030043819853
 21
159.66987687701609
 31
0.0
  0
ARC
  5
76D7
  8
ﾁｭｳｼﾝｾﾝ1
 10
656.16104527668062
 20
244.16914246397869
 30
0.0
 40
107.50001100000451
 50
306.99874048807487
 51
323.00125951192661
  0
LINE
  5
76D8
  8
ﾁｭｳｼﾝｾﾝ1
 10
723.68973718538223
 20
311.69784580680368
 30
0.0
 11
740.66031086364285
 21
328.66839762549
 31
0.0
  0
ARC
  5
76D9
  8
ﾁｭｳｼﾝｾﾝ1
 10
656.1610452766804
 20
244.16914246397221
 30
0.0
 40
107.50001100000451
 50
36.998740488072762
 51
53.00125951192512
  0
LINE
  5
76DA
  8
ﾁｭｳｼﾝｾﾝ1
 10
588.6323419338554
 20
311.69783437267398
 30
0.0
 11
571.6617901151692
 21
328.66840805093477
 31
0.0
  0
ARC
  5
76DB
  8
ﾁｭｳｼﾝｾﾝ1
 10
656.16104527668699
 20
244.16914246397221
 30
0.0
 40
107.50001100000451
 50
126.9987404880748
 51
143.00125951192709
  0
LINE
  5
7CD6
  8
ﾁｭｳｼﾝｾﾝ
 10
61.411283007860114
 20
524.62861978620322
 30
0.0
 11
451.12313947074313
 21
524.62861978620322
 31
0.0
  0
LINE
  5
7CFE
  8
AM_0
 10
281.91613947074308
 20
461.12861978620339
 30
0.0
 11
281.91613947074308
 21
588.12861978620333
 31
0.0
  0
LINE
  5
7D5A
  8
AM_0
 10
118.9161394707443
 20
472.56721627743173
 30
0.0
 11
118.9161394707439
 21
510.28950319218887
 31
0.0
  0
LINE
  5
7D5B
  8
AM_0
 10
109.9161394707435
 20
470.62861978620379
 30
0.0
 11
109.9161394707435
 21
578.62861978620379
 31
0.0
  0
LINE
  5
7D5C
  8
AM_0
 10
109.9161394707435
 20
470.62861978620361
 30
0.0
 11
126.9161394707434
 21
471.62861978620373
 31
0.0
  0
LINE
  5
7D5D
  8
AM_0
 10
109.9161394707435
 20
578.62861978620344
 30
0.0
 11
126.9161394707434
 21
577.62861978620344
 31
0.0
  0
LINE
  5
7D5E
  8
AM_0
 10
118.9161394707441
 20
481.03471658811219
 30
0.0
 11
126.9161394707434
 21
481.03471658811242
 31
0.0
  0
LINE
  5
7D5F
  8
AM_0
 10
118.9161394707443
 20
472.56721627743173
 30
0.0
 11
126.9161394707434
 21
472.56721627743173
 31
0.0
  0
LINE
  5
7D60
  8
AM_0
 10
115.4161394707441
 20
489.98774682094353
 30
0.0
 11
118.9161394707441
 21
489.98774682094353
 31
0.0
  0
LINE
  5
7D61
  8
AM_0
 10
115.4161394707441
 20
481.48774682094353
 30
0.0
 11
118.9161394707443
 21
481.48774682094353
 31
0.0
  0
LINE
  5
7D62
  8
AM_0
 10
114.9161394707441
 20
481.98774682094353
 30
0.0
 11
114.9161394707441
 21
489.48774682094353
 31
0.0
  0
ARC
  5
7D63
  8
AM_0
 10
115.4161394707442
 20
481.98774682094353
 30
0.0
 40
0.5
 50
180.0
 51
270.0
  0
ARC
  5
7D64
  8
AM_0
 10
115.4161394707442
 20
489.48774682094353
 30
0.0
 40
0.5
 50
90.0
 51
180.0
  0
LINE
  5
7D65
  8
AM_0
 10
109.9161394707435
 20
482.35642529306352
 30
0.0
 11
114.9161394707441
 21
482.3564252930633
 31
0.0
  0
LINE
  5
7D66
  8
AM_0
 10
109.9161394707435
 20
492.0915077913595
 30
0.0
 11
118.9161394707441
 21
492.09150779135962
 31
0.0
  0
LINE
  5
7D67
  8
AM_0
 10
118.9161394707443
 20
576.69002329497584
 30
0.0
 11
118.9161394707439
 21
538.96773638022285
 31
0.0
  0
LINE
  5
7D68
  8
AM_0
 10
118.9161394707441
 20
568.22252298429532
 30
0.0
 11
126.9161394707434
 21
568.22252298429532
 31
0.0
  0
LINE
  5
7D69
  8
AM_0
 10
118.9161394707443
 20
576.69002329497584
 30
0.0
 11
126.9161394707434
 21
576.69002329497584
 31
0.0
  0
LINE
  5
7D6A
  8
AM_0
 10
115.4161394707441
 20
559.26949275146387
 30
0.0
 11
118.9161394707441
 21
559.26949275146387
 31
0.0
  0
LINE
  5
7D6B
  8
AM_0
 10
115.4161394707441
 20
567.76949275146387
 30
0.0
 11
118.9161394707443
 21
567.76949275146387
 31
0.0
  0
LINE
  5
7D6C
  8
AM_0
 10
114.9161394707441
 20
567.26949275146387
 30
0.0
 11
114.9161394707441
 21
559.76949275146387
 31
0.0
  0
ARC
  5
7D6D
  8
AM_0
 10
115.4161394707442
 20
567.26949275146364
 30
0.0
 40
0.5
 50
90.0
 51
180.0
  0
ARC
  5
7D6E
  8
AM_0
 10
115.4161394707442
 20
559.76949275146364
 30
0.0
 40
0.5
 50
180.0
 51
270.0
  0
LINE
  5
7D6F
  8
AM_0
 10
109.9161394707435
 20
566.90081427934388
 30
0.0
 11
114.9161394707441
 21
566.90081427934399
 31
0.0
  0
LINE
  5
7D70
  8
AM_0
 10
109.9161394707435
 20
557.16573178104795
 30
0.0
 11
118.9161394707441
 21
557.16573178104795
 31
0.0
  0
LINE
  5
7D71
  8
AM_0
 10
103.9161394707434
 20
578.6286197862039
 30
0.0
 11
103.9161394707434
 21
470.62861978620361
 31
0.0
  0
LINE
  5
7D72
  8
AM_0
 10
109.9161394707435
 20
470.62861978620361
 30
0.0
 11
103.9161394707434
 21
470.62861978620361
 31
0.0
  0
LINE
  5
7D73
  8
AM_0
 10
103.9161394707434
 20
578.6286197862039
 30
0.0
 11
109.9161394707432
 21
578.6286197862039
 31
0.0
  0
LINE
  5
7D74
  8
AM_0
 10
102.9161394707434
 20
520.82861978620372
 30
0.0
 11
102.9161394707434
 21
528.42861978620363
 31
0.0
  0
LINE
  5
7D75
  8
AM_0
 10
102.9161394707434
 20
528.42861978620363
 30
0.0
 11
103.9161394707434
 21
528.42861978620363
 31
0.0
  0
LINE
  5
7D76
  8
AM_0
 10
103.9161394707434
 20
524.82861978620372
 30
0.0
 11
102.9161394707434
 21
525.19259002046965
 31
0.0
  0
LINE
  5
7D77
  8
AM_0
 10
103.9161394707434
 20
524.42861978620363
 30
0.0
 11
102.9161394707434
 21
524.79259002047002
 31
0.0
  0
LINE
  5
7D78
  8
AM_0
 10
103.9161394707434
 20
520.82861978620372
 30
0.0
 11
102.9161394707434
 21
520.82861978620372
 31
0.0
  0
LINE
  5
7D79
  8
AM_0
 10
101.85720195861541
 20
528.53597475851006
 30
0.0
 11
102.9161394707434
 21
528.62861978620344
 31
0.0
  0
LINE
  5
7D7A
  8
AM_0
 10
101.85720195861541
 20
520.72126481389705
 30
0.0
 11
102.9161394707434
 21
520.62861978620344
 31
0.0
  0
ARC
  5
7D7B
  8
AM_0
 10
106.31613947074339
 20
524.62861978620344
 30
0.0
 40
6.5
 50
151.82726586813479
 51
208.1727341318651
  0
ARC
  5
7D7C
  8
AM_0
 10
101.996651147012
 20
522.315176330844
 30
0.0
 40
1.6000000000000001
 50
208.1727341318651
 51
265.00000000000028
  0
ARC
  5
7D7D
  8
AM_0
 10
101.996651147012
 20
526.94206324156335
 30
0.0
 40
1.6000000000000001
 50
94.99999999999973
 51
151.82726586813479
  0
LINE
  5
7D7E
  8
AM_0
 10
102.9161394707434
 20
520.62861978620344
 30
0.0
 11
102.9161394707434
 21
528.62861978620344
 31
0.0
  0
LINE
  5
7D7F
  8
AM_0
 10
126.9161394707434
 20
510.2895031921891
 30
0.0
 11
118.9161394707441
 21
510.2895031921891
 31
0.0
  0
LINE
  5
7D80
  8
AM_0
 10
126.9161394707432
 20
538.96773638022285
 30
0.0
 11
118.9161394707439
 21
538.96773638022285
 31
0.0
  0
LINE
  5
7D81
  8
AM_0
 10
89.416139470743005
 20
490.62861978620481
 30
0.0
 11
89.416139470743005
 21
479.62861978620379
 31
0.0
  0
LINE
  5
7D82
  8
AM_0
 10
103.916139470743
 20
479.62861978620379
 30
0.0
 11
89.416139470743005
 21
479.62861978620379
 31
0.0
  0
LINE
  5
7D83
  8
AM_0
 10
77.41613947074346
 20
484.62861978620452
 30
0.0
 11
77.416139470743232
 21
481.62861978620481
 31
0.0
  0
LINE
  5
7D84
  8
AM_0
 10
77.416139470743232
 20
481.62861978620481
 30
0.0
 11
89.416139470743005
 21
481.62861978620481
 31
0.0
  0
LINE
  5
7D85
  8
AM_0
 10
77.416139470743019
 20
482.62861978620492
 30
0.0
 11
77.416139470743019
 21
484.8062881923513
 31
0.0
  0
LINE
  5
7D86
  8
AM_0
 10
71.916139470743005
 20
484.62861978620492
 30
0.0
 11
72.81613947074311
 21
484.62861978620492
 31
0.0
  0
LINE
  5
7D87
  8
AM_0
 10
71.716139470742732
 20
487.62861978620492
 30
0.0
 11
71.716139470742732
 21
484.62861978620492
 31
0.0
  0
LINE
  5
7D88
  8
AM_0
 10
72.81613947074311
 20
484.3562680516211
 30
0.0
 11
72.81613947074311
 21
487.90097152078852
 31
0.0
  0
LINE
  5
7D89
  8
AM_0
 10
71.416139470743019
 20
487.32861978620491
 30
0.0
 11
72.816139470741305
 21
487.32861978620491
 31
0.0
  0
LINE
  5
7D8A
  8
AM_0
 10
76.816139470743096
 20
483.74704992579763
 30
0.0
 11
76.816139470743096
 21
482.62861978620492
 31
0.0
  0
LINE
  5
7D8B
  8
AM_0
 10
76.816139470743096
 20
484.62861978620492
 30
0.0
 11
76.816139470743096
 21
484.5286197862049
 31
0.0
  0
LINE
  5
7D8C
  8
AM_0
 10
76.816139470743096
 20
484.5286197862049
 30
0.0
 11
76.816139470743096
 21
483.74704992579763
 31
0.0
  0
LINE
  5
7D8D
  8
AM_0
 10
76.816139470743096
 20
484.62861978620492
 30
0.0
 11
76.816139470743096
 21
484.5286197862049
 31
0.0
  0
LINE
  5
7D8E
  8
AM_0
 10
76.816139470743096
 20
485.01238246253439
 30
0.0
 11
76.816139470743096
 21
483.74704992579763
 31
0.0
  0
LINE
  5
7D8F
  8
AM_0
 10
76.816139470743096
 20
482.62861978620492
 30
0.0
 11
77.416139470743019
 21
482.62861978620492
 31
0.0
  0
LINE
  5
7D90
  8
AM_0
 10
74.116139470743292
 20
483.74704992579763
 30
0.0
 11
74.116139470743292
 21
487.178581118198
 31
0.0
  0
LINE
  5
7D91
  8
AM_0
 10
73.955095241485651
 20
483.46035829745477
 30
0.0
 11
73.022542191978573
 21
483.9987680516212
 31
0.0
  0
LINE
  5
7D92
  8
AM_0
 10
74.388591062773685
 20
482.95319330566201
 30
0.0
 11
76.543687878712703
 21
482.95319330566201
 31
0.0
  0
LINE
  5
7D93
  8
AM_0
 10
74.388591062773685
 20
484.54090654593341
 30
0.0
 11
76.543687878712703
 21
484.54090654593341
 31
0.0
  0
LINE
  5
7D94
  8
AM_0
 10
72.816139470741732
 20
487.62861978620492
 30
0.0
 11
71.716139470742732
 21
487.62861978620492
 31
0.0
  0
LINE
  5
7D95
  8
AM_0
 10
71.716139470742732
 20
487.62861978620492
 30
0.0
 11
71.416139470743019
 21
487.32861978620491
 31
0.0
  0
LINE
  5
7D96
  8
AM_0
 10
71.416139470743019
 20
487.32861978620491
 30
0.0
 11
71.416139470743019
 21
484.92861978620482
 31
0.0
  0
LINE
  5
7D97
  8
AM_0
 10
71.716139470742732
 20
484.62861978620492
 30
0.0
 11
72.816139470741305
 21
484.62861978620492
 31
0.0
  0
LINE
  5
7D98
  8
AM_0
 10
71.416139470743019
 20
484.92861978620482
 30
0.0
 11
71.716139470742732
 21
484.62861978620492
 31
0.0
  0
LINE
  5
7D99
  8
AM_0
 10
72.816139470741305
 20
484.92861978620482
 30
0.0
 11
71.416139470743019
 21
484.92861978620482
 31
0.0
  0
ARC
  5
7D9A
  8
AM_0
 10
75.523362654716507
 20
483.74704992579763
 30
0.0
 40
1.292776816026465
 50
322.11555894629771
 51
0.0
  0
ARC
  5
7D9B
  8
AM_0
 10
78.878569346802792
 20
486.12861978620492
 30
0.0
 40
4.762429876059711
 50
168.45024695876941
 51
199.4742400054138
  0
ARC
  5
7D9C
  8
AM_0
 10
75.408916286769681
 20
483.74704992579763
 30
0.0
 40
1.292776816026556
 50
142.11555894629771
 51
217.88444105370229
  0
ARC
  5
7D9D
  8
AM_0
 10
72.053709594683596
 20
486.12861978620492
 30
0.0
 40
4.762429876059584
 50
340.52575999458628
 51
347.08714779821958
  0
ARC
  5
7D9E
  8
AM_0
 10
75.523362654716507
 20
483.74704992579763
 30
0.0
 40
1.2927768160265021
 50
0.0
 51
37.884441053702282
  0
ARC
  5
7D9F
  8
AM_0
 10
73.228944913213581
 20
484.35626805162121
 30
0.0
 40
0.4128054424705854
 50
180.0
 51
239.99999999999949
  0
ARC
  5
7DA0
  8
AM_0
 10
73.542289799015194
 20
482.74535829745457
 30
0.0
 40
0.8256108849411369
 50
28.217424594182571
 51
59.999999999999439
  0
LINE
  5
7DA1
  8
AM_0
 10
73.031232003266268
 20
488.26348858567479
 30
0.0
 11
73.022542191978573
 21
488.25847152078859
 31
0.0
  0
ARC
  5
7DA2
  8
AM_0
 10
73.228944913213809
 20
487.90097152078869
 30
0.0
 40
0.4128054424705854
 50
119.9999999999916
 51
179.99999999999341
  0
CIRCLE
  5
7DA3
  8
AM_0
 10
75.416100802737233
 20
524.62861978620401
 30
0.0
 40
5.5
  0
LINE
  5
7DA4
  8
AM_0
 10
69.916100802737219
 20
521.45319330566076
 30
0.0
 11
75.41610080273766
 21
518.27776682511785
 31
0.0
  0
LINE
  5
7DA5
  8
AM_0
 10
75.41610080273766
 20
518.27776682511785
 30
0.0
 11
80.916100802737219
 21
521.45319330566122
 31
0.0
  0
LINE
  5
7DA6
  8
AM_0
 10
80.916100802737219
 20
521.45319330566122
 30
0.0
 11
80.916100802737219
 21
527.80404626674692
 31
0.0
  0
LINE
  5
7DA7
  8
AM_0
 10
80.916100802737219
 20
527.80404626674692
 30
0.0
 11
75.416100802737233
 21
530.97947274728995
 31
0.0
  0
LINE
  5
7DA8
  8
AM_0
 10
75.416100802737233
 20
530.97947274728995
 30
0.0
 11
69.916100802737219
 21
527.80404626674647
 31
0.0
  0
LINE
  5
7DA9
  8
AM_0
 10
69.916100802737219
 20
527.80404626674647
 30
0.0
 11
69.916100802737219
 21
521.45319330566076
 31
0.0
  0
CIRCLE
  5
7DAA
  8
AM_0
 10
75.416100802737233
 20
524.62861978620401
 30
0.0
 40
6.4999856554771771
  0
LINE
  5
7DAB
  8
AM_0
 10
86.481393033108347
 20
490.62861978620469
 30
0.0
 11
89.416139470743005
 21
490.62861978620469
 31
0.0
  0
LINE
  5
7DAC
  8
AM_0
 10
87.435561584896263
 20
489.12861978620441
 30
0.0
 11
89.416139470743005
 21
489.12861978620441
 31
0.0
  0
LINE
  5
7DAD
  8
AM_0
 10
78.737168614602083
 20
484.62861978620452
 30
0.0
 11
89.416139470743005
 21
484.62861978620452
 31
0.0
  0
ARC
  5
7DAE
  8
AM_0
 10
78.737168614601842
 20
489.62861978620452
 30
0.0
 40
5.0
 50
225.0
 51
270.0
1001
GENIUS_GENODEF_13
1002
{
1000
HIER
1070
     0
1002
}
1002
{
1000
MANEDIT
1070
     0
1002
}
1002
{
1000
NOSEL
1070
     0
1002
}
1002
{
1000
BEHIND
1070
     0
1002
}
1002
{
1000
OTHER
1070
     0
1002
}
1002
{
1000
REACTOR
1002
}
1001
GENIUS_GENOBJ-N-FIL_13
1002
{
1000
OWNER
1000
GEN
1002
}
  0
LINE
  5
7DAF
  8
AM_0
 10
87.43556158489605
 20
484.62861978620452
 30
0.0
 11
87.435561584896263
 21
489.12861978620441
 31
0.0
  0
LINE
  5
7DB0
  8
AM_0
 10
73.916100802737205
 20
518.30407920831135
 30
0.0
 11
73.916100802737432
 21
497.41664493249522
 31
0.0
  0
LINE
  5
7DB1
  8
AM_0
 10
76.916100802737233
 20
518.30407920831135
 30
0.0
 11
76.916100802737233
 21
497.41664493249522
 31
0.0
  0
LINE
  5
7DB2
  8
AM_0
 10
71.666100802737219
 20
519.31944720270201
 30
0.0
 11
71.666100802737219
 21
491.69968759806932
 31
0.0
  0
ARC
  5
7DB3
  8
AM_0
 10
76.666100802737233
 20
491.69968759806932
 30
0.0
 40
5.0
 50
180.0
 51
225.0
1001
GENIUS_GENOBJ-N-FIL_13
1002
{
1000
OWNER
1000
GEN
1002
}
1001
GENIUS_GENODEF_13
1002
{
1000
HIER
1070
     0
1002
}
1002
{
1000
MANEDIT
1070
     0
1002
}
1002
{
1000
NOSEL
1070
     0
1002
}
1002
{
1000
BEHIND
1070
     0
1002
}
1002
{
1000
OTHER
1070
     0
1002
}
1002
{
1000
REACTOR
1002
}
  0
LINE
  5
7DB4
  8
AM_0
 10
79.166100802737233
 20
519.31944720270201
 30
0.0
 11
79.166100802737233
 21
495.15953812945628
 31
0.0
  0
ARC
  5
7DB5
  8
AM_0
 10
84.166100802737233
 20
503.58413815552922
 30
0.0
 40
5.0
 50
180.0
 51
212.46094411513889
1001
GENIUS_GENODEF_13
1002
{
1000
HIER
1070
     0
1002
}
1002
{
1000
MANEDIT
1070
     0
1002
}
1002
{
1000
NOSEL
1070
     0
1002
}
1002
{
1000
BEHIND
1070
     0
1002
}
1002
{
1000
OTHER
1070
     0
1002
}
1002
{
1000
REACTOR
1002
}
1001
GENIUS_GENOBJ-N-FIL_13
1002
{
1000
OWNER
1000
GEN
1002
}
  0
ARC
  5
7DB6
  8
AM_0
 10
84.166100802737233
 20
495.15953812945628
 30
0.0
 40
5.0
 50
180.0
 51
224.2123722808945
1001
GENIUS_GENOBJ-N-FIL_13
1002
{
1000
OWNER
1000
GEN
1002
}
1001
GENIUS_GENODEF_13
1002
{
1000
HIER
1070
     0
1002
}
1002
{
1000
MANEDIT
1070
     0
1002
}
1002
{
1000
NOSEL
1070
     0
1002
}
1002
{
1000
BEHIND
1070
     0
1002
}
1002
{
1000
OTHER
1070
     0
1002
}
1002
{
1000
REACTOR
1002
}
  0
LINE
  5
7DB7
  8
AM_0
 10
87.43556158489605
 20
489.12861978620441
 30
0.0
 11
79.947313291970204
 21
500.90051524256359
 31
0.0
  0
LINE
  5
7DB8
  8
AM_0
 10
87.43556158489605
 20
484.62861978620452
 30
0.0
 11
80.582300566885792
 21
491.6729386586951
 31
0.0
  0
LINE
  5
7DB9
  8
AM_0
 10
73.130566896804567
 20
488.16415369213672
 30
0.0
 11
75.201634708669175
 21
486.09308588027199
 31
0.0
  0
ARC
  5
7DBA
  8
AM_0
 10
75.416100802737233
 20
497.41664493249522
 30
0.0
 40
1.5
 50
180.0
 51
0.0
  0
LINE
  5
7DBB
  8
AM_0
 10
89.41613947074346
 20
558.6286197862031
 30
0.0
 11
89.4161394707439
 21
569.62861978620401
 31
0.0
  0
LINE
  5
7DBC
  8
AM_0
 10
103.9161394707439
 20
569.62861978620344
 30
0.0
 11
89.4161394707439
 21
569.62861978620401
 31
0.0
  0
LINE
  5
7DBD
  8
AM_0
 10
77.416139470744142
 20
564.62861978620322
 30
0.0
 11
77.416139470744142
 21
567.62861978620322
 31
0.0
  0
LINE
  5
7DBE
  8
AM_0
 10
77.416139470744142
 20
567.62861978620322
 30
0.0
 11
89.4161394707439
 21
567.62861978620299
 31
0.0
  0
LINE
  5
7DBF
  8
AM_0
 10
77.416139470743943
 20
566.62861978620322
 30
0.0
 11
77.416139470743943
 21
564.45095138005672
 31
0.0
  0
LINE
  5
7DC0
  8
AM_0
 10
71.916139470743943
 20
564.62861978620322
 30
0.0
 11
72.816139470744034
 21
564.62861978620322
 31
0.0
  0
LINE
  5
7DC1
  8
AM_0
 10
71.716139470743656
 20
561.62861978620333
 30
0.0
 11
71.716139470743656
 21
564.62861978620333
 31
0.0
  0
LINE
  5
7DC2
  8
AM_0
 10
72.816139470744034
 20
564.90097152078692
 30
0.0
 11
72.816139470744034
 21
561.35626805161962
 31
0.0
  0
LINE
  5
7DC3
  8
AM_0
 10
71.416139470743943
 20
561.9286197862034
 30
0.0
 11
72.816139470743792
 21
561.92861978620329
 31
0.0
  0
LINE
  5
7DC4
  8
AM_0
 10
76.816139470744034
 20
565.51018964661046
 30
0.0
 11
76.816139470744034
 21
566.62861978620322
 31
0.0
  0
LINE
  5
7DC5
  8
AM_0
 10
76.816139470744034
 20
564.62861978620322
 30
0.0
 11
76.816139470744034
 21
564.72861978620324
 31
0.0
  0
LINE
  5
7DC6
  8
AM_0
 10
76.816139470744034
 20
564.72861978620324
 30
0.0
 11
76.816139470744034
 21
565.51018964661046
 31
0.0
  0
LINE
  5
7DC7
  8
AM_0
 10
76.816139470744034
 20
564.62861978620322
 30
0.0
 11
76.816139470744034
 21
564.72861978620324
 31
0.0
  0
LINE
  5
7DC8
  8
AM_0
 10
76.816139470744034
 20
564.24485710987369
 30
0.0
 11
76.816139470744034
 21
565.51018964661046
 31
0.0
  0
LINE
  5
7DC9
  8
AM_0
 10
76.816139470744034
 20
566.62861978620322
 30
0.0
 11
77.416139470743943
 21
566.62861978620322
 31
0.0
  0
LINE
  5
7DCA
  8
AM_0
 10
74.116139470744173
 20
565.51018964661046
 30
0.0
 11
74.116139470743974
 21
562.07865845420986
 31
0.0
  0
LINE
  5
7DCB
  8
AM_0
 10
73.955095241486561
 20
565.79688127495353
 30
0.0
 11
73.022542191979483
 21
565.25847152078677
 31
0.0
  0
LINE
  5
7DCC
  8
AM_0
 10
74.388591062774594
 20
566.30404626674624
 30
0.0
 11
76.543687878713627
 21
566.30404626674624
 31
0.0
  0
LINE
  5
7DCD
  8
AM_0
 10
74.388591062774594
 20
564.71633302647444
 30
0.0
 11
76.543687878713627
 21
564.71633302647444
 31
0.0
  0
LINE
  5
7DCE
  8
AM_0
 10
72.816139470744034
 20
561.62861978620333
 30
0.0
 11
71.716139470743656
 21
561.62861978620333
 31
0.0
  0
LINE
  5
7DCF
  8
AM_0
 10
71.716139470743656
 20
561.62861978620333
 30
0.0
 11
71.416139470743943
 21
561.9286197862034
 31
0.0
  0
LINE
  5
7DD0
  8
AM_0
 10
71.416139470743943
 20
561.9286197862034
 30
0.0
 11
71.416139470743943
 21
564.32861978620349
 31
0.0
  0
LINE
  5
7DD1
  8
AM_0
 10
71.716139470743656
 20
564.62861978620333
 30
0.0
 11
72.816139470744034
 21
564.62861978620322
 31
0.0
  0
LINE
  5
7DD2
  8
AM_0
 10
71.416139470743943
 20
564.32861978620349
 30
0.0
 11
71.716139470743656
 21
564.62861978620333
 31
0.0
  0
LINE
  5
7DD3
  8
AM_0
 10
72.816139470744034
 20
564.32861978620338
 30
0.0
 11
71.416139470743943
 21
564.32861978620349
 31
0.0
  0
ARC
  5
7DD4
  8
AM_0
 10
75.523362654717403
 20
565.51018964661046
 30
0.0
 40
1.292776816026465
 50
0.0
 51
37.884441053702282
  0
ARC
  5
7DD5
  8
AM_0
 10
78.878569346803488
 20
563.12861978620299
 30
0.0
 40
4.762429876059711
 50
160.52575999458611
 51
191.5497530412305
  0
ARC
  5
7DD6
  8
AM_0
 10
75.408916286770591
 20
565.51018964661046
 30
0.0
 40
1.292776816026556
 50
142.11555894629771
 51
217.88444105370229
  0
ARC
  5
7DD7
  8
AM_0
 10
72.053709594684278
 20
563.1286197862031
 30
0.0
 40
4.762429876059584
 50
12.912852201780369
 51
19.474240005413812
  0
ARC
  5
7DD8
  8
AM_0
 10
75.523362654717403
 20
565.51018964661046
 30
0.0
 40
1.2927768160265021
 50
322.11555894629771
 51
0.0
  0
ARC
  5
7DD9
  8
AM_0
 10
73.228944913214505
 20
564.90097152078692
 30
0.0
 40
0.4128054424705854
 50
120.0000000000005
 51
180.0
  0
ARC
  5
7DDA
  8
AM_0
 10
73.542289799015862
 20
566.51188127495345
 30
0.0
 40
0.8256108849411369
 50
300.00000000000051
 51
331.7825754058174
  0
LINE
  5
7DDB
  8
AM_0
 10
73.031232003267178
 20
560.9937509867334
 30
0.0
 11
73.022542191979483
 21
560.99876805161955
 31
0.0
  0
ARC
  5
7DDC
  8
AM_0
 10
73.228944913214505
 20
561.35626805161951
 30
0.0
 40
0.4128054424705854
 50
180.00000000000659
 51
240.00000000000841
  0
LINE
  5
7DDD
  8
AM_0
 10
86.481393033109271
 20
558.6286197862031
 30
0.0
 11
89.41613947074346
 21
558.6286197862031
 31
0.0
  0
LINE
  5
7DDE
  8
AM_0
 10
87.435561584896945
 20
560.12861978620299
 30
0.0
 11
89.416139470743715
 21
560.12861978620276
 31
0.0
  0
LINE
  5
7DDF
  8
AM_0
 10
78.737168614602979
 20
564.62861978620322
 30
0.0
 11
89.416139470743715
 21
564.6286197862031
 31
0.0
  0
ARC
  5
7DE0
  8
AM_0
 10
78.737168614602524
 20
559.62861978620322
 30
0.0
 40
5.0
 50
90.0
 51
135.0
1001
GENIUS_GENODEF_13
1002
{
1000
HIER
1070
     0
1002
}
1002
{
1000
MANEDIT
1070
     0
1002
}
1002
{
1000
NOSEL
1070
     0
1002
}
1002
{
1000
BEHIND
1070
     0
1002
}
1002
{
1000
OTHER
1070
     0
1002
}
1002
{
1000
REACTOR
1002
}
1001
GENIUS_GENOBJ-N-FIL_13
1002
{
1000
OWNER
1000
GEN
1002
}
  0
LINE
  5
7DE1
  8
AM_0
 10
87.435561584896945
 20
564.62861978620322
 30
0.0
 11
87.435561584896945
 21
560.12861978620299
 31
0.0
  0
LINE
  5
7DE2
  8
AM_0
 10
73.91610080273766
 20
530.95316036409679
 30
0.0
 11
73.916100802738129
 21
551.84059463991275
 31
0.0
  0
LINE
  5
7DE3
  8
AM_0
 10
76.916100802737432
 20
530.95316036409679
 30
0.0
 11
76.916100802738129
 21
551.84059463991275
 31
0.0
  0
LINE
  5
7DE4
  8
AM_0
 10
71.666100802737688
 20
529.93779236970624
 30
0.0
 11
71.666100802738114
 21
557.55755197433882
 31
0.0
  0
ARC
  5
7DE5
  8
AM_0
 10
76.666100802737901
 20
557.55755197433871
 30
0.0
 40
5.0
 50
135.0
 51
180.0
1001
GENIUS_GENOBJ-N-FIL_13
1002
{
1000
OWNER
1000
GEN
1002
}
1001
GENIUS_GENODEF_13
1002
{
1000
HIER
1070
     0
1002
}
1002
{
1000
MANEDIT
1070
     0
1002
}
1002
{
1000
NOSEL
1070
     0
1002
}
1002
{
1000
BEHIND
1070
     0
1002
}
1002
{
1000
OTHER
1070
     0
1002
}
1002
{
1000
REACTOR
1002
}
  0
LINE
  5
7DE6
  8
AM_0
 10
79.16610080273766
 20
529.9377923697059
 30
0.0
 11
79.166100802738114
 21
554.09770144295157
 31
0.0
  0
ARC
  5
7DE7
  8
AM_0
 10
84.16610080273766
 20
545.67310141687869
 30
0.0
 40
5.0
 50
147.53905588486111
 51
180.0
1001
GENIUS_GENODEF_13
1002
{
1000
HIER
1070
     0
1002
}
1002
{
1000
MANEDIT
1070
     0
1002
}
1002
{
1000
NOSEL
1070
     0
1002
}
1002
{
1000
BEHIND
1070
     0
1002
}
1002
{
1000
OTHER
1070
     0
1002
}
1002
{
1000
REACTOR
1002
}
1001
GENIUS_GENOBJ-N-FIL_13
1002
{
1000
OWNER
1000
GEN
1002
}
  0
ARC
  5
7DE8
  8
AM_0
 10
84.166100802737887
 20
554.09770144295157
 30
0.0
 40
5.0
 50
135.7876277191055
 51
180.0
1001
GENIUS_GENOBJ-N-FIL_13
1002
{
1000
OWNER
1000
GEN
1002
}
1001
GENIUS_GENODEF_13
1002
{
1000
HIER
1070
     0
1002
}
1002
{
1000
MANEDIT
1070
     0
1002
}
1002
{
1000
NOSEL
1070
     0
1002
}
1002
{
1000
BEHIND
1070
     0
1002
}
1002
{
1000
OTHER
1070
     0
1002
}
1002
{
1000
REACTOR
1002
}
  0
LINE
  5
7DE9
  8
AM_0
 10
87.435561584896703
 20
560.12861978620299
 30
0.0
 11
79.947313291970644
 21
548.3567243298445
 31
0.0
  0
LINE
  5
7DEA
  8
AM_0
 10
87.435561584896945
 20
564.62861978620322
 30
0.0
 11
80.582300566886687
 21
557.5843009137127
 31
0.0
  0
LINE
  5
7DEB
  8
AM_0
 10
73.130566896805263
 20
561.09308588027136
 30
0.0
 11
75.201634708670113
 21
563.16415369213621
 31
0.0
  0
ARC
  5
7DEC
  8
AM_0
 10
75.416100802737901
 20
551.84059463991275
 30
0.0
 40
1.5
 50
0.0
 51
180.0
  0
LINE
  5
7DED
  8
AM_0
 10
97.545632543723684
 20
454.41609790538541
 30
0.0
 11
82.415545379645806
 21
481.62861978620481
 31
0.0
  0
LINE
  5
7DEE
  8
AM_0
 10
102.789592611148
 20
457.3317252497589
 30
0.0
 11
90.392580702360419
 21
479.62861978620379
 31
0.0
  0
LINE
  5
7DEF
  8
AM_0
 10
273.91613947074308
 20
561.7786397862036
 30
0.0
 11
281.91613947074308
 21
561.7786397862036
 31
0.0
  0
LINE
  5
7DF0
  8
AM_0
 10
274.91613947074308
 20
472.58857978620341
 30
0.0
 11
281.91613947074308
 21
472.58857978620358
 31
0.0
  0
LINE
  5
7DF1
  8
AM_0
 10
273.91613947074308
 20
487.47858978620337
 30
0.0
 11
281.91613947074308
 21
487.47858978620337
 31
0.0
  0
LINE
  5
7DF2
  8
AM_0
 10
274.91613947074308
 20
461.1286197862035
 30
0.0
 11
281.91613947074308
 21
461.1286197862035
 31
0.0
  0
LINE
  5
7DF3
  8
AM_0
 10
274.91613947074308
 20
576.66864978620356
 30
0.0
 11
281.91613947074308
 21
576.66864978620356
 31
0.0
  0
LINE
  5
7DF4
  8
AM_0
 10
274.91613947074308
 20
588.12861978620333
 30
0.0
 11
281.91613947074308
 21
588.12861978620333
 31
0.0
  0
LINE
  5
7DF5
  8
AM_0
 10
126.9161394707433
 20
467.19855978620348
 30
0.0
 11
129.73608947074291
 21
467.13855978620359
 31
0.0
  0
LINE
  5
7DF6
  8
AM_0
 10
167.9161394707433
 20
478.27863978620331
 30
0.0
 11
273.91613947074308
 21
478.27863978620331
 31
0.0
  0
LINE
  5
7DF7
  8
AM_0
 10
268.6260994707431
 20
464.12861978620322
 30
0.0
 11
273.91613947074308
 21
464.12861978620322
 31
0.0
  0
LINE
  5
7DF8
  8
AM_0
 10
140.5861294707432
 20
491.26862978620341
 30
0.0
 11
234.93609947074319
 21
491.26862978620341
 31
0.0
  0
LINE
  5
7DF9
  8
AM_0
 10
222.91613947074319
 20
488.62861978620327
 30
0.0
 11
141.4518494707433
 21
488.62861978620327
 31
0.0
  0
LINE
  5
7DFA
  8
AM_0
 10
222.91613947074319
 20
487.9086497862034
 30
0.0
 11
270.73614947074321
 21
487.9086497862034
 31
0.0
  0
LINE
  5
7DFB
  8
AM_0
 10
140.5861294707432
 20
487.9086497862034
 30
0.0
 11
222.91613947074319
 21
487.9086497862034
 31
0.0
  0
LINE
  5
7DFC
  8
AM_0
 10
140.61376947074311
 20
466.36860978620359
 30
0.0
 11
146.4161394707431
 21
466.36860978620359
 31
0.0
  0
LINE
  5
7DFD
  8
AM_0
 10
149.9161394707431
 20
462.76862978620358
 30
0.0
 11
266.72613947074308
 21
462.76862978620358
 31
0.0
  0
LINE
  5
7DFE
  8
AM_0
 10
140.67602947074329
 20
471.64863978620332
 30
0.0
 11
146.4161394707431
 21
471.64863978620332
 31
0.0
  0
LINE
  5
7DFF
  8
AM_0
 10
136.9161394707431
 20
476.27863978620348
 30
0.0
 11
136.9161394707431
 21
490.32856978620362
 31
0.0
  0
LINE
  5
7E00
  8
AM_0
 10
126.9161394707433
 20
476.27863978620348
 30
0.0
 11
136.9161394707431
 21
476.27863978620348
 31
0.0
  0
LINE
  5
7E01
  8
AM_0
 10
268.65612947074311
 20
464.2585297862035
 30
0.0
 11
272.1161494707431
 21
477.1686497862035
 31
0.0
  0
LINE
  5
7E02
  8
AM_0
 10
130.67742947074331
 20
464.4696197862034
 30
0.0
 11
130.1961694707432
 21
466.37861978620322
 31
0.0
  0
LINE
  5
7E03
  8
AM_0
 10
131.1061494707433
 20
464.4985497862034
 30
0.0
 11
130.1860994707431
 21
468.37864978620331
 31
0.0
  0
LINE
  5
7E04
  8
AM_0
 10
147.91613947074319
 20
462.73957978620348
 30
0.0
 11
147.91613947074319
 21
470.14863978620338
 31
0.0
  0
LINE
  5
7E05
  8
AM_0
 10
128.74615947074309
 20
467.50861978620333
 30
0.0
 11
130.39611947074329
 21
467.50861978620333
 31
0.0
  0
LINE
  5
7E06
  8
AM_0
 10
167.9161394707433
 20
570.97858978620354
 30
0.0
 11
273.91613947074308
 21
570.97858978620354
 31
0.0
  0
LINE
  5
7E07
  8
AM_0
 10
273.91613947074308
 20
462.12861978620322
 30
0.0
 11
273.91613947074308
 21
587.12861978620322
 31
0.0
  0
LINE
  5
7E08
  8
AM_0
 10
126.9161394707433
 20
582.05860978620365
 30
0.0
 11
129.73614947074341
 21
582.12861978620333
 31
0.0
  0
LINE
  5
7E09
  8
AM_0
 10
126.9161394707433
 20
467.19855978620348
 30
0.0
 11
126.9161394707433
 21
582.05860978620376
 31
0.0
  0
LINE
  5
7E0A
  8
AM_0
 10
267.25610947074313
 20
488.62861978620327
 30
0.0
 11
222.91613947074319
 21
488.62861978620327
 31
0.0
  0
LINE
  5
7E0B
  8
AM_0
 10
136.9161394707431
 20
572.97858978620343
 30
0.0
 11
136.9161394707431
 21
558.93866978620349
 31
0.0
  0
LINE
  5
7E0C
  8
AM_0
 10
126.9161394707433
 20
558.93866978620349
 30
0.0
 11
136.9161394707431
 21
558.93866978620349
 31
0.0
  0
LINE
  5
7E0D
  8
AM_0
 10
126.9161394707433
 20
567.31855978620354
 30
0.0
 11
136.9161394707431
 21
567.31855978620354
 31
0.0
  0
LINE
  5
7E0E
  8
AM_0
 10
126.9161394707433
 20
572.97858978620343
 30
0.0
 11
136.9161394707431
 21
572.97858978620343
 31
0.0
  0
LINE
  5
7E0F
  8
AM_0
 10
202.35821947074319
 20
510.6286197862035
 30
0.0
 11
132.46612947074311
 21
510.6286197862035
 31
0.0
  0
LINE
  5
7E10
  8
AM_0
 10
149.9161394707431
 20
586.48859978620339
 30
0.0
 11
266.72613947074308
 21
586.48859978620339
 31
0.0
  0
LINE
  5
7E11
  8
AM_0
 10
140.87042947074309
 20
577.61860978620348
 30
0.0
 11
146.4161394707431
 21
577.61860978620348
 31
0.0
  0
LINE
  5
7E12
  8
AM_0
 10
138.12542947074309
 20
571.62192978620351
 30
0.0
 11
138.91040947074319
 21
575.9686097862035
 31
0.0
  0
LINE
  5
7E13
  8
AM_0
 10
140.80657947074309
 20
582.89863978620349
 30
0.0
 11
146.4161394707431
 21
582.89863978620349
 31
0.0
  0
LINE
  5
7E14
  8
AM_0
 10
133.0461494707431
 20
586.29865978620353
 30
0.0
 11
146.4161394707431
 21
586.29865978620353
 31
0.0
  0
LINE
  5
7E15
  8
AM_0
 10
133.02612947074331
 20
587.92865978620364
 30
0.0
 11
146.52612947074331
 21
587.92865978620364
 31
0.0
  0
LINE
  5
7E16
  8
AM_0
 10
149.9161394707431
 20
590.54865978620307
 30
0.0
 11
267.99975947074307
 21
590.54865978620307
 31
0.0
  0
LINE
  5
7E17
  8
AM_0
 10
149.9161394707431
 20
589.87861978620333
 30
0.0
 11
268.1437994707432
 21
589.87861978620333
 31
0.0
  0
LINE
  5
7E18
  8
AM_0
 10
149.9161394707431
 20
588.51862978620363
 30
0.0
 11
268.43609947074322
 21
588.51862978620363
 31
0.0
  0
LINE
  5
7E19
  8
AM_0
 10
136.43041947074309
 20
575.66864978620345
 30
0.0
 11
138.8504094707431
 21
575.66864978620345
 31
0.0
  0
LINE
  5
7E1A
  8
AM_0
 10
138.86035947074311
 20
581.31864978620354
 30
0.0
 11
137.90032947074329
 21
576.84855978620351
 31
0.0
  0
LINE
  5
7E1B
  8
AM_0
 10
128.72613947074291
 20
579.72858978620354
 30
0.0
 11
138.5189294707431
 21
579.72858978620354
 31
0.0
  0
LINE
  5
7E1C
  8
AM_0
 10
267.25610947074313
 20
560.62861978620333
 30
0.0
 11
141.46612947074331
 21
560.62861978620333
 31
0.0
  0
LINE
  5
7E1D
  8
AM_0
 10
267.25610947074313
 20
558.62861978620333
 30
0.0
 11
252.9161394707431
 21
558.62861978620333
 31
0.0
  0
LINE
  5
7E1E
  8
AM_0
 10
267.26324947074329
 20
550.62861978620333
 30
0.0
 11
252.9161394707431
 21
550.62861978620333
 31
0.0
  0
LINE
  5
7E1F
  8
AM_0
 10
131.1061494707433
 20
584.75864978620348
 30
0.0
 11
130.1860994707431
 21
580.88859978620337
 31
0.0
  0
LINE
  5
7E20
  8
AM_0
 10
267.24896947074319
 20
548.62861978620333
 30
0.0
 11
141.46612947074331
 21
548.62861978620333
 31
0.0
  0
LINE
  5
7E21
  8
AM_0
 10
128.74615947074309
 20
581.74860978620359
 30
0.0
 11
130.39611947074329
 21
581.74860978620359
 31
0.0
  0
LINE
  5
7E22
  8
AM_0
 10
131.08612947074309
 20
586.41855978620345
 30
0.0
 11
130.1961694707432
 21
582.88865978620356
 31
0.0
  0
LINE
  5
7E23
  8
AM_0
 10
202.35485947074329
 20
540.62861978620333
 30
0.0
 11
132.46612947074311
 21
540.62861978620333
 31
0.0
  0
LINE
  5
7E24
  8
AM_0
 10
147.91613947074319
 20
586.51862978620363
 30
0.0
 11
147.91613947074319
 21
579.11860978620359
 31
0.0
  0
LINE
  5
7E25
  8
AM_0
 10
202.35485947074329
 20
538.62861978620333
 30
0.0
 11
132.46612947074311
 21
538.62861978620333
 31
0.0
  0
LINE
  5
7E26
  8
AM_0
 10
202.35821947074319
 20
530.62861978620333
 30
0.0
 11
132.46612947074311
 21
530.62861978620333
 31
0.0
  0
LINE
  5
7E27
  8
AM_0
 10
202.35821947074319
 20
528.62861978620333
 30
0.0
 11
132.46612947074311
 21
528.62861978620333
 31
0.0
  0
LINE
  5
7E28
  8
AM_0
 10
268.65612947074311
 20
585.00864978620359
 30
0.0
 11
272.1161494707431
 21
572.08857978620347
 31
0.0
  0
LINE
  5
7E29
  8
AM_0
 10
270.37652947074321
 20
585.12861978620356
 30
0.0
 11
273.91613947074308
 21
585.12861978620356
 31
0.0
  0
LINE
  5
7E2A
  8
AM_0
 10
273.62609947074333
 20
575.66864978620345
 30
0.0
 11
271.2061194707432
 21
575.66864978620345
 31
0.0
  0
LINE
  5
7E2B
  8
AM_0
 10
269.46633947074309
 20
589.36377978620351
 30
0.0
 11
272.15615947074321
 21
576.84855978620351
 31
0.0
  0
LINE
  5
7E2C
  8
AM_0
 10
126.9161394707433
 20
490.32856978620362
 30
0.0
 11
136.9161394707431
 21
490.32856978620362
 31
0.0
  0
LINE
  5
7E2D
  8
AM_0
 10
132.61676947074321
 20
462.9585697862035
 30
0.0
 11
146.6588794707435
 21
462.9585697862035
 31
0.0
  0
LINE
  5
7E2E
  8
AM_0
 10
126.9161394707433
 20
481.93866978620338
 30
0.0
 11
136.9161394707431
 21
481.93866978620338
 31
0.0
  0
LINE
  5
7E2F
  8
AM_0
 10
128.72613947074291
 20
469.52863978620348
 30
0.0
 11
138.5189294707431
 21
469.52863978620348
 31
0.0
  0
LINE
  5
7E30
  8
AM_0
 10
149.9161394707431
 20
460.73859978620351
 30
0.0
 11
191.2424994707431
 21
460.73859978620351
 31
0.0
  0
LINE
  5
7E31
  8
AM_0
 10
140.37615947074309
 20
498.14863978620338
 30
0.0
 11
234.9161394707431
 21
498.14863978620338
 31
0.0
  0
LINE
  5
7E32
  8
AM_0
 10
234.9161394707431
 20
490.62861978620339
 30
0.0
 11
141.4518494707433
 21
490.62861978620339
 31
0.0
  0
LINE
  5
7E33
  8
AM_0
 10
140.5861294707432
 20
561.35859978620351
 30
0.0
 11
270.73614947074321
 21
561.35859978620351
 31
0.0
  0
LINE
  5
7E34
  8
AM_0
 10
140.5861294707432
 20
557.99860978620336
 30
0.0
 11
234.93609947074319
 21
557.99860978620336
 31
0.0
  0
LINE
  5
7E35
  8
AM_0
 10
140.37615947074309
 20
551.11860978620348
 30
0.0
 11
234.9161394707431
 21
551.11860978620348
 31
0.0
  0
LINE
  5
7E36
  8
AM_0
 10
140.37615947074309
 20
548.19855978620342
 30
0.0
 11
270.9503794707432
 21
548.19855978620342
 31
0.0
  0
LINE
  5
7E37
  8
AM_0
 10
131.24615947074321
 20
540.97858978620354
 30
0.0
 11
203.58740947074321
 21
540.97858978620354
 31
0.0
  0
LINE
  5
7E38
  8
AM_0
 10
131.24615947074321
 20
538.3086697862035
 30
0.0
 11
203.57482947074311
 21
538.3086697862035
 31
0.0
  0
LINE
  5
7E39
  8
AM_0
 10
131.18615947074281
 20
530.90864978620345
 30
0.0
 11
203.6512494707431
 21
530.90864978620345
 31
0.0
  0
LINE
  5
7E3A
  8
AM_0
 10
131.18615947074281
 20
528.36860978620359
 30
0.0
 11
203.6512494707431
 21
528.36860978620359
 31
0.0
  0
LINE
  5
7E3B
  8
AM_0
 10
131.18615947074281
 20
520.89863978620349
 30
0.0
 11
203.6512494707431
 21
520.89863978620349
 31
0.0
  0
LINE
  5
7E3C
  8
AM_0
 10
202.35821947074319
 20
518.62861978620356
 30
0.0
 11
132.46612947074311
 21
518.62861978620356
 31
0.0
  0
LINE
  5
7E3D
  8
AM_0
 10
202.35821947074319
 20
520.62861978620333
 30
0.0
 11
132.46612947074311
 21
520.62861978620333
 31
0.0
  0
LINE
  5
7E3E
  8
AM_0
 10
131.24615947074321
 20
510.94855978620348
 30
0.0
 11
203.58740947074321
 21
510.94855978620348
 31
0.0
  0
LINE
  5
7E3F
  8
AM_0
 10
202.35821947074319
 20
508.6286197862035
 30
0.0
 11
132.46612947074311
 21
508.6286197862035
 31
0.0
  0
LINE
  5
7E40
  8
AM_0
 10
131.24615947074321
 20
508.28864978620351
 30
0.0
 11
203.58740947074321
 21
508.28864978620351
 31
0.0
  0
LINE
  5
7E41
  8
AM_0
 10
267.24896947074319
 20
500.6286197862035
 30
0.0
 11
141.4518494707433
 21
500.6286197862035
 31
0.0
  0
LINE
  5
7E42
  8
AM_0
 10
140.37615947074309
 20
501.06855978620348
 30
0.0
 11
270.9503794707432
 21
501.06855978620348
 31
0.0
  0
LINE
  5
7E43
  8
AM_0
 10
267.24896947074319
 20
498.6286197862035
 30
0.0
 11
252.9161394707431
 21
498.6286197862035
 31
0.0
  0
LINE
  5
7E44
  8
AM_0
 10
267.25610947074313
 20
490.62861978620339
 30
0.0
 11
252.9161394707431
 21
490.62861978620339
 31
0.0
  0
LINE
  5
7E45
  8
AM_0
 10
131.18615947074281
 20
518.35859978620363
 30
0.0
 11
203.6512494707431
 21
518.35859978620363
 31
0.0
  0
LINE
  5
7E46
  8
AM_0
 10
138.12536947074321
 20
477.6352397862035
 30
0.0
 11
138.91040947074319
 21
473.28855978620351
 31
0.0
  0
LINE
  5
7E47
  8
AM_0
 10
136.43041947074309
 20
473.58857978620352
 30
0.0
 11
138.8504094707431
 21
473.58857978620352
 31
0.0
  0
LINE
  5
7E48
  8
AM_0
 10
138.86041947074321
 20
467.93860978620341
 30
0.0
 11
137.90039947074291
 21
472.40857978620357
 31
0.0
  0
LINE
  5
7E49
  8
AM_0
 10
254.4297494707433
 20
454.6286197862035
 30
0.0
 11
265.93231947074321
 21
454.6286197862035
 31
0.0
  0
LINE
  5
7E4A
  8
AM_0
 10
272.91616947074328
 20
464.12858978620341
 30
0.0
 11
267.19036947074341
 21
455.31162978620353
 31
0.0
  0
LINE
  5
7E4B
  8
AM_0
 10
236.4161394707431
 20
497.12861978620339
 30
0.0
 11
236.4161394707431
 21
492.1286197862035
 31
0.0
  0
LINE
  5
7E4C
  8
AM_0
 10
251.4161394707431
 20
497.12861978620339
 30
0.0
 11
251.4161394707431
 21
492.1286197862035
 31
0.0
  0
LINE
  5
7E4D
  8
AM_0
 10
234.9161394707431
 20
498.6286197862035
 30
0.0
 11
141.4518494707433
 21
498.6286197862035
 31
0.0
  0
LINE
  5
7E4E
  8
AM_0
 10
235.9360994707433
 20
497.12861978620339
 30
0.0
 11
235.9360994707433
 21
492.26862978620358
 31
0.0
  0
LINE
  5
7E4F
  8
AM_0
 10
251.8961194707432
 20
497.12861978620339
 30
0.0
 11
251.8961194707432
 21
492.26862978620358
 31
0.0
  0
LINE
  5
7E50
  8
AM_0
 10
252.9161394707431
 20
498.14863978620338
 30
0.0
 11
270.9503794707432
 21
498.14863978620338
 31
0.0
  0
LINE
  5
7E51
  8
AM_0
 10
252.89611947074309
 20
491.26862978620341
 30
0.0
 11
270.73614947074321
 21
491.26862978620341
 31
0.0
  0
LINE
  5
7E52
  8
AM_0
 10
251.8961194707432
 20
552.12861978620356
 30
0.0
 11
251.8961194707432
 21
556.98859978620339
 31
0.0
  0
LINE
  5
7E53
  8
AM_0
 10
235.9360994707433
 20
552.12861978620356
 30
0.0
 11
235.9360994707433
 21
556.98859978620339
 31
0.0
  0
LINE
  5
7E54
  8
AM_0
 10
251.4161394707431
 20
552.12861978620356
 30
0.0
 11
251.4161394707431
 21
557.12861978620333
 31
0.0
  0
LINE
  5
7E55
  8
AM_0
 10
236.4161394707431
 20
552.12861978620356
 30
0.0
 11
236.4161394707431
 21
557.12861978620333
 31
0.0
  0
LINE
  5
7E56
  8
AM_0
 10
234.9161394707431
 20
558.62861978620333
 30
0.0
 11
141.46612947074331
 21
558.62861978620333
 31
0.0
  0
LINE
  5
7E57
  8
AM_0
 10
252.89611947074309
 20
557.99860978620336
 30
0.0
 11
270.73614947074321
 21
557.99860978620336
 31
0.0
  0
LINE
  5
7E58
  8
AM_0
 10
252.9161394707431
 20
551.11860978620348
 30
0.0
 11
270.96185947074321
 21
551.11860978620348
 31
0.0
  0
LINE
  5
7E59
  8
AM_0
 10
234.9161394707431
 20
550.62861978620333
 30
0.0
 11
141.46612947074331
 21
550.62861978620333
 31
0.0
  0
LINE
  5
7E5A
  8
AM_0
 10
207.9161394707431
 20
545.12861978620333
 30
0.0
 11
207.9161394707431
 21
504.1286197862035
 31
0.0
  0
LINE
  5
7E5B
  8
AM_0
 10
270.91613947074308
 20
545.12861978620333
 30
0.0
 11
270.91613947074308
 21
504.1286197862035
 31
0.0
  0
LINE
  5
7E5C
  8
AM_0
 10
207.9161394707431
 20
545.12861978620333
 30
0.0
 11
270.91613947074308
 21
545.12861978620333
 31
0.0
  0
LINE
  5
7E5D
  8
AM_0
 10
207.9161394707431
 20
504.1286197862035
 30
0.0
 11
270.91613947074308
 21
504.1286197862035
 31
0.0
  0
LINE
  5
7E5E
  8
AM_0
 10
207.9161394707431
 20
537.62861978620333
 30
0.0
 11
270.91613947074308
 21
537.62861978620333
 31
0.0
  0
LINE
  5
7E5F
  8
AM_0
 10
167.9161394707433
 20
570.97852978620347
 30
0.0
 11
136.9161394707431
 21
568.94852978620338
 31
0.0
  0
LINE
  5
7E60
  8
AM_0
 10
167.9161394707433
 20
478.27857978620352
 30
0.0
 11
136.9161394707431
 21
480.3085797862035
 31
0.0
  0
ARC
  5
7E61
  8
AM_0
 10
140.05694947074309
 20
483.41828978620327
 30
0.0
 40
1.0032491999999991
 50
314.98118999999519
 51
5.167643400001003
  0
ARC
  5
7E62
  8
AM_0
 10
274.91595947074308
 20
587.12885978620352
 30
0.0
 40
0.99980682
 50
89.988930999997422
 51
180.0110699999974
  0
ARC
  5
7E63
  8
AM_0
 10
266.71740947074312
 20
464.77485978620359
 30
0.0
 40
2.0062942999999991
 50
270.24932999999891
 51
345.08844000000403
  0
ARC
  5
7E64
  8
AM_0
 10
274.91522947074321
 20
575.66950978620355
 30
0.0
 40
0.9990923399999999
 50
89.947921999999295
 51
180.05208000000431
  0
ARC
  5
7E65
  8
AM_0
 10
148.90893947074309
 20
529.62861978620333
 30
0.0
 40
1.0000259
 50
89.587534000000232
 51
270.4124599999987
  0
ARC
  5
7E66
  8
AM_0
 10
140.87561947074309
 20
575.62336978620351
 30
0.0
 40
1.9952742999999991
 50
90.148580000000095
 51
170.03521999999899
  0
ARC
  5
7E67
  8
AM_0
 10
140.81347947074309
 20
580.90155978620351
 30
0.0
 40
1.997119399999999
 50
89.801366999998493
 51
167.94475999999821
  0
ARC
  5
7E68
  8
AM_0
 10
136.43298947074311
 20
577.1709697862035
 30
0.0
 40
1.502416299999999
 50
269.90137999999558
 51
347.60813000000093
  0
ARC
  5
7E69
  8
AM_0
 10
133.04638947074321
 20
584.30634978620344
 30
0.0
 40
1.9922863
 50
90.007721000000544
 51
166.8783899999971
  0
ARC
  5
7E6A
  8
AM_0
 10
128.7213794707435
 20
581.23346978620327
 30
0.0
 40
1.5048382
 50
270.18264000000067
 51
346.75308000000138
  0
ARC
  5
7E6B
  8
AM_0
 10
128.73571947074331
 20
583.25397978620333
 30
0.0
 40
1.505448699999999
 50
270.39686999999992
 51
345.95247000000012
  0
ARC
  5
7E6C
  8
AM_0
 10
133.02099947074331
 20
585.93403978620324
 30
0.0
 40
1.994612099999999
 50
89.851991999995732
 51
165.93885999999711
  0
ARC
  5
7E6D
  8
AM_0
 10
149.90942947074311
 20
584.49530978620351
 30
0.0
 40
1.9933081999999991
 50
89.807323000004203
 51
180.19266999999849
  0
ARC
  5
7E6E
  8
AM_0
 10
149.91027947074309
 20
586.5244897862035
 30
0.0
 40
1.994130499999996
 50
89.831105999995955
 51
180.16889000000049
  0
ARC
  5
7E6F
  8
AM_0
 10
149.91265947074331
 20
587.88215978620326
 30
0.0
 40
1.996488899999999
 50
89.899148000001659
 51
180.10084999999879
  0
ARC
  5
7E70
  8
AM_0
 10
149.9099194707432
 20
588.55207978620354
 30
0.0
 40
1.9964978999999961
 50
89.821482000000245
 51
165.6006099999997
  0
ARC
  5
7E71
  8
AM_0
 10
146.41241947074329
 20
579.12238978620337
 30
0.0
 40
1.5037541000000001
 50
270.14287000000093
 51
359.85713999999848
  0
ARC
  5
7E72
  8
AM_0
 10
146.4112594707432
 20
584.40351978620345
 30
0.0
 40
1.504891299999997
 50
270.18592999999731
 51
359.81406999999621
  0
ARC
  5
7E73
  8
AM_0
 10
146.40924947074311
 20
587.80549978620354
 30
0.0
 40
1.506942899999999
 50
270.26336999999921
 51
359.73663000000079
  0
ARC
  5
7E74
  8
AM_0
 10
146.5210594707433
 20
589.43378978620342
 30
0.0
 40
1.505230099999999
 50
270.19421
 51
345.17177999999871
  0
ARC
  5
7E75
  8
AM_0
 10
273.56628947074307
 20
572.4809097862036
 30
0.0
 40
1.5022733999999991
 50
195.1365099999966
 51
269.99411999999722
  0
ARC
  5
7E76
  8
AM_0
 10
266.72558947074322
 20
584.48945978620361
 30
0.0
 40
1.9991226
 50
15.05079100000003
 51
89.984388999999666
  0
ARC
  5
7E77
  8
AM_0
 10
274.90911947074312
 20
462.12165978620362
 30
0.0
 40
0.99304521
 50
179.5973099999994
 51
270.40268000000009
  0
ARC
  5
7E78
  8
AM_0
 10
274.90844947074322
 20
473.58100978620342
 30
0.0
 40
0.99237448
 50
179.55801999999801
 51
270.4419699999965
  0
ARC
  5
7E79
  8
AM_0
 10
273.62182947074319
 20
577.16889978620338
 30
0.0
 40
1.500286
 50
192.32631000000171
 51
270.16416999999529
  0
ARC
  5
7E7A
  8
AM_0
 10
136.07171947074309
 20
566.22284978620337
 30
0.0
 40
5.0059714
 50
279.71098000000438
 51
354.67888000000482
  0
ARC
  5
7E7B
  8
AM_0
 10
136.53710947074291
 20
562.29609978620363
 30
0.0
 40
6.0044340999999992
 50
45.225578000003388
 51
86.380822000002453
  0
ARC
  5
7E7C
  8
AM_0
 10
140.05810947074309
 20
565.84931978620352
 30
0.0
 40
1.002184699999999
 50
354.8038600000034
 51
45.047307000000579
  0
ARC
  5
7E7D
  8
AM_0
 10
136.5358294707431
 20
486.97394978620338
 30
0.0
 40
6.0073843
 50
273.62974000000389
 51
314.7638500000042
  0
ARC
  5
7E7E
  8
AM_0
 10
136.07897947074309
 20
483.04010978620352
 30
0.0
 40
4.9991421999999961
 50
5.3780268999992682
 51
80.360064999998514
  0
ARC
  5
7E7F
  8
AM_0
 10
133.05297947074331
 20
464.95917978620338
 30
0.0
 40
2.0005671999999981
 50
193.30959000000229
 51
269.80430999999942
  0
ARC
  5
7E80
  8
AM_0
 10
128.72937947074291
 20
468.03095978620348
 30
0.0
 40
1.497715799999999
 50
13.424378999996071
 51
90.122644999997888
  0
ARC
  5
7E81
  8
AM_0
 10
128.74383947074321
 20
466.01032978620339
 30
0.0
 40
1.4982997
 50
14.229739999998021
 51
89.910950000001179
  0
ARC
  5
7E82
  8
AM_0
 10
149.91619947074309
 20
464.76862978620358
 30
0.0
 40
2.0000371999999991
 50
180.0010599999959
 51
269.99892999999639
  0
ARC
  5
7E83
  8
AM_0
 10
149.91705947074291
 20
462.73957978620348
 30
0.0
 40
2.0009109999999981
 50
180.00001000000091
 51
269.97390999999652
  0
ARC
  5
7E84
  8
AM_0
 10
146.41418947074311
 20
470.14667978620338
 30
0.0
 40
1.501982699999999
 50
0.0755872020005832
 51
89.924413000004819
  0
ARC
  5
7E85
  8
AM_0
 10
146.41302947074331
 20
464.86542978620338
 30
0.0
 40
1.503128599999999
 50
0.1191296500022061
 51
89.880869999998822
  0
ARC
  5
7E86
  8
AM_0
 10
273.55975947074319
 20
476.78486978620322
 30
0.0
 40
1.4937901
 50
89.756423999995206
 51
165.1129200000008
  0
ARC
  5
7E87
  8
AM_0
 10
148.90893947074309
 20
539.62861978620356
 30
0.0
 40
1.0000259
 50
89.587534000000232
 51
270.4124599999987
  0
ARC
  5
7E88
  8
AM_0
 10
148.90893947074309
 20
549.62861978620322
 30
0.0
 40
1.0000259
 50
89.587534000000232
 51
270.4124599999987
  0
ARC
  5
7E89
  8
AM_0
 10
148.90893947074309
 20
559.62861978620333
 30
0.0
 40
1.0000259
 50
89.587534000000232
 51
270.4124599999987
  0
ARC
  5
7E8A
  8
AM_0
 10
131.17791947074309
 20
529.63862978620352
 30
0.0
 40
1.2700266
 50
89.629328000002715
 51
270.37065999999629
  0
ARC
  5
7E8B
  8
AM_0
 10
131.23986947074329
 20
539.64362978620363
 30
0.0
 40
1.3350147999999991
 50
89.730434999997087
 51
270.2695700000001
  0
ARC
  5
7E8C
  8
AM_0
 10
140.37042947074309
 20
549.65864978620345
 30
0.0
 40
1.460011199999999
 50
89.775247999997958
 51
270.22473999999698
  0
ARC
  5
7E8D
  8
AM_0
 10
140.5861294707432
 20
559.67865978620341
 30
0.0
 40
1.6800002000000001
 50
90.00000299999769
 51
270.0
  0
ARC
  5
7E8E
  8
AM_0
 10
132.46612947074311
 20
529.62861978620333
 30
0.0
 40
1.0000056999999991
 50
90.00000299999769
 51
270.0
  0
ARC
  5
7E8F
  8
AM_0
 10
132.46612947074311
 20
539.62861978620356
 30
0.0
 40
1.0000056999999991
 50
90.00000299999769
 51
270.0
  0
ARC
  5
7E90
  8
AM_0
 10
141.45898947074281
 20
559.62861978620333
 30
0.0
 40
1.0000255999999981
 50
89.589474000000749
 51
270.41051999999962
  0
ARC
  5
7E91
  8
AM_0
 10
141.45898947074281
 20
549.62861978620322
 30
0.0
 40
1.0000255999999981
 50
89.589474000000749
 51
270.41051999999962
  0
ARC
  5
7E92
  8
AM_0
 10
270.73614947074321
 20
559.67865978620341
 30
0.0
 40
1.6800077
 50
269.999989999999
 51
90.00000299999769
  0
ARC
  5
7E93
  8
AM_0
 10
267.25610947074313
 20
559.62861978620333
 30
0.0
 40
1.0000040999999991
 50
269.999989999999
 51
90.00000299999769
  0
ARC
  5
7E94
  8
AM_0
 10
267.25610947074313
 20
489.62861978620339
 30
0.0
 40
1.0000040999999991
 50
269.999989999999
 51
90.00000299999769
  0
ARC
  5
7E95
  8
AM_0
 10
270.73614947074321
 20
489.58857978620341
 30
0.0
 40
1.6800077
 50
269.999989999999
 51
90.00000299999769
  0
ARC
  5
7E96
  8
AM_0
 10
132.46612947074311
 20
519.62861978620333
 30
0.0
 40
1.0000056999999991
 50
90.00000299999769
 51
270.0
  0
ARC
  5
7E97
  8
AM_0
 10
148.90893947074309
 20
509.6286197862035
 30
0.0
 40
1.0000259
 50
89.587534000000232
 51
270.4124599999987
  0
ARC
  5
7E98
  8
AM_0
 10
148.90893947074309
 20
499.62861978620327
 30
0.0
 40
1.0000259
 50
89.587534000000232
 51
270.4124599999987
  0
ARC
  5
7E99
  8
AM_0
 10
131.23986947074329
 20
509.61860978620359
 30
0.0
 40
1.3300148000000001
 50
89.729417999999541
 51
270.27059000000321
  0
ARC
  5
7E9A
  8
AM_0
 10
148.90893947074309
 20
519.62861978620333
 30
0.0
 40
1.0000259
 50
89.587534000000232
 51
270.4124599999987
  0
ARC
  5
7E9B
  8
AM_0
 10
148.90893947074309
 20
489.62861978620339
 30
0.0
 40
1.0000259
 50
89.587534000000232
 51
270.4124599999987
  0
ARC
  5
7E9C
  8
AM_0
 10
131.17791947074309
 20
519.62861978620333
 30
0.0
 40
1.2700266
 50
89.629321000002747
 51
270.37068999999542
  0
ARC
  5
7E9D
  8
AM_0
 10
132.46612947074311
 20
509.6286197862035
 30
0.0
 40
1.0000056999999991
 50
90.00000299999769
 51
270.0
  0
ARC
  5
7E9E
  8
AM_0
 10
136.6492994707431
 20
571.88862978620341
 30
0.0
 40
1.5
 50
280.24788999999811
 51
349.76261999999917
  0
ARC
  5
7E9F
  8
AM_0
 10
136.6492994707431
 20
477.36860978620359
 30
0.0
 40
1.5
 50
10.237378999998541
 51
79.75211000000192
  0
ARC
  5
7EA0
  8
AM_0
 10
140.87561947074309
 20
473.63385978620352
 30
0.0
 40
1.9952742999999991
 50
189.9647800000009
 51
269.85141999999991
  0
ARC
  5
7EA1
  8
AM_0
 10
136.43298947074311
 20
472.08625978620358
 30
0.0
 40
1.502416299999999
 50
12.391887000000411
 51
90.098617000002307
  0
ARC
  5
7EA2
  8
AM_0
 10
140.81347947074309
 20
468.35566978620352
 30
0.0
 40
1.997119399999999
 50
192.0552400000017
 51
270.1986299999989
  0
ARC
  5
7EA3
  8
AM_0
 10
140.5861294707432
 20
489.57856978620327
 30
0.0
 40
1.6800002000000001
 50
90.00000299999769
 51
270.0
  0
ARC
  5
7EA4
  8
AM_0
 10
141.45898947074281
 20
489.62861978620339
 30
0.0
 40
1.0000255999999981
 50
89.589474000000749
 51
270.41051999999962
  0
ARC
  5
7EA5
  8
AM_0
 10
141.45898947074281
 20
499.62861978620327
 30
0.0
 40
1.0000255999999981
 50
89.589474000000749
 51
270.41051999999962
  0
ARC
  5
7EA6
  8
AM_0
 10
140.37042947074309
 20
499.59858978620332
 30
0.0
 40
1.460011199999999
 50
89.775247999997958
 51
270.22473999999698
  0
ARC
  5
7EA7
  8
AM_0
 10
191.2424994707431
 20
459.23859978620339
 30
0.0
 40
1.5
 50
1.5000027000022329
 51
90.00000299999769
  0
ARC
  5
7EA8
  8
AM_0
 10
265.93231947074321
 20
456.12861978620322
 30
0.0
 40
1.5
 50
269.999989999999
 51
326.99999999999892
  0
ARC
  5
7EA9
  8
AM_0
 10
254.4297494707433
 20
453.12861978620322
 30
0.0
 40
1.5
 50
90.00000299999769
 51
178.4999999999973
  0
ARC
  5
7EAA
  8
AM_0
 10
268.43609947074322
 20
587.01862978620363
 30
0.0
 40
1.5
 50
12.12979199999535
 51
90.00000299999769
  0
ARC
  5
7EAB
  8
AM_0
 10
268.1437994707432
 20
588.37861978620333
 30
0.0
 40
1.5
 50
12.12979199999535
 51
90.00000299999769
  0
ARC
  5
7EAC
  8
AM_0
 10
267.99975947074307
 20
589.04865978620353
 30
0.0
 40
1.5
 50
12.12979199999535
 51
90.00000299999769
  0
ARC
  5
7EAD
  8
AM_0
 10
270.95611947074309
 20
499.59858978620332
 30
0.0
 40
1.460011199999999
 50
269.77524999999667
 51
90.224749999996845
  0
ARC
  5
7EAE
  8
AM_0
 10
267.25610947074313
 20
499.62861978620327
 30
0.0
 40
1.0000255999999981
 50
269.5894700000033
 51
90.410530999997775
  0
ARC
  5
7EAF
  8
AM_0
 10
270.95611947074309
 20
549.65864978620345
 30
0.0
 40
1.460011199999999
 50
269.77524999999667
 51
90.224749999996845
  0
ARC
  5
7EB0
  8
AM_0
 10
267.25610947074313
 20
549.62861978620322
 30
0.0
 40
1.0000255999999981
 50
269.5894700000033
 51
90.410530999997775
  0
ARC
  5
7EB1
  8
AM_0
 10
203.58111947074309
 20
539.64362978620363
 30
0.0
 40
1.3350147999999991
 50
269.7304299999999
 51
90.269556000001344
  0
ARC
  5
7EB2
  8
AM_0
 10
202.35485947074329
 20
539.62861978620356
 30
0.0
 40
1.0000056999999991
 50
269.999989999999
 51
90.00000299999769
  0
ARC
  5
7EB3
  8
AM_0
 10
202.35485947074329
 20
529.62861978620333
 30
0.0
 40
1.0000056999999991
 50
269.999989999999
 51
90.00000299999769
  0
ARC
  5
7EB4
  8
AM_0
 10
203.6430694707432
 20
529.63862978620352
 30
0.0
 40
1.2700266
 50
269.62932000000001
 51
90.370670000004694
  0
ARC
  5
7EB5
  8
AM_0
 10
202.35485947074329
 20
519.62861978620333
 30
0.0
 40
1.0000056999999991
 50
269.999989999999
 51
90.00000299999769
  0
ARC
  5
7EB6
  8
AM_0
 10
203.6430694707432
 20
519.62861978620333
 30
0.0
 40
1.2700266
 50
269.62932000000001
 51
90.370670000004694
  0
ARC
  5
7EB7
  8
AM_0
 10
202.35485947074329
 20
509.6286197862035
 30
0.0
 40
1.0000056999999991
 50
269.999989999999
 51
90.00000299999769
  0
ARC
  5
7EB8
  8
AM_0
 10
203.58111947074309
 20
509.61860978620359
 30
0.0
 40
1.3300148000000001
 50
269.7294199999987
 51
90.270567000000995
  0
ARC
  5
7EB9
  8
AM_0
 10
252.9161394707431
 20
497.12861978620339
 30
0.0
 40
1.5
 50
90.00000299999769
 51
180.00001000000091
  0
ARC
  5
7EBA
  8
AM_0
 10
252.9161394707431
 20
492.1286197862035
 30
0.0
 40
1.5
 50
179.999989999999
 51
270.0
  0
ARC
  5
7EBB
  8
AM_0
 10
234.9161394707431
 20
497.12861978620339
 30
0.0
 40
1.5
 50
0.0
 51
90.00000299999769
  0
ARC
  5
7EBC
  8
AM_0
 10
234.9161394707431
 20
492.1286197862035
 30
0.0
 40
1.5
 50
269.999989999999
 51
0.0000006832495047
  0
ARC
  5
7EBD
  8
AM_0
 10
252.9161394707431
 20
497.12861978620339
 30
0.0
 40
1.02
 50
90.00000299999769
 51
180.00001000000091
  0
ARC
  5
7EBE
  8
AM_0
 10
234.9161394707431
 20
497.12861978620339
 30
0.0
 40
1.02
 50
0.0
 51
90.00000299999769
  0
ARC
  5
7EBF
  8
AM_0
 10
234.93609947074319
 20
492.26862978620358
 30
0.0
 40
1.0
 50
269.999989999999
 51
0.0000006832495047
  0
ARC
  5
7EC0
  8
AM_0
 10
252.89611947074309
 20
492.26862978620358
 30
0.0
 40
1.0
 50
179.999989999999
 51
270.0
  0
CIRCLE
  5
7EC1
  8
AM_0
 10
241.4161394707431
 20
496.1286197862035
 30
0.0
 40
1.1000000000000001
  0
CIRCLE
  5
7EC2
  8
AM_0
 10
241.4161394707431
 20
496.1286197862035
 30
0.0
 40
1.149999999999999
  0
CIRCLE
  5
7EC3
  8
AM_0
 10
246.4161394707431
 20
496.1286197862035
 30
0.0
 40
1.0
  0
ARC
  5
7EC4
  8
AM_0
 10
252.9161394707431
 20
552.12861978620356
 30
0.0
 40
1.5
 50
179.999989999999
 51
270.0
  0
ARC
  5
7EC5
  8
AM_0
 10
252.9161394707431
 20
557.12861978620333
 30
0.0
 40
1.5
 50
90.00000299999769
 51
180.00001000000091
  0
ARC
  5
7EC6
  8
AM_0
 10
234.9161394707431
 20
552.12861978620356
 30
0.0
 40
1.5
 50
269.999989999999
 51
0.0000006832495047
  0
ARC
  5
7EC7
  8
AM_0
 10
234.9161394707431
 20
557.12861978620333
 30
0.0
 40
1.5
 50
0.0
 51
90.00000299999769
  0
ARC
  5
7EC8
  8
AM_0
 10
252.9161394707431
 20
552.12861978620356
 30
0.0
 40
1.02
 50
179.999989999999
 51
270.0
  0
ARC
  5
7EC9
  8
AM_0
 10
234.9161394707431
 20
552.12861978620356
 30
0.0
 40
1.02
 50
269.999989999999
 51
0.0000006832429909
  0
ARC
  5
7ECA
  8
AM_0
 10
234.93609947074319
 20
556.98859978620339
 30
0.0
 40
1.0
 50
0.0
 51
90.00000299999769
  0
ARC
  5
7ECB
  8
AM_0
 10
252.89611947074309
 20
556.98859978620339
 30
0.0
 40
1.0
 50
90.00000299999769
 51
180.00001000000091
  0
CIRCLE
  5
7ECC
  8
AM_0
 10
246.4161394707431
 20
553.12861978620333
 30
0.0
 40
1.0
  0
CIRCLE
  5
7ECD
  8
AM_0
 10
241.4161394707431
 20
553.12861978620333
 30
0.0
 40
1.149999999999999
  0
CIRCLE
  5
7ECE
  8
AM_0
 10
241.4161394707431
 20
553.12861978620333
 30
0.0
 40
1.1000000000000001
  0
ARC
  5
7ECF
  8
AM_0
 10
132.61676947074321
 20
464.95856978620338
 30
0.0
 40
2.0
 50
194.15074999999919
 51
269.999989999999
  0
ARC
  5
7ED0
  8
AM_0
 10
146.6588794707435
 20
461.45856978620333
 30
0.0
 40
1.5
 50
21.46170899999715
 51
90.00000299999769
  0
LINE
  5
7ED1
  8
AM_0
 10
252.94228931978401
 20
450.6286197862035
 30
0.0
 11
253.2602152734782
 21
462.76862978620358
 31
0.0
  0
LINE
  5
7ED2
  8
AM_0
 10
192.8898573245433
 20
450.6286197862035
 30
0.0
 11
192.5720153431127
 21
462.76862978620358
 31
0.0
  0
LINE
  5
7ED3
  8
AM_0
 10
189.41609947074329
 20
448.6286197862035
 30
0.0
 11
256.41609947074352
 21
448.6286197862035
 31
0.0
  0
LINE
  5
7ED4
  8
AM_0
 10
189.41609947074329
 20
447.62861978620361
 30
0.0
 11
189.41609947074329
 21
448.6286197862035
 31
0.0
  0
LINE
  5
7ED5
  8
AM_0
 10
256.41609947074352
 20
447.62861978620361
 30
0.0
 11
256.41609947074352
 21
448.6286197862035
 31
0.0
  0
LINE
  5
7ED6
  8
AM_0
 10
174.91609947074329
 20
409.6286197862035
 30
0.0
 11
176.17568460700551
 21
445.69841877960829
 31
0.0
  0
LINE
  5
7ED7
  8
AM_0
 10
178.17446626104399
 20
447.62861978620361
 30
0.0
 11
267.65773268044302
 21
447.62861978620361
 31
0.0
  0
ARC
  5
7ED8
  8
AM_0
 10
178.17446626104399
 20
445.6286197862035
 30
0.0
 40
2.0
 50
90.0
 51
178.0000000000029
1001
GENIUS_GENODEF_13
1002
{
1000
HIER
1070
     0
1002
}
1002
{
1000
MANEDIT
1070
     0
1002
}
1002
{
1000
NOSEL
1070
     0
1002
}
1002
{
1000
BEHIND
1070
     0
1002
}
1002
{
1000
OTHER
1070
     0
1002
}
1002
{
1000
REACTOR
1002
}
1001
GENIUS_GENOBJ-N-FIL_13
1002
{
1000
OWNER
1000
GEN
1002
}
  0
LINE
  5
7ED9
  8
AM_0
 10
269.6565143344813
 20
445.69841877960829
 30
0.0
 11
270.91609947074357
 21
409.6286197862035
 31
0.0
  0
ARC
  5
7EDA
  8
AM_0
 10
267.65773268044302
 20
445.6286197862035
 30
0.0
 40
2.0
 50
1.9999999999971021
 51
90.0
1001
GENIUS_GENOBJ-N-FIL_13
1002
{
1000
OWNER
1000
GEN
1002
}
1001
GENIUS_GENODEF_13
1002
{
1000
HIER
1070
     0
1002
}
1002
{
1000
MANEDIT
1070
     0
1002
}
1002
{
1000
NOSEL
1070
     0
1002
}
1002
{
1000
BEHIND
1070
     0
1002
}
1002
{
1000
OTHER
1070
     0
1002
}
1002
{
1000
REACTOR
1002
}
  0
LINE
  5
7EDB
  8
AM_0
 10
270.91609947074357
 20
409.6286197862035
 30
0.0
 11
174.91609947074309
 21
409.6286197862035
 31
0.0
  0
LINE
  5
7EDC
  8
AM_0
 10
175.02086177921859
 20
412.6286197862031
 30
0.0
 11
173.91609947074329
 21
412.6286197862031
 31
0.0
  0
LINE
  5
7EDD
  8
AM_0
 10
176.13832640295459
 20
444.62861978620322
 30
0.0
 11
173.91609947074329
 21
444.62861978620322
 31
0.0
  0
LINE
  5
7EDE
  8
ﾁｭｳｼﾝｾﾝ1
 10
179.916099470744
 20
399.36391228620357
 30
0.0
 11
179.91609947074409
 21
412.36391228620352
 31
0.0
  0
LINE
  5
7EDF
  8
ﾁｭｳｼﾝｾﾝ
 10
222.9160994707434
 20
454.92065045943252
 30
0.0
 11
222.9160994707434
 21
397.17809714539419
 31
0.0
  0
LINE
  5
7EE0
  8
AM_0
 10
171.41609947074321
 20
415.12861978620322
 30
0.0
 11
173.91609947074329
 21
415.1286197862031
 31
0.0
  0
LINE
  5
7EE1
  8
AM_0
 10
173.91609947074329
 20
442.1286197862031
 30
0.0
 11
171.41609947074321
 21
442.1286197862031
 31
0.0
  0
LINE
  5
7EE2
  8
AM_0
 10
160.51742837439741
 20
439.12861978620322
 30
0.0
 11
160.51742837439741
 21
418.12861978620322
 31
0.0
  0
LINE
  5
7EE3
  8
AM_0
 10
145.51742837439741
 20
420.59699473218802
 30
0.0
 11
145.51742837439741
 21
436.66024484021921
 31
0.0
  0
LINE
  5
7EE4
  8
AM_0
 10
158.51742837439741
 20
440.62861978620322
 30
0.0
 11
158.51742837439741
 21
416.62861978620322
 31
0.0
  0
LINE
  5
7EE5
  8
AM_0
 10
149.01742837439741
 20
428.62861978620322
 30
0.0
 11
149.51742837439741
 21
429.12861978620322
 31
0.0
  0
LINE
  5
7EE6
  8
AM_0
 10
156.01742837439741
 20
416.92861978620323
 30
0.0
 11
156.01742837439741
 21
440.32861978620309
 31
0.0
  0
LINE
  5
7EE7
  8
AM_0
 10
165.91609947074321
 20
417.1286197862031
 30
0.0
 11
165.91609947074321
 21
440.12861978620322
 31
0.0
  0
LINE
  5
7EE8
  8
AM_0
 10
160.01742837439741
 20
429.32861978620519
 30
0.0
 11
160.01742837439741
 21
427.92861978620198
 31
0.0
  0
LINE
  5
7EE9
  8
AM_0
 10
162.11706410096821
 20
437.72861978620318
 30
0.0
 11
161.3670641009694
 21
419.52861978620308
 31
0.0
  0
LINE
  5
7EEA
  8
AM_0
 10
161.16609947074321
 20
437.72861978620318
 30
0.0
 11
160.51742837439741
 21
421.9875345148871
 31
0.0
  0
LINE
  5
7EEB
  8
AM_0
 10
161.91479206131541
 20
438.44427849856709
 30
0.0
 11
161.1675320179074
 21
418.81624802503632
 31
0.0
  0
LINE
  5
7EEC
  8
AM_0
 10
161.36563155380529
 20
438.44099154737108
 30
0.0
 11
160.6170641009694
 21
418.77861978620308
 31
0.0
  0
LINE
  5
7EED
  8
AM_0
 10
158.51742837439741
 20
416.62861978620322
 30
0.0
 11
156.31742837439739
 21
416.62861978620322
 31
0.0
  0
ARC
  5
7EEE
  8
AM_0
 10
170.4160994707434
 20
416.12861978620322
 30
0.0
 40
0.5
 50
0.0
 51
90.000000000013017
  0
ARC
  5
7EEF
  8
AM_0
 10
171.4160994707434
 20
415.62861978620322
 30
0.0
 40
0.5
 50
180.0
 51
270.0
  0
LINE
  5
7EF0
  8
AM_0
 10
170.91609947074321
 20
416.12861978620322
 30
0.0
 11
170.91609947074321
 21
415.62861978620322
 31
0.0
  0
LINE
  5
7EF1
  8
AM_0
 10
161.91609947074321
 20
419.52861978620308
 30
0.0
 11
165.41609947074321
 21
419.52861978620308
 31
0.0
  0
LINE
  5
7EF2
  8
AM_0
 10
170.91609947074321
 20
417.77254846479639
 30
0.0
 11
170.91609947074321
 21
427.48469110761113
 31
0.0
  0
LINE
  5
7EF3
  8
AM_0
 10
166.41609947074321
 20
416.62861978620322
 30
0.0
 11
170.41609947074321
 21
416.62861978620322
 31
0.0
  0
LINE
  5
7EF4
  8
AM_0
 10
170.41609947074321
 20
417.27254846479639
 30
0.0
 11
165.91609947074321
 21
417.27254846479639
 31
0.0
  0
ARC
  5
7EF5
  8
AM_0
 10
170.4160994707434
 20
417.77254846479639
 30
0.0
 40
0.5
 50
270.0
 51
0.0
  0
ARC
  5
7EF6
  8
AM_0
 10
165.41609947074321
 20
419.02861978620331
 30
0.0
 40
0.5
 50
0.0
 51
90.0
  0
ARC
  5
7EF7
  8
AM_0
 10
166.41609947074321
 20
417.1286197862031
 30
0.0
 40
0.5
 50
180.0
 51
270.0
  0
LINE
  5
7EF8
  8
AM_0
 10
170.41609947074321
 20
427.98469110761118
 30
0.0
 11
165.91609947074321
 21
427.98469110761118
 31
0.0
  0
ARC
  5
7EF9
  8
AM_0
 10
170.41609947074321
 20
427.48469110761141
 30
0.0
 40
0.5
 50
0.0
 51
90.0
  0
LINE
  5
7EFA
  8
AM_0
 10
160.01742837439741
 20
422.48344903391109
 30
0.0
 11
160.01742837439741
 21
423.65569222034401
 31
0.0
  0
LINE
  5
7EFB
  8
AM_0
 10
161.4437965293944
 20
419.52861978620308
 30
0.0
 11
161.91609947074321
 21
419.52861978620308
 31
0.0
  0
LINE
  5
7EFC
  8
AM_0
 10
161.34720403485511
 20
419.45450201946647
 30
0.0
 11
161.3670641009694
 21
419.52861978620308
 31
0.0
  0
ARC
  5
7EFD
  8
AM_0
 10
161.4437965293944
 20
419.42861978620311
 30
0.0
 40
0.1000000000000346
 50
90.0
 51
164.99980499355539
  0
ARC
  5
7EFE
  8
AM_0
 10
159.7174283743974
 20
419.34178680569511
 30
0.0
 40
0.3000000000000043
 50
0.0
 51
90.0
  0
LINE
  5
7EFF
  8
AM_0
 10
158.51742837439741
 20
417.22861978620318
 30
0.0
 11
159.7373840775544
 21
417.30995016641413
 31
0.0
  0
LINE
  5
7F00
  8
AM_0
 10
158.51742837439741
 20
418.38487182204301
 30
0.0
 11
159.71742837439729
 21
418.38487182204301
 31
0.0
  0
LINE
  5
7F01
  8
AM_0
 10
160.01742837439741
 20
417.6286197862031
 30
0.0
 11
158.51742837439741
 21
417.6286197862031
 31
0.0
  0
ARC
  5
7F02
  8
AM_0
 10
160.01742837439741
 20
418.12861978620322
 30
0.0
 40
0.5
 50
270.0
 51
0.0
  0
LINE
  5
7F03
  8
AM_0
 10
160.01742837439741
 20
417.60928571377121
 30
0.0
 11
160.01742837439741
 21
417.6286197862031
 31
0.0
  0
LINE
  5
7F04
  8
AM_0
 10
160.01742837439741
 20
417.32861978620309
 30
0.0
 11
160.01742837439741
 21
417.60928571377121
 31
0.0
  0
LINE
  5
7F05
  8
AM_0
 10
159.7373840775544
 20
417.30995016641413
 30
0.0
 11
160.01742837439741
 21
417.32861978620309
 31
0.0
  0
ARC
  5
7F06
  8
AM_0
 10
159.7174283743974
 20
417.60928571377121
 30
0.0
 40
0.3000000000000007
 50
273.81407483428148
 51
0.0
  0
LINE
  5
7F07
  8
AM_0
 10
161.08936704231829
 20
418.77861978620308
 30
0.0
 11
161.1660994707442
 21
418.77861978620308
 31
0.0
  0
LINE
  5
7F08
  8
AM_0
 10
161.1660994707442
 20
418.77861978620308
 30
0.0
 11
161.1859595368573
 21
418.85273755293957
 31
0.0
  0
LINE
  5
7F09
  8
AM_0
 10
160.5972040348552
 20
418.85273755293957
 30
0.0
 11
160.6170641009694
 21
418.77861978620308
 31
0.0
  0
LINE
  5
7F0A
  8
AM_0
 10
160.6170641009694
 20
418.77861978620308
 30
0.0
 11
160.69379652939429
 21
418.77861978620308
 31
0.0
  0
LINE
  5
7F0B
  8
AM_0
 10
161.1859595368573
 20
418.85273755293957
 30
0.0
 11
161.34720403485511
 21
419.45450201946647
 31
0.0
  0
LINE
  5
7F0C
  8
AM_0
 10
160.69379652939429
 20
418.77861978620308
 30
0.0
 11
161.08936704231829
 21
418.77861978620308
 31
0.0
  0
LINE
  5
7F0D
  8
AM_0
 10
160.51742837439829
 20
419.15046031776421
 30
0.0
 11
160.5972040348552
 21
418.85273755293957
 31
0.0
  0
ARC
  5
7F0E
  8
AM_0
 10
161.08936704231829
 20
418.8786197862031
 30
0.0
 40
0.0999999999999866
 50
270.0
 51
344.99980499343371
  0
ARC
  5
7F0F
  8
AM_0
 10
160.69379652939429
 20
418.8786197862031
 30
0.0
 40
0.1000000000000014
 50
195.00019500656629
 51
270.0
  0
LINE
  5
7F10
  8
AM_0
 10
160.01742837439741
 20
418.68487182204308
 30
0.0
 11
160.01742837439741
 21
419.34178680569511
 31
0.0
  0
ARC
  5
7F11
  8
AM_0
 10
159.7174283743974
 20
418.68487182204331
 30
0.0
 40
0.3000000000000007
 50
270.0
 51
0.0
  0
LINE
  5
7F12
  8
AM_0
 10
158.51742837439741
 20
422.18344903391102
 30
0.0
 11
159.71742837439729
 21
422.18344903391102
 31
0.0
  0
LINE
  5
7F13
  8
AM_0
 10
159.71742837439729
 20
419.64178680569512
 30
0.0
 11
158.51742837439741
 21
419.64178680569512
 31
0.0
  0
LINE
  5
7F14
  8
AM_0
 10
161.3670641009694
 20
419.52861978620308
 30
0.0
 11
161.4437965293944
 21
419.52861978620308
 31
0.0
  0
ARC
  5
7F15
  8
AM_0
 10
159.7174283743974
 20
422.4834490339112
 30
0.0
 40
0.3000000000000007
 50
270.0
 51
0.0
  0
LINE
  5
7F16
  8
AM_0
 10
159.71742837439729
 20
423.95569222034408
 30
0.0
 11
158.51742837439741
 21
423.95569222034408
 31
0.0
  0
ARC
  5
7F17
  8
AM_0
 10
159.7174283743974
 20
423.65569222034418
 30
0.0
 40
0.3000000000000043
 50
0.0
 51
90.0
  0
LINE
  5
7F18
  8
AM_0
 10
159.71742837439729
 20
427.62861978620202
 30
0.0
 11
158.51742837439741
 21
427.62861978620202
 31
0.0
  0
ARC
  5
7F19
  8
AM_0
 10
159.7174283743974
 20
427.92861978620232
 30
0.0
 40
0.3000000000000007
 50
270.0
 51
0.0
  0
LINE
  5
7F1A
  8
AM_0
 10
149.51742837439741
 20
418.4953399575561
 30
0.0
 11
156.01742837439741
 21
418.4953399575561
 31
0.0
  0
LINE
  5
7F1B
  8
AM_0
 10
149.51742837439741
 20
417.9953399575561
 30
0.0
 11
156.01742837439741
 21
417.9953399575561
 31
0.0
  0
LINE
  5
7F1C
  8
AM_0
 10
156.01742837439741
 20
428.12861978620322
 30
0.0
 11
149.51742837439741
 21
428.12861978620322
 31
0.0
  0
LINE
  5
7F1D
  8
AM_0
 10
149.01742837439741
 20
427.62861978620322
 30
0.0
 11
156.01742837439741
 21
427.62861978620322
 31
0.0
  0
LINE
  5
7F1E
  8
AM_0
 10
155.71742837439729
 20
417.6286197862031
 30
0.0
 11
148.8794783095793
 21
417.6286197862031
 31
0.0
  0
LINE
  5
7F1F
  8
AM_0
 10
156.01742837439741
 20
427.28193171766208
 30
0.0
 11
149.51742837439741
 21
427.28193171766208
 31
0.0
  0
LINE
  5
7F20
  8
AM_0
 10
156.01742837439741
 20
418.97530785474407
 30
0.0
 11
149.51742837439741
 21
418.97530785474407
 31
0.0
  0
ARC
  5
7F21
  8
AM_0
 10
156.31742837439739
 20
416.92861978620323
 30
0.0
 40
0.2999999999999971
 50
180.0
 51
270.0
  0
ARC
  5
7F22
  8
AM_0
 10
155.7174283743974
 20
417.32861978620309
 30
0.0
 40
0.2999999999999971
 50
0.0
 51
90.0
  0
ARC
  5
7F23
  8
AM_0
 10
157.6424283743975
 20
423.12861978620322
 30
0.0
 40
9.124999999999984
 50
152.92493329271929
 51
207.07506670728071
  0
LINE
  5
7F24
  8
AM_0
 10
148.23929390991481
 20
417.86039850660569
 30
0.0
 11
145.87724397473281
 21
419.82877345259078
 31
0.0
  0
LINE
  5
7F25
  8
AM_0
 10
149.01742837439741
 20
418.20705236971111
 30
0.0
 11
149.51742837439741
 21
417.6286197862031
 31
0.0
  0
ARC
  5
7F26
  8
AM_0
 10
148.8794783095793
 20
418.62861978620322
 30
0.0
 40
1.0
 50
230.19442890774391
 51
270.0
  0
LINE
  5
7F27
  8
AM_0
 10
149.51742837439741
 20
417.9953399575561
 30
0.0
 11
149.01742837439741
 21
418.20705236971111
 31
0.0
  0
LINE
  5
7F28
  8
AM_0
 10
149.01742837439741
 20
418.66932764268228
 30
0.0
 11
149.51742837439741
 21
417.9953399575561
 31
0.0
  0
LINE
  5
7F29
  8
AM_0
 10
149.51742837439741
 20
418.4953399575561
 30
0.0
 11
149.01742837439741
 21
418.66932764268228
 31
0.0
  0
LINE
  5
7F2A
  8
AM_0
 10
149.01742837439741
 20
419.20705236971111
 30
0.0
 11
149.51742837439741
 21
418.4953399575561
 31
0.0
  0
LINE
  5
7F2B
  8
AM_0
 10
149.51742837439741
 20
418.97530785474407
 30
0.0
 11
149.01742837439741
 21
419.20705236971111
 31
0.0
  0
ARC
  5
7F2C
  8
AM_0
 10
146.5174283743975
 20
420.59699473218831
 30
0.0
 40
1.0000000000000291
 50
180.0
 51
230.19442890773479
  0
LINE
  5
7F2D
  8
AM_0
 10
149.51742837439741
 20
428.12861978620322
 30
0.0
 11
149.01742837439741
 21
428.62861978620322
 31
0.0
  0
LINE
  5
7F2E
  8
AM_0
 10
149.01742837439741
 20
427.62861978620322
 30
0.0
 11
149.51742837439741
 21
428.12861978620322
 31
0.0
  0
LINE
  5
7F2F
  8
AM_0
 10
149.51742837439741
 20
427.28193171766208
 30
0.0
 11
149.01742837439741
 21
427.62861978620322
 31
0.0
  0
LINE
  5
7F30
  8
AM_0
 10
156.31742837439739
 20
440.62861978620322
 30
0.0
 11
158.51742837439741
 21
440.62861978620322
 31
0.0
  0
ARC
  5
7F31
  8
AM_0
 10
170.41609947074321
 20
441.12861978620322
 30
0.0
 40
0.5
 50
269.99999999998693
 51
0.0
  0
LINE
  5
7F32
  8
AM_0
 10
165.41609947074321
 20
437.72861978620318
 30
0.0
 11
162.1937965293944
 21
437.72861978620318
 31
0.0
  0
LINE
  5
7F33
  8
AM_0
 10
170.91609947074321
 20
429.77254846479639
 30
0.0
 11
170.91609947074321
 21
439.48469110761141
 31
0.0
  0
LINE
  5
7F34
  8
AM_0
 10
165.91609947074321
 20
429.27254846479639
 30
0.0
 11
170.41609947074321
 21
429.27254846479639
 31
0.0
  0
ARC
  5
7F35
  8
AM_0
 10
170.41609947074321
 20
429.77254846479639
 30
0.0
 40
0.5
 50
270.0
 51
0.0
  0
LINE
  5
7F36
  8
AM_0
 10
165.91609947074321
 20
439.98469110761141
 30
0.0
 11
170.41609947074321
 21
439.98469110761141
 31
0.0
  0
LINE
  5
7F37
  8
AM_0
 10
170.41609947074321
 20
440.62861978620322
 30
0.0
 11
166.41609947074321
 21
440.62861978620322
 31
0.0
  0
ARC
  5
7F38
  8
AM_0
 10
170.41609947074321
 20
439.48469110761141
 30
0.0
 40
0.5
 50
0.0
 51
90.0
  0
ARC
  5
7F39
  8
AM_0
 10
165.41609947074321
 20
438.22861978620318
 30
0.0
 40
0.5
 50
270.0
 51
0.0
  0
ARC
  5
7F3A
  8
AM_0
 10
166.41609947074321
 20
440.12861978620322
 30
0.0
 40
0.5
 50
90.0
 51
180.0
  0
ARC
  5
7F3B
  8
AM_0
 10
159.7174283743974
 20
434.77379053849518
 30
0.0
 40
0.3000000000000114
 50
0.0
 51
90.0
  0
LINE
  5
7F3C
  8
AM_0
 10
158.51742837439741
 20
429.62861978620498
 30
0.0
 11
159.71742837439729
 21
429.62861978620498
 31
0.0
  0
ARC
  5
7F3D
  8
AM_0
 10
159.7174283743974
 20
429.32861978620542
 30
0.0
 40
0.2999999999999971
 50
0.0
 51
90.0
  0
LINE
  5
7F3E
  8
AM_0
 10
158.51742837439741
 20
433.30154735206202
 30
0.0
 11
159.71742837439729
 21
433.30154735206202
 31
0.0
  0
ARC
  5
7F3F
  8
AM_0
 10
159.7174283743974
 20
433.60154735206231
 30
0.0
 40
0.3000000000000007
 50
270.0
 51
0.0
  0
LINE
  5
7F40
  8
AM_0
 10
160.01742837439741
 20
433.60154735206231
 30
0.0
 11
160.01742837439741
 21
434.77379053849518
 31
0.0
  0
LINE
  5
7F41
  8
AM_0
 10
161.4437965293944
 20
438.47861978620313
 30
0.0
 11
161.8393670423184
 21
438.47861978620313
 31
0.0
  0
LINE
  5
7F42
  8
AM_0
 10
161.4437965293944
 20
438.47861978620313
 30
0.0
 11
161.8393670423184
 21
438.47861978620313
 31
0.0
  0
LINE
  5
7F43
  8
AM_0
 10
161.9359595368573
 20
438.4045020194668
 30
0.0
 11
162.09720403485511
 21
437.80273755293967
 31
0.0
  0
LINE
  5
7F44
  8
AM_0
 10
161.9359595368573
 20
438.4045020194668
 30
0.0
 11
162.09720403485511
 21
437.80273755293967
 31
0.0
  0
ARC
  5
7F45
  8
AM_0
 10
162.1937965293944
 20
437.82861978620309
 30
0.0
 40
0.0999999999999943
 50
195.00019500651879
 51
270.0
  0
ARC
  5
7F46
  8
AM_0
 10
161.8393670423184
 20
438.37861978620322
 30
0.0
 40
0.0999999999999943
 50
15.000195006505431
 51
90.0
  0
LINE
  5
7F47
  8
AM_0
 10
160.5165817858562
 20
438.10361978620352
 30
0.0
 11
160.5972040348552
 21
437.80273755293967
 31
0.0
  0
LINE
  5
7F48
  8
AM_0
 10
161.16881012294911
 20
437.76788431930117
 30
0.0
 11
161.34720403485511
 21
438.4045020194668
 31
0.0
  0
LINE
  5
7F49
  8
AM_0
 10
161.1859595368573
 20
437.80273755293967
 30
0.0
 11
161.34720403485511
 21
438.4045020194668
 31
0.0
  0
LINE
  5
7F4A
  8
AM_0
 10
160.01742837439741
 20
437.91545276671229
 30
0.0
 11
160.01742837439741
 21
438.57236775036318
 31
0.0
  0
LINE
  5
7F4B
  8
AM_0
 10
160.51742837439741
 20
438.100460317765
 30
0.0
 11
160.5972040348552
 21
437.80273755293967
 31
0.0
  0
LINE
  5
7F4C
  8
AM_0
 10
158.51742837439741
 20
437.61545276671222
 30
0.0
 11
159.71742837439729
 21
437.61545276671222
 31
0.0
  0
LINE
  5
7F4D
  8
AM_0
 10
159.71742837439729
 20
435.07379053849519
 30
0.0
 11
158.51742837439741
 21
435.0737905384961
 31
0.0
  0
LINE
  5
7F4E
  8
AM_0
 10
161.12199930783339
 20
437.72861978620318
 30
0.0
 11
161.16881012294911
 21
437.76788431930117
 31
0.0
  0
LINE
  5
7F4F
  8
AM_0
 10
160.69379652939429
 20
437.72861978620318
 30
0.0
 11
161.12199930783339
 21
437.72861978620318
 31
0.0
  0
LINE
  5
7F50
  8
AM_0
 10
160.69379652939429
 20
437.72861978620318
 30
0.0
 11
161.08936704231829
 21
437.72861978620318
 31
0.0
  0
ARC
  5
7F51
  8
AM_0
 10
160.69379652939429
 20
437.82861978620309
 30
0.0
 40
0.0999999999999943
 50
195.00019500651879
 51
270.0
  0
ARC
  5
7F52
  8
AM_0
 10
161.08936704231829
 20
437.82861978620309
 30
0.0
 40
0.0999999999999608
 50
270.0
 51
344.99980499348112
  0
ARC
  5
7F53
  8
AM_0
 10
159.7174283743974
 20
437.91545276671229
 30
0.0
 40
0.3000000000000007
 50
270.0
 51
0.0
  0
LINE
  5
7F54
  8
AM_0
 10
158.51742837439741
 20
439.62861978620322
 30
0.0
 11
160.01742837439741
 21
439.62861978620322
 31
0.0
  0
LINE
  5
7F55
  8
AM_0
 10
159.71742837439729
 20
438.87236775036308
 30
0.0
 11
158.51742837439741
 21
438.87236775036308
 31
0.0
  0
LINE
  5
7F56
  8
AM_0
 10
159.7373840775544
 20
439.94728940599327
 30
0.0
 11
158.51742837439741
 21
440.02861978620308
 31
0.0
  0
ARC
  5
7F57
  8
AM_0
 10
160.01742837439741
 20
439.12861978620322
 30
0.0
 40
0.5
 50
0.0
 51
90.0
  0
ARC
  5
7F58
  8
AM_0
 10
161.4437965293944
 20
438.37861978620322
 30
0.0
 40
0.0999999999999606
 50
90.0
 51
164.99980499349451
  0
ARC
  5
7F59
  8
AM_0
 10
159.7174283743974
 20
438.57236775036318
 30
0.0
 40
0.2999999999999971
 50
0.0
 51
90.0
  0
LINE
  5
7F5A
  8
AM_0
 10
160.01742837439741
 20
439.62861978620322
 30
0.0
 11
160.01742837439741
 21
439.64795385863607
 31
0.0
  0
ARC
  5
7F5B
  8
AM_0
 10
159.7174283743974
 20
439.64795385863607
 30
0.0
 40
0.3000000000000043
 50
0.0
 51
86.18592516571853
  0
ARC
  5
7F5C
  8
AM_0
 10
171.41609947074321
 20
441.62861978620322
 30
0.0
 40
0.5
 50
90.0
 51
180.0
  0
LINE
  5
7F5D
  8
AM_0
 10
170.91609947074321
 20
441.62861978620322
 30
0.0
 11
170.91609947074321
 21
441.12861978620322
 31
0.0
  0
LINE
  5
7F5E
  8
AM_0
 10
149.51742837439741
 20
438.28193171766202
 30
0.0
 11
156.01742837439741
 21
438.28193171766202
 31
0.0
  0
LINE
  5
7F5F
  8
AM_0
 10
149.51742837439741
 20
429.97530785474441
 30
0.0
 11
156.01742837439741
 21
429.97530785474441
 31
0.0
  0
LINE
  5
7F60
  8
AM_0
 10
148.8794783095793
 20
439.62861978620322
 30
0.0
 11
155.71742837439729
 21
439.62861978620322
 31
0.0
  0
LINE
  5
7F61
  8
AM_0
 10
156.01742837439741
 20
429.6286197862031
 30
0.0
 11
149.01742837439741
 21
429.6286197862031
 31
0.0
  0
LINE
  5
7F62
  8
AM_0
 10
149.51742837439741
 20
429.12861978620322
 30
0.0
 11
156.01742837439741
 21
429.12861978620322
 31
0.0
  0
LINE
  5
7F63
  8
AM_0
 10
156.01742837439741
 20
439.26189961485107
 30
0.0
 11
149.51742837439741
 21
439.26189961485107
 31
0.0
  0
LINE
  5
7F64
  8
AM_0
 10
156.01742837439741
 20
438.76189961485107
 30
0.0
 11
149.51742837439741
 21
438.76189961485107
 31
0.0
  0
ARC
  5
7F65
  8
AM_0
 10
155.7174283743974
 20
439.92861978620311
 30
0.0
 40
0.3000000000000043
 50
270.0
 51
0.0
  0
ARC
  5
7F66
  8
AM_0
 10
156.31742837439739
 20
440.32861978620321
 30
0.0
 40
0.2999999999999971
 50
90.0
 51
180.0
  0
ARC
  5
7F67
  8
AM_0
 10
157.6424283743975
 20
434.1286197862031
 30
0.0
 40
9.124999999999984
 50
152.92493329271929
 51
207.07506670728071
  0
LINE
  5
7F68
  8
AM_0
 10
149.01742837439741
 20
429.6286197862031
 30
0.0
 11
149.51742837439741
 21
429.97530785474441
 31
0.0
  0
LINE
  5
7F69
  8
AM_0
 10
149.51742837439741
 20
429.12861978620322
 30
0.0
 11
149.01742837439741
 21
429.6286197862031
 31
0.0
  0
LINE
  5
7F6A
  8
AM_0
 10
145.87724397473281
 20
437.42846611981639
 30
0.0
 11
148.23929390991481
 21
439.3968410658008
 31
0.0
  0
LINE
  5
7F6B
  8
AM_0
 10
149.51742837439741
 20
439.62861978620322
 30
0.0
 11
149.01742837439741
 21
439.05018720269618
 31
0.0
  0
ARC
  5
7F6C
  8
AM_0
 10
148.8794783095793
 20
438.62861978620322
 30
0.0
 40
1.0000000000000411
 50
90.0
 51
129.805571092256
  0
LINE
  5
7F6D
  8
AM_0
 10
149.01742837439741
 20
438.05018720269618
 30
0.0
 11
149.51742837439741
 21
438.28193171766202
 31
0.0
  0
LINE
  5
7F6E
  8
AM_0
 10
149.51742837439741
 20
438.76189961485107
 30
0.0
 11
149.01742837439741
 21
438.05018720269618
 31
0.0
  0
LINE
  5
7F6F
  8
AM_0
 10
149.01742837439741
 20
438.58791192972433
 30
0.0
 11
149.51742837439741
 21
438.76189961485107
 31
0.0
  0
LINE
  5
7F70
  8
AM_0
 10
149.51742837439741
 20
439.26189961485107
 30
0.0
 11
149.01742837439741
 21
438.58791192972433
 31
0.0
  0
LINE
  5
7F71
  8
AM_0
 10
149.01742837439741
 20
439.05018720269618
 30
0.0
 11
149.51742837439741
 21
439.26189961485107
 31
0.0
  0
ARC
  5
7F72
  8
AM_0
 10
146.5174283743975
 20
436.66024484021921
 30
0.0
 40
1.0
 50
129.80557109226521
 51
180.0
  0
LINE
  5
7F73
  8
AM_0
 10
270.91609947074352
 20
405.6286197862035
 30
0.0
 11
250.10159457121111
 21
405.6286197862035
 31
0.0
  0
LINE
  5
7F74
  8
AM_0
 10
195.73060437027581
 20
405.6286197862035
 30
0.0
 11
174.916099470744
 21
405.6286197862035
 31
0.0
  0
LINE
  5
7F75
  8
AM_0
 10
264.78031780158238
 20
401.6286197862035
 30
0.0
 11
181.0518811399042
 21
401.6286197862035
 31
0.0
  0
LINE
  5
7F76
  8
AM_0
 10
183.82345444305039
 20
403.56968227407572
 30
0.0
 11
183.916099470744
 21
404.6286197862035
 31
0.0
  0
LINE
  5
7F77
  8
AM_0
 10
176.00874449843741
 20
403.56968227407572
 30
0.0
 11
175.916099470744
 21
404.6286197862035
 31
0.0
  0
ARC
  5
7F78
  8
AM_0
 10
179.916099470744
 20
408.02861978620359
 30
0.0
 40
6.5
 50
241.82726586813479
 51
298.17273413186518
  0
ARC
  5
7F79
  8
AM_0
 10
177.6026560153843
 20
403.70913146247221
 30
0.0
 40
1.6000000000000001
 50
184.99999999999969
 51
241.82726586813479
  0
LINE
  5
7F7A
  8
AM_0
 10
182.21609947074401
 20
401.9491461247751
 30
0.0
 11
179.916099470744
 21
404.23870580357072
 31
0.0
  0
LINE
  5
7F7B
  8
AM_0
 10
180.227599470744
 20
403.9286197862034
 30
0.0
 11
179.60459947074401
 21
403.9286197862034
 31
0.0
  0
LINE
  5
7F7C
  8
AM_0
 10
177.61609947074399
 20
401.9491461247751
 30
0.0
 11
179.916099470744
 21
404.23870580357072
 31
0.0
  0
LINE
  5
7F7D
  8
AM_0
 10
180.227599470744
 20
401.53608809586882
 30
0.0
 11
180.227599470744
 21
403.9286197862034
 31
0.0
  0
LINE
  5
7F7E
  8
AM_0
 10
179.60459947074401
 20
401.53608809586882
 30
0.0
 11
179.60459947074401
 21
403.9286197862034
 31
0.0
  0
ARC
  5
7F7F
  8
AM_0
 10
182.2295429261037
 20
403.70913146247221
 30
0.0
 40
1.6000000000000001
 50
298.17273413186518
 51
355.00000000000023
  0
LINE
  5
7F80
  8
AM_0
 10
270.91609947074357
 20
405.6286197862035
 30
0.0
 11
270.91609947074357
 21
409.6286197862035
 31
0.0
  0
LINE
  5
7F81
  8
AM_0
 10
174.91609947074309
 20
409.6286197862035
 30
0.0
 11
174.9160994707442
 21
405.6286197862035
 31
0.0
  0
LINE
  5
7F82
  8
AM_0N
 10
183.71609947074401
 20
405.6286197862035
 30
0.0
 11
183.71609947074401
 21
404.6286197862035
 31
0.0
  0
LINE
  5
7F83
  8
AM_0N
 10
180.11609947074399
 20
404.6286197862035
 30
0.0
 11
180.48006970501021
 21
405.6286197862035
 31
0.0
  0
LINE
  5
7F84
  8
AM_0N
 10
179.71609947074401
 20
404.6286197862035
 30
0.0
 11
180.08006970501009
 21
405.6286197862035
 31
0.0
  0
LINE
  5
7F85
  8
AM_0N
 10
175.916099470744
 20
404.6286197862035
 30
0.0
 11
183.916099470744
 21
404.6286197862035
 31
0.0
  0
LINE
  5
7F86
  8
AM_0N
 10
176.11609947074399
 20
404.6286197862035
 30
0.0
 11
176.11609947074399
 21
405.6286197862035
 31
0.0
  0
LINE
  5
7F87
  8
AM_0
 10
195.73060437027561
 20
401.6286197862035
 30
0.0
 11
195.73060437027561
 21
405.6286197862035
 31
0.0
  0
LINE
  5
7F88
  8
AM_0
 10
194.07375012078319
 20
405.6286197862035
 30
0.0
 11
195.73060437027561
 21
401.6286197862035
 31
0.0
  0
LINE
  5
7F89
  8
AM_0
 10
250.10159457121111
 20
401.6286197862035
 30
0.0
 11
250.10159457121111
 21
405.6286197862035
 31
0.0
  0
LINE
  5
7F8A
  8
AM_0
 10
251.75844882070359
 20
405.6286197862035
 30
0.0
 11
250.10159457121111
 21
401.6286197862035
 31
0.0
  0
LINE
  5
7F8B
  8
AM_0
 10
189.41609947074329
 20
450.6286197862035
 30
0.0
 11
256.41609947074352
 21
450.6286197862035
 31
0.0
  0
LINE
  5
7F8C
  8
AM_0
 10
189.41609947074329
 20
450.6286197862035
 30
0.0
 11
189.41609947074329
 21
448.6286197862035
 31
0.0
  0
LINE
  5
7F8D
  8
AM_0
 10
256.41609947074352
 20
450.6286197862035
 30
0.0
 11
256.41609947074352
 21
448.6286197862035
 31
0.0
  0
LINE
  5
7F8E
  8
ﾁｭｳｼﾝｾﾝ1
 10
265.91609947074278
 20
399.36391228620357
 30
0.0
 11
265.91609947074278
 21
412.36391228620352
 31
0.0
  0
LINE
  5
7F8F
  8
AM_0
 10
262.00874449843639
 20
403.56968227407572
 30
0.0
 11
261.91609947074289
 21
404.6286197862035
 31
0.0
  0
LINE
  5
7F90
  8
AM_0
 10
269.8234544430494
 20
403.56968227407572
 30
0.0
 11
269.91609947074278
 21
404.6286197862035
 31
0.0
  0
ARC
  5
7F91
  8
AM_0
 10
265.91609947074301
 20
408.02861978620331
 30
0.0
 40
6.5
 50
241.82726586813479
 51
298.17273413186518
  0
ARC
  5
7F92
  8
AM_0
 10
268.22954292610268
 20
403.70913146247182
 30
0.0
 40
1.6000000000000001
 50
298.17273413186518
 51
355.00000000000023
  0
LINE
  5
7F93
  8
AM_0
 10
263.61609947074299
 20
401.9491461247751
 30
0.0
 11
265.91609947074289
 21
404.23870580357072
 31
0.0
  0
LINE
  5
7F94
  8
AM_0
 10
265.60459947074293
 20
403.9286197862034
 30
0.0
 11
266.22759947074292
 21
403.9286197862034
 31
0.0
  0
LINE
  5
7F95
  8
AM_0
 10
268.21609947074279
 20
401.9491461247751
 30
0.0
 11
265.91609947074289
 21
404.23870580357072
 31
0.0
  0
LINE
  5
7F96
  8
AM_0
 10
265.60459947074293
 20
401.53608809586882
 30
0.0
 11
265.60459947074293
 21
403.9286197862034
 31
0.0
  0
LINE
  5
7F97
  8
AM_0
 10
266.22759947074292
 20
401.53608809586882
 30
0.0
 11
266.22759947074292
 21
403.9286197862034
 31
0.0
  0
ARC
  5
7F98
  8
AM_0
 10
263.60265601538327
 20
403.70913146247182
 30
0.0
 40
1.6000000000000001
 50
184.99999999999969
 51
241.82726586813479
  0
LINE
  5
7F99
  8
AM_0N
 10
262.11609947074282
 20
405.6286197862035
 30
0.0
 11
262.11609947074282
 21
404.6286197862035
 31
0.0
  0
LINE
  5
7F9A
  8
AM_0N
 10
265.7160994707429
 20
404.6286197862035
 30
0.0
 11
265.35212923647669
 21
405.6286197862035
 31
0.0
  0
LINE
  5
7F9B
  8
AM_0N
 10
266.11609947074282
 20
404.6286197862035
 30
0.0
 11
265.75212923647672
 21
405.6286197862035
 31
0.0
  0
LINE
  5
7F9C
  8
AM_0N
 10
269.91609947074289
 20
404.6286197862035
 30
0.0
 11
261.91609947074289
 21
404.6286197862035
 31
0.0
  0
LINE
  5
7F9D
  8
AM_0N
 10
269.7160994707429
 20
404.6286197862035
 30
0.0
 11
269.7160994707429
 21
405.6286197862035
 31
0.0
  0
LINE
  5
7F9E
  8
AM_0
 10
173.91609947074329
 20
412.6286197862031
 30
0.0
 11
173.91609947074329
 21
444.62861978620322
 31
0.0
  0
ARC
  5
7F9F
  8
AM_0
 10
146.48925983968519
 20
481.6286197862035
 30
0.0
 40
56.0
 50
209.07393874564249
 51
269.00563148839018
1001
GENIUS_GENOBJ-N-FIL_13
1002
{
1000
OWNER
1000
GEN
1002
}
1001
GENIUS_GENODEF_13
1002
{
1000
HIER
1070
     0
1002
}
1002
{
1000
MANEDIT
1070
     0
1002
}
1002
{
1000
NOSEL
1070
     0
1002
}
1002
{
1000
BEHIND
1070
     0
1002
}
1002
{
1000
OTHER
1070
     0
1002
}
1002
{
1000
REACTOR
1002
}
  0
ARC
  5
7FA0
  8
AM_0
 10
146.4892598396851
 20
481.6286197862035
 30
0.0
 40
50.0
 50
209.07393874564249
 51
268.88629304213589
1001
GENIUS_GENOBJ-N-FIL_13
1002
{
1000
OWNER
1000
GEN
1002
}
1001
GENIUS_GENODEF_13
1002
{
1000
HIER
1070
     0
1002
}
1002
{
1000
MANEDIT
1070
     0
1002
}
1002
{
1000
NOSEL
1070
     0
1002
}
1002
{
1000
BEHIND
1070
     0
1002
}
1002
{
1000
OTHER
1070
     0
1002
}
1002
{
1000
REACTOR
1002
}
  0
LINE
  5
801A
  8
AM_0
 10
446.41610947074309
 20
538.6286497862036
 30
0.0
 11
446.41610947074309
 21
510.62864978620348
 31
0.0
  0
LINE
  5
801B
  8
AM_0
 10
409.416079470743
 20
538.62864978620371
 30
0.0
 11
446.41610947074309
 21
538.6286497862036
 31
0.0
  0
LINE
  5
801C
  8
AM_0
 10
409.41607947074311
 20
510.62864978620348
 30
0.0
 11
446.41610947074309
 21
510.62864978620348
 31
0.0
  0
LINE
  5
801D
  8
AM_0
 10
414.41610947074298
 20
528.62858978620352
 30
0.0
 11
414.41610947074298
 21
520.62861978620333
 31
0.0
  0
LINE
  5
801E
  8
AM_0
 10
414.41610947074298
 20
520.62861978620333
 30
0.0
 11
446.41610947074309
 21
520.62861978620333
 31
0.0
  0
LINE
  5
801F
  8
AM_0
 10
414.41610947074298
 20
528.62858978620352
 30
0.0
 11
446.41610947074309
 21
528.62858978620352
 31
0.0
  0
ARC
  5
8020
  8
AM_0
 10
414.41610947074298
 20
524.62858978620352
 30
0.0
 40
3.9999962
 50
90.000003000000945
 51
270.0
  0
LINE
  5
8021
  8
AM_0
 10
404.41607947074311
 20
558.1286497862036
 30
0.0
 11
409.416079470743
 21
553.12864978620371
 31
0.0
  0
LINE
  5
8022
  8
AM_0
 10
409.416079470743
 20
553.12864978620371
 30
0.0
 11
409.416079470743
 21
496.12864978620371
 31
0.0
  0
LINE
  5
8023
  8
AM_0
 10
404.41607947074311
 20
491.12864978620343
 30
0.0
 11
409.416079470743
 21
496.12864978620371
 31
0.0
  0
LINE
  5
8024
  8
AM_0
 10
325.41613947074308
 20
442.37766978620311
 30
0.0
 11
325.41613947074308
 21
606.87956978620355
 31
0.0
  0
LINE
  5
8025
  8
AM_0
 10
325.41613947074308
 20
442.37766978620311
 30
0.0
 11
313.241639470743
 21
442.80280978620351
 31
0.0
  0
LINE
  5
8026
  8
AM_0
 10
325.41610947074309
 20
606.87956978620355
 30
0.0
 11
313.24160947074307
 21
606.4544197862034
 31
0.0
  0
LINE
  5
8027
  8
AM_0
 10
308.41613947074308
 20
447.79975978620342
 30
0.0
 11
308.41613947074308
 21
601.45747978620352
 31
0.0
  0
LINE
  5
8028
  8
AM_0
 10
308.41613947074308
 20
583.93711978620343
 30
0.0
 11
318.41610947074321
 21
583.93711978620343
 31
0.0
  0
LINE
  5
8029
  8
AM_0
 10
308.41613947074308
 20
465.32011978620352
 30
0.0
 11
318.41610947074321
 21
465.32011978620352
 31
0.0
  0
LINE
  5
802A
  8
AM_0
 10
318.41610947074321
 20
453.53843978620353
 30
0.0
 11
318.41610947074321
 21
595.71879978620336
 31
0.0
  0
LINE
  5
802B
  8
AM_0
 10
281.91613947074308
 20
576.6686297862035
 30
0.0
 11
308.41610947074321
 21
576.6686297862035
 31
0.0
  0
LINE
  5
802C
  8
AM_0
 10
281.91613947074308
 20
561.77653978620356
 30
0.0
 11
308.41610947074321
 21
561.77653978620356
 31
0.0
  0
LINE
  5
802D
  8
AM_0
 10
281.91613947074308
 20
588.12861978620333
 30
0.0
 11
305.52084947074309
 21
588.95292978620319
 31
0.0
  0
LINE
  5
802E
  8
AM_0
 10
281.916169470743
 20
461.12858978620352
 30
0.0
 11
305.52081947074288
 21
460.30430978620342
 31
0.0
  0
LINE
  5
802F
  8
AM_0
 10
281.91613947074308
 20
487.48069978620362
 30
0.0
 11
308.41610947074321
 21
487.48069978620362
 31
0.0
  0
LINE
  5
8030
  8
AM_0
 10
281.91613947074308
 20
472.58860978620339
 30
0.0
 11
308.41610947074321
 21
472.58860978620339
 31
0.0
  0
LINE
  5
8031
  8
AM_0
 10
400.41613947074308
 20
439.62861978620322
 30
0.0
 11
404.41616947074311
 21
439.62861978620322
 31
0.0
  0
LINE
  5
8032
  8
AM_0
 10
392.34637947074299
 20
616.84678978620343
 30
0.0
 11
400.41613947074308
 21
617.12858978620352
 31
0.0
  0
LINE
  5
8033
  8
AM_0
 10
388.72189947074321
 20
438.82291978620361
 30
0.0
 11
390.416169470743
 21
437.1286497862036
 31
0.0
  0
LINE
  5
8034
  8
AM_0
 10
385.36083947074309
 20
608.97285978620346
 30
0.0
 11
325.41613947074308
 21
606.87956978620355
 31
0.0
  0
LINE
  5
8035
  8
AM_0
 10
385.36083947074309
 20
440.28434978620322
 30
0.0
 11
325.41613947074308
 21
442.37766978620311
 31
0.0
  0
LINE
  5
8036
  8
AM_0
 10
400.41613947074308
 20
432.12861978620322
 30
0.0
 11
400.41613947074308
 21
617.12861978620333
 31
0.0
  0
LINE
  5
8037
  8
AM_0
 10
400.41613947074308
 20
609.62861978620333
 30
0.0
 11
404.41616947074311
 21
609.62861978620333
 31
0.0
  0
LINE
  5
8038
  8
AM_0
 10
394.41613947074308
 20
454.12861978620327
 30
0.0
 11
394.41613947074308
 21
594.80091978620339
 31
0.0
  0
LINE
  5
8039
  8
AM_0
 10
388.72189947074321
 20
610.43427978620343
 30
0.0
 11
390.416169470743
 21
612.12858978620352
 31
0.0
  0
LINE
  5
803A
  8
AM_0
 10
390.41613947074308
 20
434.40922978620353
 30
0.0
 11
390.41613947074308
 21
614.84800978620342
 31
0.0
  0
LINE
  5
803B
  8
AM_0
 10
404.41616947074311
 20
609.62861978620333
 30
0.0
 11
404.41616947074311
 21
439.62861978620322
 31
0.0
  0
LINE
  5
803C
  8
AM_0
 10
392.34634947074312
 20
432.41041978620331
 30
0.0
 11
400.41610947074309
 21
432.12861978620322
 31
0.0
  0
ARC
  5
803D
  8
AM_0
 10
313.41613947074308
 20
447.79975978620342
 30
0.0
 40
5.0
 50
180.00001000000091
 51
267.99999999999949
  0
ARC
  5
803E
  8
AM_0
 10
313.41613947074308
 20
601.45747978620352
 30
0.0
 40
5.0
 50
91.999998000000545
 51
180.00001000000091
  0
ARC
  5
803F
  8
AM_0
 10
305.41613947074308
 20
457.3061397862034
 30
0.0
 40
3.0
 50
0.0
 51
87.999999999999503
  0
ARC
  5
8040
  8
AM_0
 10
305.41613947074308
 20
591.95109978620326
 30
0.0
 40
3.0
 50
272.00000000000051
 51
0.0
  0
ARC
  5
8041
  8
AM_0
 10
393.41613947074308
 20
473.50337978620331
 30
0.0
 40
3.0
 50
90.000003000000945
 51
180.00001000000091
  0
ARC
  5
8042
  8
AM_0
 10
385.18633947074301
 20
613.96983978620324
 30
0.0
 40
5.0
 50
272.00000000000051
 51
315.0
  0
ARC
  5
8043
  8
AM_0
 10
391.41613947074319
 20
594.80091978620339
 30
0.0
 40
3.0
 50
0.0
 51
91.999998000000545
  0
ARC
  5
8044
  8
AM_0
 10
392.416169470743
 20
614.84800978620342
 30
0.0
 40
2.0
 50
91.999998000000545
 51
180.00001000000091
  0
ARC
  5
8045
  8
AM_0
 10
393.41613947074308
 20
575.75385978620352
 30
0.0
 40
3.0
 50
179.999989999999
 51
270.0
  0
ARC
  5
8046
  8
AM_0
 10
392.416169470743
 20
434.40922978620353
 30
0.0
 40
2.0
 50
179.999989999999
 51
268.00000999999861
  0
ARC
  5
8047
  8
AM_0
 10
391.41613947074319
 20
454.45631978620332
 30
0.0
 40
3.0
 50
267.99999999999949
 51
0.0
  0
ARC
  5
8048
  8
AM_0
 10
385.18633947074301
 20
435.28739978620342
 30
0.0
 40
5.0
 50
45.000000999994569
 51
87.999999999999503
  0
POLYLINE
  5
8049
  8
AM_0
 66
     1
 10
0.0
 20
0.0
 30
0.0
  0
VERTEX
  5
804A
  8
AM_0
 10
387.32919947074322
 20
609.04160978620348
 30
0.0
 42
0.081985852
  0
VERTEX
  5
804B
  8
AM_0
 10
365.21330947074313
 20
554.12992978620343
 30
0.0
 42
0.10914194
  0
VERTEX
  5
804C
  8
AM_0
 10
365.21339947074313
 20
495.1269197862033
 30
0.0
 42
0.081985219
  0
VERTEX
  5
804D
  8
AM_0
 10
387.32919947074322
 20
440.21561978620338
 30
0.0
  0
SEQEND
  5
804E
  8
AM_0
  0
TEXT
  5
82A7
  8
AM_0
 10
529.11615954402964
 20
537.77996131262057
 30
0.0
 40
10.0
  1
VX04-060BFW~VX04-100BFW
  0
ENDSEC
  0
EOF
