  0
SECTION
  2
HEADER
  9
$ACADVER
  1
AC1009
  9
$INSBASE
 10
0.0
 20
0.0
 30
0.0
  9
$EXTMIN
 10
109.044733254291
 20
191.3364933984432
 30
-250.41841640509659
  9
$EXTMAX
 10
703.95256986731283
 20
615.75032031905027
 30
8206587.2096418813
  9
$LIMMIN
 10
0.0
 20
0.0
  9
$LIMMAX
 10
853.5
 20
555.00000000000011
  9
$ORTHOMODE
 70
     0
  9
$REGENMODE
 70
     1
  9
$FILLMODE
 70
     1
  9
$QTEXTMODE
 70
     0
  9
$MIRRTEXT
 70
     1
  9
$DRAGMODE
 70
     2
  9
$LTSCALE
 40
3.0
  9
$OSMODE
 70
   551
  9
$ATTMODE
 70
     1
  9
$TEXTSIZE
 40
2.5
  9
$TRACEWID
 40
1.0
  9
$TEXTSTYLE
  7
STANDARD
  9
$CLAYER
  8
AM_0
  9
$CELTYPE
  6
BYLAYER
  9
$CECOLOR
 62
   256
  9
$DIMSCALE
 40
3.0
  9
$DIMASZ
 40
2.5
  9
$DIMEXO
 40
1.0
  9
$DIMDLI
 40
8.0
  9
$DIMRND
 40
0.0
  9
$DIMDLE
 40
0.0
  9
$DIMEXE
 40
0.6
  9
$DIMTP
 40
0.1
  9
$DIMTM
 40
0.1
  9
$DIMTXT
 40
2.5
  9
$DIMCEN
 40
0.0
  9
$DIMTSZ
 40
0.0
  9
$DIMTOL
 70
     0
  9
$DIMLIM
 70
     0
  9
$DIMTIH
 70
     0
  9
$DIMTOH
 70
     0
  9
$DIMSE1
 70
     0
  9
$DIMSE2
 70
     0
  9
$DIMTAD
 70
     1
  9
$DIMZIN
 70
     8
  9
$DIMBLK
  1

  9
$DIMASO
 70
     1
  9
$DIMSHO
 70
     1
  9
$DIMPOST
  1

  9
$DIMAPOST
  1
"
  9
$DIMALT
 70
     0
  9
$DIMALTD
 70
     2
  9
$DIMALTF
 40
0.0393701
  9
$DIMLFAC
 40
1.0
  9
$DIMTOFL
 70
     1
  9
$DIMTVP
 40
0.0
  9
$DIMTIX
 70
     0
  9
$DIMSOXD
 70
     0
  9
$DIMSAH
 70
     0
  9
$DIMBLK1
  1

  9
$DIMBLK2
  1

  9
$DIMSTYLE
  2
AM_ISO
  9
$DIMCLRD
 70
   256
  9
$DIMCLRE
 70
   256
  9
$DIMCLRT
 70
     4
  9
$DIMTFAC
 40
0.71
  9
$DIMGAP
 40
0.8
  9
$LUNITS
 70
     2
  9
$LUPREC
 70
     2
  9
$SKETCHINC
 40
1.0
  9
$FILLETRAD
 40
20.0
  9
$AUNITS
 70
     0
  9
$AUPREC
 70
     0
  9
$MENU
  1
.
  9
$ELEVATION
 40
0.0
  9
$PELEVATION
 40
0.0
  9
$THICKNESS
 40
0.0
  9
$LIMCHECK
 70
     0
  9
$BLIPMODE
 70
     0
  9
$CHAMFERA
 40
6.0
  9
$CHAMFERB
 40
3.0
  9
$SKPOLY
 70
     0
  9
$TDCREATE
 40
2452065.6056192131
  9
$TDUPDATE
 40
2458541.6068554171
  9
$TDINDWG
 40
0.550258669
  9
$TDUSRTIMER
 40
0.5502584722
  9
$USRTIMER
 70
     1
  9
$ANGBASE
 50
0.0
  9
$ANGDIR
 70
     0
  9
$PDMODE
 70
     0
  9
$PDSIZE
 40
0.0
  9
$PLINEWID
 40
0.0
  9
$COORDS
 70
     1
  9
$SPLFRAME
 70
     0
  9
$SPLINETYPE
 70
     6
  9
$SPLINESEGS
 70
     8
  9
$ATTDIA
 70
     1
  9
$ATTREQ
 70
     1
  9
$HANDLING
 70
     1
  9
$HANDSEED
  5
5392
  9
$SURFTAB1
 70
     6
  9
$SURFTAB2
 70
     6
  9
$SURFTYPE
 70
     6
  9
$SURFU
 70
     6
  9
$SURFV
 70
     6
  9
$UCSNAME
  2

  9
$UCSORG
 10
0.0
 20
0.0
 30
0.0
  9
$UCSXDIR
 10
1.0
 20
0.0
 30
0.0
  9
$UCSYDIR
 10
0.0
 20
1.0
 30
0.0
  9
$PUCSNAME
  2

  9
$PUCSORG
 10
0.0
 20
0.0
 30
0.0
  9
$PUCSXDIR
 10
1.0
 20
0.0
 30
0.0
  9
$PUCSYDIR
 10
0.0
 20
1.0
 30
0.0
  9
$USERI1
 70
     0
  9
$USERI2
 70
     0
  9
$USERI3
 70
     0
  9
$USERI4
 70
     0
  9
$USERI5
 70
     0
  9
$USERR1
 40
0.0
  9
$USERR2
 40
0.0
  9
$USERR3
 40
0.0
  9
$USERR4
 40
0.0
  9
$USERR5
 40
0.0
  9
$WORLDVIEW
 70
     1
  9
$SHADEDGE
 70
     3
  9
$SHADEDIF
 70
    70
  9
$TILEMODE
 70
     1
  9
$MAXACTVP
 70
    64
  9
$PLIMCHECK
 70
     0
  9
$PEXTMIN
 10
1.0000000000000000E+020
 20
1.0000000000000000E+020
 30
1.0000000000000000E+020
  9
$PEXTMAX
 10
-1.0000000000000000E+020
 20
-1.0000000000000000E+020
 30
-1.0000000000000000E+020
  9
$PLIMMIN
 10
0.0
 20
0.0
  9
$PLIMMAX
 10
420.0
 20
297.0
  9
$UNITMODE
 70
     0
  9
$VISRETAIN
 70
     1
  9
$PLINEGEN
 70
     0
  9
$PSLTSCALE
 70
     1
  0
ENDSEC
  0
SECTION
  2
TABLES
  0
TABLE
  2
VPORT
 70
     1
  0
VPORT
  2
*ACTIVE
 70
     0
 10
0.0
 20
0.0
 11
1.0
 21
1.0
 12
406.49865156080187
 22
403.54340685874678
 13
0.0
 23
0.0
 14
7.5
 24
7.5
 15
30.0
 25
30.0
 16
0.0
 26
0.0
 36
1.0
 17
0.0
 27
0.0
 37
0.0
 40
427.32742298642358
 41
1.7571592210767459
 42
50.0
 43
0.0
 44
0.0
 50
0.0
 51
0.0
 71
     0
 72
   100
 73
     1
 74
     3
 75
     0
 76
     0
 77
     0
 78
     0
  0
ENDTAB
  0
TABLE
  2
LTYPE
 70
    27
  0
LTYPE
  2
CONTINUOUS
 70
     0
  3
Solid line
 72
    65
 73
     0
 40
0.0
  0
LTYPE
  2
AM_ISO02W050
 70
     0
  3
__ __ __ __ __ __ __ __ __ __ __ __ __ __ __
 72
    65
 73
     2
 40
7.5
 49
6.0
 49
-1.5
  0
LTYPE
  2
AM_ISO08W050
 70
     0
  3
____ . ____ . ____ . ____ . ____ . ____ . ____
 72
    65
 73
     4
 40
18.0
 49
12.0
 49
-1.5
 49
3.0
 49
-1.5
  0
LTYPE
  2
AM_ISO09W050
 70
     0
  3
_____ . . _____ . . _____ . . ____ .. ____
 72
    65
 73
     6
 40
22.5
 49
12.0
 49
-1.5
 49
3.0
 49
-1.5
 49
3.0
 49
-1.5
  0
LTYPE
  2
AMCONSTR
 70
     0
  3
_______________________
 72
    65
 73
     2
 40
9999.0
 49
9999.0
 49
0.0
  0
LTYPE
  2
AM_ISO08W050X2
 70
     0
  3
__ . __ . __ . __ . __ . __
 72
    65
 73
     4
 40
9.0
 49
6.0
 49
-0.75
 49
1.5
 49
-0.75
  0
LTYPE
  2
AM_ISO02W050X2
 70
     0
  3
 _ _ _ _ _ _ _ _ _ _ _ _
 72
    65
 73
     2
 40
3.75
 49
3.0
 49
-0.75
  0
LTYPE
  2
AMZIGZAG
 70
     0
  3
/\/-/\/-/\/-/\/-/\/-/\/
 72
    65
 73
     2
 40
11.0001
 49
0.0001
 49
-11.0
  0
LTYPE
  2
ACISOWELD
 70
     0
  3
_ _ _ _ _
 72
    65
 73
     2
 40
2.0
 49
2.0
 49
-1.0
  0
LTYPE
  2
ACISOTGB
 70
     0
  3
__ . . __ . .
 72
    65
 73
     6
 40
9.0
 49
4.0
 49
-1.0
 49
1.0
 49
-1.0
 49
1.0
 49
-1.0
  0
LTYPE
  2
ACISOTGL
 70
     0
  3
_ _ _ _ _
 72
    65
 73
     2
 40
3.0
 49
2.0
 49
-1.0
  0
LTYPE
  2
CENTER
 70
     0
  3
__ . __
 72
    65
 73
     4
 40
7.0
 49
4.0
 49
-1.0
 49
1.0
 49
-1.0
  0
LTYPE
  2
HIDDEN
 70
     0
  3
Hidden __ __ __ __ __ __ __ __ __ __ __ __ __ _
 72
    65
 73
     2
 40
9.5249999999999986
 49
6.3499999999999979
 49
-3.174999999999998
  0
LTYPE
  2
PHANTOM2
 70
     0
  3
Phantom (.5x) ___ _ _ ___ _ _ ___ _ _ ___ _ _
 72
    65
 73
     6
 40
31.75
 49
15.875
 49
-3.174999999999998
 49
3.174999999999998
 49
-3.174999999999998
 49
3.174999999999998
 49
-3.174999999999998
  0
LTYPE
  2
ACANSTGBM
 70
     0
  3
__ . . __ . .
 72
    65
 73
     6
 40
9.0
 49
4.0
 49
-1.0
 49
1.0
 49
-1.0
 49
1.0
 49
-1.0
  0
LTYPE
  2
ACANSTGLM
 70
     0
  3
_ _ _ _ _
 72
    65
 73
     2
 40
3.0
 49
2.0
 49
-1.0
  0
LTYPE
  2
GEN3B
 70
     0
  3
 - - - - -
 72
    65
 73
     2
 40
1.0
 49
0.5
 49
-0.5
  0
LTYPE
  2
GEN7A
 70
     0
  3
__ . __ . __
 72
    65
 73
     4
 40
7.375
 49
4.75
 49
-0.875
 49
0.875
 49
-0.875
  0
LTYPE
  2
ACJISTGB
 70
     0
  3
__ . . __ . .
 72
    65
 73
     6
 40
9.0
 49
4.0
 49
-1.0
 49
1.0
 49
-1.0
 49
1.0
 49
-1.0
  0
LTYPE
  2
ACJISTGL
 70
     0
  3
_ _ _ _ _
 72
    65
 73
     2
 40
3.0
 49
2.0
 49
-1.0
  0
LTYPE
  2
GEN7
 70
     0
  3
____ . ____ . ____ . ____ . ____ . ____ . ____
 72
    65
 73
     4
 40
14.25
 49
9.75
 49
-1.5
 49
1.5
 49
-1.5
  0
LTYPE
  2
CENTER2
 70
     0
  3
Center (.5x) ___ _ ___ _ ___ _ ___ _ ___ _ ___
 72
    65
 73
     4
 40
1.125
 49
0.75
 49
-0.125
 49
0.125
 49
-0.125
  0
LTYPE
  2
HIDDEN2
 70
     0
  3
Hidden (.5x) _ _ _ _ _ _ _ _ _ _ _ _ _ _ _ _ _
 72
    65
 73
     2
 40
0.1875
 49
0.125
 49
-0.0625
  0
LTYPE
  2
AMZIGZAG2
 70
     0
  3
/\/-/\/-/\/-/\/-/\/-/\/
 72
    65
 73
     2
 40
0.4401
 49
0.0001
 49
-0.4400000000000001
  0
LTYPE
  2
ACANSTGB
 70
     0
  3
__ . . __ . .
 72
    65
 73
     6
 40
0.35433070866
 49
0.15748031496
 49
-0.03937007874
 49
0.03937007874
 49
-0.03937007874
 49
0.03937007874
 49
-0.03937007874
  0
LTYPE
  2
ACANSTGL
 70
     0
  3
_ _ _ _ _
 72
    65
 73
     2
 40
0.11811023622
 49
0.07874015748
 49
-0.03937007874
  0
ENDTAB
  0
TABLE
  2
LAYER
 70
     8
  0
LAYER
  2
0
 70
     0
 62
     7
  6
CONTINUOUS
  0
LAYER
  2
AM_0
 70
     0
 62
     7
  6
CONTINUOUS
  0
LAYER
  2
DEFPOINTS
 70
     0
 62
     7
  6
CONTINUOUS
  0
LAYER
  2
ｶｸﾚｾﾝ2
 70
     0
 62
     3
  6
GEN3B
  0
LAYER
  2
ﾁｭｳｼﾝｾﾝ1
 70
     0
 62
     1
  6
GEN7A
  0
LAYER
  2
AM_0N
 70
     0
 62
     7
  6
CONTINUOUS
  0
LAYER
  2
AM_4
 70
     0
 62
     2
  6
CONTINUOUS
  0
LAYER
  2
ﾁｭｳｼﾝｾﾝ
 70
     0
 62
     1
  6
GEN7
  0
ENDTAB
  0
TABLE
  2
STYLE
 70
    10
  0
STYLE
  2
STANDARD
 70
     0
 40
0.0
 41
0.8299999999999999
 50
0.0
 71
     0
 42
2.5
  3
txt.shx
  4
bigfont.shx
  0
STYLE
  2
ANNOTATIVE
 70
     0
 40
0.0
 41
1.0
 50
0.0
 71
     0
 42
0.2
  3
txt
  4

  0
STYLE
  2

 70
     1
 40
0.0
 41
1.0
 50
0.0
 71
     0
 42
2.5
  3
ltypeshp.shx
  4

  0
STYLE
  2
ACISOTS
 70
     0
 40
1.0
 41
1.0
 50
0.0
 71
     0
 42
2.5
  3
isocp.shx
  4
extfont.shx
  0
STYLE
  2
ACISOGDT
 70
     0
 40
0.0
 41
1.0
 50
0.0
 71
     0
 42
2.5
  3
amgdt.shx
  4

  0
STYLE
  2
ACANSTS
 70
     0
 40
1.0
 41
1.0
 50
0.0
 71
     0
 42
2.5
  3
romans.shx
  4
bigfont.shx
  0
STYLE
  2
ACANSGDT
 70
     0
 40
0.0
 41
1.0
 50
0.0
 71
     0
 42
2.5
  3
amgdt.shx
  4

  0
STYLE
  2
ACJISTS
 70
     0
 40
1.0
 41
1.0
 50
0.0
 71
     0
 42
2.5
  3
isocp.shx
  4
bigfont.shx
  0
STYLE
  2
ACJISGDT
 70
     0
 40
0.0
 41
1.0
 50
0.0
 71
     0
 42
2.5
  3
amgdt.shx
  4

  0
STYLE
  2

 70
     1
 40
0.0
 41
1.0
 50
0.0
 71
     0
 42
2.5
  3
genltshp.shx
  4

  0
ENDTAB
  0
TABLE
  2
VIEW
 70
     6
  0
VIEW
  2
AM_VIEW1
 70
     0
 40
277.50000000000011
 10
249.64779005524869
 20
416.25
 41
499.29558011049721
 11
0.0
 21
0.0
 31
1.0
 12
0.0
 22
0.0
 32
0.0
 42
50.0
 43
0.0
 44
0.0
 50
0.0
 71
     0
  0
VIEW
  2
AM_VIEW2
 70
     0
 40
277.50000000000011
 10
603.85220994475117
 20
416.25
 41
499.29558011049721
 11
0.0
 21
0.0
 31
1.0
 12
0.0
 22
0.0
 32
0.0
 42
50.0
 43
0.0
 44
0.0
 50
0.0
 71
     0
  0
VIEW
  2
AM_VIEW3
 70
     0
 40
277.50000000000011
 10
249.64779005524869
 20
138.75
 41
499.29558011049721
 11
0.0
 21
0.0
 31
1.0
 12
0.0
 22
0.0
 32
0.0
 42
50.0
 43
0.0
 44
0.0
 50
0.0
 71
     0
  0
VIEW
  2
AM_VIEW4
 70
     0
 40
277.50000000000011
 10
603.85220994475117
 20
138.75
 41
499.29558011049721
 11
0.0
 21
0.0
 31
1.0
 12
0.0
 22
0.0
 32
0.0
 42
50.0
 43
0.0
 44
0.0
 50
0.0
 71
     0
  0
VIEW
  2
AM_VIEW5
 70
     0
 40
277.50000000000011
 10
426.75
 20
277.50000000000011
 41
499.2955801104971
 11
0.0
 21
0.0
 31
1.0
 12
0.0
 22
0.0
 32
0.0
 42
50.0
 43
0.0
 44
0.0
 50
0.0
 71
     0
  0
VIEW
  2
AM_VIEW6
 70
     0
 40
554.99445000000014
 10
426.75
 20
277.5
 41
998.5811743093924
 11
0.0
 21
0.0
 31
1.0
 12
0.0
 22
0.0
 32
0.0
 42
50.0
 43
0.0
 44
0.0
 50
0.0
 71
     0
  0
ENDTAB
  0
TABLE
  2
UCS
 70
     0
  0
ENDTAB
  0
TABLE
  2
APPID
 70
   101
  0
APPID
  2
ACAD
 70
     0
  0
APPID
  2
ACADANNOTATIVE
 70
     0
  0
APPID
  2
MCAD_NO_VIS
 70
     0
  0
APPID
  2
ACAD_TEMP_GRAPHIC
 70
     0
  0
APPID
  2
ACATTRIBSERVICES
 70
     0
  0
APPID
  2
GENIUS_GENREC_14
 70
     0
  0
APPID
  2
GENIUS_GENOBJ-N-REC_13
 70
     0
  0
APPID
  2
GENIUS_GENODEF_13
 70
     0
  0
APPID
  2
GENIUS_GENOLIS_13
 70
     0
  0
APPID
  2
GENIUS_GENOBJ-N-TIT_13
 70
     0
  0
APPID
  2
GENIUS_GENOENT_13
 70
     0
  0
APPID
  2
GENIUS_GENTITLE_13
 70
     0
  0
APPID
  2
GENIUS_GENOREF_13
 70
     0
  0
APPID
  2
GENIUS_GENSCREG_15
 70
     0
  0
APPID
  2
GENIUS_GENOBJ-N-SDF_13
 70
     0
  0
APPID
  2
GENIUS_GENFIL_13
 70
     0
  0
APPID
  2
GENIUS_GENOBJ-N-CHA_13
 70
     0
  0
APPID
  2
GENIUS_GENDTOL_13
 70
     0
  0
APPID
  2
GENIUS_GENOBJ-N-FIL_13
 70
     0
  0
APPID
  2
AD_DRAW
 70
     0
  0
APPID
  2
DESIGNERASSEMBLIES
 70
     0
  0
APPID
  2
ASURF_PCURVE_APPNAME
 70
     0
  0
APPID
  2
GENIUS_GE3SECT_13
 70
     0
  0
APPID
  2
GENIUS_GENCFG_13
 70
     0
  0
APPID
  2
GENIUS_GE3CFG0_13
 70
     0
  0
APPID
  2
GENIUS_GENCFG0_13
 70
     0
  0
APPID
  2
GENIUS_GENCFG1_13
 70
     0
  0
APPID
  2
GENIUS_GENCFG2_13
 70
     0
  0
APPID
  2
GENIUS_GENCFG3_13
 70
     0
  0
APPID
  2
GENIUS_GENCFG4_13
 70
     0
  0
APPID
  2
GENIUS_GEVCFG0_13
 70
     0
  0
APPID
  2
GENIUS_GENHINW_13
 70
     0
  0
APPID
  2
GENIUS_FIRSTVISTXT_14
 70
     0
  0
APPID
  2
GENIUS_GENOBJ-N-LEADER_13
 70
     0
  0
APPID
  2
GEV_VCCNULL_SWITCH_OFF
 70
     0
  0
APPID
  2
GENIUS_GEFCFG0_13
 70
     0
  0
APPID
  2
GENIUS_GENZVEED_13
 70
     0
  0
APPID
  2
GENIUS_GENSCREG_13
 70
     0
  0
APPID
  2
GENIUS_DUMCFG0_13
 70
     0
  0
APPID
  2
GEVID936201362
 70
     0
  0
APPID
  2
GEVDC
 70
     0
  0
APPID
  2
GEVCON
 70
     0
  0
APPID
  2
VCC
 70
     0
  0
APPID
  2
GEVPT
 70
     0
  0
APPID
  2
GEVIT
 70
     0
  0
APPID
  2
GENBH
 70
     0
  0
APPID
  2
GEVMK
 70
     0
  0
APPID
  2
GENIUS_GENBH_13
 70
     0
  0
APPID
  2
GENIUS_GENOBJ-NBEHI-BHF_13
 70
     0
  0
APPID
  2
GENIUS_GENOBJ-NBEHI-BHB_13
 70
     0
  0
APPID
  2
GENIUS_GENOBJ-F-DESC_13
 70
     0
  0
APPID
  2
GENIUS_GEFDESC_14
 70
     0
  0
APPID
  2
GENIUS_GENOBJ-F-PART_13
 70
     0
  0
APPID
  2
GENIUS_GEFSTDP_13
 70
     0
  0
APPID
  2
GENIUS_GEFPARTINS_13
 70
     0
  0
APPID
  2
GENIUS_GENTRA_14
 70
     0
  0
APPID
  2
GENIUS_GENINF13_13
 70
     0
  0
APPID
  2
GENIUS_GENOBJ-N-INFOPT_13
 70
     0
  0
APPID
  2
GENIUS_GENOBJ-N-RSSYM_13
 70
     0
  0
APPID
  2
GENIUS_GENSYMENT_13
 70
     0
  0
APPID
  2
GENIUS_GENSCSYM_13
 70
     0
  0
APPID
  2
GENIUS_GEFINFNAM_13
 70
     0
  0
APPID
  2
GENIUS_GENOBJ-N-CEN_13
 70
     0
  0
APPID
  2
GENIUS_GENOBJ-N-CRS_13
 70
     0
  0
APPID
  2
GENIUS_GENOBJ-N-CRC_13
 70
     0
  0
APPID
  2
GENIUS_GENCRC_14
 70
     0
  0
APPID
  2
GEVID942827039
 70
     0
  0
APPID
  2
GEVID942827040
 70
     0
  0
APPID
  2
GEVID942827041
 70
     0
  0
APPID
  2
GENIUS_GENOBJ-F-SCPASSM_13
 70
     0
  0
APPID
  2
GENIUS_GENDIMSH_14
 70
     0
  0
APPID
  2
GEVID942827042
 70
     0
  0
APPID
  2
GEVID946020473
 70
     0
  0
APPID
  2
GEVID946020474
 70
     0
  0
APPID
  2
GEVID946020475
 70
     0
  0
APPID
  2
GENIUS_GENOBJ-N-HTC_13
 70
     0
  0
APPID
  2
GENIUS_GENHATCH_13
 70
     0
  0
APPID
  2
GEVID948854295
 70
     0
  0
APPID
  2
GEVID939402019
 70
     0
  0
APPID
  2
GEVID952919491
 70
     0
  0
APPID
  2
GEVID952919492
 70
     0
  0
APPID
  2
GENIUS_GEFWELD_13
 70
     0
  0
APPID
  2
GENIUS_GENOBJ-F-WELS_13
 70
     0
  0
APPID
  2
GEVID952919493
 70
     0
  0
APPID
  2
GENIUS_GENOBJ-N-RSBK_13
 70
     0
  0
APPID
  2
GENIUS_GENOBJ-N-LIB_13
 70
     0
  0
APPID
  2
GENIUS_GENSCALE_13
 70
     0
  0
APPID
  2
GEVID986376691
 70
     0
  0
APPID
  2
DCO15
 70
     0
  0
APPID
  2
GEVID988070561
 70
     0
  0
APPID
  2
GEVID988070562
 70
     0
  0
APPID
  2
GEVID988070563
 70
     0
  0
APPID
  2
ACADM_DIM_EDIT
 70
     0
  0
APPID
  2
AMDT_DM_ADJ
 70
     0
  0
APPID
  2
ACAD_PSEXT
 70
     0
  0
APPID
  2
ACAD_DSTYLE_DIMJAG
 70
     0
  0
APPID
  2
ACAD_DSTYLE_DIMBREAK
 70
     0
  0
APPID
  2
ACAD_NAV_VCDISPLAY
 70
     0
  0
APPID
  2
ACADANNOPO
 70
     0
  0
APPID
  2
ACAD_EXEMPT_FROM_CAD_STANDARDS
 70
     0
  0
APPID
  2
ACAD_MLEADERVER
 70
     0
  0
ENDTAB
  0
TABLE
  2
DIMSTYLE
 70
    24
  0
DIMSTYLE
  2
STANDARD
 70
     0
  3

  4

  5

  6

  7

 40
1.0
 41
0.18
 42
0.0625
 43
0.38
 44
0.18
 45
0.0
 46
0.0
 47
0.0
 48
0.0
140
0.18
141
0.09
142
0.0
143
25.399999999999999
144
1.0
145
0.0
146
1.0
147
0.09
 71
     0
 72
     0
 73
     1
 74
     1
 75
     0
 76
     0
 77
     0
 78
     0
170
     0
171
     2
172
     0
173
     0
174
     0
175
     0
176
     0
177
     0
178
     0
  0
DIMSTYLE
  2
ANNOTATIVE
 70
     0
  3

  4

  5

  6

  7

 40
1.0
 41
0.18
 42
0.0625
 43
0.38
 44
0.18
 45
0.0
 46
0.0
 47
0.0
 48
0.0
140
0.18
141
0.09
142
0.0
143
25.399999999999999
144
1.0
145
0.0
146
1.0
147
0.09
 71
     0
 72
     0
 73
     1
 74
     1
 75
     0
 76
     0
 77
     0
 78
     0
170
     0
171
     2
172
     0
173
     0
174
     0
175
     0
176
     0
177
     0
178
     0
  0
DIMSTYLE
  2
AM_ISO
 70
     0
  3

  4
"
  5

  6

  7

 40
1.0
 41
2.5
 42
1.0
 43
8.0
 44
0.6
 45
0.0
 46
0.0
 47
0.1
 48
0.1
140
2.5
141
0.0
142
0.0
143
0.0393701
144
1.0
145
0.0
146
0.71
147
0.8
 71
     0
 72
     0
 73
     0
 74
     0
 75
     0
 76
     0
 77
     1
 78
     8
170
     0
171
     2
172
     1
173
     0
174
     0
175
     0
176
   256
177
   256
178
     4
  0
DIMSTYLE
  2
AM_ISO$3
 70
     0
  3

  4
"
  5

  6

  7

 40
1.0
 41
2.5
 42
1.0
 43
8.0
 44
0.6
 45
0.0
 46
0.0
 47
0.1
 48
0.1
140
2.5
141
0.0
142
0.0
143
0.0393701
144
1.0
145
0.0
146
0.71
147
0.8
 71
     0
 72
     0
 73
     0
 74
     1
 75
     0
 76
     0
 77
     1
 78
     8
170
     0
171
     2
172
     0
173
     0
174
     0
175
     0
176
   256
177
   256
178
     4
  0
DIMSTYLE
  2
AM_ISO$4
 70
     0
  3

  4
"
  5

  6

  7

 40
1.0
 41
2.5
 42
1.0
 43
8.0
 44
0.6
 45
0.0
 46
0.0
 47
0.1
 48
0.1
140
2.5
141
0.0
142
0.0
143
0.0393701
144
1.0
145
0.0
146
0.71
147
0.8
 71
     0
 72
     0
 73
     0
 74
     1
 75
     0
 76
     0
 77
     1
 78
     8
170
     0
171
     2
172
     0
173
     0
174
     0
175
     0
176
   256
177
   256
178
     4
  0
DIMSTYLE
  2
AM_ISO$6
 70
     0
  3

  4
"
  5

  6

  7

 40
1.0
 41
2.5
 42
1.0
 43
8.0
 44
0.6
 45
0.0
 46
0.0
 47
0.1
 48
0.1
140
2.5
141
0.0
142
0.0
143
0.0393701
144
1.0
145
0.0
146
0.71
147
0.8
 71
     0
 72
     0
 73
     0
 74
     0
 75
     0
 76
     0
 77
     0
 78
     8
170
     0
171
     2
172
     1
173
     0
174
     0
175
     0
176
   256
177
   256
178
     4
  0
DIMSTYLE
  2
AM_ISO$7
 70
     0
  3

  4
"
  5

  6

  7

 40
1.0
 41
2.5
 42
1.0
 43
8.0
 44
0.6
 45
0.0
 46
0.0
 47
0.1
 48
0.1
140
2.5
141
0.0
142
0.0
143
0.0393701
144
1.0
145
0.0
146
0.71
147
0.8
 71
     0
 72
     0
 73
     0
 74
     0
 75
     0
 76
     0
 77
     1
 78
     8
170
     0
171
     2
172
     1
173
     0
174
     0
175
     0
176
   256
177
   256
178
     4
  0
DIMSTYLE
  2
AM_ISO$SF
 70
     0
  3

  4
"
  5

  6

  7

 40
1.0
 41
2.5
 42
1.0
 43
10.0
 44
1.0
 45
0.0
 46
0.0
 47
0.1
 48
0.1
140
3.5
141
0.0
142
0.0
143
0.0393701
144
1.0
145
0.0
146
0.71
147
1.5
 71
     0
 72
     0
 73
     0
 74
     0
 75
     1
 76
     1
 77
     1
 78
     8
170
     0
171
     2
172
     1
173
     0
174
     0
175
     0
176
   256
177
   256
178
     2
  0
DIMSTYLE
  2
AM_ISO$SH
 70
     0
  3

  4
"
  5

  6

  7

 40
1.0
 41
2.5
 42
1.0
 43
10.0
 44
1.0
 45
0.0
 46
0.0
 47
0.1
 48
0.1
140
3.5
141
0.0
142
0.0
143
0.0393701
144
2.0
145
0.0
146
0.71
147
1.5
 71
     0
 72
     0
 73
     0
 74
     0
 75
     1
 76
     1
 77
     1
 78
     8
170
     0
171
     2
172
     1
173
     1
174
     0
175
     0
176
   256
177
   256
178
     2
  0
DIMSTYLE
  2
AM_JIS
 70
     0
  3

  4
"
  5

  6

  7

 40
1.0
 41
2.5
 42
1.0
 43
7.0
 44
1.0
 45
0.0
 46
0.0
 47
0.1
 48
0.1000000001
140
2.5
141
0.0
142
0.0
143
0.0393701
144
1.0
145
0.0
146
0.71
147
1.0
 71
     0
 72
     0
 73
     0
 74
     0
 75
     0
 76
     0
 77
     3
 78
     8
170
     0
171
     2
172
     1
173
     0
174
     0
175
     0
176
   256
177
   256
178
     4
  0
DIMSTYLE
  2
AM_JIS$3
 70
     0
  3

  4
"
  5

  6

  7

 40
1.0
 41
2.5
 42
1.0
 43
7.0
 44
1.0
 45
0.0
 46
0.0
 47
0.1
 48
0.1000000001
140
2.5
141
0.0
142
0.0
143
0.0393701
144
1.0
145
0.0
146
0.71
147
1.0
 71
     0
 72
     0
 73
     0
 74
     1
 75
     0
 76
     0
 77
     3
 78
     8
170
     0
171
     2
172
     0
173
     0
174
     0
175
     0
176
   256
177
   256
178
     4
  0
DIMSTYLE
  2
AM_JIS$4
 70
     0
  3

  4
"
  5

  6

  7

 40
1.0
 41
2.5
 42
1.0
 43
7.0
 44
1.0
 45
0.0
 46
0.0
 47
0.1
 48
0.1000000001
140
2.5
141
0.0
142
0.0
143
0.0393701
144
1.0
145
0.0
146
0.71
147
1.0
 71
     0
 72
     0
 73
     0
 74
     0
 75
     0
 76
     0
 77
     3
 78
     8
170
     0
171
     2
172
     0
173
     0
174
     0
175
     0
176
   256
177
   256
178
     4
  0
DIMSTYLE
  2
AM_JIS$6
 70
     0
  3

  4
"
  5

  6

  7

 40
1.0
 41
2.5
 42
1.0
 43
7.0
 44
1.0
 45
0.0
 46
0.0
 47
0.1
 48
0.1000000001
140
2.5
141
0.0
142
0.0
143
0.0393701
144
1.0
145
0.0
146
0.71
147
1.0
 71
     0
 72
     0
 73
     0
 74
     0
 75
     0
 76
     0
 77
     0
 78
     8
170
     0
171
     2
172
     1
173
     0
174
     0
175
     0
176
   256
177
   256
178
     4
  0
DIMSTYLE
  2
AM_JIS$7
 70
     0
  3

  4
"
  5

  6

  7

 40
1.0
 41
2.5
 42
1.0
 43
7.0
 44
1.0
 45
0.0
 46
0.0
 47
0.1
 48
0.1000000001
140
2.5
141
0.0
142
0.0
143
0.0393701
144
1.0
145
0.0
146
0.71
147
1.0
 71
     0
 72
     0
 73
     0
 74
     0
 75
     0
 76
     0
 77
     3
 78
     8
170
     0
171
     2
172
     1
173
     0
174
     0
175
     0
176
   256
177
   256
178
     4
  0
DIMSTYLE
  2
AM_JIS$SF
 70
     0
  3

  4
"
  5

  6

  7

 40
1.0
 41
2.5
 42
1.0
 43
10.0
 44
1.0
 45
0.0
 46
0.0
 47
0.1
 48
0.1
140
3.5
141
0.0
142
0.0
143
0.0393701
144
1.0
145
0.0
146
0.71
147
1.5
 71
     0
 72
     0
 73
     0
 74
     0
 75
     1
 76
     1
 77
     3
 78
     8
170
     0
171
     2
172
     1
173
     0
174
     0
175
     0
176
   256
177
   256
178
     4
  0
DIMSTYLE
  2
AM_JIS$SH
 70
     0
  3

  4
"
  5

  6

  7

 40
1.0
 41
2.5
 42
1.0
 43
10.0
 44
1.0
 45
0.0
 46
0.0
 47
0.1
 48
0.1
140
3.5
141
0.0
142
0.0
143
0.0393701
144
1.0
145
0.0
146
0.71
147
1.5
 71
     0
 72
     0
 73
     0
 74
     0
 75
     1
 76
     0
 77
     3
 78
     8
170
     0
171
     2
172
     1
173
     1
174
     0
175
     0
176
   256
177
   256
178
     4
  0
DIMSTYLE
  2
AM_ISO$0
 70
     0
  3

  4
"
  5

  6

  7

 40
1.0
 41
2.5
 42
1.0
 43
8.0
 44
0.6
 45
0.0
 46
0.0
 47
0.1
 48
0.1
140
2.5
141
0.0
142
0.0
143
0.0393701
144
1.0
145
0.0
146
0.71
147
0.8
 71
     0
 72
     0
 73
     0
 74
     0
 75
     0
 76
     0
 77
     1
 78
     8
170
     0
171
     2
172
     1
173
     0
174
     0
175
     0
176
   256
177
   256
178
     4
  0
DIMSTYLE
  2
AM_ISO$2
 70
     0
  3

  4
"
  5

  6

  7

 40
1.0
 41
2.5
 42
1.0
 43
8.0
 44
0.6
 45
0.0
 46
0.0
 47
0.1
 48
0.1
140
2.5
141
0.0
142
0.0
143
0.0393701
144
1.0
145
0.0
146
0.71
147
0.8
 71
     0
 72
     0
 73
     0
 74
     0
 75
     0
 76
     0
 77
     1
 78
     8
170
     0
171
     2
172
     1
173
     0
174
     0
175
     0
176
   256
177
   256
178
     4
  0
DIMSTYLE
  2
AM_ANSI
 70
     0
  3

  4
mm
  5

  6

  7

 40
1.0
 41
0.12
 42
0.05
 43
0.5
 44
0.1
 45
0.0
 46
0.0
 47
0.1
 48
0.1
140
0.12
141
0.0
142
0.0
143
25.399999999999999
144
1.0
145
0.0
146
0.71
147
0.06
 71
     0
 72
     0
 73
     1
 74
     1
 75
     0
 76
     0
 77
     0
 78
     7
170
     0
171
     2
172
     0
173
     0
174
     0
175
     0
176
   256
177
   256
178
     2
  0
DIMSTYLE
  2
AM_ANSI$3
 70
     0
  3

  4
mm
  5

  6

  7

 40
1.0
 41
0.12
 42
0.05
 43
0.5
 44
0.1
 45
0.0
 46
0.0
 47
0.1
 48
0.1
140
0.12
141
0.0
142
0.0
143
25.399999999999999
144
1.0
145
0.0
146
0.71
147
0.06
 71
     0
 72
     0
 73
     1
 74
     1
 75
     0
 76
     0
 77
     0
 78
     7
170
     0
171
     2
172
     0
173
     0
174
     0
175
     0
176
   256
177
   256
178
     2
  0
DIMSTYLE
  2
AM_ANSI$4
 70
     0
  3

  4
mm
  5

  6

  7

 40
1.0
 41
0.12
 42
0.05
 43
0.5
 44
0.1
 45
0.0
 46
0.0
 47
0.1
 48
0.1
140
0.12
141
0.0
142
0.0
143
25.399999999999999
144
1.0
145
0.0
146
0.71
147
0.06
 71
     0
 72
     0
 73
     1
 74
     1
 75
     0
 76
     0
 77
     0
 78
     7
170
     0
171
     2
172
     0
173
     0
174
     0
175
     0
176
   256
177
   256
178
     2
  0
DIMSTYLE
  2
AM_ANSI$7
 70
     0
  3

  4
mm
  5

  6

  7

 40
1.0
 41
0.12
 42
0.05
 43
0.5
 44
0.1
 45
0.0
 46
0.0
 47
0.1
 48
0.1
140
0.12
141
0.0
142
0.0
143
25.399999999999999
144
1.0
145
0.0
146
0.71
147
0.06
 71
     0
 72
     0
 73
     1
 74
     1
 75
     0
 76
     0
 77
     0
 78
     7
170
     0
171
     2
172
     0
173
     0
174
     0
175
     0
176
   256
177
   256
178
     2
  0
DIMSTYLE
  2
AM_ANSI$SF
 70
     0
  3

  4
mm
  5

  6

  7

 40
1.0
 41
0.12
 42
0.05
 43
0.5
 44
0.1
 45
0.0
 46
0.0
 47
0.1
 48
0.1
140
0.12
141
0.0
142
0.0
143
25.399999999999999
144
1.0
145
0.0
146
0.71
147
0.06
 71
     0
 72
     0
 73
     1
 74
     1
 75
     1
 76
     1
 77
     0
 78
     7
170
     0
171
     2
172
     0
173
     0
174
     0
175
     0
176
   256
177
   256
178
     2
  0
DIMSTYLE
  2
AM_ANSI$SH
 70
     0
  3

  4
mm
  5

  6
GENAXEH
  7

 40
1.0
 41
0.12
 42
0.05
 43
0.5
 44
0.1
 45
0.0
 46
0.0
 47
0.1
 48
0.1
140
0.12
141
0.0
142
0.0
143
25.399999999999999
144
1.0
145
0.0
146
0.71
147
0.06
 71
     0
 72
     0
 73
     1
 74
     1
 75
     1
 76
     1
 77
     0
 78
     7
170
     0
171
     2
172
     0
173
     1
174
     0
175
     0
176
   256
177
   256
178
     2
  0
ENDTAB
  0
ENDSEC
  0
SECTION
  2
BLOCKS
  0
BLOCK
  8
0
  2
$MODEL_SPACE
 70
     0
 10
0.0
 20
0.0
 30
0.0
  3
$MODEL_SPACE
  1

  0
ENDBLK
  5
5207
  8
0
  0
BLOCK
 67
     1
  8
0
  2
$PAPER_SPACE
 70
     0
 10
0.0
 20
0.0
 30
0.0
  3
$PAPER_SPACE
  1

  0
ENDBLK
  5
5203
 67
     1
  8
0
  0
BLOCK
  8
0
  2
GENAXEH
 70
     0
 10
0.0
 20
0.0
 30
0.0
  3
GENAXEH
  1

  0
LINE
  5
73
  8
0
 10
-1.0
 20
0.0
 30
0.0
 11
1.0
 21
0.0
 31
0.0
  0
ENDBLK
  5
75
  8
0
  0
BLOCK
  8
0
  2
_OPEN30
 70
     0
 10
0.0
 20
0.0
 30
0.0
  3
_OPEN30
  1

  0
LINE
  5
31A
  8
0
 62
     0
 10
-1.0
 20
0.26794919
 30
0.0
 11
0.0
 21
0.0
 31
0.0
  0
LINE
  5
31B
  8
0
 62
     0
 10
0.0
 20
0.0
 30
0.0
 11
-1.0
 21
-0.26794919
 31
0.0
  0
LINE
  5
31C
  8
0
 62
     0
 10
0.0
 20
0.0
 30
0.0
 11
-1.0
 21
0.0
 31
0.0
  0
ENDBLK
  5
31E
  8
0
  0
BLOCK
  8
0
  2
_NONE
 70
     0
 10
0.0
 20
0.0
 30
0.0
  3
_NONE
  1

  0
ENDBLK
  5
579
  8
0
  0
BLOCK
  8
0
  2
*U5
 70
     1
 10
0.0
 20
0.0
 30
0.0
  3
*U5
  1

  0
TEXT
  5
5112
  8
AM_0
 10
548.76605347416944
 20
539.30466323700603
 30
0.0
 40
10.0
  1
ＶＸ０１－００５～０５０ＢＷ
 41
0.8299999999999999
  0
ENDBLK
  5
5114
  8
0
  0
BLOCK
  8
0
  2
_ACMFILLEDHALF
 70
     0
 10
0.0
 20
0.0
 30
0.0
  3
_ACMFILLEDHALF
  1

  0
TRACE
  5
530C
  8
AM_0
 62
     0
 10
-0.8
 20
0.0
 30
0.0
 11
-1.0
 21
0.166666666
 31
0.0
 12
0.0
 22
0.0
 32
0.0
 13
0.0
 23
0.0
 33
0.0
  0
LINE
  5
530D
  8
AM_0
 62
     0
 10
-1.0
 20
0.0
 30
0.0
 11
-0.8
 21
0.0
 31
0.0
  0
ENDBLK
  5
530B
  8
0
  0
ENDSEC
  0
SECTION
  2
ENTITIES
  0
LINE
  5
1AB5
  8
AM_0
 10
286.77436631399962
 20
226.14376924703629
 30
0.0
 11
289.77436631399939
 21
226.1437692470364
 31
0.0
  0
LINE
  5
1AB7
  8
AM_0
 10
286.77436631399939
 20
302.58986824703629
 30
0.0
 11
289.77436631399939
 21
302.58986824703629
 31
0.0
  0
LINE
  5
1AB8
  8
ﾁｭｳｼﾝｾﾝ
 10
109.0855614416766
 20
264.36685324703632
 30
0.0
 11
319.73794631399932
 21
264.36685324703637
 31
0.0
  0
LINE
  5
1ABA
  8
AM_0
 10
184.98079631399929
 20
208.08360124703631
 30
0.0
 11
281.90053631399928
 21
208.08360124703631
 31
0.0
  0
LINE
  5
1ABB
  8
AM_0
 10
183.45229631399931
 20
227.64376924703629
 30
0.0
 11
190.77436631399939
 21
227.6437692470364
 31
0.0
  0
LINE
  5
1ABC
  8
AM_0
 10
190.77436631399939
 20
230.36685124703629
 30
0.0
 11
184.13977631399911
 21
230.36685124703629
 31
0.0
  0
LINE
  5
1ABD
  8
AM_0
 10
190.77436631399939
 20
228.36685324703629
 30
0.0
 11
184.13977631399911
 21
228.36685324703629
 31
0.0
  0
LINE
  5
1ABE
  8
AM_0
 10
190.77436631399939
 20
300.36686824703639
 30
0.0
 11
184.13977631399911
 21
300.36686824703639
 31
0.0
  0
LINE
  5
1ABF
  8
AM_0
 10
190.77436631399939
 20
298.36685524703643
 30
0.0
 11
184.13977631399911
 21
298.36685524703643
 31
0.0
  0
LINE
  5
1AC0
  8
AM_0
 10
183.45166631399931
 20
301.08986824703618
 30
0.0
 11
190.77436631399939
 21
301.08986824703618
 31
0.0
  0
LINE
  5
1AC1
  8
AM_0
 10
184.98079631399929
 20
320.65010824703643
 30
0.0
 11
281.90053631399928
 21
320.65010824703643
 31
0.0
  0
ARC
  5
1AC3
  8
AM_0
 10
183.45166631399931
 20
299.41195924703618
 30
0.0
 40
1.6779127499999991
 50
90.000003000000945
 51
270.0
  0
ARC
  5
1AC4
  8
AM_0
 10
184.32373631399929
 20
299.36685424703637
 30
0.0
 40
1.0000000199999981
 50
90.000003000000945
 51
270.0
  0
LINE
  5
1ACA
  8
AM_0
 10
181.77436631399931
 20
317.36684824703639
 30
0.0
 11
181.77436631399931
 21
250.96685324703631
 31
0.0
  0
LINE
  5
1ACC
  8
AM_0
 10
187.13983631399941
 20
227.71557724703641
 30
0.0
 11
181.77442631399919
 21
216.2711022470364
 31
0.0
  0
ARC
  5
1ACF
  8
AM_0
 10
218.77435631399931
 20
207.2372112470363
 30
0.0
 40
2.00000007
 50
270.0
 51
0.0
  0
ARC
  5
1AD0
  8
AM_0
 10
218.77435631399931
 20
204.47891224703639
 30
0.0
 40
2.00000007
 50
270.0
 51
0.0
  0
LINE
  5
1AD1
  8
AM_0
 10
220.77436631399939
 20
204.47891224703639
 30
0.0
 11
220.77436631399939
 21
208.08360124703631
 31
0.0
  0
ARC
  5
1AD2
  8
AM_0
 10
218.77435631399931
 20
205.38943324703641
 30
0.0
 40
2.00000007
 50
270.0
 51
0.0
  0
LINE
  5
1AD3
  8
AM_0
 10
181.77436631399931
 20
216.27107224703639
 30
0.0
 11
183.01558631399911
 21
209.71171624703641
 31
0.0
  0
LINE
  5
1AD4
  8
AM_0
 10
181.77436631399931
 20
214.92654424703639
 30
0.0
 11
183.05446631399931
 21
206.9213712470364
 31
0.0
  0
LINE
  5
1AD5
  8
AM_0
 10
181.7743063139992
 20
213.58201624703639
 30
0.0
 11
183.0653863139994
 21
205.0888962470363
 31
0.0
  0
ARC
  5
1AD6
  8
AM_0
 10
184.98079631399929
 20
210.08358724703629
 30
0.0
 40
2.00000007
 50
190.71569
 51
270.0
  0
ARC
  5
1AD7
  8
AM_0
 10
185.0293663139995
 20
207.2372112470363
 30
0.0
 40
2.00000007
 50
189.0849700000002
 51
270.0
  0
LINE
  5
1ADB
  8
AM_0
 10
174.2743763139992
 20
211.36686724703631
 30
0.0
 11
181.77436631399931
 21
211.36686724703631
 31
0.0
  0
ARC
  5
1ADC
  8
AM_0
 10
185.0640463139994
 20
204.47891224703639
 30
0.0
 40
2.00000007
 50
187.94404
 51
270.0
  0
LINE
  5
1ADD
  8
AM_0
 10
181.7743063139992
 20
213.58197124703639
 30
0.0
 11
183.0832063139994
 21
204.20252824703641
 31
0.0
  0
ARC
  5
1ADE
  8
AM_0
 10
185.04274631399949
 20
205.38943324703641
 30
0.0
 40
2.00000007
 50
188.6433899999999
 51
270.0
  0
LINE
  5
1AEA
  8
AM_0
 10
185.0293663139995
 20
205.2372282470364
 30
0.0
 11
218.77435631399931
 21
205.2372282470364
 31
0.0
  0
LINE
  5
1AEB
  8
AM_0
 10
185.04274631399949
 20
203.3894352470364
 30
0.0
 11
218.77435631399931
 21
203.3894352470364
 31
0.0
  0
LINE
  5
1AEC
  8
AM_0
 10
185.0640463139994
 20
202.47892624703641
 30
0.0
 11
218.77435631399931
 21
202.47892624703641
 31
0.0
  0
LINE
  5
1B0F
  8
AM_0
 10
183.45166631399931
 20
297.73404124703637
 30
0.0
 11
190.77436631399939
 21
297.73404124703637
 31
0.0
  0
ARC
  5
1B75
  8
AM_0
 10
183.45229631399931
 20
229.32168724703629
 30
0.0
 40
1.6779175200000001
 50
90.000003000000945
 51
270.0
  0
ARC
  5
1B76
  8
AM_0
 10
184.32373631399929
 20
229.3668672470364
 30
0.0
 40
1.0000000199999981
 50
90.000003000000945
 51
270.0
  0
LINE
  5
1B7D
  8
AM_0
 10
174.4724863139993
 20
221.1753852470363
 30
0.0
 11
180.70228631399951
 21
221.1753852470363
 31
0.0
  0
LINE
  5
1B80
  8
AM_0
 10
183.45229631399931
 20
230.9996202470364
 30
0.0
 11
190.77436631399939
 21
230.9996202470364
 31
0.0
  0
ARC
  5
1BA8
  8
AM_0
 10
218.77435631399931
 20
321.4964982470363
 30
0.0
 40
2.00000007
 50
0.0
 51
90.000003000000945
  0
ARC
  5
1BA9
  8
AM_0
 10
218.77435631399931
 20
323.34419824703639
 30
0.0
 40
2.00000007
 50
0.0
 51
90.000003000000945
  0
ARC
  5
1BAA
  8
AM_0
 10
218.77435631399931
 20
324.25472824703638
 30
0.0
 40
2.00000007
 50
0.0
 51
90.000003000000945
  0
LINE
  5
1BAB
  8
AM_0
 10
220.77436631399939
 20
324.25472824703638
 30
0.0
 11
220.77436631399939
 21
320.65010824703643
 31
0.0
  0
ARC
  5
1BAC
  8
AM_0
 10
184.98079631399929
 20
318.65012824703638
 30
0.0
 40
2.00000007
 50
90.000003000000945
 51
169.28430999999981
  0
ARC
  5
1BAD
  8
AM_0
 10
185.0293663139995
 20
321.4964982470363
 30
0.0
 40
2.00000007
 50
90.000003000000945
 51
170.91502999999969
  0
ARC
  5
1BAE
  8
AM_0
 10
185.04274631399949
 20
323.34419824703639
 30
0.0
 40
2.00000007
 50
90.000003000000945
 51
171.35660999999999
  0
ARC
  5
1BAF
  8
AM_0
 10
185.0640463139994
 20
324.25472824703638
 30
0.0
 40
2.00000007
 50
90.000003000000945
 51
172.05596
  0
LINE
  5
1BB0
  8
AM_0
 10
181.77436631399931
 20
313.8071082470363
 30
0.0
 11
183.05440631399941
 21
321.81224824703628
 31
0.0
  0
LINE
  5
1BB1
  8
AM_0
 10
181.77436631399931
 20
315.15170824703631
 30
0.0
 11
183.0653863139994
 21
323.64476824703638
 31
0.0
  0
LINE
  5
1BB2
  8
AM_0
 10
181.77436631399931
 20
315.15170824703631
 30
0.0
 11
183.0832063139994
 21
324.53111824703637
 31
0.0
  0
LINE
  5
1BB3
  8
AM_0
 10
181.77436631399931
 20
312.46256824703642
 30
0.0
 11
183.01564631399941
 21
319.02197824703632
 31
0.0
  0
LINE
  5
1BB7
  8
AM_0
 10
174.2743763139992
 20
317.36684824703639
 30
0.0
 11
181.77436631399931
 21
317.36684824703639
 31
0.0
  0
LINE
  5
1BCB
  8
AM_0
 10
174.4724863139993
 20
307.55825824703641
 30
0.0
 11
180.70228631399951
 21
307.55825824703641
 31
0.0
  0
LINE
  5
1BD9
  8
AM_0
 10
187.13977631399911
 20
301.0180482470364
 30
0.0
 11
181.77436631399931
 21
312.46253824703638
 31
0.0
  0
LINE
  5
1BDC
  8
AM_0
 10
185.0293663139995
 20
323.49650824703639
 30
0.0
 11
218.77435631399931
 21
323.49650824703639
 31
0.0
  0
LINE
  5
1BDD
  8
AM_0
 10
185.04274631399949
 20
325.34420824703642
 30
0.0
 11
218.77435631399931
 21
325.34420824703642
 31
0.0
  0
LINE
  5
1BDE
  8
AM_0
 10
185.0640463139994
 20
326.2547382470363
 30
0.0
 11
218.77435631399931
 21
326.2547382470363
 31
0.0
  0
LINE
  5
1BE0
  8
AM_0
 10
379.77433631399953
 20
309.36686824703622
 30
0.0
 11
379.77433631399953
 21
209.5572492470364
 31
0.0
  0
ARC
  5
1BE1
  8
AM_0
 10
336.7743763139992
 20
298.83206524703638
 30
0.0
 40
1.0000000199999981
 50
0.0
 51
90.000003000000945
  0
LINE
  5
1BE2
  8
AM_0
 10
337.77433631399958
 20
297.94531624703637
 30
0.0
 11
337.77433631399958
 21
307.49234824703638
 31
0.0
  0
LINE
  5
1BE3
  8
AM_0
 10
333.77437631399931
 20
308.99231824703622
 30
0.0
 11
333.77437631399931
 21
296.44531324703638
 31
0.0
  0
LINE
  5
1BE4
  8
AM_0
 10
306.77437631399931
 20
308.36684824703639
 30
0.0
 11
306.77437631399931
 21
290.14956724703632
 31
0.0
  0
LINE
  5
1BE5
  8
AM_0
 10
315.7743763139992
 20
304.2404682470364
 30
0.0
 11
315.7743763139992
 21
264.36685324703637
 31
0.0
  0
ARC
  5
1BE6
  8
AM_0
 10
286.59646631399937
 20
299.41195924703618
 30
0.0
 40
1.6779127499999991
 50
276.08620038401921
 51
83.913799615980722
  0
LINE
  5
1BE8
  8
ﾁｭｳｼﾝｾﾝ
 10
238.77436631399931
 20
315.36685324703637
 30
0.0
 11
238.77436631399931
 21
213.36685324703629
 31
0.0
  0
LINE
  5
1BE9
  8
AM_0
 10
332.7743863139994
 20
312.58880824703641
 30
0.0
 11
332.7743863139994
 21
293.20507924703628
 31
0.0
  0
LINE
  5
1BEA
  8
AM_0
 10
369.7743763139992
 20
318.2391582470363
 30
0.0
 11
369.7743763139992
 21
233.1342762470363
 31
0.0
  0
LINE
  5
1BEB
  8
AM_0
 10
289.77436631399939
 20
320.36684824703639
 30
0.0
 11
289.77436631399939
 21
208.36686724703631
 31
0.0
  0
LINE
  5
1BEC
  8
AM_0
 10
297.77437631399931
 20
320.36687824703631
 30
0.0
 11
297.77437631399931
 21
208.36686724703631
 31
0.0
  0
LINE
  5
1BED
  8
AM_0
 10
321.7743763139992
 20
324.36686824703622
 30
0.0
 11
321.7743763139992
 21
214.36686724703631
 31
0.0
  0
ARC
  5
1BEE
  8
AM_0
 10
361.77433631399953
 20
289.28427424703642
 30
0.0
 40
5.0000001000000003
 50
90.000003000000945
 51
180.00001
  0
LINE
  5
1BEF
  8
AM_0
 10
364.77433631399953
 20
228.13426324703639
 30
0.0
 11
356.77438631399951
 21
228.13426324703639
 31
0.0
  0
ARC
  5
1BF0
  8
AM_0
 10
361.77433631399953
 20
211.3668372470363
 30
0.0
 40
5.0000001000000003
 50
180.00001
 51
270.0
  0
ARC
  5
1BF1
  8
AM_0
 10
360.77437631399931
 20
196.3668372470363
 30
0.0
 40
1.0000000199999981
 50
0.0
 51
90.000003000000945
  0
LINE
  5
1BF2
  8
ﾁｭｳｼﾝｾﾝ
 10
310.4249563139993
 20
281.36685424703631
 30
0.0
 11
417.7053475441794
 21
281.36685424703631
 31
0.0
  0
LINE
  5
1BF3
  8
AM_0
 10
346.56007631399928
 20
288.7061802470364
 30
0.0
 11
334.77436631399939
 21
206.36682124703631
 31
0.0
  0
LINE
  5
1BF4
  8
AM_0
 10
334.77433631399958
 20
292.99771324703642
 30
0.0
 11
334.77433631399958
 21
206.36685124703641
 31
0.0
  0
LINE
  5
1BF5
  8
AM_0
 10
315.7743763139992
 20
206.36685124703641
 30
0.0
 11
315.7743763139992
 21
264.36685324703637
 31
0.0
  0
LINE
  5
1BF6
  8
AM_0
 10
356.77438631399951
 20
211.3668372470363
 30
0.0
 11
356.77438631399951
 21
289.28427424703642
 31
0.0
  0
LINE
  5
1BF7
  8
AM_0
 10
324.75385631399922
 20
240.19216924703639
 30
0.0
 11
321.08614631399939
 21
209.01629524703631
 31
0.0
  0
LINE
  5
1BF8
  8
AM_0
 10
288.27436631399939
 20
226.1438142470364
 30
0.0
 11
283.83235631399941
 21
209.56594924703629
 31
0.0
  0
LINE
  5
1BF9
  8
AM_0
 10
289.77436631399939
 20
208.36686724703631
 30
0.0
 11
297.77437631399931
 21
208.36686724703631
 31
0.0
  0
LINE
  5
1BFA
  8
AM_0
 10
284.3149063139993
 20
211.36686724703631
 30
0.0
 11
289.77436631399939
 21
211.36686724703631
 31
0.0
  0
ARC
  5
1BFB
  8
AM_0
 10
281.90053631399928
 20
210.08358724703629
 30
0.0
 40
2.00000007
 50
270.0
 51
345.0000000000004
  0
ARC
  5
1BFC
  8
AM_0
 10
314.27437631399931
 20
206.43427924703639
 30
0.0
 40
1.5000000299999989
 50
0.0
 51
88.499997000000747
  0
ARC
  5
1BFD
  8
AM_0
 10
318.10663631399927
 20
209.36685124703629
 30
0.0
 40
3.0
 50
270.0
 51
353.29016000000001
  0
ARC
  5
1BFE
  8
AM_0
 10
300.27436631399939
 20
204.86685124703641
 30
0.0
 40
1.5000000299999989
 50
90.000003000000945
 51
180.00001
  0
LINE
  5
1BFF
  8
AM_0
 10
297.77437631399931
 20
208.36683724703639
 30
0.0
 11
314.31367631399922
 21
207.9337452470364
 31
0.0
  0
LINE
  5
1C00
  8
AM_0
 10
318.10663631399927
 20
206.36685124703641
 30
0.0
 11
300.27436631399939
 21
206.36685124703641
 31
0.0
  0
LINE
  5
1C01
  8
AM_0
 10
318.77437631399931
 20
196.3668372470363
 30
0.0
 11
318.77437631399931
 21
196.3668372470363
 31
0.0
  0
ARC
  5
1C02
  8
AM_0
 10
319.77436631399939
 20
196.3668372470363
 30
0.0
 40
1.0000000199999981
 50
90.000003000000945
 51
180.00001
  0
LINE
  5
1C03
  8
AM_0
 10
298.77436631399939
 20
196.3668372470363
 30
0.0
 11
318.77437631399931
 21
196.3668372470363
 31
0.0
  0
LINE
  5
1C05
  8
ｶｸﾚｾﾝ2
 10
313.77436631399939
 20
196.3668372470363
 30
0.0
 11
313.77436631399939
 21
206.36685124703641
 31
0.0
  0
LINE
  5
1C06
  8
ｶｸﾚｾﾝ2
 10
303.77437631399931
 20
196.3668372470363
 30
0.0
 11
303.77437631399931
 21
206.36685124703641
 31
0.0
  0
LINE
  5
1C07
  8
AM_0
 10
298.77436631399939
 20
196.3668372470363
 30
0.0
 11
298.77436631399939
 21
204.86685124703641
 31
0.0
  0
LINE
  5
1C08
  8
AM_0
 10
319.77436631399939
 20
197.36685124703641
 30
0.0
 11
360.77437631399931
 21
197.36685124703641
 31
0.0
  0
LINE
  5
1C09
  8
AM_0
 10
289.77436631399939
 20
296.30429224703641
 30
0.0
 11
297.77437631399931
 21
296.30429224703641
 31
0.0
  0
LINE
  5
1C0A
  8
AM_0
 10
289.77436631399939
 20
232.42941424703639
 30
0.0
 11
297.77437631399931
 21
232.42941424703639
 31
0.0
  0
LINE
  5
1C0B
  8
AM_0
 10
289.77436631399939
 20
218.36685124703629
 30
0.0
 11
297.77437631399931
 21
218.36685124703629
 31
0.0
  0
ARC
  5
1C15
  8
AM_0
 10
286.59646631399937
 20
229.32168724703629
 30
0.0
 40
1.6779127499999991
 50
276.08620038402319
 51
83.913799615976757
  0
ARC
  5
1C24
  8
AM_0
 10
336.7743763139992
 20
297.94531624703637
 30
0.0
 40
1.0000000199999981
 50
270.0
 51
0.0
  0
ARC
  5
1C25
  8
AM_0
 10
351.50962631399932
 20
287.99771224703642
 30
0.0
 40
5.0000001000000003
 50
90.000003000000945
 51
171.8542400000002
  0
LINE
  5
1C26
  8
AM_0
 10
332.7743863139994
 20
296.44531324703638
 30
0.0
 11
333.77437631399931
 21
296.44531324703638
 31
0.0
  0
ARC
  5
1C27
  8
AM_0
 10
333.77437631399931
 20
293.20507924703628
 30
0.0
 40
1.0000000199999981
 50
179.99999
 51
270.0
  0
LINE
  5
1C28
  8
AM_0
 10
297.77437631399931
 20
296.30429224703641
 30
0.0
 11
306.77437631399931
 21
296.30429224703641
 31
0.0
  0
LINE
  5
1C29
  8
AM_0
 10
306.77437631399931
 20
290.14956724703632
 30
0.0
 11
315.7743763139992
 21
290.14956724703632
 31
0.0
  0
ARC
  5
1C2A
  8
AM_0
 10
321.7743763139992
 20
240.5427102470363
 30
0.0
 40
3.0
 50
353.29016000000001
 51
0.0
  0
LINE
  5
1C2B
  8
AM_0
 10
324.77437631399931
 20
269.11767724703628
 30
0.0
 11
324.77437631399931
 21
240.5427102470363
 31
0.0
  0
ARC
  5
1C2C
  8
AM_0
 10
333.77437631399931
 20
291.20508124703622
 30
0.0
 40
1.0000000199999981
 50
0.0
 51
90.000003000000945
  0
LINE
  5
1C2D
  8
AM_0
 10
333.77437631399931
 20
296.9452842470364
 30
0.0
 11
336.7743763139992
 21
296.9452842470364
 31
0.0
  0
LINE
  5
1C2E
  8
AM_0
 10
334.77433631399958
 20
292.99771324703642
 30
0.0
 11
358.42615631399929
 21
292.99771324703642
 31
0.0
  0
LINE
  5
1C2F
  8
AM_0
 10
297.77437631399931
 20
232.42941424703639
 30
0.0
 11
315.7743763139992
 21
232.42941424703639
 31
0.0
  0
LINE
  5
1C30
  8
AM_0
 10
297.77437631399931
 20
218.36685124703629
 30
0.0
 11
315.7743763139992
 21
218.36685124703629
 31
0.0
  0
ARC
  5
1C31
  8
AM_0
 10
380.27437631399931
 20
204.86685124703641
 30
0.0
 40
1.5000000299999989
 50
0.0
 51
90.000003000000945
  0
ARC
  5
1C32
  8
AM_0
 10
384.7743763139992
 20
209.5572492470364
 30
0.0
 40
5.0000001000000003
 50
179.99999
 51
226.18692999999939
  0
LINE
  5
1C33
  8
AM_0
 10
381.77437631399931
 20
196.3668372470363
 30
0.0
 11
381.77437631399931
 21
204.86685124703641
 31
0.0
  0
LINE
  5
1C34
  8
ｶｸﾚｾﾝ2
 10
376.77433631399953
 20
196.3668372470363
 30
0.0
 11
376.77433631399953
 21
206.36685124703641
 31
0.0
  0
LINE
  5
1C35
  8
AM_0
 10
361.77433631399953
 20
196.3668372470363
 30
0.0
 11
361.77433631399953
 21
196.3668372470363
 31
0.0
  0
LINE
  5
1C37
  8
ｶｸﾚｾﾝ2
 10
366.77437631399931
 20
196.3668372470363
 30
0.0
 11
366.77437631399931
 21
206.36685124703641
 31
0.0
  0
LINE
  5
1C38
  8
AM_0
 10
361.77433631399953
 20
196.3668372470363
 30
0.0
 11
381.77437631399931
 21
196.3668372470363
 31
0.0
  0
LINE
  5
1C39
  8
AM_0
 10
380.27437631399931
 20
206.36685124703641
 30
0.0
 11
361.77433631399953
 21
206.36685124703641
 31
0.0
  0
LINE
  5
1C3C
  8
AM_0
 10
389.77435631399942
 20
290.86685524703643
 30
0.0
 11
389.77435631399942
 21
293.36685324703637
 31
0.0
  0
LINE
  5
1C3D
  8
AM_0
 10
387.77435631399942
 20
290.86685524703631
 30
0.0
 11
411.7743763139992
 21
290.86685524703643
 31
0.0
  0
LINE
  5
1C3E
  8
AM_0
 10
389.77435631399942
 20
293.36685324703637
 30
0.0
 11
411.7743763139992
 21
293.36685324703637
 31
0.0
  0
ARC
  5
1C42
  8
AM_0
 10
380.7743863139994
 20
260.34030124703628
 30
0.0
 40
1.0000000199999981
 50
90.001718873356708
 51
180.00001
  0
LINE
  5
1C43
  8
AM_0
 10
387.7743563139997
 20
271.86685324703632
 30
0.0
 11
411.7743763139992
 21
271.86685324703637
 31
0.0
  0
LINE
  5
1C45
  8
AM_0
 10
411.7743763139992
 20
271.86685324703637
 30
0.0
 11
411.7743763139992
 21
293.36685324703637
 31
0.0
  0
LINE
  5
1C46
  8
AM_0
 10
369.7743763139992
 20
294.28427224703643
 30
0.0
 11
361.77433631399953
 21
294.28427224703643
 31
0.0
  0
ARC
  5
1C47
  8
AM_0
 10
364.77433631399953
 20
233.1342762470363
 30
0.0
 40
5.0000001000000003
 50
270.0
 51
0.0
  0
LINE
  5
1C48
  8
AM_0
 10
321.7743763139992
 20
324.3668382470363
 30
0.0
 11
364.90525631399942
 21
323.23739824703642
 31
0.0
  0
LINE
  5
1C49
  8
AM_0
 10
337.77433631399958
 20
307.88825824703639
 30
0.0
 11
364.77433631399953
 21
307.88825824703639
 31
0.0
  0
LINE
  5
1C4A
  8
AM_0
 10
289.77436631399939
 20
320.36684824703639
 30
0.0
 11
297.77437631399931
 21
320.36684824703639
 31
0.0
  0
LINE
  5
1C4B
  8
AM_0
 10
289.77436631399939
 20
310.36685824703642
 30
0.0
 11
297.77437631399931
 21
310.36685824703642
 31
0.0
  0
LINE
  5
1C4C
  8
AM_0
 10
284.3149063139993
 20
317.36684824703639
 30
0.0
 11
289.77436631399939
 21
317.36684824703639
 31
0.0
  0
ARC
  5
1C4D
  8
AM_0
 10
281.90053631399928
 20
318.65012824703638
 30
0.0
 40
2.00000007
 50
14.999999999999609
 51
90.000003000000945
  0
ARC
  5
1C4E
  8
AM_0
 10
289.42537631399938
 20
304.08986824703641
 30
0.0
 40
1.5000000299999989
 50
195.0000100000002
 51
270.0
  0
LINE
  5
1C4F
  8
AM_0
 10
287.97652631399927
 20
303.70166824703642
 30
0.0
 11
283.83235631399941
 21
319.16774824703617
 31
0.0
  0
ARC
  5
1C50
  8
AM_0
 10
333.77437631399931
 20
312.58880824703641
 30
0.0
 40
1.0000000199999981
 50
90.000003000000945
 51
180.00001
  0
ARC
  5
1C51
  8
AM_0
 10
314.27437631399931
 20
322.29944824703642
 30
0.0
 40
1.5000000299999989
 50
271.49999999999937
 51
0.0
  0
ARC
  5
1C52
  8
AM_0
 10
317.27437631399931
 20
322.74851824703637
 30
0.0
 40
1.5000000299999989
 50
91.500001000001546
 51
180.00001
  0
LINE
  5
1C53
  8
AM_0
 10
317.23513631399942
 20
324.2480082470363
 30
0.0
 11
321.7743763139992
 21
324.36689824703637
 31
0.0
  0
LINE
  5
1C54
  8
AM_0
 10
297.77437631399931
 20
320.36684824703639
 30
0.0
 11
314.31361631399938
 21
320.79995824703627
 31
0.0
  0
LINE
  5
1C55
  8
AM_0
 10
297.77437631399931
 20
310.36685824703642
 30
0.0
 11
315.7743763139992
 21
310.36685824703642
 31
0.0
  0
ARC
  5
1C56
  8
AM_0
 10
333.77437631399931
 20
314.58884824703642
 30
0.0
 40
1.0000000199999981
 50
270.0
 51
0.0
  0
ARC
  5
1C57
  8
AM_0
 10
336.7743763139992
 20
307.49234824703638
 30
0.0
 40
1.0000000199999981
 50
0.0
 51
90.000003000000945
  0
ARC
  5
1C58
  8
AM_0
 10
336.7743763139992
 20
304.60556824703627
 30
0.0
 40
1.0000000199999981
 50
0.0
 51
90.000003000000945
  0
ARC
  5
1C59
  8
AM_0
 10
336.7743763139992
 20
306.60554824703638
 30
0.0
 40
1.0000000199999981
 50
270.0
 51
0.0
  0
ARC
  5
1C5A
  8
AM_0
 10
336.7743763139992
 20
300.83207824703629
 30
0.0
 40
1.0000000199999981
 50
270.0
 51
0.0
  0
LINE
  5
1C5B
  8
AM_0
 10
332.7743863139994
 20
308.99231824703622
 30
0.0
 11
333.77437631399931
 21
308.99231824703622
 31
0.0
  0
LINE
  5
1C5C
  8
AM_0
 10
306.77437631399931
 20
308.36684824703639
 30
0.0
 11
315.7743763139992
 21
308.36684824703639
 31
0.0
  0
LINE
  5
1C5D
  8
AM_0
 10
306.77437631399931
 20
306.97370824703643
 30
0.0
 11
332.7743863139994
 21
306.97370824703643
 31
0.0
  0
LINE
  5
1C5E
  8
AM_0
 10
333.77437631399931
 20
305.60555824703641
 30
0.0
 11
336.7743763139992
 21
305.60555824703641
 31
0.0
  0
LINE
  5
1C5F
  8
AM_0
 10
333.77437631399931
 20
299.8320342470364
 30
0.0
 11
336.7743763139992
 21
299.8320342470364
 31
0.0
  0
LINE
  5
1C60
  8
AM_0
 10
333.77437631399931
 20
308.49230824703642
 30
0.0
 11
336.7743763139992
 21
308.49230824703642
 31
0.0
  0
LINE
  5
1C61
  8
AM_0
 10
347.17438631399932
 20
307.88825824703639
 30
0.0
 11
334.77442631399919
 21
324.02642824703628
 31
0.0
  0
LINE
  5
1C62
  8
AM_0
 10
334.77433631399958
 20
323.92169824703637
 30
0.0
 11
334.77433631399958
 21
308.49230824703642
 31
0.0
  0
LINE
  5
1C63
  8
AM_0
 10
315.7743763139992
 20
322.74851824703637
 30
0.0
 11
315.7743763139992
 21
308.36684824703639
 31
0.0
  0
ARC
  5
1C66
  8
AM_0
 10
380.7743863139994
 20
302.39336824703622
 30
0.0
 40
1.0000000199999981
 50
179.99999
 51
269.99828112664329
  0
ARC
  5
1C67
  8
AM_0
 10
377.77438631399951
 20
309.36686824703622
 30
0.0
 40
2.00000007
 50
0.0
 51
90.000003000000945
  0
ARC
  5
1C68
  8
AM_0
 10
364.77433631399953
 20
318.2391582470363
 30
0.0
 40
5.0000001000000003
 50
0.0
 51
88.499997000000747
  0
ARC
  5
1C69
  8
AM_0
 10
364.77433631399953
 20
302.8882482470363
 30
0.0
 40
5.0000001000000003
 50
0.0
 51
90.000003000000945
  0
ARC
  5
1C6A
  8
AM_0
 10
374.77438631399951
 20
316.36682824703632
 30
0.0
 40
5.0000001000000003
 50
180.00001
 51
270.0
  0
LINE
  5
1C6B
  8
AM_0
 10
374.77438631399951
 20
311.36684824703639
 30
0.0
 11
377.77438631399951
 21
311.36684824703639
 31
0.0
  0
LINE
  5
1C6C
  8
AM_0
 10
675.11148586340732
 20
299.83206424703639
 30
0.0
 11
680.11148686340732
 21
296.94531424703632
 31
0.0
  0
CIRCLE
  5
1C6D
  8
AM_0
 10
680.11148686340732
 20
302.71880824703641
 30
0.0
 40
4.9999998000000003
  0
LINE
  5
1C6E
  8
AM_0
 10
680.11150186340706
 20
296.94531424703632
 30
0.0
 11
685.11150286340717
 21
299.83206424703639
 31
0.0
  0
ARC
  5
1C6F
  8
AM_0
 10
681.69820186340723
 20
303.93632824703627
 30
0.0
 40
11.000000399999999
 50
149.84221000000079
 51
285.16365000000047
  0
LINE
  5
1C70
  8
AM_0
 10
575.14897486340715
 20
299.83206424703639
 30
0.0
 11
580.14897286340727
 21
296.94531424703632
 31
0.0
  0
LINE
  5
1C71
  8
AM_0
 10
580.14897286340727
 20
296.94534424703642
 30
0.0
 11
585.14897386340715
 21
299.83209424703642
 31
0.0
  0
CIRCLE
  5
1C72
  8
AM_0
 10
580.14897286340727
 20
302.71880824703641
 30
0.0
 40
4.9999998000000003
  0
ARC
  5
1C73
  8
AM_0
 10
578.56227286340732
 20
303.93632824703627
 30
0.0
 40
11.000000399999999
 50
254.83635999999959
 51
30.157794999999979
  0
ARC
  5
1C76
  8
AM_0
 10
670.13023786340705
 20
294.36685324703637
 30
0.0
 40
20.000000700000001
 50
6.4023798000000252
 51
61.927515000000341
  0
ARC
  5
1C77
  8
AM_0
 10
630.13023886340727
 20
268.86685324703637
 30
0.0
 40
42.500000999999997
 50
0.0
 51
180.00001
  0
LINE
  5
1C78
  8
ﾁｭｳｼﾝｾﾝ
 10
630.13023886340727
 20
193.29617743639389
 30
0.0
 11
630.13023886340727
 21
373.52745864752478
 31
0.0
  0
ARC
  5
1C79
  8
AM_0
 10
590.13023686340705
 20
294.36685324703637
 30
0.0
 40
20.000000700000001
 50
118.0724800000003
 51
173.59761999999981
  0
LINE
  5
1C7A
  8
AM_0
 10
660.13023886340716
 20
215.8668372470363
 30
0.0
 11
600.13023586340705
 21
215.8668372470363
 31
0.0
  0
LINE
  5
1C7B
  8
AM_0
 10
669.13023886340716
 20
197.36685124703641
 30
0.0
 11
630.13023886340727
 21
197.36685124703641
 31
0.0
  0
LINE
  5
1C7C
  8
ﾁｭｳｼﾝｾﾝ
 10
696.37355839980069
 20
264.36685324703637
 30
0.0
 11
512.96148020426654
 21
264.36685324703637
 31
0.0
  0
ARC
  5
1C7D
  8
AM_0
 10
639.11633686340713
 20
212.86683724703639
 30
0.0
 40
3.0
 50
90.000003000000945
 51
183.18473999999981
  0
ARC
  5
1C7E
  8
AM_0
 10
621.14412286340712
 20
212.86683724703639
 30
0.0
 40
3.0
 50
356.81526000000008
 51
90.000003000000945
  0
ARC
  5
1C7F
  8
AM_0
 10
630.13023886340727
 20
212.36685124703629
 30
0.0
 40
6.0000002999999991
 50
176.81526999999991
 51
3.1847360000000231
  0
ARC
  5
1C80
  8
AM_0
 10
600.13023586340705
 20
210.86685124703629
 30
0.0
 40
5.0000001000000003
 50
90.000003000000945
 51
180.00001
  0
LINE
  5
1C81
  8
AM_0
 10
587.63023786340705
 20
268.86685324703637
 30
0.0
 11
587.63023786340705
 21
209.36685124703629
 31
0.0
  0
LINE
  5
1C82
  8
AM_0
 10
560.13023986340716
 20
206.36683624703639
 30
0.0
 11
570.25496986340715
 21
296.59701724703632
 31
0.0
  0
LINE
  5
1C83
  8
AM_0
 10
560.13026986340708
 20
206.36682124703631
 30
0.0
 11
570.87791986340687
 21
273.8092962470364
 31
0.0
  0
ARC
  5
1C84
  8
AM_0
 10
592.13023786340705
 20
201.86685124703641
 30
0.0
 40
3.0
 50
270.0
 51
0.0
  0
LINE
  5
1C85
  8
AM_0
 10
591.13023586340705
 20
197.36685124703641
 30
0.0
 11
630.13023886340727
 21
197.36685124703641
 31
0.0
  0
ARC
  5
1C86
  8
AM_0
 10
584.63023486340705
 20
209.36685124703629
 30
0.0
 40
3.0
 50
270.0
 51
0.0
  0
LINE
  5
1C87
  8
AM_0
 10
561.63053986346551
 20
206.36685124703641
 30
0.0
 11
588.13023586340705
 21
206.36685124703641
 31
0.0
  0
ARC
  5
1C88
  8
AM_0
 10
591.13023586340705
 20
197.8668372470363
 30
0.0
 40
1.0000000199999981
 50
90.000003000000945
 51
180.00001
  0
ARC
  5
1C89
  8
AM_0
 10
591.13023586340705
 20
196.3668372470363
 30
0.0
 40
1.0000000199999981
 50
90.000003000000945
 51
180.00001
  0
LINE
  5
1C8A
  8
AM_0
 10
590.13023686340705
 20
204.3668502470363
 30
0.0
 11
590.13023686340705
 21
196.3668372470363
 31
0.0
  0
LINE
  5
1C8B
  8
AM_0
 10
591.13023586340705
 20
198.86685124703629
 30
0.0
 11
592.13023786340705
 21
198.86685124703629
 31
0.0
  0
ARC
  5
1C8C
  8
AM_0
 10
588.13023586340705
 20
204.3668502470363
 30
0.0
 40
2.00000007
 50
0.0
 51
90.000003000000945
  0
LINE
  5
1C8D
  8
ｶｸﾚｾﾝ2
 10
577.63023586340717
 20
206.36685124703641
 30
0.0
 11
577.63023586340717
 21
196.3668372470363
 31
0.0
  0
ARC
  5
1C8F
  8
AM_0
 10
561.63023986340716
 20
204.86685124703641
 30
0.0
 40
1.5000000299999989
 50
90.000003000000945
 51
180.00001
  0
LINE
  5
1C90
  8
ｶｸﾚｾﾝ2
 10
567.63023986340727
 20
206.36685124703641
 30
0.0
 11
567.63023986340727
 21
196.3668372470363
 31
0.0
  0
LINE
  5
1C91
  8
AM_0
 10
560.13023986340716
 20
206.36685124703641
 30
0.0
 11
560.13023986340716
 21
196.3668372470363
 31
0.0
  0
LINE
  5
1C93
  8
AM_0
 10
560.13023986340716
 20
196.3668372470363
 30
0.0
 11
590.13023686340705
 21
196.3668372470363
 31
0.0
  0
LINE
  5
1C94
  8
AM_0
 10
659.23929286340729
 20
209.04917824703639
 30
0.0
 11
654.23929186340706
 21
211.93592824703629
 31
0.0
  0
LINE
  5
1C95
  8
AM_0
 10
654.23929186340706
 20
200.38893124703631
 30
0.0
 11
659.23930786340713
 21
203.2756812470364
 31
0.0
  0
LINE
  5
1C96
  8
AM_0
 10
659.23929286340729
 20
203.2756812470364
 30
0.0
 11
659.23929286340729
 21
209.0492082470364
 31
0.0
  0
LINE
  5
1C97
  8
AM_0
 10
649.23927886340687
 20
209.0492082470364
 30
0.0
 11
649.23927886340687
 21
203.2756812470364
 31
0.0
  0
LINE
  5
1C98
  8
AM_0
 10
611.02116586340719
 20
209.04917824703639
 30
0.0
 11
606.0211678634073
 21
211.93592824703629
 31
0.0
  0
LINE
  5
1C99
  8
AM_0
 10
606.02119786340711
 20
211.93592824703629
 30
0.0
 11
601.02119686340734
 21
209.04917824703639
 31
0.0
  0
LINE
  5
1C9A
  8
AM_0
 10
606.02119786340711
 20
200.38893124703631
 30
0.0
 11
611.02119886340734
 21
203.2756812470364
 31
0.0
  0
LINE
  5
1C9B
  8
AM_0
 10
601.02116686340685
 20
203.2756812470364
 30
0.0
 11
606.0211678634073
 21
200.38893124703631
 31
0.0
  0
LINE
  5
1C9C
  8
AM_0
 10
611.02116586340719
 20
203.2756812470364
 30
0.0
 11
611.02116586340719
 21
209.0492082470364
 31
0.0
  0
LINE
  5
1C9D
  8
AM_0
 10
595.13023786340705
 20
210.86685124703629
 30
0.0
 11
595.13023786340705
 21
201.86685124703641
 31
0.0
  0
LINE
  5
1C9E
  8
AM_0
 10
601.02119686340734
 20
209.0492082470364
 30
0.0
 11
601.02119686340734
 21
203.2756812470364
 31
0.0
  0
CIRCLE
  5
1C9F
  8
AM_0
 10
606.0211678634073
 20
206.16246124703639
 30
0.0
 40
4.9999998000000003
  0
CIRCLE
  5
1CA0
  8
AM_0
 10
654.23929186340706
 20
206.16246124703639
 30
0.0
 40
4.9999998000000003
  0
LINE
  5
1CA1
  8
AM_0
 10
649.23929386340706
 20
203.2756812470364
 30
0.0
 11
654.23929186340706
 21
200.38893124703631
 31
0.0
  0
LINE
  5
1CA2
  8
AM_0
 10
654.23930686340725
 20
211.93594324703639
 30
0.0
 11
649.23929386340706
 21
209.04919324703641
 31
0.0
  0
ARC
  5
1CA3
  8
AM_0
 10
579.19429186340687
 20
289.95059524703629
 30
0.0
 40
3.0
 50
92.587449000000873
 51
153.3308499999994
  0
ARC
  5
1CA4
  8
AM_0
 10
583.13023486340705
 20
288.60226624703631
 30
0.0
 40
5.0000001000000003
 50
106.5886099999999
 51
180.00001
  0
LINE
  5
1CA5
  8
AM_0
 10
578.13023686340705
 20
288.60226624703631
 30
0.0
 11
578.13023686340705
 21
246.3668532470364
 31
0.0
  0
ARC
  5
1CA6
  8
AM_0
 10
610.13023786340716
 20
246.3668532470364
 30
0.0
 40
32.000000999999997
 50
179.99999
 51
225.32174000000029
  0
LINE
  5
1CA7
  8
AM_0
 10
570.00470986340713
 20
294.36685324703637
 30
0.0
 11
562.13023886340704
 21
294.36685324703637
 31
0.0
  0
ARC
  5
1CAD
  8
AM_0
 10
630.13023886340727
 20
264.36685324703637
 30
0.0
 40
60.000002999999992
 50
171.12478999999979
 51
172.4492599999999
  0
ARC
  5
1CBA
  8
AM_0
 10
574.3770628634071
 20
288.49341124703642
 30
0.0
 40
5.0000001000000003
 50
74.836354000000199
 51
173.59761999999981
  0
ARC
  5
1CBB
  8
AM_0
 10
630.13023886340727
 20
264.36685324703637
 30
0.0
 40
60.000002999999992
 50
153.3308499999994
 51
170.94545999999971
  0
LINE
  5
1CBC
  8
AM_0
 10
633.13023886340716
 20
287.36685424703637
 30
0.0
 11
633.13023886340716
 21
293.36685424703637
 31
0.0
  0
CIRCLE
  5
1CBD
  8
AM_0
 10
630.13023886340727
 20
281.36685424703631
 30
0.0
 40
2.4999998400000001
  0
LINE
  5
1CBE
  8
AM_0
 10
627.13023886340716
 20
293.36685424703637
 30
0.0
 11
627.13023886340716
 21
287.36685424703637
 31
0.0
  0
LINE
  5
1CBF
  8
AM_0
 10
627.13023886340716
 20
287.36685424703637
 30
0.0
 11
633.13023886340716
 21
287.36685424703637
 31
0.0
  0
LINE
  5
1CC0
  8
AM_0
 10
633.13023886340716
 20
293.36685424703637
 30
0.0
 11
627.13023886340716
 21
293.36685424703637
 31
0.0
  0
CIRCLE
  5
1CC1
  8
AM_4
 10
630.13023886340727
 20
281.36685424703631
 30
0.0
 40
3.0
  0
ARC
  5
1CC2
  8
AM_0
 10
630.13023886340727
 20
281.36685424703631
 30
0.0
 40
9.5000003999999993
 50
108.4084799999998
 51
71.591512000000805
  0
LINE
  5
1CC3
  8
ﾁｭｳｼﾝｾﾝ
 10
587.15342291304955
 20
281.36685424703631
 30
0.0
 11
673.10705481376476
 21
281.36685424703631
 31
0.0
  0
ARC
  5
1CC4
  8
AM_0
 10
660.13023886340716
 20
210.86685124703629
 30
0.0
 40
5.0000001000000003
 50
0.0
 51
90.000003000000945
  0
LINE
  5
1CC5
  8
AM_0
 10
700.1302258634073
 20
206.36683624703639
 30
0.0
 11
690.0054988634073
 21
296.59704724703641
 31
0.0
  0
LINE
  5
1CC6
  8
AM_0
 10
700.13024086340727
 20
206.36682124703631
 30
0.0
 11
689.38257286340695
 21
273.8092962470364
 31
0.0
  0
LINE
  5
1CC7
  8
AM_0
 10
672.63022486340708
 20
268.86685324703637
 30
0.0
 11
672.63022486340708
 21
209.36685124703629
 31
0.0
  0
ARC
  5
1CC8
  8
AM_0
 10
698.63024086340715
 20
204.86685124703641
 30
0.0
 40
1.5000000299999989
 50
0.0
 51
90.000003000000945
  0
LINE
  5
1CC9
  8
AM_0
 10
700.13024086340727
 20
206.36685124703641
 30
0.0
 11
700.13024086340727
 21
196.3668372470363
 31
0.0
  0
ARC
  5
1CCA
  8
AM_0
 10
675.63022486340708
 20
209.36685124703629
 30
0.0
 40
3.0
 50
179.99999
 51
270.0
  0
LINE
  5
1CCB
  8
AM_0
 10
698.62994086340416
 20
206.36685124703641
 30
0.0
 11
672.13023886340727
 21
206.36685124703641
 31
0.0
  0
ARC
  5
1CCC
  8
AM_0
 10
669.13023886340716
 20
197.8668372470363
 30
0.0
 40
1.0000000199999981
 50
0.0
 51
90.000003000000945
  0
ARC
  5
1CCD
  8
AM_0
 10
669.13023886340716
 20
196.3668372470363
 30
0.0
 40
1.0000000199999981
 50
0.0
 51
90.000003000000945
  0
LINE
  5
1CCE
  8
AM_0
 10
669.13023886340716
 20
198.86685124703629
 30
0.0
 11
668.13022486340708
 21
198.86685124703629
 31
0.0
  0
LINE
  5
1CCF
  8
AM_0
 10
670.13023786340705
 20
196.3668372470363
 30
0.0
 11
670.13023786340705
 21
204.3668502470363
 31
0.0
  0
ARC
  5
1CD0
  8
AM_0
 10
668.13022486340708
 20
201.86685124703641
 30
0.0
 40
3.0
 50
179.99999
 51
270.0
  0
LINE
  5
1CD1
  8
ﾁｭｳｼﾝｾﾝ1
 10
687.63022486340685
 20
211.36685124703641
 30
0.0
 11
687.63022486340685
 21
191.3668372470363
 31
0.0
  0
LINE
  5
1CD2
  8
ｶｸﾚｾﾝ2
 10
682.63023886340693
 20
206.36685124703641
 30
0.0
 11
682.63023886340693
 21
196.3668372470363
 31
0.0
  0
LINE
  5
1CD3
  8
ｶｸﾚｾﾝ2
 10
692.63024086340715
 20
206.36685124703641
 30
0.0
 11
692.63024086340715
 21
196.3668372470363
 31
0.0
  0
ARC
  5
1CD4
  8
AM_0
 10
672.13023886340727
 20
204.3668502470363
 30
0.0
 40
2.00000007
 50
90.000003000000945
 51
180.00001
  0
LINE
  5
1CD5
  8
AM_0
 10
665.13022486340697
 20
210.86685124703629
 30
0.0
 11
665.13022486340697
 21
201.86685124703641
 31
0.0
  0
LINE
  5
1CD7
  8
AM_0
 10
700.13024086340727
 20
196.3668372470363
 30
0.0
 11
670.13023786340705
 21
196.3668372470363
 31
0.0
  0
ARC
  5
1CD8
  8
AM_0
 10
685.88342986340717
 20
288.49341124703642
 30
0.0
 40
5.0000001000000003
 50
6.4023798000000252
 51
105.1636400000004
  0
ARC
  5
1CD9
  8
AM_0
 10
677.13022486340708
 20
288.60226624703631
 30
0.0
 40
5.0000001000000003
 50
0.0
 51
73.411384999998432
  0
ARC
  5
1CDA
  8
AM_0
 10
681.06619786340718
 20
289.95059524703629
 30
0.0
 40
3.0
 50
26.669156999999998
 51
87.412548999999274
  0
LINE
  5
1CDB
  8
AM_0
 10
682.13023786340705
 20
288.60226624703631
 30
0.0
 11
682.13023786340705
 21
246.3668532470364
 31
0.0
  0
ARC
  5
1CDC
  8
AM_0
 10
630.13023886340727
 20
264.36685324703637
 30
0.0
 40
60.000002999999992
 50
9.0545419000001992
 51
26.669156999999998
  0
ARC
  5
1CDD
  8
AM_0
 10
650.13022186340731
 20
246.3668532470364
 30
0.0
 40
32.000000999999997
 50
314.67825999999968
 51
0.0
  0
ARC
  5
1CDE
  8
AM_0
 10
630.13023886340727
 20
219.3668502470363
 30
0.0
 40
105.00000300000001
 50
61.927515000000341
 51
118.0724800000003
  0
ARC
  5
1CDF
  8
AM_0
 10
630.13023886340727
 20
264.36685324703637
 30
0.0
 40
60.000002999999992
 50
48.330845000001048
 51
131.66915000000009
  0
ARC
  5
1CE0
  8
AM_0
 10
592.23503386340724
 20
306.94562824703632
 30
0.0
 40
3.0
 50
131.66915000000009
 51
192.41254999999981
  0
LINE
  5
1CE1
  8
AM_0
 10
585.14897386340715
 20
299.83206424703639
 30
0.0
 11
585.14897386340715
 21
305.60555824703641
 31
0.0
  0
LINE
  5
1CE2
  8
AM_0
 10
575.14897486340715
 20
305.60555824703641
 30
0.0
 11
575.14897486340715
 21
299.83206424703639
 31
0.0
  0
LINE
  5
1CE3
  8
AM_0
 10
580.14897286340727
 20
308.4923382470364
 30
0.0
 11
575.14897486340715
 21
305.60558824703639
 31
0.0
  0
LINE
  5
1CE4
  8
AM_0
 10
585.14894386340734
 20
305.60555824703641
 30
0.0
 11
580.14897286340727
 21
308.49230824703642
 31
0.0
  0
ARC
  5
1CE5
  8
AM_0
 10
592.39659286340725
 20
311.97449824703631
 30
0.0
 40
5.0000001000000003
 50
112.16879999999991
 51
210.1577899999993
  0
LINE
  5
1CE6
  8
AM_0
 10
654.63025486340723
 20
321.46850824703643
 30
0.0
 11
654.63025486340723
 21
323.43479824703638
 31
0.0
  0
LINE
  5
1CE7
  8
AM_0
 10
644.63023786340705
 20
323.36081824703638
 30
0.0
 11
644.63023786340705
 21
325.41587824703629
 31
0.0
  0
LINE
  5
1CE8
  8
AM_0
 10
634.63023886340727
 20
324.19787824703627
 30
0.0
 11
634.63023886340727
 21
326.36684824703639
 31
0.0
  0
LINE
  5
1CE9
  8
AM_0
 10
625.63023886340727
 20
324.19787824703627
 30
0.0
 11
625.63023886340727
 21
326.36684824703639
 31
0.0
  0
LINE
  5
1CEA
  8
AM_0
 10
615.63023686340705
 20
323.36081824703638
 30
0.0
 11
615.63023686340705
 21
325.41587824703629
 31
0.0
  0
LINE
  5
1CEB
  8
AM_0
 10
605.63023786340727
 20
321.46850824703643
 30
0.0
 11
605.63023786340727
 21
323.43479824703638
 31
0.0
  0
LINE
  5
1CEC
  8
AM_0
 10
595.63023586340705
 20
318.53714824703638
 30
0.0
 11
595.63023586340705
 21
320.35874824703637
 31
0.0
  0
LINE
  5
1CED
  8
AM_0
 10
664.63023886340716
 20
318.53714824703638
 30
0.0
 11
664.63023886340716
 21
320.35874824703637
 31
0.0
  0
LINE
  5
1CEE
  8
AM_0
 10
685.11150286340717
 20
299.83206424703639
 30
0.0
 11
685.11150286340717
 21
305.60555824703641
 31
0.0
  0
LINE
  5
1CEF
  8
AM_0
 10
680.11150186340706
 20
308.49230824703642
 30
0.0
 11
675.11150086340695
 21
305.60555824703641
 31
0.0
  0
LINE
  5
1CF0
  8
AM_0
 10
675.11148586340732
 20
305.60555824703641
 30
0.0
 11
675.11148586340732
 21
299.83206424703639
 31
0.0
  0
LINE
  5
1CF1
  8
AM_0
 10
685.1114848634071
 20
305.60555824703641
 30
0.0
 11
680.11148686340732
 21
308.49230824703642
 31
0.0
  0
ARC
  5
1CF2
  8
AM_0
 10
668.0254408634072
 20
306.94562824703632
 30
0.0
 40
3.0
 50
347.58745000000022
 51
48.330845000001048
  0
ARC
  5
1CF3
  8
AM_0
 10
667.86388186340707
 20
311.97449824703631
 30
0.0
 40
5.0000001000000003
 50
329.84219999999942
 51
67.831203000001111
  0
LINE
  5
2376
  8
AM_0
 10
282.77436631399951
 20
218.36685324703629
 30
0.0
 11
194.77436631399931
 21
218.36685324703629
 31
0.0
  0
ARC
  5
2377
  8
AM_0
 10
212.84543412586481
 20
223.36685324703629
 30
0.0
 40
5.0
 50
225.0
 51
270.0
1001
GENIUS_GENOBJ-N-FIL_13
1002
{
1000
OWNER
1000
GEN
1002
}
1001
GENIUS_GENODEF_13
1002
{
1000
HIER
1070
     0
1002
}
1002
{
1000
MANEDIT
1070
     0
1002
}
1002
{
1000
NOSEL
1070
     0
1002
}
1002
{
1000
BEHIND
1070
     0
1002
}
1002
{
1000
OTHER
1070
     0
1002
}
1002
{
1000
REACTOR
1002
}
  0
LINE
  5
2378
  8
AM_0
 10
264.04644425264161
 20
223.36685324703629
 30
0.0
 11
213.5022883753571
 21
223.36685324703629
 31
0.0
  0
ARC
  5
2379
  8
AM_0
 10
264.04644425264161
 20
228.36685324703629
 30
0.0
 40
5.0
 50
270.0
 51
315.0
1001
GENIUS_GENOBJ-N-FIL_13
1002
{
1000
OWNER
1000
GEN
1002
}
1001
GENIUS_GENODEF_13
1002
{
1000
HIER
1070
     0
1002
}
1002
{
1000
MANEDIT
1070
     0
1002
}
1002
{
1000
NOSEL
1070
     0
1002
}
1002
{
1000
BEHIND
1070
     0
1002
}
1002
{
1000
OTHER
1070
     0
1002
}
1002
{
1000
REACTOR
1002
}
  0
ARC
  5
237A
  8
AM_0
 10
282.77436631399951
 20
222.3668532470362
 30
0.0
 40
4.0
 50
270.0
 51
0.0
1001
GENIUS_GENOBJ-N-FIL_13
1002
{
1000
OWNER
1000
GEN
1002
}
1001
GENIUS_GENODEF_13
1002
{
1000
HIER
1070
     0
1002
}
1002
{
1000
MANEDIT
1070
     0
1002
}
1002
{
1000
NOSEL
1070
     0
1002
}
1002
{
1000
BEHIND
1070
     0
1002
}
1002
{
1000
OTHER
1070
     0
1002
}
1002
{
1000
REACTOR
1002
}
  0
LINE
  5
237B
  8
AM_0
 10
282.77436631399939
 20
310.36685324703649
 30
0.0
 11
194.77436631399931
 21
310.36685324703649
 31
0.0
  0
ARC
  5
237C
  8
AM_0
 10
264.7032985021338
 20
305.36685324703649
 30
0.0
 40
5.0
 50
45.0
 51
90.0
1001
GENIUS_GENOBJ-N-FIL_13
1002
{
1000
OWNER
1000
GEN
1002
}
1001
GENIUS_GENODEF_13
1002
{
1000
HIER
1070
     0
1002
}
1002
{
1000
MANEDIT
1070
     0
1002
}
1002
{
1000
NOSEL
1070
     0
1002
}
1002
{
1000
BEHIND
1070
     0
1002
}
1002
{
1000
OTHER
1070
     0
1002
}
1002
{
1000
REACTOR
1002
}
  0
ARC
  5
237D
  8
AM_0
 10
212.84543412586501
 20
305.36685324703649
 30
0.0
 40
5.0
 50
90.0
 51
135.0
1001
GENIUS_GENODEF_13
1002
{
1000
HIER
1070
     0
1002
}
1002
{
1000
MANEDIT
1070
     0
1002
}
1002
{
1000
NOSEL
1070
     0
1002
}
1002
{
1000
BEHIND
1070
     0
1002
}
1002
{
1000
OTHER
1070
     0
1002
}
1002
{
1000
REACTOR
1002
}
1001
GENIUS_GENOBJ-N-FIL_13
1002
{
1000
OWNER
1000
GEN
1002
}
  0
LINE
  5
237E
  8
AM_0
 10
264.04644425264149
 20
305.36685324703637
 30
0.0
 11
213.5022883753573
 21
305.36685324703649
 31
0.0
  0
ARC
  5
237F
  8
AM_0
 10
213.5022883753573
 20
300.36685324703649
 30
0.0
 40
5.0
 50
90.0
 51
135.0
1001
GENIUS_GENODEF_13
1002
{
1000
HIER
1070
     0
1002
}
1002
{
1000
MANEDIT
1070
     0
1002
}
1002
{
1000
NOSEL
1070
     0
1002
}
1002
{
1000
BEHIND
1070
     0
1002
}
1002
{
1000
OTHER
1070
     0
1002
}
1002
{
1000
REACTOR
1002
}
1001
GENIUS_GENOBJ-N-FIL_13
1002
{
1000
OWNER
1000
GEN
1002
}
  0
ARC
  5
2380
  8
AM_0
 10
194.77436631399931
 20
306.36685324703637
 30
0.0
 40
4.0
 50
90.0
 51
180.0
1001
GENIUS_GENODEF_13
1002
{
1000
HIER
1070
     0
1002
}
1002
{
1000
MANEDIT
1070
     0
1002
}
1002
{
1000
NOSEL
1070
     0
1002
}
1002
{
1000
BEHIND
1070
     0
1002
}
1002
{
1000
OTHER
1070
     0
1002
}
1002
{
1000
REACTOR
1002
}
1001
GENIUS_GENOBJ-N-FIL_13
1002
{
1000
OWNER
1000
GEN
1002
}
  0
LINE
  5
2382
  8
AM_0
 10
190.77436631399939
 20
306.36685324703637
 30
0.0
 11
190.77436631399939
 21
222.36685324703629
 31
0.0
  0
ARC
  5
2383
  8
AM_0
 10
195.77436631399931
 20
240.43792105890159
 30
0.0
 40
5.0
 50
180.0
 51
225.0
1001
GENIUS_GENOBJ-N-FIL_13
1002
{
1000
OWNER
1000
GEN
1002
}
1001
GENIUS_GENODEF_13
1002
{
1000
HIER
1070
     0
1002
}
1002
{
1000
MANEDIT
1070
     0
1002
}
1002
{
1000
NOSEL
1070
     0
1002
}
1002
{
1000
BEHIND
1070
     0
1002
}
1002
{
1000
OTHER
1070
     0
1002
}
1002
{
1000
REACTOR
1002
}
  0
ARC
  5
2384
  8
AM_0
 10
195.77436631399931
 20
288.29578543517118
 30
0.0
 40
5.0
 50
135.0
 51
180.0
1001
GENIUS_GENOBJ-N-FIL_13
1002
{
1000
OWNER
1000
GEN
1002
}
1001
GENIUS_GENODEF_13
1002
{
1000
HIER
1070
     0
1002
}
1002
{
1000
MANEDIT
1070
     0
1002
}
1002
{
1000
NOSEL
1070
     0
1002
}
1002
{
1000
BEHIND
1070
     0
1002
}
1002
{
1000
OTHER
1070
     0
1002
}
1002
{
1000
REACTOR
1002
}
  0
LINE
  5
2385
  8
AM_0
 10
195.77436631399931
 20
287.63893118567859
 30
0.0
 11
195.77436631399931
 21
241.09477530839399
 31
0.0
  0
ARC
  5
2386
  8
AM_0
 10
200.77436631399931
 20
241.09477530839399
 30
0.0
 40
5.0
 50
180.0
 51
225.0
1001
GENIUS_GENOBJ-N-FIL_13
1002
{
1000
OWNER
1000
GEN
1002
}
1001
GENIUS_GENODEF_13
1002
{
1000
HIER
1070
     0
1002
}
1002
{
1000
MANEDIT
1070
     0
1002
}
1002
{
1000
NOSEL
1070
     0
1002
}
1002
{
1000
BEHIND
1070
     0
1002
}
1002
{
1000
OTHER
1070
     0
1002
}
1002
{
1000
REACTOR
1002
}
  0
ARC
  5
2387
  8
AM_0
 10
194.77436631399931
 20
222.36685324703629
 30
0.0
 40
4.0
 50
180.0
 51
270.0
1001
GENIUS_GENODEF_13
1002
{
1000
HIER
1070
     0
1002
}
1002
{
1000
MANEDIT
1070
     0
1002
}
1002
{
1000
NOSEL
1070
     0
1002
}
1002
{
1000
BEHIND
1070
     0
1002
}
1002
{
1000
OTHER
1070
     0
1002
}
1002
{
1000
REACTOR
1002
}
1001
GENIUS_GENOBJ-N-FIL_13
1002
{
1000
OWNER
1000
GEN
1002
}
  0
LINE
  5
2388
  8
AM_0
 10
286.77436631399939
 20
306.36685324703649
 30
0.0
 11
286.77436631399962
 21
222.3668532470362
 31
0.0
  0
ARC
  5
2389
  8
AM_0
 10
281.77436631399939
 20
288.29578543517101
 30
0.0
 40
5.0
 50
0.0
 51
45.0
1001
GENIUS_GENOBJ-N-FIL_13
1002
{
1000
OWNER
1000
GEN
1002
}
1001
GENIUS_GENODEF_13
1002
{
1000
HIER
1070
     0
1002
}
1002
{
1000
MANEDIT
1070
     0
1002
}
1002
{
1000
NOSEL
1070
     0
1002
}
1002
{
1000
BEHIND
1070
     0
1002
}
1002
{
1000
OTHER
1070
     0
1002
}
1002
{
1000
REACTOR
1002
}
  0
ARC
  5
238A
  8
AM_0
 10
281.77436631399951
 20
240.43792105890171
 30
0.0
 40
5.0
 50
315.0
 51
0.0
1001
GENIUS_GENOBJ-N-FIL_13
1002
{
1000
OWNER
1000
GEN
1002
}
1001
GENIUS_GENODEF_13
1002
{
1000
HIER
1070
     0
1002
}
1002
{
1000
MANEDIT
1070
     0
1002
}
1002
{
1000
NOSEL
1070
     0
1002
}
1002
{
1000
BEHIND
1070
     0
1002
}
1002
{
1000
OTHER
1070
     0
1002
}
1002
{
1000
REACTOR
1002
}
  0
LINE
  5
238B
  8
AM_0
 10
268.23883240806663
 20
308.9023871529692
 30
0.0
 11
285.3099002199321
 21
291.83131934110372
 31
0.0
  0
LINE
  5
238C
  8
AM_0
 10
267.5819781585742
 20
303.90238715296903
 30
0.0
 11
280.30990021993199
 21
291.17446509161152
 31
0.0
  0
ARC
  5
238D
  8
AM_0
 10
264.04644425264149
 20
300.36685324703637
 30
0.0
 40
5.0
 50
45.0
 51
90.0
1001
GENIUS_GENOBJ-N-FIL_13
1002
{
1000
OWNER
1000
GEN
1002
}
1001
GENIUS_GENODEF_13
1002
{
1000
HIER
1070
     0
1002
}
1002
{
1000
MANEDIT
1070
     0
1002
}
1002
{
1000
NOSEL
1070
     0
1002
}
1002
{
1000
BEHIND
1070
     0
1002
}
1002
{
1000
OTHER
1070
     0
1002
}
1002
{
1000
REACTOR
1002
}
  0
LINE
  5
238E
  8
AM_0
 10
281.77436631399928
 20
287.63893118567881
 30
0.0
 11
281.77436631399951
 21
241.09477530839399
 31
0.0
  0
ARC
  5
238F
  8
AM_0
 10
276.77436631399928
 20
287.63893118567881
 30
0.0
 40
5.0
 50
0.0
 51
45.0
1001
GENIUS_GENODEF_13
1002
{
1000
HIER
1070
     0
1002
}
1002
{
1000
MANEDIT
1070
     0
1002
}
1002
{
1000
NOSEL
1070
     0
1002
}
1002
{
1000
BEHIND
1070
     0
1002
}
1002
{
1000
OTHER
1070
     0
1002
}
1002
{
1000
REACTOR
1002
}
1001
GENIUS_GENOBJ-N-FIL_13
1002
{
1000
OWNER
1000
GEN
1002
}
  0
ARC
  5
2390
  8
AM_0
 10
282.77436631399939
 20
306.36685324703649
 30
0.0
 40
4.0
 50
0.0
 51
90.0
1001
GENIUS_GENODEF_13
1002
{
1000
HIER
1070
     0
1002
}
1002
{
1000
MANEDIT
1070
     0
1002
}
1002
{
1000
NOSEL
1070
     0
1002
}
1002
{
1000
BEHIND
1070
     0
1002
}
1002
{
1000
OTHER
1070
     0
1002
}
1002
{
1000
REACTOR
1002
}
1001
GENIUS_GENOBJ-N-FIL_13
1002
{
1000
OWNER
1000
GEN
1002
}
  0
LINE
  5
2392
  8
ﾁｭｳｼﾝｾﾝ1
 10
281.77436631400087
 20
299.36685324703598
 30
0.0
 11
281.7743663140015
 21
311.36685324703598
 31
0.0
  0
LINE
  5
2393
  8
ﾁｭｳｼﾝｾﾝ1
 10
287.77436631400121
 20
305.36685324703581
 30
0.0
 11
275.77436631400121
 21
305.36685324703637
 31
0.0
  0
LINE
  5
2398
  8
AM_0
 10
187.27436631399931
 20
292.86685324703637
 30
0.0
 11
189.77436631399931
 21
292.8668532470366
 31
0.0
  0
LINE
  5
2399
  8
AM_0
 10
189.77436631399931
 20
265.8668532470366
 30
0.0
 11
187.27436631399931
 21
265.86685324703637
 31
0.0
  0
LINE
  5
239A
  8
AM_0
 10
176.3756952176534
 20
268.86685324703649
 30
0.0
 11
176.3756952176534
 21
289.86685324703649
 31
0.0
  0
LINE
  5
239B
  8
AM_0
 10
161.3756952176534
 20
287.39847830105151
 30
0.0
 11
161.3756952176534
 21
271.3352281930205
 31
0.0
  0
LINE
  5
239C
  8
AM_0
 10
174.3756952176534
 20
267.36685324703649
 30
0.0
 11
174.3756952176534
 21
291.36685324703637
 31
0.0
  0
LINE
  5
239D
  8
AM_0
 10
164.8756952176534
 20
279.36685324703649
 30
0.0
 11
165.3756952176534
 21
278.86685324703649
 31
0.0
  0
LINE
  5
239E
  8
AM_0
 10
171.8756952176534
 20
291.06685324703642
 30
0.0
 11
171.8756952176534
 21
267.66685324703639
 31
0.0
  0
LINE
  5
239F
  8
AM_0
 10
181.77436631399931
 20
290.86685324703637
 30
0.0
 11
181.77436631399931
 21
267.86685324703637
 31
0.0
  0
LINE
  5
23A0
  8
AM_0
 10
175.8756952176534
 20
278.6668532470344
 30
0.0
 11
175.8756952176534
 21
280.06685324703739
 31
0.0
  0
LINE
  5
23A1
  8
AM_0
 10
177.97533094422431
 20
270.26685324703652
 30
0.0
 11
177.22533094422539
 21
288.46685324703651
 31
0.0
  0
LINE
  5
23A2
  8
AM_0
 10
177.02436631399939
 20
270.26685324703652
 30
0.0
 11
176.3756952176534
 21
286.00793851835249
 31
0.0
  0
LINE
  5
23A3
  8
AM_0
 10
177.7730589045714
 20
269.5511945346725
 30
0.0
 11
177.02579886116331
 21
289.17922500820339
 31
0.0
  0
LINE
  5
23A4
  8
AM_0
 10
177.2238983970613
 20
269.55448148586839
 30
0.0
 11
176.47533094422539
 21
289.2168532470364
 31
0.0
  0
LINE
  5
23A5
  8
AM_0
 10
174.3756952176534
 20
291.36685324703637
 30
0.0
 11
172.1756952176533
 21
291.36685324703637
 31
0.0
  0
ARC
  5
23A6
  8
AM_0
 10
186.27436631399931
 20
291.86685324703637
 30
0.0
 40
0.5
 50
269.99999999998693
 51
0.0
  0
ARC
  5
23A7
  8
AM_0
 10
187.27436631399931
 20
292.36685324703637
 30
0.0
 40
0.5
 50
90.0
 51
180.0
  0
LINE
  5
23A8
  8
AM_0
 10
186.77436631399931
 20
291.86685324703637
 30
0.0
 11
186.77436631399931
 21
292.36685324703637
 31
0.0
  0
LINE
  5
23A9
  8
AM_0
 10
177.77436631399939
 20
288.46685324703651
 30
0.0
 11
181.27436631399931
 21
288.46685324703651
 31
0.0
  0
LINE
  5
23AA
  8
AM_0
 10
186.77436631399931
 20
290.22292456844337
 30
0.0
 11
186.77436631399931
 21
280.51078192562852
 31
0.0
  0
LINE
  5
23AB
  8
AM_0
 10
182.27436631399931
 20
291.36685324703637
 30
0.0
 11
186.27436631399911
 21
291.36685324703637
 31
0.0
  0
LINE
  5
23AC
  8
AM_0
 10
186.27436631399931
 20
290.72292456844337
 30
0.0
 11
181.77436631399931
 21
290.72292456844337
 31
0.0
  0
ARC
  5
23AD
  8
AM_0
 10
186.27436631399931
 20
290.22292456844337
 30
0.0
 40
0.5
 50
0.0
 51
90.0
  0
ARC
  5
23AE
  8
AM_0
 10
181.27436631399931
 20
288.96685324703628
 30
0.0
 40
0.5
 50
270.0
 51
0.0
  0
ARC
  5
23AF
  8
AM_0
 10
182.27436631399931
 20
290.86685324703637
 30
0.0
 40
0.5
 50
90.0
 51
180.0
  0
LINE
  5
23B0
  8
AM_0
 10
186.27436631399931
 20
280.01078192562852
 30
0.0
 11
181.77436631399931
 21
280.01078192562852
 31
0.0
  0
ARC
  5
23B1
  8
AM_0
 10
186.27436631399931
 20
280.51078192562841
 30
0.0
 40
0.5
 50
270.0
 51
0.0
  0
LINE
  5
23B2
  8
AM_0
 10
175.8756952176534
 20
285.51202399932851
 30
0.0
 11
175.8756952176534
 21
284.33978081289553
 31
0.0
  0
LINE
  5
23B3
  8
AM_0
 10
177.30206337265031
 20
288.46685324703651
 30
0.0
 11
177.77436631399939
 21
288.46685324703651
 31
0.0
  0
LINE
  5
23B4
  8
AM_0
 10
177.20547087811099
 20
288.540971013773
 30
0.0
 11
177.22533094422539
 21
288.46685324703651
 31
0.0
  0
ARC
  5
23B5
  8
AM_0
 10
177.30206337265039
 20
288.56685324703642
 30
0.0
 40
0.1000000000000346
 50
195.00019500644461
 51
270.0
  0
ARC
  5
23B6
  8
AM_0
 10
175.57569521765339
 20
288.65368622754443
 30
0.0
 40
0.3000000000000043
 50
270.0
 51
0.0
  0
LINE
  5
23B7
  8
AM_0
 10
174.3756952176534
 20
290.76685324703652
 30
0.0
 11
175.5956509208105
 21
290.68552286682552
 31
0.0
  0
LINE
  5
23B8
  8
AM_0
 10
174.3756952176534
 20
289.61060121119652
 30
0.0
 11
175.57569521765339
 21
289.61060121119652
 31
0.0
  0
LINE
  5
23B9
  8
AM_0
 10
175.8756952176534
 20
290.36685324703637
 30
0.0
 11
174.3756952176534
 21
290.36685324703637
 31
0.0
  0
ARC
  5
23BA
  8
AM_0
 10
175.8756952176534
 20
289.86685324703649
 30
0.0
 40
0.5
 50
0.0
 51
90.0
  0
LINE
  5
23BB
  8
AM_0
 10
175.8756952176534
 20
290.38618731946849
 30
0.0
 11
175.8756952176534
 21
290.36685324703637
 31
0.0
  0
ARC
  5
23BE
  8
AM_0
 10
175.57569521765339
 20
290.38618731946849
 30
0.0
 40
0.3000000000000007
 50
0.0
 51
86.185925165715304
  0
LINE
  5
23BF
  8
AM_0
 10
176.94763388557431
 20
289.2168532470364
 30
0.0
 11
177.0243663140003
 21
289.2168532470364
 31
0.0
  0
LINE
  5
23C0
  8
AM_0
 10
177.0243663140003
 20
289.2168532470364
 30
0.0
 11
177.0442263801134
 21
289.1427354802999
 31
0.0
  0
LINE
  5
23C1
  8
AM_0
 10
176.45547087811121
 20
289.1427354802999
 30
0.0
 11
176.47533094422539
 21
289.2168532470364
 31
0.0
  0
LINE
  5
23C2
  8
AM_0
 10
176.47533094422539
 20
289.2168532470364
 30
0.0
 11
176.55206337265031
 21
289.2168532470364
 31
0.0
  0
LINE
  5
23C3
  8
AM_0
 10
177.0442263801134
 20
289.1427354802999
 30
0.0
 11
177.20547087811099
 21
288.540971013773
 31
0.0
  0
LINE
  5
23C4
  8
AM_0
 10
176.55206337265031
 20
289.2168532470364
 30
0.0
 11
176.94763388557431
 21
289.2168532470364
 31
0.0
  0
LINE
  5
23C5
  8
AM_0
 10
176.37569521765431
 20
288.84501271547549
 30
0.0
 11
176.45547087811121
 21
289.1427354802999
 31
0.0
  0
ARC
  5
23C6
  8
AM_0
 10
176.94763388557439
 20
289.11685324703637
 30
0.0
 40
0.0999999999999866
 50
15.00019500656942
 51
90.0
  0
ARC
  5
23C7
  8
AM_0
 10
176.55206337265039
 20
289.11685324703637
 30
0.0
 40
0.1000000000000014
 50
90.0
 51
164.99980499343059
  0
LINE
  5
23C8
  8
AM_0
 10
175.8756952176534
 20
289.31060121119651
 30
0.0
 11
175.8756952176534
 21
288.65368622754443
 31
0.0
  0
ARC
  5
23C9
  8
AM_0
 10
175.57569521765339
 20
289.31060121119629
 30
0.0
 40
0.3000000000000007
 50
0.0
 51
90.0
  0
LINE
  5
23CA
  8
AM_0
 10
174.3756952176534
 20
285.81202399932852
 30
0.0
 11
175.57569521765339
 21
285.81202399932852
 31
0.0
  0
LINE
  5
23CB
  8
AM_0
 10
175.57569521765339
 20
288.35368622754447
 30
0.0
 11
174.3756952176534
 21
288.35368622754447
 31
0.0
  0
LINE
  5
23CC
  8
AM_0
 10
177.22533094422539
 20
288.46685324703651
 30
0.0
 11
177.30206337265031
 21
288.46685324703651
 31
0.0
  0
ARC
  5
23CD
  8
AM_0
 10
175.57569521765339
 20
285.51202399932851
 30
0.0
 40
0.3000000000000007
 50
0.0
 51
90.0
  0
LINE
  5
23CE
  8
AM_0
 10
175.57569521765339
 20
284.03978081289551
 30
0.0
 11
174.3756952176534
 21
284.03978081289551
 31
0.0
  0
ARC
  5
23CF
  8
AM_0
 10
175.57569521765339
 20
284.33978081289553
 30
0.0
 40
0.3000000000000043
 50
270.0
 51
0.0
  0
LINE
  5
23D0
  8
AM_0
 10
175.57569521765339
 20
280.36685324703762
 30
0.0
 11
174.3756952176534
 21
280.36685324703762
 31
0.0
  0
ARC
  5
23D1
  8
AM_0
 10
175.57569521765339
 20
280.06685324703739
 30
0.0
 40
0.3000000000000007
 50
0.0
 51
90.0
  0
LINE
  5
23D2
  8
AM_0
 10
165.3756952176534
 20
289.50013307568338
 30
0.0
 11
171.8756952176534
 21
289.50013307568338
 31
0.0
  0
LINE
  5
23D3
  8
AM_0
 10
165.3756952176534
 20
290.00013307568338
 30
0.0
 11
171.8756952176534
 21
290.00013307568338
 31
0.0
  0
LINE
  5
23D4
  8
AM_0
 10
171.8756952176534
 20
279.86685324703649
 30
0.0
 11
165.3756952176534
 21
279.86685324703649
 31
0.0
  0
LINE
  5
23D5
  8
AM_0
 10
164.8756952176534
 20
280.36685324703649
 30
0.0
 11
171.8756952176534
 21
280.36685324703649
 31
0.0
  0
LINE
  5
23D6
  8
AM_0
 10
171.57569521765339
 20
290.36685324703637
 30
0.0
 11
164.73774515283529
 21
290.36685324703637
 31
0.0
  0
LINE
  5
23D7
  8
AM_0
 10
171.8756952176534
 20
280.71354131557757
 30
0.0
 11
165.3756952176534
 21
280.71354131557757
 31
0.0
  0
LINE
  5
23D8
  8
AM_0
 10
171.8756952176534
 20
289.02016517849552
 30
0.0
 11
165.3756952176534
 21
289.02016517849552
 31
0.0
  0
ARC
  5
23D9
  8
AM_0
 10
172.1756952176533
 20
291.06685324703642
 30
0.0
 40
0.2999999999999971
 50
90.0
 51
180.0
  0
ARC
  5
23DA
  8
AM_0
 10
171.57569521765339
 20
290.66685324703639
 30
0.0
 40
0.2999999999999971
 50
270.0
 51
0.0
  0
ARC
  5
23DB
  8
AM_0
 10
173.5006952176534
 20
284.86685324703637
 30
0.0
 40
9.124999999999984
 50
152.92493329272219
 51
207.07506670727781
  0
LINE
  5
23DC
  8
AM_0
 10
164.09756075317091
 20
290.13507452663401
 30
0.0
 11
161.73551081798891
 21
288.16669958064892
 31
0.0
  0
LINE
  5
23DD
  8
AM_0
 10
164.8756952176534
 20
289.78842066352843
 30
0.0
 11
165.3756952176534
 21
290.36685324703637
 31
0.0
  0
ARC
  5
23DE
  8
AM_0
 10
164.73774515283529
 20
289.36685324703637
 30
0.0
 40
1.0
 50
90.0
 51
129.805571092256
  0
LINE
  5
23DF
  8
AM_0
 10
165.3756952176534
 20
290.00013307568338
 30
0.0
 11
164.8756952176534
 21
289.78842066352843
 31
0.0
  0
LINE
  5
23E0
  8
AM_0
 10
164.8756952176534
 20
289.32614539055737
 30
0.0
 11
165.3756952176534
 21
290.00013307568338
 31
0.0
  0
LINE
  5
23E1
  8
AM_0
 10
165.3756952176534
 20
289.50013307568338
 30
0.0
 11
164.8756952176534
 21
289.32614539055737
 31
0.0
  0
LINE
  5
23E2
  8
AM_0
 10
164.8756952176534
 20
288.78842066352843
 30
0.0
 11
165.3756952176534
 21
289.50013307568338
 31
0.0
  0
LINE
  5
23E3
  8
AM_0
 10
165.3756952176534
 20
289.02016517849552
 30
0.0
 11
164.8756952176534
 21
288.78842066352843
 31
0.0
  0
ARC
  5
23E4
  8
AM_0
 10
162.3756952176534
 20
287.39847830105151
 30
0.0
 40
1.0000000000000291
 50
129.80557109226311
 51
180.0
  0
LINE
  5
23E5
  8
AM_0
 10
165.3756952176534
 20
279.86685324703649
 30
0.0
 11
164.8756952176534
 21
279.36685324703649
 31
0.0
  0
LINE
  5
23E6
  8
AM_0
 10
164.8756952176534
 20
280.36685324703649
 30
0.0
 11
165.3756952176534
 21
279.86685324703649
 31
0.0
  0
LINE
  5
23E7
  8
AM_0
 10
165.3756952176534
 20
280.71354131557757
 30
0.0
 11
164.8756952176534
 21
280.36685324703649
 31
0.0
  0
LINE
  5
23E8
  8
AM_0
 10
172.1756952176533
 20
267.36685324703649
 30
0.0
 11
174.3756952176534
 21
267.36685324703649
 31
0.0
  0
ARC
  5
23E9
  8
AM_0
 10
186.27436631399931
 20
266.86685324703637
 30
0.0
 40
0.5
 50
0.0
 51
90.000000000009777
  0
LINE
  5
23EA
  8
AM_0
 10
181.27436631399931
 20
270.26685324703652
 30
0.0
 11
178.05206337265031
 21
270.26685324703652
 31
0.0
  0
LINE
  5
23EB
  8
AM_0
 10
186.77436631399931
 20
278.22292456844337
 30
0.0
 11
186.77436631399931
 21
268.51078192562841
 31
0.0
  0
LINE
  5
23EC
  8
AM_0
 10
181.77436631399931
 20
278.72292456844337
 30
0.0
 11
186.27436631399931
 21
278.72292456844337
 31
0.0
  0
ARC
  5
23ED
  8
AM_0
 10
186.27436631399931
 20
278.22292456844337
 30
0.0
 40
0.5
 50
0.0
 51
90.0
  0
LINE
  5
23EE
  8
AM_0
 10
181.77436631399931
 20
268.01078192562841
 30
0.0
 11
186.27436631399931
 21
268.01078192562841
 31
0.0
  0
LINE
  5
23EF
  8
AM_0
 10
186.27436631399911
 20
267.36685324703637
 30
0.0
 11
182.27436631399931
 21
267.36685324703637
 31
0.0
  0
ARC
  5
23F0
  8
AM_0
 10
186.27436631399931
 20
268.51078192562841
 30
0.0
 40
0.5
 50
270.0
 51
0.0
  0
ARC
  5
23F1
  8
AM_0
 10
181.27436631399931
 20
269.76685324703652
 30
0.0
 40
0.5
 50
0.0
 51
90.0
  0
ARC
  5
23F2
  8
AM_0
 10
182.27436631399931
 20
267.86685324703637
 30
0.0
 40
0.5
 50
180.0
 51
270.0
  0
ARC
  5
23F3
  8
AM_0
 10
175.57569521765339
 20
273.22168249474441
 30
0.0
 40
0.3000000000000114
 50
270.0
 51
0.0
  0
LINE
  5
23F4
  8
AM_0
 10
174.3756952176534
 20
278.36685324703438
 30
0.0
 11
175.57569521765339
 21
278.36685324703438
 31
0.0
  0
ARC
  5
23F5
  8
AM_0
 10
175.57569521765339
 20
278.6668532470344
 30
0.0
 40
0.2999999999999971
 50
270.0
 51
0.0
  0
LINE
  5
23F6
  8
AM_0
 10
174.3756952176534
 20
274.69392568117752
 30
0.0
 11
175.57569521765339
 21
274.69392568117752
 31
0.0
  0
ARC
  5
23F7
  8
AM_0
 10
175.57569521765339
 20
274.39392568117739
 30
0.0
 40
0.3000000000000007
 50
0.0
 51
90.0
  0
LINE
  5
23F8
  8
AM_0
 10
175.8756952176534
 20
274.39392568117751
 30
0.0
 11
175.8756952176534
 21
273.22168249474453
 31
0.0
  0
LINE
  5
23F9
  8
AM_0
 10
177.30206337265031
 20
269.51685324703652
 30
0.0
 11
177.69763388557431
 21
269.51685324703652
 31
0.0
  0
LINE
  5
23FA
  8
AM_0
 10
177.30206337265031
 20
269.51685324703652
 30
0.0
 11
177.69763388557431
 21
269.51685324703652
 31
0.0
  0
LINE
  5
23FB
  8
AM_0
 10
177.7942263801134
 20
269.59097101377301
 30
0.0
 11
177.95547087811121
 21
270.19273548029997
 31
0.0
  0
LINE
  5
23FC
  8
AM_0
 10
177.7942263801134
 20
269.59097101377301
 30
0.0
 11
177.95547087811121
 21
270.19273548029997
 31
0.0
  0
ARC
  5
23FD
  8
AM_0
 10
178.05206337265031
 20
270.16685324703639
 30
0.0
 40
0.0999999999999943
 50
90.0
 51
164.9998049934847
  0
ARC
  5
23FE
  8
AM_0
 10
177.69763388557431
 20
269.61685324703637
 30
0.0
 40
0.0999999999999943
 50
270.0
 51
344.99980499349448
  0
LINE
  5
23FF
  8
AM_0
 10
176.37484862911231
 20
269.89185324703618
 30
0.0
 11
176.45547087811121
 21
270.19273548029997
 31
0.0
  0
LINE
  5
2400
  8
AM_0
 10
177.0270769662053
 20
270.22758871393842
 30
0.0
 11
177.2054708781111
 21
269.59097101377301
 31
0.0
  0
LINE
  5
2401
  8
AM_0
 10
177.0442263801134
 20
270.19273548029997
 30
0.0
 11
177.2054708781111
 21
269.59097101377301
 31
0.0
  0
LINE
  5
2402
  8
AM_0
 10
175.8756952176534
 20
270.08002026652758
 30
0.0
 11
175.8756952176534
 21
269.42310528287652
 31
0.0
  0
LINE
  5
2403
  8
AM_0
 10
176.3756952176534
 20
269.89501271547442
 30
0.0
 11
176.45547087811121
 21
270.19273548029997
 31
0.0
  0
LINE
  5
2404
  8
AM_0
 10
174.3756952176534
 20
270.38002026652748
 30
0.0
 11
175.57569521765339
 21
270.38002026652748
 31
0.0
  0
LINE
  5
2405
  8
AM_0
 10
175.57569521765339
 20
272.92168249474452
 30
0.0
 11
174.3756952176534
 21
272.92168249474338
 31
0.0
  0
LINE
  5
2406
  8
AM_0
 10
176.98026615108941
 20
270.26685324703652
 30
0.0
 11
177.0270769662053
 21
270.22758871393842
 31
0.0
  0
LINE
  5
2407
  8
AM_0
 10
176.55206337265031
 20
270.26685324703652
 30
0.0
 11
176.98026615108941
 21
270.26685324703652
 31
0.0
  0
LINE
  5
2408
  8
AM_0
 10
176.55206337265031
 20
270.26685324703652
 30
0.0
 11
176.94763388557431
 21
270.26685324703652
 31
0.0
  0
ARC
  5
2409
  8
AM_0
 10
176.55206337265031
 20
270.16685324703639
 30
0.0
 40
0.0999999999999943
 50
90.0
 51
164.9998049934847
  0
ARC
  5
240A
  8
AM_0
 10
176.94763388557431
 20
270.16685324703639
 30
0.0
 40
0.0999999999999608
 50
15.00019500651571
 51
90.0
  0
ARC
  5
240B
  8
AM_0
 10
175.57569521765339
 20
270.08002026652741
 30
0.0
 40
0.3000000000000007
 50
0.0
 51
90.0
  0
LINE
  5
240C
  8
AM_0
 10
174.3756952176534
 20
268.36685324703649
 30
0.0
 11
175.8756952176534
 21
268.36685324703649
 31
0.0
  0
LINE
  5
240D
  8
AM_0
 10
175.57569521765339
 20
269.12310528287651
 30
0.0
 11
174.3756952176534
 21
269.12310528287651
 31
0.0
  0
LINE
  5
240E
  8
AM_0
 10
175.5956509208105
 20
268.04818362724637
 30
0.0
 11
174.3756952176534
 21
267.96685324703651
 31
0.0
  0
ARC
  5
240F
  8
AM_0
 10
175.8756952176534
 20
268.86685324703637
 30
0.0
 40
0.5
 50
270.0
 51
0.0
  0
ARC
  5
2410
  8
AM_0
 10
177.30206337265031
 20
269.61685324703637
 30
0.0
 40
0.0999999999999606
 50
195.00019500650541
 51
270.0
  0
ARC
  5
2411
  8
AM_0
 10
175.57569521765339
 20
269.42310528287652
 30
0.0
 40
0.2999999999999971
 50
270.0
 51
0.0
  0
LINE
  5
2412
  8
AM_0
 10
175.8756952176534
 20
268.36685324703649
 30
0.0
 11
175.8756952176534
 21
268.34751917460352
 31
0.0
  0
ARC
  5
2413
  8
AM_0
 10
175.57569521765339
 20
268.34751917460352
 30
0.0
 40
0.3000000000000043
 50
273.81407483428472
 51
0.0
  0
ARC
  5
2414
  8
AM_0
 10
187.27436631399931
 20
266.36685324703637
 30
0.0
 40
0.5
 50
180.0
 51
270.0
  0
LINE
  5
2415
  8
AM_0
 10
186.77436631399931
 20
266.36685324703637
 30
0.0
 11
186.77436631399931
 21
266.86685324703637
 31
0.0
  0
LINE
  5
2416
  8
AM_0
 10
165.3756952176534
 20
269.71354131557757
 30
0.0
 11
171.8756952176534
 21
269.71354131557757
 31
0.0
  0
LINE
  5
2417
  8
AM_0
 10
165.3756952176534
 20
278.02016517849552
 30
0.0
 11
171.8756952176534
 21
278.02016517849552
 31
0.0
  0
LINE
  5
2418
  8
AM_0
 10
164.73774515283529
 20
268.36685324703649
 30
0.0
 11
171.57569521765339
 21
268.36685324703649
 31
0.0
  0
LINE
  5
2419
  8
AM_0
 10
171.8756952176534
 20
278.36685324703649
 30
0.0
 11
164.8756952176534
 21
278.36685324703649
 31
0.0
  0
LINE
  5
241A
  8
AM_0
 10
165.3756952176534
 20
278.86685324703649
 30
0.0
 11
171.8756952176534
 21
278.86685324703649
 31
0.0
  0
LINE
  5
241B
  8
AM_0
 10
171.8756952176534
 20
268.73357341838852
 30
0.0
 11
165.3756952176534
 21
268.73357341838852
 31
0.0
  0
LINE
  5
241C
  8
AM_0
 10
171.8756952176534
 20
269.23357341838852
 30
0.0
 11
165.3756952176534
 21
269.23357341838852
 31
0.0
  0
ARC
  5
241D
  8
AM_0
 10
171.57569521765339
 20
268.06685324703642
 30
0.0
 40
0.3000000000000043
 50
0.0
 51
90.0
  0
ARC
  5
241E
  8
AM_0
 10
172.1756952176533
 20
267.66685324703639
 30
0.0
 40
0.2999999999999971
 50
180.0
 51
270.0
  0
ARC
  5
241F
  8
AM_0
 10
173.5006952176534
 20
273.86685324703637
 30
0.0
 40
9.124999999999984
 50
152.92493329272219
 51
207.07506670727781
  0
LINE
  5
2420
  8
AM_0
 10
164.8756952176534
 20
278.36685324703649
 30
0.0
 11
165.3756952176534
 21
278.02016517849552
 31
0.0
  0
LINE
  5
2421
  8
AM_0
 10
165.3756952176534
 20
278.86685324703649
 30
0.0
 11
164.8756952176534
 21
278.36685324703649
 31
0.0
  0
LINE
  5
2422
  8
AM_0
 10
161.73551081798891
 20
270.56700691342297
 30
0.0
 11
164.09756075317091
 21
268.59863196743902
 31
0.0
  0
LINE
  5
2423
  8
AM_0
 10
165.3756952176534
 20
268.36685324703649
 30
0.0
 11
164.8756952176534
 21
268.94528583054358
 31
0.0
  0
ARC
  5
2424
  8
AM_0
 10
164.73774515283529
 20
269.36685324703637
 30
0.0
 40
1.0000000000000411
 50
230.19442890774391
 51
270.0
  0
LINE
  5
2425
  8
AM_0
 10
164.8756952176534
 20
269.94528583054358
 30
0.0
 11
165.3756952176534
 21
269.71354131557757
 31
0.0
  0
LINE
  5
2426
  8
AM_0
 10
165.3756952176534
 20
269.23357341838852
 30
0.0
 11
164.8756952176534
 21
269.94528583054358
 31
0.0
  0
LINE
  5
2427
  8
AM_0
 10
164.8756952176534
 20
269.40756110351549
 30
0.0
 11
165.3756952176534
 21
269.23357341838852
 31
0.0
  0
LINE
  5
2428
  8
AM_0
 10
165.3756952176534
 20
268.73357341838852
 30
0.0
 11
164.8756952176534
 21
269.40756110351549
 31
0.0
  0
LINE
  5
2429
  8
AM_0
 10
164.8756952176534
 20
268.94528583054358
 30
0.0
 11
165.3756952176534
 21
268.73357341838852
 31
0.0
  0
ARC
  5
242A
  8
AM_0
 10
162.3756952176534
 20
271.33522819302038
 30
0.0
 40
1.0
 50
180.0
 51
230.19442890773689
  0
CIRCLE
  5
242B
  8
AM_0
 10
195.77436631399769
 20
305.36685324703598
 30
0.0
 40
4.0
  0
LINE
  5
242C
  8
AM_0
 10
195.46286631399769
 20
303.08804484131178
 30
0.0
 11
196.08586631399771
 21
303.08804484131178
 31
0.0
  0
LINE
  5
242D
  8
AM_0
 10
195.46286631399769
 20
307.6456616527604
 30
0.0
 11
196.08586631399771
 21
307.6456616527604
 31
0.0
  0
LINE
  5
242E
  8
AM_0
 10
195.46286631399769
 20
303.08804484131178
 30
0.0
 11
195.46286631399769
 21
305.05535324703601
 31
0.0
  0
LINE
  5
242F
  8
AM_0
 10
195.46286631399769
 20
305.678353247036
 30
0.0
 11
195.46286631399769
 21
307.6456616527604
 31
0.0
  0
LINE
  5
2430
  8
AM_0
 10
195.46286631399769
 20
305.678353247036
 30
0.0
 11
193.4955579082733
 21
305.678353247036
 31
0.0
  0
LINE
  5
2431
  8
AM_0
 10
195.46286631399769
 20
305.05535324703601
 30
0.0
 11
193.4955579082733
 21
305.05535324703601
 31
0.0
  0
LINE
  5
2432
  8
AM_0
 10
193.4955579082733
 20
305.678353247036
 30
0.0
 11
193.4955579082733
 21
305.05535324703601
 31
0.0
  0
LINE
  5
2433
  8
AM_0
 10
196.08586631399771
 20
303.08804484131178
 30
0.0
 11
196.08586631399771
 21
305.05535324703601
 31
0.0
  0
LINE
  5
2434
  8
AM_0
 10
196.08586631399771
 20
305.678353247036
 30
0.0
 11
196.08586631399771
 21
307.6456616527604
 31
0.0
  0
LINE
  5
2435
  8
AM_0
 10
198.05317471972199
 20
305.05535324703601
 30
0.0
 11
196.08586631399771
 21
305.05535324703601
 31
0.0
  0
LINE
  5
2436
  8
AM_0
 10
198.05317471972199
 20
305.678353247036
 30
0.0
 11
196.08586631399771
 21
305.678353247036
 31
0.0
  0
LINE
  5
2437
  8
AM_0
 10
198.05317471972199
 20
305.678353247036
 30
0.0
 11
198.05317471972199
 21
305.05535324703601
 31
0.0
  0
CIRCLE
  5
2438
  8
AM_0
 10
281.77436631400121
 20
305.36685324703598
 30
0.0
 40
4.0
  0
LINE
  5
2439
  8
AM_0
 10
281.4628663140013
 20
303.08804484131178
 30
0.0
 11
282.08586631400129
 21
303.08804484131178
 31
0.0
  0
LINE
  5
243A
  8
AM_0
 10
281.4628663140013
 20
307.6456616527604
 30
0.0
 11
282.08586631400129
 21
307.6456616527604
 31
0.0
  0
LINE
  5
243B
  8
AM_0
 10
281.4628663140013
 20
303.08804484131178
 30
0.0
 11
281.4628663140013
 21
305.05535324703601
 31
0.0
  0
LINE
  5
243C
  8
AM_0
 10
281.4628663140013
 20
305.678353247036
 30
0.0
 11
281.4628663140013
 21
307.6456616527604
 31
0.0
  0
LINE
  5
243D
  8
AM_0
 10
281.4628663140013
 20
305.678353247036
 30
0.0
 11
279.49555790827691
 21
305.678353247036
 31
0.0
  0
LINE
  5
243E
  8
AM_0
 10
281.4628663140013
 20
305.05535324703601
 30
0.0
 11
279.49555790827691
 21
305.05535324703601
 31
0.0
  0
LINE
  5
243F
  8
AM_0
 10
279.49555790827691
 20
305.678353247036
 30
0.0
 11
279.49555790827691
 21
305.05535324703601
 31
0.0
  0
LINE
  5
2440
  8
AM_0
 10
282.08586631400129
 20
303.08804484131178
 30
0.0
 11
282.08586631400129
 21
305.05535324703601
 31
0.0
  0
LINE
  5
2441
  8
AM_0
 10
282.08586631400129
 20
305.678353247036
 30
0.0
 11
282.08586631400129
 21
307.6456616527604
 31
0.0
  0
LINE
  5
2442
  8
AM_0
 10
284.05317471972558
 20
305.05535324703601
 30
0.0
 11
282.08586631400129
 21
305.05535324703601
 31
0.0
  0
LINE
  5
2443
  8
AM_0
 10
284.05317471972558
 20
305.678353247036
 30
0.0
 11
282.08586631400129
 21
305.678353247036
 31
0.0
  0
LINE
  5
2444
  8
AM_0
 10
284.05317471972558
 20
305.678353247036
 30
0.0
 11
284.05317471972558
 21
305.05535324703601
 31
0.0
  0
LINE
  5
2445
  8
AM_0
 10
209.3099002199323
 20
308.9023871529692
 30
0.0
 11
192.23883240806671
 21
291.83131934110378
 31
0.0
  0
LINE
  5
2446
  8
AM_0
 10
209.9667544694245
 20
303.9023871529692
 30
0.0
 11
197.2388324080666
 21
291.17446509161141
 31
0.0
  0
ARC
  5
2447
  8
AM_0
 10
200.77436631399939
 20
287.63893118567859
 30
0.0
 40
5.0
 50
135.0
 51
180.0
1001
GENIUS_GENOBJ-N-FIL_13
1002
{
1000
OWNER
1000
GEN
1002
}
1001
GENIUS_GENODEF_13
1002
{
1000
HIER
1070
     0
1002
}
1002
{
1000
MANEDIT
1070
     0
1002
}
1002
{
1000
NOSEL
1070
     0
1002
}
1002
{
1000
BEHIND
1070
     0
1002
}
1002
{
1000
OTHER
1070
     0
1002
}
1002
{
1000
REACTOR
1002
}
  0
LINE
  5
2448
  8
AM_0
 10
268.23883240806663
 20
219.83131934110349
 30
0.0
 11
285.30990021993227
 21
236.902387152969
 31
0.0
  0
ARC
  5
2449
  8
AM_0
 10
264.70329850213392
 20
223.36685324703629
 30
0.0
 40
5.0
 50
270.0
 51
315.0
1001
GENIUS_GENODEF_13
1002
{
1000
HIER
1070
     0
1002
}
1002
{
1000
MANEDIT
1070
     0
1002
}
1002
{
1000
NOSEL
1070
     0
1002
}
1002
{
1000
BEHIND
1070
     0
1002
}
1002
{
1000
OTHER
1070
     0
1002
}
1002
{
1000
REACTOR
1002
}
1001
GENIUS_GENOBJ-N-FIL_13
1002
{
1000
OWNER
1000
GEN
1002
}
  0
LINE
  5
244A
  8
AM_0
 10
267.58197815857437
 20
224.83131934110361
 30
0.0
 11
280.30990021993227
 21
237.5592414024612
 31
0.0
  0
ARC
  5
244B
  8
AM_0
 10
276.77436631399951
 20
241.09477530839399
 30
0.0
 40
5.0
 50
315.0
 51
0.0
1001
GENIUS_GENOBJ-N-FIL_13
1002
{
1000
OWNER
1000
GEN
1002
}
1001
GENIUS_GENODEF_13
1002
{
1000
HIER
1070
     0
1002
}
1002
{
1000
MANEDIT
1070
     0
1002
}
1002
{
1000
NOSEL
1070
     0
1002
}
1002
{
1000
BEHIND
1070
     0
1002
}
1002
{
1000
OTHER
1070
     0
1002
}
1002
{
1000
REACTOR
1002
}
  0
LINE
  5
244C
  8
AM_0
 10
209.3099002199321
 20
219.83131934110349
 30
0.0
 11
192.23883240806671
 21
236.9023871529688
 31
0.0
  0
LINE
  5
244D
  8
AM_0
 10
209.96675446942439
 20
224.83131934110361
 30
0.0
 11
197.2388324080666
 21
237.5592414024612
 31
0.0
  0
ARC
  5
244E
  8
AM_0
 10
213.5022883753571
 20
228.36685324703629
 30
0.0
 40
5.0
 50
225.0
 51
270.0
1001
GENIUS_GENOBJ-N-FIL_13
1002
{
1000
OWNER
1000
GEN
1002
}
1001
GENIUS_GENODEF_13
1002
{
1000
HIER
1070
     0
1002
}
1002
{
1000
MANEDIT
1070
     0
1002
}
1002
{
1000
NOSEL
1070
     0
1002
}
1002
{
1000
BEHIND
1070
     0
1002
}
1002
{
1000
OTHER
1070
     0
1002
}
1002
{
1000
REACTOR
1002
}
  0
CIRCLE
  5
244F
  8
AM_0
 10
195.7743663139974
 20
223.36685324703669
 30
0.0
 40
4.0
  0
LINE
  5
2450
  8
AM_0
 10
195.46286631399761
 20
225.64566165276111
 30
0.0
 11
196.0858663139976
 21
225.64566165276111
 31
0.0
  0
LINE
  5
2451
  8
AM_0
 10
195.46286631399761
 20
221.0880448413123
 30
0.0
 11
196.0858663139976
 21
221.0880448413123
 31
0.0
  0
LINE
  5
2452
  8
AM_0
 10
195.46286631399761
 20
225.64566165276111
 30
0.0
 11
195.46286631399761
 21
223.67835324703671
 31
0.0
  0
LINE
  5
2453
  8
AM_0
 10
195.46286631399761
 20
223.05535324703669
 30
0.0
 11
195.46286631399761
 21
221.0880448413123
 31
0.0
  0
LINE
  5
2454
  8
AM_0
 10
195.46286631399761
 20
223.05535324703669
 30
0.0
 11
193.49555790827321
 21
223.05535324703669
 31
0.0
  0
LINE
  5
2455
  8
AM_0
 10
195.46286631399761
 20
223.67835324703671
 30
0.0
 11
193.49555790827321
 21
223.67835324703671
 31
0.0
  0
LINE
  5
2456
  8
AM_0
 10
193.49555790827321
 20
223.05535324703669
 30
0.0
 11
193.49555790827321
 21
223.67835324703671
 31
0.0
  0
LINE
  5
2457
  8
AM_0
 10
196.0858663139976
 20
225.64566165276111
 30
0.0
 11
196.0858663139976
 21
223.67835324703671
 31
0.0
  0
LINE
  5
2458
  8
AM_0
 10
196.0858663139976
 20
223.05535324703669
 30
0.0
 11
196.0858663139976
 21
221.0880448413123
 31
0.0
  0
LINE
  5
2459
  8
AM_0
 10
198.05317471972191
 20
223.67835324703671
 30
0.0
 11
196.0858663139976
 21
223.67835324703671
 31
0.0
  0
LINE
  5
245A
  8
AM_0
 10
198.05317471972191
 20
223.05535324703669
 30
0.0
 11
196.0858663139976
 21
223.05535324703669
 31
0.0
  0
LINE
  5
245B
  8
AM_0
 10
198.05317471972191
 20
223.05535324703669
 30
0.0
 11
198.05317471972191
 21
223.67835324703671
 31
0.0
  0
CIRCLE
  5
245C
  8
AM_0
 10
281.7743663140011
 20
223.36685324703649
 30
0.0
 40
4.0
  0
LINE
  5
245D
  8
AM_0
 10
281.46286631400108
 20
225.64566165276091
 30
0.0
 11
282.08586631400112
 21
225.64566165276091
 31
0.0
  0
LINE
  5
245E
  8
AM_0
 10
281.46286631400108
 20
221.08804484131221
 30
0.0
 11
282.08586631400112
 21
221.08804484131221
 31
0.0
  0
LINE
  5
245F
  8
AM_0
 10
281.46286631400108
 20
225.64566165276091
 30
0.0
 11
281.46286631400108
 21
223.67835324703651
 31
0.0
  0
LINE
  5
2460
  8
AM_0
 10
281.46286631400108
 20
223.05535324703649
 30
0.0
 11
281.46286631400108
 21
221.08804484131221
 31
0.0
  0
LINE
  5
2461
  8
AM_0
 10
281.46286631400108
 20
223.05535324703649
 30
0.0
 11
279.49555790827668
 21
223.05535324703649
 31
0.0
  0
LINE
  5
2462
  8
AM_0
 10
281.46286631400108
 20
223.67835324703651
 30
0.0
 11
279.49555790827668
 21
223.67835324703651
 31
0.0
  0
LINE
  5
2463
  8
AM_0
 10
279.49555790827668
 20
223.05535324703649
 30
0.0
 11
279.49555790827668
 21
223.67835324703651
 31
0.0
  0
LINE
  5
2464
  8
AM_0
 10
282.08586631400112
 20
225.64566165276091
 30
0.0
 11
282.08586631400112
 21
223.67835324703651
 31
0.0
  0
LINE
  5
2465
  8
AM_0
 10
282.08586631400112
 20
223.05535324703649
 30
0.0
 11
282.08586631400112
 21
221.08804484131221
 31
0.0
  0
LINE
  5
2466
  8
AM_0
 10
284.05317471972552
 20
223.67835324703651
 30
0.0
 11
282.08586631400112
 21
223.67835324703651
 31
0.0
  0
LINE
  5
2467
  8
AM_0
 10
284.05317471972552
 20
223.05535324703649
 30
0.0
 11
282.08586631400112
 21
223.05535324703649
 31
0.0
  0
LINE
  5
2468
  8
AM_0
 10
284.05317471972552
 20
223.05535324703649
 30
0.0
 11
284.05317471972552
 21
223.67835324703651
 31
0.0
  0
LINE
  5
2469
  8
AM_0
 10
190.77436631399939
 20
233.3668532470364
 30
0.0
 11
189.77436631399931
 21
233.3668532470364
 31
0.0
  0
LINE
  5
246A
  8
AM_0
 10
190.77436631399939
 20
295.36685324703637
 30
0.0
 11
189.77436631399931
 21
295.36685324703637
 31
0.0
  0
LINE
  5
246B
  8
AM_0
 10
189.77436631399931
 20
233.3668532470364
 30
0.0
 11
189.77436631399931
 21
295.36685324703637
 31
0.0
  0
LINE
  5
253E
  8
AM_0
 10
562.13023886340704
 20
230.8668532470364
 30
0.0
 11
562.13023886340704
 21
297.86685324703637
 31
0.0
  0
LINE
  5
2540
  8
AM_0
 10
561.13023886340704
 20
230.86685324703629
 30
0.0
 11
562.13023886340704
 21
230.8668532470364
 31
0.0
  0
LINE
  5
2541
  8
AM_0
 10
561.13023886340704
 20
297.86685324703637
 30
0.0
 11
562.13023886340704
 21
297.86685324703637
 31
0.0
  0
LINE
  5
25A1
  8
AM_0
 10
523.13023886340704
 20
218.3668532470364
 30
0.0
 11
559.20003785681217
 21
219.62643838329871
 31
0.0
  0
LINE
  5
25A2
  8
AM_0
 10
561.13023886340704
 20
221.6252200373369
 30
0.0
 11
561.13023886340704
 21
307.10848645673587
 31
0.0
  0
ARC
  5
25A3
  8
AM_0
 10
559.13023886340727
 20
221.6252200373369
 30
0.0
 40
2.0
 50
272.00000000000028
 51
0.0
1001
GENIUS_GENODEF_13
1002
{
1000
HIER
1070
     0
1002
}
1002
{
1000
MANEDIT
1070
     0
1002
}
1002
{
1000
NOSEL
1070
     0
1002
}
1002
{
1000
BEHIND
1070
     0
1002
}
1002
{
1000
OTHER
1070
     0
1002
}
1002
{
1000
REACTOR
1002
}
1001
GENIUS_GENOBJ-N-FIL_13
1002
{
1000
OWNER
1000
GEN
1002
}
  0
LINE
  5
25A4
  8
AM_0
 10
559.20003785681217
 20
309.10726811077421
 30
0.0
 11
523.13023886340704
 21
310.36685324703649
 31
0.0
  0
ARC
  5
25A5
  8
AM_0
 10
559.13023886340738
 20
307.10848645673587
 30
0.0
 40
2.0
 50
0.0
 51
87.999999999999659
1001
GENIUS_GENOBJ-N-FIL_13
1002
{
1000
OWNER
1000
GEN
1002
}
1001
GENIUS_GENODEF_13
1002
{
1000
HIER
1070
     0
1002
}
1002
{
1000
MANEDIT
1070
     0
1002
}
1002
{
1000
NOSEL
1070
     0
1002
}
1002
{
1000
BEHIND
1070
     0
1002
}
1002
{
1000
OTHER
1070
     0
1002
}
1002
{
1000
REACTOR
1002
}
  0
LINE
  5
25A6
  8
AM_0
 10
523.13023886340704
 20
310.36685324703649
 30
0.0
 11
523.13023886340704
 21
218.36685324703609
 31
0.0
  0
LINE
  5
25A7
  8
ﾁｭｳｼﾝｾﾝ1
 10
512.13023886340704
 20
223.36685324703711
 30
0.0
 11
527.95776187594379
 21
223.366853247037
 31
0.0
  0
LINE
  5
25A9
  8
AM_0
 10
519.13023886340704
 20
310.36685324703649
 30
0.0
 11
519.13023886340704
 21
289.55234834750399
 31
0.0
  0
LINE
  5
25AA
  8
AM_0
 10
519.13023886340704
 20
239.18135814656881
 30
0.0
 11
519.13023886340704
 21
218.36685324703711
 31
0.0
  0
LINE
  5
25AB
  8
AM_0
 10
515.13023886340704
 20
304.23107157787581
 30
0.0
 11
515.13023886340704
 21
224.502634916197
 31
0.0
  0
LINE
  5
25AC
  8
AM_0
 10
517.07130135127909
 20
227.27420821934351
 30
0.0
 11
518.13023886340716
 21
227.3668532470368
 31
0.0
  0
LINE
  5
25AD
  8
AM_0
 10
517.07130135127909
 20
219.45949827473049
 30
0.0
 11
518.13023886340716
 21
219.366853247037
 31
0.0
  0
ARC
  5
25AE
  8
AM_0
 10
521.53023886340725
 20
223.3668532470368
 30
0.0
 40
6.5
 50
151.82726586813479
 51
208.1727341318651
  0
ARC
  5
25AF
  8
AM_0
 10
517.21075053967559
 20
221.0534097916773
 30
0.0
 40
1.6000000000000001
 50
208.1727341318651
 51
265.00000000000028
  0
LINE
  5
25B0
  8
AM_0
 10
515.45076520197881
 20
225.6668532470369
 30
0.0
 11
517.74032488077444
 21
223.3668532470368
 31
0.0
  0
LINE
  5
25B1
  8
AM_0
 10
517.43023886340711
 20
223.67835324703691
 30
0.0
 11
517.43023886340711
 21
223.05535324703689
 31
0.0
  0
LINE
  5
25B2
  8
AM_0
 10
515.45076520197881
 20
221.06685324703699
 30
0.0
 11
517.74032488077444
 21
223.3668532470368
 31
0.0
  0
LINE
  5
25B3
  8
AM_0
 10
515.03770717307248
 20
223.67835324703691
 30
0.0
 11
517.43023886340711
 21
223.67835324703691
 31
0.0
  0
LINE
  5
25B4
  8
AM_0
 10
515.03770717307248
 20
223.05535324703689
 30
0.0
 11
517.43023886340711
 21
223.05535324703689
 31
0.0
  0
ARC
  5
25B5
  8
AM_0
 10
517.21075053967559
 20
225.6802967023965
 30
0.0
 40
1.6000000000000001
 50
94.99999999999973
 51
151.82726586813479
  0
LINE
  5
25B6
  8
AM_0
 10
519.13023886340704
 20
310.36685324703649
 30
0.0
 11
523.13023886340704
 21
310.36685324703649
 31
0.0
  0
LINE
  5
25B7
  8
AM_0
 10
518.13023886340716
 20
309.3668532470362
 30
0.0
 11
519.13023886340716
 21
310.36685324703649
 31
0.0
  0
LINE
  5
25B8
  8
AM_0
 10
523.13023886340704
 20
218.36685324703609
 30
0.0
 11
519.13023886340704
 21
218.3668532470372
 31
0.0
  0
LINE
  5
25B9
  8
AM_0N
 10
519.13023886340704
 20
227.16685324703701
 30
0.0
 11
518.13023886340716
 21
227.16685324703701
 31
0.0
  0
LINE
  5
25BA
  8
AM_0N
 10
518.13023886340716
 20
223.56685324703699
 30
0.0
 11
519.13023886340704
 21
223.93082348130309
 31
0.0
  0
LINE
  5
25BB
  8
AM_0N
 10
518.13023886340716
 20
223.16685324703701
 30
0.0
 11
519.13023886340704
 21
223.5308234813032
 31
0.0
  0
LINE
  5
25BC
  8
AM_0N
 10
518.13023886340716
 20
219.3668532470368
 30
0.0
 11
518.13023886340716
 21
227.3668532470368
 31
0.0
  0
LINE
  5
25BD
  8
AM_0N
 10
518.13023886340716
 20
219.5668532470369
 30
0.0
 11
519.13023886340704
 21
219.5668532470369
 31
0.0
  0
LINE
  5
25BE
  8
AM_0
 10
515.13023886340704
 20
239.1813581465687
 30
0.0
 11
519.13023886340704
 21
239.1813581465687
 31
0.0
  0
LINE
  5
25BF
  8
AM_0
 10
519.13023886340704
 20
237.52450389707619
 30
0.0
 11
515.13023886340704
 21
239.1813581465687
 31
0.0
  0
LINE
  5
25C0
  8
AM_0
 10
515.13023886340704
 20
289.55234834750399
 30
0.0
 11
519.13023886340704
 21
289.55234834750399
 31
0.0
  0
LINE
  5
25C1
  8
AM_0
 10
519.13023886340704
 20
291.20920259699648
 30
0.0
 11
515.13023886340704
 21
289.55234834750399
 31
0.0
  0
LINE
  5
25C6
  8
ﾁｭｳｼﾝｾﾝ1
 10
512.13023886340738
 20
305.36685324703569
 30
0.0
 11
527.95776187594379
 21
305.36685324703581
 31
0.0
  0
LINE
  5
25C7
  8
AM_0
 10
517.07130135127909
 20
301.4594982747293
 30
0.0
 11
518.13023886340716
 21
301.36685324703581
 31
0.0
  0
LINE
  5
25C8
  8
AM_0
 10
517.07130135127909
 20
309.27420821934231
 30
0.0
 11
518.13023886340716
 21
309.36685324703581
 31
0.0
  0
ARC
  5
25C9
  8
AM_0
 10
521.53023886340725
 20
305.36685324703581
 30
0.0
 40
6.5
 50
151.82726586813479
 51
208.1727341318651
  0
ARC
  5
25CA
  8
AM_0
 10
517.21075053967559
 20
307.68029670239548
 30
0.0
 40
1.6000000000000001
 50
94.999999999999758
 51
151.82726586813479
  0
LINE
  5
25CB
  8
AM_0
 10
515.45076520197881
 20
303.06685324703568
 30
0.0
 11
517.74032488077444
 21
305.36685324703581
 31
0.0
  0
LINE
  5
25CC
  8
AM_0
 10
517.43023886340711
 20
305.05535324703573
 30
0.0
 11
517.43023886340711
 21
305.67835324703577
 31
0.0
  0
LINE
  5
25CD
  8
AM_0
 10
515.45076520197881
 20
307.66685324703582
 30
0.0
 11
517.74032488077444
 21
305.36685324703581
 31
0.0
  0
LINE
  5
25CE
  8
AM_0
 10
515.03770717307248
 20
305.05535324703573
 30
0.0
 11
517.43023886340711
 21
305.05535324703573
 31
0.0
  0
LINE
  5
25CF
  8
AM_0
 10
515.03770717307248
 20
305.67835324703577
 30
0.0
 11
517.43023886340711
 21
305.67835324703577
 31
0.0
  0
ARC
  5
25D0
  8
AM_0
 10
517.21075053967559
 20
303.05340979167607
 30
0.0
 40
1.6000000000000001
 50
208.1727341318651
 51
265.00000000000028
  0
LINE
  5
25D1
  8
AM_0N
 10
519.13023886340704
 20
301.56685324703568
 30
0.0
 11
518.13023886340716
 21
301.56685324703568
 31
0.0
  0
LINE
  5
25D2
  8
AM_0N
 10
518.13023886340716
 20
305.16685324703582
 30
0.0
 11
519.13023886340704
 21
304.8028830127696
 31
0.0
  0
LINE
  5
25D3
  8
AM_0N
 10
518.13023886340716
 20
305.56685324703568
 30
0.0
 11
519.13023886340704
 21
305.20288301276958
 31
0.0
  0
LINE
  5
25D4
  8
AM_0N
 10
518.13023886340716
 20
309.36685324703581
 30
0.0
 11
518.13023886340716
 21
301.36685324703581
 31
0.0
  0
LINE
  5
25D5
  8
AM_0N
 10
518.13023886340716
 20
309.16685324703582
 30
0.0
 11
519.13023886340704
 21
309.16685324703582
 31
0.0
  0
LINE
  5
25EF
  8
AM_0
 10
564.13023886340716
 20
242.01426919288451
 30
0.0
 11
564.13023886340716
 21
294.36685324703632
 31
0.0
  0
LINE
  5
261D
  8
AM_0
 10
563.27212220231559
 20
234.3668532470364
 30
0.0
 11
562.13023886340704
 21
234.3668532470364
 31
0.0
  0
LINE
  5
26E8
  8
ﾁｭｳｼﾝｾﾝ1
 10
572.63024986340713
 20
211.36685124703641
 30
0.0
 11
572.63024986340713
 21
191.3668372470363
 31
0.0
  0
LINE
  5
26E9
  8
ﾁｭｳｼﾝｾﾝ1
 10
371.77435631399942
 20
211.36685124703641
 30
0.0
 11
371.77435631399942
 21
191.3668372470363
 31
0.0
  0
LINE
  5
26EA
  8
ﾁｭｳｼﾝｾﾝ1
 10
308.77438631399929
 20
211.36685124703641
 30
0.0
 11
308.77438631399929
 21
191.3668372470363
 31
0.0
  0
LINE
  5
2813
  8
AM_0
 10
383.77435631399942
 20
305.86685424703649
 30
0.0
 11
387.77435631399931
 21
301.86685424703649
 31
0.0
  0
LINE
  5
2815
  8
AM_0
 10
381.27435631399942
 20
305.86685424703649
 30
0.0
 11
383.77435631399942
 21
305.86685424703637
 31
0.0
  0
LINE
  5
2817
  8
AM_0
 10
380.77435631399931
 20
305.36685424703637
 30
0.0
 11
380.77435631399931
 21
257.36685424703637
 31
0.0
  0
LINE
  5
2819
  8
AM_0
 10
387.77435631399931
 20
301.86685424703649
 30
0.0
 11
387.77435631399987
 21
260.86685424703631
 31
0.0
  0
LINE
  5
2820
  8
AM_0
 10
383.77435631399942
 20
256.86685424703637
 30
0.0
 11
387.77435631399931
 21
260.86685424703631
 31
0.0
  0
LINE
  5
2821
  8
AM_0
 10
381.27435631399942
 20
256.86685424703637
 30
0.0
 11
383.77435631399942
 21
256.86685424703649
 31
0.0
  0
LINE
  5
282B
  8
AM_0
 10
380.77435631399931
 20
305.36685424703637
 30
0.0
 11
381.27435631399942
 21
305.86685424703649
 31
0.0
1001
GENIUS_GENFIL_13
1070
     0
1040
0.5
1040
0.5
1040
20.0
1040
0.0
1002
{
1002
}
1001
GENIUS_GENOBJ-N-CHA_13
1002
{
1000
OWNER
1000
GEN
1002
}
1001
GENIUS_GENODEF_13
1002
{
1000
HIER
1070
     0
1002
}
1002
{
1000
MANEDIT
1070
     0
1002
}
1002
{
1000
NOSEL
1070
     0
1002
}
1002
{
1000
BEHIND
1070
     0
1002
}
1002
{
1000
OTHER
1070
     0
1002
}
1002
{
1000
REACTOR
1002
}
  0
LINE
  5
282E
  8
AM_0
 10
380.77435631399931
 20
257.36685424703637
 30
0.0
 11
381.27435631399942
 21
256.86685424703637
 31
0.0
1001
GENIUS_GENFIL_13
1070
     0
1040
0.5
1040
0.5
1040
20.0
1040
0.0
1002
{
1002
}
1001
GENIUS_GENODEF_13
1002
{
1000
HIER
1070
     0
1002
}
1002
{
1000
MANEDIT
1070
     0
1002
}
1002
{
1000
NOSEL
1070
     0
1002
}
1002
{
1000
BEHIND
1070
     0
1002
}
1002
{
1000
OTHER
1070
     0
1002
}
1002
{
1000
REACTOR
1002
}
1001
GENIUS_GENOBJ-N-CHA_13
1002
{
1000
OWNER
1000
GEN
1002
}
  0
CIRCLE
  5
284C
  8
AM_0
 10
630.13023886340727
 20
281.36685424703631
 30
0.0
 40
24.49999999999989
  0
CIRCLE
  5
284D
  8
AM_0
 10
630.13023886340727
 20
281.36685424703631
 30
0.0
 40
20.50000000000011
  0
LINE
  5
2857
  8
AM_0
 10
383.77435631399942
 20
305.86685424703637
 30
0.0
 11
383.77435631399942
 21
256.86685424703649
 31
0.0
  0
LINE
  5
2A93
  8
ﾁｭｳｼﾝｾﾝ1
 10
195.77436631399721
 20
299.36685324703598
 30
0.0
 11
195.774366313998
 21
311.36685324703598
 31
0.0
  0
LINE
  5
2A94
  8
ﾁｭｳｼﾝｾﾝ1
 10
201.77436631399769
 20
305.36685324703581
 30
0.0
 11
189.77436631399769
 21
305.36685324703649
 31
0.0
  0
LINE
  5
2A95
  8
ﾁｭｳｼﾝｾﾝ1
 10
195.77436631399721
 20
217.36685324703669
 30
0.0
 11
195.7743663139978
 21
229.36685324703669
 31
0.0
  0
LINE
  5
2A96
  8
ﾁｭｳｼﾝｾﾝ1
 10
201.7743663139976
 20
223.36685324703649
 30
0.0
 11
189.7743663139976
 21
223.36685324703711
 31
0.0
  0
LINE
  5
2A97
  8
ﾁｭｳｼﾝｾﾝ1
 10
281.7743663140007
 20
217.36685324703649
 30
0.0
 11
281.77436631400138
 21
229.36685324703649
 31
0.0
  0
LINE
  5
2A98
  8
ﾁｭｳｼﾝｾﾝ1
 10
287.7743663140011
 20
223.36685324703629
 30
0.0
 11
275.7743663140011
 21
223.3668532470368
 31
0.0
  0
POLYLINE
  5
2E59
  8
AM_0
 66
     1
 10
0.0
 20
0.0
 30
0.0
  0
VERTEX
  5
2E5A
  8
AM_0
 10
185.70820528800749
 20
291.36685324703637
 30
0.0
  0
VERTEX
  5
2E5B
  8
AM_0
 10
186.59707631399931
 20
297.73542424703618
 30
0.0
 42
-1.0
  0
SEQEND
  5
2E5C
  8
AM_0
  0
LINE
  5
2EB5
  8
AM_0
 10
174.2743763139992
 20
317.36684824703639
 30
0.0
 11
174.2743763139992
 21
291.36685324703637
 31
0.0
  0
LINE
  5
2EB6
  8
AM_0
 10
174.2743763139992
 20
267.36685324703649
 30
0.0
 11
174.2743763139992
 21
252.86685324703791
 31
0.0
  0
LINE
  5
2F6E
  8
AM_0
 10
179.64936631400039
 20
237.97679919091229
 30
0.0
 11
179.6600759185454
 21
237.76685324703621
 31
0.0
  0
LINE
  5
2F6F
  8
AM_0
 10
179.6600759185454
 20
237.76685324703621
 30
0.0
 11
179.6963813057464
 21
237.0551398731493
 31
0.0
  0
LINE
  5
2F70
  8
AM_0
 10
179.64936631400039
 20
241.7341307385532
 30
0.0
 11
179.89539253668039
 21
237.76685324703621
 31
0.0
  0
LINE
  5
2F71
  8
AM_0
 10
180.3676954780293
 20
237.76685324703621
 30
0.0
 11
179.97212496510539
 21
237.76685324703621
 31
0.0
  0
LINE
  5
2F72
  8
AM_0
 10
179.8755324705663
 20
237.6927354803008
 30
0.0
 11
179.71428797256851
 21
237.0909710137727
 31
0.0
  0
LINE
  5
2F73
  8
AM_0
 10
179.89539253668039
 20
237.76685324703621
 30
0.0
 11
179.8755324705663
 21
237.6927354803008
 31
0.0
  0
LINE
  5
2F74
  8
AM_0
 10
178.14936631400039
 20
235.36685324703629
 30
0.0
 11
178.14936631400039
 21
235.6668532470373
 31
0.0
  0
LINE
  5
2F75
  8
AM_0
 10
167.64936631399939
 20
238.86685324703629
 30
0.0
 11
167.64936631399939
 21
239.03443830617229
 31
0.0
  0
LINE
  5
2F76
  8
AM_0
 10
167.64936631399939
 20
244.36685324703629
 30
0.0
 11
167.64936631399939
 21
239.04787821462719
 31
0.0
  0
LINE
  5
2F77
  8
AM_0
 10
170.38355378698941
 20
235.8668532470343
 30
0.0
 11
170.14936631399641
 21
235.8668532470343
 31
0.0
  0
LINE
  5
2F78
  8
AM_0
 10
169.99944314719031
 20
236.04676104720261
 30
0.0
 11
170.14936631399641
 21
235.8668532470343
 31
0.0
  0
LINE
  5
2F79
  8
AM_0
 10
167.64936631399939
 20
238.86685324703629
 30
0.0
 11
167.76525567420049
 21
238.7277860147953
 31
0.0
  0
LINE
  5
2F7A
  8
AM_0
 10
178.14936631400039
 20
235.86685324703731
 30
0.0
 11
179.44936631400029
 21
235.86685324703731
 31
0.0
  0
LINE
  5
2F7B
  8
AM_0
 10
179.14936631399939
 20
235.8383495156713
 30
0.0
 11
179.14936631400039
 21
235.86685324703731
 31
0.0
  0
LINE
  5
2F7C
  8
AM_0
 10
170.1493663139974
 20
236.83466203890029
 30
0.0
 11
176.14936631400039
 21
236.83466203890029
 31
0.0
  0
LINE
  5
2F7D
  8
AM_0
 10
176.14936631400039
 20
236.33466203890029
 30
0.0
 11
170.14936631399641
 21
236.33466203890029
 31
0.0
  0
LINE
  5
2F7E
  8
AM_0
 10
170.14936631399641
 20
236.33466203890029
 30
0.0
 11
170.64936631399641
 21
235.86685324703629
 31
0.0
  0
LINE
  5
2F7F
  8
AM_0
 10
170.64936631399641
 20
236.33466203890029
 30
0.0
 11
170.1493663139974
 21
236.83466203890029
 31
0.0
  0
LINE
  5
2F80
  8
AM_0
 10
170.1493663139974
 20
237.50563731486929
 30
0.0
 11
170.64936631399641
 21
236.83466203890029
 31
0.0
  0
LINE
  5
2F81
  8
AM_0
 10
170.64936631399641
 20
237.55511555554631
 30
0.0
 11
170.1493663139974
 21
237.50563731486929
 31
0.0
  0
LINE
  5
2F82
  8
AM_0
 10
176.14936631400039
 20
243.2766594119783
 30
0.0
 11
176.14936631400039
 21
244.36685324703629
 31
0.0
  0
LINE
  5
2F83
  8
AM_0
 10
170.14936631399641
 20
243.36685324703629
 30
0.0
 11
176.14936631400039
 21
243.36685324703629
 31
0.0
  0
LINE
  5
2F84
  8
AM_0
 10
170.64936631399641
 20
242.6785909385263
 30
0.0
 11
170.14936631399641
 21
243.36685324703629
 31
0.0
  0
LINE
  5
2F85
  8
AM_0
 10
170.14936631399641
 20
243.36685324703629
 30
0.0
 11
170.6493663139974
 21
243.86685324703629
 31
0.0
  0
LINE
  5
2F86
  8
AM_0
 10
170.1493663139974
 20
244.36685324703629
 30
0.0
 11
170.6493663139974
 21
243.86685324703629
 31
0.0
  0
LINE
  5
2F87
  8
AM_0
 10
170.6493663139974
 20
243.86685324703629
 30
0.0
 11
176.14936631400039
 21
243.86685324703629
 31
0.0
  0
LINE
  5
2F88
  8
AM_0
 10
170.64936631399641
 20
242.6785909385263
 30
0.0
 11
176.14936631400039
 21
242.6785909385263
 31
0.0
  0
LINE
  5
2F89
  8
AM_0
 10
170.64936631399641
 20
237.55511555554631
 30
0.0
 11
176.14936631400039
 21
237.5551155555473
 31
0.0
  0
LINE
  5
2F8A
  8
AM_0
 10
179.14936631399939
 20
243.9168532470373
 30
0.0
 11
179.14936631400039
 21
244.36685324703629
 31
0.0
  0
LINE
  5
2F8B
  8
AM_0
 10
178.14936631400039
 20
235.6668532470373
 30
0.0
 11
178.14936631400039
 21
244.36685324703831
 31
0.0
  0
LINE
  5
2F8C
  8
AM_0
 10
178.84936631399941
 20
237.40934855900429
 30
0.0
 11
178.14936631400039
 21
237.40934855900429
 31
0.0
  0
LINE
  5
2F8D
  8
AM_0
 10
179.14936631399939
 20
236.70423770171431
 30
0.0
 11
179.14936631399939
 21
237.1093485590043
 31
0.0
  0
LINE
  5
2F8E
  8
AM_0
 10
178.14936631400039
 20
236.40423770171429
 30
0.0
 11
178.84936631399941
 21
236.40423770171429
 31
0.0
  0
LINE
  5
2F8F
  8
AM_0
 10
178.84936631399941
 20
240.78294874440539
 30
0.0
 11
178.14936631400039
 21
240.78294874440539
 31
0.0
  0
LINE
  5
2F90
  8
AM_0
 10
179.14936631399939
 20
239.68303247811329
 30
0.0
 11
179.14936631399939
 21
240.48294874440529
 31
0.0
  0
LINE
  5
2F91
  8
AM_0
 10
178.14936631400039
 20
239.38303247811331
 30
0.0
 11
178.84936631399941
 21
239.38303247811331
 31
0.0
  0
LINE
  5
2F92
  8
AM_0
 10
178.14936631400039
 20
243.61685324703629
 30
0.0
 11
178.84936631399941
 21
243.61685324703629
 31
0.0
  0
LINE
  5
2F93
  8
AM_0
 10
179.64936631400039
 20
244.36685324703629
 30
0.0
 11
179.64936631400039
 21
236.06685324703739
 31
0.0
  0
LINE
  5
2F94
  8
AM_0
 10
176.34936631399941
 20
235.36685324703629
 30
0.0
 11
178.14936631400039
 21
235.36685324703629
 31
0.0
  0
LINE
  5
2F95
  8
AM_0
 10
167.76525567420049
 20
238.7277860147953
 30
0.0
 11
169.99944314719031
 21
236.04676104720261
 31
0.0
  0
LINE
  5
2F96
  8
AM_0
 10
178.87921742970599
 20
235.53983835860831
 30
0.0
 11
178.14936631400039
 21
235.46685324703731
 31
0.0
  0
LINE
  5
2F99
  8
AM_0
 10
175.9493663140004
 20
235.86685324703629
 30
0.0
 11
170.38355378698941
 21
235.8668532470343
 31
0.0
  0
LINE
  5
2F9A
  8
AM_0
 10
176.14936631400039
 20
243.2766594119783
 30
0.0
 11
176.14936631400039
 21
235.66685324703619
 31
0.0
  0
LINE
  5
2F9B
  8
AM_0
 10
176.14936631400039
 20
235.66685324703619
 30
0.0
 11
176.14936631399939
 21
235.56685324703631
 31
0.0
  0
LINE
  5
2F9C
  8
AM_0
 10
183.77436631399931
 20
236.06685324703651
 30
0.0
 11
183.77436631399931
 21
242.6785909385263
 31
0.0
  0
LINE
  5
2F9D
  8
AM_0
 10
180.27436631400039
 20
244.36685324703629
 30
0.0
 11
180.6471201720104
 21
237.05071489951629
 31
0.0
  0
LINE
  5
2F9E
  8
AM_0
 10
180.8234016837753
 20
244.36685324703629
 30
0.0
 11
181.1963813057464
 21
237.0551398731493
 31
0.0
  0
LINE
  5
2F9F
  8
AM_0
 10
180.46428797256851
 20
237.69273548029969
 30
0.0
 11
180.44442790645539
 21
237.76685324703621
 31
0.0
  0
LINE
  5
2FA0
  8
AM_0
 10
181.39539253668039
 20
237.76685324703621
 30
0.0
 11
181.3755324705663
 21
237.6927354803008
 31
0.0
  0
LINE
  5
2FA1
  8
AM_0
 10
181.1176954780293
 20
237.01685324703621
 30
0.0
 11
180.72212496510531
 21
237.01685324703621
 31
0.0
  0
LINE
  5
2FA2
  8
AM_0
 10
180.6255324705661
 20
237.09097101377279
 30
0.0
 11
180.46428797256851
 21
237.69273548029969
 31
0.0
  0
LINE
  5
2FA3
  8
AM_0
 10
181.3755324705663
 20
237.6927354803008
 30
0.0
 11
181.21428797256851
 21
237.0909710137727
 31
0.0
  0
LINE
  5
2FA4
  8
AM_0
 10
180.03513637765241
 20
244.36685324703629
 30
0.0
 11
180.44442790645539
 21
237.76685324703621
 31
0.0
  0
LINE
  5
2FA5
  8
AM_0
 10
180.98610100787729
 20
244.36685324703629
 30
0.0
 11
181.39539253668039
 21
237.76685324703621
 31
0.0
  0
LINE
  5
2FA6
  8
AM_0
 10
181.47212496510531
 20
237.76685324703621
 30
0.0
 11
183.27436631399931
 21
237.76685324703621
 31
0.0
  0
LINE
  5
2FA7
  8
AM_0
 10
183.77436631399931
 20
242.6785909385263
 30
0.0
 11
183.77436631399931
 21
244.36685324703731
 31
0.0
  0
LINE
  5
2FA8
  8
AM_0
 10
183.97436631399941
 20
235.86685324703629
 30
0.0
 11
187.57436631399921
 21
235.86685324703629
 31
0.0
  0
LINE
  5
2FA9
  8
AM_0
 10
187.57436631399941
 20
242.6785909385263
 30
0.0
 11
183.77436631399931
 21
242.6785909385263
 31
0.0
  0
LINE
  5
2FAA
  8
AM_0
 10
183.77436631399931
 20
237.5551155555473
 30
0.0
 11
187.57436631399941
 21
237.5551155555473
 31
0.0
  0
LINE
  5
2FAB
  8
AM_0
 10
162.77436631399939
 20
244.36685324703629
 30
0.0
 11
162.77436631399939
 21
240.11685324703629
 31
0.0
  0
LINE
  5
2FAC
  8
AM_0
 10
167.64936631399939
 20
240.06571688340031
 30
0.0
 11
162.77436631399939
 21
240.11685324703629
 31
0.0
  0
LINE
  5
2FAD
  8
AM_0
 10
162.77436631399939
 20
248.61685324703629
 30
0.0
 11
167.64936631399939
 21
248.66798961067329
 31
0.0
  0
LINE
  5
2FAE
  8
AM_0
 10
162.77436631399939
 20
248.61685324703629
 30
0.0
 11
162.77436631399939
 21
244.36685324703629
 31
0.0
  0
LINE
  5
2FAF
  8
AM_0
 10
187.57436631399941
 20
251.1785909385263
 30
0.0
 11
183.77436631399931
 21
251.1785909385263
 31
0.0
  0
LINE
  5
2FB0
  8
AM_0
 10
183.77436631399931
 20
246.0551155555473
 30
0.0
 11
187.57436631399941
 21
246.0551155555473
 31
0.0
  0
LINE
  5
2FB1
  8
AM_0
 10
187.57436631399941
 20
252.86685324703629
 30
0.0
 11
183.97436631399941
 21
252.86685324703629
 31
0.0
  0
LINE
  5
2FB2
  8
AM_0
 10
183.77436631399931
 20
244.36685324703731
 30
0.0
 11
183.77436631399931
 21
246.0551155555473
 31
0.0
  0
LINE
  5
2FB3
  8
AM_0
 10
183.27436631399931
 20
250.96685324703631
 30
0.0
 11
180.72609874242539
 21
250.96685324703631
 31
0.0
  0
LINE
  5
2FB4
  8
AM_0
 10
180.64936631399931
 20
250.96685324703631
 30
0.0
 11
180.98610100787729
 21
244.36685324703629
 31
0.0
  0
LINE
  5
2FB5
  8
AM_0
 10
179.69840168377439
 20
250.96685324703631
 30
0.0
 11
180.03513637765241
 21
244.36685324703629
 31
0.0
  0
LINE
  5
2FB6
  8
AM_0
 10
180.4682617498884
 20
251.64273548029971
 30
0.0
 11
180.6295062478863
 21
251.0409710137728
 31
0.0
  0
LINE
  5
2FB7
  8
AM_0
 10
179.71826174988851
 20
251.0409710137728
 30
0.0
 11
179.87950624788621
 21
251.64273548029971
 31
0.0
  0
LINE
  5
2FB8
  8
AM_0
 10
179.97609874242539
 20
251.71685324703631
 30
0.0
 11
180.37166925534939
 21
251.71685324703631
 31
0.0
  0
LINE
  5
2FB9
  8
AM_0
 10
180.6295062478863
 20
251.0409710137728
 30
0.0
 11
180.64936631399931
 21
250.96685324703631
 31
0.0
  0
LINE
  5
2FBA
  8
AM_0
 10
179.69840168377439
 20
250.96685324703631
 30
0.0
 11
179.71826174988851
 21
251.0409710137728
 31
0.0
  0
LINE
  5
2FBB
  8
AM_0
 10
180.4503550830664
 20
251.67856662092331
 30
0.0
 11
180.8234016837753
 21
244.36685324703629
 31
0.0
  0
LINE
  5
2FBC
  8
AM_0
 10
179.9010939493304
 20
251.68299159455731
 30
0.0
 11
180.27436631400039
 21
244.36685324703629
 31
0.0
  0
LINE
  5
2FBD
  8
AM_0
 10
183.77436631399931
 20
246.0551155555473
 30
0.0
 11
183.77436631399931
 21
252.6668532470371
 31
0.0
  0
LINE
  5
2FBE
  8
AM_0
 10
176.14936631399939
 20
253.1668532470373
 30
0.0
 11
176.14936631400039
 21
253.06685324703739
 31
0.0
  0
LINE
  5
2FBF
  8
AM_0
 10
176.14936631400039
 20
253.06685324703739
 30
0.0
 11
176.14936631400039
 21
245.4570470820953
 31
0.0
  0
LINE
  5
2FC0
  8
AM_0
 10
170.38355378698941
 20
252.8668532470393
 30
0.0
 11
175.9493663140004
 21
252.86685324703731
 31
0.0
  0
LINE
  5
2FC3
  8
AM_0
 10
178.14936631400039
 20
253.26685324703629
 30
0.0
 11
178.87921742970599
 21
253.19386813546521
 31
0.0
  0
LINE
  5
2FC4
  8
AM_0
 10
169.99944314719031
 20
252.68694544687099
 30
0.0
 11
167.76525567420049
 21
250.0059204792783
 31
0.0
  0
LINE
  5
2FC5
  8
AM_0
 10
178.14936631400039
 20
253.36685324703629
 30
0.0
 11
176.34936631399941
 21
253.36685324703629
 31
0.0
  0
LINE
  5
2FC6
  8
AM_0
 10
179.64936631400039
 20
252.6668532470363
 30
0.0
 11
179.64936631400039
 21
244.36685324703629
 31
0.0
  0
LINE
  5
2FC7
  8
AM_0
 10
178.84936631399941
 20
245.11685324703629
 30
0.0
 11
178.14936631400039
 21
245.11685324703629
 31
0.0
  0
LINE
  5
2FC8
  8
AM_0
 10
178.84936631399941
 20
249.35067401596021
 30
0.0
 11
178.14936631400039
 21
249.35067401596021
 31
0.0
  0
LINE
  5
2FC9
  8
AM_0
 10
179.14936631399939
 20
248.25075774966831
 30
0.0
 11
179.14936631399939
 21
249.05067401596031
 31
0.0
  0
LINE
  5
2FCA
  8
AM_0
 10
178.14936631400039
 20
247.9507577496683
 30
0.0
 11
178.84936631399941
 21
247.9507577496683
 31
0.0
  0
LINE
  5
2FCB
  8
AM_0
 10
178.84936631399941
 20
252.32946879235931
 30
0.0
 11
178.14936631400039
 21
252.32946879235931
 31
0.0
  0
LINE
  5
2FCC
  8
AM_0
 10
179.14936631399939
 20
251.62435793506921
 30
0.0
 11
179.14936631399939
 21
252.0294687923593
 31
0.0
  0
LINE
  5
2FCD
  8
AM_0
 10
178.14936631400039
 20
251.32435793506929
 30
0.0
 11
178.84936631399941
 21
251.32435793506929
 31
0.0
  0
LINE
  5
2FCE
  8
AM_0
 10
178.14936631400039
 20
244.36685324703831
 30
0.0
 11
178.14936631400039
 21
253.06685324703631
 31
0.0
  0
LINE
  5
2FCF
  8
AM_0
 10
179.14936631400039
 20
244.36685324703629
 30
0.0
 11
179.14936631399939
 21
244.81685324703631
 31
0.0
  0
LINE
  5
2FD0
  8
AM_0
 10
176.14936631400039
 20
251.1785909385263
 30
0.0
 11
170.64936631399641
 21
251.1785909385263
 31
0.0
  0
LINE
  5
2FD1
  8
AM_0
 10
176.14936631400039
 20
246.0551155555473
 30
0.0
 11
170.64936631399641
 21
246.05511555554631
 31
0.0
  0
LINE
  5
2FD2
  8
AM_0
 10
176.14936631400039
 20
244.86685324703629
 30
0.0
 11
170.6493663139974
 21
244.86685324703629
 31
0.0
  0
LINE
  5
2FD3
  8
AM_0
 10
170.6493663139974
 20
244.86685324703629
 30
0.0
 11
170.1493663139974
 21
244.36685324703629
 31
0.0
  0
LINE
  5
2FD4
  8
AM_0
 10
170.6493663139974
 20
244.86685324703629
 30
0.0
 11
170.14936631399641
 21
245.36685324703629
 31
0.0
  0
LINE
  5
2FD5
  8
AM_0
 10
170.14936631399641
 20
245.36685324703629
 30
0.0
 11
170.64936631399641
 21
246.05511555554631
 31
0.0
  0
LINE
  5
2FD6
  8
AM_0
 10
176.14936631400039
 20
245.36685324703629
 30
0.0
 11
170.14936631399641
 21
245.36685324703629
 31
0.0
  0
LINE
  5
2FD7
  8
AM_0
 10
176.14936631400039
 20
244.36685324703629
 30
0.0
 11
176.14936631400039
 21
245.4570470820953
 31
0.0
  0
LINE
  5
2FD8
  8
AM_0
 10
170.1493663139974
 20
251.22806917920431
 30
0.0
 11
170.64936631399641
 21
251.1785909385263
 31
0.0
  0
LINE
  5
2FD9
  8
AM_0
 10
170.64936631399641
 20
251.8990444551732
 30
0.0
 11
170.1493663139974
 21
251.22806917920431
 31
0.0
  0
LINE
  5
2FDA
  8
AM_0
 10
170.1493663139974
 20
251.8990444551732
 30
0.0
 11
170.64936631399641
 21
252.39904445517331
 31
0.0
  0
LINE
  5
2FDB
  8
AM_0
 10
170.64936631399641
 20
252.86685324703629
 30
0.0
 11
170.14936631399641
 21
252.39904445517331
 31
0.0
  0
LINE
  5
2FDC
  8
AM_0
 10
170.14936631399641
 20
252.39904445517331
 30
0.0
 11
176.14936631400039
 21
252.39904445517331
 31
0.0
  0
LINE
  5
2FDD
  8
AM_0
 10
176.14936631400039
 20
251.8990444551732
 30
0.0
 11
170.1493663139974
 21
251.8990444551732
 31
0.0
  0
LINE
  5
2FDE
  8
AM_0
 10
179.14936631400039
 20
252.86685324703629
 30
0.0
 11
179.14936631399939
 21
252.8953569784023
 31
0.0
  0
LINE
  5
2FDF
  8
AM_0
 10
179.4493663140004
 20
252.86685324703629
 30
0.0
 11
178.14936631400039
 21
252.86685324703629
 31
0.0
  0
LINE
  5
2FE0
  8
AM_0
 10
167.76525567420049
 20
250.0059204792783
 30
0.0
 11
167.64936631399939
 21
249.86685324703629
 31
0.0
  0
LINE
  5
2FE1
  8
AM_0
 10
170.14936631399641
 20
252.8668532470393
 30
0.0
 11
169.99944314719031
 21
252.68694544687099
 31
0.0
  0
LINE
  5
2FE2
  8
AM_0
 10
170.14936631399641
 20
252.8668532470393
 30
0.0
 11
170.38355378698941
 21
252.8668532470393
 31
0.0
  0
LINE
  5
2FE3
  8
AM_0
 10
167.64936631399939
 20
249.68582827944641
 30
0.0
 11
167.64936631399939
 21
244.36685324703629
 31
0.0
  0
LINE
  5
2FE4
  8
AM_0
 10
167.64936631399939
 20
249.69926818790029
 30
0.0
 11
167.64936631399939
 21
249.86685324703629
 31
0.0
  0
LINE
  5
2FE5
  8
AM_0
 10
178.14936631400039
 20
253.06685324703631
 30
0.0
 11
178.14936631400039
 21
253.36685324703629
 31
0.0
  0
ARC
  5
2FE6
  8
AM_0
 10
180.3676954780293
 20
237.6668532470363
 30
0.0
 40
0.0999999999999643
 50
15.00019500651214
 51
90.0
  0
ARC
  5
2FE7
  8
AM_0
 10
176.9618663139963
 20
240.11685324703629
 30
0.0
 40
6.8125000000000382
 50
157.91171016505771
 51
202.08828983494229
  0
ARC
  5
2FE8
  8
AM_0
 10
187.57436631399921
 20
235.6668532470363
 30
0.0
 40
0.1999999999999993
 50
0.0
 51
90.0
  0
ARC
  5
2FE9
  8
AM_0
 10
187.57436631399921
 20
253.06685324703611
 30
0.0
 40
0.2000000000000028
 50
270.0
 51
0.0
  0
ARC
  5
2FEA
  8
AM_0
 10
176.9618663139963
 20
248.61685324703629
 30
0.0
 40
6.8125000000000382
 50
157.91171016505771
 51
202.08828983494229
  0
ARC
  5
2FEB
  8
AM_0
 10
179.61769547802939
 20
237.11685324703629
 30
0.0
 40
0.1000000000000547
 50
288.4639767573006
 51
344.99980499348783
  0
ARC
  5
2FEC
  8
AM_0
 10
179.97212496510539
 20
237.6668532470373
 30
0.0
 40
0.1000000000000014
 50
90.0
 51
164.9998049934847
  0
ARC
  5
2FED
  8
AM_0
 10
170.38355378698941
 20
236.3668532470343
 30
0.0
 40
0.499999999999975
 50
219.80557109218771
 51
270.0
  0
ARC
  5
2FEE
  8
AM_0
 10
168.14936631399939
 20
239.0478782146273
 30
0.0
 40
0.5
 50
180.00000000000969
 51
219.80557109222951
  0
ARC
  5
2FEF
  8
AM_0
 10
178.84936631399941
 20
237.1093485590043
 30
0.0
 40
0.3000000000000007
 50
0.0
 51
90.0
  0
ARC
  5
2FF0
  8
AM_0
 10
178.84936631399941
 20
236.70423770171431
 30
0.0
 40
0.3000000000000043
 50
270.0
 51
0.0
  0
ARC
  5
2FF1
  8
AM_0
 10
178.84936631399941
 20
240.48294874440529
 30
0.0
 40
0.3000000000000007
 50
0.0
 51
90.0
  0
ARC
  5
2FF2
  8
AM_0
 10
178.84936631399941
 20
239.68303247811329
 30
0.0
 40
0.2999999999999971
 50
270.0
 51
0.0
  0
ARC
  5
2FF3
  8
AM_0
 10
178.84936631399941
 20
243.9168532470373
 30
0.0
 40
0.2999999999999971
 50
270.0
 51
0.0
  0
ARC
  5
2FF4
  8
AM_0
 10
178.84936631399941
 20
235.8383495156713
 30
0.0
 40
0.3000000000000302
 50
275.71059313755637
 51
0.0
  0
ARC
  5
2FF5
  8
AM_0
 10
176.34936631399941
 20
235.56685324703631
 30
0.0
 40
0.1999999999999993
 50
180.0
 51
270.0
  0
ARC
  5
2FF6
  8
AM_0
 10
179.44936631400029
 20
236.06685324703739
 30
0.0
 40
0.1999999999999957
 50
270.0
 51
0.0
  0
ARC
  5
2FF7
  8
AM_0
 10
175.9493663140004
 20
235.6668532470363
 30
0.0
 40
0.1999999999999993
 50
359.99999999997061
 51
90.0
  0
ARC
  5
2FF8
  8
AM_0
 10
181.47212496510531
 20
237.66685324703721
 30
0.0
 40
0.1000000000000014
 50
90.0
 51
164.9998049934847
  0
ARC
  5
2FF9
  8
AM_0
 10
181.1176954780293
 20
237.11685324703629
 30
0.0
 40
0.1000000000000014
 50
270.0
 51
344.99980499348783
  0
ARC
  5
2FFA
  8
AM_0
 10
180.72212496510531
 20
237.11685324703629
 30
0.0
 40
0.1000000000000311
 50
195.00019500644461
 51
270.0
  0
ARC
  5
2FFB
  8
AM_0
 10
183.27436631399931
 20
237.26685324703621
 30
0.0
 40
0.5
 50
359.99999999997721
 51
90.0
  0
ARC
  5
2FFC
  8
AM_0
 10
187.57436631399921
 20
242.47859093852631
 30
0.0
 40
0.1999999999999993
 50
0.0
 51
90.0
  0
ARC
  5
2FFD
  8
AM_0
 10
187.57436631399921
 20
237.75511555554721
 30
0.0
 40
0.2000000000000028
 50
270.0
 51
0.0
  0
ARC
  5
2FFE
  8
AM_0
 10
183.97436631399941
 20
236.06685324703619
 30
0.0
 40
0.1999999999999993
 50
179.99999999994131
 51
270.0
  0
ARC
  5
2FFF
  8
AM_0
 10
183.97436631399941
 20
252.6668532470373
 30
0.0
 40
0.2000000000000028
 50
90.0
 51
180.00000000005531
  0
ARC
  5
3000
  8
AM_0
 10
187.57436631399921
 20
250.97859093852631
 30
0.0
 40
0.1999999999999993
 50
0.0
 51
90.0
  0
ARC
  5
3001
  8
AM_0
 10
187.57436631399921
 20
246.2551155555463
 30
0.0
 40
0.2000000000000028
 50
270.0
 51
0.0
  0
ARC
  5
3002
  8
AM_0
 10
183.27436631399931
 20
251.46685324703631
 30
0.0
 40
0.5
 50
270.0
 51
0.0000000000227982
  0
ARC
  5
3003
  8
AM_0
 10
179.97609874242539
 20
251.61685324703629
 30
0.0
 40
0.1000000000000014
 50
90.0
 51
164.99980499355539
  0
ARC
  5
3004
  8
AM_0
 10
180.37166925534939
 20
251.61685324703629
 30
0.0
 40
0.0999999999999608
 50
15.000195006515289
 51
90.0
  0
ARC
  5
3005
  8
AM_0
 10
180.72609874242539
 20
251.06685324703631
 30
0.0
 40
0.0999999999999608
 50
195.0001950065153
 51
270.0
  0
ARC
  5
3006
  8
AM_0
 10
179.62166925534939
 20
251.06685324703631
 30
0.0
 40
0.0999999999999803
 50
286.07948273872381
 51
344.99980499348482
  0
ARC
  5
3007
  8
AM_0
 10
175.9493663140004
 20
253.0668532470373
 30
0.0
 40
0.1999999999999957
 50
270.0
 51
0.000000000029312
  0
ARC
  5
3008
  8
AM_0
 10
179.44936631400029
 20
252.6668532470363
 30
0.0
 40
0.1999999999999993
 50
0.0
 51
90.0
  0
ARC
  5
3009
  8
AM_0
 10
176.34936631399941
 20
253.1668532470373
 30
0.0
 40
0.2000000000000028
 50
90.0
 51
180.0
  0
ARC
  5
300A
  8
AM_0
 10
178.84936631399941
 20
252.8953569784023
 30
0.0
 40
0.3000000000000007
 50
0.0
 51
84.289406862443656
  0
ARC
  5
300B
  8
AM_0
 10
178.84936631399941
 20
244.81685324703631
 30
0.0
 40
0.3000000000000007
 50
0.0
 51
90.0
  0
ARC
  5
300C
  8
AM_0
 10
178.84936631399941
 20
249.05067401596031
 30
0.0
 40
0.3000000000000007
 50
0.0
 51
90.0
  0
ARC
  5
300D
  8
AM_0
 10
178.84936631399941
 20
248.25075774966831
 30
0.0
 40
0.2999999999999971
 50
270.0
 51
0.0
  0
ARC
  5
300E
  8
AM_0
 10
178.84936631399941
 20
252.0294687923593
 30
0.0
 40
0.3000000000000007
 50
0.0
 51
90.0
  0
ARC
  5
300F
  8
AM_0
 10
178.84936631399941
 20
251.6243579350693
 30
0.0
 40
0.3000000000000043
 50
270.0
 51
0.0
  0
ARC
  5
3010
  8
AM_0
 10
168.14936631399939
 20
249.6858282794463
 30
0.0
 40
0.5000000000000059
 50
140.1944289077704
 51
179.99999999998701
  0
ARC
  5
3011
  8
AM_0
 10
170.38355378698941
 20
252.3668532470393
 30
0.0
 40
0.5
 50
90.0
 51
140.1944289078121
  0
LINE
  5
3012
  8
AM_0
 10
187.97436631399941
 20
235.36685324703629
 30
0.0
 11
189.77436631399931
 21
235.36685324703629
 31
0.0
  0
LINE
  5
3013
  8
AM_0
 10
187.77436631399939
 20
235.56685324703631
 30
0.0
 11
187.77436631399939
 21
253.16685324703721
 31
0.0
  0
LINE
  5
3014
  8
AM_0
 10
189.77436631399931
 20
253.3668532470362
 30
0.0
 11
187.97436631399941
 21
253.36685324703629
 31
0.0
  0
ARC
  5
3015
  8
AM_0
 10
187.97436631399941
 20
235.56685324703631
 30
0.0
 40
0.1999999999999993
 50
180.0
 51
270.0
  0
ARC
  5
3016
  8
AM_0
 10
187.97436631399941
 20
253.16685324703721
 30
0.0
 40
0.2000000000000028
 50
90.0
 51
180.0
  0
POLYLINE
  5
3017
  8
AM_0
 66
     1
 10
0.0
 20
0.0
 30
0.0
  0
VERTEX
  5
3018
  8
AM_0
 10
185.91755755773499
 20
235.86685324703629
 30
0.0
  0
VERTEX
  5
3019
  8
AM_0
 10
186.59707631399931
 20
230.9982762470363
 30
0.0
 42
-1.0
  0
SEQEND
  5
301A
  8
AM_0
  0
LINE
  5
301B
  8
ﾁｭｳｼﾝｾﾝ1
 10
159.77436631399939
 20
279.36685324703632
 30
0.0
 11
193.07231245248971
 21
279.36685324703632
 31
0.0
  0
LINE
  5
301C
  8
AM_0
 10
181.77436631399931
 20
237.76685324703629
 30
0.0
 11
181.77436631399931
 21
214.9266192470364
 31
0.0
  0
LINE
  5
301D
  8
AM_0
 10
174.2743763139992
 20
235.86685324703569
 30
0.0
 11
174.2743763139992
 21
211.36686724703631
 31
0.0
  0
POLYLINE
  5
3045
  8
AM_0
 66
     1
 10
0.0
 20
0.0
 30
0.0
  0
VERTEX
  5
3046
  8
AM_0
  6
CONTINUOUS
 10
184.13761206069211
 20
267.36685324703637
 30
0.0
  0
VERTEX
  5
3047
  8
AM_0
  6
CONTINUOUS
 10
184.1425363139995
 20
260.63437624703641
 30
0.0
 42
-1.0
  0
SEQEND
  5
3048
  8
AM_0
  0
LINE
  5
3049
  8
AM_0
 10
189.77436631399931
 20
260.36685424703631
 30
0.0
 11
184.13977631399911
 21
260.36685424703637
 31
0.0
  0
LINE
  5
304A
  8
AM_0
 10
189.77436631399931
 20
258.36685324703632
 30
0.0
 11
184.13977631399911
 21
258.36685324703637
 31
0.0
  0
ARC
  5
304C
  8
AM_0
 10
183.04327631399931
 20
259.3629462470364
 30
0.0
 40
1.26892095
 50
90.000003000000945
 51
270.0
  0
ARC
  5
304E
  8
AM_0
 10
184.32373631399929
 20
259.36685224703638
 30
0.0
 40
1.0000000199999981
 50
90.000003000000945
 51
270.0
  0
LINE
  5
304F
  8
AM_0
 10
183.04327631399931
 20
260.63186824703638
 30
0.0
 11
189.77436631399931
 21
260.63186824703638
 31
0.0
  0
LINE
  5
3050
  8
AM_0
 10
183.04327631399931
 20
258.09402424703637
 30
0.0
 11
189.77436631399931
 21
258.09402424703637
 31
0.0
  0
POLYLINE
  5
305C
  8
AM_0
 66
     1
 10
0.0
 20
0.0
 30
0.0
  0
VERTEX
  5
305D
  8
AM_0
 10
184.18312631399931
 20
258.09752224703641
 30
0.0
  0
VERTEX
  5
305E
  8
AM_0
 10
184.39389735890629
 20
252.86685324703629
 30
0.0
 42
-1.0
  0
SEQEND
  5
305F
  8
AM_0
  0
LINE
  5
3084
  8
AM_0
 10
166.27437631400011
 20
316.42825675580832
 30
0.0
 11
166.27437631399991
 21
290.36685324703649
 31
0.0
  0
LINE
  5
3085
  8
AM_0
 10
157.27437631399931
 20
318.36685324703609
 30
0.0
 11
157.2743763139992
 21
247.3668532470362
 31
0.0
  0
LINE
  5
3086
  8
AM_0
 10
157.27437631399931
 20
318.36685324703632
 30
0.0
 11
174.27437631399931
 21
317.36685324703632
 31
0.0
  0
LINE
  5
3087
  8
AM_0
 10
157.27437631399931
 20
210.36685324703629
 30
0.0
 11
174.27437631399931
 21
211.36685324703629
 31
0.0
  0
LINE
  5
3088
  8
AM_0
 10
166.27437631399999
 20
307.96075644512769
 30
0.0
 11
174.2743763139992
 21
307.96075644512769
 31
0.0
  0
LINE
  5
3089
  8
AM_0
 10
166.27437631400011
 20
316.42825675580832
 30
0.0
 11
174.27437631399931
 21
316.42825675580832
 31
0.0
  0
LINE
  5
308B
  8
AM_0
 10
162.77437631399999
 20
299.0077262122964
 30
0.0
 11
166.27437631399999
 21
299.0077262122964
 31
0.0
  0
LINE
  5
308C
  8
AM_0
 10
162.77437631399999
 20
307.5077262122964
 30
0.0
 11
166.27437631400011
 21
307.5077262122964
 31
0.0
  0
LINE
  5
308D
  8
AM_0
 10
162.27437631399999
 20
307.0077262122964
 30
0.0
 11
162.27437631399999
 21
299.50772621229618
 31
0.0
  0
ARC
  5
308E
  8
AM_0
 10
162.77437631399999
 20
307.0077262122964
 30
0.0
 40
0.5
 50
90.0
 51
180.0
  0
ARC
  5
308F
  8
AM_0
 10
162.77437631399999
 20
299.50772621229618
 30
0.0
 40
0.5
 50
180.0
 51
270.0
  0
LINE
  5
3090
  8
AM_0
 10
157.27437631399931
 20
306.63904774017641
 30
0.0
 11
162.27437631399999
 21
306.63904774017641
 31
0.0
  0
LINE
  5
3091
  8
AM_0
 10
157.27437631399931
 20
296.90396524188048
 30
0.0
 11
166.27437631399999
 21
296.90396524188043
 31
0.0
  0
LINE
  5
3092
  8
AM_0
 10
166.27437631400011
 20
212.3054497382642
 30
0.0
 11
166.27437631399991
 21
240.0801398554282
 31
0.0
  0
LINE
  5
3093
  8
AM_0
 10
166.27437631399999
 20
220.77295004894481
 30
0.0
 11
174.2743763139992
 21
220.77295004894489
 31
0.0
  0
LINE
  5
3094
  8
AM_0
 10
166.27437631400011
 20
212.3054497382642
 30
0.0
 11
174.27437631399931
 21
212.3054497382642
 31
0.0
  0
LINE
  5
3096
  8
AM_0
 10
162.77437631399999
 20
229.7259802817762
 30
0.0
 11
166.27437631399999
 21
229.7259802817762
 31
0.0
  0
LINE
  5
3097
  8
AM_0
 10
162.77437631399999
 20
221.2259802817762
 30
0.0
 11
166.27437631400011
 21
221.2259802817762
 31
0.0
  0
LINE
  5
3098
  8
AM_0
 10
162.27437631399999
 20
221.7259802817762
 30
0.0
 11
162.27437631399999
 21
229.2259802817762
 31
0.0
  0
ARC
  5
3099
  8
AM_0
 10
162.77437631399999
 20
221.7259802817762
 30
0.0
 40
0.5
 50
180.0
 51
270.0
  0
ARC
  5
309A
  8
AM_0
 10
162.77437631399999
 20
229.2259802817762
 30
0.0
 40
0.5
 50
90.0
 51
180.0
  0
LINE
  5
309B
  8
AM_0
 10
157.27437631399931
 20
222.09465875389611
 30
0.0
 11
162.27437631399999
 21
222.09465875389611
 31
0.0
  0
LINE
  5
309C
  8
AM_0
 10
157.27437631399931
 20
231.82974125219201
 30
0.0
 11
166.27437631399999
 21
231.82974125219209
 31
0.0
  0
LINE
  5
320D
  8
AM_0
 10
122.36379156266359
 20
300.35726409196241
 30
0.0
 11
122.36379156266359
 21
293.8456591930036
 31
0.0
  0
LINE
  5
320E
  8
AM_0
 10
119.2743763139991
 20
253.3668532470362
 30
0.0
 11
119.2743763139991
 21
247.86685324703629
 31
0.0
  0
LINE
  5
320F
  8
AM_0
 10
124.7743763139991
 20
260.86685324703632
 30
0.0
 11
124.7743763139991
 21
267.86685324703609
 31
0.0
  0
LINE
  5
3210
  8
AM_0
 10
136.4743763139991
 20
247.86685324703629
 30
0.0
 11
119.2743763139991
 21
247.86685324703629
 31
0.0
  0
LINE
  5
3211
  8
AM_0
 10
151.27437631399911
 20
210.3668532470362
 30
0.0
 11
151.27437631399911
 21
241.0751905292237
 31
0.0
  0
LINE
  5
3212
  8
AM_0
 10
119.2743763139991
 20
262.86685324703632
 30
0.0
 11
120.17437631399901
 21
262.86685324703632
 31
0.0
  0
LINE
  5
3213
  8
AM_0
 10
136.77437631399911
 20
255.86685324703629
 30
0.0
 11
136.77437631399911
 21
258.45136293164018
 31
0.0
  0
LINE
  5
3215
  8
AM_0
 10
117.0743763139988
 20
265.8668532470362
 30
0.0
 11
117.0743763139988
 21
262.86685324703632
 31
0.0
  0
LINE
  5
3216
  8
AM_0
 10
120.17437631399901
 20
262.59450151245272
 30
0.0
 11
120.1743763139991
 21
266.13920498162003
 31
0.0
  0
LINE
  5
3217
  8
AM_0
 10
116.774376313999
 20
265.56685324703619
 30
0.0
 11
120.1743763139992
 21
265.56685324703619
 31
0.0
  0
LINE
  5
3218
  8
AM_0
 10
124.17437631399901
 20
261.98528338662908
 30
0.0
 11
124.17437631399901
 21
260.86685324703632
 31
0.0
  0
LINE
  5
3219
  8
AM_0
 10
124.17437631399901
 20
262.86685324703632
 30
0.0
 11
124.17437631399901
 21
262.76685324703618
 31
0.0
  0
LINE
  5
321A
  8
AM_0
 10
124.17437631399901
 20
262.76685324703618
 30
0.0
 11
124.17437631399901
 21
261.98528338662908
 31
0.0
  0
LINE
  5
321B
  8
AM_0
 10
119.2743763139991
 20
247.86685324703629
 30
0.0
 11
119.2743763139991
 21
239.62931923761391
 31
0.0
  0
LINE
  5
321C
  8
AM_0
 10
136.62792970459239
 20
258.80491632223362
 30
0.0
 11
136.2728625784041
 21
259.15998344842188
 31
0.0
  0
LINE
  5
321D
  8
AM_0
 10
119.2743763139991
 20
265.8668532470362
 30
0.0
 11
119.2743763139991
 21
289.10438725645861
 31
0.0
  0
LINE
  5
321E
  8
AM_0
 10
151.27437631399911
 20
309.36685324703637
 30
0.0
 11
127.5043676133664
 21
309.36685324703632
 31
0.0
  0
LINE
  5
321F
  8
AM_0
 10
119.2743763139991
 20
254.29325642275731
 30
0.0
 11
119.2743763139991
 21
262.86685324703632
 31
0.0
  0
LINE
  5
3220
  8
AM_0
 10
157.27437631399931
 20
318.36685324703632
 30
0.0
 11
151.27437631399911
 21
318.36685324703632
 31
0.0
  0
LINE
  5
3221
  8
AM_0
 10
151.27437631399911
 20
210.3668532470362
 30
0.0
 11
157.27437631399911
 21
210.3668532470362
 31
0.0
  0
LINE
  5
3223
  8
AM_0
 10
151.27437631399911
 20
219.3668532470362
 30
0.0
 11
141.77437631399911
 21
219.3668532470362
 31
0.0
  0
LINE
  5
3224
  8
AM_0
 10
119.3199530549625
 20
289.62533178945932
 30
0.0
 11
121.88939650262481
 21
304.19736970072307
 31
0.0
  0
LINE
  5
3225
  8
AM_0
 10
119.2743763139991
 20
254.29325642275731
 30
0.0
 11
119.2743763139991
 21
253.3668532470362
 31
0.0
  0
LINE
  5
3226
  8
AM_0
 10
141.77437631399911
 20
219.43547569742211
 30
0.0
 11
139.21158901510211
 21
219.43547569742211
 31
0.0
  0
LINE
  5
3227
  8
AM_0
 10
125.3182148217002
 20
219.3668532470362
 30
0.0
 11
126.2743763139991
 21
219.3668532470362
 31
0.0
  0
LINE
  5
3228
  8
AM_0
 10
119.3199530549625
 20
239.10837470461311
 30
0.0
 11
122.36379156266359
 21
221.8459087140354
 31
0.0
  0
LINE
  5
3229
  8
AM_0
 10
119.2743763139991
 20
239.36685324703629
 30
0.0
 11
119.3199530549625
 21
239.10837470461311
 31
0.0
  0
LINE
  5
322A
  8
AM_0
 10
119.2743763139991
 20
239.62931923761391
 30
0.0
 11
119.2743763139991
 21
239.36685324703629
 31
0.0
  0
LINE
  5
322B
  8
AM_0
 10
130.32437631399921
 20
235.36579685866411
 30
0.0
 11
135.2243763139991
 21
235.36579685866411
 31
0.0
  0
LINE
  5
322C
  8
AM_0
 10
130.32437631399921
 20
234.1527765402316
 30
0.0
 11
135.2243763139991
 21
234.1527765402316
 31
0.0
  0
LINE
  5
322D
  8
AM_0
 10
129.52437631399911
 20
234.56579685866421
 30
0.0
 11
129.52437631399911
 21
228.9246654382178
 31
0.0
  0
LINE
  5
322E
  8
AM_0
 10
129.52437631399911
 20
227.0932595692851
 30
0.0
 11
129.52437631399911
 21
228.9246654382178
 31
0.0
  0
LINE
  5
322F
  8
AM_0
 10
125.67437631399901
 20
220.40356290936211
 30
0.0
 11
125.67437631399901
 21
227.0261272874892
 31
0.0
  0
LINE
  5
3231
  8
AM_0
 10
136.02437631399911
 20
234.56579685866421
 30
0.0
 11
136.02437631399911
 21
232.8004212526626
 31
0.0
  0
LINE
  5
3232
  8
AM_0
 10
139.87437631399911
 20
227.0261272874892
 30
0.0
 11
139.87437631399911
 21
220.40356290936211
 31
0.0
  0
LINE
  5
3233
  8
AM_0
 10
131.4095409127728
 20
224.80729186917131
 30
0.0
 11
126.2743763139991
 21
223.0172766139469
 31
0.0
  0
LINE
  5
3234
  8
AM_0
 10
139.27437631399911
 20
223.0172766139469
 30
0.0
 11
137.63434008785299
 21
223.58896030732319
 31
0.0
  0
LINE
  5
3235
  8
AM_0
 10
130.26400290862611
 20
222.8231618439882
 30
0.0
 11
126.2743763139991
 21
221.43245813241921
 31
0.0
  0
LINE
  5
3236
  8
AM_0
 10
139.27437631399911
 20
221.43245813241921
 30
0.0
 11
136.87263909882969
 21
222.26965549415911
 31
0.0
  0
LINE
  5
3237
  8
AM_0
 10
139.27437631399911
 20
223.0172766139469
 30
0.0
 11
139.27437631399911
 21
220.14813546510209
 31
0.0
  0
LINE
  5
3238
  8
AM_0
 10
139.27437631399911
 20
220.14813546510209
 30
0.0
 11
139.27437631399911
 21
218.1288928469815
 31
0.0
  0
LINE
  5
3239
  8
AM_0
 10
132.7743340521728
 20
215.86310864776581
 30
0.0
 11
139.27437631399911
 21
218.1288928469815
 31
0.0
  0
LINE
  5
323A
  8
AM_0
 10
126.2743763139991
 20
218.1288928469815
 30
0.0
 11
126.2743763139991
 21
220.14813546510209
 31
0.0
  0
LINE
  5
323B
  8
AM_0
 10
126.2743763139991
 20
218.1288928469815
 30
0.0
 11
132.7743340521728
 21
215.8631381110136
 31
0.0
  0
LINE
  5
323C
  8
AM_0
 10
126.2743763139991
 20
220.14813546510209
 30
0.0
 11
126.2743763139991
 21
223.0172766139469
 31
0.0
  0
LINE
  5
3241
  8
AM_0
 10
118.7743376459922
 20
317.8668532470362
 30
0.0
 11
118.77431519359349
 21
344.8668532470362
 31
0.0
  0
LINE
  5
3242
  8
AM_0
 10
118.77431519359349
 20
344.8668532470362
 30
0.0
 11
126.77431519359619
 21
344.8668532470362
 31
0.0
  0
LINE
  5
3243
  8
AM_0
 10
126.77431519359619
 20
344.8668532470362
 30
0.0
 11
128.27431053841701
 21
350.46491208502482
 31
0.0
  0
LINE
  5
3244
  8
AM_0
 10
128.27431053841701
 20
350.46491208502482
 30
0.0
 11
128.27429577505669
 21
368.21850436491508
 31
0.0
  0
LINE
  5
3245
  8
AM_0
 10
118.77431519359349
 20
344.8668532470362
 30
0.0
 11
117.2743105383845
 21
350.46494683186609
 31
0.0
  0
LINE
  5
3246
  8
AM_0
 10
117.2743105383845
 20
350.46494683186609
 30
0.0
 11
117.27429577506039
 21
368.2184952176417
 31
0.0
  0
LINE
  5
3247
  8
AM_0
 10
122.7743376459935
 20
368.2184952176417
 30
0.0
 11
122.7743376459935
 21
350.46494683186609
 31
0.0
  0
LINE
  5
3249
  8
AM_0
 10
126.77431519359619
 20
344.8668532470362
 30
0.0
 11
126.774337645995
 21
317.8668532470362
 31
0.0
  0
LINE
  5
324A
  8
AM_0
 10
136.77437631399911
 20
293.8456591930036
 30
0.0
 11
136.77437631399911
 21
248.16685324703619
 31
0.0
  0
LINE
  5
324B
  8
AM_0
 10
124.7743763139991
 20
258.45136293164018
 30
0.0
 11
124.7743763139991
 21
255.86685324703629
 31
0.0
  0
LINE
  5
324C
  8
AM_0
 10
125.2758900495941
 20
259.15998344842188
 30
0.0
 11
124.92082292340579
 21
258.80491632223362
 31
0.0
  0
LINE
  5
324D
  8
AM_0
 10
136.27437631399911
 20
255.3668532470362
 30
0.0
 11
125.2743763139991
 21
255.3668532470362
 31
0.0
  0
LINE
  5
324E
  8
AM_0
 10
116.2743384774982
 20
316.8668478418291
 30
0.0
 11
116.2743655035336
 21
311.86684784182921
 31
0.0
  0
LINE
  5
324F
  8
AM_0
 10
129.2743384776297
 20
316.86685865224331
 30
0.0
 11
129.27436440544921
 21
312.0700359988727
 31
0.0
  0
LINE
  5
3250
  8
AM_0
 10
119.89487956607999
 20
309.8668532470362
 30
0.0
 11
119.32331766471469
 21
310.52343706909647
 31
0.0
  0
LINE
  5
3251
  8
AM_0
 10
117.27436550351899
 20
310.86685324703609
 30
0.0
 11
128.27436440544921
 21
310.86685324703609
 31
0.0
  0
LINE
  5
3252
  8
AM_0
 10
129.27436440544921
 20
312.0700359988727
 30
0.0
 11
129.27436440544921
 21
311.8668532470362
 31
0.0
  0
LINE
  5
3253
  8
AM_0
 10
129.27436440544921
 20
312.0700359988727
 30
0.0
 11
129.27436550366511
 21
311.8668586522432
 31
0.0
  0
LINE
  5
3254
  8
AM_0
 10
117.2743384774836
 20
317.8668532470362
 30
0.0
 11
128.27433847764431
 21
317.8668532470362
 31
0.0
  0
LINE
  5
3255
  8
AM_0
 10
127.2818122761613
 20
309.89744031732158
 30
0.0
 11
134.40461200950671
 21
292.91620099857488
 31
0.0
  0
LINE
  5
3256
  8
AM_0
 10
119.89487956607999
 20
309.8668532470362
 30
0.0
 11
126.4715946413902
 21
291.17231261663397
 31
0.0
  0
LINE
  5
3257
  8
AM_0
 10
124.17437631399901
 20
262.86685324703632
 30
0.0
 11
124.17437631399901
 21
262.76685324703618
 31
0.0
  0
LINE
  5
3258
  8
AM_0
 10
124.17437631399901
 20
262.76685324703618
 30
0.0
 11
124.17437631399901
 21
261.98528338662908
 31
0.0
  0
LINE
  5
3259
  8
AM_0
 10
124.17437631399901
 20
260.86685324703632
 30
0.0
 11
124.7743763139991
 21
260.86685324703632
 31
0.0
  0
LINE
  5
325A
  8
AM_0
 10
121.4743763139991
 20
261.98528338662908
 30
0.0
 11
121.4743763139991
 21
266.7484231074435
 31
0.0
  0
LINE
  5
325B
  8
AM_0
 10
121.3133320847416
 20
261.69859175828611
 30
0.0
 11
120.3807790352344
 21
262.23700151245271
 31
0.0
  0
LINE
  5
325C
  8
AM_0
 10
124.17437631399901
 20
267.86685324703609
 30
0.0
 11
124.17437631399901
 21
262.86685324703632
 31
0.0
  0
LINE
  5
325D
  8
AM_0
 10
121.74682790602949
 20
261.19142676649318
 30
0.0
 11
123.9019247219685
 21
261.19142676649318
 31
0.0
  0
LINE
  5
325E
  8
AM_0
 10
121.74682790602949
 20
262.77914000676481
 30
0.0
 11
123.9019247219685
 21
262.77914000676481
 31
0.0
  0
LINE
  5
325F
  8
AM_0
 10
120.1743763139992
 20
265.8668532470362
 30
0.0
 11
117.0743763139988
 21
265.8668532470362
 31
0.0
  0
LINE
  5
3260
  8
AM_0
 10
117.0743763139988
 20
265.8668532470362
 30
0.0
 11
116.774376313999
 21
265.56685324703619
 31
0.0
  0
LINE
  5
3261
  8
AM_0
 10
116.774376313999
 20
265.56685324703619
 30
0.0
 11
116.774376313999
 21
263.16685324703627
 31
0.0
  0
LINE
  5
3262
  8
AM_0
 10
117.0743763139988
 20
262.86685324703632
 30
0.0
 11
119.2743763139991
 21
262.86685324703632
 31
0.0
  0
LINE
  5
3263
  8
AM_0
 10
116.774376313999
 20
263.16685324703627
 30
0.0
 11
117.0743763139988
 21
262.86685324703632
 31
0.0
  0
LINE
  5
3264
  8
AM_0
 10
120.17437631399901
 20
263.16685324703627
 30
0.0
 11
116.774376313999
 21
263.16685324703627
 31
0.0
  0
ARC
  5
3265
  8
AM_0
 10
118.7743763139991
 20
264.36685324703632
 30
0.0
 40
18.000000000000082
 50
344.7909603598892
 51
15.20903964010752
  0
ARC
  5
3266
  8
AM_0
 10
122.8815994979725
 20
261.98528338662908
 30
0.0
 40
1.292776816026465
 50
322.11555894630447
 51
0.0
  0
ARC
  5
3267
  8
AM_0
 10
142.77437631399911
 20
264.36685324703632
 30
0.0
 40
17.999999999999918
 50
164.790960359889
 51
195.2090396401106
  0
ARC
  5
3268
  8
AM_0
 10
130.07818916506761
 20
221.11726534070181
 30
0.0
 40
6.001601094213977
 50
95.294644622325137
 51
137.2036378052702
  0
ARC
  5
3269
  8
AM_0
 10
130.07818916506761
 20
222.94867120963451
 30
0.0
 40
6.0016010942139628
 50
95.294644622325137
 51
137.2036378052702
  0
ARC
  5
326A
  8
AM_0
 10
126.5441079991963
 20
221.61415099778591
 30
0.0
 40
1.4906229315522701
 50
234.3051223779006
 51
259.57476505017542
  0
ARC
  5
326B
  8
AM_0
 10
135.4705634629307
 20
222.94867120963451
 30
0.0
 40
6.0016010942138758
 50
42.796362194729817
 51
44.995924864880571
  0
ARC
  5
326C
  8
AM_0
 10
135.4705634629307
 20
221.11726534070181
 30
0.0
 40
6.0016010942138758
 50
42.796362194729817
 51
53.89727831640235
  0
ARC
  5
326D
  8
AM_0
 10
139.004644628802
 20
221.61415099778591
 30
0.0
 40
1.490622931552253
 50
280.42523494982129
 51
305.69487762209508
  0
ARC
  5
326E
  8
AM_0
 10
122.77430272004
 20
359.86685324703632
 30
0.0
 40
10.0
 50
56.63303467623782
 51
123.3670606147022
  0
ARC
  5
326F
  8
AM_0
 10
120.024316710527
 20
363.78584685803582
 30
0.0
 40
5.2164151124522951
 50
58.18448044842868
 51
121.8155195515713
  0
ARC
  5
3270
  8
AM_0
 10
125.52432408416161
 20
363.78497196727568
 30
0.0
 40
5.217140387381062
 50
58.190058295973543
 51
121.81013228735971
  0
ARC
  5
3271
  8
AM_0
 10
120.024324092189
 20
351.83290084620887
 30
0.0
 40
3.0714610092699122
 50
206.44737672421789
 51
333.55262327578203
  0
ARC
  5
3272
  8
AM_0
 10
125.52433272356021
 20
351.83116064151358
 30
0.0
 40
3.070669812974502
 50
206.41845794673111
 51
333.58081810520679
  0
ARC
  5
3273
  8
AM_0
 10
126.2368061900587
 20
264.36685324703632
 30
0.0
 40
4.762429876059711
 50
160.52575999458659
 51
199.47424000541341
  0
ARC
  5
3274
  8
AM_0
 10
122.7671531300256
 20
261.98528338662908
 30
0.0
 40
1.292776816026556
 50
142.11555894629771
 51
217.88444105369541
  0
ARC
  5
3275
  8
AM_0
 10
119.41194643793951
 20
264.36685324703632
 30
0.0
 40
4.762429876059584
 50
340.52575999458662
 51
19.474240005410071
  0
ARC
  5
3276
  8
AM_0
 10
122.8815994979725
 20
261.98528338662908
 30
0.0
 40
1.2927768160265021
 50
0.0
 51
37.884441053702282
  0
ARC
  5
3277
  8
AM_0
 10
132.50692447129541
 20
229.4419584216229
 30
8206336.7530117426
 40
12.9134744604336
 50
271.18655406403798
 51
287.92670513354841
  0
LINE
  5
3278
  8
AM_0
 10
136.48169340069401
 20
217.1554196658073
 30
8206336.7530117426
 11
136.8942741678953
 21
217.3086613511999
 31
8206336.7530117426
  0
LINE
  5
3279
  8
AM_0
 10
136.8942741678953
 20
217.3086613511999
 30
8206336.7530117426
 11
137.29676591215181
 21
217.4876307139057
 31
8206336.7530117426
  0
ARC
  5
327A
  8
AM_0
 10
134.79300427139589
 20
222.7724312776281
 30
8206336.7530117426
 40
5.8479004225482916
 50
295.35002817212489
 51
303.5670510400584
  0
LINE
  5
327B
  8
AM_0
 10
138.02638134740579
 20
217.89973058536569
 30
8206336.7530117426
 11
138.34092422665699
 21
218.1320040405362
 31
8206336.7530117426
  0
LINE
  5
327C
  8
AM_0
 10
138.34092422665699
 20
218.1320040405362
 30
8206336.7530117426
 11
138.6301133748544
 21
218.39487491657479
 31
8206336.7530117426
  0
ARC
  5
327D
  8
AM_0
 10
136.7512304114762
 20
220.26055930678231
 30
8206336.7530117426
 40
2.647825416060579
 50
315.2019510761055
 51
327.66908745373593
  0
LINE
  5
327E
  8
AM_0
 10
138.988572491322
 20
218.84448026531319
 30
8206336.7530117426
 11
139.1174884476014
 21
219.0840120305495
 31
8206336.7530117426
  0
LINE
  5
327F
  8
AM_0
 10
139.1174884476014
 20
219.0840120305495
 30
8206336.7530117426
 11
139.21158901510211
 21
219.3386710190338
 31
8206336.7530117426
  0
ARC
  5
3280
  8
AM_0
 10
137.61276877615299
 20
219.79375968363709
 30
8206336.7530117426
 40
1.6623272388802151
 50
344.1115111941516
 51
352.55958186686098
  0
LINE
  5
3281
  8
AM_0
 10
139.261099318481
 20
219.5784964207424
 30
8206336.7530117426
 11
139.27100398292211
 21
219.67936217446311
 31
8206336.7530117426
  0
LINE
  5
3282
  8
AM_0
 10
139.27100398292211
 20
219.67936217446311
 30
8206336.7530117426
 11
139.27437631399911
 21
219.78066088820191
 31
8206336.7530117426
  0
ARC
  5
3283
  8
AM_0
 10
137.67928289532961
 20
219.7776847367038
 30
8206336.7530117426
 40
1.595096195143147
 50
0.1069032823798393
 51
11.47976002760983
  0
LINE
  5
3284
  8
AM_0
 10
139.24246930438809
 20
220.0951435880454
 30
8206336.7530117426
 11
139.2018373942029
 21
220.25571746356979
 31
8206336.7530117426
  0
LINE
  5
3285
  8
AM_0
 10
139.2018373942029
 20
220.25571746356979
 30
8206336.7530117426
 11
139.14619732966929
 21
220.41168575699251
 31
8206336.7530117426
  0
ARC
  5
3286
  8
AM_0
 10
137.27072303601551
 20
219.63630297560761
 30
8206336.7530117426
 40
2.029438908620818
 50
22.461811304460841
 51
32.14428943578929
  0
LINE
  5
3287
  8
AM_0
 10
138.98907107901221
 20
220.7160725283147
 30
8206336.7530117426
 11
138.86678233247781
 21
220.89338312103661
 31
8206336.7530117426
  0
LINE
  5
3288
  8
AM_0
 10
138.86678233247781
 20
220.89338312103661
 30
8206336.7530117426
 11
138.7299287321396
 21
221.0597650434261
 31
8206336.7530117426
  0
ARC
  5
3289
  8
AM_0
 10
136.23177074595571
 20
218.81675335761329
 30
8206336.7530117426
 40
3.357364255874967
 50
41.919595935557027
 51
50.918621528346122
  0
LINE
  5
328A
  8
AM_0
 10
138.3483322509631
 20
221.42291186049599
 30
8206336.7530117426
 11
137.92919363356299
 21
221.7256083381217
 31
8206336.7530117426
  0
LINE
  5
328B
  8
AM_0
 10
137.92919363356299
 20
221.7256083381217
 30
8206336.7530117426
 11
137.4800399536654
 21
221.98296003937631
 31
8206336.7530117426
  0
ARC
  5
328C
  8
AM_0
 10
134.14881427063781
 20
215.45534974510679
 30
8206336.7530117426
 40
7.3284896605723491
 50
62.963482965306312
 51
68.223671679105394
  0
ARC
  5
3293
  8
AM_0
 10
133.0418281567184
 20
229.44195842167599
 30
8206336.7530117426
 40
12.91347446048893
 50
252.0732948664546
 51
268.81307083254632
  0
LINE
  5
3294
  8
AM_0
 10
129.06705922730421
 20
217.1554196658073
 30
8206336.7530117426
 11
128.65447846010301
 21
217.3086613511999
 31
8206336.7530117426
  0
LINE
  5
3295
  8
AM_0
 10
128.65447846010301
 20
217.3086613511999
 30
8206336.7530117426
 11
128.25198671584641
 21
217.4876307139057
 31
8206336.7530117426
  0
ARC
  5
3296
  8
AM_0
 10
130.75574835660731
 20
222.77243127763671
 30
8206336.7530117426
 40
5.8479004225582418
 50
236.43294895995061
 51
244.649971827868
  0
LINE
  5
3297
  8
AM_0
 10
127.5223712805924
 20
217.89973058536569
 30
8206336.7530117426
 11
127.2078284013412
 21
218.1320040405362
 31
8206336.7530117426
  0
LINE
  5
3298
  8
AM_0
 10
127.2078284013412
 20
218.1320040405362
 30
8206336.7530117426
 11
126.9186392531437
 21
218.39487491657479
 31
8206336.7530117426
  0
ARC
  5
3299
  8
AM_0
 10
128.79752221652171
 20
220.26055930678169
 30
8206336.7530117426
 40
2.6478254160599781
 50
212.33091254625589
 51
224.79804892389001
  0
LINE
  5
329A
  8
AM_0
 10
126.56018013667619
 20
218.84448026531319
 30
8206336.7530117426
 11
126.43126418039679
 21
219.0840120305495
 31
8206336.7530117426
  0
LINE
  5
329B
  8
AM_0
 10
126.43126418039679
 20
219.0840120305495
 30
8206336.7530117426
 11
126.33716361289611
 21
219.3386710190338
 31
8206336.7530117426
  0
ARC
  5
329C
  8
AM_0
 10
127.9359838518747
 20
219.7937596836436
 30
8206336.7530117426
 40
1.6623272389105701
 50
187.44041813322769
 51
195.88848880578729
  0
LINE
  5
329D
  8
AM_0
 10
126.2876533095171
 20
219.5784964207424
 30
8206336.7530117426
 11
126.2777486450762
 21
219.67936217446311
 31
8206336.7530117426
  0
LINE
  5
329E
  8
AM_0
 10
126.2777486450762
 20
219.67936217446311
 30
8206336.7530117426
 11
126.2743763139991
 21
219.78066088820191
 31
8206336.7530117426
  0
ARC
  5
329F
  8
AM_0
 10
127.86946973266561
 20
219.7776847367038
 30
8206336.7530117426
 40
1.5950961951403351
 50
168.52023997237021
 51
179.8930967176201
  0
LINE
  5
32A0
  8
AM_0
 10
126.3062833236101
 20
220.0951435880454
 30
8206336.7530117426
 11
126.3469152337954
 21
220.25571746356979
 31
8206336.7530117426
  0
LINE
  5
32A1
  8
AM_0
 10
126.3469152337954
 20
220.25571746356979
 30
8206336.7530117426
 11
126.40255529832871
 21
220.41168575699251
 31
8206336.7530117426
  0
ARC
  5
32A2
  8
AM_0
 10
128.27802959199229
 20
219.63630297560169
 30
8206336.7530117426
 40
2.02943890863216
 50
147.8557105642179
 51
157.53818869548999
  0
LINE
  5
32A3
  8
AM_0
 10
126.55968154898591
 20
220.7160725283147
 30
8206336.7530117426
 11
126.6819702955205
 21
220.89338312103661
 31
8206336.7530117426
  0
LINE
  5
32A4
  8
AM_0
 10
126.6819702955205
 20
220.89338312103661
 30
8206336.7530117426
 11
126.8188238958586
 21
221.0597650434261
 31
8206336.7530117426
  0
ARC
  5
32A5
  8
AM_0
 10
129.31698188205121
 20
218.81675335760491
 30
8206336.7530117426
 40
3.3573642558870951
 50
129.08137847167899
 51
138.08040406443371
  0
LINE
  5
32A6
  8
AM_0
 10
127.200420377035
 20
221.42291186049599
 30
8206336.7530117426
 11
127.6195589944352
 21
221.7256083381217
 31
8206336.7530117426
  0
LINE
  5
32A7
  8
AM_0
 10
127.6195589944352
 20
221.7256083381217
 30
8206336.7530117426
 11
128.0687126743328
 21
221.98296003937631
 31
8206336.7530117426
  0
ARC
  5
32A8
  8
AM_0
 10
131.3999383573593
 20
215.45534974511079
 30
8206336.7530117426
 40
7.3284896605682359
 50
109.0382363849769
 51
117.03651703470091
  0
LINE
  5
32A9
  8
AM_0
 10
129.0093918125815
 20
222.38297905984081
 30
8206336.7530117426
 11
129.6858897071489
 21
222.5898589094592
 31
8206336.7530117426
  0
LINE
  5
32AA
  8
AM_0
 10
129.6858897071489
 20
222.5898589094592
 30
8206336.7530117426
 11
130.23267908488421
 21
222.71496023101119
 31
8206336.7530117426
  0
ARC
  5
32D7
  8
AM_0
 10
136.4743763139991
 20
248.16685324703619
 30
0.0
 40
0.2999999999999972
 50
270.0
 51
0.0
  0
ARC
  5
32D8
  8
AM_0
 10
136.62641596899741
 20
259.51353683901522
 30
0.0
 40
0.4999999999998723
 50
164.79096035989909
 51
225.00000000001879
  0
ARC
  5
32D9
  8
AM_0
 10
122.2743763139991
 20
239.62931923761391
 30
0.0
 40
3.0
 50
180.0
 51
190.00000000000171
  0
ARC
  5
32DA
  8
AM_0
 10
122.2743763139991
 20
289.10438725645861
 30
0.0
 40
2.999999999999992
 50
169.9999999999981
 51
180.0
  0
ARC
  5
32DB
  8
AM_0
 10
125.3182148217002
 20
222.3668532470362
 30
0.0
 40
2.9999999999999631
 50
190.00000000000171
 51
270.0
  0
ARC
  5
32DC
  8
AM_0
 10
130.32437631399921
 20
234.56579685866421
 30
0.0
 40
0.7999999999998977
 50
90.0
 51
180.0
  0
ARC
  5
32DD
  8
AM_0
 10
130.32437631399921
 20
233.35277654023159
 30
0.0
 40
0.7999999999999972
 50
90.0
 51
180.0
  0
ARC
  5
32DE
  8
AM_0
 10
135.2243763139991
 20
234.56579685866421
 30
0.0
 40
0.8000000000000112
 50
0.0
 51
90.0
  0
ARC
  5
32DF
  8
AM_0
 10
135.2243763139991
 20
233.35277654023159
 30
0.0
 40
0.8000000000000112
 50
0.0
 51
90.0
  0
ARC
  5
32E0
  8
AM_0
 10
125.2743763139991
 20
255.86685324703629
 30
0.0
 40
0.5
 50
180.0
 51
270.0
  0
ARC
  5
32E1
  8
AM_0
 10
136.27437631399911
 20
255.86685324703629
 30
0.0
 40
0.5
 50
270.0
 51
0.0
  0
ARC
  5
32E2
  8
AM_0
 10
136.27437631399911
 20
258.45136293164018
 30
0.0
 40
0.5
 50
0.0
 51
45.000000000000291
  0
ARC
  5
32E3
  8
AM_0
 10
124.92233665900081
 20
259.51353683901522
 30
0.0
 40
0.5000000000001048
 50
314.99999999998619
 51
15.20903964010069
  0
ARC
  5
32E4
  8
AM_0
 10
125.2743763139991
 20
258.45136293164018
 30
0.0
 40
0.499999999999984
 50
134.99999999999079
 51
180.0
  0
ARC
  5
32E5
  8
AM_0
 10
117.2743384774836
 20
316.86685324703609
 30
0.0
 40
1.0
 50
90.0
 51
180.00030969555451
  0
ARC
  5
32E6
  8
AM_0
 10
128.27433847764431
 20
316.86685324703609
 30
0.0
 40
0.9999999999999992
 50
0.0003096955479991
 51
90.0
  0
ARC
  5
32E7
  8
AM_0
 10
117.27436550351899
 20
311.8668532470362
 30
0.0
 40
0.9999999999999992
 50
180.00030969555451
 51
270.0
  0
ARC
  5
32E8
  8
AM_0
 10
128.27436440544921
 20
311.8668532470362
 30
0.0
 40
1.0
 50
270.0
 51
0.0
  0
ARC
  5
32E9
  8
AM_0
 10
127.7546061925346
 20
310.26685324703618
 30
0.0
 40
0.5999999999999944
 50
90.0
 51
218.00194433773029
  0
ARC
  5
32EA
  8
AM_0
 10
118.5690646006781
 20
309.8668532470362
 30
0.0
 40
0.9999999999999468
 50
41.03985310957956
 51
90.0
  0
ARC
  5
32EB
  8
AM_0
 10
120.5871817564696
 20
262.59450151245272
 30
0.0
 40
0.4128054424705854
 50
180.0
 51
239.99999999999949
  0
ARC
  5
32EC
  8
AM_0
 10
120.900526642271
 20
260.9835917582862
 30
0.0
 40
0.8256108849411369
 50
28.21742459417548
 51
59.999999999996653
  0
LINE
  5
32ED
  8
AM_0
 10
120.0641106436306
 20
293.84565919300348
 30
0.0
 11
125.5311147933994
 21
293.84565919300348
 31
0.0
  0
LINE
  5
32EE
  8
AM_0
 10
134.01474973531319
 20
293.84565919300348
 30
0.0
 11
136.77437631399911
 21
293.84565919300348
 31
0.0
  0
LINE
  5
32EF
  8
AM_0
 10
124.1743763139994
 20
267.8668532470362
 30
0.0
 11
124.7743763139993
 21
267.86685324703609
 31
0.0
  0
LINE
  5
32F0
  8
AM_0
 10
121.3133320847418
 20
267.03511473578652
 30
0.0
 11
120.3807790352346
 21
266.49670498161998
 31
0.0
  0
LINE
  5
32F1
  8
AM_0
 10
121.74682790602991
 20
267.54227972757928
 30
0.0
 11
123.9019247219688
 21
267.542279727579
 31
0.0
  0
LINE
  5
32F2
  8
AM_0
 10
121.74682790602969
 20
265.95456648730772
 30
0.0
 11
123.9019247219687
 21
265.95456648730749
 31
0.0
  0
ARC
  5
32F3
  8
AM_0
 10
122.8815994979728
 20
266.74842310744339
 30
0.0
 40
1.292776816026465
 50
359.99999999999352
 51
37.884441053691312
  0
ARC
  5
32F4
  8
AM_0
 10
122.7671531300258
 20
266.7484231074435
 30
0.0
 40
1.292776816026556
 50
142.11555894629771
 51
217.88444105369541
  0
ARC
  5
32F5
  8
AM_0
 10
122.8815994979728
 20
266.74842310744339
 30
0.0
 40
1.2927768160265021
 50
322.11555894629339
 51
359.99999999999352
  0
ARC
  5
32F6
  8
AM_0
 10
120.5871817564698
 20
266.13920498162003
 30
0.0
 40
0.4128054424705854
 50
119.99999999999331
 51
179.99999999999341
  0
ARC
  5
32F7
  8
AM_0
 10
120.9005266422712
 20
267.7501147357865
 30
0.0
 40
0.8256108849411369
 50
300.00000000000028
 51
331.7825754058203
  0
LINE
  5
32F8
  8
AM_0
 10
136.7743763139996
 20
272.86685324703569
 30
0.0
 11
136.77437631399951
 21
270.28234356243172
 31
0.0
  0
LINE
  5
32F9
  8
AM_0
 10
136.62792970459279
 20
269.92879017183839
 30
0.0
 11
136.2728625784045
 21
269.57372304565013
 31
0.0
  0
LINE
  5
32FA
  8
AM_0
 10
124.7743763139995
 20
270.28234356243252
 30
0.0
 11
124.7743763139996
 21
272.86685324703649
 31
0.0
  0
LINE
  5
32FB
  8
AM_0
 10
125.27589004959439
 20
269.57372304565092
 30
0.0
 11
124.92082292340631
 21
269.92879017183913
 31
0.0
  0
LINE
  5
32FC
  8
AM_0
 10
136.2743763139996
 20
273.36685324703569
 30
0.0
 11
135.7937984281522
 21
273.36685324703569
 31
0.0
  0
LINE
  5
32FD
  8
AM_0
 10
125.75495419984691
 20
273.36685324703637
 30
0.0
 11
125.2743763139996
 21
273.36685324703637
 31
0.0
  0
ARC
  5
32FE
  8
AM_0
 10
136.62641596899769
 20
269.22016965505679
 30
0.0
 40
0.4999999999998723
 50
134.99999999997701
 51
195.20903964009739
  0
ARC
  5
32FF
  8
AM_0
 10
125.2743763139996
 20
272.86685324703649
 30
0.0
 40
0.5
 50
89.999999999996732
 51
179.99999999999659
  0
ARC
  5
3300
  8
AM_0
 10
136.2743763139996
 20
272.86685324703569
 30
0.0
 40
0.5
 50
359.99999999999682
 51
89.999999999996732
  0
ARC
  5
3301
  8
AM_0
 10
136.27437631399951
 20
270.28234356243172
 30
0.0
 40
0.5
 50
314.9999999999954
 51
359.99999999999682
  0
ARC
  5
3302
  8
AM_0
 10
124.922336659001
 20
269.22016965505748
 30
0.0
 40
0.5000000000001048
 50
344.79096035989602
 51
45.000000000009209
  0
ARC
  5
3303
  8
AM_0
 10
125.2743763139995
 20
270.28234356243252
 30
0.0
 40
0.499999999999984
 50
179.99999999999659
 51
225.0000000000046
  0
LINE
  5
3304
  8
AM_0
 10
126.75495419984711
 20
289.51300464485797
 30
0.0
 11
126.75495419984701
 21
274.36685324703637
 31
0.0
  0
ARC
  5
3305
  8
AM_0
 10
125.75495419984701
 20
274.36685324703637
 30
0.0
 40
1.0
 50
269.99999999999682
 51
0.0
1001
GENIUS_GENODEF_13
1002
{
1000
HIER
1070
     0
1002
}
1002
{
1000
MANEDIT
1070
     0
1002
}
1002
{
1000
NOSEL
1070
     0
1002
}
1002
{
1000
BEHIND
1070
     0
1002
}
1002
{
1000
OTHER
1070
     0
1002
}
1002
{
1000
REACTOR
1002
}
1001
GENIUS_GENOBJ-N-FIL_13
1002
{
1000
OWNER
1000
GEN
1002
}
  0
ARC
  5
3306
  8
AM_0
 10
121.75495419984701
 20
289.51300464485797
 30
0.0
 40
5.0
 50
0.0
 51
19.381805699020301
1001
GENIUS_GENOBJ-N-FIL_13
1002
{
1000
OWNER
1000
GEN
1002
}
1001
GENIUS_GENODEF_13
1002
{
1000
HIER
1070
     0
1002
}
1002
{
1000
MANEDIT
1070
     0
1002
}
1002
{
1000
NOSEL
1070
     0
1002
}
1002
{
1000
BEHIND
1070
     0
1002
}
1002
{
1000
OTHER
1070
     0
1002
}
1002
{
1000
REACTOR
1002
}
  0
LINE
  5
3307
  8
AM_0
 10
134.79379842815229
 20
290.98219010977482
 30
0.0
 11
134.79379842815229
 21
274.36685324703581
 31
0.0
  0
ARC
  5
3308
  8
AM_0
 10
135.79379842815229
 20
274.36685324703581
 30
0.0
 40
1.0
 50
180.0
 51
269.99999999999352
1001
GENIUS_GENOBJ-N-FIL_13
1002
{
1000
OWNER
1000
GEN
1002
}
1001
GENIUS_GENODEF_13
1002
{
1000
HIER
1070
     0
1002
}
1002
{
1000
MANEDIT
1070
     0
1002
}
1002
{
1000
NOSEL
1070
     0
1002
}
1002
{
1000
BEHIND
1070
     0
1002
}
1002
{
1000
OTHER
1070
     0
1002
}
1002
{
1000
REACTOR
1002
}
  0
ARC
  5
3309
  8
AM_0
 10
129.79379842815229
 20
290.98219010977482
 30
0.0
 40
5.0
 50
0.0
 51
22.755667319207308
1001
GENIUS_GENODEF_13
1002
{
1000
HIER
1070
     0
1002
}
1002
{
1000
MANEDIT
1070
     0
1002
}
1002
{
1000
NOSEL
1070
     0
1002
}
1002
{
1000
BEHIND
1070
     0
1002
}
1002
{
1000
OTHER
1070
     0
1002
}
1002
{
1000
REACTOR
1002
}
1001
GENIUS_GENOBJ-N-FIL_13
1002
{
1000
OWNER
1000
GEN
1002
}
  0
LINE
  5
330A
  8
AM_0
 10
125.5009151606572
 20
269.34869793458819
 30
0.0
 11
136.04783746734239
 21
269.34869793458819
 31
0.0
  0
LINE
  5
330B
  8
AM_0
 10
125.5009151606568
 20
259.3850085594845
 30
0.0
 11
136.04783746734131
 21
259.3850085594845
 31
0.0
  0
LINE
  5
330C
  8
AM_0
 10
122.36379156266359
 20
228.3764424021102
 30
0.0
 11
122.36379156266359
 21
247.86685324703629
 31
0.0
  0
LINE
  5
330D
  8
AM_0
 10
125.3182148217002
 20
219.3668532470362
 30
0.0
 11
125.3182148217002
 21
247.86685324703629
 31
0.0
  0
LINE
  5
335B
  8
AM_0
 10
155.9813151308756
 20
247.3668532470362
 30
0.0
 11
162.77436631399939
 21
247.3668532470362
 31
0.0
  0
LINE
  5
3361
  8
AM_0
 10
153.67191405411711
 20
241.36685324703629
 30
0.0
 11
162.77436631399931
 21
241.36685324703629
 31
0.0
  0
LINE
  5
3362
  8
AM_0
 10
135.6526744016081
 20
220.15661465513111
 30
0.0
 11
145.01166001627271
 21
236.36685324703629
 31
0.0
  0
LINE
  5
3363
  8
AM_0
 10
130.45652197890149
 20
223.15661465513111
 30
0.0
 11
138.66080705518669
 21
237.36685324703629
 31
0.0
  0
POLYLINE
  5
3374
  8
AM_0
 66
     1
 10
0.0
 20
0.0
 30
0.0
 70
     8
  0
VERTEX
  5
5115
  8
AM_0
 10
130.45699999999999
 20
223.15700000000001
 30
0.0
 70
    32
  0
VERTEX
  5
5116
  8
AM_0
 10
130.41200000000001
 20
223.078
 30
0.0
 70
    32
  0
VERTEX
  5
5117
  8
AM_0
 10
130.369
 20
222.99799999999999
 30
0.0
 70
    32
  0
VERTEX
  5
5118
  8
AM_0
 10
130.328
 20
222.917
 30
0.0
 70
    32
  0
VERTEX
  5
5119
  8
AM_0
 10
130.28800000000001
 20
222.83600000000001
 30
0.0
 70
    32
  0
VERTEX
  5
511A
  8
AM_0
 10
130.25
 20
222.75399999999999
 30
0.0
 70
    32
  0
VERTEX
  5
511B
  8
AM_0
 10
130.214
 20
222.67099999999999
 30
0.0
 70
    32
  0
VERTEX
  5
511C
  8
AM_0
 10
130.179
 20
222.58699999999999
 30
0.0
 70
    32
  0
VERTEX
  5
511D
  8
AM_0
 10
130.14599999999999
 20
222.50299999999999
 30
0.0
 70
    32
  0
VERTEX
  5
511E
  8
AM_0
 10
130.11500000000001
 20
222.41900000000001
 30
0.0
 70
    32
  0
VERTEX
  5
511F
  8
AM_0
 10
130.08500000000001
 20
222.334
 30
0.0
 70
    32
  0
VERTEX
  5
5120
  8
AM_0
 10
130.05799999999999
 20
222.249
 30
0.0
 70
    32
  0
VERTEX
  5
5121
  8
AM_0
 10
130.03200000000001
 20
222.16300000000001
 30
0.0
 70
    32
  0
VERTEX
  5
5122
  8
AM_0
 10
130.00800000000001
 20
222.077
 30
0.0
 70
    32
  0
VERTEX
  5
5123
  8
AM_0
 10
129.98599999999999
 20
221.99100000000001
 30
0.0
 70
    32
  0
VERTEX
  5
5124
  8
AM_0
 10
129.96600000000001
 20
221.904
 30
0.0
 70
    32
  0
VERTEX
  5
5125
  8
AM_0
 10
129.947
 20
221.81800000000001
 30
0.0
 70
    32
  0
VERTEX
  5
5126
  8
AM_0
 10
129.93100000000001
 20
221.73099999999999
 30
0.0
 70
    32
  0
VERTEX
  5
5127
  8
AM_0
 10
129.916
 20
221.64400000000001
 30
0.0
 70
    32
  0
VERTEX
  5
5128
  8
AM_0
 10
129.90299999999999
 20
221.55799999999999
 30
0.0
 70
    32
  0
VERTEX
  5
5129
  8
AM_0
 10
129.892
 20
221.471
 30
0.0
 70
    32
  0
VERTEX
  5
512A
  8
AM_0
 10
129.88300000000001
 20
221.38399999999999
 30
0.0
 70
    32
  0
VERTEX
  5
512B
  8
AM_0
 10
129.876
 20
221.298
 30
0.0
 70
    32
  0
VERTEX
  5
512C
  8
AM_0
 10
129.87100000000001
 20
221.21199999999999
 30
0.0
 70
    32
  0
VERTEX
  5
512D
  8
AM_0
 10
129.86799999999999
 20
221.126
 30
0.0
 70
    32
  0
VERTEX
  5
512E
  8
AM_0
 10
129.86699999999999
 20
221.03999999999999
 30
0.0
 70
    32
  0
VERTEX
  5
512F
  8
AM_0
 10
129.86699999999999
 20
220.95500000000001
 30
0.0
 70
    32
  0
VERTEX
  5
5130
  8
AM_0
 10
129.87
 20
220.87
 30
0.0
 70
    32
  0
VERTEX
  5
5131
  8
AM_0
 10
129.874
 20
220.786
 30
0.0
 70
    32
  0
VERTEX
  5
5132
  8
AM_0
 10
129.881
 20
220.702
 30
0.0
 70
    32
  0
VERTEX
  5
5133
  8
AM_0
 10
129.88900000000001
 20
220.619
 30
0.0
 70
    32
  0
VERTEX
  5
5134
  8
AM_0
 10
129.899
 20
220.536
 30
0.0
 70
    32
  0
VERTEX
  5
5135
  8
AM_0
 10
129.911
 20
220.45400000000001
 30
0.0
 70
    32
  0
VERTEX
  5
5136
  8
AM_0
 10
129.92500000000001
 20
220.37299999999999
 30
0.0
 70
    32
  0
VERTEX
  5
5137
  8
AM_0
 10
129.941
 20
220.29300000000001
 30
0.0
 70
    32
  0
VERTEX
  5
5138
  8
AM_0
 10
129.959
 20
220.21299999999999
 30
0.0
 70
    32
  0
VERTEX
  5
5139
  8
AM_0
 10
129.97800000000001
 20
220.13399999999999
 30
0.0
 70
    32
  0
VERTEX
  5
513A
  8
AM_0
 10
130.0
 20
220.05699999999999
 30
0.0
 70
    32
  0
VERTEX
  5
513B
  8
AM_0
 10
130.023
 20
219.97999999999999
 30
0.0
 70
    32
  0
VERTEX
  5
513C
  8
AM_0
 10
130.048
 20
219.904
 30
0.0
 70
    32
  0
VERTEX
  5
513D
  8
AM_0
 10
130.07499999999999
 20
219.82900000000001
 30
0.0
 70
    32
  0
VERTEX
  5
513E
  8
AM_0
 10
130.10400000000001
 20
219.755
 30
0.0
 70
    32
  0
VERTEX
  5
513F
  8
AM_0
 10
130.13399999999999
 20
219.68299999999999
 30
0.0
 70
    32
  0
VERTEX
  5
5140
  8
AM_0
 10
130.166
 20
219.61199999999999
 30
0.0
 70
    32
  0
VERTEX
  5
5141
  8
AM_0
 10
130.19999999999999
 20
219.541
 30
0.0
 70
    32
  0
VERTEX
  5
5142
  8
AM_0
 10
130.23599999999999
 20
219.47300000000001
 30
0.0
 70
    32
  0
VERTEX
  5
5143
  8
AM_0
 10
130.274
 20
219.405
 30
0.0
 70
    32
  0
VERTEX
  5
5144
  8
AM_0
 10
130.31299999999999
 20
219.339
 30
0.0
 70
    32
  0
VERTEX
  5
5145
  8
AM_0
 10
130.35300000000001
 20
219.274
 30
0.0
 70
    32
  0
VERTEX
  5
5146
  8
AM_0
 10
130.39599999999999
 20
219.21100000000001
 30
0.0
 70
    32
  0
VERTEX
  5
5147
  8
AM_0
 10
130.44
 20
219.149
 30
0.0
 70
    32
  0
VERTEX
  5
5148
  8
AM_0
 10
130.48500000000001
 20
219.089
 30
0.0
 70
    32
  0
VERTEX
  5
5149
  8
AM_0
 10
130.53200000000001
 20
219.03
 30
0.0
 70
    32
  0
VERTEX
  5
514A
  8
AM_0
 10
130.58099999999999
 20
218.97200000000001
 30
0.0
 70
    32
  0
VERTEX
  5
514B
  8
AM_0
 10
130.631
 20
218.917
 30
0.0
 70
    32
  0
VERTEX
  5
514C
  8
AM_0
 10
130.68299999999999
 20
218.863
 30
0.0
 70
    32
  0
VERTEX
  5
514D
  8
AM_0
 10
130.73599999999999
 20
218.81100000000001
 30
0.0
 70
    32
  0
VERTEX
  5
514E
  8
AM_0
 10
130.78999999999999
 20
218.75999999999999
 30
0.0
 70
    32
  0
VERTEX
  5
514F
  8
AM_0
 10
130.846
 20
218.71100000000001
 30
0.0
 70
    32
  0
VERTEX
  5
5150
  8
AM_0
 10
130.90299999999999
 20
218.66399999999999
 30
0.0
 70
    32
  0
VERTEX
  5
5151
  8
AM_0
 10
130.96100000000001
 20
218.619
 30
0.0
 70
    32
  0
VERTEX
  5
5152
  8
AM_0
 10
131.02099999999999
 20
218.57499999999999
 30
0.0
 70
    32
  0
VERTEX
  5
5153
  8
AM_0
 10
131.08199999999999
 20
218.53399999999999
 30
0.0
 70
    32
  0
VERTEX
  5
5154
  8
AM_0
 10
131.14400000000001
 20
218.494
 30
0.0
 70
    32
  0
VERTEX
  5
5155
  8
AM_0
 10
131.20699999999999
 20
218.45599999999999
 30
0.0
 70
    32
  0
VERTEX
  5
5156
  8
AM_0
 10
131.27099999999999
 20
218.42099999999999
 30
0.0
 70
    32
  0
VERTEX
  5
5157
  8
AM_0
 10
131.33699999999999
 20
218.387
 30
0.0
 70
    32
  0
VERTEX
  5
5158
  8
AM_0
 10
131.40299999999999
 20
218.35499999999999
 30
0.0
 70
    32
  0
VERTEX
  5
5159
  8
AM_0
 10
131.471
 20
218.32499999999999
 30
0.0
 70
    32
  0
VERTEX
  5
515A
  8
AM_0
 10
131.53899999999999
 20
218.297
 30
0.0
 70
    32
  0
VERTEX
  5
515B
  8
AM_0
 10
131.608
 20
218.27099999999999
 30
0.0
 70
    32
  0
VERTEX
  5
515C
  8
AM_0
 10
131.678
 20
218.24700000000001
 30
0.0
 70
    32
  0
VERTEX
  5
515D
  8
AM_0
 10
131.749
 20
218.22499999999999
 30
0.0
 70
    32
  0
VERTEX
  5
515E
  8
AM_0
 10
131.821
 20
218.20599999999999
 30
0.0
 70
    32
  0
VERTEX
  5
515F
  8
AM_0
 10
131.89400000000001
 20
218.18799999999999
 30
0.0
 70
    32
  0
VERTEX
  5
5160
  8
AM_0
 10
131.96700000000001
 20
218.172
 30
0.0
 70
    32
  0
VERTEX
  5
5161
  8
AM_0
 10
132.041
 20
218.15899999999999
 30
0.0
 70
    32
  0
VERTEX
  5
5162
  8
AM_0
 10
132.11500000000001
 20
218.14699999999999
 30
0.0
 70
    32
  0
VERTEX
  5
5163
  8
AM_0
 10
132.19
 20
218.13800000000001
 30
0.0
 70
    32
  0
VERTEX
  5
5164
  8
AM_0
 10
132.26599999999999
 20
218.131
 30
0.0
 70
    32
  0
VERTEX
  5
5165
  8
AM_0
 10
132.34200000000001
 20
218.126
 30
0.0
 70
    32
  0
VERTEX
  5
5166
  8
AM_0
 10
132.41800000000001
 20
218.12299999999999
 30
0.0
 70
    32
  0
VERTEX
  5
5167
  8
AM_0
 10
132.495
 20
218.12200000000001
 30
0.0
 70
    32
  0
VERTEX
  5
5168
  8
AM_0
 10
132.572
 20
218.124
 30
0.0
 70
    32
  0
VERTEX
  5
5169
  8
AM_0
 10
132.65000000000001
 20
218.12700000000001
 30
0.0
 70
    32
  0
VERTEX
  5
516A
  8
AM_0
 10
132.72800000000001
 20
218.13300000000001
 30
0.0
 70
    32
  0
VERTEX
  5
516B
  8
AM_0
 10
132.80600000000001
 20
218.14099999999999
 30
0.0
 70
    32
  0
VERTEX
  5
516C
  8
AM_0
 10
132.88399999999999
 20
218.15000000000001
 30
0.0
 70
    32
  0
VERTEX
  5
516D
  8
AM_0
 10
132.96199999999999
 20
218.16200000000001
 30
0.0
 70
    32
  0
VERTEX
  5
516E
  8
AM_0
 10
133.03999999999999
 20
218.17699999999999
 30
0.0
 70
    32
  0
VERTEX
  5
516F
  8
AM_0
 10
133.11799999999999
 20
218.19300000000001
 30
0.0
 70
    32
  0
VERTEX
  5
5170
  8
AM_0
 10
133.196
 20
218.21100000000001
 30
0.0
 70
    32
  0
VERTEX
  5
5171
  8
AM_0
 10
133.27500000000001
 20
218.23099999999999
 30
0.0
 70
    32
  0
VERTEX
  5
5172
  8
AM_0
 10
133.35300000000001
 20
218.25399999999999
 30
0.0
 70
    32
  0
VERTEX
  5
5173
  8
AM_0
 10
133.43000000000001
 20
218.27799999999999
 30
0.0
 70
    32
  0
VERTEX
  5
5174
  8
AM_0
 10
133.50800000000001
 20
218.30500000000001
 30
0.0
 70
    32
  0
VERTEX
  5
5175
  8
AM_0
 10
133.58500000000001
 20
218.333
 30
0.0
 70
    32
  0
VERTEX
  5
5176
  8
AM_0
 10
133.66200000000001
 20
218.364
 30
0.0
 70
    32
  0
VERTEX
  5
5177
  8
AM_0
 10
133.739
 20
218.39599999999999
 30
0.0
 70
    32
  0
VERTEX
  5
5178
  8
AM_0
 10
133.815
 20
218.43100000000001
 30
0.0
 70
    32
  0
VERTEX
  5
5179
  8
AM_0
 10
133.89099999999999
 20
218.46700000000001
 30
0.0
 70
    32
  0
VERTEX
  5
517A
  8
AM_0
 10
133.96600000000001
 20
218.505
 30
0.0
 70
    32
  0
VERTEX
  5
517B
  8
AM_0
 10
134.041
 20
218.54499999999999
 30
0.0
 70
    32
  0
VERTEX
  5
517C
  8
AM_0
 10
134.11500000000001
 20
218.58799999999999
 30
0.0
 70
    32
  0
VERTEX
  5
517D
  8
AM_0
 10
134.18799999999999
 20
218.63200000000001
 30
0.0
 70
    32
  0
VERTEX
  5
517E
  8
AM_0
 10
134.261
 20
218.67699999999999
 30
0.0
 70
    32
  0
VERTEX
  5
517F
  8
AM_0
 10
134.333
 20
218.72499999999999
 30
0.0
 70
    32
  0
VERTEX
  5
5180
  8
AM_0
 10
134.404
 20
218.774
 30
0.0
 70
    32
  0
VERTEX
  5
5181
  8
AM_0
 10
134.47499999999999
 20
218.82499999999999
 30
0.0
 70
    32
  0
VERTEX
  5
5182
  8
AM_0
 10
134.54499999999999
 20
218.87799999999999
 30
0.0
 70
    32
  0
VERTEX
  5
5183
  8
AM_0
 10
134.613
 20
218.93199999999999
 30
0.0
 70
    32
  0
VERTEX
  5
5184
  8
AM_0
 10
134.68100000000001
 20
218.988
 30
0.0
 70
    32
  0
VERTEX
  5
5185
  8
AM_0
 10
134.74799999999999
 20
219.04599999999999
 30
0.0
 70
    32
  0
VERTEX
  5
5186
  8
AM_0
 10
134.81399999999999
 20
219.10499999999999
 30
0.0
 70
    32
  0
VERTEX
  5
5187
  8
AM_0
 10
134.87799999999999
 20
219.166
 30
0.0
 70
    32
  0
VERTEX
  5
5188
  8
AM_0
 10
134.94200000000001
 20
219.22800000000001
 30
0.0
 70
    32
  0
VERTEX
  5
5189
  8
AM_0
 10
135.00399999999999
 20
219.292
 30
0.0
 70
    32
  0
VERTEX
  5
518A
  8
AM_0
 10
135.066
 20
219.357
 30
0.0
 70
    32
  0
VERTEX
  5
518B
  8
AM_0
 10
135.126
 20
219.42400000000001
 30
0.0
 70
    32
  0
VERTEX
  5
518C
  8
AM_0
 10
135.185
 20
219.49199999999999
 30
0.0
 70
    32
  0
VERTEX
  5
518D
  8
AM_0
 10
135.24199999999999
 20
219.56100000000001
 30
0.0
 70
    32
  0
VERTEX
  5
518E
  8
AM_0
 10
135.29900000000001
 20
219.63200000000001
 30
0.0
 70
    32
  0
VERTEX
  5
518F
  8
AM_0
 10
135.35300000000001
 20
219.703
 30
0.0
 70
    32
  0
VERTEX
  5
5190
  8
AM_0
 10
135.40700000000001
 20
219.77600000000001
 30
0.0
 70
    32
  0
VERTEX
  5
5191
  8
AM_0
 10
135.459
 20
219.84999999999999
 30
0.0
 70
    32
  0
VERTEX
  5
5192
  8
AM_0
 10
135.50999999999999
 20
219.92500000000001
 30
0.0
 70
    32
  0
VERTEX
  5
5193
  8
AM_0
 10
135.559
 20
220.001
 30
0.0
 70
    32
  0
VERTEX
  5
5194
  8
AM_0
 10
135.607
 20
220.07900000000001
 30
0.0
 70
    32
  0
VERTEX
  5
5195
  8
AM_0
 10
135.65299999999999
 20
220.15700000000001
 30
0.0
 70
    32
  0
SEQEND
  5
5196
  8
AM_0
  0
ARC
  5
3377
  8
AM_0
 10
153.67191405411711
 20
231.36685324703629
 30
0.0
 40
10.0
 50
90.0
 51
150.0
1001
GENIUS_GENOBJ-N-FIL_13
1002
{
1000
OWNER
1000
GEN
1002
}
1001
GENIUS_GENODEF_13
1002
{
1000
HIER
1070
     0
1002
}
1002
{
1000
MANEDIT
1070
     0
1002
}
1002
{
1000
NOSEL
1070
     0
1002
}
1002
{
1000
BEHIND
1070
     0
1002
}
1002
{
1000
OTHER
1070
     0
1002
}
1002
{
1000
REACTOR
1002
}
  0
ARC
  5
3379
  8
AM_0
 10
155.98131513087549
 20
227.36685324703629
 30
0.0
 40
20.0
 50
89.999999999999915
 51
149.9999999999998
1001
GENIUS_GENODEF_13
1002
{
1000
HIER
1070
     0
1002
}
1002
{
1000
MANEDIT
1070
     0
1002
}
1002
{
1000
NOSEL
1070
     0
1002
}
1002
{
1000
BEHIND
1070
     0
1002
}
1002
{
1000
OTHER
1070
     0
1002
}
1002
{
1000
REACTOR
1002
}
1001
GENIUS_GENOBJ-N-FIL_13
1002
{
1000
OWNER
1000
GEN
1002
}
  0
LINE
  5
337A
  8
AM_0
 10
151.27437631399911
 20
246.80508174075911
 30
0.0
 11
151.27437631399911
 21
318.36685324703632
 31
0.0
  0
LINE
  5
337B
  8
AM_0
 10
157.27437631399931
 20
241.36685324703629
 30
0.0
 11
157.27437631399931
 21
210.36685324703629
 31
0.0
  0
LINE
  5
3B0C
  8
AM_0
 10
633.33023886340732
 20
353.82377518520173
 30
0.0
 11
633.33023886340732
 21
367.55060233195582
 31
0.0
  0
LINE
  5
3B0D
  8
AM_0
 10
626.93023886340734
 20
353.82377518520173
 30
0.0
 11
626.93023886340734
 21
367.55060233195582
 31
0.0
  0
LINE
  5
3B0E
  8
AM_0
 10
626.13023886340727
 20
344.86685324703637
 30
0.0
 11
634.13023886340727
 21
344.86685324703637
 31
0.0
  0
LINE
  5
3B0F
  8
AM_0
 10
634.13023886340727
 20
324.2906351101455
 30
0.0
 11
634.13023886340727
 21
344.86685324703637
 31
0.0
  0
LINE
  5
3B10
  8
AM_0
 10
634.13023886340727
 20
344.86685324703637
 30
0.0
 11
636.53023886340725
 21
353.82377518520173
 31
0.0
  0
LINE
  5
3B11
  8
AM_0
 10
636.53023886340725
 20
353.82377518520173
 30
0.0
 11
636.53023886340725
 21
367.55060233195582
 31
0.0
  0
LINE
  5
3B12
  8
AM_0
 10
623.73023886340729
 20
367.55060233195582
 30
0.0
 11
623.73023886340729
 21
353.82377518520173
 31
0.0
  0
LINE
  5
3B13
  8
AM_0
 10
623.73023886340729
 20
353.82377518520173
 30
0.0
 11
626.13023886340727
 21
344.86685324703637
 31
0.0
  0
LINE
  5
3B14
  8
AM_0
 10
626.13023886340727
 20
344.86685324703637
 30
0.0
 11
626.13023886340727
 21
324.2906351101455
 31
0.0
  0
ARC
  5
3B15
  8
AM_0
 10
630.13023886340727
 20
359.86685324703637
 30
0.0
 40
9.9999999999999964
 50
50.208180500442623
 51
90.0
  0
ARC
  5
3B16
  8
AM_0
 10
625.33023886340732
 20
354.26252387950751
 30
0.0
 40
1.659066127903009
 50
195.33458427584509
 51
344.66541572415468
  0
ARC
  5
3B17
  8
AM_0
 10
630.13023886340727
 20
357.41384177414602
 30
0.0
 40
4.8092180355079419
 50
228.2878371051452
 51
311.71216289485483
  0
ARC
  5
3B18
  8
AM_0
 10
634.93023886340734
 20
354.26224600586141
 30
0.0
 40
1.6589926644111621
 50
195.3253291609544
 51
344.67467083904228
  0
ARC
  5
3B19
  8
AM_0
 10
630.13023886340727
 20
357.33562143707292
 30
0.0
 40
10.704477319459491
 50
72.606031891266454
 51
107.3939681087335
  0
ARC
  5
3B1A
  8
AM_0
 10
625.33023886340732
 20
365.18083693548152
 30
0.0
 40
2.8593334947723461
 50
55.973867765119778
 51
124.02613223488019
  0
ARC
  5
3B1B
  8
AM_0
 10
634.93023886340734
 20
365.18390385688389
 30
0.0
 40
2.856792199637066
 50
55.939448481710848
 51
124.060551518289
  0
ARC
  5
3B1C
  8
AM_0
 10
630.13023886340727
 20
359.86685324703637
 30
0.0
 40
10.0
 50
90.0
 51
129.79181949955731
  0
LINE
  5
40F1
  8
AM_0
 10
150.27437631399911
 20
318.16685324703627
 30
0.0
 11
150.27437631399911
 21
310.56685324703631
 31
0.0
1001
GENIUS_GENOREF_13
1005
0
  0
LINE
  5
40F2
  8
AM_0
 10
150.27437631399911
 20
310.56685324703631
 30
0.0
 11
151.27437631399911
 21
310.56685324703631
 31
0.0
1001
GENIUS_GENOREF_13
1005
0
  0
LINE
  5
40F3
  8
AM_0
 10
151.27437631399911
 20
314.16685324703627
 30
0.0
 11
150.27437631399911
 21
313.80288301277011
 31
0.0
1001
GENIUS_GENOREF_13
1005
0
  0
LINE
  5
40F4
  8
AM_0
 10
151.27437631399911
 20
314.56685324703631
 30
0.0
 11
150.27437631399911
 21
314.20288301276997
 31
0.0
1001
GENIUS_GENOREF_13
1005
0
  0
LINE
  5
40F5
  8
AM_0
 10
151.27437631399911
 20
318.16685324703627
 30
0.0
 11
150.27437631399911
 21
318.16685324703627
 31
0.0
1001
GENIUS_GENOREF_13
1005
0
  0
LINE
  5
40F6
  8
AM_0N
 10
149.21543880187119
 20
310.4594982747297
 30
0.0
 11
150.27437631399911
 21
310.36685324703632
 31
0.0
  0
LINE
  5
40F7
  8
AM_0N
 10
149.21543880187119
 20
318.27420821934282
 30
0.0
 11
150.27437631399911
 21
318.36685324703632
 31
0.0
  0
ARC
  5
40F8
  8
AM_0N
 10
153.67437631399909
 20
314.36685324703632
 30
0.0
 40
6.5
 50
151.82726586813561
 51
208.17273413186439
  0
ARC
  5
40F9
  8
AM_0N
 10
149.35488799026751
 20
316.68029670239588
 30
0.0
 40
1.6000000000000001
 50
94.99999999999973
 51
151.82726586813561
  0
ARC
  5
40FA
  8
AM_0N
 10
149.35488799026751
 20
312.05340979167659
 30
0.0
 40
1.6000000000000001
 50
208.17273413186439
 51
265.00000000000028
  0
LINE
  5
40FB
  8
AM_0N
 10
150.27437631399911
 20
318.36685324703632
 30
0.0
 11
150.27437631399911
 21
310.36685324703632
 31
0.0
  0
LINE
  5
410E
  8
AM_0
 10
150.27437631399911
 20
240.77199744074611
 30
0.0
 11
150.27437631399911
 21
235.30435324703629
 31
0.0
1001
GENIUS_GENOREF_13
1005
0
  0
LINE
  5
410F
  8
AM_0
 10
150.27437631399911
 20
235.50435324703639
 30
0.0
 11
151.27437631399911
 21
235.50435324703639
 31
0.0
1001
GENIUS_GENOREF_13
1005
0
  0
LINE
  5
4110
  8
AM_0
 10
151.27437631399911
 20
239.10435324703641
 30
0.0
 11
150.27437631399911
 21
238.7403830127702
 31
0.0
1001
GENIUS_GENOREF_13
1005
0
  0
LINE
  5
4111
  8
AM_0
 10
151.27437631399911
 20
239.50435324703639
 30
0.0
 11
150.27437631399911
 21
239.1403830127702
 31
0.0
1001
GENIUS_GENOREF_13
1005
0
  0
LINE
  5
4113
  8
AM_0N
 10
149.2154388018713
 20
235.3969982747299
 30
0.0
 11
150.27437631399911
 21
235.30435324703629
 31
0.0
  0
ARC
  5
4115
  8
AM_0N
 10
153.67437631399909
 20
239.30435324703629
 30
0.0
 40
6.5
 50
182.9007699890924
 51
208.17273413186439
  0
ARC
  5
4117
  8
AM_0N
 10
149.35488799026751
 20
236.9909097916767
 30
0.0
 40
1.6000000000000001
 50
208.17273413186439
 51
265.00000000000028
  0
LINE
  5
46F8
  8
AM_0
 10
268.80056616303972
 20
479.73362324577772
 30
0.0
 11
269.0551154370624
 21
489.45359324577771
 31
0.0
  0
LINE
  5
46F9
  8
AM_0
 10
208.74813416779909
 20
479.73362324577772
 30
0.0
 11
208.49365212666029
 21
489.45359324577771
 31
0.0
  0
LINE
  5
46FA
  8
AM_0
 10
205.2743763139992
 20
477.73362324577761
 30
0.0
 11
272.2743763139992
 21
477.73362324577761
 31
0.0
  0
LINE
  5
46FB
  8
AM_0
 10
205.2743763139992
 20
476.73362324577761
 30
0.0
 11
205.2743763139992
 21
477.73362324577761
 31
0.0
  0
LINE
  5
46FC
  8
AM_0
 10
272.2743763139992
 20
476.73362324577761
 30
0.0
 11
272.2743763139992
 21
477.73362324577761
 31
0.0
  0
LINE
  5
46FD
  8
AM_0
 10
190.77437631399911
 20
438.73362324577761
 30
0.0
 11
192.0339614502615
 21
474.80342223918268
 31
0.0
  0
LINE
  5
46FE
  8
AM_0
 10
194.0327431042997
 20
476.73362324577761
 30
0.0
 11
283.5160095236987
 21
476.73362324577761
 31
0.0
  0
ARC
  5
46FF
  8
AM_0
 10
194.0327431042997
 20
474.73362324577772
 30
0.0
 40
2.0
 50
90.0
 51
178.00000000000259
1001
GENIUS_GENODEF_13
1002
{
1000
HIER
1070
     0
1002
}
1002
{
1000
MANEDIT
1070
     0
1002
}
1002
{
1000
NOSEL
1070
     0
1002
}
1002
{
1000
BEHIND
1070
     0
1002
}
1002
{
1000
OTHER
1070
     0
1002
}
1002
{
1000
REACTOR
1002
}
1001
GENIUS_GENOBJ-N-FIL_13
1002
{
1000
OWNER
1000
GEN
1002
}
  0
LINE
  5
4700
  8
AM_0
 10
285.51479117773692
 20
474.80342223918268
 30
0.0
 11
286.7743763139992
 21
438.73362324577761
 31
0.0
  0
ARC
  5
4701
  8
AM_0
 10
283.51600952369881
 20
474.73362324577772
 30
0.0
 40
2.0
 50
1.9999999999972149
 51
90.0
1001
GENIUS_GENOBJ-N-FIL_13
1002
{
1000
OWNER
1000
GEN
1002
}
1001
GENIUS_GENODEF_13
1002
{
1000
HIER
1070
     0
1002
}
1002
{
1000
MANEDIT
1070
     0
1002
}
1002
{
1000
NOSEL
1070
     0
1002
}
1002
{
1000
BEHIND
1070
     0
1002
}
1002
{
1000
OTHER
1070
     0
1002
}
1002
{
1000
REACTOR
1002
}
  0
LINE
  5
4702
  8
AM_0
 10
286.7743763139992
 20
438.73362324577761
 30
0.0
 11
190.7743763139988
 21
438.73362324577761
 31
0.0
  0
LINE
  5
4703
  8
AM_0
 10
190.8791386224743
 20
441.73362324577749
 30
0.0
 11
189.77437631399911
 21
441.73362324577749
 31
0.0
  0
LINE
  5
4704
  8
AM_0
 10
191.9966032462103
 20
473.73362324577738
 30
0.0
 11
189.774376313999
 21
473.73362324577738
 31
0.0
  0
LINE
  5
4705
  8
ﾁｭｳｼﾝｾﾝ1
 10
195.7743763139998
 20
428.46891574577751
 30
0.0
 11
195.7743763139998
 21
441.46891574577762
 31
0.0
  0
LINE
  5
4706
  8
ﾁｭｳｼﾝｾﾝ
 10
238.7743763139992
 20
484.02565391900657
 30
0.0
 11
238.7743763139992
 21
426.2831006049683
 31
0.0
  0
LINE
  5
4707
  8
AM_0
 10
187.27437631399911
 20
444.23362324577738
 30
0.0
 11
189.774376313999
 21
444.23362324577732
 31
0.0
  0
LINE
  5
4708
  8
AM_0
 10
189.774376313999
 20
471.23362324577721
 30
0.0
 11
187.27437631399911
 21
471.23362324577749
 31
0.0
  0
LINE
  5
4709
  8
AM_0
 10
176.37570521765309
 20
468.23362324577749
 30
0.0
 11
176.37570521765309
 21
447.23362324577761
 31
0.0
  0
LINE
  5
470A
  8
AM_0
 10
161.37570521765309
 20
449.7019981917623
 30
0.0
 11
161.37570521765309
 21
465.76524829979343
 31
0.0
  0
LINE
  5
470B
  8
AM_0
 10
174.37570521765309
 20
469.73362324577738
 30
0.0
 11
174.37570521765309
 21
445.73362324577749
 31
0.0
  0
LINE
  5
470C
  8
AM_0
 10
164.87570521765309
 20
457.73362324577738
 30
0.0
 11
165.37570521765309
 21
458.23362324577749
 31
0.0
  0
LINE
  5
470D
  8
AM_0
 10
171.87570521765309
 20
446.03362324577751
 30
0.0
 11
171.87570521765309
 21
469.4336232457772
 31
0.0
  0
LINE
  5
470E
  8
AM_0
 10
181.77437631399911
 20
446.23362324577749
 30
0.0
 11
181.77437631399911
 21
469.23362324577738
 31
0.0
  0
LINE
  5
470F
  8
AM_0
 10
175.87570521765309
 20
458.4336232457793
 30
0.0
 11
175.87570521765309
 21
457.03362324577631
 31
0.0
  0
LINE
  5
4710
  8
AM_0
 10
177.975340944224
 20
466.83362324577729
 30
0.0
 11
177.22534094422511
 21
448.63362324577741
 31
0.0
  0
LINE
  5
4711
  8
AM_0
 10
177.02437631399911
 20
466.83362324577729
 30
0.0
 11
176.37570521765309
 21
451.09253797446132
 31
0.0
  0
LINE
  5
4712
  8
AM_0
 10
177.77306890457109
 20
467.54928195814142
 30
0.0
 11
177.02580886116311
 21
447.92125148461048
 31
0.0
  0
LINE
  5
4713
  8
AM_0
 10
177.22390839706111
 20
467.54599500694547
 30
0.0
 11
176.47534094422511
 21
447.88362324577741
 31
0.0
  0
LINE
  5
4714
  8
AM_0
 10
174.37570521765309
 20
445.73362324577749
 30
0.0
 11
172.1757052176531
 21
445.73362324577749
 31
0.0
  0
ARC
  5
4715
  8
AM_0
 10
186.27437631399911
 20
445.23362324577738
 30
0.0
 40
0.5
 50
0.0
 51
90.000000000013017
  0
ARC
  5
4716
  8
AM_0
 10
187.27437631399911
 20
444.73362324577738
 30
0.0
 40
0.5
 50
180.0
 51
270.0
  0
LINE
  5
4717
  8
AM_0
 10
186.77437631399911
 20
445.23362324577738
 30
0.0
 11
186.77437631399911
 21
444.73362324577738
 31
0.0
  0
LINE
  5
4718
  8
AM_0
 10
177.77437631399911
 20
448.63362324577741
 30
0.0
 11
181.27437631399911
 21
448.63362324577741
 31
0.0
  0
LINE
  5
4719
  8
AM_0
 10
186.77437631399911
 20
446.87755192437038
 30
0.0
 11
186.77437631399911
 21
456.58969456718529
 31
0.0
  0
LINE
  5
471A
  8
AM_0
 10
182.27437631399911
 20
445.73362324577749
 30
0.0
 11
186.274376313999
 21
445.73362324577749
 31
0.0
  0
LINE
  5
471B
  8
AM_0
 10
186.27437631399911
 20
446.37755192437038
 30
0.0
 11
181.77437631399911
 21
446.37755192437038
 31
0.0
  0
ARC
  5
471C
  8
AM_0
 10
186.27437631399911
 20
446.87755192437038
 30
0.0
 40
0.5
 50
270.0
 51
0.0
  0
ARC
  5
471D
  8
AM_0
 10
181.27437631399911
 20
448.13362324577758
 30
0.0
 40
0.5
 50
0.0
 51
90.0
  0
ARC
  5
471E
  8
AM_0
 10
182.27437631399911
 20
446.23362324577749
 30
0.0
 40
0.5
 50
180.0
 51
270.0
  0
LINE
  5
471F
  8
AM_0
 10
186.27437631399911
 20
457.0896945671854
 30
0.0
 11
181.77437631399911
 21
457.0896945671854
 31
0.0
  0
ARC
  5
4720
  8
AM_0
 10
186.27437631399911
 20
456.58969456718552
 30
0.0
 40
0.5
 50
0.0
 51
90.0
  0
LINE
  5
4721
  8
AM_0
 10
175.87570521765309
 20
451.58845249348519
 30
0.0
 11
175.87570521765309
 21
452.76069567991817
 31
0.0
  0
LINE
  5
4722
  8
AM_0
 10
177.30207337265
 20
448.63362324577741
 30
0.0
 11
177.77437631399911
 21
448.63362324577741
 31
0.0
  0
LINE
  5
4723
  8
AM_0
 10
177.20548087811079
 20
448.55950547904069
 30
0.0
 11
177.22534094422511
 21
448.63362324577741
 31
0.0
  0
ARC
  5
4724
  8
AM_0
 10
177.30207337265011
 20
448.53362324577751
 30
0.0
 40
0.1000000000000346
 50
90.0
 51
164.99980499355451
  0
ARC
  5
4725
  8
AM_0
 10
175.57570521765311
 20
448.44679026526939
 30
0.0
 40
0.3000000000000043
 50
0.0
 51
90.0
  0
LINE
  5
4726
  8
AM_0
 10
174.37570521765309
 20
446.33362324577729
 30
0.0
 11
175.59566092081019
 21
446.4149536259884
 31
0.0
  0
LINE
  5
4727
  8
AM_0
 10
174.37570521765309
 20
447.48987528161729
 30
0.0
 11
175.57570521765311
 21
447.48987528161729
 31
0.0
  0
LINE
  5
4728
  8
AM_0
 10
175.87570521765309
 20
446.73362324577749
 30
0.0
 11
174.37570521765309
 21
446.73362324577749
 31
0.0
  0
ARC
  5
4729
  8
AM_0
 10
175.87570521765321
 20
447.23362324577761
 30
0.0
 40
0.5
 50
270.0
 51
0.0
  0
LINE
  5
472A
  8
AM_0
 10
175.87570521765309
 20
446.71428917334549
 30
0.0
 11
175.87570521765309
 21
446.73362324577749
 31
0.0
  0
LINE
  5
472B
  8
AM_0
 10
175.87570521765309
 20
446.43362324577748
 30
0.0
 11
175.87570521765309
 21
446.71428917334549
 31
0.0
  0
LINE
  5
472C
  8
AM_0
 10
175.59566092081019
 20
446.4149536259884
 30
0.0
 11
175.87570521765309
 21
446.43362324577748
 31
0.0
  0
ARC
  5
472D
  8
AM_0
 10
175.57570521765311
 20
446.71428917334549
 30
0.0
 40
0.3000000000000007
 50
273.81407483428148
 51
0.0
  0
LINE
  5
472E
  8
AM_0
 10
176.947643885574
 20
447.88362324577741
 30
0.0
 11
177.02437631399999
 21
447.88362324577741
 31
0.0
  0
LINE
  5
472F
  8
AM_0
 10
177.02437631399999
 20
447.88362324577741
 30
0.0
 11
177.04423638011309
 21
447.95774101251368
 31
0.0
  0
LINE
  5
4730
  8
AM_0
 10
176.4554808781109
 20
447.95774101251368
 30
0.0
 11
176.47534094422511
 21
447.88362324577741
 31
0.0
  0
LINE
  5
4731
  8
AM_0
 10
176.47534094422511
 20
447.88362324577741
 30
0.0
 11
176.55207337265
 21
447.88362324577741
 31
0.0
  0
LINE
  5
4732
  8
AM_0
 10
177.04423638011309
 20
447.95774101251368
 30
0.0
 11
177.20548087811079
 21
448.55950547904069
 31
0.0
  0
LINE
  5
4733
  8
AM_0
 10
176.55207337265
 20
447.88362324577741
 30
0.0
 11
176.947643885574
 21
447.88362324577741
 31
0.0
  0
LINE
  5
4734
  8
AM_0
 10
176.375705217654
 20
448.25546377733838
 30
0.0
 11
176.4554808781109
 21
447.95774101251368
 31
0.0
  0
ARC
  5
4735
  8
AM_0
 10
176.94764388557411
 20
447.98362324577749
 30
0.0
 40
0.0999999999999866
 50
270.0
 51
344.99980499343462
  0
ARC
  5
4736
  8
AM_0
 10
176.55207337265011
 20
447.98362324577749
 30
0.0
 40
0.1000000000000014
 50
195.00019500656541
 51
270.0
  0
LINE
  5
4737
  8
AM_0
 10
175.87570521765309
 20
447.78987528161741
 30
0.0
 11
175.87570521765309
 21
448.44679026526939
 31
0.0
  0
ARC
  5
4738
  8
AM_0
 10
175.57570521765311
 20
447.78987528161758
 30
0.0
 40
0.3000000000000007
 50
270.0
 51
0.0
  0
LINE
  5
4739
  8
AM_0
 10
174.37570521765309
 20
451.28845249348541
 30
0.0
 11
175.57570521765311
 21
451.28845249348541
 31
0.0
  0
LINE
  5
473A
  8
AM_0
 10
175.57570521765311
 20
448.7467902652694
 30
0.0
 11
174.37570521765309
 21
448.7467902652694
 31
0.0
  0
LINE
  5
473B
  8
AM_0
 10
177.22534094422511
 20
448.63362324577741
 30
0.0
 11
177.30207337265
 21
448.63362324577741
 31
0.0
  0
ARC
  5
473C
  8
AM_0
 10
175.57570521765311
 20
451.58845249348559
 30
0.0
 40
0.3000000000000007
 50
270.0
 51
0.0
  0
LINE
  5
473D
  8
AM_0
 10
175.57570521765311
 20
453.06069567991852
 30
0.0
 11
174.37570521765309
 21
453.06069567991852
 31
0.0
  0
ARC
  5
473E
  8
AM_0
 10
175.57570521765311
 20
452.76069567991863
 30
0.0
 40
0.3000000000000043
 50
0.0
 51
90.0
  0
LINE
  5
473F
  8
AM_0
 10
175.57570521765311
 20
456.7336232457763
 30
0.0
 11
174.37570521765309
 21
456.7336232457763
 31
0.0
  0
ARC
  5
4740
  8
AM_0
 10
175.57570521765311
 20
457.0336232457766
 30
0.0
 40
0.3000000000000007
 50
270.0
 51
0.0
  0
LINE
  5
4741
  8
AM_0
 10
165.37570521765309
 20
447.60034341713032
 30
0.0
 11
171.87570521765309
 21
447.60034341713032
 31
0.0
  0
LINE
  5
4742
  8
AM_0
 10
165.37570521765309
 20
447.10034341713032
 30
0.0
 11
171.87570521765309
 21
447.10034341713032
 31
0.0
  0
LINE
  5
4743
  8
AM_0
 10
171.87570521765309
 20
457.23362324577738
 30
0.0
 11
165.37570521765309
 21
457.23362324577738
 31
0.0
  0
LINE
  5
4744
  8
AM_0
 10
164.87570521765309
 20
456.73362324577738
 30
0.0
 11
171.87570521765309
 21
456.73362324577738
 31
0.0
  0
LINE
  5
4745
  8
AM_0
 10
171.57570521765311
 20
446.73362324577749
 30
0.0
 11
164.73775515283509
 21
446.73362324577749
 31
0.0
  0
LINE
  5
4746
  8
AM_0
 10
171.87570521765309
 20
456.3869351772363
 30
0.0
 11
165.37570521765309
 21
456.3869351772363
 31
0.0
  0
LINE
  5
4747
  8
AM_0
 10
171.87570521765309
 20
448.08031131431841
 30
0.0
 11
165.37570521765309
 21
448.08031131431841
 31
0.0
  0
ARC
  5
4748
  8
AM_0
 10
172.1757052176531
 20
446.03362324577751
 30
0.0
 40
0.2999999999999971
 50
180.0
 51
270.0
  0
ARC
  5
4749
  8
AM_0
 10
171.57570521765311
 20
446.43362324577748
 30
0.0
 40
0.2999999999999971
 50
0.0
 51
90.0
  0
ARC
  5
474A
  8
AM_0
 10
173.50070521765321
 20
452.23362324577738
 30
0.0
 40
9.124999999999984
 50
152.92493329271929
 51
207.07506670728071
  0
LINE
  5
474B
  8
AM_0
 10
164.0975707531706
 20
446.96540196617991
 30
0.0
 11
161.7355208179884
 21
448.93377691216477
 31
0.0
  0
LINE
  5
474C
  8
AM_0
 10
164.87570521765309
 20
447.3120558292855
 30
0.0
 11
165.37570521765309
 21
446.73362324577749
 31
0.0
  0
ARC
  5
474D
  8
AM_0
 10
164.73775515283501
 20
447.73362324577749
 30
0.0
 40
1.0
 50
230.19442890774391
 51
270.0
  0
LINE
  5
474E
  8
AM_0
 10
165.37570521765309
 20
447.10034341713032
 30
0.0
 11
164.87570521765309
 21
447.3120558292855
 31
0.0
  0
LINE
  5
474F
  8
AM_0
 10
164.87570521765309
 20
447.7743311022565
 30
0.0
 11
165.37570521765309
 21
447.10034341713032
 31
0.0
  0
LINE
  5
4750
  8
AM_0
 10
165.37570521765309
 20
447.60034341713032
 30
0.0
 11
164.87570521765309
 21
447.7743311022565
 31
0.0
  0
LINE
  5
4751
  8
AM_0
 10
164.87570521765309
 20
448.3120558292855
 30
0.0
 11
165.37570521765309
 21
447.60034341713032
 31
0.0
  0
LINE
  5
4752
  8
AM_0
 10
165.37570521765309
 20
448.08031131431841
 30
0.0
 11
164.87570521765309
 21
448.3120558292855
 31
0.0
  0
ARC
  5
4753
  8
AM_0
 10
162.37570521765321
 20
449.70199819176253
 30
0.0
 40
1.0000000000000291
 50
180.0
 51
230.19442890773479
  0
LINE
  5
4754
  8
AM_0
 10
165.37570521765309
 20
457.23362324577738
 30
0.0
 11
164.87570521765309
 21
457.73362324577738
 31
0.0
  0
LINE
  5
4755
  8
AM_0
 10
164.87570521765309
 20
456.73362324577738
 30
0.0
 11
165.37570521765309
 21
457.23362324577738
 31
0.0
  0
LINE
  5
4756
  8
AM_0
 10
165.37570521765309
 20
456.3869351772363
 30
0.0
 11
164.87570521765309
 21
456.73362324577738
 31
0.0
  0
LINE
  5
4757
  8
AM_0
 10
172.1757052176531
 20
469.73362324577738
 30
0.0
 11
174.37570521765309
 21
469.73362324577738
 31
0.0
  0
ARC
  5
4758
  8
AM_0
 10
186.27437631399911
 20
470.23362324577738
 30
0.0
 40
0.5
 50
269.99999999998693
 51
0.0
  0
LINE
  5
4759
  8
AM_0
 10
181.27437631399911
 20
466.83362324577729
 30
0.0
 11
178.05207337265
 21
466.83362324577729
 31
0.0
  0
LINE
  5
475A
  8
AM_0
 10
186.77437631399911
 20
458.87755192437038
 30
0.0
 11
186.77437631399911
 21
468.58969456718552
 31
0.0
  0
LINE
  5
475B
  8
AM_0
 10
181.77437631399911
 20
458.37755192437049
 30
0.0
 11
186.27437631399911
 21
458.37755192437049
 31
0.0
  0
ARC
  5
475C
  8
AM_0
 10
186.27437631399911
 20
458.87755192437038
 30
0.0
 40
0.5
 50
270.0
 51
0.0
  0
LINE
  5
475D
  8
AM_0
 10
181.77437631399911
 20
469.08969456718552
 30
0.0
 11
186.27437631399911
 21
469.08969456718552
 31
0.0
  0
LINE
  5
475E
  8
AM_0
 10
186.274376313999
 20
469.73362324577738
 30
0.0
 11
182.27437631399911
 21
469.73362324577738
 31
0.0
  0
ARC
  5
475F
  8
AM_0
 10
186.27437631399911
 20
468.58969456718552
 30
0.0
 40
0.5
 50
0.0
 51
90.0
  0
ARC
  5
4760
  8
AM_0
 10
181.27437631399911
 20
467.33362324577729
 30
0.0
 40
0.5
 50
270.0
 51
0.0
  0
ARC
  5
4761
  8
AM_0
 10
182.27437631399911
 20
469.23362324577738
 30
0.0
 40
0.5
 50
90.0
 51
180.0
  0
ARC
  5
4762
  8
AM_0
 10
175.57570521765311
 20
463.87879399806928
 30
0.0
 40
0.3000000000000114
 50
0.0
 51
90.0
  0
LINE
  5
4763
  8
AM_0
 10
174.37570521765309
 20
458.73362324577931
 30
0.0
 11
175.57570521765311
 21
458.73362324577931
 31
0.0
  0
ARC
  5
4764
  8
AM_0
 10
175.57570521765311
 20
458.43362324577959
 30
0.0
 40
0.2999999999999971
 50
0.0
 51
90.0
  0
LINE
  5
4765
  8
AM_0
 10
174.37570521765309
 20
462.40655081163629
 30
0.0
 11
175.57570521765311
 21
462.40655081163629
 31
0.0
  0
ARC
  5
4766
  8
AM_0
 10
175.57570521765311
 20
462.70655081163648
 30
0.0
 40
0.3000000000000007
 50
270.0
 51
0.0
  0
LINE
  5
4767
  8
AM_0
 10
175.87570521765309
 20
462.70655081163648
 30
0.0
 11
175.87570521765309
 21
463.87879399806928
 31
0.0
  0
LINE
  5
4768
  8
AM_0
 10
177.30207337265
 20
467.58362324577752
 30
0.0
 11
177.697643885574
 21
467.58362324577752
 31
0.0
  0
LINE
  5
4769
  8
AM_0
 10
177.30207337265
 20
467.58362324577752
 30
0.0
 11
177.697643885574
 21
467.58362324577752
 31
0.0
  0
LINE
  5
476A
  8
AM_0
 10
177.79423638011309
 20
467.50950547904091
 30
0.0
 11
177.9554808781109
 21
466.90774101251372
 31
0.0
  0
LINE
  5
476B
  8
AM_0
 10
177.79423638011309
 20
467.50950547904091
 30
0.0
 11
177.9554808781109
 21
466.90774101251372
 31
0.0
  0
ARC
  5
476C
  8
AM_0
 10
178.05207337265011
 20
466.9336232457776
 30
0.0
 40
0.0999999999999943
 50
195.00019500651791
 51
270.0
  0
ARC
  5
476D
  8
AM_0
 10
177.69764388557411
 20
467.48362324577738
 30
0.0
 40
0.0999999999999943
 50
15.000195006505431
 51
90.0
  0
LINE
  5
476E
  8
AM_0
 10
176.374858629112
 20
467.20862324577752
 30
0.0
 11
176.4554808781109
 21
466.90774101251372
 31
0.0
  0
LINE
  5
476F
  8
AM_0
 10
177.02708696620499
 20
466.87288777887551
 30
0.0
 11
177.2054808781109
 21
467.50950547904091
 31
0.0
  0
LINE
  5
4770
  8
AM_0
 10
177.04423638011309
 20
466.90774101251372
 30
0.0
 11
177.2054808781109
 21
467.50950547904091
 31
0.0
  0
LINE
  5
4771
  8
AM_0
 10
175.87570521765309
 20
467.0204562262864
 30
0.0
 11
175.87570521765309
 21
467.67737120993741
 31
0.0
  0
LINE
  5
4772
  8
AM_0
 10
176.37570521765309
 20
467.20546377733939
 30
0.0
 11
176.4554808781109
 21
466.90774101251372
 31
0.0
  0
LINE
  5
4773
  8
AM_0
 10
174.37570521765309
 20
466.72045622628639
 30
0.0
 11
175.57570521765311
 21
466.72045622628639
 31
0.0
  0
LINE
  5
4774
  8
AM_0
 10
175.57570521765311
 20
464.17879399806941
 30
0.0
 11
174.37570521765309
 21
464.1787939980702
 31
0.0
  0
LINE
  5
4775
  8
AM_0
 10
176.9802761510891
 20
466.83362324577729
 30
0.0
 11
177.02708696620499
 21
466.87288777887551
 31
0.0
  0
LINE
  5
4776
  8
AM_0
 10
176.55207337265
 20
466.83362324577729
 30
0.0
 11
176.9802761510891
 21
466.83362324577729
 31
0.0
  0
LINE
  5
4777
  8
AM_0
 10
176.55207337265
 20
466.83362324577729
 30
0.0
 11
176.947643885574
 21
466.83362324577729
 31
0.0
  0
ARC
  5
4778
  8
AM_0
 10
176.55207337265011
 20
466.9336232457776
 30
0.0
 40
0.0999999999999943
 50
195.00019500651791
 51
270.0
  0
ARC
  5
4779
  8
AM_0
 10
176.94764388557411
 20
466.9336232457776
 30
0.0
 40
0.0999999999999608
 50
270.0
 51
344.99980499348197
  0
ARC
  5
477A
  8
AM_0
 10
175.57570521765311
 20
467.0204562262864
 30
0.0
 40
0.3000000000000007
 50
270.0
 51
0.0
  0
LINE
  5
477B
  8
AM_0
 10
174.37570521765309
 20
468.73362324577738
 30
0.0
 11
175.87570521765309
 21
468.73362324577738
 31
0.0
  0
LINE
  5
477C
  8
AM_0
 10
175.57570521765311
 20
467.97737120993742
 30
0.0
 11
174.37570521765309
 21
467.97737120993742
 31
0.0
  0
LINE
  5
477D
  8
AM_0
 10
175.59566092081019
 20
469.05229286556732
 30
0.0
 11
174.37570521765309
 21
469.13362324577741
 31
0.0
  0
ARC
  5
477E
  8
AM_0
 10
175.87570521765321
 20
468.23362324577749
 30
0.0
 40
0.5
 50
0.0
 51
90.0
  0
ARC
  5
477F
  8
AM_0
 10
177.30207337265011
 20
467.48362324577738
 30
0.0
 40
0.0999999999999606
 50
90.0
 51
164.99980499349451
  0
ARC
  5
4780
  8
AM_0
 10
175.57570521765311
 20
467.67737120993741
 30
0.0
 40
0.2999999999999971
 50
0.0
 51
90.0
  0
LINE
  5
4781
  8
AM_0
 10
175.87570521765309
 20
468.73362324577738
 30
0.0
 11
175.87570521765309
 21
468.75295731821029
 31
0.0
  0
ARC
  5
4782
  8
AM_0
 10
175.57570521765311
 20
468.75295731821029
 30
0.0
 40
0.3000000000000043
 50
0.0
 51
86.18592516571853
  0
ARC
  5
4783
  8
AM_0
 10
187.27437631399911
 20
470.73362324577749
 30
0.0
 40
0.5
 50
90.0
 51
180.0
  0
LINE
  5
4784
  8
AM_0
 10
186.77437631399911
 20
470.73362324577749
 30
0.0
 11
186.77437631399911
 21
470.23362324577738
 31
0.0
  0
LINE
  5
4785
  8
AM_0
 10
165.37570521765309
 20
467.3869351772363
 30
0.0
 11
171.87570521765309
 21
467.3869351772363
 31
0.0
  0
LINE
  5
4786
  8
AM_0
 10
165.37570521765309
 20
459.08031131431841
 30
0.0
 11
171.87570521765309
 21
459.08031131431841
 31
0.0
  0
LINE
  5
4787
  8
AM_0
 10
164.73775515283509
 20
468.73362324577738
 30
0.0
 11
171.57570521765311
 21
468.73362324577738
 31
0.0
  0
LINE
  5
4788
  8
AM_0
 10
171.87570521765309
 20
458.73362324577749
 30
0.0
 11
164.87570521765309
 21
458.73362324577749
 31
0.0
  0
LINE
  5
4789
  8
AM_0
 10
165.37570521765309
 20
458.23362324577749
 30
0.0
 11
171.87570521765309
 21
458.23362324577749
 31
0.0
  0
LINE
  5
478A
  8
AM_0
 10
171.87570521765309
 20
468.3669030744253
 30
0.0
 11
165.37570521765309
 21
468.3669030744253
 31
0.0
  0
LINE
  5
478B
  8
AM_0
 10
171.87570521765309
 20
467.86690307442518
 30
0.0
 11
165.37570521765309
 21
467.86690307442518
 31
0.0
  0
ARC
  5
478C
  8
AM_0
 10
171.57570521765311
 20
469.03362324577751
 30
0.0
 40
0.3000000000000043
 50
270.0
 51
0.0
  0
ARC
  5
478D
  8
AM_0
 10
172.1757052176531
 20
469.4336232457776
 30
0.0
 40
0.2999999999999971
 50
90.0
 51
180.0
  0
ARC
  5
478E
  8
AM_0
 10
173.50070521765321
 20
463.23362324577749
 30
0.0
 40
9.124999999999984
 50
152.92493329271929
 51
207.07506670728071
  0
LINE
  5
478F
  8
AM_0
 10
164.87570521765309
 20
458.73362324577749
 30
0.0
 11
165.37570521765309
 21
459.08031131431841
 31
0.0
  0
LINE
  5
4790
  8
AM_0
 10
165.37570521765309
 20
458.23362324577749
 30
0.0
 11
164.87570521765309
 21
458.73362324577749
 31
0.0
  0
LINE
  5
4791
  8
AM_0
 10
161.7355208179884
 20
466.53346957939078
 30
0.0
 11
164.0975707531706
 21
468.50184452537479
 31
0.0
  0
LINE
  5
4792
  8
AM_0
 10
165.37570521765309
 20
468.73362324577738
 30
0.0
 11
164.87570521765309
 21
468.15519066227051
 31
0.0
  0
ARC
  5
4793
  8
AM_0
 10
164.73775515283501
 20
467.73362324577749
 30
0.0
 40
1.0000000000000411
 50
90.0
 51
129.805571092256
  0
LINE
  5
4794
  8
AM_0
 10
164.87570521765309
 20
467.15519066227029
 30
0.0
 11
165.37570521765309
 21
467.3869351772363
 31
0.0
  0
LINE
  5
4795
  8
AM_0
 10
165.37570521765309
 20
467.86690307442518
 30
0.0
 11
164.87570521765309
 21
467.15519066227029
 31
0.0
  0
LINE
  5
4796
  8
AM_0
 10
164.87570521765309
 20
467.69291538929838
 30
0.0
 11
165.37570521765309
 21
467.86690307442518
 31
0.0
  0
LINE
  5
4797
  8
AM_0
 10
165.37570521765309
 20
468.3669030744253
 30
0.0
 11
164.87570521765309
 21
467.69291538929838
 31
0.0
  0
LINE
  5
4798
  8
AM_0
 10
164.87570521765309
 20
468.15519066227051
 30
0.0
 11
165.37570521765309
 21
468.3669030744253
 31
0.0
  0
ARC
  5
4799
  8
AM_0
 10
162.37570521765321
 20
465.76524829979343
 30
0.0
 40
1.0
 50
129.80557109226521
 51
180.0
  0
LINE
  5
479A
  8
AM_0
 10
286.7743763139992
 20
434.73362324577761
 30
0.0
 11
265.95987141446682
 21
434.73362324577761
 31
0.0
  0
LINE
  5
479B
  8
AM_0
 10
211.58888121353141
 20
434.73362324577761
 30
0.0
 11
190.7743763139998
 21
434.73362324577761
 31
0.0
  0
LINE
  5
479C
  8
AM_0
 10
280.63859464483812
 20
430.73362324577761
 30
0.0
 11
196.91015798315999
 21
430.73362324577761
 31
0.0
  0
LINE
  5
479D
  8
AM_0
 10
199.6817312863061
 20
432.67468573364982
 30
0.0
 11
199.77437631399971
 21
433.73362324577772
 31
0.0
  0
LINE
  5
479E
  8
AM_0
 10
191.8670213416932
 20
432.67468573364982
 30
0.0
 11
191.7743763139998
 21
433.73362324577772
 31
0.0
  0
ARC
  5
479F
  8
AM_0
 10
195.77437631399971
 20
437.13362324577758
 30
0.0
 40
6.5
 50
241.82726586813479
 51
298.17273413186518
  0
ARC
  5
47A0
  8
AM_0
 10
193.46093285864009
 20
432.81413492204598
 30
0.0
 40
1.6000000000000001
 50
185.0
 51
241.82726586813479
  0
LINE
  5
47A1
  8
AM_0
 10
198.07437631399961
 20
431.0541495843492
 30
0.0
 11
195.77437631399971
 21
433.34370926314489
 31
0.0
  0
LINE
  5
47A2
  8
AM_0
 10
196.08587631399971
 20
433.03362324577762
 30
0.0
 11
195.4628763139996
 21
433.03362324577762
 31
0.0
  0
LINE
  5
47A3
  8
AM_0
 10
193.47437631399961
 20
431.0541495843492
 30
0.0
 11
195.77437631399971
 21
433.34370926314489
 31
0.0
  0
LINE
  5
47A4
  8
AM_0
 10
196.08587631399971
 20
430.6410915554431
 30
0.0
 11
196.08587631399971
 21
433.03362324577762
 31
0.0
  0
LINE
  5
47A5
  8
AM_0
 10
195.4628763139996
 20
430.6410915554431
 30
0.0
 11
195.4628763139996
 21
433.03362324577762
 31
0.0
  0
ARC
  5
47A6
  8
AM_0
 10
198.0878197693593
 20
432.81413492204598
 30
0.0
 40
1.6000000000000001
 50
298.17273413186518
 51
354.99999999999977
  0
LINE
  5
47A7
  8
AM_0
 10
286.7743763139992
 20
434.73362324577761
 30
0.0
 11
286.7743763139992
 21
438.73362324577761
 31
0.0
  0
LINE
  5
47A8
  8
AM_0
 10
190.7743763139988
 20
438.73362324577761
 30
0.0
 11
190.77437631399991
 21
434.73362324577761
 31
0.0
  0
LINE
  5
47A9
  8
AM_0N
 10
199.57437631399981
 20
434.73362324577761
 30
0.0
 11
199.57437631399981
 21
433.73362324577772
 31
0.0
  0
LINE
  5
47AA
  8
AM_0N
 10
195.97437631399961
 20
433.73362324577772
 30
0.0
 11
196.33834654826589
 21
434.73362324577761
 31
0.0
  0
LINE
  5
47AB
  8
AM_0N
 10
195.57437631399981
 20
433.73362324577772
 30
0.0
 11
195.93834654826591
 21
434.73362324577761
 31
0.0
  0
LINE
  5
47AC
  8
AM_0N
 10
191.77437631399971
 20
433.73362324577772
 30
0.0
 11
199.77437631399971
 21
433.73362324577772
 31
0.0
  0
LINE
  5
47AD
  8
AM_0N
 10
191.97437631399961
 20
433.73362324577772
 30
0.0
 11
191.97437631399961
 21
434.73362324577761
 31
0.0
  0
LINE
  5
47AE
  8
AM_0
 10
211.58888121353141
 20
430.73362324577761
 30
0.0
 11
211.58888121353141
 21
434.73362324577761
 31
0.0
  0
LINE
  5
47AF
  8
AM_0
 10
209.93202696403901
 20
434.73362324577761
 30
0.0
 11
211.58888121353141
 21
430.73362324577761
 31
0.0
  0
LINE
  5
47B0
  8
AM_0
 10
265.95987141446682
 20
430.73362324577761
 30
0.0
 11
265.95987141446682
 21
434.73362324577761
 31
0.0
  0
LINE
  5
47B1
  8
AM_0
 10
267.6167256639593
 20
434.73362324577761
 30
0.0
 11
265.95987141446682
 21
430.73362324577761
 31
0.0
  0
LINE
  5
47B2
  8
AM_0
 10
205.2743763139992
 20
479.73362324577772
 30
0.0
 11
272.2743763139992
 21
479.73362324577772
 31
0.0
  0
LINE
  5
47B3
  8
AM_0
 10
205.2743763139992
 20
479.73362324577772
 30
0.0
 11
205.2743763139992
 21
477.73362324577761
 31
0.0
  0
LINE
  5
47B4
  8
AM_0
 10
272.2743763139992
 20
479.73362324577772
 30
0.0
 11
272.2743763139992
 21
477.73362324577761
 31
0.0
  0
LINE
  5
47B5
  8
ﾁｭｳｼﾝｾﾝ1
 10
281.77437631399852
 20
428.46891574577751
 30
0.0
 11
281.77437631399852
 21
441.46891574577762
 31
0.0
  0
LINE
  5
47B6
  8
AM_0
 10
277.86702134169201
 20
432.67468573364982
 30
0.0
 11
277.77437631399857
 21
433.73362324577772
 31
0.0
  0
LINE
  5
47B7
  8
AM_0
 10
285.68173128630502
 20
432.67468573364982
 30
0.0
 11
285.77437631399852
 21
433.73362324577772
 31
0.0
  0
ARC
  5
47B8
  8
AM_0
 10
281.77437631399869
 20
437.13362324577758
 30
0.0
 40
6.5
 50
241.82726586813479
 51
298.17273413186518
  0
ARC
  5
47B9
  8
AM_0
 10
284.08781976935842
 20
432.81413492204598
 30
0.0
 40
1.6000000000000001
 50
298.17273413186518
 51
354.99999999999977
  0
LINE
  5
47BA
  8
AM_0
 10
279.47437631399862
 20
431.0541495843492
 30
0.0
 11
281.77437631399857
 21
433.34370926314489
 31
0.0
  0
LINE
  5
47BB
  8
AM_0
 10
281.46287631399838
 20
433.03362324577762
 30
0.0
 11
282.08587631399871
 21
433.03362324577762
 31
0.0
  0
LINE
  5
47BC
  8
AM_0
 10
284.07437631399853
 20
431.0541495843492
 30
0.0
 11
281.77437631399857
 21
433.34370926314489
 31
0.0
  0
LINE
  5
47BD
  8
AM_0
 10
281.46287631399838
 20
430.6410915554431
 30
0.0
 11
281.46287631399838
 21
433.03362324577762
 31
0.0
  0
LINE
  5
47BE
  8
AM_0
 10
282.08587631399871
 20
430.6410915554431
 30
0.0
 11
282.08587631399871
 21
433.03362324577762
 31
0.0
  0
ARC
  5
47BF
  8
AM_0
 10
279.46093285863913
 20
432.81413492204598
 30
0.0
 40
1.6000000000000001
 50
185.0
 51
241.82726586813479
  0
LINE
  5
47C0
  8
AM_0N
 10
277.9743763139985
 20
434.73362324577761
 30
0.0
 11
277.9743763139985
 21
433.73362324577772
 31
0.0
  0
LINE
  5
47C1
  8
AM_0N
 10
281.57437631399853
 20
433.73362324577772
 30
0.0
 11
281.21040607973242
 21
434.73362324577761
 31
0.0
  0
LINE
  5
47C2
  8
AM_0N
 10
281.9743763139985
 20
433.73362324577772
 30
0.0
 11
281.61040607973217
 21
434.73362324577761
 31
0.0
  0
LINE
  5
47C3
  8
AM_0N
 10
285.77437631399857
 20
433.73362324577772
 30
0.0
 11
277.77437631399857
 21
433.73362324577772
 31
0.0
  0
LINE
  5
47C4
  8
AM_0N
 10
285.57437631399853
 20
433.73362324577772
 30
0.0
 11
285.57437631399853
 21
434.73362324577761
 31
0.0
  0
LINE
  5
47C5
  8
AM_0
 10
189.77437631399911
 20
441.73362324577749
 30
0.0
 11
189.774376313999
 21
473.73362324577738
 31
0.0
  0
LINE
  5
47C6
  8
ﾁｭｳｼﾝｾﾝ
 10
109.0855614416766
 20
545.73362324577761
 30
0.0
 11
417.13817631399922
 21
545.73362324577761
 31
0.0
  0
LINE
  5
47C7
  8
AM_0
 10
389.77437631399931
 20
542.73362324577761
 30
0.0
 11
389.77437631399931
 21
548.73362324577761
 31
0.0
  0
LINE
  5
47C8
  8
AM_0
 10
387.77435631399982
 20
536.23365324577765
 30
0.0
 11
411.7743763139992
 21
536.23365324577765
 31
0.0
  0
LINE
  5
47C9
  8
AM_0
 10
387.77435631399942
 20
555.23365324577753
 30
0.0
 11
411.7743763139992
 21
555.23365324577765
 31
0.0
  0
LINE
  5
47CA
  8
AM_0
 10
411.7743763139992
 20
536.23365324577765
 30
0.0
 11
411.7743763139992
 21
555.23365324577765
 31
0.0
  0
LINE
  5
47CB
  8
AM_0
 10
389.77437631399931
 20
542.73362324577761
 30
0.0
 11
411.7743763139992
 21
542.73362324577761
 31
0.0
  0
LINE
  5
47CC
  8
AM_0
 10
389.77437631399931
 20
548.73362324577761
 30
0.0
 11
411.7743763139992
 21
548.73362324577761
 31
0.0
  0
LINE
  5
47CD
  8
AM_0
 10
356.77437631399931
 20
479.72971324577759
 30
0.0
 11
356.77437631399931
 21
488.86286324577759
 31
0.0
  0
LINE
  5
47CE
  8
AM_0
 10
366.77437631399931
 20
496.91797324577749
 30
0.0
 11
366.77437631399931
 21
594.54929324577745
 31
0.0
  0
LINE
  5
47CF
  8
AM_0
 10
361.6434863139994
 20
493.86112324577761
 30
0.0
 11
363.85292631399932
 21
493.91898324577761
 31
0.0
  0
LINE
  5
47D0
  8
AM_0
 10
323.74822631399923
 20
479.68332324577761
 30
0.0
 11
321.80056631399941
 21
479.73435324577781
 31
0.0
  0
LINE
  5
47D1
  8
AM_0
 10
324.77437631399931
 20
477.76053324577759
 30
0.0
 11
324.77437631399931
 21
483.75913324577749
 31
0.0
  0
LINE
  5
47D2
  8
AM_0
 10
320.77437631399931
 20
476.73398324577761
 30
0.0
 11
320.77437631399931
 21
478.73465324577751
 31
0.0
  0
LINE
  5
47D3
  8
AM_0
 10
376.90529631399937
 20
477.17728324577757
 30
0.0
 11
321.77440631399918
 21
475.73362324577772
 31
0.0
  0
LINE
  5
47D4
  8
AM_0
 10
321.77437631399948
 20
475.73365324577759
 30
0.0
 11
303.64351631399933
 21
476.20841324577771
 31
0.0
  0
LINE
  5
47D5
  8
AM_0
 10
379.77437631399931
 20
584.9707432457775
 30
0.0
 11
379.77437631399931
 21
503.29172324577758
 31
0.0
  0
LINE
  5
47D6
  8
AM_0
 10
321.77437631399948
 20
485.73362324577738
 30
0.0
 11
321.77437631399948
 21
605.73365324577753
 31
0.0
  0
LINE
  5
47D7
  8
AM_0
 10
371.64351631399933
 20
503.36115324577759
 30
0.0
 11
376.85292631399921
 21
503.49756324577771
 31
0.0
  0
LINE
  5
47D8
  8
AM_0
 10
381.77437631399931
 20
482.17557324577763
 30
0.0
 11
381.77437631399931
 21
499.29172324577758
 31
0.0
  0
LINE
  5
47D9
  8
AM_0
 10
298.77437631399931
 20
481.20670324577748
 30
0.0
 11
298.77437631399931
 21
489.20743324577762
 31
0.0
  0
LINE
  5
47DA
  8
AM_0
 10
321.77437631399948
 20
485.73365324577748
 30
0.0
 11
330.23558631399942
 21
485.95520324577762
 31
0.0
  0
LINE
  5
47DB
  8
AM_0
 10
356.77437631399931
 20
611.73755324577769
 30
0.0
 11
356.77437631399931
 21
602.60440324577746
 31
0.0
  0
LINE
  5
47DC
  8
AM_0
 10
361.64351631399933
 20
597.60614324577739
 30
0.0
 11
363.85292631399932
 21
597.54828324577761
 31
0.0
  0
LINE
  5
47DD
  8
AM_0
 10
323.74822631399923
 20
611.78394324577778
 30
0.0
 11
321.80059631399928
 21
611.73294324577762
 31
0.0
  0
LINE
  5
47DE
  8
AM_0
 10
324.77437631399931
 20
613.70676324577755
 30
0.0
 11
324.77437631399931
 21
607.70813324577762
 31
0.0
  0
LINE
  5
47DF
  8
AM_0
 10
320.77437631399931
 20
614.73331324577759
 30
0.0
 11
320.77437631399931
 21
612.73261324577777
 31
0.0
  0
LINE
  5
47E0
  8
AM_0
 10
376.90526631399928
 20
614.29001324577746
 30
0.0
 11
321.77440631399918
 21
615.73365324577753
 31
0.0
  0
LINE
  5
47E1
  8
AM_0
 10
321.77440631399918
 20
615.73362324577761
 30
0.0
 11
303.64351631399933
 21
615.25885324577769
 31
0.0
  0
LINE
  5
47E2
  8
AM_0
 10
371.64351631399933
 20
588.10614324577762
 30
0.0
 11
376.85292631399921
 21
587.96973324577755
 31
0.0
  0
LINE
  5
47E3
  8
AM_0
 10
381.77437631399931
 20
609.29169324577754
 30
0.0
 11
381.77437631399931
 21
592.17557324577763
 31
0.0
  0
LINE
  5
47E4
  8
AM_0
 10
298.77437631399931
 20
610.26059324577761
 30
0.0
 11
298.77437631399931
 21
602.2598332457776
 31
0.0
  0
LINE
  5
47E5
  8
AM_0
 10
321.77440631399918
 20
605.73365324577753
 30
0.0
 11
330.2356163139994
 21
605.51209324577735
 31
0.0
  0
LINE
  5
47E6
  8
AM_0
 10
332.7743763139992
 20
588.46729324577757
 30
0.0
 11
332.7743763139992
 21
605.11533324577761
 31
0.0
  0
LINE
  5
47E7
  8
AM_0
 10
334.7743763139992
 20
503.00000324577769
 30
0.0
 11
334.7743763139992
 21
588.46729324577757
 31
0.0
  0
LINE
  5
47E8
  8
AM_0
 10
321.77437631399948
 20
601.25998324577779
 30
0.0
 11
332.7743763139992
 21
601.25998324577779
 31
0.0
  0
LINE
  5
47E9
  8
AM_0
 10
321.77437631399948
 20
490.20731324577758
 30
0.0
 11
332.7743763139992
 21
490.20731324577758
 31
0.0
  0
LINE
  5
47EA
  8
AM_0
 10
341.7374163139994
 20
600.27079324577755
 30
0.0
 11
334.97380631399932
 21
604.17575324577774
 31
0.0
  0
LINE
  5
47EB
  8
AM_0
 10
332.7743763139992
 20
588.46729324577757
 30
0.0
 11
334.7743763139992
 21
588.46729324577757
 31
0.0
  0
LINE
  5
47EC
  8
AM_0
 10
358.7633563139994
 20
598.61271324577774
 30
0.0
 11
346.47563631399942
 21
598.93448324577776
 31
0.0
  0
LINE
  5
47ED
  8
AM_0
 10
346.27248631399942
 20
587.05548324577774
 30
0.0
 11
334.7743763139992
 21
588.46729324577757
 31
0.0
  0
LINE
  5
47EE
  8
AM_0
 10
366.77437631399931
 20
586.33954324577746
 30
0.0
 11
346.27251631399918
 21
587.05548324577774
 31
0.0
  0
LINE
  5
47EF
  8
AM_0
 10
341.7374163139994
 20
491.19648324577759
 30
0.0
 11
334.9738363139993
 21
487.29154324577769
 31
0.0
  0
LINE
  5
47F0
  8
AM_0
 10
332.7743763139992
 20
503.00000324577769
 30
0.0
 11
332.7743763139992
 21
486.3519632457776
 31
0.0
  0
LINE
  5
47F1
  8
AM_0
 10
366.77437631399931
 20
505.12772324577759
 30
0.0
 11
346.27248631399942
 21
504.4117832457776
 31
0.0
  0
LINE
  5
47F2
  8
AM_0
 10
346.27248631399942
 20
504.41181324577758
 30
0.0
 11
334.7743763139992
 21
503.00000324577769
 31
0.0
  0
LINE
  5
47F3
  8
AM_0
 10
332.7743763139992
 20
503.00000324577769
 30
0.0
 11
334.7743763139992
 21
503.00000324577769
 31
0.0
  0
LINE
  5
47F4
  8
AM_0
 10
358.7633563139994
 20
492.85459324577761
 30
0.0
 11
346.47563631399942
 21
492.53281324577762
 31
0.0
  0
LINE
  5
47F5
  8
AM_0
 10
333.77437631399948
 20
501.52591324577759
 30
0.0
 11
336.7743763139992
 21
501.52591324577759
 31
0.0
  0
LINE
  5
47F6
  8
AM_0
 10
333.77437631399948
 20
489.97886324577757
 30
0.0
 11
336.7743763139992
 21
489.97886324577757
 31
0.0
  0
LINE
  5
47F7
  8
AM_0
 10
333.77437631399948
 20
498.63913324577771
 30
0.0
 11
336.7743763139992
 21
498.63913324577771
 31
0.0
  0
LINE
  5
47F8
  8
AM_0
 10
337.77437631399948
 20
490.97889324577761
 30
0.0
 11
337.77437631399948
 21
500.52591324577759
 31
0.0
  0
LINE
  5
47F9
  8
AM_0
 10
333.77437631399948
 20
492.86563324577759
 30
0.0
 11
336.7743763139992
 21
492.86563324577759
 31
0.0
  0
LINE
  5
47FA
  8
AM_0
 10
332.7743763139992
 20
489.47889324577761
 30
0.0
 11
333.77437631399948
 21
489.47889324577761
 31
0.0
  0
LINE
  5
47FB
  8
AM_0
 10
332.7743763139992
 20
502.02588324577761
 30
0.0
 11
333.77437631399948
 21
502.02588324577761
 31
0.0
  0
LINE
  5
47FC
  8
AM_0
 10
333.77437631399948
 20
502.02588324577761
 30
0.0
 11
333.77437631399948
 21
489.47889324577761
 31
0.0
  0
LINE
  5
47FD
  8
AM_0
 10
333.77437631399948
 20
589.44138324577762
 30
0.0
 11
333.77437631399948
 21
601.98841324577745
 31
0.0
  0
LINE
  5
47FE
  8
AM_0
 10
332.7743763139992
 20
589.44138324577762
 30
0.0
 11
333.77437631399948
 21
589.44138324577762
 31
0.0
  0
LINE
  5
47FF
  8
AM_0
 10
332.7743763139992
 20
601.98841324577745
 30
0.0
 11
333.77437631399948
 21
601.98841324577745
 31
0.0
  0
LINE
  5
4800
  8
AM_0
 10
333.77437631399948
 20
598.60166324577756
 30
0.0
 11
336.7743763139992
 21
598.60166324577756
 31
0.0
  0
LINE
  5
4801
  8
AM_0
 10
337.77437631399948
 20
600.48841324577745
 30
0.0
 11
337.77437631399948
 21
590.94138324577762
 31
0.0
  0
LINE
  5
4802
  8
AM_0
 10
333.77437631399948
 20
592.82813324577774
 30
0.0
 11
336.7743763139992
 21
592.82813324577774
 31
0.0
  0
LINE
  5
4803
  8
AM_0
 10
333.77437631399948
 20
601.48841324577745
 30
0.0
 11
336.7743763139992
 21
601.48841324577745
 31
0.0
  0
LINE
  5
4804
  8
AM_0
 10
333.77437631399948
 20
589.94138324577762
 30
0.0
 11
336.7743763139992
 21
589.94138324577762
 31
0.0
  0
LINE
  5
4805
  8
AM_0
 10
315.7743763139992
 20
487.8390832457776
 30
0.0
 11
315.7743763139992
 21
603.6282132457776
 31
0.0
  0
LINE
  5
4806
  8
AM_0
 10
321.77440631399918
 20
485.73362324577738
 30
0.0
 11
317.72206631399928
 21
485.83976324577759
 31
0.0
  0
LINE
  5
4807
  8
AM_0
 10
317.72203631399941
 20
605.6275432457777
 30
0.0
 11
321.77437631399948
 21
605.73365324577753
 31
0.0
  0
LINE
  5
4808
  8
AM_0
 10
297.77437631399931
 20
489.23362324577749
 30
0.0
 11
297.77437631399931
 21
602.23365324577753
 31
0.0
  0
LINE
  5
4809
  8
AM_0
 10
297.77440631399918
 20
602.23365324577753
 30
0.0
 11
307.7687363139994
 21
602.49533324577749
 31
0.0
  0
LINE
  5
480A
  8
AM_0
 10
306.77437631399931
 20
593.91794324577779
 30
0.0
 11
306.77437631399931
 21
600.76657324577752
 31
0.0
  0
LINE
  5
480B
  8
AM_0
 10
308.7220363139993
 20
602.76590324577785
 30
0.0
 11
314.40306631399949
 21
602.91468324577761
 31
0.0
  0
LINE
  5
480C
  8
AM_0
 10
297.77437631399931
 20
591.73395324577757
 30
0.0
 11
313.82674631399942
 21
592.15427324577774
 31
0.0
  0
LINE
  5
480D
  8
AM_0
 10
308.7220363139993
 20
488.70139324577741
 30
0.0
 11
314.40303631399928
 21
488.55262324577768
 31
0.0
  0
LINE
  5
480E
  8
AM_0
 10
297.77440631399918
 20
489.23365324577748
 30
0.0
 11
307.7687363139994
 21
488.97193324577751
 31
0.0
  0
LINE
  5
480F
  8
AM_0
 10
306.77437631399931
 20
497.54935324577758
 30
0.0
 11
306.77437631399931
 21
490.70069324577742
 31
0.0
  0
LINE
  5
4810
  8
AM_0
 10
297.77440631399918
 20
499.73334324577752
 30
0.0
 11
313.82674631399942
 21
499.31299324577748
 31
0.0
  0
LINE
  5
4811
  8
AM_0
 10
287.98012631399928
 20
590.66251324577775
 30
0.0
 11
283.8344063139993
 21
606.14362324577758
 31
0.0
  0
LINE
  5
4812
  8
AM_0
 10
287.9800963139993
 20
589.75251324577755
 30
0.0
 11
283.83437631399931
 21
605.23362324577761
 31
0.0
  0
LINE
  5
4813
  8
AM_0
 10
287.9800963139993
 20
587.9025332457777
 30
0.0
 11
283.83437631399931
 21
603.38367324577757
 31
0.0
  0
LINE
  5
4814
  8
AM_0
 10
289.77437631399931
 20
601.73362324577749
 30
0.0
 11
289.77437631399931
 21
489.73362324577738
 31
0.0
  0
LINE
  5
4837
  8
AM_0
 10
283.11440631399932
 20
581.73362324577749
 30
0.0
 11
184.13436631399929
 21
581.73362324577749
 31
0.0
  0
LINE
  5
4838
  8
AM_0
 10
283.11440631399932
 20
579.73362324577761
 30
0.0
 11
184.13436631399929
 21
579.73362324577761
 31
0.0
  0
LINE
  5
4839
  8
AM_0
 10
250.77437631399951
 20
571.73362324577761
 30
0.0
 11
184.13436631399929
 21
571.73362324577761
 31
0.0
  0
LINE
  5
483A
  8
AM_0
 10
283.10720631399948
 20
569.73362324577761
 30
0.0
 11
184.13436631399929
 21
569.73362324577761
 31
0.0
  0
LINE
  5
483B
  8
AM_0
 10
218.2130963139993
 20
561.73362324577761
 30
0.0
 11
184.13436631399929
 21
561.73362324577761
 31
0.0
  0
LINE
  5
483C
  8
AM_0
 10
218.2130963139993
 20
559.73362324577761
 30
0.0
 11
184.13436631399929
 21
559.73362324577761
 31
0.0
  0
LINE
  5
483D
  8
AM_0
 10
218.2130963139993
 20
551.73362324577749
 30
0.0
 11
184.13436631399929
 21
551.73362324577749
 31
0.0
  0
LINE
  5
483E
  8
AM_0
 10
218.2130963139993
 20
549.73362324577761
 30
0.0
 11
184.13436631399929
 21
549.73362324577761
 31
0.0
  0
LINE
  5
483F
  8
AM_0
 10
183.45436631399949
 20
582.45359324577748
 30
0.0
 11
286.59438631399928
 21
582.45359324577748
 31
0.0
  0
LINE
  5
4840
  8
AM_0
 10
183.45436631399949
 20
579.10361324577775
 30
0.0
 11
250.79439631399941
 21
579.10361324577775
 31
0.0
  0
LINE
  5
4841
  8
AM_0
 10
183.2343963139993
 20
572.22361324577764
 30
0.0
 11
250.77437631399951
 21
572.22361324577764
 31
0.0
  0
LINE
  5
4842
  8
AM_0
 10
183.2343963139993
 20
569.29367324577754
 30
0.0
 11
286.80861631399921
 21
569.29367324577754
 31
0.0
  0
LINE
  5
4843
  8
AM_0
 10
183.1043963139993
 20
562.07358324577774
 30
0.0
 11
219.4330663139994
 21
562.07358324577774
 31
0.0
  0
LINE
  5
4844
  8
AM_0
 10
183.1043963139993
 20
559.41367324577755
 30
0.0
 11
219.4330663139994
 21
559.41367324577755
 31
0.0
  0
LINE
  5
4845
  8
AM_0
 10
183.0443963139991
 20
552.00364324577765
 30
0.0
 11
219.49306631399929
 21
552.00364324577765
 31
0.0
  0
LINE
  5
4846
  8
AM_0
 10
183.0443963139991
 20
549.47361324577776
 30
0.0
 11
219.49306631399929
 21
549.47361324577776
 31
0.0
  0
LINE
  5
4847
  8
AM_0
 10
183.0443963139991
 20
542.00364324577765
 30
0.0
 11
219.49306631399929
 21
542.00364324577765
 31
0.0
  0
LINE
  5
4848
  8
AM_0
 10
218.2130963139993
 20
541.73362324577761
 30
0.0
 11
184.13436631399929
 21
541.73362324577761
 31
0.0
  0
LINE
  5
4849
  8
AM_0
 10
218.2130963139993
 20
539.73362324577749
 30
0.0
 11
184.13436631399929
 21
539.73362324577749
 31
0.0
  0
LINE
  5
484A
  8
AM_0
 10
183.0443963139991
 20
539.46360324577779
 30
0.0
 11
219.49306631399929
 21
539.46360324577779
 31
0.0
  0
LINE
  5
484B
  8
AM_0
 10
183.1043963139993
 20
532.0535632457777
 30
0.0
 11
219.4330663139994
 21
532.0535632457777
 31
0.0
  0
LINE
  5
484C
  8
AM_0
 10
218.2130963139993
 20
531.73362324577749
 30
0.0
 11
184.13436631399929
 21
531.73362324577749
 31
0.0
  0
LINE
  5
484D
  8
AM_0
 10
218.2130963139993
 20
529.73362324577761
 30
0.0
 11
184.13436631399929
 21
529.73362324577761
 31
0.0
  0
LINE
  5
484E
  8
AM_0
 10
183.1043963139993
 20
529.39365324577761
 30
0.0
 11
219.44564631399919
 21
529.39365324577761
 31
0.0
  0
LINE
  5
484F
  8
AM_0
 10
283.10720631399948
 20
521.73362324577761
 30
0.0
 11
184.13436631399929
 21
521.73362324577761
 31
0.0
  0
LINE
  5
4850
  8
AM_0
 10
183.2343963139993
 20
522.1735632457777
 30
0.0
 11
286.80861631399921
 21
522.1735632457777
 31
0.0
  0
LINE
  5
4851
  8
AM_0
 10
250.77437631399951
 20
519.73362324577761
 30
0.0
 11
184.13436631399929
 21
519.73362324577761
 31
0.0
  0
LINE
  5
4852
  8
AM_0
 10
183.2343963139993
 20
519.2436332457778
 30
0.0
 11
250.77437631399951
 21
519.2436332457778
 31
0.0
  0
LINE
  5
4853
  8
AM_0
 10
283.11440631399932
 20
511.73362324577761
 30
0.0
 11
238.7743763139992
 21
511.73362324577761
 31
0.0
  0
LINE
  5
4854
  8
AM_0
 10
283.11440631399932
 20
509.73362324577761
 30
0.0
 11
238.7743763139992
 21
509.73362324577761
 31
0.0
  0
LINE
  5
4855
  8
AM_0
 10
183.45436631399949
 20
509.01365324577739
 30
0.0
 11
238.7743763139992
 21
509.01365324577739
 31
0.0
  0
LINE
  5
4856
  8
AM_0
 10
286.59438631399928
 20
512.36362324577749
 30
0.0
 11
268.75441631399929
 21
512.36362324577749
 31
0.0
  0
LINE
  5
4869
  8
AM_0
 10
183.45436631399949
 20
512.36362324577749
 30
0.0
 11
250.79439631399941
 21
512.36362324577749
 31
0.0
  0
LINE
  5
486A
  8
AM_0
 10
238.7743763139992
 20
511.73362324577761
 30
0.0
 11
184.13436631399929
 21
511.73362324577761
 31
0.0
  0
LINE
  5
486B
  8
AM_0
 10
238.7743763139992
 20
509.73362324577761
 30
0.0
 11
184.13436631399929
 21
509.73362324577761
 31
0.0
  0
LINE
  5
486C
  8
AM_0
 10
238.7743763139992
 20
509.01365324577739
 30
0.0
 11
286.59438631399928
 21
509.01365324577739
 31
0.0
  0
LINE
  5
486E
  8
AM_0
 10
181.77437631399931
 20
598.73362324577761
 30
0.0
 11
181.77437631399931
 21
492.73362324577761
 31
0.0
  0
LINE
  5
4874
  8
AM_0
 10
289.77437631399931
 20
591.73362324577761
 30
0.0
 11
297.77437631399931
 21
591.73362324577761
 31
0.0
  0
LINE
  5
4875
  8
AM_0
 10
289.77437631399931
 20
577.6735632457777
 30
0.0
 11
297.77437631399931
 21
577.6735632457777
 31
0.0
  0
LINE
  5
4876
  8
AM_0
 10
289.77437631399931
 20
601.73362324577749
 30
0.0
 11
297.77437631399931
 21
601.73362324577749
 31
0.0
  0
LINE
  5
4877
  8
AM_0
 10
184.9843963139993
 20
602.01365324577785
 30
0.0
 11
281.90438631399923
 21
602.01365324577785
 31
0.0
  0
LINE
  5
4878
  8
AM_0
 10
181.77437631399931
 20
593.83368324577759
 30
0.0
 11
183.01436631399929
 21
600.39368324577754
 31
0.0
  0
LINE
  5
4879
  8
AM_0
 10
187.13442631399931
 20
582.38364324577753
 30
0.0
 11
181.77443631399919
 21
593.83362324577763
 31
0.0
  0
LINE
  5
487A
  8
AM_0
 10
187.13436631399929
 20
509.08359324577759
 30
0.0
 11
181.77443631399919
 21
497.64368324577771
 31
0.0
  0
LINE
  5
487B
  8
AM_0
 10
185.02437631399931
 20
604.86362324577738
 30
0.0
 11
281.90438631399923
 21
604.86362324577738
 31
0.0
  0
LINE
  5
487C
  8
AM_0
 10
185.04439631399919
 20
606.71360324577779
 30
0.0
 11
281.90438631399923
 21
606.71360324577779
 31
0.0
  0
LINE
  5
487D
  8
AM_0
 10
185.06441631399929
 20
607.6236332457778
 30
0.0
 11
281.90444631399941
 21
607.6236332457778
 31
0.0
  0
LINE
  5
487E
  8
AM_0
 10
181.77443631399919
 20
595.17365324577759
 30
0.0
 11
183.05440631399929
 21
603.1836032457777
 31
0.0
  0
LINE
  5
487F
  8
AM_0
 10
181.77443631399919
 20
596.52359324577753
 30
0.0
 11
183.0644163139994
 21
605.01368324577754
 31
0.0
  0
LINE
  5
4880
  8
AM_0
 10
181.77437631399931
 20
596.52362324577746
 30
0.0
 11
183.0843763139992
 21
605.90366324577747
 31
0.0
  0
LINE
  5
4881
  8
AM_0
 10
287.97444631399941
 20
585.07358324577774
 30
0.0
 11
283.83443631399922
 21
600.53360324577761
 31
0.0
  0
LINE
  5
4882
  8
AM_0
 10
284.3144163139994
 20
598.73362324577761
 30
0.0
 11
289.77437631399931
 21
598.73362324577761
 31
0.0
  0
LINE
  5
4896
  8
AM_0
 10
289.77437631399931
 20
499.73362324577749
 30
0.0
 11
297.77437631399931
 21
499.73362324577749
 31
0.0
  0
LINE
  5
4897
  8
AM_0
 10
289.77437631399931
 20
489.73362324577738
 30
0.0
 11
297.77437631399931
 21
489.73362324577738
 31
0.0
  0
LINE
  5
4898
  8
AM_0
 10
184.9843963139993
 20
489.45359324577771
 30
0.0
 11
281.90438631399923
 21
489.45359324577771
 31
0.0
  0
LINE
  5
4899
  8
AM_0
 10
181.77437631399931
 20
497.64359324577759
 30
0.0
 11
183.01442631399931
 21
491.08359324577759
 31
0.0
  0
LINE
  5
489A
  8
AM_0
 10
184.68062631399931
 20
486.60361324577758
 30
0.0
 11
207.17250631399929
 21
486.60361324577758
 31
0.0
  0
LINE
  5
489B
  8
AM_0
 10
181.77437631399931
 20
496.2935832457776
 30
0.0
 11
183.05440631399929
 21
488.29367324577771
 31
0.0
  0
LINE
  5
489C
  8
AM_0
 10
181.77437631399931
 20
494.95368324577748
 30
0.0
 11
182.7836563139993
 21
488.30350324577751
 31
0.0
  0
LINE
  5
489D
  8
AM_0
 10
181.77443631399919
 20
494.95365324577762
 30
0.0
 11
182.69985631399919
 21
488.32706324577759
 31
0.0
  0
LINE
  5
489E
  8
AM_0
 10
287.9800963139993
 20
506.41477324577761
 30
0.0
 11
283.83437631399931
 21
490.93363324577763
 31
0.0
  0
LINE
  5
489F
  8
AM_0
 10
284.31642631399927
 20
492.73362324577761
 30
0.0
 11
289.77437631399931
 21
492.73362324577761
 31
0.0
  0
LINE
  5
48A0
  8
AM_0
 10
289.77437631399931
 20
513.79367324577765
 30
0.0
 11
297.77437631399931
 21
513.79367324577765
 31
0.0
  0
LINE
  5
48A1
  8
AM_0
 10
288.7743763139992
 20
492.73362324577761
 30
0.0
 11
283.04863631399922
 21
483.91672324577769
 31
0.0
  0
LINE
  5
48A2
  8
AM_0
 10
270.28798631399928
 20
483.23362324577749
 30
0.0
 11
281.79061631399941
 21
483.23362324577749
 31
0.0
  0
LINE
  5
48A3
  8
AM_0
 10
267.75441631399929
 20
573.23362324577749
 30
0.0
 11
267.75441631399929
 21
578.09360324577744
 31
0.0
  0
LINE
  5
48A4
  8
AM_0
 10
251.7943963139993
 20
573.23362324577749
 30
0.0
 11
251.7943963139993
 21
578.09360324577744
 31
0.0
  0
LINE
  5
48A5
  8
AM_0
 10
267.27437631399943
 20
573.23362324577749
 30
0.0
 11
267.27437631399943
 21
578.23362324577761
 31
0.0
  0
LINE
  5
48A6
  8
AM_0
 10
252.27437631399931
 20
573.23362324577749
 30
0.0
 11
252.27437631399931
 21
578.23362324577761
 31
0.0
  0
LINE
  5
48A7
  8
AM_0
 10
223.77437631399931
 20
558.73362324577761
 30
0.0
 11
286.7743763139992
 21
558.73362324577761
 31
0.0
  0
LINE
  5
48A8
  8
AM_0
 10
223.77437631399931
 20
525.23362324577761
 30
0.0
 11
286.7743763139992
 21
525.23362324577761
 31
0.0
  0
LINE
  5
48A9
  8
AM_0
 10
223.77437631399931
 20
566.23362324577761
 30
0.0
 11
286.7743763139992
 21
566.23362324577761
 31
0.0
  0
LINE
  5
48AA
  8
AM_0
 10
286.7743763139992
 20
566.23362324577761
 30
0.0
 11
286.7743763139992
 21
525.23362324577761
 31
0.0
  0
LINE
  5
48AB
  8
AM_0
 10
223.77437631399931
 20
566.23362324577761
 30
0.0
 11
223.77437631399931
 21
525.23362324577761
 31
0.0
  0
LINE
  5
48AC
  8
AM_0
 10
268.77437631399931
 20
572.22361324577764
 30
0.0
 11
286.82009631399927
 21
572.22361324577764
 31
0.0
  0
LINE
  5
48AD
  8
AM_0
 10
268.77437631399931
 20
519.25364324577765
 30
0.0
 11
286.80861631399921
 21
519.25364324577765
 31
0.0
  0
LINE
  5
48AE
  8
AM_0
 10
267.75441631399929
 20
518.23362324577749
 30
0.0
 11
267.75441631399929
 21
513.37363324577746
 31
0.0
  0
LINE
  5
48AF
  8
AM_0
 10
251.7943963139993
 20
518.23362324577749
 30
0.0
 11
251.7943963139993
 21
513.37363324577746
 31
0.0
  0
LINE
  5
48B0
  8
AM_0
 10
267.27437631399943
 20
518.23362324577749
 30
0.0
 11
267.27437631399943
 21
513.23362324577761
 31
0.0
  0
LINE
  5
48B1
  8
AM_0
 10
252.27437631399931
 20
518.23362324577749
 30
0.0
 11
252.27437631399931
 21
513.23362324577761
 31
0.0
  0
LINE
  5
48B2
  8
AM_0
 10
283.10720631399948
 20
519.73362324577761
 30
0.0
 11
268.77437631399931
 21
519.73362324577761
 31
0.0
  0
LINE
  5
48B3
  8
AM_0
 10
283.12154631399949
 20
571.73362324577761
 30
0.0
 11
268.77437631399931
 21
571.73362324577761
 31
0.0
  0
LINE
  5
48B4
  8
AM_0
 10
268.75441631399929
 20
579.09360324577744
 30
0.0
 11
286.59438631399928
 21
579.09360324577744
 31
0.0
  0
LINE
  5
48B5
  8
AM_0
 10
297.77437631399931
 20
513.79367324577765
 30
0.0
 11
313.7743763139992
 21
513.79367324577765
 31
0.0
  0
LINE
  5
48B6
  8
AM_0
 10
297.77437631399931
 20
577.6735632457777
 30
0.0
 11
313.7743763139992
 21
577.6735632457777
 31
0.0
  0
ARC
  5
48B7
  8
AM_0
 10
389.77437631399931
 20
545.73362324577761
 30
0.0
 40
3.0
 50
89.986014000002498
 51
131.81082736685451
  0
ARC
  5
48B8
  8
AM_0
 10
389.77437631399931
 20
545.73362324577761
 30
0.0
 40
3.0
 50
228.18917263315251
 51
270.01399000000328
  0
ARC
  5
48B9
  8
AM_0
 10
321.77437631399948
 20
476.73398324577761
 30
0.0
 40
1.0
 50
180.00001000000091
 51
268.49999999999721
  0
ARC
  5
48BA
  8
AM_0
 10
376.77437631399931
 20
506.49652324577761
 30
0.0
 40
3.0
 50
271.50000000000267
 51
0.0
  0
ARC
  5
48BB
  8
AM_0
 10
322.77437631399931
 20
477.76053324577759
 30
0.0
 40
2.0
 50
271.50000000000267
 51
0.0
  0
ARC
  5
48BC
  8
AM_0
 10
322.77437631399931
 20
483.75913324577749
 30
0.0
 40
2.0
 50
0.0
 51
91.500001000001546
  0
ARC
  5
48BD
  8
AM_0
 10
363.7743763139992
 20
496.91797324577749
 30
0.0
 40
3.0
 50
271.50000000000267
 51
0.0
  0
ARC
  5
48BE
  8
AM_0
 10
359.7743763139992
 20
479.72971324577759
 30
0.0
 40
3.0
 50
180.00001000000091
 51
271.50000000000267
  0
ARC
  5
48BF
  8
AM_0
 10
361.77437631399943
 20
488.86286324577759
 30
0.0
 40
5.0
 50
91.500001000001546
 51
180.00001000000091
  0
ARC
  5
48C0
  8
AM_0
 10
371.7743763139992
 20
498.36286324577782
 30
0.0
 40
5.0
 50
91.500001000001546
 51
180.00001000000091
  0
ARC
  5
48C1
  8
AM_0
 10
323.77437631399931
 20
480.6829932457776
 30
0.0
 40
1.0
 50
268.49999999999721
 51
0.0000006832462478
  0
ARC
  5
48C2
  8
AM_0
 10
321.77437631399948
 20
478.73465324577751
 30
0.0
 40
1.0
 50
88.499997000000747
 51
180.00001000000091
  0
CIRCLE
  5
48C3
  8
AM_0
 10
371.7743763139992
 20
488.23362324577772
 30
0.0
 40
5.0
  0
ARC
  5
48C4
  8
AM_0
 10
303.77437631399931
 20
481.20670324577748
 30
0.0
 40
5.0
 50
180.00001000000091
 51
268.49999999999721
  0
ARC
  5
48C5
  8
AM_0
 10
376.77437631399931
 20
499.29172324577758
 30
0.0
 40
5.0
 50
0.0
 51
70.485339000000806
  0
ARC
  5
48C6
  8
AM_0
 10
376.77437631399931
 20
482.17557324577763
 30
0.0
 40
5.0
 50
271.50000000000267
 51
0.0
  0
ARC
  5
48C7
  8
AM_0
 10
321.77437631399948
 20
614.73331324577759
 30
0.0
 40
1.0
 50
91.500001000001546
 51
180.00001000000091
  0
ARC
  5
48C8
  8
AM_0
 10
376.77437631399931
 20
584.9707432457775
 30
0.0
 40
3.0
 50
0.0
 51
88.499997000000747
  0
ARC
  5
48C9
  8
AM_0
 10
322.77437631399931
 20
613.70676324577755
 30
0.0
 40
2.0
 50
0.0
 51
88.499997000000747
  0
ARC
  5
48CA
  8
AM_0
 10
322.77437631399931
 20
607.70813324577762
 30
0.0
 40
2.0
 50
268.49999999999721
 51
0.0000006832462478
  0
ARC
  5
48CB
  8
AM_0
 10
363.7743763139992
 20
594.54929324577745
 30
0.0
 40
3.0
 50
0.0
 51
88.499997000000747
  0
ARC
  5
48CC
  8
AM_0
 10
359.7743763139992
 20
611.73755324577769
 30
0.0
 40
3.0
 50
88.499997000000747
 51
180.00001000000091
  0
ARC
  5
48CD
  8
AM_0
 10
361.77437631399943
 20
602.60440324577746
 30
0.0
 40
5.0
 50
180.00001000000091
 51
268.49999999999721
  0
ARC
  5
48CE
  8
AM_0
 10
371.7743763139992
 20
593.10440324577746
 30
0.0
 40
5.0
 50
180.00001000000091
 51
268.49999999999721
  0
ARC
  5
48CF
  8
AM_0
 10
323.77437631399931
 20
610.78431324577775
 30
0.0
 40
1.0
 50
0.0
 51
91.500001000001546
  0
ARC
  5
48D0
  8
AM_0
 10
321.77437631399948
 20
612.73261324577777
 30
0.0
 40
1.0
 50
180.00001000000091
 51
271.50000000000267
  0
CIRCLE
  5
48D1
  8
AM_0
 10
371.7743763139992
 20
603.23365324577753
 30
0.0
 40
5.0
  0
ARC
  5
48D2
  8
AM_0
 10
303.77437631399931
 20
610.26059324577761
 30
0.0
 40
5.0
 50
91.500001000001546
 51
180.00001000000091
  0
ARC
  5
48D3
  8
AM_0
 10
376.77437631399931
 20
592.17557324577763
 30
0.0
 40
5.0
 50
289.51467000000258
 51
0.0
  0
ARC
  5
48D4
  8
AM_0
 10
376.77437631399931
 20
609.29169324577754
 30
0.0
 40
5.0
 50
0.0
 51
88.499997000000747
  0
ARC
  5
48D5
  8
AM_0
 10
414.7743763139992
 20
545.73362324577761
 30
0.0
 40
80.0
 50
148.90067999999891
 51
211.09929999999889
  0
ARC
  5
48D6
  8
AM_0
 10
336.7743763139992
 20
499.6391332457776
 30
0.0
 40
1.0
 50
269.999989999999
 51
0.0000006832462478
  0
ARC
  5
48D7
  8
AM_0
 10
336.7743763139992
 20
493.86563324577759
 30
0.0
 40
1.0
 50
269.999989999999
 51
0.0000006832462478
  0
ARC
  5
48D8
  8
AM_0
 10
336.7743763139992
 20
490.97889324577761
 30
0.0
 40
1.0
 50
269.999989999999
 51
0.0000006832462478
  0
ARC
  5
48D9
  8
AM_0
 10
336.7743763139992
 20
497.6391332457776
 30
0.0
 40
1.0
 50
0.0
 51
90.00000299999769
  0
ARC
  5
48DA
  8
AM_0
 10
336.7743763139992
 20
500.52591324577759
 30
0.0
 40
1.0
 50
0.0
 51
90.00000299999769
  0
ARC
  5
48DB
  8
AM_0
 10
336.7743763139992
 20
491.86563324577781
 30
0.0
 40
1.0
 50
0.0
 51
90.00000299999769
  0
ARC
  5
48DC
  8
AM_0
 10
336.7743763139992
 20
599.60166324577744
 30
0.0
 40
1.0
 50
269.999989999999
 51
0.0000006832462478
  0
ARC
  5
48DD
  8
AM_0
 10
336.7743763139992
 20
590.94138324577762
 30
0.0
 40
1.0
 50
269.999989999999
 51
0.0000006832462478
  0
ARC
  5
48DE
  8
AM_0
 10
336.7743763139992
 20
593.82816324577755
 30
0.0
 40
1.0
 50
269.999989999999
 51
0.0000006832462478
  0
ARC
  5
48DF
  8
AM_0
 10
336.7743763139992
 20
600.48841324577745
 30
0.0
 40
1.0
 50
0.0
 51
90.00000299999769
  0
ARC
  5
48E0
  8
AM_0
 10
336.7743763139992
 20
597.60166324577779
 30
0.0
 40
1.0
 50
0.0
 51
90.00000299999769
  0
ARC
  5
48E1
  8
AM_0
 10
336.7743763139992
 20
591.82816324577777
 30
0.0
 40
1.0
 50
0.0
 51
90.00000299999769
  0
ARC
  5
48E2
  8
AM_0
 10
317.77437631399948
 20
603.6282132457776
 30
0.0
 40
2.0
 50
91.500001000001546
 51
180.00001000000091
  0
ARC
  5
48E3
  8
AM_0
 10
317.77437631399948
 20
487.8390832457776
 30
0.0
 40
2.0
 50
180.00001000000091
 51
268.49999999999721
  0
ARC
  5
48E4
  8
AM_0
 10
314.36379631399927
 20
604.41416324577744
 30
0.0
 40
1.5
 50
271.50000000000267
 51
347.02334999999908
  0
ARC
  5
48E5
  8
AM_0
 10
308.77437631399948
 20
600.76657324577752
 30
0.0
 40
2.0
 50
91.500001000001546
 51
180.00001000000091
  0
ARC
  5
48E6
  8
AM_0
 10
313.7743763139992
 20
594.15360324577773
 30
0.0
 40
2.0
 50
271.50000000000267
 51
0.0
  0
ARC
  5
48E7
  8
AM_0
 10
304.77437631399943
 20
593.91794324577779
 30
0.0
 40
2.0
 50
271.50000000000267
 51
0.0
  0
ARC
  5
48E8
  8
AM_0
 10
304.77437631399943
 20
497.54935324577758
 30
0.0
 40
2.0
 50
0.0
 51
88.499997000000747
  0
ARC
  5
48E9
  8
AM_0
 10
308.77437631399948
 20
490.70069324577742
 30
0.0
 40
2.0
 50
180.00001000000091
 51
268.49999999999721
  0
ARC
  5
48EA
  8
AM_0
 10
314.36379631399927
 20
487.05313324577759
 30
0.0
 40
1.5
 50
12.97665300000153
 51
88.499997000000747
  0
ARC
  5
48EB
  8
AM_0
 10
313.7743763139992
 20
497.31369324577759
 30
0.0
 40
2.0
 50
0.0
 51
88.499997000000747
  0
ARC
  5
48EC
  8
AM_0
 10
308.77437631399948
 20
488.23362324577772
 30
0.0
 40
5.0
 50
170.3165899999986
 51
3.8501329999993601
  0
ARC
  5
48ED
  8
AM_0
 10
308.77437631399948
 20
603.23365324577753
 30
0.0
 40
5.0
 50
356.1498700000015
 51
189.68341000000129
  0
ARC
  5
48EE
  8
AM_0
 10
346.73738631399948
 20
482.53623324577768
 30
0.0
 40
10.0
 50
91.500001000001546
 51
120.0000000000005
  0
ARC
  5
48EF
  8
AM_0
 10
346.73738631399948
 20
608.93106324577775
 30
0.0
 40
10.0
 50
239.99999999999949
 51
268.49999999999721
  0
ARC
  5
48F0
  8
AM_0
 10
329.97383631399941
 20
595.51551324577747
 30
0.0
 40
10.0
 50
60.000002000001302
 51
88.499997000000747
  0
ARC
  5
48F1
  8
AM_0
 10
329.97383631399941
 20
495.95176324577739
 30
0.0
 40
10.0
 50
271.50000000000267
 51
300.00001000000083
  0
ARC
  5
48F2
  8
AM_0
 10
289.42757631399923
 20
591.06638324577762
 30
0.0
 40
1.502775999999999
 50
194.75642999999889
 51
269.87757999999872
  0
ARC
  5
48F3
  8
AM_0
 10
289.42757631399923
 20
590.1563532457775
 30
0.0
 40
1.502775999999999
 50
194.75642999999889
 51
269.87757999999872
  0
ARC
  5
48F4
  8
AM_0
 10
289.42757631399923
 20
588.30637324577754
 30
0.0
 40
1.502775999999999
 50
194.75642999999889
 51
269.87757999999872
  0
ARC
  5
48F5
  8
AM_0
 10
281.89955631399948
 20
605.61887324577754
 30
0.0
 40
2.0047290000000002
 50
15.173495999999471
 51
89.861678000000197
  0
ARC
  5
48F6
  8
AM_0
 10
281.89955631399948
 20
604.70884324577753
 30
0.0
 40
2.0047290000000002
 50
15.173495999999471
 51
89.861678000000197
  0
ARC
  5
48F7
  8
AM_0
 10
281.89955631399948
 20
602.85886324577746
 30
0.0
 40
2.0047290000000002
 50
15.173495999999471
 51
89.861678000000197
  0
ARC
  5
48F8
  8
AM_0
 10
289.42757631399923
 20
506.01084324577749
 30
0.0
 40
1.502775999999999
 50
90.122413000001615
 51
165.24357000000111
  0
ARC
  5
491B
  8
AM_0
 10
184.31899631399929
 20
510.73362324577738
 30
0.0
 40
1.000013899999999
 50
89.691659999999231
 51
270.30834000000078
  0
ARC
  5
491C
  8
AM_0
 10
286.59438631399928
 20
580.77866324577747
 30
0.0
 40
1.6750020000000001
 50
269.999989999999
 51
90.00000299999769
  0
ARC
  5
491D
  8
AM_0
 10
283.11440631399932
 20
580.73362324577749
 30
0.0
 40
1.0
 50
269.999989999999
 51
90.00000299999769
  0
ARC
  5
491E
  8
AM_0
 10
283.11440631399932
 20
510.73362324577738
 30
0.0
 40
1.0
 50
269.999989999999
 51
90.00000299999769
  0
ARC
  5
491F
  8
AM_0
 10
286.59438631399928
 20
510.6885732457776
 30
0.0
 40
1.6750020000000001
 50
269.999989999999
 51
90.00000299999769
  0
ARC
  5
4932
  8
AM_0
 10
183.4469863139995
 20
580.77866324577747
 30
0.0
 40
1.6750160000000001
 50
89.746145000004447
 51
270.25387000000092
  0
ARC
  5
4933
  8
AM_0
 10
184.31899631399929
 20
580.73362324577749
 30
0.0
 40
1.000013899999999
 50
89.691659999999231
 51
270.30834000000078
  0
ARC
  5
4934
  8
AM_0
 10
184.31899631399929
 20
570.73362324577761
 30
0.0
 40
1.000013899999999
 50
89.691659999999231
 51
270.30834000000078
  0
ARC
  5
4935
  8
AM_0
 10
184.31899631399929
 20
560.73362324577749
 30
0.0
 40
1.000013899999999
 50
89.691659999999231
 51
270.30834000000078
  0
ARC
  5
4936
  8
AM_0
 10
184.31899631399929
 20
550.73362324577761
 30
0.0
 40
1.000013899999999
 50
89.691659999999231
 51
270.30834000000078
  0
ARC
  5
4937
  8
AM_0
 10
184.31899631399929
 20
540.73362324577761
 30
0.0
 40
1.000013899999999
 50
89.691659999999231
 51
270.30834000000078
  0
ARC
  5
4938
  8
AM_0
 10
184.31899631399929
 20
530.73362324577749
 30
0.0
 40
1.000013899999999
 50
89.691659999999231
 51
270.30834000000078
  0
ARC
  5
4939
  8
AM_0
 10
184.31899631399929
 20
520.73362324577761
 30
0.0
 40
1.000013899999999
 50
89.691659999999231
 51
270.30834000000078
  0
ARC
  5
493A
  8
AM_0
 10
183.2343963139993
 20
570.75864324577753
 30
0.0
 40
1.465004
 50
90.00000299999769
 51
270.0
  0
ARC
  5
493B
  8
AM_0
 10
183.1043963139993
 20
560.74363324577746
 30
0.0
 40
1.3300049999999981
 50
90.00000299999769
 51
270.0
  0
ARC
  5
493C
  8
AM_0
 10
183.0385363139992
 20
550.7386232457776
 30
0.0
 40
1.2650129999999991
 50
89.735579000001735
 51
270.2644100000025
  0
ARC
  5
493D
  8
AM_0
 10
183.0385363139992
 20
540.73362324577761
 30
0.0
 40
1.2700129999999981
 50
89.736617000001587
 51
270.26336999999921
  0
ARC
  5
493E
  8
AM_0
 10
183.1043963139993
 20
530.72361324577776
 30
0.0
 40
1.3300049999999981
 50
90.00000299999769
 51
270.0
  0
ARC
  5
493F
  8
AM_0
 10
183.2343963139993
 20
520.70859324577759
 30
0.0
 40
1.465004
 50
90.00000299999769
 51
270.0
  0
ARC
  5
4940
  8
AM_0
 10
183.44753631399911
 20
510.6885732457776
 30
0.0
 40
1.675014
 50
89.766498999996756
 51
270.2335099999994
  0
ARC
  5
4943
  8
AM_0
 10
184.9731063139993
 20
600.01950324577774
 30
0.0
 40
1.994108999999999
 50
89.675548000002749
 51
169.18776999999841
  0
ARC
  5
4944
  8
AM_0
 10
185.02462631399911
 20
602.86838324577775
 30
0.0
 40
1.995282999999997
 50
90.006203999996856
 51
170.90835000000069
  0
ARC
  5
4945
  8
AM_0
 10
185.0389663139992
 20
604.71689324577756
 30
0.0
 40
1.9967330000000001
 50
89.843966999998912
 51
171.4538800000002
  0
ARC
  5
4946
  8
AM_0
 10
185.06087631399919
 20
605.62802324577763
 30
0.0
 40
1.995633
 50
89.899707999995783
 51
172.06112999999991
  0
ARC
  5
4947
  8
AM_0
 10
281.90450631399932
 20
600.01535324577753
 30
0.0
 40
1.9982919999999991
 50
15.03254799999914
 51
90.002632000001341
  0
ARC
  5
4948
  8
AM_0
 10
289.42757631399923
 20
585.45639324577735
 30
0.0
 40
1.502775999999999
 50
194.75642999999889
 51
269.87757999999872
  0
ARC
  5
4949
  8
AM_0
 10
281.89955631399948
 20
491.45835324577757
 30
0.0
 40
2.0047290000000002
 50
270.13832000000423
 51
344.82649999999882
  0
ARC
  5
495A
  8
AM_0
 10
184.97927631399909
 20
491.45285324577759
 30
0.0
 40
1.9992490000000001
 50
190.643100000001
 51
270.14743000000129
  0
ARC
  5
495B
  8
AM_0
 10
185.03060631399941
 20
488.60398324577739
 30
0.0
 40
2.000420099999999
 50
188.92682000000181
 51
269.82270999999599
  0
ARC
  5
495C
  8
AM_0
 10
270.28798631399928
 20
481.73362324577738
 30
0.0
 40
1.5
 50
90.00000299999769
 51
178.5000000000006
  0
ARC
  5
495D
  8
AM_0
 10
281.79061631399941
 20
484.73362324577761
 30
0.0
 40
1.5
 50
269.999989999999
 51
326.99999999999892
  0
ARC
  5
495E
  8
AM_0
 10
184.7610063139993
 20
488.60361324577758
 30
0.0
 40
2.0
 50
188.62962000000121
 51
269.999989999999
  0
ARC
  5
495F
  8
AM_0
 10
184.68062631399931
 20
488.60361324577758
 30
0.0
 40
2.0
 50
187.9504400000001
 51
269.999989999999
  0
ARC
  5
4960
  8
AM_0
 10
207.17250631399929
 20
485.10361324577758
 30
0.0
 40
1.5
 50
1.5000026999989771
 51
90.00000299999769
  0
ARC
  5
4961
  8
AM_0
 10
218.2130963139993
 20
560.73362324577749
 30
0.0
 40
1.0000056999999991
 50
269.999989999999
 51
90.00000299999769
  0
ARC
  5
4962
  8
AM_0
 10
218.2130963139993
 20
550.73362324577761
 30
0.0
 40
1.0000056999999991
 50
269.999989999999
 51
90.00000299999769
  0
ARC
  5
4963
  8
AM_0
 10
218.2130963139993
 20
540.73362324577761
 30
0.0
 40
1.0000056999999991
 50
269.999989999999
 51
90.00000299999769
  0
ARC
  5
4964
  8
AM_0
 10
218.2130963139993
 20
530.73362324577749
 30
0.0
 40
1.0000056999999991
 50
269.999989999999
 51
90.00000299999769
  0
ARC
  5
4965
  8
AM_0
 10
268.77437631399931
 20
513.23362324577761
 30
0.0
 40
1.5
 50
179.999989999999
 51
270.0
  0
ARC
  5
4966
  8
AM_0
 10
250.77437631399951
 20
513.23362324577761
 30
0.0
 40
1.5
 50
269.999989999999
 51
0.0000006832462478
  0
ARC
  5
4967
  8
AM_0
 10
250.79439631399941
 20
513.37363324577746
 30
0.0
 40
1.0
 50
269.999989999999
 51
0.0000006832462478
  0
ARC
  5
4968
  8
AM_0
 10
268.75441631399929
 20
513.37363324577746
 30
0.0
 40
1.0
 50
179.999989999999
 51
270.0
  0
CIRCLE
  5
4969
  8
AM_0
 10
257.2743763139992
 20
574.23362324577761
 30
0.0
 40
1.1000000000000001
  0
CIRCLE
  5
496A
  8
AM_0
 10
257.2743763139992
 20
574.23362324577761
 30
0.0
 40
1.149999999999999
  0
CIRCLE
  5
496B
  8
AM_0
 10
262.27437631399931
 20
574.23362324577761
 30
0.0
 40
1.0
  0
ARC
  5
496C
  8
AM_0
 10
250.77437631399951
 20
573.23362324577749
 30
0.0
 40
1.02
 50
269.999989999999
 51
0.0000006832429909
  0
ARC
  5
496D
  8
AM_0
 10
268.77437631399931
 20
573.23362324577749
 30
0.0
 40
1.02
 50
179.999989999999
 51
270.0
  0
ARC
  5
496E
  8
AM_0
 10
250.77437631399951
 20
573.23362324577749
 30
0.0
 40
1.5
 50
269.999989999999
 51
0.0000006832462478
  0
ARC
  5
496F
  8
AM_0
 10
268.77437631399931
 20
573.23362324577749
 30
0.0
 40
1.5
 50
179.999989999999
 51
270.0
  0
CIRCLE
  5
4970
  8
AM_0
 10
262.27437631399931
 20
517.23362324577761
 30
0.0
 40
1.0
  0
CIRCLE
  5
4971
  8
AM_0
 10
257.2743763139992
 20
517.23362324577761
 30
0.0
 40
1.149999999999999
  0
CIRCLE
  5
4972
  8
AM_0
 10
257.2743763139992
 20
517.23362324577761
 30
0.0
 40
1.1000000000000001
  0
ARC
  5
4973
  8
AM_0
 10
250.77437631399951
 20
518.23362324577749
 30
0.0
 40
1.02
 50
0.0
 51
90.00000299999769
  0
ARC
  5
4974
  8
AM_0
 10
268.77437631399931
 20
518.23362324577749
 30
0.0
 40
1.02
 50
90.00000299999769
 51
180.00001000000091
  0
ARC
  5
4975
  8
AM_0
 10
250.77437631399951
 20
518.23362324577749
 30
0.0
 40
1.5
 50
0.0
 51
90.00000299999769
  0
ARC
  5
4976
  8
AM_0
 10
268.77437631399931
 20
518.23362324577749
 30
0.0
 40
1.5
 50
90.00000299999769
 51
180.00001000000091
  0
ARC
  5
4977
  8
AM_0
 10
219.4393563139993
 20
530.72361324577776
 30
0.0
 40
1.3300148000000001
 50
269.7294199999987
 51
90.270567000000995
  0
ARC
  5
4978
  8
AM_0
 10
219.50130631399921
 20
540.73362324577761
 30
0.0
 40
1.2700266
 50
269.62932000000001
 51
90.370669999998185
  0
ARC
  5
4979
  8
AM_0
 10
219.50130631399921
 20
550.74363324577769
 30
0.0
 40
1.2700266
 50
269.62932000000001
 51
90.370669999998185
  0
ARC
  5
497A
  8
AM_0
 10
219.4393563139993
 20
560.7486332457778
 30
0.0
 40
1.3350147999999991
 50
269.7304299999999
 51
90.269556000001344
  0
ARC
  5
497B
  8
AM_0
 10
283.11434631399942
 20
570.73362324577761
 30
0.0
 40
1.0000255999999981
 50
269.5894700000033
 51
90.410530999997775
  0
ARC
  5
497C
  8
AM_0
 10
286.81435631399933
 20
570.76365324577762
 30
0.0
 40
1.460011199999999
 50
269.77524999999667
 51
90.224750000003354
  0
ARC
  5
497D
  8
AM_0
 10
283.11434631399942
 20
520.73362324577761
 30
0.0
 40
1.0000255999999981
 50
269.5894700000033
 51
90.410530999997775
  0
ARC
  5
497E
  8
AM_0
 10
286.81435631399933
 20
520.70359324577771
 30
0.0
 40
1.460011199999999
 50
269.77524999999667
 51
90.224750000003354
  0
ARC
  5
497F
  8
AM_0
 10
268.75441631399929
 20
578.09360324577744
 30
0.0
 40
1.0
 50
90.00000299999769
 51
180.00001000000091
  0
ARC
  5
4980
  8
AM_0
 10
268.77437631399931
 20
578.23362324577761
 30
0.0
 40
1.5
 50
90.00000299999769
 51
180.00001000000091
  0
ARC
  5
4981
  8
AM_0
 10
250.77437631399951
 20
578.23362324577761
 30
0.0
 40
1.5
 50
0.0
 51
90.00000299999769
  0
ARC
  5
4982
  8
AM_0
 10
250.79439631399941
 20
578.09360324577744
 30
0.0
 40
1.0
 50
0.0
 51
90.00000299999769
  0
ARC
  5
4983
  8
AM_0
 10
313.7743763139992
 20
511.7936732457776
 30
0.0
 40
2.0
 50
0.0
 51
90.00000299999769
  0
ARC
  5
4984
  8
AM_0
 10
313.7743763139992
 20
579.67356324577747
 30
0.0
 40
2.0
 50
270.0
 51
0.0
  0
POLYLINE
  5
4985
  8
AM_0
 66
     1
 10
0.0
 20
0.0
 30
0.0
  0
VERTEX
  5
4986
  8
AM_0
 10
184.13436631399929
 20
545.73362324577761
 30
0.0
 42
0.00039106593
  0
VERTEX
  5
4987
  8
AM_0
 10
184.13200631399931
 20
545.4224832457777
 30
0.0
 42
0.00040574899
  0
VERTEX
  5
4988
  8
AM_0
 10
184.1301363139992
 20
545.11137324577771
 30
0.0
 42
0.0003534546
  0
VERTEX
  5
4989
  8
AM_0
 10
184.1287463139993
 20
544.80027324577748
 30
0.0
 42
0.00034407327
  0
VERTEX
  5
498A
  8
AM_0
 10
184.1277663139993
 20
544.48913324577768
 30
0.0
 42
0.00045699408
  0
VERTEX
  5
498B
  8
AM_0
 10
184.1273063139993
 20
544.17802324577769
 30
0.0
 42
0.00035571853
  0
VERTEX
  5
498C
  8
AM_0
 10
184.12734631399931
 20
543.86692324577746
 30
0.0
 42
0.00038547362
  0
VERTEX
  5
498D
  8
AM_0
 10
184.12783631399921
 20
543.55578324577755
 30
0.0
 42
0.00035501498
  0
VERTEX
  5
498E
  8
AM_0
 10
184.12879631399929
 20
543.24468324577765
 30
0.0
 42
0.00040118614
  0
VERTEX
  5
498F
  8
AM_0
 10
184.13021631399911
 20
542.93344324577765
 30
0.0
 42
0.00038319871
  0
VERTEX
  5
4990
  8
AM_0
 10
184.13212631399929
 20
542.62231324577772
 30
0.0
 42
0.00040742136
  0
VERTEX
  5
4991
  8
AM_0
 10
184.13452631399949
 20
542.31108324577747
 30
0.0
 42
0.0003578071
  0
VERTEX
  5
4992
  8
AM_0
 10
184.13741631399921
 20
541.99997324577748
 30
0.0
  0
SEQEND
  5
4993
  8
AM_0
  0
POLYLINE
  5
4994
  8
AM_0
 66
     1
 10
0.0
 20
0.0
 30
0.0
  0
VERTEX
  5
4995
  8
AM_0
 10
184.1784263139993
 20
539.4632332457777
 30
0.0
 42
0.00076695232
  0
VERTEX
  5
4996
  8
AM_0
 10
184.19322631399911
 20
538.84547324577761
 30
0.0
 42
0.00073263044
  0
VERTEX
  5
4997
  8
AM_0
 10
184.20986631399941
 20
538.22787324577746
 30
0.0
 42
0.0007652599
  0
VERTEX
  5
4998
  8
AM_0
 10
184.22835631399931
 20
537.6102032457776
 30
0.0
 42
0.00075144485
  0
VERTEX
  5
4999
  8
AM_0
 10
184.24872631399941
 20
536.99260324577745
 30
0.0
 42
0.00078594403
  0
VERTEX
  5
499A
  8
AM_0
 10
184.2709763139992
 20
536.37517324577755
 30
0.0
 42
0.00073349202
  0
VERTEX
  5
499B
  8
AM_0
 10
184.29512631399911
 20
535.75779324577752
 30
0.0
 42
0.0007358075
  0
VERTEX
  5
499C
  8
AM_0
 10
184.3210663139993
 20
535.14039324577766
 30
0.0
 42
0.00078592699
  0
VERTEX
  5
499D
  8
AM_0
 10
184.34889631399929
 20
534.52300324577755
 30
0.0
 42
0.00074823144
  0
VERTEX
  5
499E
  8
AM_0
 10
184.37862631399929
 20
533.90561324577754
 30
0.0
 42
0.00074896603
  0
VERTEX
  5
499F
  8
AM_0
 10
184.4101863139993
 20
533.28848324577768
 30
0.0
 42
0.00076039765
  0
VERTEX
  5
49A0
  8
AM_0
 10
184.44360631399951
 20
532.67145324577768
 30
0.0
 42
0.00075616128
  0
VERTEX
  5
49A1
  8
AM_0
 10
184.47890631399929
 20
532.05442324577746
 30
0.0
  0
SEQEND
  5
49A2
  8
AM_0
  0
POLYLINE
  5
49A3
  8
AM_0
 66
     1
 10
0.0
 20
0.0
 30
0.0
  0
VERTEX
  5
49A4
  8
AM_0
 10
184.65261631399929
 20
529.39304324577745
 30
0.0
 42
0.00073721992
  0
VERTEX
  5
49A5
  8
AM_0
 10
184.69676631399921
 20
528.79063324577771
 30
0.0
 42
0.00074398496
  0
VERTEX
  5
49A6
  8
AM_0
 10
184.7426963139992
 20
528.18836324577762
 30
0.0
 42
0.00073322625
  0
VERTEX
  5
49A7
  8
AM_0
 10
184.79042631399921
 20
527.58603324577746
 30
0.0
 42
0.00073594289
  0
VERTEX
  5
49A8
  8
AM_0
 10
184.83990631399931
 20
526.9840432457778
 30
0.0
 42
0.00074742568
  0
VERTEX
  5
49A9
  8
AM_0
 10
184.8911763139993
 20
526.3821832457777
 30
0.0
 42
0.00073216749
  0
VERTEX
  5
49AA
  8
AM_0
 10
184.9442363139994
 20
525.7803732457777
 30
0.0
 42
0.00074184065
  0
VERTEX
  5
49AB
  8
AM_0
 10
184.99905631399909
 20
525.17884324577778
 30
0.0
 42
0.00072077528
  0
VERTEX
  5
49AC
  8
AM_0
 10
185.05563631399951
 20
524.5776132457778
 30
0.0
 42
0.00074978179
  0
VERTEX
  5
49AD
  8
AM_0
 10
185.11397631399919
 20
523.97641324577762
 30
0.0
 42
0.00074288888
  0
VERTEX
  5
49AE
  8
AM_0
 10
185.17412631399921
 20
523.37539324577745
 30
0.0
 42
0.00072503679
  0
VERTEX
  5
49AF
  8
AM_0
 10
185.23603631399911
 20
522.77465324577724
 30
0.0
 42
0.00074640584
  0
VERTEX
  5
49B0
  8
AM_0
 10
185.29970631399911
 20
522.17405324577771
 30
0.0
  0
SEQEND
  5
49B1
  8
AM_0
  0
POLYLINE
  5
49B2
  8
AM_0
 66
     1
 10
0.0
 20
0.0
 30
0.0
  0
VERTEX
  5
49B3
  8
AM_0
 10
185.6352763139993
 20
519.25058324577765
 30
0.0
 42
0.0006890001
  0
VERTEX
  5
49B4
  8
AM_0
 10
185.7061563139992
 20
518.67583324577765
 30
0.0
 42
0.00070644651
  0
VERTEX
  5
49B5
  8
AM_0
 10
185.77865631399931
 20
518.1011532457776
 30
0.0
 42
0.0006924559
  0
VERTEX
  5
49B6
  8
AM_0
 10
185.8527463139994
 20
517.52683324577765
 30
0.0
 42
0.00069587797
  0
VERTEX
  5
49B7
  8
AM_0
 10
185.9284263139993
 20
516.95269324577771
 30
0.0
 42
0.00071687041
  0
VERTEX
  5
49B8
  8
AM_0
 10
186.00573631399911
 20
516.37869324577741
 30
0.0
 42
0.00069759113
  0
VERTEX
  5
49B9
  8
AM_0
 10
186.0846763139993
 20
515.80490324577761
 30
0.0
 42
0.00071003142
  0
VERTEX
  5
49BA
  8
AM_0
 10
186.16521631399931
 20
515.23143324577745
 30
0.0
 42
0.00069954544
  0
VERTEX
  5
49BB
  8
AM_0
 10
186.24735631399929
 20
514.65833324577761
 30
0.0
 42
0.0007188852
  0
VERTEX
  5
49BC
  8
AM_0
 10
186.3311363139992
 20
514.08530324577748
 30
0.0
 42
0.00071266165
  0
VERTEX
  5
49BD
  8
AM_0
 10
186.4165663139992
 20
513.51254324577735
 30
0.0
 42
0.00071614577
  0
VERTEX
  5
49BE
  8
AM_0
 10
186.50359631399911
 20
512.94019324577755
 30
0.0
 42
0.00072290806
  0
VERTEX
  5
49BF
  8
AM_0
 10
186.59230631399919
 20
512.36789324577774
 30
0.0
  0
SEQEND
  5
49C0
  8
AM_0
  0
POLYLINE
  5
49C1
  8
AM_0
 66
     1
 10
0.0
 20
0.0
 30
0.0
  0
VERTEX
  5
49C2
  8
AM_0
 10
184.13436631399929
 20
545.73362324577761
 30
0.0
 42
-0.00039106653
  0
VERTEX
  5
49C3
  8
AM_0
 10
184.13200631399931
 20
546.04475324577766
 30
0.0
 42
-0.00040574511
  0
VERTEX
  5
49C4
  8
AM_0
 10
184.1301363139992
 20
546.35586324577775
 30
0.0
 42
-0.00035346331
  0
VERTEX
  5
49C5
  8
AM_0
 10
184.1287463139993
 20
546.66697324577774
 30
0.0
 42
-0.00034406545
  0
VERTEX
  5
49C6
  8
AM_0
 10
184.1277663139993
 20
546.97811324577765
 30
0.0
 42
-0.00045699059
  0
VERTEX
  5
49C7
  8
AM_0
 10
184.1273063139993
 20
547.28921324577766
 30
0.0
 42
-0.00035573431
  0
VERTEX
  5
49C8
  8
AM_0
 10
184.12734631399931
 20
547.60031324577756
 30
0.0
 42
-0.00038545888
  0
VERTEX
  5
49C9
  8
AM_0
 10
184.12783631399921
 20
547.91145324577735
 30
0.0
 42
-0.00035501203
  0
VERTEX
  5
49CA
  8
AM_0
 10
184.12879631399929
 20
548.22256324577745
 30
0.0
 42
-0.00040120778
  0
VERTEX
  5
49CB
  8
AM_0
 10
184.13021631399911
 20
548.5337932457777
 30
0.0
 42
-0.00038317821
  0
VERTEX
  5
49CC
  8
AM_0
 10
184.13212631399929
 20
548.84492324577775
 30
0.0
 42
-0.00040741862
  0
VERTEX
  5
49CD
  8
AM_0
 10
184.13452631399949
 20
549.15615324577755
 30
0.0
 42
-0.00035783324
  0
VERTEX
  5
49CE
  8
AM_0
 10
184.13741631399921
 20
549.46726324577764
 30
0.0
  0
SEQEND
  5
49CF
  8
AM_0
  0
POLYLINE
  5
49D0
  8
AM_0
 66
     1
 10
0.0
 20
0.0
 30
0.0
  0
VERTEX
  5
49D1
  8
AM_0
 10
184.1784263139993
 20
552.00400324577765
 30
0.0
 42
-0.00076691987
  0
VERTEX
  5
49D2
  8
AM_0
 10
184.19322631399911
 20
552.62176324577774
 30
0.0
 42
-0.00073262795
  0
VERTEX
  5
49D3
  8
AM_0
 10
184.20986631399941
 20
553.23936324577755
 30
0.0
 42
-0.0007652954
  0
VERTEX
  5
49D4
  8
AM_0
 10
184.22835631399931
 20
553.85703324577776
 30
0.0
 42
-0.00077334627
  0
VERTEX
  5
49D5
  8
AM_0
 10
184.24876631399951
 20
554.47463324577745
 30
0.0
 42
-0.00073282897
  0
VERTEX
  5
49D6
  8
AM_0
 10
184.27102631399919
 20
555.09205324577772
 30
0.0
 42
-0.0007571179
  0
VERTEX
  5
49D7
  8
AM_0
 10
184.29512631399911
 20
555.70957324577762
 30
0.0
 42
-0.00073783152
  0
VERTEX
  5
49D8
  8
AM_0
 10
184.3210663139993
 20
556.32696324577751
 30
0.0
 42
-0.0007835518
  0
VERTEX
  5
49D9
  8
AM_0
 10
184.34889631399929
 20
556.9442332457777
 30
0.0
 42
-0.00074826133
  0
VERTEX
  5
49DA
  8
AM_0
 10
184.37862631399929
 20
557.56162324577747
 30
0.0
 42
-0.00074893555
  0
VERTEX
  5
49DB
  8
AM_0
 10
184.4101863139993
 20
558.17875324577744
 30
0.0
 42
-0.00076039841
  0
VERTEX
  5
49DC
  8
AM_0
 10
184.44360631399951
 20
558.79578324577756
 30
0.0
 42
-0.00075618789
  0
VERTEX
  5
49DD
  8
AM_0
 10
184.47890631399929
 20
559.41281324577756
 30
0.0
  0
SEQEND
  5
49DE
  8
AM_0
  0
POLYLINE
  5
49DF
  8
AM_0
 66
     1
 10
0.0
 20
0.0
 30
0.0
  0
VERTEX
  5
49E0
  8
AM_0
 10
184.65261631399929
 20
562.07419324577779
 30
0.0
 42
-0.0007337051
  0
VERTEX
  5
49E1
  8
AM_0
 10
184.69675631399949
 20
562.67660324577764
 30
0.0
 42
-0.00075211323
  0
VERTEX
  5
49E2
  8
AM_0
 10
184.7426963139992
 20
563.27900324577774
 30
0.0
 42
-0.0007297491
  0
VERTEX
  5
49E3
  8
AM_0
 10
184.79042631399921
 20
563.88120324577756
 30
0.0
 42
-0.00073593041
  0
VERTEX
  5
49E4
  8
AM_0
 10
184.83990631399931
 20
564.48319324577756
 30
0.0
 42
-0.00074742739
  0
VERTEX
  5
49E5
  8
AM_0
 10
184.8911763139993
 20
565.08505324577754
 30
0.0
 42
-0.00073217363
  0
VERTEX
  5
49E6
  8
AM_0
 10
184.9442363139994
 20
565.68686324577754
 30
0.0
 42
-0.00073754168
  0
VERTEX
  5
49E7
  8
AM_0
 10
184.99905631399909
 20
566.28840324577754
 30
0.0
 42
-0.00073075073
  0
VERTEX
  5
49E8
  8
AM_0
 10
185.05563631399951
 20
566.88975324577746
 30
0.0
 42
-0.00074550816
  0
VERTEX
  5
49E9
  8
AM_0
 10
185.11397631399919
 20
567.49082324577751
 30
0.0
 42
-0.00074288416
  0
VERTEX
  5
49EA
  8
AM_0
 10
185.17412631399921
 20
568.0918432457778
 30
0.0
 42
-0.00072504001
  0
VERTEX
  5
49EB
  8
AM_0
 10
185.23603631399911
 20
568.69258324577754
 30
0.0
 42
-0.00074640667
  0
VERTEX
  5
49EC
  8
AM_0
 10
185.29970631399911
 20
569.29319324577762
 30
0.0
  0
SEQEND
  5
49ED
  8
AM_0
  0
POLYLINE
  5
49EE
  8
AM_0
 66
     1
 10
0.0
 20
0.0
 30
0.0
  0
VERTEX
  5
49EF
  8
AM_0
 10
185.6352763139993
 20
572.21665324577759
 30
0.0
 42
-0.00068898283
  0
VERTEX
  5
49F0
  8
AM_0
 10
185.7061563139992
 20
572.7914032457777
 30
0.0
 42
-0.00070644357
  0
VERTEX
  5
49F1
  8
AM_0
 10
185.77865631399931
 20
573.36609324577762
 30
0.0
 42
-0.00069248074
  0
VERTEX
  5
49F2
  8
AM_0
 10
185.8527463139994
 20
573.9404032457777
 30
0.0
 42
-0.0006958566
  0
VERTEX
  5
49F3
  8
AM_0
 10
185.9284263139993
 20
574.51454324577753
 30
0.0
 42
-0.00071687219
  0
VERTEX
  5
49F4
  8
AM_0
 10
186.00573631399911
 20
575.0885432457776
 30
0.0
 42
-0.00069760022
  0
VERTEX
  5
49F5
  8
AM_0
 10
186.0846763139993
 20
575.66233324577775
 30
0.0
 42
-0.00071002302
  0
VERTEX
  5
49F6
  8
AM_0
 10
186.16521631399931
 20
576.23580324577745
 30
0.0
 42
-0.00069954889
  0
VERTEX
  5
49F7
  8
AM_0
 10
186.24735631399929
 20
576.80890324577774
 30
0.0
 42
-0.00071887947
  0
VERTEX
  5
49F8
  8
AM_0
 10
186.3311363139992
 20
577.38193324577753
 30
0.0
 42
-0.00071266929
  0
VERTEX
  5
49F9
  8
AM_0
 10
186.4165663139992
 20
577.95470324577752
 30
0.0
 42
-0.00071614429
  0
VERTEX
  5
49FA
  8
AM_0
 10
186.50359631399911
 20
578.52704324577746
 30
0.0
 42
-0.00072288978
  0
VERTEX
  5
49FB
  8
AM_0
 10
186.59230631399919
 20
579.09934324577762
 30
0.0
  0
SEQEND
  5
49FC
  8
AM_0
  0
LINE
  5
49FD
  8
ﾁｭｳｼﾝｾﾝ1
 10
361.7743763139992
 20
603.23365324577753
 30
0.0
 11
381.77437631399931
 21
603.23365324577753
 31
0.0
  0
LINE
  5
49FE
  8
ﾁｭｳｼﾝｾﾝ1
 10
371.7743763139992
 20
613.23365324577753
 30
0.0
 11
371.7743763139992
 21
593.23365324577753
 31
0.0
  0
LINE
  5
49FF
  8
ﾁｭｳｼﾝｾﾝ1
 10
361.7743763139992
 20
488.23362324577772
 30
0.0
 11
381.77437631399931
 21
488.23362324577772
 31
0.0
  0
LINE
  5
4A00
  8
ﾁｭｳｼﾝｾﾝ1
 10
371.7743763139992
 20
498.23362324577761
 30
0.0
 11
371.7743763139992
 21
478.23362324577761
 31
0.0
  0
LINE
  5
4A01
  8
ﾁｭｳｼﾝｾﾝ1
 10
298.77437631399948
 20
488.23362324577772
 30
0.0
 11
318.77437631399948
 21
488.23362324577772
 31
0.0
  0
LINE
  5
4A02
  8
ﾁｭｳｼﾝｾﾝ1
 10
308.77437631399948
 20
498.23362324577761
 30
0.0
 11
308.77437631399948
 21
478.23362324577761
 31
0.0
  0
LINE
  5
4A03
  8
ﾁｭｳｼﾝｾﾝ1
 10
298.77437631399948
 20
603.23365324577753
 30
0.0
 11
318.77437631399948
 21
603.23365324577753
 31
0.0
  0
LINE
  5
4A04
  8
ﾁｭｳｼﾝｾﾝ1
 10
308.77437631399948
 20
613.23365324577753
 30
0.0
 11
308.77437631399948
 21
593.23365324577753
 31
0.0
  0
ARC
  5
4A05
  8
AM_0
 10
380.7743863139994
 20
524.70710024577761
 30
0.0
 40
1.0000000199999981
 50
90.001718873355244
 51
180.00001000000091
  0
ARC
  5
4A06
  8
AM_0
 10
380.7743863139994
 20
566.76016724577755
 30
0.0
 40
1.0000000199999981
 50
179.999989999999
 51
269.99828112664488
  0
LINE
  5
4A07
  8
AM_0
 10
383.77435631399942
 20
570.23365324577753
 30
0.0
 11
387.77435631399931
 21
566.23365324577787
 31
0.0
  0
LINE
  5
4A08
  8
AM_0
 10
381.27435631399942
 20
570.23365324577753
 30
0.0
 11
383.77435631399942
 21
570.23365324577753
 31
0.0
  0
LINE
  5
4A09
  8
AM_0
 10
380.77435631399931
 20
569.73365324577753
 30
0.0
 11
380.77435631399931
 21
521.73365324577765
 31
0.0
  0
LINE
  5
4A0A
  8
AM_0
 10
387.77435631399931
 20
566.23365324577787
 30
0.0
 11
387.77435631399987
 21
525.23365324577765
 31
0.0
  0
LINE
  5
4A0B
  8
AM_0
 10
383.77435631399942
 20
521.23365324577765
 30
0.0
 11
387.77435631399931
 21
525.23365324577765
 31
0.0
  0
LINE
  5
4A0C
  8
AM_0
 10
381.27435631399942
 20
521.23365324577765
 30
0.0
 11
383.77435631399942
 21
521.23365324577765
 31
0.0
  0
LINE
  5
4A0D
  8
AM_0
 10
380.77435631399931
 20
569.73365324577753
 30
0.0
 11
381.27435631399942
 21
570.23365324577753
 31
0.0
1001
GENIUS_GENFIL_13
1070
     0
1040
0.5
1040
0.5
1040
20.0
1040
0.0
1002
{
1002
}
1001
GENIUS_GENOBJ-N-CHA_13
1002
{
1000
OWNER
1000
GEN
1002
}
1001
GENIUS_GENODEF_13
1002
{
1000
HIER
1070
     0
1002
}
1002
{
1000
MANEDIT
1070
     0
1002
}
1002
{
1000
NOSEL
1070
     0
1002
}
1002
{
1000
BEHIND
1070
     0
1002
}
1002
{
1000
OTHER
1070
     0
1002
}
1002
{
1000
REACTOR
1002
}
  0
LINE
  5
4A0E
  8
AM_0
 10
380.77435631399931
 20
521.73365324577765
 30
0.0
 11
381.27435631399942
 21
521.23365324577765
 31
0.0
1001
GENIUS_GENFIL_13
1070
     0
1040
0.5
1040
0.5
1040
20.0
1040
0.0
1002
{
1002
}
1001
GENIUS_GENODEF_13
1002
{
1000
HIER
1070
     0
1002
}
1002
{
1000
MANEDIT
1070
     0
1002
}
1002
{
1000
NOSEL
1070
     0
1002
}
1002
{
1000
BEHIND
1070
     0
1002
}
1002
{
1000
OTHER
1070
     0
1002
}
1002
{
1000
REACTOR
1002
}
1001
GENIUS_GENOBJ-N-CHA_13
1002
{
1000
OWNER
1000
GEN
1002
}
  0
LINE
  5
4A0F
  8
AM_0
 10
383.77435631399942
 20
570.23365324577753
 30
0.0
 11
383.77435631399942
 21
521.23365324577765
 31
0.0
  0
LINE
  5
4DCF
  8
AM_0
 10
174.27437631399931
 20
598.73362324577772
 30
0.0
 11
174.27437631399911
 21
492.73362324577761
 31
0.0
  0
LINE
  5
4DF3
  8
AM_0
 10
174.27437631399911
 20
492.73362324577761
 30
0.0
 11
181.7743763139992
 21
492.73362324577761
 31
0.0
  0
LINE
  5
4DF8
  8
AM_0
 10
174.4743863139991
 20
502.5436832457778
 30
0.0
 11
180.70436631399909
 21
502.5436832457778
 31
0.0
  0
LINE
  5
4EA4
  8
AM_0
 10
174.4743863139991
 20
588.9235632457777
 30
0.0
 11
180.70436631399909
 21
588.9235632457777
 31
0.0
  0
LINE
  5
4EA7
  8
AM_0
 10
174.27437631399931
 20
598.73362324577772
 30
0.0
 11
181.77437631399931
 21
598.73362324577772
 31
0.0
  0
LINE
  5
4F9D
  8
AM_0
 10
166.27437631400011
 20
493.67221973700572
 30
0.0
 11
166.2743763139998
 21
531.39450665176309
 31
0.0
  0
LINE
  5
4F9E
  8
AM_0
 10
157.27437631399931
 20
491.73362324577778
 30
0.0
 11
157.27437631399931
 21
599.73362324577795
 31
0.0
  0
LINE
  5
4F9F
  8
AM_0
 10
157.27437631399931
 20
491.73362324577772
 30
0.0
 11
174.2743763139992
 21
492.73362324577761
 31
0.0
  0
LINE
  5
4FA0
  8
AM_0
 10
157.27437631399931
 20
599.73362324577772
 30
0.0
 11
174.2743763139992
 21
598.73362324577772
 31
0.0
  0
LINE
  5
4FA1
  8
AM_0
 10
166.27437631399999
 20
502.13972004768618
 30
0.0
 11
174.2743763139992
 21
502.13972004768641
 31
0.0
  0
LINE
  5
4FA2
  8
AM_0
 10
166.27437631400011
 20
493.67221973700572
 30
0.0
 11
174.2743763139992
 21
493.67221973700572
 31
0.0
  0
LINE
  5
4FA3
  8
AM_0
 10
162.77437631399999
 20
511.09275028051758
 30
0.0
 11
166.27437631399999
 21
511.09275028051758
 31
0.0
  0
LINE
  5
4FA4
  8
AM_0
 10
162.77437631399999
 20
502.59275028051758
 30
0.0
 11
166.27437631400011
 21
502.59275028051758
 31
0.0
  0
LINE
  5
4FA5
  8
AM_0
 10
162.27437631399999
 20
503.09275028051758
 30
0.0
 11
162.27437631399999
 21
510.59275028051758
 31
0.0
  0
ARC
  5
4FA6
  8
AM_0
 10
162.77437631400011
 20
503.09275028051758
 30
0.0
 40
0.5
 50
180.0
 51
270.0
  0
ARC
  5
4FA7
  8
AM_0
 10
162.77437631400011
 20
510.59275028051758
 30
0.0
 40
0.5
 50
90.0
 51
180.0
  0
LINE
  5
4FA8
  8
AM_0
 10
157.27437631399931
 20
503.46142875263769
 30
0.0
 11
162.27437631399999
 21
503.46142875263757
 31
0.0
  0
LINE
  5
4FA9
  8
AM_0
 10
157.27437631399931
 20
513.19651125093367
 30
0.0
 11
166.27437631399991
 21
513.19651125093367
 31
0.0
  0
LINE
  5
4FAA
  8
AM_0
 10
166.27437631400011
 20
597.79502675455001
 30
0.0
 11
166.2743763139998
 21
560.07273983979712
 31
0.0
  0
LINE
  5
4FAB
  8
AM_0
 10
166.27437631399999
 20
589.32752644386937
 30
0.0
 11
174.2743763139992
 21
589.32752644386937
 31
0.0
  0
LINE
  5
4FAC
  8
AM_0
 10
166.27437631400011
 20
597.79502675455001
 30
0.0
 11
174.2743763139992
 21
597.79502675455001
 31
0.0
  0
LINE
  5
4FAD
  8
AM_0
 10
162.77437631399999
 20
580.37449621103815
 30
0.0
 11
166.27437631399999
 21
580.37449621103815
 31
0.0
  0
LINE
  5
4FAE
  8
AM_0
 10
162.77437631399999
 20
588.87449621103815
 30
0.0
 11
166.27437631400011
 21
588.87449621103815
 31
0.0
  0
LINE
  5
4FAF
  8
AM_0
 10
162.27437631399999
 20
588.37449621103815
 30
0.0
 11
162.27437631399999
 21
580.87449621103815
 31
0.0
  0
ARC
  5
4FB0
  8
AM_0
 10
162.77437631400011
 20
588.37449621103792
 30
0.0
 40
0.5
 50
90.0
 51
180.0
  0
ARC
  5
4FB1
  8
AM_0
 10
162.77437631400011
 20
580.87449621103792
 30
0.0
 40
0.5
 50
180.0
 51
270.0
  0
LINE
  5
4FB2
  8
AM_0
 10
157.27437631399931
 20
588.00581773891815
 30
0.0
 11
162.27437631399999
 21
588.00581773891815
 31
0.0
  0
LINE
  5
4FB3
  8
AM_0
 10
157.27437631399931
 20
578.270735240622
 30
0.0
 11
166.27437631399991
 21
578.270735240622
 31
0.0
  0
LINE
  5
4FB4
  8
AM_0
 10
151.2743763139992
 20
599.73362324577795
 30
0.0
 11
151.2743763139992
 21
491.73362324577772
 31
0.0
  0
LINE
  5
4FB5
  8
AM_0
 10
157.27437631399931
 20
491.73362324577772
 30
0.0
 11
151.2743763139992
 21
491.73362324577772
 31
0.0
  0
LINE
  5
4FB6
  8
AM_0
 10
151.2743763139992
 20
599.73362324577795
 30
0.0
 11
157.27437631399911
 21
599.73362324577795
 31
0.0
  0
LINE
  5
4FB7
  8
AM_0
 10
150.2743763139992
 20
541.93362324577765
 30
0.0
 11
150.2743763139992
 21
549.53362324577779
 31
0.0
  0
LINE
  5
4FB8
  8
AM_0
 10
150.2743763139992
 20
549.53362324577779
 30
0.0
 11
151.2743763139992
 21
549.53362324577779
 31
0.0
  0
LINE
  5
4FB9
  8
AM_0
 10
151.2743763139992
 20
545.93362324577765
 30
0.0
 11
150.2743763139992
 21
546.29759348004404
 31
0.0
  0
LINE
  5
4FBA
  8
AM_0
 10
151.2743763139992
 20
545.53362324577779
 30
0.0
 11
150.2743763139992
 21
545.89759348004418
 31
0.0
  0
LINE
  5
4FBB
  8
AM_0
 10
151.2743763139992
 20
541.93362324577765
 30
0.0
 11
150.2743763139992
 21
541.93362324577765
 31
0.0
  0
LINE
  5
4FBC
  8
AM_0
 10
149.21543880187119
 20
549.64097821808446
 30
0.0
 11
150.2743763139992
 21
549.73362324577772
 31
0.0
  0
LINE
  5
4FBD
  8
AM_0
 10
149.21543880187119
 20
541.82626827347133
 30
0.0
 11
150.2743763139992
 21
541.73362324577772
 31
0.0
  0
ARC
  5
4FBE
  8
AM_0
 10
153.67437631399929
 20
545.73362324577772
 30
0.0
 40
6.5
 50
151.82726586813479
 51
208.1727341318651
  0
ARC
  5
4FBF
  8
AM_0
 10
149.3548879902678
 20
543.42017979041805
 30
0.0
 40
1.6000000000000001
 50
208.1727341318651
 51
265.00000000000028
  0
ARC
  5
4FC0
  8
AM_0
 10
149.3548879902678
 20
548.04706670113751
 30
0.0
 40
1.6000000000000001
 50
94.99999999999973
 51
151.82726586813479
  0
LINE
  5
4FC1
  8
AM_0
 10
150.2743763139992
 20
541.73362324577772
 30
0.0
 11
150.2743763139992
 21
549.73362324577772
 31
0.0
  0
LINE
  5
4FC2
  8
AM_0
 10
174.2743763139992
 20
531.39450665176309
 30
0.0
 11
166.27437631399991
 21
531.39450665176309
 31
0.0
  0
LINE
  5
4FC3
  8
AM_0
 10
174.27437631399911
 20
560.07273983979724
 30
0.0
 11
166.27437631399971
 21
560.07273983979724
 31
0.0
  0
LINE
  5
4FC4
  8
AM_0
 10
136.7743763139988
 20
511.7336232457788
 30
0.0
 11
136.7743763139988
 21
500.73362324577778
 31
0.0
  0
LINE
  5
4FC5
  8
AM_0
 10
151.2743763139988
 20
500.73362324577778
 30
0.0
 11
136.7743763139988
 21
500.73362324577789
 31
0.0
  0
LINE
  5
4FC6
  8
AM_0
 10
124.7743763139992
 20
505.7336232457788
 30
0.0
 11
124.774376313999
 21
502.73362324577892
 31
0.0
  0
LINE
  5
4FC7
  8
AM_0
 10
124.774376313999
 20
502.73362324577892
 30
0.0
 11
136.7743763139988
 21
502.73362324577892
 31
0.0
  0
LINE
  5
4FC8
  8
AM_0
 10
124.7743763139988
 20
503.73362324577892
 30
0.0
 11
124.7743763139988
 21
505.91129165192541
 31
0.0
  0
LINE
  5
4FC9
  8
AM_0
 10
119.2743763139988
 20
505.73362324577909
 30
0.0
 11
120.17437631399891
 21
505.73362324577909
 31
0.0
  0
LINE
  5
4FCA
  8
AM_0
 10
119.0743763139985
 20
508.73362324577909
 30
0.0
 11
119.0743763139985
 21
505.73362324577909
 31
0.0
  0
LINE
  5
4FCB
  8
AM_0
 10
120.17437631399891
 20
505.46127151119538
 30
0.0
 11
120.17437631399891
 21
509.00597498036279
 31
0.0
  0
LINE
  5
4FCC
  8
AM_0
 10
118.7743763139988
 20
508.43362324577907
 30
0.0
 11
120.174376313997
 21
508.43362324577907
 31
0.0
  0
LINE
  5
4FCD
  8
AM_0
 10
124.17437631399891
 20
504.85205338537179
 30
0.0
 11
124.17437631399891
 21
503.73362324577892
 31
0.0
  0
LINE
  5
4FCE
  8
AM_0
 10
124.17437631399891
 20
505.73362324577909
 30
0.0
 11
124.17437631399891
 21
505.63362324577901
 31
0.0
  0
LINE
  5
4FCF
  8
AM_0
 10
124.17437631399891
 20
505.63362324577901
 30
0.0
 11
124.17437631399891
 21
504.85205338537179
 31
0.0
  0
LINE
  5
4FD0
  8
AM_0
 10
124.17437631399891
 20
505.73362324577909
 30
0.0
 11
124.17437631399891
 21
505.63362324577901
 31
0.0
  0
LINE
  5
4FD1
  8
AM_0
 10
124.17437631399891
 20
506.11738592210878
 30
0.0
 11
124.17437631399891
 21
504.85205338537179
 31
0.0
  0
LINE
  5
4FD2
  8
AM_0
 10
124.17437631399891
 20
503.73362324577892
 30
0.0
 11
124.7743763139988
 21
503.73362324577892
 31
0.0
  0
LINE
  5
4FD3
  8
AM_0
 10
121.474376313999
 20
504.85205338537179
 30
0.0
 11
121.474376313999
 21
508.2835845777721
 31
0.0
  0
LINE
  5
4FD4
  8
AM_0
 10
121.3133320847414
 20
504.56536175702871
 30
0.0
 11
120.3807790352343
 21
505.10377151119542
 31
0.0
  0
LINE
  5
4FD5
  8
AM_0
 10
121.7468279060294
 20
504.05819676523618
 30
0.0
 11
123.9019247219685
 21
504.05819676523618
 31
0.0
  0
LINE
  5
4FD6
  8
AM_0
 10
121.7468279060294
 20
505.64591000550769
 30
0.0
 11
123.9019247219685
 21
505.64591000550769
 31
0.0
  0
LINE
  5
4FD7
  8
AM_0
 10
120.1743763139975
 20
508.73362324577909
 30
0.0
 11
119.0743763139985
 21
508.73362324577909
 31
0.0
  0
LINE
  5
4FD8
  8
AM_0
 10
119.0743763139985
 20
508.73362324577909
 30
0.0
 11
118.7743763139988
 21
508.43362324577907
 31
0.0
  0
LINE
  5
4FD9
  8
AM_0
 10
118.7743763139988
 20
508.43362324577907
 30
0.0
 11
118.7743763139988
 21
506.03362324577898
 31
0.0
  0
LINE
  5
4FDA
  8
AM_0
 10
119.0743763139985
 20
505.73362324577909
 30
0.0
 11
120.174376313997
 21
505.73362324577909
 31
0.0
  0
LINE
  5
4FDB
  8
AM_0
 10
118.7743763139988
 20
506.03362324577898
 30
0.0
 11
119.0743763139985
 21
505.73362324577909
 31
0.0
  0
LINE
  5
4FDC
  8
AM_0
 10
120.174376313997
 20
506.03362324577898
 30
0.0
 11
118.7743763139988
 21
506.03362324577898
 31
0.0
  0
ARC
  5
4FDD
  8
AM_0
 10
122.8815994979723
 20
504.85205338537179
 30
0.0
 40
1.292776816026465
 50
322.11555894629771
 51
0.0
  0
ARC
  5
4FDE
  8
AM_0
 10
126.2368061900586
 20
507.23362324577892
 30
0.0
 40
4.762429876059711
 50
168.45024695877001
 51
199.4742400054138
  0
ARC
  5
4FDF
  8
AM_0
 10
122.76715313002551
 20
504.85205338537179
 30
0.0
 40
1.292776816026556
 50
142.11555894629771
 51
217.8844410536997
  0
ARC
  5
4FE0
  8
AM_0
 10
119.41194643793941
 20
507.23362324577892
 30
0.0
 40
4.762429876059584
 50
340.52575999458628
 51
347.08714779821958
  0
ARC
  5
4FE1
  8
AM_0
 10
122.8815994979723
 20
504.85205338537179
 30
0.0
 40
1.2927768160265021
 50
0.0
 51
37.884441053702261
  0
ARC
  5
4FE2
  8
AM_0
 10
120.58718175646941
 20
505.46127151119538
 30
0.0
 40
0.4128054424705854
 50
180.0
 51
239.99999999999949
  0
ARC
  5
4FE3
  8
AM_0
 10
120.900526642271
 20
503.85036175702891
 30
0.0
 40
0.8256108849411369
 50
28.217424594176819
 51
59.999999999999439
  0
LINE
  5
4FE4
  8
AM_0
 10
120.38946884652201
 20
509.36849204524879
 30
0.0
 11
120.3807790352343
 21
509.3634749803627
 31
0.0
  0
ARC
  5
4FE5
  8
AM_0
 10
120.5871817564696
 20
509.00597498036279
 30
0.0
 40
0.4128054424705854
 50
119.9999999999916
 51
179.99999999999341
  0
CIRCLE
  5
4FE6
  8
AM_0
 10
122.774337645993
 20
545.73362324577795
 30
0.0
 40
5.5
  0
LINE
  5
4FE7
  8
AM_0
 10
117.274337645993
 20
542.55819676523527
 30
0.0
 11
122.7743376459934
 21
539.38277028469213
 31
0.0
  0
LINE
  5
4FE8
  8
AM_0
 10
122.7743376459934
 20
539.38277028469213
 30
0.0
 11
128.274337645993
 21
542.55819676523538
 31
0.0
  0
LINE
  5
4FE9
  8
AM_0
 10
128.274337645993
 20
542.55819676523538
 30
0.0
 11
128.274337645993
 21
548.90904972632109
 31
0.0
  0
LINE
  5
4FEA
  8
AM_0
 10
128.274337645993
 20
548.90904972632109
 30
0.0
 11
122.774337645993
 21
552.08447620686411
 31
0.0
  0
LINE
  5
4FEB
  8
AM_0
 10
122.774337645993
 20
552.08447620686411
 30
0.0
 11
117.274337645993
 21
548.90904972632075
 31
0.0
  0
LINE
  5
4FEC
  8
AM_0
 10
117.274337645993
 20
548.90904972632075
 30
0.0
 11
117.274337645993
 21
542.55819676523527
 31
0.0
  0
CIRCLE
  5
4FED
  8
AM_0
 10
122.774337645993
 20
545.73362324577795
 30
0.0
 40
6.4999856554771771
  0
LINE
  5
4FEE
  8
AM_0
 10
133.83962987636411
 20
511.7336232457788
 30
0.0
 11
136.7743763139988
 21
511.7336232457788
 31
0.0
  0
LINE
  5
4FEF
  8
AM_0
 10
134.793798428152
 20
510.2336232457788
 30
0.0
 11
136.7743763139988
 21
510.2336232457788
 31
0.0
  0
LINE
  5
4FF0
  8
AM_0
 10
126.09540545785779
 20
505.7336232457788
 30
0.0
 11
136.7743763139988
 21
505.7336232457788
 31
0.0
  0
ARC
  5
4FF1
  8
AM_0
 10
126.09540545785769
 20
510.73362324577892
 30
0.0
 40
5.0
 50
225.0
 51
270.0
1001
GENIUS_GENODEF_13
1002
{
1000
HIER
1070
     0
1002
}
1002
{
1000
MANEDIT
1070
     0
1002
}
1002
{
1000
NOSEL
1070
     0
1002
}
1002
{
1000
BEHIND
1070
     0
1002
}
1002
{
1000
OTHER
1070
     0
1002
}
1002
{
1000
REACTOR
1002
}
1001
GENIUS_GENOBJ-N-FIL_13
1002
{
1000
OWNER
1000
GEN
1002
}
  0
LINE
  5
4FF2
  8
AM_0
 10
134.7937984281518
 20
505.7336232457788
 30
0.0
 11
134.793798428152
 21
510.2336232457788
 31
0.0
  0
LINE
  5
4FF3
  8
AM_0
 10
121.274337645993
 20
539.40908266788563
 30
0.0
 11
121.2743376459932
 21
518.52164839206944
 31
0.0
  0
LINE
  5
4FF4
  8
AM_0
 10
124.274337645993
 20
539.40908266788563
 30
0.0
 11
124.274337645993
 21
518.52164839206944
 31
0.0
  0
LINE
  5
4FF5
  8
AM_0
 10
119.024337645993
 20
540.42445066227594
 30
0.0
 11
119.024337645993
 21
512.80469105764348
 31
0.0
  0
ARC
  5
4FF6
  8
AM_0
 10
124.024337645993
 20
512.80469105764348
 30
0.0
 40
5.0
 50
180.0
 51
225.0
1001
GENIUS_GENOBJ-N-FIL_13
1002
{
1000
OWNER
1000
GEN
1002
}
1001
GENIUS_GENODEF_13
1002
{
1000
HIER
1070
     0
1002
}
1002
{
1000
MANEDIT
1070
     0
1002
}
1002
{
1000
NOSEL
1070
     0
1002
}
1002
{
1000
BEHIND
1070
     0
1002
}
1002
{
1000
OTHER
1070
     0
1002
}
1002
{
1000
REACTOR
1002
}
  0
LINE
  5
4FF7
  8
AM_0
 10
126.524337645993
 20
540.42445066227594
 30
0.0
 11
126.524337645993
 21
516.26454158903027
 31
0.0
  0
ARC
  5
4FF8
  8
AM_0
 10
131.524337645993
 20
524.68914161510349
 30
0.0
 40
5.0
 50
180.0
 51
212.4609441151442
1001
GENIUS_GENODEF_13
1002
{
1000
HIER
1070
     0
1002
}
1002
{
1000
MANEDIT
1070
     0
1002
}
1002
{
1000
NOSEL
1070
     0
1002
}
1002
{
1000
BEHIND
1070
     0
1002
}
1002
{
1000
OTHER
1070
     0
1002
}
1002
{
1000
REACTOR
1002
}
1001
GENIUS_GENOBJ-N-FIL_13
1002
{
1000
OWNER
1000
GEN
1002
}
  0
ARC
  5
4FF9
  8
AM_0
 10
131.524337645993
 20
516.26454158903027
 30
0.0
 40
5.0
 50
180.0
 51
224.2123722808945
1001
GENIUS_GENOBJ-N-FIL_13
1002
{
1000
OWNER
1000
GEN
1002
}
1001
GENIUS_GENODEF_13
1002
{
1000
HIER
1070
     0
1002
}
1002
{
1000
MANEDIT
1070
     0
1002
}
1002
{
1000
NOSEL
1070
     0
1002
}
1002
{
1000
BEHIND
1070
     0
1002
}
1002
{
1000
OTHER
1070
     0
1002
}
1002
{
1000
REACTOR
1002
}
  0
LINE
  5
4FFA
  8
AM_0
 10
134.7937984281518
 20
510.2336232457788
 30
0.0
 11
127.305550135226
 21
522.00551870213781
 31
0.0
  0
LINE
  5
4FFB
  8
AM_0
 10
134.7937984281518
 20
505.7336232457788
 30
0.0
 11
127.9405374101416
 21
512.77794211826949
 31
0.0
  0
LINE
  5
4FFC
  8
AM_0
 10
120.48880374006031
 20
509.26915715171077
 30
0.0
 11
122.559871551925
 21
507.19808933984598
 31
0.0
  0
ARC
  5
4FFD
  8
AM_0
 10
122.774337645993
 20
518.52164839206944
 30
0.0
 40
1.5
 50
180.0
 51
0.0
  0
LINE
  5
4FFE
  8
AM_0
 10
136.7743763139992
 20
579.73362324577715
 30
0.0
 11
136.77437631399971
 21
590.73362324577806
 31
0.0
  0
LINE
  5
4FFF
  8
AM_0
 10
151.27437631399971
 20
590.73362324577795
 30
0.0
 11
136.77437631399971
 21
590.73362324577806
 31
0.0
  0
LINE
  5
5000
  8
AM_0
 10
124.77437631399989
 20
585.73362324577738
 30
0.0
 11
124.77437631399989
 21
588.73362324577749
 31
0.0
  0
LINE
  5
5001
  8
AM_0
 10
124.77437631399989
 20
588.73362324577749
 30
0.0
 11
136.77437631399971
 21
588.73362324577715
 31
0.0
  0
LINE
  5
5002
  8
AM_0
 10
124.7743763139997
 20
587.73362324577715
 30
0.0
 11
124.7743763139997
 21
585.55595483963089
 31
0.0
  0
LINE
  5
5003
  8
AM_0
 10
119.2743763139997
 20
585.73362324577738
 30
0.0
 11
120.1743763139998
 21
585.73362324577738
 31
0.0
  0
LINE
  5
5004
  8
AM_0
 10
119.07437631399939
 20
582.73362324577761
 30
0.0
 11
119.07437631399939
 21
585.73362324577738
 31
0.0
  0
LINE
  5
5005
  8
AM_0
 10
120.1743763139998
 20
586.00597498036086
 30
0.0
 11
120.1743763139998
 21
582.46127151119356
 31
0.0
  0
LINE
  5
5006
  8
AM_0
 10
118.7743763139997
 20
583.03362324577745
 30
0.0
 11
120.1743763139996
 21
583.03362324577745
 31
0.0
  0
LINE
  5
5007
  8
AM_0
 10
124.1743763139998
 20
586.61519310618462
 30
0.0
 11
124.1743763139998
 21
587.73362324577749
 31
0.0
  0
LINE
  5
5008
  8
AM_0
 10
124.1743763139998
 20
585.73362324577738
 30
0.0
 11
124.1743763139998
 21
585.8336232457774
 31
0.0
  0
LINE
  5
5009
  8
AM_0
 10
124.1743763139998
 20
585.8336232457774
 30
0.0
 11
124.1743763139998
 21
586.61519310618462
 31
0.0
  0
LINE
  5
500A
  8
AM_0
 10
124.1743763139998
 20
585.73362324577738
 30
0.0
 11
124.1743763139998
 21
585.8336232457774
 31
0.0
  0
LINE
  5
500B
  8
AM_0
 10
124.1743763139998
 20
585.34986056944751
 30
0.0
 11
124.1743763139998
 21
586.61519310618462
 31
0.0
  0
LINE
  5
500C
  8
AM_0
 10
124.1743763139998
 20
587.73362324577749
 30
0.0
 11
124.7743763139997
 21
587.73362324577715
 31
0.0
  0
LINE
  5
500D
  8
AM_0
 10
121.4743763139999
 20
586.61519310618462
 30
0.0
 11
121.4743763139997
 21
583.18366191378425
 31
0.0
  0
LINE
  5
500E
  8
AM_0
 10
121.3133320847423
 20
586.9018847345277
 30
0.0
 11
120.38077903523519
 21
586.36347498036105
 31
0.0
  0
LINE
  5
500F
  8
AM_0
 10
121.7468279060303
 20
587.40904972632018
 30
0.0
 11
123.90192472196939
 21
587.40904972632018
 31
0.0
  0
LINE
  5
5010
  8
AM_0
 10
121.7468279060303
 20
585.82133648604895
 30
0.0
 11
123.90192472196939
 21
585.82133648604872
 31
0.0
  0
LINE
  5
5011
  8
AM_0
 10
120.1743763139998
 20
582.73362324577761
 30
0.0
 11
119.07437631399939
 21
582.73362324577761
 31
0.0
  0
LINE
  5
5012
  8
AM_0
 10
119.07437631399939
 20
582.73362324577761
 30
0.0
 11
118.7743763139997
 21
583.03362324577745
 31
0.0
  0
LINE
  5
5013
  8
AM_0
 10
118.7743763139997
 20
583.03362324577745
 30
0.0
 11
118.7743763139997
 21
585.43362324577754
 31
0.0
  0
LINE
  5
5014
  8
AM_0
 10
119.07437631399939
 20
585.73362324577738
 30
0.0
 11
120.1743763139998
 21
585.73362324577738
 31
0.0
  0
LINE
  5
5015
  8
AM_0
 10
118.7743763139997
 20
585.43362324577754
 30
0.0
 11
119.07437631399939
 21
585.73362324577738
 31
0.0
  0
LINE
  5
5016
  8
AM_0
 10
120.1743763139998
 20
585.43362324577754
 30
0.0
 11
118.7743763139997
 21
585.43362324577754
 31
0.0
  0
ARC
  5
5017
  8
AM_0
 10
122.8815994979732
 20
586.61519310618462
 30
0.0
 40
1.292776816026465
 50
0.0
 51
37.884441053702261
  0
ARC
  5
5018
  8
AM_0
 10
126.2368061900593
 20
584.23362324577738
 30
0.0
 40
4.762429876059711
 50
160.52575999458611
 51
191.54975304122991
  0
ARC
  5
5019
  8
AM_0
 10
122.7671531300264
 20
586.61519310618462
 30
0.0
 40
1.292776816026556
 50
142.11555894629771
 51
217.88444105370229
  0
ARC
  5
501A
  8
AM_0
 10
119.4119464379401
 20
584.23362324577749
 30
0.0
 40
4.762429876059584
 50
12.91285220178036
 51
19.47424000541378
  0
ARC
  5
501B
  8
AM_0
 10
122.8815994979732
 20
586.61519310618462
 30
0.0
 40
1.2927768160265021
 50
322.11555894629771
 51
0.0
  0
ARC
  5
501C
  8
AM_0
 10
120.5871817564703
 20
586.00597498036086
 30
0.0
 40
0.4128054424705854
 50
120.0000000000005
 51
180.0
  0
ARC
  5
501D
  8
AM_0
 10
120.9005266422717
 20
587.61688473452762
 30
0.0
 40
0.8256108849411369
 50
300.00000000000063
 51
331.78257540582308
  0
LINE
  5
501E
  8
AM_0
 10
120.3894688465229
 20
582.09875444630757
 30
0.0
 11
120.38077903523519
 21
582.1037715111936
 31
0.0
  0
ARC
  5
501F
  8
AM_0
 10
120.5871817564703
 20
582.46127151119356
 30
0.0
 40
0.4128054424705854
 50
180.00000000000659
 51
240.00000000000679
  0
LINE
  5
5020
  8
AM_0
 10
133.839629876365
 20
579.73362324577715
 30
0.0
 11
136.7743763139992
 21
579.73362324577715
 31
0.0
  0
LINE
  5
5021
  8
AM_0
 10
134.79379842815271
 20
581.23362324577738
 30
0.0
 11
136.77437631399951
 21
581.23362324577727
 31
0.0
  0
LINE
  5
5022
  8
AM_0
 10
126.0954054578587
 20
585.73362324577738
 30
0.0
 11
136.77437631399951
 21
585.73362324577727
 31
0.0
  0
ARC
  5
5023
  8
AM_0
 10
126.09540545785831
 20
580.73362324577749
 30
0.0
 40
5.0
 50
90.0
 51
135.0
1001
GENIUS_GENODEF_13
1002
{
1000
HIER
1070
     0
1002
}
1002
{
1000
MANEDIT
1070
     0
1002
}
1002
{
1000
NOSEL
1070
     0
1002
}
1002
{
1000
BEHIND
1070
     0
1002
}
1002
{
1000
OTHER
1070
     0
1002
}
1002
{
1000
REACTOR
1002
}
1001
GENIUS_GENOBJ-N-FIL_13
1002
{
1000
OWNER
1000
GEN
1002
}
  0
LINE
  5
5024
  8
AM_0
 10
134.79379842815271
 20
585.73362324577738
 30
0.0
 11
134.79379842815271
 21
581.23362324577738
 31
0.0
  0
LINE
  5
5025
  8
AM_0
 10
121.2743376459934
 20
552.05816382367095
 30
0.0
 11
121.2743376459939
 21
572.9455980994868
 31
0.0
  0
LINE
  5
5026
  8
AM_0
 10
124.2743376459932
 20
552.05816382367084
 30
0.0
 11
124.2743376459939
 21
572.9455980994868
 31
0.0
  0
LINE
  5
5027
  8
AM_0
 10
119.0243376459934
 20
551.04279582928041
 30
0.0
 11
119.0243376459939
 21
578.66255543391298
 31
0.0
  0
ARC
  5
5028
  8
AM_0
 10
124.0243376459937
 20
578.66255543391287
 30
0.0
 40
5.0
 50
135.0
 51
180.0
1001
GENIUS_GENOBJ-N-FIL_13
1002
{
1000
OWNER
1000
GEN
1002
}
1001
GENIUS_GENODEF_13
1002
{
1000
HIER
1070
     0
1002
}
1002
{
1000
MANEDIT
1070
     0
1002
}
1002
{
1000
NOSEL
1070
     0
1002
}
1002
{
1000
BEHIND
1070
     0
1002
}
1002
{
1000
OTHER
1070
     0
1002
}
1002
{
1000
REACTOR
1002
}
  0
LINE
  5
5029
  8
AM_0
 10
126.5243376459934
 20
551.04279582927995
 30
0.0
 11
126.5243376459939
 21
575.20270490252585
 31
0.0
  0
ARC
  5
502A
  8
AM_0
 10
131.52433764599351
 20
566.77810487645286
 30
0.0
 40
5.0
 50
147.5390558848556
 51
180.0
1001
GENIUS_GENODEF_13
1002
{
1000
HIER
1070
     0
1002
}
1002
{
1000
MANEDIT
1070
     0
1002
}
1002
{
1000
NOSEL
1070
     0
1002
}
1002
{
1000
BEHIND
1070
     0
1002
}
1002
{
1000
OTHER
1070
     0
1002
}
1002
{
1000
REACTOR
1002
}
1001
GENIUS_GENOBJ-N-FIL_13
1002
{
1000
OWNER
1000
GEN
1002
}
  0
ARC
  5
502B
  8
AM_0
 10
131.52433764599371
 20
575.20270490252585
 30
0.0
 40
5.0
 50
135.7876277191055
 51
180.0
1001
GENIUS_GENOBJ-N-FIL_13
1002
{
1000
OWNER
1000
GEN
1002
}
1001
GENIUS_GENODEF_13
1002
{
1000
HIER
1070
     0
1002
}
1002
{
1000
MANEDIT
1070
     0
1002
}
1002
{
1000
NOSEL
1070
     0
1002
}
1002
{
1000
BEHIND
1070
     0
1002
}
1002
{
1000
OTHER
1070
     0
1002
}
1002
{
1000
REACTOR
1002
}
  0
LINE
  5
502C
  8
AM_0
 10
134.79379842815251
 20
581.23362324577738
 30
0.0
 11
127.3055501352264
 21
569.46172778941843
 31
0.0
  0
LINE
  5
502D
  8
AM_0
 10
134.79379842815271
 20
585.73362324577738
 30
0.0
 11
127.9405374101425
 21
578.68930437328675
 31
0.0
  0
LINE
  5
502E
  8
AM_0
 10
120.488803740061
 20
582.19808933984575
 30
0.0
 11
122.5598715519258
 21
584.26915715171037
 31
0.0
  0
ARC
  5
502F
  8
AM_0
 10
122.7743376459937
 20
572.9455980994868
 30
0.0
 40
1.5
 50
0.0
 51
180.0
  0
ARC
  5
50B0
  8
AM_0
 10
168.22517450085439
 20
474.73362324577778
 30
0.0
 40
20.0
 50
209.07393874564249
 51
249.9723572882591
1001
GENIUS_GENODEF_13
1002
{
1000
HIER
1070
     0
1002
}
1002
{
1000
MANEDIT
1070
     0
1002
}
1002
{
1000
NOSEL
1070
     0
1002
}
1002
{
1000
BEHIND
1070
     0
1002
}
1002
{
1000
OTHER
1070
     0
1002
}
1002
{
1000
REACTOR
1002
}
1001
GENIUS_GENOBJ-N-FIL_13
1002
{
1000
OWNER
1000
GEN
1002
}
  0
ARC
  5
50B1
  8
AM_0
 10
168.81335072950009
 20
475.73362324577772
 30
0.0
 40
15.0
 50
209.07393874564249
 51
240.27464366407139
1001
GENIUS_GENODEF_13
1002
{
1000
HIER
1070
     0
1002
}
1002
{
1000
MANEDIT
1070
     0
1002
}
1002
{
1000
NOSEL
1070
     0
1002
}
1002
{
1000
BEHIND
1070
     0
1002
}
1002
{
1000
OTHER
1070
     0
1002
}
1002
{
1000
REACTOR
1002
}
1001
GENIUS_GENOBJ-N-FIL_13
1002
{
1000
OWNER
1000
GEN
1002
}
  0
LINE
  5
50B2
  8
AM_0
 10
150.74530760943961
 20
465.01486543119989
 30
0.0
 11
129.77378222290159
 21
502.73362324577892
 31
0.0
  0
LINE
  5
50B3
  8
AM_0
 10
155.7034505609389
 20
468.44455488484448
 30
0.0
 11
137.75081754561629
 21
500.73362324577778
 31
0.0
  0
TEXT
  5
5331
  8
AM_0
 10
500.5553289890313
 20
553.02385153112721
 30
0.0
 40
10.0
  1
VX01-005BW~VX01-050BW
  0
ENDSEC
  0
EOF
