  0
SECTION
  2
HEADER
  9
$ACADVER
  1
AC1009
  9
$INSBASE
 10
0.0
 20
0.0
 30
0.0
  9
$EXTMIN
 10
106.37494107589011
 20
182.85956267614571
 30
-250.41841640509659
  9
$EXTMAX
 10
729.54350465052221
 20
628.73446012468708
 30
8206587.2096418813
  9
$LIMMIN
 10
0.0
 20
0.0
  9
$LIMMAX
 10
853.5
 20
555.00000000000011
  9
$ORTHOMODE
 70
     0
  9
$REGENMODE
 70
     1
  9
$FILLMODE
 70
     1
  9
$QTEXTMODE
 70
     0
  9
$MIRRTEXT
 70
     1
  9
$DRAGMODE
 70
     2
  9
$LTSCALE
 40
3.0
  9
$OSMODE
 70
   551
  9
$ATTMODE
 70
     1
  9
$TEXTSIZE
 40
2.5
  9
$TRACEWID
 40
1.0
  9
$TEXTSTYLE
  7
STANDARD
  9
$CLAYER
  8
AM_0
  9
$CELTYPE
  6
BYLAYER
  9
$CECOLOR
 62
   256
  9
$DIMSCALE
 40
3.0
  9
$DIMASZ
 40
2.5
  9
$DIMEXO
 40
1.0
  9
$DIMDLI
 40
8.0
  9
$DIMRND
 40
0.0
  9
$DIMDLE
 40
0.0
  9
$DIMEXE
 40
0.6
  9
$DIMTP
 40
0.1
  9
$DIMTM
 40
0.1
  9
$DIMTXT
 40
2.5
  9
$DIMCEN
 40
0.0
  9
$DIMTSZ
 40
0.0
  9
$DIMTOL
 70
     0
  9
$DIMLIM
 70
     0
  9
$DIMTIH
 70
     0
  9
$DIMTOH
 70
     0
  9
$DIMSE1
 70
     0
  9
$DIMSE2
 70
     0
  9
$DIMTAD
 70
     1
  9
$DIMZIN
 70
     8
  9
$DIMBLK
  1

  9
$DIMASO
 70
     1
  9
$DIMSHO
 70
     1
  9
$DIMPOST
  1

  9
$DIMAPOST
  1
"
  9
$DIMALT
 70
     0
  9
$DIMALTD
 70
     2
  9
$DIMALTF
 40
0.0393701
  9
$DIMLFAC
 40
1.0
  9
$DIMTOFL
 70
     1
  9
$DIMTVP
 40
0.0
  9
$DIMTIX
 70
     0
  9
$DIMSOXD
 70
     0
  9
$DIMSAH
 70
     0
  9
$DIMBLK1
  1

  9
$DIMBLK2
  1

  9
$DIMSTYLE
  2
AM_ISO
  9
$DIMCLRD
 70
   256
  9
$DIMCLRE
 70
   256
  9
$DIMCLRT
 70
     4
  9
$DIMTFAC
 40
0.71
  9
$DIMGAP
 40
0.8
  9
$LUNITS
 70
     2
  9
$LUPREC
 70
     2
  9
$SKETCHINC
 40
1.0
  9
$FILLETRAD
 40
20.0
  9
$AUNITS
 70
     0
  9
$AUPREC
 70
     0
  9
$MENU
  1
.
  9
$ELEVATION
 40
0.0
  9
$PELEVATION
 40
0.0
  9
$THICKNESS
 40
0.0
  9
$LIMCHECK
 70
     0
  9
$BLIPMODE
 70
     0
  9
$CHAMFERA
 40
6.0
  9
$CHAMFERB
 40
3.0
  9
$SKPOLY
 70
     0
  9
$TDCREATE
 40
2452065.6056192131
  9
$TDUPDATE
 40
2458541.607174363
  9
$TDINDWG
 40
0.3617052083
  9
$TDUSRTIMER
 40
0.361705
  9
$USRTIMER
 70
     1
  9
$ANGBASE
 50
0.0
  9
$ANGDIR
 70
     0
  9
$PDMODE
 70
     0
  9
$PDSIZE
 40
0.0
  9
$PLINEWID
 40
0.0
  9
$COORDS
 70
     1
  9
$SPLFRAME
 70
     0
  9
$SPLINETYPE
 70
     6
  9
$SPLINESEGS
 70
     8
  9
$ATTDIA
 70
     1
  9
$ATTREQ
 70
     1
  9
$HANDLING
 70
     1
  9
$HANDSEED
  5
5C5C
  9
$SURFTAB1
 70
     6
  9
$SURFTAB2
 70
     6
  9
$SURFTYPE
 70
     6
  9
$SURFU
 70
     6
  9
$SURFV
 70
     6
  9
$UCSNAME
  2

  9
$UCSORG
 10
0.0
 20
0.0
 30
0.0
  9
$UCSXDIR
 10
1.0
 20
0.0
 30
0.0
  9
$UCSYDIR
 10
0.0
 20
1.0
 30
0.0
  9
$PUCSNAME
  2

  9
$PUCSORG
 10
0.0
 20
0.0
 30
0.0
  9
$PUCSXDIR
 10
1.0
 20
0.0
 30
0.0
  9
$PUCSYDIR
 10
0.0
 20
1.0
 30
0.0
  9
$USERI1
 70
     0
  9
$USERI2
 70
     0
  9
$USERI3
 70
     0
  9
$USERI4
 70
     0
  9
$USERI5
 70
     0
  9
$USERR1
 40
0.0
  9
$USERR2
 40
0.0
  9
$USERR3
 40
0.0
  9
$USERR4
 40
0.0
  9
$USERR5
 40
0.0
  9
$WORLDVIEW
 70
     1
  9
$SHADEDGE
 70
     3
  9
$SHADEDIF
 70
    70
  9
$TILEMODE
 70
     1
  9
$MAXACTVP
 70
    64
  9
$PLIMCHECK
 70
     0
  9
$PEXTMIN
 10
1.0000000000000000E+020
 20
1.0000000000000000E+020
 30
1.0000000000000000E+020
  9
$PEXTMAX
 10
-1.0000000000000000E+020
 20
-1.0000000000000000E+020
 30
-1.0000000000000000E+020
  9
$PLIMMIN
 10
0.0
 20
0.0
  9
$PLIMMAX
 10
420.0
 20
297.0
  9
$UNITMODE
 70
     0
  9
$VISRETAIN
 70
     1
  9
$PLINEGEN
 70
     0
  9
$PSLTSCALE
 70
     1
  0
ENDSEC
  0
SECTION
  2
TABLES
  0
TABLE
  2
VPORT
 70
     1
  0
VPORT
  2
*ACTIVE
 70
     0
 10
0.0
 20
0.0
 11
1.0
 21
1.0
 12
417.95922286320609
 22
405.79701140041641
 13
0.0
 23
0.0
 14
7.5
 24
7.5
 15
30.0
 25
30.0
 16
0.0
 26
0.0
 36
1.0
 17
0.0
 27
0.0
 37
0.0
 40
448.93582351798199
 41
1.757159221076747
 42
50.0
 43
0.0
 44
0.0
 50
0.0
 51
0.0
 71
     0
 72
   100
 73
     1
 74
     3
 75
     0
 76
     0
 77
     0
 78
     0
  0
ENDTAB
  0
TABLE
  2
LTYPE
 70
    27
  0
LTYPE
  2
CONTINUOUS
 70
     0
  3
Solid line
 72
    65
 73
     0
 40
0.0
  0
LTYPE
  2
AM_ISO02W050
 70
     0
  3
__ __ __ __ __ __ __ __ __ __ __ __ __ __ __
 72
    65
 73
     2
 40
7.5
 49
6.0
 49
-1.5
  0
LTYPE
  2
AM_ISO08W050
 70
     0
  3
____ . ____ . ____ . ____ . ____ . ____ . ____
 72
    65
 73
     4
 40
18.0
 49
12.0
 49
-1.5
 49
3.0
 49
-1.5
  0
LTYPE
  2
AM_ISO09W050
 70
     0
  3
_____ . . _____ . . _____ . . ____ .. ____
 72
    65
 73
     6
 40
22.5
 49
12.0
 49
-1.5
 49
3.0
 49
-1.5
 49
3.0
 49
-1.5
  0
LTYPE
  2
AMCONSTR
 70
     0
  3
_______________________
 72
    65
 73
     2
 40
9999.0
 49
9999.0
 49
0.0
  0
LTYPE
  2
AM_ISO08W050X2
 70
     0
  3
__ . __ . __ . __ . __ . __
 72
    65
 73
     4
 40
9.0
 49
6.0
 49
-0.75
 49
1.5
 49
-0.75
  0
LTYPE
  2
AM_ISO02W050X2
 70
     0
  3
 _ _ _ _ _ _ _ _ _ _ _ _
 72
    65
 73
     2
 40
3.75
 49
3.0
 49
-0.75
  0
LTYPE
  2
AMZIGZAG
 70
     0
  3
/\/-/\/-/\/-/\/-/\/-/\/
 72
    65
 73
     2
 40
11.0001
 49
0.0001
 49
-11.0
  0
LTYPE
  2
ACISOWELD
 70
     0
  3
_ _ _ _ _
 72
    65
 73
     2
 40
2.0
 49
2.0
 49
-1.0
  0
LTYPE
  2
ACISOTGB
 70
     0
  3
__ . . __ . .
 72
    65
 73
     6
 40
9.0
 49
4.0
 49
-1.0
 49
1.0
 49
-1.0
 49
1.0
 49
-1.0
  0
LTYPE
  2
ACISOTGL
 70
     0
  3
_ _ _ _ _
 72
    65
 73
     2
 40
3.0
 49
2.0
 49
-1.0
  0
LTYPE
  2
CENTER
 70
     0
  3
__ . __
 72
    65
 73
     4
 40
7.0
 49
4.0
 49
-1.0
 49
1.0
 49
-1.0
  0
LTYPE
  2
HIDDEN
 70
     0
  3
Hidden __ __ __ __ __ __ __ __ __ __ __ __ __ _
 72
    65
 73
     2
 40
9.5249999999999986
 49
6.3499999999999979
 49
-3.174999999999998
  0
LTYPE
  2
PHANTOM2
 70
     0
  3
Phantom (.5x) ___ _ _ ___ _ _ ___ _ _ ___ _ _
 72
    65
 73
     6
 40
31.75
 49
15.875
 49
-3.174999999999998
 49
3.174999999999998
 49
-3.174999999999998
 49
3.174999999999998
 49
-3.174999999999998
  0
LTYPE
  2
ACANSTGBM
 70
     0
  3
__ . . __ . .
 72
    65
 73
     6
 40
9.0
 49
4.0
 49
-1.0
 49
1.0
 49
-1.0
 49
1.0
 49
-1.0
  0
LTYPE
  2
ACANSTGLM
 70
     0
  3
_ _ _ _ _
 72
    65
 73
     2
 40
3.0
 49
2.0
 49
-1.0
  0
LTYPE
  2
GEN3B
 70
     0
  3
 - - - - -
 72
    65
 73
     2
 40
1.0
 49
0.5
 49
-0.5
  0
LTYPE
  2
GEN7A
 70
     0
  3
__ . __ . __
 72
    65
 73
     4
 40
7.375
 49
4.75
 49
-0.875
 49
0.875
 49
-0.875
  0
LTYPE
  2
ACJISTGB
 70
     0
  3
__ . . __ . .
 72
    65
 73
     6
 40
9.0
 49
4.0
 49
-1.0
 49
1.0
 49
-1.0
 49
1.0
 49
-1.0
  0
LTYPE
  2
ACJISTGL
 70
     0
  3
_ _ _ _ _
 72
    65
 73
     2
 40
3.0
 49
2.0
 49
-1.0
  0
LTYPE
  2
GEN7
 70
     0
  3
____ . ____ . ____ . ____ . ____ . ____ . ____
 72
    65
 73
     4
 40
14.25
 49
9.75
 49
-1.5
 49
1.5
 49
-1.5
  0
LTYPE
  2
CENTER2
 70
     0
  3
Center (.5x) ___ _ ___ _ ___ _ ___ _ ___ _ ___
 72
    65
 73
     4
 40
1.125
 49
0.75
 49
-0.125
 49
0.125
 49
-0.125
  0
LTYPE
  2
HIDDEN2
 70
     0
  3
Hidden (.5x) _ _ _ _ _ _ _ _ _ _ _ _ _ _ _ _ _
 72
    65
 73
     2
 40
0.1875
 49
0.125
 49
-0.0625
  0
LTYPE
  2
AMZIGZAG2
 70
     0
  3
/\/-/\/-/\/-/\/-/\/-/\/
 72
    65
 73
     2
 40
0.4401
 49
0.0001
 49
-0.4400000000000001
  0
LTYPE
  2
ACANSTGB
 70
     0
  3
__ . . __ . .
 72
    65
 73
     6
 40
0.35433070866
 49
0.15748031496
 49
-0.03937007874
 49
0.03937007874
 49
-0.03937007874
 49
0.03937007874
 49
-0.03937007874
  0
LTYPE
  2
ACANSTGL
 70
     0
  3
_ _ _ _ _
 72
    65
 73
     2
 40
0.11811023622
 49
0.07874015748
 49
-0.03937007874
  0
ENDTAB
  0
TABLE
  2
LAYER
 70
     7
  0
LAYER
  2
0
 70
     0
 62
     7
  6
CONTINUOUS
  0
LAYER
  2
AM_0
 70
     0
 62
     7
  6
CONTINUOUS
  0
LAYER
  2
DEFPOINTS
 70
     0
 62
     7
  6
CONTINUOUS
  0
LAYER
  2
ｶｸﾚｾﾝ2
 70
     0
 62
     3
  6
GEN3B
  0
LAYER
  2
ﾁｭｳｼﾝｾﾝ1
 70
     0
 62
     1
  6
GEN7A
  0
LAYER
  2
AM_0N
 70
     0
 62
     7
  6
CONTINUOUS
  0
LAYER
  2
ﾁｭｳｼﾝｾﾝ
 70
     0
 62
     1
  6
GEN7
  0
ENDTAB
  0
TABLE
  2
STYLE
 70
    10
  0
STYLE
  2
STANDARD
 70
     0
 40
0.0
 41
0.8299999999999999
 50
0.0
 71
     0
 42
2.5
  3
txt.shx
  4
bigfont.shx
  0
STYLE
  2
ANNOTATIVE
 70
     0
 40
0.0
 41
1.0
 50
0.0
 71
     0
 42
0.2
  3
txt
  4

  0
STYLE
  2

 70
     1
 40
0.0
 41
1.0
 50
0.0
 71
     0
 42
2.5
  3
ltypeshp.shx
  4

  0
STYLE
  2
ACISOTS
 70
     0
 40
1.0
 41
1.0
 50
0.0
 71
     0
 42
2.5
  3
isocp.shx
  4
extfont.shx
  0
STYLE
  2
ACISOGDT
 70
     0
 40
0.0
 41
1.0
 50
0.0
 71
     0
 42
2.5
  3
amgdt.shx
  4

  0
STYLE
  2
ACANSTS
 70
     0
 40
1.0
 41
1.0
 50
0.0
 71
     0
 42
2.5
  3
romans.shx
  4
bigfont.shx
  0
STYLE
  2
ACANSGDT
 70
     0
 40
0.0
 41
1.0
 50
0.0
 71
     0
 42
2.5
  3
amgdt.shx
  4

  0
STYLE
  2
ACJISTS
 70
     0
 40
1.0
 41
1.0
 50
0.0
 71
     0
 42
2.5
  3
isocp.shx
  4
bigfont.shx
  0
STYLE
  2
ACJISGDT
 70
     0
 40
0.0
 41
1.0
 50
0.0
 71
     0
 42
2.5
  3
amgdt.shx
  4

  0
STYLE
  2

 70
     1
 40
0.0
 41
1.0
 50
0.0
 71
     0
 42
2.5
  3
genltshp.shx
  4

  0
ENDTAB
  0
TABLE
  2
VIEW
 70
     6
  0
VIEW
  2
AM_VIEW1
 70
     0
 40
277.50000000000011
 10
249.64779005524869
 20
416.25
 41
499.29558011049721
 11
0.0
 21
0.0
 31
1.0
 12
0.0
 22
0.0
 32
0.0
 42
50.0
 43
0.0
 44
0.0
 50
0.0
 71
     0
  0
VIEW
  2
AM_VIEW2
 70
     0
 40
277.50000000000011
 10
603.85220994475117
 20
416.25
 41
499.29558011049721
 11
0.0
 21
0.0
 31
1.0
 12
0.0
 22
0.0
 32
0.0
 42
50.0
 43
0.0
 44
0.0
 50
0.0
 71
     0
  0
VIEW
  2
AM_VIEW3
 70
     0
 40
277.50000000000011
 10
249.64779005524869
 20
138.75
 41
499.29558011049721
 11
0.0
 21
0.0
 31
1.0
 12
0.0
 22
0.0
 32
0.0
 42
50.0
 43
0.0
 44
0.0
 50
0.0
 71
     0
  0
VIEW
  2
AM_VIEW4
 70
     0
 40
277.50000000000011
 10
603.85220994475117
 20
138.75
 41
499.29558011049721
 11
0.0
 21
0.0
 31
1.0
 12
0.0
 22
0.0
 32
0.0
 42
50.0
 43
0.0
 44
0.0
 50
0.0
 71
     0
  0
VIEW
  2
AM_VIEW5
 70
     0
 40
277.50000000000011
 10
426.75
 20
277.50000000000011
 41
499.2955801104971
 11
0.0
 21
0.0
 31
1.0
 12
0.0
 22
0.0
 32
0.0
 42
50.0
 43
0.0
 44
0.0
 50
0.0
 71
     0
  0
VIEW
  2
AM_VIEW6
 70
     0
 40
554.99445000000014
 10
426.75
 20
277.5
 41
998.5811743093924
 11
0.0
 21
0.0
 31
1.0
 12
0.0
 22
0.0
 32
0.0
 42
50.0
 43
0.0
 44
0.0
 50
0.0
 71
     0
  0
ENDTAB
  0
TABLE
  2
UCS
 70
     0
  0
ENDTAB
  0
TABLE
  2
APPID
 70
   101
  0
APPID
  2
ACAD
 70
     0
  0
APPID
  2
ACADANNOTATIVE
 70
     0
  0
APPID
  2
MCAD_NO_VIS
 70
     0
  0
APPID
  2
ACAD_TEMP_GRAPHIC
 70
     0
  0
APPID
  2
ACATTRIBSERVICES
 70
     0
  0
APPID
  2
GENIUS_GENREC_14
 70
     0
  0
APPID
  2
GENIUS_GENOBJ-N-REC_13
 70
     0
  0
APPID
  2
GENIUS_GENODEF_13
 70
     0
  0
APPID
  2
GENIUS_GENOLIS_13
 70
     0
  0
APPID
  2
GENIUS_GENOBJ-N-TIT_13
 70
     0
  0
APPID
  2
GENIUS_GENOENT_13
 70
     0
  0
APPID
  2
GENIUS_GENTITLE_13
 70
     0
  0
APPID
  2
GENIUS_GENOREF_13
 70
     0
  0
APPID
  2
GENIUS_GENSCREG_15
 70
     0
  0
APPID
  2
GENIUS_GENOBJ-N-SDF_13
 70
     0
  0
APPID
  2
GENIUS_GENFIL_13
 70
     0
  0
APPID
  2
GENIUS_GENOBJ-N-CHA_13
 70
     0
  0
APPID
  2
GENIUS_GENDTOL_13
 70
     0
  0
APPID
  2
GENIUS_GENOBJ-N-FIL_13
 70
     0
  0
APPID
  2
AD_DRAW
 70
     0
  0
APPID
  2
DESIGNERASSEMBLIES
 70
     0
  0
APPID
  2
ASURF_PCURVE_APPNAME
 70
     0
  0
APPID
  2
GENIUS_GE3SECT_13
 70
     0
  0
APPID
  2
GENIUS_GENCFG_13
 70
     0
  0
APPID
  2
GENIUS_GE3CFG0_13
 70
     0
  0
APPID
  2
GENIUS_GENCFG0_13
 70
     0
  0
APPID
  2
GENIUS_GENCFG1_13
 70
     0
  0
APPID
  2
GENIUS_GENCFG2_13
 70
     0
  0
APPID
  2
GENIUS_GENCFG3_13
 70
     0
  0
APPID
  2
GENIUS_GENCFG4_13
 70
     0
  0
APPID
  2
GENIUS_GEVCFG0_13
 70
     0
  0
APPID
  2
GENIUS_GENHINW_13
 70
     0
  0
APPID
  2
GENIUS_FIRSTVISTXT_14
 70
     0
  0
APPID
  2
GENIUS_GENOBJ-N-LEADER_13
 70
     0
  0
APPID
  2
GEV_VCCNULL_SWITCH_OFF
 70
     0
  0
APPID
  2
GENIUS_GEFCFG0_13
 70
     0
  0
APPID
  2
GENIUS_GENZVEED_13
 70
     0
  0
APPID
  2
GENIUS_GENSCREG_13
 70
     0
  0
APPID
  2
GENIUS_DUMCFG0_13
 70
     0
  0
APPID
  2
GEVID936201362
 70
     0
  0
APPID
  2
GEVDC
 70
     0
  0
APPID
  2
GEVCON
 70
     0
  0
APPID
  2
VCC
 70
     0
  0
APPID
  2
GEVPT
 70
     0
  0
APPID
  2
GEVIT
 70
     0
  0
APPID
  2
GENBH
 70
     0
  0
APPID
  2
GEVMK
 70
     0
  0
APPID
  2
GENIUS_GENBH_13
 70
     0
  0
APPID
  2
GENIUS_GENOBJ-NBEHI-BHF_13
 70
     0
  0
APPID
  2
GENIUS_GENOBJ-NBEHI-BHB_13
 70
     0
  0
APPID
  2
GENIUS_GENOBJ-F-DESC_13
 70
     0
  0
APPID
  2
GENIUS_GEFDESC_14
 70
     0
  0
APPID
  2
GENIUS_GENOBJ-F-PART_13
 70
     0
  0
APPID
  2
GENIUS_GEFSTDP_13
 70
     0
  0
APPID
  2
GENIUS_GEFPARTINS_13
 70
     0
  0
APPID
  2
GENIUS_GENTRA_14
 70
     0
  0
APPID
  2
GENIUS_GENINF13_13
 70
     0
  0
APPID
  2
GENIUS_GENOBJ-N-INFOPT_13
 70
     0
  0
APPID
  2
GENIUS_GENOBJ-N-RSSYM_13
 70
     0
  0
APPID
  2
GENIUS_GENSYMENT_13
 70
     0
  0
APPID
  2
GENIUS_GENSCSYM_13
 70
     0
  0
APPID
  2
GENIUS_GEFINFNAM_13
 70
     0
  0
APPID
  2
GENIUS_GENOBJ-N-CEN_13
 70
     0
  0
APPID
  2
GENIUS_GENOBJ-N-CRS_13
 70
     0
  0
APPID
  2
GENIUS_GENOBJ-N-CRC_13
 70
     0
  0
APPID
  2
GENIUS_GENCRC_14
 70
     0
  0
APPID
  2
GEVID942827039
 70
     0
  0
APPID
  2
GEVID942827040
 70
     0
  0
APPID
  2
GEVID942827041
 70
     0
  0
APPID
  2
GENIUS_GENOBJ-F-SCPASSM_13
 70
     0
  0
APPID
  2
GENIUS_GENDIMSH_14
 70
     0
  0
APPID
  2
GEVID942827042
 70
     0
  0
APPID
  2
GEVID946020473
 70
     0
  0
APPID
  2
GEVID946020474
 70
     0
  0
APPID
  2
GEVID946020475
 70
     0
  0
APPID
  2
GENIUS_GENOBJ-N-HTC_13
 70
     0
  0
APPID
  2
GENIUS_GENHATCH_13
 70
     0
  0
APPID
  2
GEVID948854295
 70
     0
  0
APPID
  2
GEVID939402019
 70
     0
  0
APPID
  2
GEVID952919491
 70
     0
  0
APPID
  2
GEVID952919492
 70
     0
  0
APPID
  2
GENIUS_GEFWELD_13
 70
     0
  0
APPID
  2
GENIUS_GENOBJ-F-WELS_13
 70
     0
  0
APPID
  2
GEVID952919493
 70
     0
  0
APPID
  2
GENIUS_GENOBJ-N-RSBK_13
 70
     0
  0
APPID
  2
GENIUS_GENOBJ-N-LIB_13
 70
     0
  0
APPID
  2
GENIUS_GENSCALE_13
 70
     0
  0
APPID
  2
GEVID986376691
 70
     0
  0
APPID
  2
DCO15
 70
     0
  0
APPID
  2
GEVID988070561
 70
     0
  0
APPID
  2
GEVID988070562
 70
     0
  0
APPID
  2
GEVID988070563
 70
     0
  0
APPID
  2
ACADM_DIM_EDIT
 70
     0
  0
APPID
  2
AMDT_DM_ADJ
 70
     0
  0
APPID
  2
ACAD_PSEXT
 70
     0
  0
APPID
  2
ACAD_DSTYLE_DIMJAG
 70
     0
  0
APPID
  2
ACAD_DSTYLE_DIMBREAK
 70
     0
  0
APPID
  2
ACAD_NAV_VCDISPLAY
 70
     0
  0
APPID
  2
ACADANNOPO
 70
     0
  0
APPID
  2
ACAD_EXEMPT_FROM_CAD_STANDARDS
 70
     0
  0
APPID
  2
ACAD_MLEADERVER
 70
     0
  0
ENDTAB
  0
TABLE
  2
DIMSTYLE
 70
    23
  0
DIMSTYLE
  2
STANDARD
 70
     0
  3

  4

  5

  6

  7

 40
1.0
 41
0.18
 42
0.0625
 43
0.38
 44
0.18
 45
0.0
 46
0.0
 47
0.0
 48
0.0
140
0.18
141
0.09
142
0.0
143
25.399999999999999
144
1.0
145
0.0
146
1.0
147
0.09
 71
     0
 72
     0
 73
     1
 74
     1
 75
     0
 76
     0
 77
     0
 78
     0
170
     0
171
     2
172
     0
173
     0
174
     0
175
     0
176
     0
177
     0
178
     0
  0
DIMSTYLE
  2
ANNOTATIVE
 70
     0
  3

  4

  5

  6

  7

 40
1.0
 41
0.18
 42
0.0625
 43
0.38
 44
0.18
 45
0.0
 46
0.0
 47
0.0
 48
0.0
140
0.18
141
0.09
142
0.0
143
25.399999999999999
144
1.0
145
0.0
146
1.0
147
0.09
 71
     0
 72
     0
 73
     1
 74
     1
 75
     0
 76
     0
 77
     0
 78
     0
170
     0
171
     2
172
     0
173
     0
174
     0
175
     0
176
     0
177
     0
178
     0
  0
DIMSTYLE
  2
AM_ISO
 70
     0
  3

  4
"
  5

  6

  7

 40
1.0
 41
2.5
 42
1.0
 43
8.0
 44
0.6
 45
0.0
 46
0.0
 47
0.1
 48
0.1
140
2.5
141
0.0
142
0.0
143
0.0393701
144
1.0
145
0.0
146
0.71
147
0.8
 71
     0
 72
     0
 73
     0
 74
     0
 75
     0
 76
     0
 77
     1
 78
     8
170
     0
171
     2
172
     1
173
     0
174
     0
175
     0
176
   256
177
   256
178
     4
  0
DIMSTYLE
  2
AM_ISO$3
 70
     0
  3

  4
"
  5

  6

  7

 40
1.0
 41
2.5
 42
1.0
 43
8.0
 44
0.6
 45
0.0
 46
0.0
 47
0.1
 48
0.1
140
2.5
141
0.0
142
0.0
143
0.0393701
144
1.0
145
0.0
146
0.71
147
0.8
 71
     0
 72
     0
 73
     0
 74
     1
 75
     0
 76
     0
 77
     1
 78
     8
170
     0
171
     2
172
     0
173
     0
174
     0
175
     0
176
   256
177
   256
178
     4
  0
DIMSTYLE
  2
AM_ISO$4
 70
     0
  3

  4
"
  5

  6

  7

 40
1.0
 41
2.5
 42
1.0
 43
8.0
 44
0.6
 45
0.0
 46
0.0
 47
0.1
 48
0.1
140
2.5
141
0.0
142
0.0
143
0.0393701
144
1.0
145
0.0
146
0.71
147
0.8
 71
     0
 72
     0
 73
     0
 74
     1
 75
     0
 76
     0
 77
     1
 78
     8
170
     0
171
     2
172
     0
173
     0
174
     0
175
     0
176
   256
177
   256
178
     4
  0
DIMSTYLE
  2
AM_ISO$6
 70
     0
  3

  4
"
  5

  6

  7

 40
1.0
 41
2.5
 42
1.0
 43
8.0
 44
0.6
 45
0.0
 46
0.0
 47
0.1
 48
0.1
140
2.5
141
0.0
142
0.0
143
0.0393701
144
1.0
145
0.0
146
0.71
147
0.8
 71
     0
 72
     0
 73
     0
 74
     0
 75
     0
 76
     0
 77
     0
 78
     8
170
     0
171
     2
172
     1
173
     0
174
     0
175
     0
176
   256
177
   256
178
     4
  0
DIMSTYLE
  2
AM_ISO$7
 70
     0
  3

  4
"
  5

  6

  7

 40
1.0
 41
2.5
 42
1.0
 43
8.0
 44
0.6
 45
0.0
 46
0.0
 47
0.1
 48
0.1
140
2.5
141
0.0
142
0.0
143
0.0393701
144
1.0
145
0.0
146
0.71
147
0.8
 71
     0
 72
     0
 73
     0
 74
     0
 75
     0
 76
     0
 77
     1
 78
     8
170
     0
171
     2
172
     1
173
     0
174
     0
175
     0
176
   256
177
   256
178
     4
  0
DIMSTYLE
  2
AM_ISO$SF
 70
     0
  3

  4
"
  5

  6

  7

 40
1.0
 41
2.5
 42
1.0
 43
10.0
 44
1.0
 45
0.0
 46
0.0
 47
0.1
 48
0.1
140
3.5
141
0.0
142
0.0
143
0.0393701
144
1.0
145
0.0
146
0.71
147
1.5
 71
     0
 72
     0
 73
     0
 74
     0
 75
     1
 76
     1
 77
     1
 78
     8
170
     0
171
     2
172
     1
173
     0
174
     0
175
     0
176
   256
177
   256
178
     2
  0
DIMSTYLE
  2
AM_ISO$SH
 70
     0
  3

  4
"
  5

  6

  7

 40
1.0
 41
2.5
 42
1.0
 43
10.0
 44
1.0
 45
0.0
 46
0.0
 47
0.1
 48
0.1
140
3.5
141
0.0
142
0.0
143
0.0393701
144
2.0
145
0.0
146
0.71
147
1.5
 71
     0
 72
     0
 73
     0
 74
     0
 75
     1
 76
     1
 77
     1
 78
     8
170
     0
171
     2
172
     1
173
     1
174
     0
175
     0
176
   256
177
   256
178
     2
  0
DIMSTYLE
  2
AM_JIS
 70
     0
  3

  4
"
  5

  6

  7

 40
1.0
 41
2.5
 42
1.0
 43
7.0
 44
1.0
 45
0.0
 46
0.0
 47
0.1
 48
0.1000000001
140
2.5
141
0.0
142
0.0
143
0.0393701
144
1.0
145
0.0
146
0.71
147
1.0
 71
     0
 72
     0
 73
     0
 74
     0
 75
     0
 76
     0
 77
     3
 78
     8
170
     0
171
     2
172
     1
173
     0
174
     0
175
     0
176
   256
177
   256
178
     4
  0
DIMSTYLE
  2
AM_JIS$3
 70
     0
  3

  4
"
  5

  6

  7

 40
1.0
 41
2.5
 42
1.0
 43
7.0
 44
1.0
 45
0.0
 46
0.0
 47
0.1
 48
0.1000000001
140
2.5
141
0.0
142
0.0
143
0.0393701
144
1.0
145
0.0
146
0.71
147
1.0
 71
     0
 72
     0
 73
     0
 74
     1
 75
     0
 76
     0
 77
     3
 78
     8
170
     0
171
     2
172
     0
173
     0
174
     0
175
     0
176
   256
177
   256
178
     4
  0
DIMSTYLE
  2
AM_JIS$4
 70
     0
  3

  4
"
  5

  6

  7

 40
1.0
 41
2.5
 42
1.0
 43
7.0
 44
1.0
 45
0.0
 46
0.0
 47
0.1
 48
0.1000000001
140
2.5
141
0.0
142
0.0
143
0.0393701
144
1.0
145
0.0
146
0.71
147
1.0
 71
     0
 72
     0
 73
     0
 74
     0
 75
     0
 76
     0
 77
     3
 78
     8
170
     0
171
     2
172
     0
173
     0
174
     0
175
     0
176
   256
177
   256
178
     4
  0
DIMSTYLE
  2
AM_JIS$6
 70
     0
  3

  4
"
  5

  6

  7

 40
1.0
 41
2.5
 42
1.0
 43
7.0
 44
1.0
 45
0.0
 46
0.0
 47
0.1
 48
0.1000000001
140
2.5
141
0.0
142
0.0
143
0.0393701
144
1.0
145
0.0
146
0.71
147
1.0
 71
     0
 72
     0
 73
     0
 74
     0
 75
     0
 76
     0
 77
     0
 78
     8
170
     0
171
     2
172
     1
173
     0
174
     0
175
     0
176
   256
177
   256
178
     4
  0
DIMSTYLE
  2
AM_JIS$7
 70
     0
  3

  4
"
  5

  6

  7

 40
1.0
 41
2.5
 42
1.0
 43
7.0
 44
1.0
 45
0.0
 46
0.0
 47
0.1
 48
0.1000000001
140
2.5
141
0.0
142
0.0
143
0.0393701
144
1.0
145
0.0
146
0.71
147
1.0
 71
     0
 72
     0
 73
     0
 74
     0
 75
     0
 76
     0
 77
     3
 78
     8
170
     0
171
     2
172
     1
173
     0
174
     0
175
     0
176
   256
177
   256
178
     4
  0
DIMSTYLE
  2
AM_JIS$SF
 70
     0
  3

  4
"
  5

  6

  7

 40
1.0
 41
2.5
 42
1.0
 43
10.0
 44
1.0
 45
0.0
 46
0.0
 47
0.1
 48
0.1
140
3.5
141
0.0
142
0.0
143
0.0393701
144
1.0
145
0.0
146
0.71
147
1.5
 71
     0
 72
     0
 73
     0
 74
     0
 75
     1
 76
     1
 77
     3
 78
     8
170
     0
171
     2
172
     1
173
     0
174
     0
175
     0
176
   256
177
   256
178
     4
  0
DIMSTYLE
  2
AM_JIS$SH
 70
     0
  3

  4
"
  5

  6

  7

 40
1.0
 41
2.5
 42
1.0
 43
10.0
 44
1.0
 45
0.0
 46
0.0
 47
0.1
 48
0.1
140
3.5
141
0.0
142
0.0
143
0.0393701
144
1.0
145
0.0
146
0.71
147
1.5
 71
     0
 72
     0
 73
     0
 74
     0
 75
     1
 76
     0
 77
     3
 78
     8
170
     0
171
     2
172
     1
173
     1
174
     0
175
     0
176
   256
177
   256
178
     4
  0
DIMSTYLE
  2
AM_ISO$0
 70
     0
  3

  4
"
  5

  6

  7

 40
1.0
 41
2.5
 42
1.0
 43
8.0
 44
0.6
 45
0.0
 46
0.0
 47
0.1
 48
0.1
140
2.5
141
0.0
142
0.0
143
0.0393701
144
1.0
145
0.0
146
0.71
147
0.8
 71
     0
 72
     0
 73
     0
 74
     0
 75
     0
 76
     0
 77
     1
 78
     8
170
     0
171
     2
172
     1
173
     0
174
     0
175
     0
176
   256
177
   256
178
     4
  0
DIMSTYLE
  2
AM_ANSI
 70
     0
  3

  4
mm
  5

  6

  7

 40
1.0
 41
0.12
 42
0.05
 43
0.5
 44
0.1
 45
0.0
 46
0.0
 47
0.1
 48
0.1
140
0.12
141
0.0
142
0.0
143
25.399999999999999
144
1.0
145
0.0
146
0.71
147
0.06
 71
     0
 72
     0
 73
     1
 74
     1
 75
     0
 76
     0
 77
     0
 78
     7
170
     0
171
     2
172
     0
173
     0
174
     0
175
     0
176
   256
177
   256
178
     2
  0
DIMSTYLE
  2
AM_ANSI$3
 70
     0
  3

  4
mm
  5

  6

  7

 40
1.0
 41
0.12
 42
0.05
 43
0.5
 44
0.1
 45
0.0
 46
0.0
 47
0.1
 48
0.1
140
0.12
141
0.0
142
0.0
143
25.399999999999999
144
1.0
145
0.0
146
0.71
147
0.06
 71
     0
 72
     0
 73
     1
 74
     1
 75
     0
 76
     0
 77
     0
 78
     7
170
     0
171
     2
172
     0
173
     0
174
     0
175
     0
176
   256
177
   256
178
     2
  0
DIMSTYLE
  2
AM_ANSI$4
 70
     0
  3

  4
mm
  5

  6

  7

 40
1.0
 41
0.12
 42
0.05
 43
0.5
 44
0.1
 45
0.0
 46
0.0
 47
0.1
 48
0.1
140
0.12
141
0.0
142
0.0
143
25.399999999999999
144
1.0
145
0.0
146
0.71
147
0.06
 71
     0
 72
     0
 73
     1
 74
     1
 75
     0
 76
     0
 77
     0
 78
     7
170
     0
171
     2
172
     0
173
     0
174
     0
175
     0
176
   256
177
   256
178
     2
  0
DIMSTYLE
  2
AM_ANSI$7
 70
     0
  3

  4
mm
  5

  6

  7

 40
1.0
 41
0.12
 42
0.05
 43
0.5
 44
0.1
 45
0.0
 46
0.0
 47
0.1
 48
0.1
140
0.12
141
0.0
142
0.0
143
25.399999999999999
144
1.0
145
0.0
146
0.71
147
0.06
 71
     0
 72
     0
 73
     1
 74
     1
 75
     0
 76
     0
 77
     0
 78
     7
170
     0
171
     2
172
     0
173
     0
174
     0
175
     0
176
   256
177
   256
178
     2
  0
DIMSTYLE
  2
AM_ANSI$SF
 70
     0
  3

  4
mm
  5

  6

  7

 40
1.0
 41
0.12
 42
0.05
 43
0.5
 44
0.1
 45
0.0
 46
0.0
 47
0.1
 48
0.1
140
0.12
141
0.0
142
0.0
143
25.399999999999999
144
1.0
145
0.0
146
0.71
147
0.06
 71
     0
 72
     0
 73
     1
 74
     1
 75
     1
 76
     1
 77
     0
 78
     7
170
     0
171
     2
172
     0
173
     0
174
     0
175
     0
176
   256
177
   256
178
     2
  0
DIMSTYLE
  2
AM_ANSI$SH
 70
     0
  3

  4
mm
  5

  6
GENAXEH
  7

 40
1.0
 41
0.12
 42
0.05
 43
0.5
 44
0.1
 45
0.0
 46
0.0
 47
0.1
 48
0.1
140
0.12
141
0.0
142
0.0
143
25.399999999999999
144
1.0
145
0.0
146
0.71
147
0.06
 71
     0
 72
     0
 73
     1
 74
     1
 75
     1
 76
     1
 77
     0
 78
     7
170
     0
171
     2
172
     0
173
     1
174
     0
175
     0
176
   256
177
   256
178
     2
  0
ENDTAB
  0
ENDSEC
  0
SECTION
  2
BLOCKS
  0
BLOCK
  8
0
  2
$MODEL_SPACE
 70
     0
 10
0.0
 20
0.0
 30
0.0
  3
$MODEL_SPACE
  1

  0
ENDBLK
  5
5ACE
  8
0
  0
BLOCK
 67
     1
  8
0
  2
$PAPER_SPACE
 70
     0
 10
0.0
 20
0.0
 30
0.0
  3
$PAPER_SPACE
  1

  0
ENDBLK
  5
5ACA
 67
     1
  8
0
  0
BLOCK
  8
0
  2
GENAXEH
 70
     0
 10
0.0
 20
0.0
 30
0.0
  3
GENAXEH
  1

  0
LINE
  5
73
  8
0
 10
-1.0
 20
0.0
 30
0.0
 11
1.0
 21
0.0
 31
0.0
  0
ENDBLK
  5
75
  8
0
  0
BLOCK
  8
0
  2
_OPEN30
 70
     0
 10
0.0
 20
0.0
 30
0.0
  3
_OPEN30
  1

  0
LINE
  5
31A
  8
0
 62
     0
 10
-1.0
 20
0.26794919
 30
0.0
 11
0.0
 21
0.0
 31
0.0
  0
LINE
  5
31B
  8
0
 62
     0
 10
0.0
 20
0.0
 30
0.0
 11
-1.0
 21
-0.26794919
 31
0.0
  0
LINE
  5
31C
  8
0
 62
     0
 10
0.0
 20
0.0
 30
0.0
 11
-1.0
 21
0.0
 31
0.0
  0
ENDBLK
  5
31E
  8
0
  0
BLOCK
  8
0
  2
_NONE
 70
     0
 10
0.0
 20
0.0
 30
0.0
  3
_NONE
  1

  0
ENDBLK
  5
579
  8
0
  0
BLOCK
  8
0
  2
*U5
 70
     1
 10
0.0
 20
0.0
 30
0.0
  3
*U5
  1

  0
TEXT
  5
59D9
  8
AM_0
 10
558.70088320055163
 20
544.29840458446552
 30
0.0
 40
10.0
  1
ＶＸ０１－０６０～２００ＢＷ
 41
0.8299999999999999
  0
ENDBLK
  5
59DB
  8
0
  0
BLOCK
  8
0
  2
_ACMFILLEDHALF
 70
     0
 10
0.0
 20
0.0
 30
0.0
  3
_ACMFILLEDHALF
  1

  0
TRACE
  5
5BD1
  8
AM_0
 62
     0
 10
-0.8
 20
0.0
 30
0.0
 11
-1.0
 21
0.166666666
 31
0.0
 12
0.0
 22
0.0
 32
0.0
 13
0.0
 23
0.0
 33
0.0
  0
LINE
  5
5BD2
  8
AM_0
 62
     0
 10
-1.0
 20
0.0
 30
0.0
 11
-0.8
 21
0.0
 31
0.0
  0
ENDBLK
  5
5BD0
  8
0
  0
ENDSEC
  0
SECTION
  2
ENTITIES
  0
LINE
  5
253E
  8
AM_0
 10
575.82661649088914
 20
294.7424960162237
 30
0.0
 11
575.82661649088914
 21
295.93595273856641
 31
0.0
  0
LINE
  5
2541
  8
AM_0
 10
574.82661649088914
 20
295.93595273856641
 30
0.0
 11
575.82661649088914
 21
295.93595273856641
 31
0.0
  0
LINE
  5
25A1
  8
AM_0
 10
536.82661649088891
 20
216.43595273856641
 30
0.0
 11
567.72353398295877
 21
217.51489687231239
 31
0.0
  0
LINE
  5
25A2
  8
AM_0
 10
574.82661649088902
 20
285.21185146603682
 30
0.0
 11
574.82661649088914
 21
305.17758594826603
 31
0.0
  0
LINE
  5
25A4
  8
AM_0
 10
572.89641548429415
 20
307.17636760230408
 30
0.0
 11
536.82661649088914
 21
308.43595273856653
 31
0.0
  0
ARC
  5
25A5
  8
AM_0
 10
572.82661649088925
 20
305.17758594826603
 30
0.0
 40
2.0
 50
0.0
 51
87.999999999999659
1001
GENIUS_GENOBJ-N-FIL_13
1002
{
1000
OWNER
1000
GEN
1002
}
1001
GENIUS_GENODEF_13
1002
{
1000
HIER
1070
     0
1002
}
1002
{
1000
MANEDIT
1070
     0
1002
}
1002
{
1000
NOSEL
1070
     0
1002
}
1002
{
1000
BEHIND
1070
     0
1002
}
1002
{
1000
OTHER
1070
     0
1002
}
1002
{
1000
REACTOR
1002
}
  0
LINE
  5
25A6
  8
AM_0
 10
536.82661649088914
 20
308.43595273856653
 30
0.0
 11
536.82661649088891
 21
216.4359527385661
 31
0.0
  0
LINE
  5
25A7
  8
ﾁｭｳｼﾝｾﾝ1
 10
525.82661649088891
 20
221.4359527385671
 30
0.0
 11
541.65413950342565
 21
221.4359527385669
 31
0.0
  0
LINE
  5
25A9
  8
AM_0
 10
532.82661649088914
 20
308.43595273856653
 30
0.0
 11
532.82661649088914
 21
287.62144783903398
 31
0.0
  0
LINE
  5
25AA
  8
AM_0
 10
532.82661649088891
 20
237.25045763809871
 30
0.0
 11
532.82661649088891
 21
216.43595273856721
 31
0.0
  0
LINE
  5
25AB
  8
AM_0
 10
528.82661649088914
 20
302.30017106940568
 30
0.0
 11
528.82661649088891
 21
222.57173440772689
 31
0.0
  0
LINE
  5
25AC
  8
AM_0
 10
530.76767897876118
 20
225.3433077108734
 30
0.0
 11
531.82661649088891
 21
225.4359527385669
 31
0.0
  0
LINE
  5
25AD
  8
AM_0
 10
530.76767897876118
 20
217.5285977662605
 30
0.0
 11
531.82661649088891
 21
217.4359527385669
 31
0.0
  0
ARC
  5
25AE
  8
AM_0
 10
535.22661649088923
 20
221.4359527385669
 30
0.0
 40
6.5
 50
151.82726586813479
 51
208.1727341318651
  0
ARC
  5
25AF
  8
AM_0
 10
530.90712816715768
 20
219.12250928320719
 30
0.0
 40
1.6000000000000001
 50
208.1727341318651
 51
265.00000000000028
  0
LINE
  5
25B0
  8
AM_0
 10
529.14714282946079
 20
223.73595273856691
 30
0.0
 11
531.4367025082563
 21
221.4359527385669
 31
0.0
  0
LINE
  5
25B1
  8
AM_0
 10
531.12661649088886
 20
221.74745273856689
 30
0.0
 11
531.12661649088886
 21
221.1244527385669
 31
0.0
  0
LINE
  5
25B2
  8
AM_0
 10
529.14714282946079
 20
219.135952738567
 30
0.0
 11
531.4367025082563
 21
221.4359527385669
 31
0.0
  0
LINE
  5
25B3
  8
AM_0
 10
528.73408480055434
 20
221.74745273856689
 30
0.0
 11
531.12661649088886
 21
221.74745273856689
 31
0.0
  0
LINE
  5
25B4
  8
AM_0
 10
528.73408480055434
 20
221.1244527385669
 30
0.0
 11
531.12661649088886
 21
221.1244527385669
 31
0.0
  0
ARC
  5
25B5
  8
AM_0
 10
530.90712816715768
 20
223.7493961939266
 30
0.0
 40
1.6000000000000001
 50
94.99999999999973
 51
151.82726586813479
  0
LINE
  5
25B6
  8
AM_0
 10
532.82661649088914
 20
308.43595273856653
 30
0.0
 11
536.82661649088914
 21
308.43595273856653
 31
0.0
  0
LINE
  5
25B7
  8
AM_0
 10
531.82661649088891
 20
307.43595273856619
 30
0.0
 11
532.82661649088925
 21
308.43595273856653
 31
0.0
  0
LINE
  5
25B8
  8
AM_0
 10
536.82661649088891
 20
216.4359527385661
 30
0.0
 11
532.82661649088891
 21
216.43595273856721
 31
0.0
  0
LINE
  5
25B9
  8
AM_0N
 10
532.82661649088891
 20
225.23595273856699
 30
0.0
 11
531.82661649088891
 21
225.23595273856699
 31
0.0
  0
LINE
  5
25BA
  8
AM_0N
 10
531.82661649088891
 20
221.63595273856691
 30
0.0
 11
532.82661649088891
 21
221.9999229728331
 31
0.0
  0
LINE
  5
25BB
  8
AM_0N
 10
531.82661649088891
 20
221.23595273856691
 30
0.0
 11
532.82661649088891
 21
221.5999229728331
 31
0.0
  0
LINE
  5
25BC
  8
AM_0N
 10
531.82661649088891
 20
217.4359527385669
 30
0.0
 11
531.82661649088891
 21
225.4359527385669
 31
0.0
  0
LINE
  5
25BD
  8
AM_0N
 10
531.82661649088891
 20
217.635952738567
 30
0.0
 11
532.82661649088891
 21
217.635952738567
 31
0.0
  0
LINE
  5
25BE
  8
AM_0
 10
528.82661649088891
 20
237.2504576380986
 30
0.0
 11
532.82661649088891
 21
237.25045763809871
 31
0.0
  0
LINE
  5
25BF
  8
AM_0
 10
532.82661649088891
 20
235.5936033886062
 30
0.0
 11
528.82661649088891
 21
237.2504576380986
 31
0.0
  0
LINE
  5
25C0
  8
AM_0
 10
528.82661649088914
 20
287.62144783903398
 30
0.0
 11
532.82661649088914
 21
287.62144783903398
 31
0.0
  0
LINE
  5
25C1
  8
AM_0
 10
532.82661649088914
 20
289.27830208852652
 30
0.0
 11
528.82661649088914
 21
287.62144783903398
 31
0.0
  0
LINE
  5
25C6
  8
ﾁｭｳｼﾝｾﾝ1
 10
525.82661649088914
 20
303.43595273856567
 30
0.0
 11
541.65413950342565
 21
303.43595273856567
 31
0.0
  0
LINE
  5
25C7
  8
AM_0
 10
530.76767897876118
 20
299.52859776625922
 30
0.0
 11
531.82661649088891
 21
299.43595273856579
 31
0.0
  0
LINE
  5
25C8
  8
AM_0
 10
530.76767897876118
 20
307.34330771087218
 30
0.0
 11
531.82661649088891
 21
307.43595273856567
 31
0.0
  0
ARC
  5
25C9
  8
AM_0
 10
535.22661649088923
 20
303.43595273856567
 30
0.0
 40
6.5
 50
151.82726586813479
 51
208.1727341318651
  0
ARC
  5
25CA
  8
AM_0
 10
530.90712816715768
 20
305.74939619392541
 30
0.0
 40
1.6000000000000001
 50
94.999999999999758
 51
151.82726586813479
  0
LINE
  5
25CB
  8
AM_0
 10
529.14714282946079
 20
301.13595273856578
 30
0.0
 11
531.4367025082563
 21
303.43595273856567
 31
0.0
  0
LINE
  5
25CC
  8
AM_0
 10
531.12661649088886
 20
303.12445273856582
 30
0.0
 11
531.12661649088886
 21
303.74745273856581
 31
0.0
  0
LINE
  5
25CD
  8
AM_0
 10
529.14714282946079
 20
305.73595273856569
 30
0.0
 11
531.4367025082563
 21
303.43595273856567
 31
0.0
  0
LINE
  5
25CE
  8
AM_0
 10
528.73408480055434
 20
303.12445273856582
 30
0.0
 11
531.12661649088886
 21
303.12445273856582
 31
0.0
  0
LINE
  5
25CF
  8
AM_0
 10
528.73408480055434
 20
303.74745273856581
 30
0.0
 11
531.12661649088886
 21
303.74745273856581
 31
0.0
  0
ARC
  5
25D0
  8
AM_0
 10
530.90712816715768
 20
301.12250928320611
 30
0.0
 40
1.6000000000000001
 50
208.1727341318651
 51
265.00000000000028
  0
LINE
  5
25D1
  8
AM_0N
 10
532.82661649088891
 20
299.63595273856572
 30
0.0
 11
531.82661649088891
 21
299.63595273856572
 31
0.0
  0
LINE
  5
25D2
  8
AM_0N
 10
531.82661649088891
 20
303.23595273856569
 30
0.0
 11
532.82661649088891
 21
302.87198250429958
 31
0.0
  0
LINE
  5
25D3
  8
AM_0N
 10
531.82661649088891
 20
303.63595273856561
 30
0.0
 11
532.82661649088891
 21
303.27198250429961
 31
0.0
  0
LINE
  5
25D4
  8
AM_0N
 10
531.82661649088891
 20
307.43595273856567
 30
0.0
 11
531.82661649088891
 21
299.43595273856579
 31
0.0
  0
LINE
  5
25D5
  8
AM_0N
 10
531.82661649088891
 20
307.23595273856569
 30
0.0
 11
532.82661649088891
 21
307.23595273856569
 31
0.0
  0
LINE
  5
3274
  8
ﾁｭｳｼﾝｾﾝ
 10
595.37091374759245
 20
282.43595373856641
 30
0.0
 11
692.28231923418582
 21
282.43595373856641
 31
0.0
  0
LINE
  5
3277
  8
AM_0
 10
405.20805094475901
 20
294.43593873856622
 30
0.0
 11
439.20810094475922
 21
294.43593873856622
 31
0.0
  0
LINE
  5
3278
  8
AM_0
 10
439.20810094475922
 20
297.43593873856622
 30
0.0
 11
439.20810094475922
 21
270.43595373856641
 31
0.0
  0
LINE
  5
3279
  8
AM_0
 10
405.20805094475901
 20
270.43595373856641
 30
0.0
 11
439.20810094475922
 21
270.43595373856641
 31
0.0
  0
LINE
  5
327B
  8
ﾁｭｳｼﾝｾﾝ
 10
446.1841079811461
 20
282.43595373856641
 30
0.0
 11
315.30737491522819
 21
282.43595373856641
 31
0.0
  0
LINE
  5
327C
  8
ﾁｭｳｼﾝｾﾝ
 10
643.82661649088914
 20
371.69608994190492
 30
0.0
 11
643.82661649088914
 21
183.2016807385663
 31
0.0
  0
LINE
  5
327D
  8
AM_0
 10
407.2080609447595
 20
297.43593873856622
 30
0.0
 11
407.2080609447595
 21
294.43593873856622
 31
0.0
  0
LINE
  5
327E
  8
AM_0
 10
586.26878749088928
 20
301.45584873856637
 30
0.0
 11
590.84918749088934
 21
304.9705587385663
 31
0.0
  0
LINE
  5
327F
  8
AM_0
 10
590.84918749088934
 20
304.97052873856632
 30
0.0
 11
590.09558749088887
 21
310.6946487385664
 31
0.0
  0
LINE
  5
3280
  8
AM_0
 10
590.09558749088887
 20
310.69461873856631
 30
0.0
 11
584.76158749088893
 21
312.90405873856622
 31
0.0
  0
LINE
  5
3281
  8
AM_0
 10
584.76161749088931
 20
312.90405873856622
 30
0.0
 11
580.18115749088895
 21
309.38937873856622
 31
0.0
  0
LINE
  5
3282
  8
AM_0
 10
580.18115749088895
 20
309.38937873856622
 30
0.0
 11
580.93472749088914
 21
303.66525873856619
 31
0.0
  0
LINE
  5
3283
  8
AM_0
 10
580.93472749088914
 20
303.66525873856619
 30
0.0
 11
586.26875749088936
 21
301.45581873856622
 31
0.0
  0
LINE
  5
3284
  8
AM_0
 10
696.80409349088916
 20
304.97043873856632
 30
0.0
 11
701.38452349088914
 21
301.45575873856632
 31
0.0
  0
LINE
  5
3285
  8
AM_0
 10
697.55766649088912
 20
310.69455873856629
 30
0.0
 11
696.80406349088935
 21
304.97043873856632
 31
0.0
  0
LINE
  5
3286
  8
AM_0
 10
702.89171149088895
 20
312.90399873856632
 30
0.0
 11
697.55768149088885
 21
310.69458873856632
 31
0.0
  0
LINE
  5
3287
  8
AM_0
 10
707.47214149088927
 20
309.38928873856628
 30
0.0
 11
702.89171149088895
 21
312.90396873856639
 31
0.0
  0
LINE
  5
3288
  8
AM_0
 10
701.38452349088914
 20
301.4557887385663
 30
0.0
 11
706.71855349088912
 21
303.66519873856629
 31
0.0
  0
LINE
  5
3289
  8
AM_0
 10
667.37344549088937
 20
198.0455097385663
 30
0.0
 11
666.61986049088932
 21
192.32140173856641
 31
0.0
  0
LINE
  5
328A
  8
AM_0
 10
666.61987549088894
 20
192.32138673856639
 30
0.0
 11
671.20030249088893
 21
188.80670973856641
 31
0.0
  0
LINE
  5
328B
  8
AM_0
 10
672.70750549088916
 20
200.25493473856631
 30
0.0
 11
667.37347549088929
 21
198.0455097385663
 31
0.0
  0
LINE
  5
328C
  8
AM_0
 10
677.28792049088929
 20
196.74022473856641
 30
0.0
 11
672.70749049088931
 21
200.25491973856629
 31
0.0
  0
LINE
  5
328D
  8
AM_0
 10
671.20030249088893
 20
188.80672473856629
 30
0.0
 11
676.53433249088903
 21
191.0161497385663
 31
0.0
  0
LINE
  5
328E
  8
AM_0
 10
676.5343024908891
 20
191.01613473856639
 30
0.0
 11
677.28790549088933
 21
196.74024273856631
 31
0.0
  0
LINE
  5
328F
  8
AM_0
 10
621.03337249088952
 20
192.3214167385664
 30
0.0
 11
620.27976949088929
 21
198.04552473856629
 31
0.0
  0
LINE
  5
3290
  8
AM_0
 10
616.45292749088924
 20
188.80672473856629
 30
0.0
 11
621.03337249088952
 21
192.32140173856641
 31
0.0
  0
LINE
  5
3291
  8
AM_0
 10
620.27979949088933
 20
198.04549473856639
 30
0.0
 11
614.94578449088931
 21
200.25491973856629
 31
0.0
  0
LINE
  5
3292
  8
AM_0
 10
614.94575449088927
 20
200.25493473856631
 30
0.0
 11
610.36533949088903
 21
196.74024273856631
 31
0.0
  0
LINE
  5
3293
  8
AM_0
 10
611.11894249088914
 20
191.01611973856629
 30
0.0
 11
616.45295749088893
 21
188.8066917385662
 31
0.0
  0
LINE
  5
3294
  8
AM_0
 10
610.36530949088899
 20
196.7402577385663
 30
0.0
 11
611.11891249088933
 21
191.0161497385663
 31
0.0
  0
LINE
  5
3295
  8
AM_0
 10
647.82660049088929
 20
297.43593873856622
 30
0.0
 11
647.82660049088929
 21
290.43594873856631
 31
0.0
  0
LINE
  5
3296
  8
AM_0
 10
639.82661449088937
 20
297.43593873856622
 30
0.0
 11
639.82661449088937
 21
290.43594873856631
 31
0.0
  0
LINE
  5
3297
  8
AM_0
 10
639.82661449088937
 20
297.43593873856622
 30
0.0
 11
647.82660049088929
 21
297.43593873856622
 31
0.0
  0
LINE
  5
3298
  8
AM_0
 10
639.82661449088937
 20
290.43594873856631
 30
0.0
 11
647.82660049088929
 21
290.43594873856631
 31
0.0
  0
LINE
  5
3299
  8
AM_0
 10
407.2080609447595
 20
297.43593873856622
 30
0.0
 11
439.20810094475922
 21
297.43593873856622
 31
0.0
  0
LINE
  5
32A0
  8
AM_0
 10
344.2080609447595
 20
312.9534687385663
 30
0.0
 11
347.2080609447595
 21
312.9534687385663
 31
0.0
  0
LINE
  5
32A1
  8
AM_0
 10
344.2080609447595
 20
301.40643873856618
 30
0.0
 11
347.2080609447595
 21
301.40643873856618
 31
0.0
  0
LINE
  5
32A2
  8
AM_0
 10
344.2080609447595
 20
304.29318873856653
 30
0.0
 11
347.2080609447595
 21
304.29318873856653
 31
0.0
  0
LINE
  5
32A3
  8
AM_0
 10
344.2080609447595
 20
310.06668873856643
 30
0.0
 11
347.2080609447595
 21
310.06668873856643
 31
0.0
  0
LINE
  5
32A4
  8
AM_0
 10
348.20805094475918
 20
302.40639873856628
 30
0.0
 11
348.20805094475918
 21
311.95344873856641
 31
0.0
  0
LINE
  5
32A5
  8
AM_0
 10
344.2080609447595
 20
313.95345873856638
 30
0.0
 11
344.2080609447595
 21
300.40644873856638
 31
0.0
  0
LINE
  5
32A6
  8
AM_0
 10
707.47207849088898
 20
309.38934873856641
 30
0.0
 11
706.71849349088916
 21
303.66525873856619
 31
0.0
  0
LINE
  5
32A7
  8
AM_0
 10
343.2081309447592
 20
313.95345873856638
 30
0.0
 11
344.2080609447595
 21
313.95345873856638
 31
0.0
  0
LINE
  5
32A8
  8
AM_0
 10
343.2081309447592
 20
300.40644873856638
 30
0.0
 11
344.2080609447595
 21
300.40644873856638
 31
0.0
  0
LINE
  5
32A9
  8
AM_0
 10
320.2080609447595
 20
312.10311873856642
 30
0.0
 11
320.2080609447595
 21
292.46400873856618
 31
0.0
  0
LINE
  5
32AA
  8
ﾁｭｳｼﾝｾﾝ
 10
106.4119600325737
 20
262.43595273856641
 30
0.0
 11
329.63401067598221
 21
262.43595273856641
 31
0.0
  0
LINE
  5
32AB
  8
AM_0
 10
294.20805094475918
 20
318.43596873856637
 30
0.0
 11
320.33898094475938
 21
319.1202087385663
 31
0.0
  0
LINE
  5
32AC
  8
AM_0
 10
294.20811094475948
 20
206.43596673856629
 30
0.0
 11
317.28660094475941
 21
205.83162573856629
 31
0.0
  0
LINE
  5
32AD
  8
AM_0
 10
294.20811094475948
 20
206.4359517385663
 30
0.0
 11
294.20811094475948
 21
318.43596873856637
 31
0.0
  0
LINE
  5
32AE
  8
AM_0
 10
327.20811094475948
 20
333.43596873856637
 30
0.0
 11
332.2080609447595
 21
333.43596873856637
 31
0.0
  0
LINE
  5
32AF
  8
AM_0
 10
325.2081309447592
 20
331.43595873856623
 30
0.0
 11
325.2081309447592
 21
316.10310873856622
 31
0.0
  0
LINE
  5
32B1
  8
AM_0
 10
721.82661649088914
 20
199.4359647385663
 30
0.0
 11
711.05820049088913
 21
302.06613873856639
 31
0.0
  0
LINE
  5
32B2
  8
AM_0
 10
689.82663049088933
 20
190.4359647385663
 30
0.0
 11
685.82661649088914
 21
190.4359647385663
 31
0.0
  0
LINE
  5
32B3
  8
AM_0
 10
690.82661749088925
 20
188.4359817385664
 30
0.0
 11
596.82665749088915
 21
188.4359817385664
 31
0.0
  0
LINE
  5
32B4
  8
AM_0
 10
601.82661349088914
 20
190.4359647385663
 30
0.0
 11
597.82661449088926
 21
190.4359647385663
 31
0.0
  0
LINE
  5
32B5
  8
AM_0
 10
682.82661649088914
 20
199.4359647385663
 30
0.0
 11
682.82661649088914
 21
193.4359647385663
 31
0.0
  0
LINE
  5
32B6
  8
AM_0
 10
691.82661649088914
 20
187.4359647385663
 30
0.0
 11
691.82661649088914
 21
197.4359817385664
 31
0.0
  0
LINE
  5
32B7
  8
ﾁｭｳｼﾝｾﾝ1
 10
578.82662749088934
 20
203.9814207385663
 30
0.0
 11
578.82662749088934
 21
182.8905087385663
 31
0.0
  0
LINE
  5
32B8
  8
ﾁｭｳｼﾝｾﾝ1
 10
708.82663249088932
 20
203.9814207385663
 30
0.0
 11
708.82663249088932
 21
182.8905087385663
 31
0.0
  0
LINE
  5
32B9
  8
AM_0
 10
609.82661449088926
 20
204.43596573856641
 30
0.0
 11
677.82663049088933
 21
204.43596573856641
 31
0.0
  0
LINE
  5
32BA
  8
ﾁｭｳｼﾝｾﾝ1
 10
385.20810094475922
 20
203.9814207385663
 30
0.0
 11
385.20810094475922
 21
184.003048092402
 31
0.0
  0
LINE
  5
32BB
  8
AM_0
 10
303.20811094475948
 20
187.4359647385663
 30
0.0
 11
328.2081309447592
 21
187.4359647385663
 31
0.0
  0
LINE
  5
32BC
  8
AM_0
 10
305.2080609447595
 20
199.4359647385663
 30
0.0
 11
324.15747094475938
 21
199.4359647385663
 31
0.0
  0
LINE
  5
32BD
  8
AM_0
 10
372.20808094475962
 20
187.4359647385663
 30
0.0
 11
397.20810094475922
 21
187.4359647385663
 31
0.0
  0
LINE
  5
32BE
  8
ﾁｭｳｼﾝｾﾝ1
 10
315.20811094475948
 20
203.9814207385663
 30
0.0
 11
315.20811094475948
 21
184.003048092402
 31
0.0
  0
LINE
  5
32BF
  8
AM_0
 10
332.2080609447595
 20
333.43596873856637
 30
0.0
 11
332.2080609447595
 21
218.29311273856641
 31
0.0
  0
LINE
  5
32C0
  8
AM_0
 10
332.20812094475917
 20
333.43596873856637
 30
0.0
 11
376.3389909447593
 21
332.28033873856617
 31
0.0
  0
LINE
  5
32C1
  8
AM_0
 10
385.7723109447594
 20
316.17399873856641
 30
0.0
 11
391.46958094475929
 21
315.67554873856642
 31
0.0
  0
LINE
  5
32C2
  8
AM_0
 10
394.20810094475922
 20
312.68694873856629
 30
0.0
 11
394.20810094475922
 21
203.18051973856629
 31
0.0
  0
LINE
  5
32C3
  8
AM_0
 10
303.20811094475948
 20
197.4359517385663
 30
0.0
 11
303.20811094475948
 21
187.4359647385663
 31
0.0
  0
LINE
  5
32C4
  8
AM_0
 10
329.2080609447595
 20
188.4359517385663
 30
0.0
 11
371.2080609447595
 21
188.4359517385663
 31
0.0
  0
LINE
  5
32C5
  8
AM_0
 10
397.20810094475922
 20
197.4359517385663
 30
0.0
 11
397.20810094475922
 21
187.4359647385663
 31
0.0
  0
LINE
  5
32C6
  8
AM_0
 10
335.2080609447595
 20
202.4359647385663
 30
0.0
 11
335.2080609447595
 21
232.43596773856629
 31
0.0
  0
LINE
  5
32C7
  8
ｶｸﾚｾﾝ2
 10
321.20811094475948
 20
199.4359647385663
 30
0.0
 11
321.20811094475948
 21
187.4359647385663
 31
0.0
  0
LINE
  5
32C8
  8
ｶｸﾚｾﾝ2
 10
309.20811094475948
 20
199.4359647385663
 30
0.0
 11
309.20811094475948
 21
187.4359647385663
 31
0.0
  0
LINE
  5
32C9
  8
ｶｸﾚｾﾝ2
 10
584.82665749088915
 20
199.4359647385663
 30
0.0
 11
584.82665749088915
 21
187.4359647385663
 31
0.0
  0
LINE
  5
32CA
  8
ｶｸﾚｾﾝ2
 10
572.82665749088915
 20
199.4359647385663
 30
0.0
 11
572.82665749088915
 21
187.4359647385663
 31
0.0
  0
LINE
  5
32CB
  8
AM_0
 10
565.82660749088893
 20
187.4359647385663
 30
0.0
 11
565.82660749088893
 21
199.4359647385663
 31
0.0
  0
LINE
  5
32CC
  8
AM_0
 10
565.82660749088893
 20
187.4359647385663
 30
0.0
 11
595.82660749088893
 21
187.4359647385663
 31
0.0
  0
LINE
  5
32CD
  8
AM_0
 10
593.82665749088915
 20
199.4359647385663
 30
0.0
 11
567.82661749088902
 21
199.4359647385663
 31
0.0
  0
LINE
  5
32CE
  8
AM_0
 10
335.2080609447595
 20
269.65223073856629
 30
0.0
 11
335.2080609447595
 21
232.96042773856641
 31
0.0
  0
LINE
  5
32CF
  8
AM_0
 10
373.20810094475922
 20
199.4359647385663
 30
0.0
 11
395.2080609447595
 21
199.4359647385663
 31
0.0
  0
LINE
  5
32D0
  8
AM_0
 10
324.15747094475938
 20
199.4359647385663
 30
0.0
 11
332.2080609447595
 21
199.4359647385663
 31
0.0
  0
LINE
  5
32D1
  8
ｶｸﾚｾﾝ2
 10
391.20810094475922
 20
199.4359647385663
 30
0.0
 11
391.20810094475922
 21
187.4359647385663
 31
0.0
  0
LINE
  5
32D2
  8
ｶｸﾚｾﾝ2
 10
702.82661749088925
 20
199.4359647385663
 30
0.0
 11
702.82661749088925
 21
187.4359647385663
 31
0.0
  0
LINE
  5
32D3
  8
AM_0
 10
346.2081309447592
 20
313.9634187385663
 30
0.0
 11
381.2080809447595
 21
313.9634187385663
 31
0.0
  0
LINE
  5
32D4
  8
ｶｸﾚｾﾝ2
 10
379.20810094475922
 20
199.4359647385663
 30
0.0
 11
379.20810094475922
 21
187.4359647385663
 31
0.0
  0
LINE
  5
32D5
  8
AM_0
 10
328.2081309447592
 20
187.4359647385663
 30
0.0
 11
328.2081309447592
 21
187.4359647385663
 31
0.0
  0
LINE
  5
32D6
  8
AM_0
 10
368.2080609447595
 20
292.22676873856642
 30
0.0
 11
368.2080609447595
 21
204.43596573856641
 31
0.0
  0
LINE
  5
32D7
  8
AM_0
 10
565.82660749088893
 20
199.4359647385663
 30
0.0
 11
576.5950474908891
 21
302.06613873856639
 31
0.0
  0
LINE
  5
32D8
  8
AM_0
 10
381.2080809447595
 20
327.28206873856618
 30
0.0
 11
381.2080809447595
 21
218.4767697385663
 31
0.0
  0
LINE
  5
32D9
  8
ｶｸﾚｾﾝ2
 10
714.82663249088932
 20
199.4359647385663
 30
0.0
 11
714.82663249088932
 21
187.4359647385663
 31
0.0
  0
LINE
  5
32DA
  8
AM_0
 10
721.82661649088914
 20
187.4359647385663
 30
0.0
 11
691.82661649088914
 21
187.4359647385663
 31
0.0
  0
LINE
  5
32DB
  8
AM_0
 10
693.82661749088936
 20
199.4359647385663
 30
0.0
 11
719.82663349088932
 21
199.4359647385663
 31
0.0
  0
LINE
  5
32DC
  8
AM_0
 10
368.2080609447595
 20
214.4767827385663
 30
0.0
 11
377.2080609447595
 21
214.4767827385663
 31
0.0
  0
LINE
  5
32DD
  8
AM_0
 10
604.82661349088914
 20
199.4359647385663
 30
0.0
 11
604.82661349088914
 21
193.4359647385663
 31
0.0
  0
LINE
  5
32DE
  8
AM_0
 10
595.82660749088893
 20
187.4359647385663
 30
0.0
 11
595.82660749088893
 21
197.4359817385664
 31
0.0
  0
LINE
  5
32DF
  8
AM_0
 10
696.82661749088925
 20
297.68850873856638
 30
0.0
 11
696.82661749088925
 21
236.4359517385663
 31
0.0
  0
LINE
  5
32E0
  8
AM_0
 10
721.82661649088914
 20
187.4359647385663
 30
0.0
 11
721.82661649088914
 21
199.4359647385663
 31
0.0
  0
LINE
  5
32E1
  8
AM_0
 10
376.20810094475922
 20
300.2267487385663
 30
0.0
 11
381.2080809447595
 21
300.2267487385663
 31
0.0
  0
LINE
  5
32E2
  8
AM_0
 10
590.82665749088915
 20
297.68850873856638
 30
0.0
 11
590.82665749088915
 21
236.4359517385663
 31
0.0
  0
LINE
  5
32E3
  8
AM_0
 10
595.82660749088893
 20
267.43595373856641
 30
0.0
 11
595.82660749088893
 21
204.43596573856641
 31
0.0
  0
LINE
  5
32E4
  8
AM_0
 10
691.82661649088914
 20
267.43595373856641
 30
0.0
 11
691.82661649088914
 21
204.43596573856641
 31
0.0
  0
LINE
  5
32E5
  8
AM_0
 10
372.20808094475962
 20
187.4359647385663
 30
0.0
 11
372.20808094475962
 21
187.4359647385663
 31
0.0
  0
LINE
  5
32E6
  8
AM_0
 10
329.0486409447592
 20
203.39844573856629
 30
0.0
 11
335.0992209447594
 21
231.9229047385663
 31
0.0
  0
LINE
  5
32E7
  8
AM_0
 10
343.2081309447592
 20
318.96273873856637
 30
0.0
 11
343.2081309447592
 21
296.0607087385664
 31
0.0
  0
LINE
  5
32EA
  8
AM_0
 10
346.2081309447592
 20
332.9907987385663
 30
0.0
 11
346.2081309447592
 21
313.9634187385663
 31
0.0
  0
LINE
  5
32EB
  8
AM_0
 10
346.20807094475941
 20
332.9907987385663
 30
0.0
 11
359.79003094475951
 21
313.9634187385663
 31
0.0
  0
LINE
  5
32EC
  8
AM_0
 10
346.2081309447592
 20
295.78467873856641
 30
0.0
 11
346.2081309447592
 21
269.65223073856629
 31
0.0
  0
LINE
  5
32ED
  8
AM_0
 10
359.03772094475949
 20
295.78467873856641
 30
0.0
 11
346.20807094475941
 21
269.65223073856629
 31
0.0
  0
LINE
  5
32EE
  8
AM_0
 10
335.2080609447595
 20
269.65223073856629
 30
0.0
 11
346.2081309447592
 21
269.65223073856629
 31
0.0
  0
LINE
  5
32EF
  8
AM_0
 10
346.2081309447592
 20
295.78467873856641
 30
0.0
 11
369.04281094475942
 21
295.78467873856641
 31
0.0
  0
LINE
  5
32F0
  8
AM_0
 10
322.2081309447592
 20
314.1030987385663
 30
0.0
 11
323.2080609447595
 21
314.1030987385663
 31
0.0
  0
LINE
  5
32F1
  8
AM_0
 10
320.2080609447595
 20
213.2202237385664
 30
0.0
 11
325.2081309447592
 21
213.2202237385664
 31
0.0
  0
LINE
  5
32F2
  8
AM_0
 10
320.2080609447595
 20
290.46399873856637
 30
0.0
 11
325.2081309447592
 21
290.46399873856637
 31
0.0
  0
LINE
  5
32F3
  8
AM_0
 10
322.2081309447592
 20
305.93031873856643
 30
0.0
 11
323.2080609447595
 21
305.93031873856643
 31
0.0
  0
LINE
  5
32F4
  8
AM_0
 10
325.2081309447592
 20
303.93030873856628
 30
0.0
 11
325.2081309447592
 21
199.56587973856631
 31
0.0
  0
LINE
  5
32F5
  8
AM_0
 10
320.2080609447595
 20
211.22020773856639
 30
0.0
 11
320.2080609447595
 21
199.4359647385663
 31
0.0
  0
LINE
  5
32F6
  8
AM_0
 10
294.20811094475948
 20
308.43594873856631
 30
0.0
 11
320.2080609447595
 21
308.43594873856631
 31
0.0
  0
LINE
  5
32F7
  8
AM_0
 10
294.20811094475948
 20
294.37296873856639
 30
0.0
 11
320.2080609447595
 21
294.37296873856639
 31
0.0
  0
LINE
  5
32F8
  8
AM_0
 10
294.20811094475948
 20
230.49893973856641
 30
0.0
 11
325.2081309447592
 21
230.49893973856641
 31
0.0
  0
LINE
  5
32F9
  8
AM_0
 10
294.20811094475948
 20
216.43596573856641
 30
0.0
 11
325.2081309447592
 21
216.43596573856641
 31
0.0
  0
LINE
  5
3314
  8
ﾁｭｳｼﾝｾﾝ
 10
718.00100658881831
 20
262.43595273856641
 30
0.0
 11
525.81187634753633
 21
262.43595273856641
 31
0.0
  0
CIRCLE
  5
33C9
  8
AM_0
 10
585.51515749088924
 20
307.17993873856631
 30
0.0
 40
4.9999998000000003
  0
CIRCLE
  5
33CA
  8
AM_0
 10
702.13809349088933
 20
307.1798787385664
 30
0.0
 40
4.9999998000000003
  0
CIRCLE
  5
33CB
  8
AM_0
 10
671.95385749088916
 20
194.5308297385663
 30
0.0
 40
4.9999998000000003
  0
CIRCLE
  5
33CC
  8
AM_0
 10
615.69932449088913
 20
194.5308297385663
 30
0.0
 40
4.9999998000000003
  0
ARC
  5
33CD
  8
AM_0
 10
643.82661649088914
 20
282.43595373856641
 30
0.0
 40
12.0000003
 50
109.4712199999996
 51
70.528788999999307
  0
ARC
  5
33CF
  8
AM_0
 10
347.2080609447595
 20
305.29314873856629
 30
0.0
 40
1.0000000199999981
 50
270.0
 51
0.0
  0
ARC
  5
33D0
  8
AM_0
 10
347.2080609447595
 20
309.0666987385664
 30
0.0
 40
1.0000000199999981
 50
0.0
 51
90.00000299999769
  0
ARC
  5
33D1
  8
AM_0
 10
347.2080609447595
 20
311.06667873856622
 30
0.0
 40
1.0000000199999981
 50
270.0
 51
0.0
  0
ARC
  5
33D2
  8
AM_0
 10
347.2080609447595
 20
303.29319873856622
 30
0.0
 40
1.0000000199999981
 50
0.0
 51
90.00000299999769
  0
ARC
  5
33D3
  8
AM_0
 10
347.2080609447595
 20
302.40639873856628
 30
0.0
 40
1.0000000199999981
 50
270.0
 51
0.0
  0
ARC
  5
33D4
  8
AM_0
 10
347.2080609447595
 20
311.95344873856641
 30
0.0
 40
1.0000000199999981
 50
0.0
 51
90.00000299999769
  0
CIRCLE
  5
33D7
  8
AM_0
 62
     2
 10
643.82661649088914
 20
282.43595373856641
 30
0.0
 40
4.0000001999999979
  0
CIRCLE
  5
33D8
  8
AM_0
 10
643.82661649088914
 20
282.43595373856641
 30
0.0
 40
3.0
  0
ARC
  5
33D9
  8
AM_0
 10
320.2080609447595
 20
324.11850873856628
 30
0.0
 40
5.0000001000000003
 50
271.50000000000267
 51
0.0
  0
ARC
  5
33DA
  8
AM_0
 10
327.20811094475948
 20
331.43595873856623
 30
0.0
 40
2.00000007
 50
90.00000299999769
 51
180.00001000000091
  0
ARC
  5
33DB
  8
AM_0
 10
317.2080609447595
 20
202.83264873856629
 30
0.0
 40
3.0
 50
0.0
 51
88.499997000000647
  0
ARC
  5
33DC
  8
AM_0
 10
704.41475149088933
 20
293.30793873856641
 30
0.0
 40
3.0
 50
27.00057300000061
 51
84.294261000001953
  0
ARC
  5
33DD
  8
AM_0
 10
391.20810094475922
 20
312.68694873856629
 30
0.0
 40
3.0
 50
0.0
 51
84.999996999998885
  0
ARC
  5
33DE
  8
AM_0
 10
386.2080609447595
 20
321.15495873856622
 30
0.0
 40
5.0000001000000003
 50
179.999989999999
 51
265.0
  0
ARC
  5
33DF
  8
AM_0
 10
583.23848749088938
 20
293.30793873856641
 30
0.0
 40
3.0
 50
95.705737999999187
 51
152.99941999999919
  0
ARC
  5
33E0
  8
AM_0
 10
590.82665749088915
 20
204.43596573856641
 30
0.0
 40
5.0000001000000003
 50
270.0
 51
0.0
  0
ARC
  5
33E1
  8
AM_0
 10
595.82660749088893
 20
297.68850873856638
 30
0.0
 40
5.0000001000000003
 50
138.71941000000029
 51
180.00001000000091
  0
ARC
  5
33E2
  8
AM_0
 10
598.32517849088913
 20
312.96930873856638
 30
0.0
 40
3.0
 50
132.0006499999993
 51
189.2943400000016
  0
ARC
  5
33E3
  8
AM_0
 10
691.82661649088914
 20
297.68850873856638
 30
0.0
 40
5.0000001000000003
 50
0.0
 51
41.280591000000221
  0
ARC
  5
33E4
  8
AM_0
 10
690.82661749088925
 20
187.4359647385663
 30
0.0
 40
1.0000000199999981
 50
0.0
 51
90.00000299999769
  0
ARC
  5
33E5
  8
AM_0
 10
596.82665749088915
 20
187.4359647385663
 30
0.0
 40
1.0000000199999981
 50
90.00000299999769
 51
180.00001000000091
  0
ARC
  5
33E6
  8
AM_0
 10
601.82661349088914
 20
193.4359647385663
 30
0.0
 40
3.0
 50
270.0
 51
0.0
  0
ARC
  5
33E7
  8
AM_0
 10
597.82661449088926
 20
188.4359817385664
 30
0.0
 40
2.00000007
 50
90.00000299999769
 51
180.00001000000091
  0
ARC
  5
33E8
  8
AM_0
 10
688.89386149088932
 20
318.27237873856637
 30
0.0
 40
5.0000001000000003
 50
334.93703000000249
 51
64.582444000001288
  0
ARC
  5
33E9
  8
AM_0
 10
344.2080609447595
 20
318.96273873856637
 30
0.0
 40
1.0000000199999981
 50
90.00000299999769
 51
180.00001000000091
  0
ARC
  5
33EA
  8
AM_0
 10
371.2080609447595
 20
187.4359647385663
 30
0.0
 40
1.0000000199999981
 50
0.0
 51
90.00000299999769
  0
ARC
  5
33EB
  8
AM_0
 10
330.20811094475948
 20
232.96042773856641
 30
0.0
 40
5.0000001000000003
 50
348.0238700000001
 51
0.0
  0
ARC
  5
33ED
  8
AM_0
 10
643.82661649088914
 20
262.43595273856641
 30
0.0
 40
71.000000999999983
 50
5.9898141999996781
 51
27.00057300000061
  0
ARC
  5
33EE
  8
AM_0
 10
567.82661749088902
 20
197.4359817385664
 30
0.0
 40
2.00000007
 50
90.00000299999769
 51
180.00001000000091
  0
ARC
  5
33EF
  8
AM_0
 10
332.2080609447595
 20
202.4359647385663
 30
0.0
 40
3.0
 50
270.0
 51
0.0
  0
ARC
  5
33F0
  8
AM_0
 10
643.82661649088914
 20
267.43595373856641
 30
0.0
 40
48.0
 50
0.0
 51
77.663515021264985
  0
ARC
  5
33F1
  8
AM_0
 10
377.2080609447595
 20
218.4767697385663
 30
0.0
 40
4.0000001999999979
 50
270.0
 51
0.0
  0
ARC
  5
33F2
  8
AM_0
 10
581.54834749088923
 20
310.22370873856619
 30
0.0
 40
13.9999986
 50
266.80063999999879
 51
25.062969000000368
  0
ARC
  5
33F3
  8
AM_0
 10
696.82661749088925
 20
204.43596573856641
 30
0.0
 40
5.0000001000000003
 50
179.999989999999
 51
270.0
  0
ARC
  5
33F4
  8
AM_0
 10
685.82661649088914
 20
193.4359647385663
 30
0.0
 40
3.0
 50
179.999989999999
 51
270.0
  0
ARC
  5
33F5
  8
AM_0
 10
376.20810094475922
 20
327.28206873856618
 30
0.0
 40
5.0000001000000003
 50
0.0
 51
88.499997000000647
  0
ARC
  5
33F6
  8
AM_0
 10
399.20808094475962
 20
203.18051973856629
 30
0.0
 40
5.0000001000000003
 50
179.999989999999
 51
235.15011000000041
  0
ARC
  5
33F7
  8
AM_0
 10
395.2080609447595
 20
197.4359517385663
 30
0.0
 40
2.00000007
 50
0.0
 51
90.00000299999769
  0
ARC
  5
33F8
  8
AM_0
 10
305.2080609447595
 20
197.4359517385663
 30
0.0
 40
2.00000007
 50
90.00000299999769
 51
180.00001000000091
  0
ARC
  5
33F9
  8
AM_0
 10
329.2080609447595
 20
187.4359647385663
 30
0.0
 40
1.0000000199999981
 50
90.00000299999769
 51
180.00001000000091
  0
ARC
  5
33FA
  8
AM_0
 10
593.82665749088915
 20
197.4359817385664
 30
0.0
 40
2.00000007
 50
0.0
 51
90.00000299999769
  0
ARC
  5
33FB
  8
AM_0
 10
706.10489149088903
 20
310.22370873856619
 30
0.0
 40
13.9999986
 50
154.9370400000038
 51
273.19937000000078
  0
ARC
  5
33FC
  8
AM_0
 10
373.20810094475922
 20
204.43596573856641
 30
0.0
 40
5.0000001000000003
 50
180.00001000000091
 51
270.0
  0
ARC
  5
33FE
  8
AM_0
 10
719.82663349088932
 20
197.4359817385664
 30
0.0
 40
2.00000007
 50
0.0
 51
90.00000299999769
  0
ARC
  5
33FF
  8
AM_0
 10
609.82661449088926
 20
199.4359647385663
 30
0.0
 40
5.0000001000000003
 50
90.00000299999769
 51
180.00001000000091
  0
ARC
  5
3400
  8
AM_0
 10
643.82661649088914
 20
262.43595273856641
 30
0.0
 40
71.000000999999983
 50
47.999359000001277
 51
132.0006499999993
  0
ARC
  5
3401
  8
AM_0
 10
693.82661749088936
 20
197.4359817385664
 30
0.0
 40
2.00000007
 50
90.00000299999769
 51
180.00001000000091
  0
ARC
  5
3402
  8
AM_0
 10
677.82663049088933
 20
199.4359647385663
 30
0.0
 40
5.0000001000000003
 50
0.0
 51
90.00000299999769
  0
ARC
  5
3403
  8
AM_0
 10
643.82661649088914
 20
262.43595273856641
 30
0.0
 40
71.000000999999983
 50
152.99941999999919
 51
174.01019000000019
  0
ARC
  5
3404
  8
AM_0
 10
376.20810094475922
 20
292.22676873856642
 30
0.0
 40
8.0000000999999976
 50
90.00000299999769
 51
180.00001000000091
  0
ARC
  5
3405
  8
AM_0
 10
324.15747094475938
 20
204.43596573856641
 30
0.0
 40
5.0000001000000003
 50
270.0
 51
348.0238700000001
  0
ARC
  5
3406
  8
AM_0
 10
624.82661449088926
 20
236.4359517385663
 30
0.0
 40
34.000002000000002
 50
179.999989999999
 51
211.4669699999979
  0
ARC
  5
3407
  8
AM_0
 10
707.16528649088912
 20
291.25329873856629
 30
0.0
 40
5.0000001000000003
 50
5.9898155000032931
 51
93.199358999997614
  0
ARC
  5
3408
  8
AM_0
 10
689.82663049088933
 20
188.4359817385664
 30
0.0
 40
2.00000007
 50
0.0
 51
90.00000299999769
  0
ARC
  5
3409
  8
AM_0
 10
662.8266304908891
 20
236.4359517385663
 30
0.0
 40
34.000002000000002
 50
328.53301999999962
 51
0.0
  0
ARC
  5
340B
  8
AM_0
 10
396.20808094475962
 20
311.82270873856618
 30
0.0
 40
2.00000007
 50
179.999989999999
 51
240.00000999999969
  0
ARC
  5
340C
  8
AM_0
 10
396.20808094475962
 20
253.04920173856641
 30
0.0
 40
2.00000007
 50
120.0000000000005
 51
180.00001000000091
  0
ARC
  5
340E
  8
AM_0
 10
596.48585749088886
 20
299.97909873856628
 30
0.0
 40
20.000000700000001
 50
121.73616999999869
 51
174.01019000000019
  0
ARC
  5
340F
  8
AM_0
 10
691.16739049088926
 20
299.97909873856628
 30
0.0
 40
20.000000700000001
 50
5.9898155000032931
 51
58.263836000000381
  0
ARC
  5
3410
  8
AM_0
 10
598.75938349088915
 20
318.27237873856637
 30
0.0
 40
5.0000001000000003
 50
115.41755999999791
 51
205.06296999999751
  0
ARC
  5
3411
  8
AM_0
 10
643.82661649088914
 20
223.43596773856629
 30
0.0
 40
110.000004
 50
58.263836000000381
 51
121.73616999999869
  0
ARC
  5
3412
  8
AM_0
 10
689.32808149088885
 20
312.96930873856638
 30
0.0
 40
3.0
 50
350.70566999999772
 51
47.999359000001277
  0
ARC
  5
3413
  8
AM_0
 10
580.4879674908891
 20
291.25329873856629
 30
0.0
 40
5.0000001000000003
 50
86.800639000002093
 51
174.01019000000019
  0
ARC
  5
3414
  8
AM_0
 10
344.2080609447595
 20
296.0607087385664
 30
0.0
 40
1.0000000199999981
 50
179.999989999999
 51
270.0
  0
ARC
  5
3415
  8
AM_0
 10
344.2080609447595
 20
293.06070873856629
 30
0.0
 40
2.00000007
 50
0.0
 51
90.00000299999769
  0
ARC
  5
3416
  8
AM_0
 10
344.2080609447595
 20
321.96273873856637
 30
0.0
 40
2.00000007
 50
270.0
 51
0.0
  0
ARC
  5
3417
  8
AM_0
 10
322.2081309447592
 20
312.10311873856642
 30
0.0
 40
2.00000007
 50
90.00000299999769
 51
180.00001000000091
  0
ARC
  5
3418
  8
AM_0
 10
323.2080609447595
 20
316.10310873856622
 30
0.0
 40
2.00000007
 50
270.0
 51
0.0
  0
ARC
  5
3419
  8
AM_0
 10
322.2081309447592
 20
307.93029873856642
 30
0.0
 40
2.00000007
 50
179.999989999999
 51
270.0
  0
ARC
  5
341A
  8
AM_0
 10
323.2080609447595
 20
303.93030873856628
 30
0.0
 40
2.00000007
 50
0.0
 51
90.00000299999769
  0
ARC
  5
341B
  8
AM_0
 10
318.20811094475948
 20
292.46400873856618
 30
0.0
 40
2.00000007
 50
270.0
 51
0.0
  0
ARC
  5
341C
  8
AM_0
 10
318.20811094475948
 20
211.22020773856639
 30
0.0
 40
2.00000007
 50
0.0
 51
90.00000299999769
  0
LINE
  5
3917
  8
AM_0
 10
400.20805094475912
 20
315.93595073856631
 30
0.0
 11
405.20805094475901
 21
310.93595073856648
 31
0.0
  0
LINE
  5
3918
  8
AM_0
 10
395.70805094475918
 20
315.93595073856631
 30
0.0
 11
400.20805094475918
 21
315.93595073856631
 31
0.0
  0
LINE
  5
3919
  8
AM_0
 10
395.20805094475929
 20
315.43595073856642
 30
0.0
 11
395.20805094475878
 21
249.4359507385669
 31
0.0
  0
LINE
  5
391A
  8
AM_0
 10
405.20805094475901
 20
310.93595073856648
 30
0.0
 11
405.20805094475918
 21
253.9359507385665
 31
0.0
  0
LINE
  5
391B
  8
AM_0
 10
395.70805094475918
 20
248.93595073856639
 30
0.0
 11
400.20805094475912
 21
248.93595073856639
 31
0.0
  0
LINE
  5
391C
  8
AM_0
 10
400.20805094475912
 20
248.93595073856639
 30
0.0
 11
405.20805094475901
 21
253.9359507385665
 31
0.0
  0
LINE
  5
391D
  8
AM_0
 10
395.70805094475918
 20
315.93595073856631
 30
0.0
 11
395.20805094475929
 21
315.43595073856642
 31
0.0
1001
GENIUS_GENFIL_13
1070
     0
1040
0.5
1040
0.5
1040
20.0
1040
0.0
1002
{
1002
}
1001
GENIUS_GENOBJ-N-CHA_13
1002
{
1000
OWNER
1000
GEN
1002
}
1001
GENIUS_GENODEF_13
1002
{
1000
HIER
1070
     0
1002
}
1002
{
1000
MANEDIT
1070
     0
1002
}
1002
{
1000
NOSEL
1070
     0
1002
}
1002
{
1000
BEHIND
1070
     0
1002
}
1002
{
1000
OTHER
1070
     0
1002
}
1002
{
1000
REACTOR
1002
}
  0
LINE
  5
391E
  8
AM_0
 10
395.20805094475929
 20
249.43595073856631
 30
0.0
 11
395.70805094475918
 21
248.93595073856639
 31
0.0
1001
GENIUS_GENFIL_13
1070
     0
1040
0.5
1040
0.5
1040
20.0
1040
0.0
1002
{
1002
}
1001
GENIUS_GENOBJ-N-CHA_13
1002
{
1000
OWNER
1000
GEN
1002
}
1001
GENIUS_GENODEF_13
1002
{
1000
HIER
1070
     0
1002
}
1002
{
1000
MANEDIT
1070
     0
1002
}
1002
{
1000
NOSEL
1070
     0
1002
}
1002
{
1000
BEHIND
1070
     0
1002
}
1002
{
1000
OTHER
1070
     0
1002
}
1002
{
1000
REACTOR
1002
}
  0
LINE
  5
3927
  8
AM_0
 10
400.20805094475918
 20
315.93595073856631
 30
0.0
 11
400.20805094475912
 21
248.93595073856639
 31
0.0
  0
CIRCLE
  5
3928
  8
AM_0
 10
643.82661649088914
 20
282.43595373856641
 30
0.0
 40
33.499999999999893
  0
CIRCLE
  5
3929
  8
AM_0
 10
643.82661649088914
 20
282.43595373856641
 30
0.0
 40
28.49999999999994
  0
ARC
  5
392A
  8
AM_0
 10
643.82661649088914
 20
267.43595373856641
 30
0.0
 40
48.0
 50
102.336484978735
 51
180.00001000000091
  0
LINE
  5
4596
  8
AM_0
 10
283.20810094475968
 20
224.2128687385663
 30
0.0
 11
286.20810094475962
 21
224.2128687385663
 31
0.0
  0
LINE
  5
4597
  8
AM_0
 10
283.20810094475962
 20
300.65896773856622
 30
0.0
 11
286.20810094475962
 21
300.65896773856622
 31
0.0
  0
LINE
  5
4598
  8
AM_0
 10
181.4145309447596
 20
206.1527007385663
 30
0.0
 11
278.33427094475962
 21
206.1527007385663
 31
0.0
  0
LINE
  5
4599
  8
AM_0
 10
179.88603094475951
 20
225.7128687385663
 30
0.0
 11
187.20810094475959
 21
225.71286873856641
 31
0.0
  0
LINE
  5
459A
  8
AM_0
 10
187.20810094475959
 20
228.43595073856631
 30
0.0
 11
180.57351094475951
 21
228.43595073856631
 31
0.0
  0
LINE
  5
459B
  8
AM_0
 10
187.20810094475959
 20
226.4359527385663
 30
0.0
 11
180.57351094475951
 21
226.4359527385663
 31
0.0
  0
LINE
  5
459C
  8
AM_0
 10
187.20810094475959
 20
298.43596773856632
 30
0.0
 11
180.57351094475951
 21
298.43596773856632
 31
0.0
  0
LINE
  5
459D
  8
AM_0
 10
187.20810094475959
 20
296.43595473856618
 30
0.0
 11
180.57351094475951
 21
296.43595473856618
 31
0.0
  0
LINE
  5
459E
  8
AM_0
 10
179.88540094475951
 20
299.15896773856622
 30
0.0
 11
187.20810094475959
 21
299.15896773856622
 31
0.0
  0
LINE
  5
459F
  8
AM_0
 10
181.4145309447596
 20
318.71920773856641
 30
0.0
 11
278.33427094475962
 21
318.71920773856641
 31
0.0
  0
ARC
  5
45A0
  8
AM_0
 10
179.88540094475951
 20
297.48105873856622
 30
0.0
 40
1.6779127499999991
 50
90.000003000000945
 51
270.0
  0
ARC
  5
45A1
  8
AM_0
 10
180.7574709447596
 20
297.43595373856641
 30
0.0
 40
1.0000000199999981
 50
90.000003000000945
 51
270.0
  0
LINE
  5
45A2
  8
AM_0
 10
178.20810094475959
 20
315.43594773856643
 30
0.0
 11
178.20810094475959
 21
249.03595273856629
 31
0.0
  0
LINE
  5
45A3
  8
AM_0
 10
178.20810094475959
 20
235.83595273856631
 30
0.0
 11
178.20810094475959
 21
212.99571873856641
 31
0.0
  0
LINE
  5
45A4
  8
AM_0
 10
183.57357094475969
 20
225.78467673856639
 30
0.0
 11
178.20816094475941
 21
214.34020173856641
 31
0.0
  0
ARC
  5
45A5
  8
AM_0
 10
215.2080909447595
 20
205.30631073856631
 30
0.0
 40
2.00000007
 50
270.0
 51
0.0
  0
ARC
  5
45A6
  8
AM_0
 10
215.2080909447595
 20
202.54801173856629
 30
0.0
 40
2.00000007
 50
270.0
 51
0.0
  0
LINE
  5
45A7
  8
AM_0
 10
217.20810094475959
 20
202.54801173856629
 30
0.0
 11
217.20810094475959
 21
206.1527007385663
 31
0.0
  0
ARC
  5
45A8
  8
AM_0
 10
215.2080909447595
 20
203.45853273856639
 30
0.0
 40
2.00000007
 50
270.0
 51
0.0
  0
LINE
  5
45A9
  8
AM_0
 10
178.20810094475959
 20
214.3401717385664
 30
0.0
 11
179.44932094475951
 21
207.7808157385663
 31
0.0
  0
LINE
  5
45AA
  8
AM_0
 10
178.20810094475959
 20
212.9956437385664
 30
0.0
 11
179.48820094475951
 21
204.9904707385663
 31
0.0
  0
LINE
  5
45AB
  8
AM_0
 10
178.2080409447594
 20
211.6511157385664
 30
0.0
 11
179.4991209447596
 21
203.15799573856631
 31
0.0
  0
ARC
  5
45AC
  8
AM_0
 10
181.4145309447596
 20
208.1526867385663
 30
0.0
 40
2.00000007
 50
190.71568999999951
 51
270.0
  0
ARC
  5
45AD
  8
AM_0
 10
181.46310094475959
 20
205.30631073856631
 30
0.0
 40
2.00000007
 50
189.08497000000031
 51
270.0
  0
LINE
  5
45AE
  8
AM_0
 10
170.70811094475951
 20
209.43596673856629
 30
0.0
 11
178.20810094475959
 21
209.43596673856629
 31
0.0
  0
ARC
  5
45AF
  8
AM_0
 10
181.4977809447596
 20
202.54801173856629
 30
0.0
 40
2.00000007
 50
187.94403999999901
 51
270.0
  0
LINE
  5
45B0
  8
AM_0
 10
178.2080409447594
 20
211.6510707385664
 30
0.0
 11
179.5169409447596
 21
202.27162773856631
 31
0.0
  0
ARC
  5
45B1
  8
AM_0
 10
181.47648094475969
 20
203.45853273856639
 30
0.0
 40
2.00000007
 50
188.6433899999989
 51
270.0
  0
LINE
  5
45B2
  8
AM_0
 10
181.46310094475959
 20
203.3063277385663
 30
0.0
 11
215.2080909447595
 21
203.3063277385663
 31
0.0
  0
LINE
  5
45B3
  8
AM_0
 10
181.47648094475969
 20
201.45853473856641
 30
0.0
 11
215.2080909447595
 21
201.45853473856641
 31
0.0
  0
LINE
  5
45B4
  8
AM_0
 10
181.4977809447596
 20
200.54802573856639
 30
0.0
 11
215.2080909447595
 21
200.54802573856639
 31
0.0
  0
POLYLINE
  5
45B5
  8
AM_0
 66
     1
 10
0.0
 20
0.0
 30
0.0
  0
VERTEX
  5
45B6
  8
AM_0
 10
182.14193991876789
 20
289.43595273856641
 30
0.0
  0
VERTEX
  5
45B7
  8
AM_0
 10
183.03081094475959
 20
295.80452373856622
 30
0.0
 42
-1.0
  0
SEQEND
  5
45B8
  8
AM_0
  0
LINE
  5
45B9
  8
AM_0
 10
179.88540094475951
 20
295.8031407385663
 30
0.0
 11
187.20810094475959
 21
295.8031407385663
 31
0.0
  0
POLYLINE
  5
45BA
  8
AM_0
 66
     1
 10
0.0
 20
0.0
 30
0.0
  0
VERTEX
  5
45BB
  8
AM_0
 10
182.35129218849511
 20
233.9359527385663
 30
0.0
  0
VERTEX
  5
45BC
  8
AM_0
 10
183.03081094475959
 20
229.06737573856631
 30
0.0
 42
-1.0
  0
SEQEND
  5
45BD
  8
AM_0
  0
ARC
  5
45BE
  8
AM_0
 10
179.88603094475951
 20
227.39078673856631
 30
0.0
 40
1.6779175200000001
 50
90.000003000000945
 51
270.0
  0
ARC
  5
45BF
  8
AM_0
 10
180.7574709447596
 20
227.43596673856629
 30
0.0
 40
1.0000000199999981
 50
90.000003000000945
 51
270.0
  0
LINE
  5
45C0
  8
AM_0
 10
170.90622094475961
 20
219.24448473856631
 30
0.0
 11
177.13602094475971
 21
219.24448473856631
 31
0.0
  0
LINE
  5
45C1
  8
AM_0
 10
179.88603094475951
 20
229.0687197385663
 30
0.0
 11
187.20810094475959
 21
229.06871973856639
 31
0.0
  0
ARC
  5
45C2
  8
AM_0
 10
215.2080909447595
 20
319.56559773856623
 30
0.0
 40
2.00000007
 50
0.0
 51
90.000003000000945
  0
ARC
  5
45C3
  8
AM_0
 10
215.2080909447595
 20
321.41329773856643
 30
0.0
 40
2.00000007
 50
0.0
 51
90.000003000000945
  0
ARC
  5
45C4
  8
AM_0
 10
215.2080909447595
 20
322.32382773856642
 30
0.0
 40
2.00000007
 50
0.0
 51
90.000003000000945
  0
LINE
  5
45C5
  8
AM_0
 10
217.20810094475959
 20
322.32382773856642
 30
0.0
 11
217.20810094475959
 21
318.71920773856641
 31
0.0
  0
ARC
  5
45C6
  8
AM_0
 10
181.4145309447596
 20
316.71922773856642
 30
0.0
 40
2.00000007
 50
90.000003000000945
 51
169.2843100000004
  0
ARC
  5
45C7
  8
AM_0
 10
181.46310094475959
 20
319.56559773856623
 30
0.0
 40
2.00000007
 50
90.000003000000945
 51
170.9150299999996
  0
ARC
  5
45C8
  8
AM_0
 10
181.47648094475969
 20
321.41329773856643
 30
0.0
 40
2.00000007
 50
90.000003000000945
 51
171.35661000000101
  0
ARC
  5
45C9
  8
AM_0
 10
181.4977809447596
 20
322.32382773856642
 30
0.0
 40
2.00000007
 50
90.000003000000945
 51
172.05596000000091
  0
LINE
  5
45CA
  8
AM_0
 10
178.20810094475959
 20
311.87620773856622
 30
0.0
 11
179.48814094475961
 21
319.88134773856638
 31
0.0
  0
LINE
  5
45CB
  8
AM_0
 10
178.20810094475959
 20
313.22080773856629
 30
0.0
 11
179.4991209447596
 21
321.71386773856642
 31
0.0
  0
LINE
  5
45CC
  8
AM_0
 10
178.20810094475959
 20
313.22080773856629
 30
0.0
 11
179.5169409447596
 21
322.60021773856641
 31
0.0
  0
LINE
  5
45CD
  8
AM_0
 10
178.20810094475959
 20
310.53166773856623
 30
0.0
 11
179.44938094475961
 21
317.0910777385663
 31
0.0
  0
LINE
  5
45CE
  8
AM_0
 10
170.70811094475951
 20
315.43594773856643
 30
0.0
 11
178.20810094475959
 21
315.43594773856643
 31
0.0
  0
LINE
  5
45CF
  8
AM_0
 10
170.90622094475961
 20
305.62735773856622
 30
0.0
 11
177.13602094475971
 21
305.62735773856622
 31
0.0
  0
LINE
  5
45D0
  8
AM_0
 10
183.57351094475951
 20
299.08714773856627
 30
0.0
 11
178.20810094475959
 21
310.53163773856642
 31
0.0
  0
LINE
  5
45D1
  8
AM_0
 10
181.46310094475959
 20
321.56560773856643
 30
0.0
 11
215.2080909447595
 21
321.56560773856643
 31
0.0
  0
LINE
  5
45D2
  8
AM_0
 10
181.47648094475969
 20
323.4133077385664
 30
0.0
 11
215.2080909447595
 21
323.4133077385664
 31
0.0
  0
LINE
  5
45D3
  8
AM_0
 10
181.4977809447596
 20
324.32383773856623
 30
0.0
 11
215.2080909447595
 21
324.32383773856623
 31
0.0
  0
ARC
  5
45D4
  8
AM_0
 10
283.03020094475971
 20
297.48105873856622
 30
0.0
 40
1.6779127499999991
 50
276.08620038402
 51
83.913799615980011
  0
LINE
  5
45D5
  8
ﾁｭｳｼﾝｾﾝ1
 10
235.20810094475959
 20
313.4359527385663
 30
0.0
 11
235.20810094475959
 21
211.4359527385663
 31
0.0
  0
LINE
  5
45D6
  8
AM_0
 10
286.20810094475962
 20
318.43594773856643
 30
0.0
 11
286.20810094475962
 21
206.43596673856629
 31
0.0
  0
LINE
  5
45D7
  8
AM_0
 10
170.70811094475951
 20
315.43594773856643
 30
0.0
 11
170.70811094475951
 21
289.43595273856641
 31
0.0
  0
LINE
  5
45D8
  8
AM_0
 10
170.70811094475951
 20
265.43595273856653
 30
0.0
 11
170.70811094475951
 21
250.93595273856789
 31
0.0
  0
LINE
  5
45D9
  8
AM_0
 10
170.70811094475951
 20
233.9359527385657
 30
0.0
 11
170.70811094475951
 21
209.43596673856629
 31
0.0
  0
LINE
  5
45DA
  8
AM_0
 10
284.70810094475962
 20
224.2129137385663
 30
0.0
 11
280.26609094475958
 21
207.6350487385663
 31
0.0
  0
LINE
  5
45DB
  8
AM_0
 10
286.20810094475962
 20
206.43596673856629
 30
0.0
 11
294.20811094475948
 21
206.43596673856629
 31
0.0
  0
LINE
  5
45DC
  8
AM_0
 10
280.74864094475947
 20
209.43596673856629
 30
0.0
 11
286.20810094475962
 21
209.43596673856629
 31
0.0
  0
ARC
  5
45DD
  8
AM_0
 10
278.33427094475962
 20
208.1526867385663
 30
0.0
 40
2.00000007
 50
270.0
 51
344.99999999999841
  0
LINE
  5
45DE
  8
AM_0
 10
286.20810094475962
 20
294.37339173856623
 30
0.0
 11
294.20811094475948
 21
294.37339173856623
 31
0.0
  0
LINE
  5
45DF
  8
AM_0
 10
286.20810094475962
 20
230.49851373856629
 30
0.0
 11
294.20811094475948
 21
230.49851373856629
 31
0.0
  0
LINE
  5
45E0
  8
AM_0
 10
286.20810094475962
 20
216.43595073856631
 30
0.0
 11
294.20811094475948
 21
216.43595073856631
 31
0.0
  0
ARC
  5
45E1
  8
AM_0
 10
283.03020094475971
 20
227.39078673856631
 30
0.0
 40
1.6779127499999991
 50
276.08620038402319
 51
83.913799615976814
  0
LINE
  5
45E2
  8
AM_0
 10
286.20810094475962
 20
318.43594773856643
 30
0.0
 11
294.20811094475948
 21
318.43594773856643
 31
0.0
  0
LINE
  5
45E3
  8
AM_0
 10
286.20810094475962
 20
308.43595773856617
 30
0.0
 11
294.20811094475948
 21
308.43595773856617
 31
0.0
  0
LINE
  5
45E4
  8
AM_0
 10
280.74864094475947
 20
315.43594773856643
 30
0.0
 11
286.20810094475962
 21
315.43594773856643
 31
0.0
  0
ARC
  5
45E5
  8
AM_0
 10
278.33427094475962
 20
316.71922773856642
 30
0.0
 40
2.00000007
 50
15.000000000001579
 51
90.000003000000945
  0
ARC
  5
45E6
  8
AM_0
 10
285.85911094475972
 20
302.15896773856622
 30
0.0
 40
1.5000000299999989
 50
195.00000999999889
 51
270.0
  0
LINE
  5
45E7
  8
AM_0
 10
284.4102609447595
 20
301.77076773856641
 30
0.0
 11
280.26609094475958
 21
317.23684773856638
 31
0.0
  0
LINE
  5
45E9
  8
AM_0
 10
279.20810094475968
 20
216.4359527385663
 30
0.0
 11
191.20810094475959
 21
216.4359527385663
 31
0.0
  0
ARC
  5
45EA
  8
AM_0
 10
209.27916875662501
 20
221.4359527385663
 30
0.0
 40
5.0
 50
225.0
 51
270.0
1001
GENIUS_GENOBJ-N-FIL_13
1002
{
1000
OWNER
1000
GEN
1002
}
1001
GENIUS_GENODEF_13
1002
{
1000
HIER
1070
     0
1002
}
1002
{
1000
MANEDIT
1070
     0
1002
}
1002
{
1000
NOSEL
1070
     0
1002
}
1002
{
1000
BEHIND
1070
     0
1002
}
1002
{
1000
OTHER
1070
     0
1002
}
1002
{
1000
REACTOR
1002
}
  0
LINE
  5
45EB
  8
AM_0
 10
260.48017888340189
 20
221.4359527385663
 30
0.0
 11
209.93602300611741
 21
221.4359527385663
 31
0.0
  0
ARC
  5
45EC
  8
AM_0
 10
260.48017888340189
 20
226.4359527385663
 30
0.0
 40
5.0
 50
270.0
 51
315.0
1001
GENIUS_GENOBJ-N-FIL_13
1002
{
1000
OWNER
1000
GEN
1002
}
1001
GENIUS_GENODEF_13
1002
{
1000
HIER
1070
     0
1002
}
1002
{
1000
MANEDIT
1070
     0
1002
}
1002
{
1000
NOSEL
1070
     0
1002
}
1002
{
1000
BEHIND
1070
     0
1002
}
1002
{
1000
OTHER
1070
     0
1002
}
1002
{
1000
REACTOR
1002
}
  0
ARC
  5
45ED
  8
AM_0
 10
279.20810094475968
 20
220.4359527385661
 30
0.0
 40
4.0
 50
270.0
 51
0.0
1001
GENIUS_GENOBJ-N-FIL_13
1002
{
1000
OWNER
1000
GEN
1002
}
1001
GENIUS_GENODEF_13
1002
{
1000
HIER
1070
     0
1002
}
1002
{
1000
MANEDIT
1070
     0
1002
}
1002
{
1000
NOSEL
1070
     0
1002
}
1002
{
1000
BEHIND
1070
     0
1002
}
1002
{
1000
OTHER
1070
     0
1002
}
1002
{
1000
REACTOR
1002
}
  0
LINE
  5
45EE
  8
AM_0
 10
279.20810094475962
 20
308.43595273856653
 30
0.0
 11
191.20810094475959
 21
308.43595273856641
 31
0.0
  0
ARC
  5
45EF
  8
AM_0
 10
261.13703313289409
 20
303.43595273856653
 30
0.0
 40
5.0
 50
45.0
 51
90.0
1001
GENIUS_GENOBJ-N-FIL_13
1002
{
1000
OWNER
1000
GEN
1002
}
1001
GENIUS_GENODEF_13
1002
{
1000
HIER
1070
     0
1002
}
1002
{
1000
MANEDIT
1070
     0
1002
}
1002
{
1000
NOSEL
1070
     0
1002
}
1002
{
1000
BEHIND
1070
     0
1002
}
1002
{
1000
OTHER
1070
     0
1002
}
1002
{
1000
REACTOR
1002
}
  0
ARC
  5
45F0
  8
AM_0
 10
209.2791687566253
 20
303.43595273856653
 30
0.0
 40
5.0
 50
90.0
 51
135.0
1001
GENIUS_GENODEF_13
1002
{
1000
HIER
1070
     0
1002
}
1002
{
1000
MANEDIT
1070
     0
1002
}
1002
{
1000
NOSEL
1070
     0
1002
}
1002
{
1000
BEHIND
1070
     0
1002
}
1002
{
1000
OTHER
1070
     0
1002
}
1002
{
1000
REACTOR
1002
}
1001
GENIUS_GENOBJ-N-FIL_13
1002
{
1000
OWNER
1000
GEN
1002
}
  0
LINE
  5
45F1
  8
AM_0
 10
260.48017888340161
 20
303.43595273856641
 30
0.0
 11
209.93602300611749
 21
303.43595273856653
 31
0.0
  0
ARC
  5
45F2
  8
AM_0
 10
209.93602300611749
 20
298.43595273856653
 30
0.0
 40
5.0
 50
90.0
 51
135.0
1001
GENIUS_GENODEF_13
1002
{
1000
HIER
1070
     0
1002
}
1002
{
1000
MANEDIT
1070
     0
1002
}
1002
{
1000
NOSEL
1070
     0
1002
}
1002
{
1000
BEHIND
1070
     0
1002
}
1002
{
1000
OTHER
1070
     0
1002
}
1002
{
1000
REACTOR
1002
}
1001
GENIUS_GENOBJ-N-FIL_13
1002
{
1000
OWNER
1000
GEN
1002
}
  0
ARC
  5
45F3
  8
AM_0
 10
191.20810094475959
 20
304.43595273856641
 30
0.0
 40
4.0
 50
90.0
 51
180.0
1001
GENIUS_GENODEF_13
1002
{
1000
HIER
1070
     0
1002
}
1002
{
1000
MANEDIT
1070
     0
1002
}
1002
{
1000
NOSEL
1070
     0
1002
}
1002
{
1000
BEHIND
1070
     0
1002
}
1002
{
1000
OTHER
1070
     0
1002
}
1002
{
1000
REACTOR
1002
}
1001
GENIUS_GENOBJ-N-FIL_13
1002
{
1000
OWNER
1000
GEN
1002
}
  0
LINE
  5
45F4
  8
AM_0
 10
187.20810094475959
 20
304.43595273856641
 30
0.0
 11
187.20810094475959
 21
220.4359527385663
 31
0.0
  0
ARC
  5
45F5
  8
AM_0
 10
192.20810094475959
 20
238.5070205504316
 30
0.0
 40
5.0
 50
180.0
 51
225.0
1001
GENIUS_GENOBJ-N-FIL_13
1002
{
1000
OWNER
1000
GEN
1002
}
1001
GENIUS_GENODEF_13
1002
{
1000
HIER
1070
     0
1002
}
1002
{
1000
MANEDIT
1070
     0
1002
}
1002
{
1000
NOSEL
1070
     0
1002
}
1002
{
1000
BEHIND
1070
     0
1002
}
1002
{
1000
OTHER
1070
     0
1002
}
1002
{
1000
REACTOR
1002
}
  0
ARC
  5
45F6
  8
AM_0
 10
192.20810094475959
 20
286.36488492670122
 30
0.0
 40
5.0
 50
135.0
 51
180.0
1001
GENIUS_GENOBJ-N-FIL_13
1002
{
1000
OWNER
1000
GEN
1002
}
1001
GENIUS_GENODEF_13
1002
{
1000
HIER
1070
     0
1002
}
1002
{
1000
MANEDIT
1070
     0
1002
}
1002
{
1000
NOSEL
1070
     0
1002
}
1002
{
1000
BEHIND
1070
     0
1002
}
1002
{
1000
OTHER
1070
     0
1002
}
1002
{
1000
REACTOR
1002
}
  0
LINE
  5
45F7
  8
AM_0
 10
192.20810094475959
 20
285.70803067720863
 30
0.0
 11
192.20810094475951
 21
239.163874799924
 31
0.0
  0
ARC
  5
45F8
  8
AM_0
 10
197.20810094475951
 20
239.163874799924
 30
0.0
 40
5.0
 50
180.0
 51
225.0
1001
GENIUS_GENOBJ-N-FIL_13
1002
{
1000
OWNER
1000
GEN
1002
}
1001
GENIUS_GENODEF_13
1002
{
1000
HIER
1070
     0
1002
}
1002
{
1000
MANEDIT
1070
     0
1002
}
1002
{
1000
NOSEL
1070
     0
1002
}
1002
{
1000
BEHIND
1070
     0
1002
}
1002
{
1000
OTHER
1070
     0
1002
}
1002
{
1000
REACTOR
1002
}
  0
ARC
  5
45F9
  8
AM_0
 10
191.20810094475959
 20
220.4359527385663
 30
0.0
 40
4.0
 50
180.0
 51
270.0
1001
GENIUS_GENODEF_13
1002
{
1000
HIER
1070
     0
1002
}
1002
{
1000
MANEDIT
1070
     0
1002
}
1002
{
1000
NOSEL
1070
     0
1002
}
1002
{
1000
BEHIND
1070
     0
1002
}
1002
{
1000
OTHER
1070
     0
1002
}
1002
{
1000
REACTOR
1002
}
1001
GENIUS_GENOBJ-N-FIL_13
1002
{
1000
OWNER
1000
GEN
1002
}
  0
LINE
  5
45FA
  8
AM_0
 10
283.20810094475962
 20
304.43595273856653
 30
0.0
 11
283.20810094475968
 21
220.4359527385661
 31
0.0
  0
ARC
  5
45FB
  8
AM_0
 10
278.20810094475968
 20
286.364884926701
 30
0.0
 40
5.0
 50
0.0
 51
45.0
1001
GENIUS_GENOBJ-N-FIL_13
1002
{
1000
OWNER
1000
GEN
1002
}
1001
GENIUS_GENODEF_13
1002
{
1000
HIER
1070
     0
1002
}
1002
{
1000
MANEDIT
1070
     0
1002
}
1002
{
1000
NOSEL
1070
     0
1002
}
1002
{
1000
BEHIND
1070
     0
1002
}
1002
{
1000
OTHER
1070
     0
1002
}
1002
{
1000
REACTOR
1002
}
  0
ARC
  5
45FC
  8
AM_0
 10
278.20810094475979
 20
238.5070205504316
 30
0.0
 40
5.0
 50
315.0
 51
0.0
1001
GENIUS_GENOBJ-N-FIL_13
1002
{
1000
OWNER
1000
GEN
1002
}
1001
GENIUS_GENODEF_13
1002
{
1000
HIER
1070
     0
1002
}
1002
{
1000
MANEDIT
1070
     0
1002
}
1002
{
1000
NOSEL
1070
     0
1002
}
1002
{
1000
BEHIND
1070
     0
1002
}
1002
{
1000
OTHER
1070
     0
1002
}
1002
{
1000
REACTOR
1002
}
  0
LINE
  5
45FD
  8
AM_0
 10
264.6725670388268
 20
306.97148664449918
 30
0.0
 11
281.74363485069239
 21
289.9004188326337
 31
0.0
  0
LINE
  5
45FE
  8
AM_0
 10
264.01571278933437
 20
301.97148664449912
 30
0.0
 11
276.74363485069227
 21
289.24356458314151
 31
0.0
  0
ARC
  5
45FF
  8
AM_0
 10
260.48017888340161
 20
298.4359527385663
 30
0.0
 40
5.0
 50
45.0
 51
90.0
1001
GENIUS_GENOBJ-N-FIL_13
1002
{
1000
OWNER
1000
GEN
1002
}
1001
GENIUS_GENODEF_13
1002
{
1000
HIER
1070
     0
1002
}
1002
{
1000
MANEDIT
1070
     0
1002
}
1002
{
1000
NOSEL
1070
     0
1002
}
1002
{
1000
BEHIND
1070
     0
1002
}
1002
{
1000
OTHER
1070
     0
1002
}
1002
{
1000
REACTOR
1002
}
  0
LINE
  5
4600
  8
AM_0
 10
278.20810094475951
 20
285.7080306772088
 30
0.0
 11
278.20810094475979
 21
239.163874799924
 31
0.0
  0
ARC
  5
4601
  8
AM_0
 10
273.20810094475951
 20
285.7080306772088
 30
0.0
 40
5.0
 50
0.0
 51
45.0
1001
GENIUS_GENODEF_13
1002
{
1000
HIER
1070
     0
1002
}
1002
{
1000
MANEDIT
1070
     0
1002
}
1002
{
1000
NOSEL
1070
     0
1002
}
1002
{
1000
BEHIND
1070
     0
1002
}
1002
{
1000
OTHER
1070
     0
1002
}
1002
{
1000
REACTOR
1002
}
1001
GENIUS_GENOBJ-N-FIL_13
1002
{
1000
OWNER
1000
GEN
1002
}
  0
ARC
  5
4602
  8
AM_0
 10
279.20810094475962
 20
304.43595273856653
 30
0.0
 40
4.0
 50
0.0
 51
90.0
1001
GENIUS_GENODEF_13
1002
{
1000
HIER
1070
     0
1002
}
1002
{
1000
MANEDIT
1070
     0
1002
}
1002
{
1000
NOSEL
1070
     0
1002
}
1002
{
1000
BEHIND
1070
     0
1002
}
1002
{
1000
OTHER
1070
     0
1002
}
1002
{
1000
REACTOR
1002
}
1001
GENIUS_GENOBJ-N-FIL_13
1002
{
1000
OWNER
1000
GEN
1002
}
  0
LINE
  5
4603
  8
ﾁｭｳｼﾝｾﾝ1
 10
278.2081009447611
 20
297.43595273856602
 30
0.0
 11
278.20810094476172
 21
309.43595273856602
 31
0.0
  0
LINE
  5
4604
  8
ﾁｭｳｼﾝｾﾝ1
 10
284.20810094476138
 20
303.43595273856567
 30
0.0
 11
272.20810094476138
 21
303.43595273856641
 31
0.0
  0
LINE
  5
4605
  8
AM_0
 10
183.70810094475959
 20
290.93595273856641
 30
0.0
 11
186.20810094475951
 21
290.93595273856653
 31
0.0
  0
LINE
  5
4606
  8
AM_0
 10
186.20810094475959
 20
263.93595273856653
 30
0.0
 11
183.70810094475959
 21
263.93595273856641
 31
0.0
  0
LINE
  5
4607
  8
AM_0
 10
172.80942984841349
 20
266.93595273856653
 30
0.0
 11
172.80942984841349
 21
287.93595273856641
 31
0.0
  0
LINE
  5
4608
  8
AM_0
 10
157.8094298484136
 20
285.46757779258138
 30
0.0
 11
157.8094298484136
 21
269.40432768455048
 31
0.0
  0
LINE
  5
4609
  8
AM_0
 10
170.8094298484136
 20
265.43595273856653
 30
0.0
 11
170.8094298484136
 21
289.43595273856641
 31
0.0
  0
LINE
  5
460A
  8
AM_0
 10
161.3094298484136
 20
277.43595273856653
 30
0.0
 11
161.8094298484136
 21
276.93595273856653
 31
0.0
  0
LINE
  5
460B
  8
AM_0
 10
168.3094298484136
 20
289.13595273856629
 30
0.0
 11
168.3094298484136
 21
265.73595273856643
 31
0.0
  0
LINE
  5
460C
  8
AM_0
 10
178.20810094475959
 20
288.93595273856641
 30
0.0
 11
178.20810094475959
 21
265.93595273856641
 31
0.0
  0
LINE
  5
460D
  8
AM_0
 10
172.30942984841349
 20
276.73595273856438
 30
0.0
 11
172.30942984841349
 21
278.13595273856743
 31
0.0
  0
LINE
  5
460E
  8
AM_0
 10
174.4090655749846
 20
268.3359527385665
 30
0.0
 11
173.65906557498559
 21
286.53595273856649
 31
0.0
  0
LINE
  5
460F
  8
AM_0
 10
173.45810094475959
 20
268.3359527385665
 30
0.0
 11
172.80942984841349
 21
284.07703800988247
 31
0.0
  0
LINE
  5
4610
  8
AM_0
 10
174.2067935353316
 20
267.62029402620249
 30
0.0
 11
173.45953349192359
 21
287.24832449973343
 31
0.0
  0
LINE
  5
4611
  8
AM_0
 10
173.65763302782159
 20
267.62358097739838
 30
0.0
 11
172.90906557498559
 21
287.28595273856638
 31
0.0
  0
LINE
  5
4612
  8
AM_0
 10
170.8094298484136
 20
289.43595273856641
 30
0.0
 11
168.60942984841361
 21
289.43595273856641
 31
0.0
  0
ARC
  5
4613
  8
AM_0
 10
182.70810094475971
 20
289.93595273856641
 30
0.0
 40
0.5
 50
269.99999999998693
 51
0.0
  0
ARC
  5
4614
  8
AM_0
 10
183.70810094475971
 20
290.4359527385663
 30
0.0
 40
0.5
 50
90.0
 51
180.0
  0
LINE
  5
4615
  8
AM_0
 10
183.20810094475959
 20
289.93595273856641
 30
0.0
 11
183.20810094475959
 21
290.4359527385663
 31
0.0
  0
LINE
  5
4616
  8
AM_0
 10
174.20810094475959
 20
286.53595273856649
 30
0.0
 11
177.70810094475959
 21
286.53595273856638
 31
0.0
  0
LINE
  5
4617
  8
AM_0
 10
183.20810094475959
 20
288.29202405997341
 30
0.0
 11
183.20810094475959
 21
278.5798814171585
 31
0.0
  0
LINE
  5
4618
  8
AM_0
 10
178.70810094475959
 20
289.43595273856641
 30
0.0
 11
182.70810094475951
 21
289.43595273856641
 31
0.0
  0
LINE
  5
4619
  8
AM_0
 10
182.70810094475959
 20
288.79202405997341
 30
0.0
 11
178.20810094475959
 21
288.79202405997341
 31
0.0
  0
ARC
  5
461A
  8
AM_0
 10
182.70810094475971
 20
288.29202405997341
 30
0.0
 40
0.5
 50
0.0
 51
90.0
  0
ARC
  5
461B
  8
AM_0
 10
177.70810094475959
 20
287.03595273856638
 30
0.0
 40
0.5
 50
270.0
 51
0.0
  0
ARC
  5
461C
  8
AM_0
 10
178.70810094475959
 20
288.93595273856641
 30
0.0
 40
0.5
 50
90.0
 51
180.0
  0
LINE
  5
461D
  8
AM_0
 10
182.70810094475959
 20
278.0798814171585
 30
0.0
 11
178.20810094475959
 21
278.0798814171585
 31
0.0
  0
ARC
  5
461E
  8
AM_0
 10
182.70810094475959
 20
278.57988141715839
 30
0.0
 40
0.5
 50
270.0
 51
0.0
  0
LINE
  5
461F
  8
AM_0
 10
172.30942984841349
 20
283.58112349085837
 30
0.0
 11
172.30942984841349
 21
282.4088803044254
 31
0.0
  0
LINE
  5
4620
  8
AM_0
 10
173.73579800341059
 20
286.53595273856649
 30
0.0
 11
174.20810094475959
 21
286.53595273856649
 31
0.0
  0
LINE
  5
4621
  8
AM_0
 10
173.63920550887141
 20
286.61007050530287
 30
0.0
 11
173.65906557498559
 21
286.53595273856649
 31
0.0
  0
ARC
  5
4622
  8
AM_0
 10
173.73579800341059
 20
286.6359527385664
 30
0.0
 40
0.1000000000000346
 50
195.00019500644461
 51
270.0
  0
ARC
  5
4623
  8
AM_0
 10
172.00942984841359
 20
286.7227857190743
 30
0.0
 40
0.3000000000000043
 50
270.0
 51
0.0
  0
LINE
  5
4624
  8
AM_0
 10
170.8094298484136
 20
288.83595273856628
 30
0.0
 11
172.0293855515707
 21
288.7546223583555
 31
0.0
  0
LINE
  5
4625
  8
AM_0
 10
170.8094298484136
 20
287.67970070272628
 30
0.0
 11
172.00942984841359
 21
287.67970070272628
 31
0.0
  0
LINE
  5
4626
  8
AM_0
 10
172.30942984841349
 20
288.4359527385663
 30
0.0
 11
170.8094298484136
 21
288.4359527385663
 31
0.0
  0
ARC
  5
4627
  8
AM_0
 10
172.30942984841349
 20
287.93595273856641
 30
0.0
 40
0.5
 50
0.0
 51
90.0
  0
LINE
  5
4628
  8
AM_0
 10
172.30942984841349
 20
288.45528681099842
 30
0.0
 11
172.30942984841349
 21
288.4359527385663
 31
0.0
  0
ARC
  5
4629
  8
AM_0
 10
172.00942984841359
 20
288.45528681099842
 30
0.0
 40
0.3000000000000007
 50
0.0
 51
86.185925165715304
  0
LINE
  5
462A
  8
AM_0
 10
173.38136851633459
 20
287.28595273856638
 30
0.0
 11
173.45810094476059
 21
287.28595273856638
 31
0.0
  0
LINE
  5
462B
  8
AM_0
 10
173.45810094476059
 20
287.28595273856638
 30
0.0
 11
173.47796101087371
 21
287.21183497183
 31
0.0
  0
LINE
  5
462C
  8
AM_0
 10
172.8892055088715
 20
287.21183497183
 30
0.0
 11
172.90906557498559
 21
287.28595273856638
 31
0.0
  0
LINE
  5
462D
  8
AM_0
 10
172.90906557498559
 20
287.28595273856638
 30
0.0
 11
172.98579800341059
 21
287.28595273856638
 31
0.0
  0
LINE
  5
462E
  8
AM_0
 10
173.47796101087371
 20
287.21183497183
 30
0.0
 11
173.63920550887141
 21
286.61007050530287
 31
0.0
  0
LINE
  5
462F
  8
AM_0
 10
172.98579800341059
 20
287.28595273856638
 30
0.0
 11
173.38136851633459
 21
287.28595273856638
 31
0.0
  0
LINE
  5
4630
  8
AM_0
 10
172.8094298484146
 20
286.91411220700547
 30
0.0
 11
172.8892055088715
 21
287.21183497183
 31
0.0
  0
ARC
  5
4631
  8
AM_0
 10
173.38136851633459
 20
287.18595273856641
 30
0.0
 40
0.0999999999999866
 50
15.00019500656942
 51
90.0
  0
ARC
  5
4632
  8
AM_0
 10
172.98579800341059
 20
287.18595273856641
 30
0.0
 40
0.1000000000000014
 50
90.0
 51
164.99980499343059
  0
LINE
  5
4633
  8
AM_0
 10
172.30942984841349
 20
287.37970070272638
 30
0.0
 11
172.30942984841349
 21
286.7227857190743
 31
0.0
  0
ARC
  5
4634
  8
AM_0
 10
172.00942984841359
 20
287.37970070272638
 30
0.0
 40
0.3000000000000007
 50
0.0
 51
90.0
  0
LINE
  5
4635
  8
AM_0
 10
170.8094298484136
 20
283.8811234908585
 30
0.0
 11
172.00942984841359
 21
283.8811234908585
 31
0.0
  0
LINE
  5
4636
  8
AM_0
 10
172.00942984841359
 20
286.42278571907451
 30
0.0
 11
170.8094298484136
 21
286.42278571907451
 31
0.0
  0
LINE
  5
4637
  8
AM_0
 10
173.65906557498559
 20
286.53595273856649
 30
0.0
 11
173.73579800341059
 21
286.53595273856649
 31
0.0
  0
ARC
  5
4638
  8
AM_0
 10
172.00942984841359
 20
283.58112349085837
 30
0.0
 40
0.3000000000000007
 50
0.0
 51
90.0
  0
LINE
  5
4639
  8
AM_0
 10
172.00942984841359
 20
282.1088803044255
 30
0.0
 11
170.8094298484136
 21
282.1088803044255
 31
0.0
  0
ARC
  5
463A
  8
AM_0
 10
172.00942984841359
 20
282.4088803044254
 30
0.0
 40
0.3000000000000043
 50
270.0
 51
0.0
  0
LINE
  5
463B
  8
AM_0
 10
172.00942984841359
 20
278.43595273856749
 30
0.0
 11
170.8094298484136
 21
278.43595273856749
 31
0.0
  0
ARC
  5
463C
  8
AM_0
 10
172.00942984841359
 20
278.13595273856743
 30
0.0
 40
0.3000000000000007
 50
0.0
 51
90.0
  0
LINE
  5
463D
  8
AM_0
 10
161.8094298484136
 20
287.56923256721342
 30
0.0
 11
168.3094298484136
 21
287.56923256721342
 31
0.0
  0
LINE
  5
463E
  8
AM_0
 10
161.8094298484136
 20
288.06923256721342
 30
0.0
 11
168.3094298484136
 21
288.06923256721342
 31
0.0
  0
LINE
  5
463F
  8
AM_0
 10
168.3094298484136
 20
277.93595273856653
 30
0.0
 11
161.8094298484136
 21
277.93595273856653
 31
0.0
  0
LINE
  5
4640
  8
AM_0
 10
161.3094298484136
 20
278.43595273856653
 30
0.0
 11
168.3094298484136
 21
278.43595273856653
 31
0.0
  0
LINE
  5
4641
  8
AM_0
 10
168.00942984841359
 20
288.4359527385663
 30
0.0
 11
161.1714797835956
 21
288.4359527385663
 31
0.0
  0
LINE
  5
4642
  8
AM_0
 10
168.3094298484136
 20
278.7826408071075
 30
0.0
 11
161.8094298484136
 21
278.7826408071075
 31
0.0
  0
LINE
  5
4643
  8
AM_0
 10
168.3094298484136
 20
287.0892646700255
 30
0.0
 11
161.8094298484136
 21
287.0892646700255
 31
0.0
  0
ARC
  5
4644
  8
AM_0
 10
168.60942984841361
 20
289.13595273856629
 30
0.0
 40
0.2999999999999971
 50
90.0
 51
180.0
  0
ARC
  5
4645
  8
AM_0
 10
168.00942984841359
 20
288.73595273856643
 30
0.0
 40
0.2999999999999971
 50
270.0
 51
0.0
  0
ARC
  5
4646
  8
AM_0
 10
169.9344298484136
 20
282.93595273856641
 30
0.0
 40
9.124999999999984
 50
152.92493329272219
 51
207.07506670727781
  0
LINE
  5
4647
  8
AM_0
 10
160.53129538393111
 20
288.20417401816388
 30
0.0
 11
158.16924544874911
 21
286.23579907217891
 31
0.0
  0
LINE
  5
4648
  8
AM_0
 10
161.3094298484136
 20
287.8575201550583
 30
0.0
 11
161.8094298484136
 21
288.4359527385663
 31
0.0
  0
ARC
  5
4649
  8
AM_0
 10
161.1714797835956
 20
287.43595273856641
 30
0.0
 40
1.0
 50
90.0
 51
129.805571092256
  0
LINE
  5
464A
  8
AM_0
 10
161.8094298484136
 20
288.06923256721342
 30
0.0
 11
161.3094298484136
 21
287.8575201550583
 31
0.0
  0
LINE
  5
464B
  8
AM_0
 10
161.3094298484136
 20
287.3952448820873
 30
0.0
 11
161.8094298484136
 21
288.06923256721342
 31
0.0
  0
LINE
  5
464C
  8
AM_0
 10
161.8094298484136
 20
287.56923256721342
 30
0.0
 11
161.3094298484136
 21
287.3952448820873
 31
0.0
  0
LINE
  5
464D
  8
AM_0
 10
161.3094298484136
 20
286.85752015505841
 30
0.0
 11
161.8094298484136
 21
287.56923256721342
 31
0.0
  0
LINE
  5
464E
  8
AM_0
 10
161.8094298484136
 20
287.0892646700255
 30
0.0
 11
161.3094298484136
 21
286.85752015505841
 31
0.0
  0
ARC
  5
464F
  8
AM_0
 10
158.8094298484136
 20
285.46757779258138
 30
0.0
 40
1.0000000000000291
 50
129.80557109226311
 51
180.0
  0
LINE
  5
4650
  8
AM_0
 10
161.8094298484136
 20
277.93595273856653
 30
0.0
 11
161.3094298484136
 21
277.43595273856653
 31
0.0
  0
LINE
  5
4651
  8
AM_0
 10
161.3094298484136
 20
278.43595273856653
 30
0.0
 11
161.8094298484136
 21
277.93595273856653
 31
0.0
  0
LINE
  5
4652
  8
AM_0
 10
161.8094298484136
 20
278.7826408071075
 30
0.0
 11
161.3094298484136
 21
278.43595273856653
 31
0.0
  0
LINE
  5
4653
  8
AM_0
 10
168.60942984841361
 20
265.43595273856653
 30
0.0
 11
170.8094298484136
 21
265.43595273856653
 31
0.0
  0
ARC
  5
4654
  8
AM_0
 10
182.70810094475959
 20
264.93595273856641
 30
0.0
 40
0.5
 50
0.0
 51
90.000000000009777
  0
LINE
  5
4655
  8
AM_0
 10
177.70810094475959
 20
268.3359527385665
 30
0.0
 11
174.48579800341059
 21
268.3359527385665
 31
0.0
  0
LINE
  5
4656
  8
AM_0
 10
183.20810094475959
 20
276.29202405997341
 30
0.0
 11
183.20810094475959
 21
266.57988141715839
 31
0.0
  0
LINE
  5
4657
  8
AM_0
 10
178.20810094475959
 20
276.79202405997341
 30
0.0
 11
182.70810094475959
 21
276.79202405997341
 31
0.0
  0
ARC
  5
4658
  8
AM_0
 10
182.70810094475959
 20
276.29202405997341
 30
0.0
 40
0.5
 50
0.0
 51
90.0
  0
LINE
  5
4659
  8
AM_0
 10
178.20810094475959
 20
266.07988141715839
 30
0.0
 11
182.70810094475959
 21
266.07988141715839
 31
0.0
  0
LINE
  5
465A
  8
AM_0
 10
182.70810094475951
 20
265.43595273856641
 30
0.0
 11
178.70810094475959
 21
265.43595273856641
 31
0.0
  0
ARC
  5
465B
  8
AM_0
 10
182.70810094475959
 20
266.57988141715839
 30
0.0
 40
0.5
 50
270.0
 51
0.0
  0
ARC
  5
465C
  8
AM_0
 10
177.70810094475959
 20
267.83595273856639
 30
0.0
 40
0.5
 50
0.0
 51
90.0
  0
ARC
  5
465D
  8
AM_0
 10
178.70810094475959
 20
265.93595273856641
 30
0.0
 40
0.5
 50
180.0
 51
270.0
  0
ARC
  5
465E
  8
AM_0
 10
172.00942984841359
 20
271.2907819862744
 30
0.0
 40
0.3000000000000114
 50
270.0
 51
0.0
  0
LINE
  5
465F
  8
AM_0
 10
170.8094298484136
 20
276.43595273856442
 30
0.0
 11
172.00942984841359
 21
276.43595273856442
 31
0.0
  0
ARC
  5
4660
  8
AM_0
 10
172.00942984841359
 20
276.73595273856438
 30
0.0
 40
0.2999999999999971
 50
270.0
 51
0.0
  0
LINE
  5
4661
  8
AM_0
 10
170.8094298484136
 20
272.76302517270739
 30
0.0
 11
172.00942984841359
 21
272.76302517270739
 31
0.0
  0
ARC
  5
4662
  8
AM_0
 10
172.00942984841359
 20
272.46302517270738
 30
0.0
 40
0.3000000000000007
 50
0.0
 51
90.0
  0
LINE
  5
4663
  8
AM_0
 10
172.30942984841349
 20
272.46302517270749
 30
0.0
 11
172.30942984841349
 21
271.29078198627451
 31
0.0
  0
LINE
  5
4664
  8
AM_0
 10
173.73579800341059
 20
267.58595273856639
 30
0.0
 11
174.13136851633459
 21
267.58595273856639
 31
0.0
  0
LINE
  5
4665
  8
AM_0
 10
173.73579800341059
 20
267.58595273856639
 30
0.0
 11
174.13136851633459
 21
267.58595273856639
 31
0.0
  0
LINE
  5
4666
  8
AM_0
 10
174.2279610108736
 20
267.660070505303
 30
0.0
 11
174.3892055088715
 21
268.26183497183001
 31
0.0
  0
LINE
  5
4667
  8
AM_0
 10
174.2279610108736
 20
267.660070505303
 30
0.0
 11
174.3892055088715
 21
268.26183497183001
 31
0.0
  0
ARC
  5
4668
  8
AM_0
 10
174.48579800341059
 20
268.23595273856643
 30
0.0
 40
0.0999999999999943
 50
90.0
 51
164.9998049934843
  0
ARC
  5
4669
  8
AM_0
 10
174.13136851633459
 20
267.68595273856641
 30
0.0
 40
0.0999999999999943
 50
270.0
 51
344.99980499349448
  0
LINE
  5
466A
  8
AM_0
 10
172.80858325987251
 20
267.96095273856622
 30
0.0
 11
172.8892055088715
 21
268.26183497183001
 31
0.0
  0
LINE
  5
466B
  8
AM_0
 10
173.46081159696541
 20
268.2966882054684
 30
0.0
 11
173.6392055088715
 21
267.660070505303
 31
0.0
  0
LINE
  5
466C
  8
AM_0
 10
173.47796101087371
 20
268.26183497183001
 30
0.0
 11
173.6392055088715
 21
267.660070505303
 31
0.0
  0
LINE
  5
466D
  8
AM_0
 10
172.30942984841349
 20
268.14911975805751
 30
0.0
 11
172.30942984841349
 21
267.4922047744065
 31
0.0
  0
LINE
  5
466E
  8
AM_0
 10
172.80942984841349
 20
267.9641122070044
 30
0.0
 11
172.8892055088715
 21
268.26183497183001
 31
0.0
  0
LINE
  5
466F
  8
AM_0
 10
170.8094298484136
 20
268.44911975805741
 30
0.0
 11
172.00942984841359
 21
268.44911975805741
 31
0.0
  0
LINE
  5
4670
  8
AM_0
 10
172.00942984841359
 20
270.9907819862745
 30
0.0
 11
170.8094298484136
 21
270.99078198627342
 31
0.0
  0
LINE
  5
4671
  8
AM_0
 10
173.41400078184961
 20
268.3359527385665
 30
0.0
 11
173.46081159696541
 21
268.2966882054684
 31
0.0
  0
LINE
  5
4672
  8
AM_0
 10
172.98579800341059
 20
268.3359527385665
 30
0.0
 11
173.41400078184961
 21
268.3359527385665
 31
0.0
  0
LINE
  5
4673
  8
AM_0
 10
172.98579800341059
 20
268.3359527385665
 30
0.0
 11
173.38136851633459
 21
268.3359527385665
 31
0.0
  0
ARC
  5
4674
  8
AM_0
 10
172.98579800341059
 20
268.23595273856643
 30
0.0
 40
0.0999999999999943
 50
90.0
 51
164.9998049934843
  0
ARC
  5
4675
  8
AM_0
 10
173.38136851633459
 20
268.23595273856643
 30
0.0
 40
0.0999999999999608
 50
15.00019500651571
 51
90.0
  0
ARC
  5
4676
  8
AM_0
 10
172.00942984841359
 20
268.1491197580574
 30
0.0
 40
0.3000000000000007
 50
0.0
 51
90.0
  0
LINE
  5
4677
  8
AM_0
 10
170.8094298484136
 20
266.43595273856653
 30
0.0
 11
172.30942984841349
 21
266.43595273856653
 31
0.0
  0
LINE
  5
4678
  8
AM_0
 10
172.00942984841359
 20
267.19220477440649
 30
0.0
 11
170.8094298484136
 21
267.19220477440649
 31
0.0
  0
LINE
  5
4679
  8
AM_0
 10
172.0293855515707
 20
266.11728311877641
 30
0.0
 11
170.8094298484136
 21
266.03595273856649
 31
0.0
  0
ARC
  5
467A
  8
AM_0
 10
172.30942984841349
 20
266.93595273856641
 30
0.0
 40
0.5
 50
270.0
 51
0.0
  0
ARC
  5
467B
  8
AM_0
 10
173.73579800341059
 20
267.68595273856641
 30
0.0
 40
0.0999999999999606
 50
195.00019500650541
 51
270.0
  0
ARC
  5
467C
  8
AM_0
 10
172.00942984841359
 20
267.4922047744065
 30
0.0
 40
0.2999999999999971
 50
270.0
 51
0.0
  0
LINE
  5
467D
  8
AM_0
 10
172.30942984841349
 20
266.43595273856653
 30
0.0
 11
172.30942984841349
 21
266.4166186661335
 31
0.0
  0
ARC
  5
467E
  8
AM_0
 10
172.00942984841359
 20
266.4166186661335
 30
0.0
 40
0.3000000000000043
 50
273.81407483428472
 51
0.0
  0
ARC
  5
467F
  8
AM_0
 10
183.70810094475959
 20
264.43595273856641
 30
0.0
 40
0.5
 50
180.0
 51
270.0
  0
LINE
  5
4680
  8
AM_0
 10
183.20810094475959
 20
264.43595273856641
 30
0.0
 11
183.20810094475959
 21
264.93595273856641
 31
0.0
  0
LINE
  5
4681
  8
AM_0
 10
161.8094298484136
 20
267.78264080710738
 30
0.0
 11
168.3094298484136
 21
267.78264080710738
 31
0.0
  0
LINE
  5
4682
  8
AM_0
 10
161.8094298484136
 20
276.0892646700255
 30
0.0
 11
168.3094298484136
 21
276.0892646700255
 31
0.0
  0
LINE
  5
4683
  8
AM_0
 10
161.1714797835956
 20
266.43595273856653
 30
0.0
 11
168.00942984841359
 21
266.43595273856653
 31
0.0
  0
LINE
  5
4684
  8
AM_0
 10
168.3094298484136
 20
276.43595273856653
 30
0.0
 11
161.3094298484136
 21
276.43595273856653
 31
0.0
  0
LINE
  5
4685
  8
AM_0
 10
161.8094298484136
 20
276.93595273856653
 30
0.0
 11
168.3094298484136
 21
276.93595273856653
 31
0.0
  0
LINE
  5
4686
  8
AM_0
 10
168.3094298484136
 20
266.80267290991839
 30
0.0
 11
161.8094298484136
 21
266.80267290991839
 31
0.0
  0
LINE
  5
4687
  8
AM_0
 10
168.3094298484136
 20
267.30267290991839
 30
0.0
 11
161.8094298484136
 21
267.30267290991839
 31
0.0
  0
ARC
  5
4688
  8
AM_0
 10
168.00942984841359
 20
266.1359527385664
 30
0.0
 40
0.3000000000000043
 50
0.0
 51
90.0
  0
ARC
  5
4689
  8
AM_0
 10
168.60942984841361
 20
265.73595273856643
 30
0.0
 40
0.2999999999999971
 50
180.0
 51
270.0
  0
ARC
  5
468A
  8
AM_0
 10
169.9344298484136
 20
271.93595273856641
 30
0.0
 40
9.124999999999984
 50
152.92493329272219
 51
207.07506670727781
  0
LINE
  5
468B
  8
AM_0
 10
161.3094298484136
 20
276.43595273856653
 30
0.0
 11
161.8094298484136
 21
276.0892646700255
 31
0.0
  0
LINE
  5
468C
  8
AM_0
 10
161.8094298484136
 20
276.93595273856653
 30
0.0
 11
161.3094298484136
 21
276.43595273856653
 31
0.0
  0
LINE
  5
468D
  8
AM_0
 10
158.16924544874911
 20
268.63610640495301
 30
0.0
 11
160.53129538393111
 21
266.667731458969
 31
0.0
  0
LINE
  5
468E
  8
AM_0
 10
161.8094298484136
 20
266.43595273856653
 30
0.0
 11
161.3094298484136
 21
267.01438532207351
 31
0.0
  0
ARC
  5
468F
  8
AM_0
 10
161.1714797835956
 20
267.43595273856641
 30
0.0
 40
1.0000000000000411
 50
230.19442890774391
 51
270.0
  0
LINE
  5
4690
  8
AM_0
 10
161.3094298484136
 20
268.01438532207351
 30
0.0
 11
161.8094298484136
 21
267.78264080710738
 31
0.0
  0
LINE
  5
4691
  8
AM_0
 10
161.8094298484136
 20
267.30267290991839
 30
0.0
 11
161.3094298484136
 21
268.01438532207351
 31
0.0
  0
LINE
  5
4692
  8
AM_0
 10
161.3094298484136
 20
267.47666059504547
 30
0.0
 11
161.8094298484136
 21
267.30267290991839
 31
0.0
  0
LINE
  5
4693
  8
AM_0
 10
161.8094298484136
 20
266.80267290991839
 30
0.0
 11
161.3094298484136
 21
267.47666059504547
 31
0.0
  0
LINE
  5
4694
  8
AM_0
 10
161.3094298484136
 20
267.01438532207351
 30
0.0
 11
161.8094298484136
 21
266.80267290991839
 31
0.0
  0
ARC
  5
4695
  8
AM_0
 10
158.8094298484136
 20
269.40432768455042
 30
0.0
 40
1.0
 50
180.0
 51
230.19442890773689
  0
CIRCLE
  5
4696
  8
AM_0
 10
192.20810094475789
 20
303.43595273856607
 30
0.0
 40
4.0
  0
LINE
  5
4697
  8
AM_0
 10
191.89660094475789
 20
301.15714433284171
 30
0.0
 11
192.51960094475791
 21
301.15714433284171
 31
0.0
  0
LINE
  5
4698
  8
AM_0
 10
191.89660094475789
 20
305.71476114429038
 30
0.0
 11
192.51960094475791
 21
305.71476114429038
 31
0.0
  0
LINE
  5
4699
  8
AM_0
 10
191.89660094475789
 20
301.15714433284171
 30
0.0
 11
191.89660094475789
 21
303.12445273856599
 31
0.0
  0
LINE
  5
469A
  8
AM_0
 10
191.89660094475789
 20
303.74745273856621
 30
0.0
 11
191.89660094475789
 21
305.71476114429038
 31
0.0
  0
LINE
  5
469B
  8
AM_0
 10
191.89660094475789
 20
303.74745273856621
 30
0.0
 11
189.9292925390335
 21
303.74745273856621
 31
0.0
  0
LINE
  5
469C
  8
AM_0
 10
191.89660094475789
 20
303.12445273856599
 30
0.0
 11
189.9292925390335
 21
303.12445273856599
 31
0.0
  0
LINE
  5
469D
  8
AM_0
 10
189.9292925390335
 20
303.74745273856621
 30
0.0
 11
189.9292925390335
 21
303.12445273856599
 31
0.0
  0
LINE
  5
469E
  8
AM_0
 10
192.51960094475791
 20
301.15714433284171
 30
0.0
 11
192.51960094475791
 21
303.12445273856599
 31
0.0
  0
LINE
  5
469F
  8
AM_0
 10
192.51960094475791
 20
303.74745273856621
 30
0.0
 11
192.51960094475791
 21
305.71476114429038
 31
0.0
  0
LINE
  5
46A0
  8
AM_0
 10
194.48690935048211
 20
303.12445273856599
 30
0.0
 11
192.51960094475791
 21
303.12445273856599
 31
0.0
  0
LINE
  5
46A1
  8
AM_0
 10
194.48690935048211
 20
303.74745273856621
 30
0.0
 11
192.51960094475791
 21
303.74745273856621
 31
0.0
  0
LINE
  5
46A2
  8
AM_0
 10
194.48690935048211
 20
303.74745273856621
 30
0.0
 11
194.48690935048211
 21
303.12445273856599
 31
0.0
  0
CIRCLE
  5
46A3
  8
AM_0
 10
278.20810094476138
 20
303.43595273856602
 30
0.0
 40
4.0
  0
LINE
  5
46A4
  8
AM_0
 10
277.89660094476147
 20
301.15714433284171
 30
0.0
 11
278.51960094476152
 21
301.15714433284171
 31
0.0
  0
LINE
  5
46A5
  8
AM_0
 10
277.89660094476147
 20
305.71476114429038
 30
0.0
 11
278.51960094476152
 21
305.71476114429038
 31
0.0
  0
LINE
  5
46A6
  8
AM_0
 10
277.89660094476147
 20
301.15714433284171
 30
0.0
 11
277.89660094476147
 21
303.12445273856599
 31
0.0
  0
LINE
  5
46A7
  8
AM_0
 10
277.89660094476147
 20
303.74745273856598
 30
0.0
 11
277.89660094476147
 21
305.71476114429038
 31
0.0
  0
LINE
  5
46A8
  8
AM_0
 10
277.89660094476147
 20
303.74745273856598
 30
0.0
 11
275.92929253903708
 21
303.74745273856598
 31
0.0
  0
LINE
  5
46A9
  8
AM_0
 10
277.89660094476147
 20
303.12445273856599
 30
0.0
 11
275.92929253903708
 21
303.12445273856599
 31
0.0
  0
LINE
  5
46AA
  8
AM_0
 10
275.92929253903708
 20
303.74745273856598
 30
0.0
 11
275.92929253903708
 21
303.12445273856599
 31
0.0
  0
LINE
  5
46AB
  8
AM_0
 10
278.51960094476152
 20
301.15714433284171
 30
0.0
 11
278.51960094476152
 21
303.12445273856599
 31
0.0
  0
LINE
  5
46AC
  8
AM_0
 10
278.51960094476152
 20
303.74745273856598
 30
0.0
 11
278.51960094476152
 21
305.71476114429038
 31
0.0
  0
LINE
  5
46AD
  8
AM_0
 10
280.4869093504858
 20
303.12445273856599
 30
0.0
 11
278.51960094476152
 21
303.12445273856599
 31
0.0
  0
LINE
  5
46AE
  8
AM_0
 10
280.4869093504858
 20
303.74745273856598
 30
0.0
 11
278.51960094476152
 21
303.74745273856598
 31
0.0
  0
LINE
  5
46AF
  8
AM_0
 10
280.4869093504858
 20
303.74745273856598
 30
0.0
 11
280.4869093504858
 21
303.12445273856599
 31
0.0
  0
LINE
  5
46B0
  8
AM_0
 10
205.74363485069259
 20
306.97148664449918
 30
0.0
 11
188.6725670388268
 21
289.90041883263387
 31
0.0
  0
LINE
  5
46B1
  8
AM_0
 10
206.40048910018481
 20
301.97148664449918
 30
0.0
 11
193.6725670388268
 21
289.24356458314128
 31
0.0
  0
ARC
  5
46B2
  8
AM_0
 10
197.20810094475959
 20
285.70803067720863
 30
0.0
 40
5.0
 50
135.0
 51
180.0
1001
GENIUS_GENOBJ-N-FIL_13
1002
{
1000
OWNER
1000
GEN
1002
}
1001
GENIUS_GENODEF_13
1002
{
1000
HIER
1070
     0
1002
}
1002
{
1000
MANEDIT
1070
     0
1002
}
1002
{
1000
NOSEL
1070
     0
1002
}
1002
{
1000
BEHIND
1070
     0
1002
}
1002
{
1000
OTHER
1070
     0
1002
}
1002
{
1000
REACTOR
1002
}
  0
LINE
  5
46B3
  8
AM_0
 10
264.6725670388268
 20
217.90041883263351
 30
0.0
 11
281.7436348506925
 21
234.97148664449901
 31
0.0
  0
ARC
  5
46B4
  8
AM_0
 10
261.1370331328942
 20
221.4359527385663
 30
0.0
 40
5.0
 50
270.0
 51
315.0
1001
GENIUS_GENODEF_13
1002
{
1000
HIER
1070
     0
1002
}
1002
{
1000
MANEDIT
1070
     0
1002
}
1002
{
1000
NOSEL
1070
     0
1002
}
1002
{
1000
BEHIND
1070
     0
1002
}
1002
{
1000
OTHER
1070
     0
1002
}
1002
{
1000
REACTOR
1002
}
1001
GENIUS_GENOBJ-N-FIL_13
1002
{
1000
OWNER
1000
GEN
1002
}
  0
LINE
  5
46B5
  8
AM_0
 10
264.0157127893346
 20
222.90041883263351
 30
0.0
 11
276.7436348506925
 21
235.62834089399121
 31
0.0
  0
ARC
  5
46B6
  8
AM_0
 10
273.20810094475968
 20
239.163874799924
 30
0.0
 40
5.0
 50
315.0
 51
0.0
1001
GENIUS_GENOBJ-N-FIL_13
1002
{
1000
OWNER
1000
GEN
1002
}
1001
GENIUS_GENODEF_13
1002
{
1000
HIER
1070
     0
1002
}
1002
{
1000
MANEDIT
1070
     0
1002
}
1002
{
1000
NOSEL
1070
     0
1002
}
1002
{
1000
BEHIND
1070
     0
1002
}
1002
{
1000
OTHER
1070
     0
1002
}
1002
{
1000
REACTOR
1002
}
  0
LINE
  5
46B7
  8
AM_0
 10
205.7436348506923
 20
217.90041883263351
 30
0.0
 11
188.6725670388268
 21
234.97148664449881
 31
0.0
  0
LINE
  5
46B8
  8
AM_0
 10
206.40048910018459
 20
222.90041883263359
 30
0.0
 11
193.6725670388268
 21
235.62834089399121
 31
0.0
  0
ARC
  5
46B9
  8
AM_0
 10
209.93602300611741
 20
226.4359527385663
 30
0.0
 40
5.0
 50
225.0
 51
270.0
1001
GENIUS_GENOBJ-N-FIL_13
1002
{
1000
OWNER
1000
GEN
1002
}
1001
GENIUS_GENODEF_13
1002
{
1000
HIER
1070
     0
1002
}
1002
{
1000
MANEDIT
1070
     0
1002
}
1002
{
1000
NOSEL
1070
     0
1002
}
1002
{
1000
BEHIND
1070
     0
1002
}
1002
{
1000
OTHER
1070
     0
1002
}
1002
{
1000
REACTOR
1002
}
  0
CIRCLE
  5
46BA
  8
AM_0
 10
192.2081009447578
 20
221.4359527385667
 30
0.0
 40
4.0
  0
LINE
  5
46BB
  8
AM_0
 10
191.89660094475781
 20
223.71476114429109
 30
0.0
 11
192.5196009447578
 21
223.71476114429109
 31
0.0
  0
LINE
  5
46BC
  8
AM_0
 10
191.89660094475781
 20
219.15714433284231
 30
0.0
 11
192.5196009447578
 21
219.15714433284231
 31
0.0
  0
LINE
  5
46BD
  8
AM_0
 10
191.89660094475781
 20
223.71476114429109
 30
0.0
 11
191.89660094475781
 21
221.74745273856669
 31
0.0
  0
LINE
  5
46BE
  8
AM_0
 10
191.89660094475781
 20
221.1244527385667
 30
0.0
 11
191.89660094475781
 21
219.15714433284231
 31
0.0
  0
LINE
  5
46BF
  8
AM_0
 10
191.89660094475781
 20
221.1244527385667
 30
0.0
 11
189.92929253903341
 21
221.1244527385667
 31
0.0
  0
LINE
  5
46C0
  8
AM_0
 10
191.89660094475781
 20
221.74745273856669
 30
0.0
 11
189.92929253903341
 21
221.74745273856669
 31
0.0
  0
LINE
  5
46C1
  8
AM_0
 10
189.92929253903341
 20
221.1244527385667
 30
0.0
 11
189.92929253903341
 21
221.74745273856669
 31
0.0
  0
LINE
  5
46C2
  8
AM_0
 10
192.5196009447578
 20
223.71476114429109
 30
0.0
 11
192.5196009447578
 21
221.74745273856669
 31
0.0
  0
LINE
  5
46C3
  8
AM_0
 10
192.5196009447578
 20
221.1244527385667
 30
0.0
 11
192.5196009447578
 21
219.15714433284231
 31
0.0
  0
LINE
  5
46C4
  8
AM_0
 10
194.48690935048211
 20
221.74745273856669
 30
0.0
 11
192.5196009447578
 21
221.74745273856669
 31
0.0
  0
LINE
  5
46C5
  8
AM_0
 10
194.48690935048211
 20
221.1244527385667
 30
0.0
 11
192.5196009447578
 21
221.1244527385667
 31
0.0
  0
LINE
  5
46C6
  8
AM_0
 10
194.48690935048211
 20
221.1244527385667
 30
0.0
 11
194.48690935048211
 21
221.74745273856669
 31
0.0
  0
CIRCLE
  5
46C7
  8
AM_0
 10
278.20810094476133
 20
221.4359527385665
 30
0.0
 40
4.0
  0
LINE
  5
46C8
  8
AM_0
 10
277.89660094476142
 20
223.71476114429089
 30
0.0
 11
278.51960094476129
 21
223.71476114429089
 31
0.0
  0
LINE
  5
46C9
  8
AM_0
 10
277.89660094476142
 20
219.15714433284211
 30
0.0
 11
278.51960094476129
 21
219.15714433284211
 31
0.0
  0
LINE
  5
46CA
  8
AM_0
 10
277.89660094476142
 20
223.71476114429089
 30
0.0
 11
277.89660094476142
 21
221.74745273856649
 31
0.0
  0
LINE
  5
46CB
  8
AM_0
 10
277.89660094476142
 20
221.1244527385665
 30
0.0
 11
277.89660094476142
 21
219.15714433284211
 31
0.0
  0
LINE
  5
46CC
  8
AM_0
 10
277.89660094476142
 20
221.1244527385665
 30
0.0
 11
275.92929253903691
 21
221.1244527385665
 31
0.0
  0
LINE
  5
46CD
  8
AM_0
 10
277.89660094476142
 20
221.74745273856649
 30
0.0
 11
275.92929253903691
 21
221.74745273856649
 31
0.0
  0
LINE
  5
46CE
  8
AM_0
 10
275.92929253903691
 20
221.1244527385665
 30
0.0
 11
275.92929253903691
 21
221.74745273856649
 31
0.0
  0
LINE
  5
46CF
  8
AM_0
 10
278.51960094476129
 20
223.71476114429089
 30
0.0
 11
278.51960094476129
 21
221.74745273856649
 31
0.0
  0
LINE
  5
46D0
  8
AM_0
 10
278.51960094476129
 20
221.1244527385665
 30
0.0
 11
278.51960094476129
 21
219.15714433284211
 31
0.0
  0
LINE
  5
46D1
  8
AM_0
 10
280.48690935048569
 20
221.74745273856649
 30
0.0
 11
278.51960094476129
 21
221.74745273856649
 31
0.0
  0
LINE
  5
46D2
  8
AM_0
 10
280.48690935048569
 20
221.1244527385665
 30
0.0
 11
278.51960094476129
 21
221.1244527385665
 31
0.0
  0
LINE
  5
46D3
  8
AM_0
 10
280.48690935048569
 20
221.1244527385665
 30
0.0
 11
280.48690935048569
 21
221.74745273856649
 31
0.0
  0
LINE
  5
46D4
  8
AM_0
 10
187.20810094475959
 20
231.43595273856641
 30
0.0
 11
186.20810094475959
 21
231.43595273856641
 31
0.0
  0
LINE
  5
46D5
  8
AM_0
 10
187.20810094475959
 20
293.43595273856641
 30
0.0
 11
186.20810094475959
 21
293.43595273856641
 31
0.0
  0
LINE
  5
46D6
  8
AM_0
 10
186.20810094475959
 20
231.43595273856641
 30
0.0
 11
186.20810094475959
 21
293.43595273856641
 31
0.0
  0
LINE
  5
46D7
  8
ﾁｭｳｼﾝｾﾝ1
 10
192.2081009447574
 20
297.43595273856607
 30
0.0
 11
192.2081009447582
 21
309.43595273856607
 31
0.0
  0
LINE
  5
46D8
  8
ﾁｭｳｼﾝｾﾝ1
 10
198.20810094475789
 20
303.43595273856567
 30
0.0
 11
186.2081009447578
 21
303.43595273856653
 31
0.0
  0
LINE
  5
46D9
  8
ﾁｭｳｼﾝｾﾝ1
 10
192.2081009447574
 20
215.4359527385667
 30
0.0
 11
192.20810094475809
 21
227.4359527385667
 31
0.0
  0
LINE
  5
46DA
  8
ﾁｭｳｼﾝｾﾝ1
 10
198.2081009447578
 20
221.4359527385665
 30
0.0
 11
186.2081009447578
 21
221.4359527385671
 31
0.0
  0
LINE
  5
46DB
  8
ﾁｭｳｼﾝｾﾝ1
 10
278.20810094476099
 20
215.4359527385665
 30
0.0
 11
278.2081009447615
 21
227.4359527385665
 31
0.0
  0
LINE
  5
46DC
  8
ﾁｭｳｼﾝｾﾝ1
 10
284.20810094476133
 20
221.4359527385663
 30
0.0
 11
272.20810094476133
 21
221.4359527385669
 31
0.0
  0
LINE
  5
46E0
  8
AM_0
 10
150.10564868487731
 20
239.4359527385661
 30
0.0
 11
159.20810094475951
 21
239.4359527385661
 31
0.0
  0
ARC
  5
46E1
  8
AM_0
 10
150.10564868487731
 20
229.43595273856619
 30
0.0
 40
10.0
 50
90.0
 51
149.9999999999994
1001
GENIUS_GENOBJ-N-FIL_13
1002
{
1000
OWNER
1000
GEN
1002
}
1001
GENIUS_GENODEF_13
1002
{
1000
HIER
1070
     0
1002
}
1002
{
1000
MANEDIT
1070
     0
1002
}
1002
{
1000
NOSEL
1070
     0
1002
}
1002
{
1000
BEHIND
1070
     0
1002
}
1002
{
1000
OTHER
1070
     0
1002
}
1002
{
1000
REACTOR
1002
}
  0
LINE
  5
46E2
  8
AM_0
 10
152.4150497616358
 20
245.4359527385661
 30
0.0
 11
159.20810094475959
 21
245.4359527385661
 31
0.0
  0
ARC
  5
46E3
  8
AM_0
 10
152.4150497616358
 20
225.4359527385663
 30
0.0
 40
20.0
 50
90.0
 51
149.9999999999994
1001
GENIUS_GENODEF_13
1002
{
1000
HIER
1070
     0
1002
}
1002
{
1000
MANEDIT
1070
     0
1002
}
1002
{
1000
NOSEL
1070
     0
1002
}
1002
{
1000
BEHIND
1070
     0
1002
}
1002
{
1000
OTHER
1070
     0
1002
}
1002
{
1000
REACTOR
1002
}
1001
GENIUS_GENOBJ-N-FIL_13
1002
{
1000
OWNER
1000
GEN
1002
}
  0
LINE
  5
46E4
  8
AM_0
 10
176.08310094476059
 20
236.04589868244221
 30
0.0
 11
176.0938105493056
 21
235.83595273856619
 31
0.0
  0
LINE
  5
46E5
  8
AM_0
 10
176.0938105493056
 20
235.83595273856619
 30
0.0
 11
176.1301159365066
 21
235.1242393646792
 31
0.0
  0
LINE
  5
46E6
  8
AM_0
 10
176.08310094476059
 20
239.80323023008319
 30
0.0
 11
176.32912716744059
 21
235.83595273856619
 31
0.0
  0
LINE
  5
46E7
  8
AM_0
 10
176.80143010878959
 20
235.83595273856619
 30
0.0
 11
176.40585959586559
 21
235.83595273856619
 31
0.0
  0
LINE
  5
46E8
  8
AM_0
 10
176.3092671013265
 20
235.76183497183081
 30
0.0
 11
176.14802260332871
 21
235.16007050530271
 31
0.0
  0
LINE
  5
46E9
  8
AM_0
 10
176.32912716744059
 20
235.83595273856619
 30
0.0
 11
176.3092671013265
 21
235.76183497183081
 31
0.0
  0
LINE
  5
46EA
  8
AM_0
 10
174.58310094476059
 20
233.4359527385663
 30
0.0
 11
174.58310094476059
 21
233.73595273856731
 31
0.0
  0
LINE
  5
46EB
  8
AM_0
 10
164.08310094475959
 20
236.9359527385663
 30
0.0
 11
164.08310094475959
 21
237.1035377977023
 31
0.0
  0
LINE
  5
46EC
  8
AM_0
 10
164.08310094475959
 20
242.4359527385663
 30
0.0
 11
164.08310094475959
 21
237.1169777061572
 31
0.0
  0
LINE
  5
46ED
  8
AM_0
 10
166.81728841774961
 20
233.93595273856431
 30
0.0
 11
166.58310094475669
 21
233.93595273856431
 31
0.0
  0
LINE
  5
46EE
  8
AM_0
 10
166.4331777779505
 20
234.11586053873259
 30
0.0
 11
166.58310094475669
 21
233.93595273856431
 31
0.0
  0
LINE
  5
46EF
  8
AM_0
 10
164.08310094475959
 20
236.9359527385663
 30
0.0
 11
164.19899030496069
 21
236.7968855063252
 31
0.0
  0
LINE
  5
46F0
  8
AM_0
 10
174.58310094476059
 20
233.93595273856729
 30
0.0
 11
175.8831009447606
 21
233.93595273856729
 31
0.0
  0
LINE
  5
46F1
  8
AM_0
 10
175.58310094475959
 20
233.90744900720119
 30
0.0
 11
175.58310094476059
 21
233.93595273856729
 31
0.0
  0
LINE
  5
46F2
  8
AM_0
 10
166.5831009447576
 20
234.9037615304303
 30
0.0
 11
172.58310094476059
 21
234.9037615304303
 31
0.0
  0
LINE
  5
46F3
  8
AM_0
 10
172.58310094476059
 20
234.4037615304303
 30
0.0
 11
166.58310094475669
 21
234.4037615304303
 31
0.0
  0
LINE
  5
46F4
  8
AM_0
 10
166.58310094475669
 20
234.4037615304303
 30
0.0
 11
167.08310094475661
 21
233.9359527385663
 31
0.0
  0
LINE
  5
46F5
  8
AM_0
 10
167.08310094475661
 20
234.4037615304303
 30
0.0
 11
166.5831009447576
 21
234.9037615304303
 31
0.0
  0
LINE
  5
46F6
  8
AM_0
 10
166.5831009447576
 20
235.5747368063993
 30
0.0
 11
167.08310094475661
 21
234.9037615304303
 31
0.0
  0
LINE
  5
46F7
  8
AM_0
 10
167.08310094475661
 20
235.62421504707621
 30
0.0
 11
166.5831009447576
 21
235.5747368063993
 31
0.0
  0
LINE
  5
46F8
  8
AM_0
 10
172.58310094476059
 20
241.34575890350831
 30
0.0
 11
172.58310094476059
 21
242.4359527385663
 31
0.0
  0
LINE
  5
46F9
  8
AM_0
 10
166.58310094475669
 20
241.4359527385663
 30
0.0
 11
172.58310094476059
 21
241.4359527385663
 31
0.0
  0
LINE
  5
46FA
  8
AM_0
 10
167.08310094475661
 20
240.7476904300562
 30
0.0
 11
166.58310094475669
 21
241.4359527385663
 31
0.0
  0
LINE
  5
46FB
  8
AM_0
 10
166.58310094475669
 20
241.4359527385663
 30
0.0
 11
167.0831009447576
 21
241.9359527385663
 31
0.0
  0
LINE
  5
46FC
  8
AM_0
 10
166.5831009447576
 20
242.4359527385663
 30
0.0
 11
167.0831009447576
 21
241.9359527385663
 31
0.0
  0
LINE
  5
46FD
  8
AM_0
 10
167.0831009447576
 20
241.9359527385663
 30
0.0
 11
172.58310094476059
 21
241.9359527385663
 31
0.0
  0
LINE
  5
46FE
  8
AM_0
 10
167.08310094475661
 20
240.7476904300562
 30
0.0
 11
172.58310094476059
 21
240.7476904300562
 31
0.0
  0
LINE
  5
46FF
  8
AM_0
 10
167.08310094475661
 20
235.62421504707621
 30
0.0
 11
172.58310094476059
 21
235.62421504707731
 31
0.0
  0
LINE
  5
4700
  8
AM_0
 10
175.58310094475959
 20
241.98595273856731
 30
0.0
 11
175.58310094476059
 21
242.4359527385663
 31
0.0
  0
LINE
  5
4701
  8
AM_0
 10
174.58310094476059
 20
233.73595273856731
 30
0.0
 11
174.58310094476059
 21
242.43595273856829
 31
0.0
  0
LINE
  5
4702
  8
AM_0
 10
175.28310094475961
 20
235.4784480505343
 30
0.0
 11
174.58310094476059
 21
235.4784480505343
 31
0.0
  0
LINE
  5
4703
  8
AM_0
 10
175.58310094475959
 20
234.77333719324429
 30
0.0
 11
175.58310094475959
 21
235.1784480505342
 31
0.0
  0
LINE
  5
4704
  8
AM_0
 10
174.58310094476059
 20
234.4733371932443
 30
0.0
 11
175.28310094475961
 21
234.4733371932443
 31
0.0
  0
LINE
  5
4705
  8
AM_0
 10
175.28310094475961
 20
238.85204823593531
 30
0.0
 11
174.58310094476059
 21
238.85204823593531
 31
0.0
  0
LINE
  5
4706
  8
AM_0
 10
175.58310094475959
 20
237.7521319696433
 30
0.0
 11
175.58310094475959
 21
238.5520482359353
 31
0.0
  0
LINE
  5
4707
  8
AM_0
 10
174.58310094476059
 20
237.45213196964329
 30
0.0
 11
175.28310094475961
 21
237.45213196964329
 31
0.0
  0
LINE
  5
4708
  8
AM_0
 10
174.58310094476059
 20
241.6859527385663
 30
0.0
 11
175.28310094475961
 21
241.6859527385663
 31
0.0
  0
LINE
  5
4709
  8
AM_0
 10
176.08310094476059
 20
242.4359527385663
 30
0.0
 11
176.08310094476059
 21
234.13595273856731
 31
0.0
  0
LINE
  5
470A
  8
AM_0
 10
172.78310094475961
 20
233.4359527385663
 30
0.0
 11
174.58310094476059
 21
233.4359527385663
 31
0.0
  0
LINE
  5
470B
  8
AM_0
 10
164.19899030496069
 20
236.7968855063252
 30
0.0
 11
166.4331777779505
 21
234.11586053873259
 31
0.0
  0
LINE
  5
470C
  8
AM_0
 10
175.31295206046619
 20
233.6089378501382
 30
0.0
 11
174.58310094476059
 21
233.53595273856729
 31
0.0
  0
LINE
  5
470D
  8
AM_0
 10
172.3831009447606
 20
233.9359527385663
 30
0.0
 11
166.81728841774961
 21
233.93595273856431
 31
0.0
  0
LINE
  5
470E
  8
AM_0
 10
172.58310094476059
 20
241.34575890350831
 30
0.0
 11
172.58310094476059
 21
233.73595273856611
 31
0.0
  0
LINE
  5
470F
  8
AM_0
 10
172.58310094476059
 20
233.73595273856611
 30
0.0
 11
172.58310094475959
 21
233.63595273856629
 31
0.0
  0
LINE
  5
4710
  8
AM_0
 10
180.20810094475959
 20
234.13595273856649
 30
0.0
 11
180.20810094475959
 21
240.7476904300562
 31
0.0
  0
LINE
  5
4711
  8
AM_0
 10
176.70810094476059
 20
242.4359527385663
 30
0.0
 11
177.0808548027706
 21
235.11981439104611
 31
0.0
  0
LINE
  5
4712
  8
AM_0
 10
177.25713631453559
 20
242.4359527385663
 30
0.0
 11
177.63011593650651
 21
235.1242393646792
 31
0.0
  0
LINE
  5
4713
  8
AM_0
 10
176.89802260332871
 20
235.7618349718297
 30
0.0
 11
176.87816253721559
 21
235.83595273856619
 31
0.0
  0
LINE
  5
4714
  8
AM_0
 10
177.82912716744059
 20
235.83595273856619
 30
0.0
 11
177.8092671013265
 21
235.76183497183081
 31
0.0
  0
LINE
  5
4715
  8
AM_0
 10
177.55143010878959
 20
235.08595273856619
 30
0.0
 11
177.15585959586559
 21
235.08595273856619
 31
0.0
  0
LINE
  5
4716
  8
AM_0
 10
177.05926710132641
 20
235.1600705053028
 30
0.0
 11
176.89802260332871
 21
235.7618349718297
 31
0.0
  0
LINE
  5
4717
  8
AM_0
 10
177.8092671013265
 20
235.76183497183081
 30
0.0
 11
177.64802260332871
 21
235.16007050530271
 31
0.0
  0
LINE
  5
4718
  8
AM_0
 10
176.46887100841261
 20
242.4359527385663
 30
0.0
 11
176.87816253721559
 21
235.83595273856619
 31
0.0
  0
LINE
  5
4719
  8
AM_0
 10
177.41983563863761
 20
242.4359527385663
 30
0.0
 11
177.82912716744059
 21
235.83595273856619
 31
0.0
  0
LINE
  5
471A
  8
AM_0
 10
177.90585959586559
 20
235.83595273856619
 30
0.0
 11
179.70810094475959
 21
235.83595273856619
 31
0.0
  0
LINE
  5
471B
  8
AM_0
 10
180.20810094475959
 20
240.7476904300562
 30
0.0
 11
180.20810094475959
 21
242.43595273856729
 31
0.0
  0
LINE
  5
471C
  8
AM_0
 10
180.40810094475961
 20
233.9359527385663
 30
0.0
 11
184.0081009447596
 21
233.9359527385663
 31
0.0
  0
LINE
  5
471D
  8
AM_0
 10
184.0081009447596
 20
240.7476904300562
 30
0.0
 11
180.20810094475959
 21
240.7476904300562
 31
0.0
  0
LINE
  5
471E
  8
AM_0
 10
180.20810094475959
 20
235.62421504707731
 30
0.0
 11
184.0081009447596
 21
235.62421504707731
 31
0.0
  0
LINE
  5
471F
  8
AM_0
 10
159.20810094475959
 20
242.4359527385663
 30
0.0
 11
159.20810094475959
 21
238.1859527385663
 31
0.0
  0
LINE
  5
4720
  8
AM_0
 10
164.08310094475959
 20
238.1348163749303
 30
0.0
 11
159.20810094475959
 21
238.1859527385663
 31
0.0
  0
LINE
  5
4721
  8
AM_0
 10
159.20810094475959
 20
246.6859527385663
 30
0.0
 11
164.08310094475971
 21
246.7370891022033
 31
0.0
  0
LINE
  5
4722
  8
AM_0
 10
159.20810094475959
 20
246.6859527385663
 30
0.0
 11
159.20810094475959
 21
242.4359527385663
 31
0.0
  0
LINE
  5
4723
  8
AM_0
 10
184.0081009447596
 20
249.24769043005631
 30
0.0
 11
180.20810094475959
 21
249.24769043005631
 31
0.0
  0
LINE
  5
4724
  8
AM_0
 10
180.20810094475959
 20
244.12421504707731
 30
0.0
 11
184.0081009447596
 21
244.12421504707731
 31
0.0
  0
LINE
  5
4725
  8
AM_0
 10
184.0081009447596
 20
250.9359527385663
 30
0.0
 11
180.40810094475961
 21
250.9359527385663
 31
0.0
  0
LINE
  5
4726
  8
AM_0
 10
180.20810094475959
 20
242.43595273856729
 30
0.0
 11
180.20810094475959
 21
244.12421504707731
 31
0.0
  0
LINE
  5
4727
  8
AM_0
 10
179.70810094475971
 20
249.03595273856629
 30
0.0
 11
177.15983337318571
 21
249.03595273856629
 31
0.0
  0
LINE
  5
4728
  8
AM_0
 10
177.08310094475959
 20
249.03595273856629
 30
0.0
 11
177.41983563863761
 21
242.4359527385663
 31
0.0
  0
LINE
  5
4729
  8
AM_0
 10
176.13213631453459
 20
249.03595273856629
 30
0.0
 11
176.46887100841261
 21
242.4359527385663
 31
0.0
  0
LINE
  5
472A
  8
AM_0
 10
176.90199638064871
 20
249.71183497182969
 30
0.0
 11
177.0632408786465
 21
249.11007050530279
 31
0.0
  0
LINE
  5
472B
  8
AM_0
 10
176.15199638064871
 20
249.11007050530279
 30
0.0
 11
176.31324087864641
 21
249.7118349718296
 31
0.0
  0
LINE
  5
472C
  8
AM_0
 10
176.40983337318551
 20
249.78595273856629
 30
0.0
 11
176.80540388610959
 21
249.78595273856629
 31
0.0
  0
LINE
  5
472D
  8
AM_0
 10
177.0632408786465
 20
249.11007050530279
 30
0.0
 11
177.08310094475959
 21
249.03595273856629
 31
0.0
  0
LINE
  5
472E
  8
AM_0
 10
176.13213631453459
 20
249.03595273856629
 30
0.0
 11
176.15199638064871
 21
249.11007050530279
 31
0.0
  0
LINE
  5
472F
  8
AM_0
 10
176.8840897138266
 20
249.74766611245329
 30
0.0
 11
177.25713631453559
 21
242.4359527385663
 31
0.0
  0
LINE
  5
4730
  8
AM_0
 10
176.33482858009069
 20
249.75209108608729
 30
0.0
 11
176.70810094476059
 21
242.4359527385663
 31
0.0
  0
LINE
  5
4731
  8
AM_0
 10
180.20810094475959
 20
244.12421504707731
 30
0.0
 11
180.20810094475959
 21
250.73595273856699
 31
0.0
  0
LINE
  5
4732
  8
AM_0
 10
172.58310094475959
 20
251.23595273856731
 30
0.0
 11
172.58310094476059
 21
251.1359527385674
 31
0.0
  0
LINE
  5
4733
  8
AM_0
 10
172.58310094476059
 20
251.1359527385674
 30
0.0
 11
172.58310094476059
 21
243.52614657362531
 31
0.0
  0
LINE
  5
4734
  8
AM_0
 10
166.81728841774961
 20
250.93595273856931
 30
0.0
 11
172.3831009447606
 21
250.93595273856729
 31
0.0
  0
LINE
  5
4735
  8
AM_0
 10
174.58310094476059
 20
251.33595273856631
 30
0.0
 11
175.3129520604663
 21
251.26296762699519
 31
0.0
  0
LINE
  5
4736
  8
AM_0
 10
166.4331777779505
 20
250.756044938401
 30
0.0
 11
164.19899030496069
 21
248.07501997080831
 31
0.0
  0
LINE
  5
4737
  8
AM_0
 10
174.58310094476059
 20
251.4359527385663
 30
0.0
 11
172.78310094475961
 21
251.4359527385663
 31
0.0
  0
LINE
  5
4738
  8
AM_0
 10
176.08310094476059
 20
250.73595273856631
 30
0.0
 11
176.08310094476059
 21
242.4359527385663
 31
0.0
  0
LINE
  5
4739
  8
AM_0
 10
175.28310094475961
 20
243.1859527385663
 30
0.0
 11
174.58310094476059
 21
243.1859527385663
 31
0.0
  0
LINE
  5
473A
  8
AM_0
 10
175.28310094475961
 20
247.41977350749031
 30
0.0
 11
174.58310094476059
 21
247.41977350749031
 31
0.0
  0
LINE
  5
473B
  8
AM_0
 10
175.58310094475971
 20
246.31985724119821
 30
0.0
 11
175.58310094475971
 21
247.11977350749029
 31
0.0
  0
LINE
  5
473C
  8
AM_0
 10
174.58310094476059
 20
246.01985724119831
 30
0.0
 11
175.28310094475961
 21
246.01985724119831
 31
0.0
  0
LINE
  5
473D
  8
AM_0
 10
175.28310094475961
 20
250.39856828388929
 30
0.0
 11
174.58310094476059
 21
250.39856828388929
 31
0.0
  0
LINE
  5
473E
  8
AM_0
 10
175.58310094475971
 20
249.6934574265992
 30
0.0
 11
175.58310094475971
 21
250.09856828388931
 31
0.0
  0
LINE
  5
473F
  8
AM_0
 10
174.58310094476059
 20
249.3934574265993
 30
0.0
 11
175.28310094475961
 21
249.3934574265993
 31
0.0
  0
LINE
  5
4740
  8
AM_0
 10
174.58310094476059
 20
242.43595273856829
 30
0.0
 11
174.58310094476059
 21
251.13595273856629
 31
0.0
  0
LINE
  5
4741
  8
AM_0
 10
175.58310094476059
 20
242.4359527385663
 30
0.0
 11
175.58310094475959
 21
242.88595273856629
 31
0.0
  0
LINE
  5
4742
  8
AM_0
 10
172.58310094476059
 20
249.24769043005631
 30
0.0
 11
167.08310094475661
 21
249.24769043005631
 31
0.0
  0
LINE
  5
4743
  8
AM_0
 10
172.58310094476059
 20
244.12421504707731
 30
0.0
 11
167.08310094475661
 21
244.12421504707629
 31
0.0
  0
LINE
  5
4744
  8
AM_0
 10
172.58310094476059
 20
242.9359527385663
 30
0.0
 11
167.0831009447576
 21
242.9359527385663
 31
0.0
  0
LINE
  5
4745
  8
AM_0
 10
167.0831009447576
 20
242.9359527385663
 30
0.0
 11
166.5831009447576
 21
242.4359527385663
 31
0.0
  0
LINE
  5
4746
  8
AM_0
 10
167.0831009447576
 20
242.9359527385663
 30
0.0
 11
166.58310094475669
 21
243.4359527385663
 31
0.0
  0
LINE
  5
4747
  8
AM_0
 10
166.58310094475669
 20
243.4359527385663
 30
0.0
 11
167.08310094475661
 21
244.12421504707629
 31
0.0
  0
LINE
  5
4748
  8
AM_0
 10
172.58310094476059
 20
243.4359527385663
 30
0.0
 11
166.58310094475669
 21
243.4359527385663
 31
0.0
  0
LINE
  5
4749
  8
AM_0
 10
172.58310094476059
 20
242.4359527385663
 30
0.0
 11
172.58310094476059
 21
243.52614657362531
 31
0.0
  0
LINE
  5
474A
  8
AM_0
 10
166.58310094475769
 20
249.29716867073429
 30
0.0
 11
167.08310094475661
 21
249.24769043005631
 31
0.0
  0
LINE
  5
474B
  8
AM_0
 10
167.08310094475661
 20
249.96814394670329
 30
0.0
 11
166.58310094475769
 21
249.29716867073429
 31
0.0
  0
LINE
  5
474C
  8
AM_0
 10
166.58310094475769
 20
249.96814394670329
 30
0.0
 11
167.08310094475661
 21
250.46814394670329
 31
0.0
  0
LINE
  5
474D
  8
AM_0
 10
167.08310094475661
 20
250.9359527385663
 30
0.0
 11
166.58310094475669
 21
250.46814394670329
 31
0.0
  0
LINE
  5
474E
  8
AM_0
 10
166.58310094475669
 20
250.46814394670329
 30
0.0
 11
172.58310094476059
 21
250.46814394670329
 31
0.0
  0
LINE
  5
474F
  8
AM_0
 10
172.58310094476059
 20
249.96814394670329
 30
0.0
 11
166.58310094475769
 21
249.96814394670329
 31
0.0
  0
LINE
  5
4750
  8
AM_0
 10
175.58310094476059
 20
250.9359527385663
 30
0.0
 11
175.58310094475971
 21
250.96445646993229
 31
0.0
  0
LINE
  5
4751
  8
AM_0
 10
175.8831009447606
 20
250.9359527385663
 30
0.0
 11
174.58310094476059
 21
250.9359527385663
 31
0.0
  0
LINE
  5
4752
  8
AM_0
 10
164.19899030496069
 20
248.07501997080831
 30
0.0
 11
164.08310094475971
 21
247.9359527385663
 31
0.0
  0
LINE
  5
4753
  8
AM_0
 10
166.58310094475669
 20
250.93595273856931
 30
0.0
 11
166.4331777779505
 21
250.756044938401
 31
0.0
  0
LINE
  5
4754
  8
AM_0
 10
166.58310094475669
 20
250.93595273856931
 30
0.0
 11
166.81728841774961
 21
250.93595273856931
 31
0.0
  0
LINE
  5
4755
  8
AM_0
 10
164.08310094475971
 20
247.75492777097639
 30
0.0
 11
164.08310094475959
 21
242.4359527385663
 31
0.0
  0
LINE
  5
4756
  8
AM_0
 10
164.08310094475971
 20
247.7683676794303
 30
0.0
 11
164.08310094475971
 21
247.9359527385663
 31
0.0
  0
LINE
  5
4757
  8
AM_0
 10
174.58310094476059
 20
251.13595273856629
 30
0.0
 11
174.58310094476059
 21
251.4359527385663
 31
0.0
  0
ARC
  5
4758
  8
AM_0
 10
176.80143010878959
 20
235.73595273856631
 30
0.0
 40
0.0999999999999643
 50
15.00019500651257
 51
90.0
  0
ARC
  5
4759
  8
AM_0
 10
173.39560094475669
 20
238.1859527385663
 30
0.0
 40
6.8125000000000382
 50
157.91171016505771
 51
202.08828983494229
  0
ARC
  5
475A
  8
AM_0
 10
184.0081009447596
 20
233.73595273856611
 30
0.0
 40
0.1999999999999993
 50
0.0
 51
90.0
  0
ARC
  5
475B
  8
AM_0
 10
184.0081009447596
 20
251.1359527385662
 30
0.0
 40
0.2000000000000028
 50
270.0
 51
0.0
  0
ARC
  5
475C
  8
AM_0
 10
173.39560094475669
 20
246.6859527385663
 30
0.0
 40
6.8125000000000382
 50
157.91171016505771
 51
202.08828983494229
  0
ARC
  5
475D
  8
AM_0
 10
176.05143010878959
 20
235.1859527385663
 30
0.0
 40
0.1000000000000547
 50
288.4639767573006
 51
344.99980499348737
  0
ARC
  5
475E
  8
AM_0
 10
176.40585959586559
 20
235.73595273856731
 30
0.0
 40
0.1000000000000014
 50
90.0
 51
164.9998049934843
  0
ARC
  5
475F
  8
AM_0
 10
166.81728841774961
 20
234.43595273856431
 30
0.0
 40
0.499999999999975
 50
219.8055710921868
 51
270.0
  0
ARC
  5
4760
  8
AM_0
 10
164.58310094475959
 20
237.1169777061572
 30
0.0
 40
0.5
 50
180.00000000000969
 51
219.80557109223059
  0
ARC
  5
4761
  8
AM_0
 10
175.28310094475961
 20
235.17844805053431
 30
0.0
 40
0.3000000000000007
 50
0.0
 51
90.0
  0
ARC
  5
4762
  8
AM_0
 10
175.28310094475961
 20
234.77333719324429
 30
0.0
 40
0.3000000000000043
 50
270.0
 51
0.0
  0
ARC
  5
4763
  8
AM_0
 10
175.28310094475961
 20
238.5520482359353
 30
0.0
 40
0.3000000000000007
 50
0.0
 51
90.0
  0
ARC
  5
4764
  8
AM_0
 10
175.28310094475961
 20
237.7521319696433
 30
0.0
 40
0.2999999999999971
 50
270.0
 51
0.0
  0
ARC
  5
4765
  8
AM_0
 10
175.28310094475961
 20
241.98595273856731
 30
0.0
 40
0.2999999999999971
 50
270.0
 51
0.0
  0
ARC
  5
4766
  8
AM_0
 10
175.28310094475961
 20
233.90744900720131
 30
0.0
 40
0.3000000000000302
 50
275.71059313755637
 51
0.0
  0
ARC
  5
4767
  8
AM_0
 10
172.78310094475961
 20
233.63595273856629
 30
0.0
 40
0.1999999999999993
 50
180.0
 51
270.0
  0
ARC
  5
4768
  8
AM_0
 10
175.8831009447606
 20
234.13595273856731
 30
0.0
 40
0.1999999999999957
 50
270.0
 51
0.0
  0
ARC
  5
4769
  8
AM_0
 10
172.3831009447606
 20
233.73595273856631
 30
0.0
 40
0.1999999999999993
 50
359.99999999997061
 51
90.0
  0
ARC
  5
476A
  8
AM_0
 10
177.90585959586559
 20
235.73595273856719
 30
0.0
 40
0.1000000000000014
 50
90.0
 51
164.9998049934843
  0
ARC
  5
476B
  8
AM_0
 10
177.55143010878959
 20
235.1859527385663
 30
0.0
 40
0.1000000000000014
 50
270.0
 51
344.99980499348737
  0
ARC
  5
476C
  8
AM_0
 10
177.15585959586559
 20
235.1859527385663
 30
0.0
 40
0.1000000000000311
 50
195.00019500644461
 51
270.0
  0
ARC
  5
476D
  8
AM_0
 10
179.70810094475959
 20
235.33595273856619
 30
0.0
 40
0.5
 50
359.99999999997721
 51
90.0
  0
ARC
  5
476E
  8
AM_0
 10
184.0081009447596
 20
240.54769043005629
 30
0.0
 40
0.1999999999999993
 50
0.0
 51
90.0
  0
ARC
  5
476F
  8
AM_0
 10
184.0081009447596
 20
235.82421504707719
 30
0.0
 40
0.2000000000000028
 50
270.0
 51
0.0
  0
ARC
  5
4770
  8
AM_0
 10
180.40810094475961
 20
234.1359527385662
 30
0.0
 40
0.1999999999999993
 50
179.99999999994131
 51
270.0
  0
ARC
  5
4771
  8
AM_0
 10
180.40810094475961
 20
250.73595273856719
 30
0.0
 40
0.2000000000000028
 50
90.0
 51
180.00000000005531
  0
ARC
  5
4772
  8
AM_0
 10
184.0081009447596
 20
249.04769043005629
 30
0.0
 40
0.1999999999999993
 50
0.0
 51
90.0
  0
ARC
  5
4773
  8
AM_0
 10
184.0081009447596
 20
244.32421504707611
 30
0.0
 40
0.2000000000000028
 50
270.0
 51
0.0
  0
ARC
  5
4774
  8
AM_0
 10
179.70810094475959
 20
249.53595273856629
 30
0.0
 40
0.5
 50
270.0
 51
0.0000000000227982
  0
ARC
  5
4775
  8
AM_0
 10
176.40983337318551
 20
249.6859527385663
 30
0.0
 40
0.1000000000000014
 50
90.0
 51
164.99980499355539
  0
ARC
  5
4776
  8
AM_0
 10
176.80540388610959
 20
249.6859527385663
 30
0.0
 40
0.0999999999999608
 50
15.00019500651571
 51
90.0
  0
ARC
  5
4777
  8
AM_0
 10
177.15983337318551
 20
249.13595273856629
 30
0.0
 40
0.0999999999999608
 50
195.00019500651561
 51
270.0
  0
ARC
  5
4778
  8
AM_0
 10
176.05540388610959
 20
249.13595273856629
 30
0.0
 40
0.0999999999999803
 50
286.07948273872381
 51
344.99980499348419
  0
ARC
  5
4779
  8
AM_0
 10
172.3831009447606
 20
251.13595273856731
 30
0.0
 40
0.1999999999999957
 50
270.0
 51
0.000000000029312
  0
ARC
  5
477A
  8
AM_0
 10
175.8831009447606
 20
250.73595273856631
 30
0.0
 40
0.1999999999999993
 50
0.0
 51
90.0
  0
ARC
  5
477B
  8
AM_0
 10
172.78310094475961
 20
251.23595273856731
 30
0.0
 40
0.2000000000000028
 50
90.0
 51
180.0
  0
ARC
  5
477C
  8
AM_0
 10
175.28310094475961
 20
250.96445646993229
 30
0.0
 40
0.3000000000000007
 50
0.0
 51
84.289406862443656
  0
ARC
  5
477D
  8
AM_0
 10
175.28310094475961
 20
242.88595273856629
 30
0.0
 40
0.3000000000000007
 50
0.0
 51
90.0
  0
ARC
  5
477E
  8
AM_0
 10
175.28310094475961
 20
247.11977350749029
 30
0.0
 40
0.3000000000000007
 50
0.0
 51
90.0
  0
ARC
  5
477F
  8
AM_0
 10
175.28310094475961
 20
246.31985724119821
 30
0.0
 40
0.2999999999999971
 50
270.0
 51
0.0
  0
ARC
  5
4780
  8
AM_0
 10
175.28310094475961
 20
250.09856828388931
 30
0.0
 40
0.3000000000000007
 50
0.0
 51
90.0
  0
ARC
  5
4781
  8
AM_0
 10
175.28310094475961
 20
249.69345742659931
 30
0.0
 40
0.3000000000000043
 50
270.0
 51
0.0
  0
ARC
  5
4782
  8
AM_0
 10
164.58310094475959
 20
247.75492777097631
 30
0.0
 40
0.5000000000000059
 50
140.19442890776941
 51
179.99999999998701
  0
ARC
  5
4783
  8
AM_0
 10
166.81728841774961
 20
250.43595273856931
 30
0.0
 40
0.5
 50
90.0
 51
140.19442890781301
  0
LINE
  5
4784
  8
AM_0
 10
184.4081009447597
 20
233.4359527385661
 30
0.0
 11
186.20810094475959
 21
233.4359527385661
 31
0.0
  0
LINE
  5
4785
  8
AM_0
 10
184.20810094475959
 20
233.6359527385662
 30
0.0
 11
184.20810094475959
 21
251.23595273856719
 31
0.0
  0
LINE
  5
4786
  8
AM_0
 10
186.20810094475971
 20
251.43595273856619
 30
0.0
 11
184.4081009447597
 21
251.4359527385663
 31
0.0
  0
ARC
  5
4787
  8
AM_0
 10
184.4081009447597
 20
233.6359527385662
 30
0.0
 40
0.1999999999999993
 50
180.0
 51
270.0
  0
ARC
  5
4788
  8
AM_0
 10
184.4081009447597
 20
251.23595273856719
 30
0.0
 40
0.2000000000000028
 50
90.0
 51
180.0
  0
LINE
  5
4789
  8
ﾁｭｳｼﾝｾﾝ1
 10
156.20810094475959
 20
277.43595273856619
 30
0.0
 11
189.50604708325
 21
277.43595273856619
 31
0.0
  0
POLYLINE
  5
478A
  8
AM_0
 66
     1
 10
0.0
 20
0.0
 30
0.0
  0
VERTEX
  5
478B
  8
AM_0
  6
CONTINUOUS
 10
180.57134669145231
 20
265.4359527385663
 30
0.0
  0
VERTEX
  5
478C
  8
AM_0
  6
CONTINUOUS
 10
180.5762709447597
 20
258.7034757385664
 30
0.0
 42
-1.0
  0
SEQEND
  5
478D
  8
AM_0
  0
LINE
  5
478E
  8
AM_0
 10
186.20810094475959
 20
258.4359537385663
 30
0.0
 11
180.57351094475951
 21
258.43595373856641
 31
0.0
  0
LINE
  5
478F
  8
AM_0
 10
186.20810094475959
 20
256.4359527385663
 30
0.0
 11
180.57351094475951
 21
256.43595273856641
 31
0.0
  0
ARC
  5
4790
  8
AM_0
 10
179.47701094475951
 20
257.43204573856627
 30
0.0
 40
1.26892095
 50
90.000003000000945
 51
270.0
  0
ARC
  5
4791
  8
AM_0
 10
180.7574709447596
 20
257.4359517385663
 30
0.0
 40
1.0000000199999981
 50
90.000003000000945
 51
270.0
  0
LINE
  5
4792
  8
AM_0
 10
179.47701094475951
 20
258.70096773856642
 30
0.0
 11
186.20810094475959
 21
258.70096773856642
 31
0.0
  0
LINE
  5
4793
  8
AM_0
 10
179.47701094475951
 20
256.16312373856641
 30
0.0
 11
186.20810094475959
 21
256.16312373856641
 31
0.0
  0
POLYLINE
  5
4794
  8
AM_0
 66
     1
 10
0.0
 20
0.0
 30
0.0
  0
VERTEX
  5
4795
  8
AM_0
 10
180.61686094475951
 20
256.16662173856639
 30
0.0
  0
VERTEX
  5
4796
  8
AM_0
 10
180.82763198966649
 20
250.9359527385663
 30
0.0
 42
-1.0
  0
SEQEND
  5
4797
  8
AM_0
  0
LINE
  5
4798
  8
AM_0
 10
162.70811094476039
 20
314.49735624733819
 30
0.0
 11
162.70811094476011
 21
288.43595273856653
 31
0.0
  0
LINE
  5
4799
  8
AM_0
 10
153.70811094475951
 20
316.43595273856619
 30
0.0
 11
153.70811094475951
 21
245.4359527385661
 31
0.0
  0
LINE
  5
479A
  8
AM_0
 10
153.70811094475951
 20
239.4359527385663
 30
0.0
 11
153.70811094475951
 21
208.4359527385661
 31
0.0
  0
LINE
  5
479B
  8
AM_0
 10
153.70811094475951
 20
316.43595273856619
 30
0.0
 11
170.70811094475951
 21
315.4359527385663
 31
0.0
  0
LINE
  5
479C
  8
AM_0
 10
153.70811094475951
 20
208.4359527385663
 30
0.0
 11
170.70811094475951
 21
209.4359527385663
 31
0.0
  0
LINE
  5
479D
  8
AM_0
 10
162.70811094476019
 20
306.02985593665773
 30
0.0
 11
170.70811094475951
 21
306.02985593665773
 31
0.0
  0
LINE
  5
479E
  8
AM_0
 10
162.70811094476039
 20
314.49735624733819
 30
0.0
 11
170.70811094475951
 21
314.49735624733819
 31
0.0
  0
LINE
  5
479F
  8
AM_0
 10
159.20811094476031
 20
297.07682570382627
 30
0.0
 11
162.70811094476019
 21
297.07682570382627
 31
0.0
  0
LINE
  5
47A0
  8
AM_0
 10
159.20811094476031
 20
305.57682570382627
 30
0.0
 11
162.70811094476031
 21
305.57682570382627
 31
0.0
  0
LINE
  5
47A1
  8
AM_0
 10
158.70811094476019
 20
305.07682570382627
 30
0.0
 11
158.70811094476019
 21
297.57682570382627
 31
0.0
  0
ARC
  5
47A2
  8
AM_0
 10
159.20811094476031
 20
305.07682570382627
 30
0.0
 40
0.5
 50
90.0
 51
180.0
  0
ARC
  5
47A3
  8
AM_0
 10
159.20811094476031
 20
297.57682570382627
 30
0.0
 40
0.5
 50
180.0
 51
270.0
  0
LINE
  5
47A4
  8
AM_0
 10
153.70811094475951
 20
304.70814723170639
 30
0.0
 11
158.70811094476019
 21
304.70814723170639
 31
0.0
  0
LINE
  5
47A5
  8
AM_0
 10
153.70811094475951
 20
294.97306473341052
 30
0.0
 11
162.70811094476019
 21
294.9730647334103
 31
0.0
  0
LINE
  5
47A6
  8
AM_0
 10
162.70811094476039
 20
210.37454922979421
 30
0.0
 11
162.70811094476011
 21
238.1492393469581
 31
0.0
  0
LINE
  5
47A7
  8
AM_0
 10
162.70811094476019
 20
218.84204954047479
 30
0.0
 11
170.70811094475951
 21
218.84204954047479
 31
0.0
  0
LINE
  5
47A8
  8
AM_0
 10
162.70811094476039
 20
210.37454922979421
 30
0.0
 11
170.70811094475951
 21
210.37454922979421
 31
0.0
  0
LINE
  5
47A9
  8
AM_0
 10
159.20811094476031
 20
227.7950797733061
 30
0.0
 11
162.70811094476019
 21
227.7950797733061
 31
0.0
  0
LINE
  5
47AA
  8
AM_0
 10
159.20811094476031
 20
219.29507977330621
 30
0.0
 11
162.70811094476031
 21
219.29507977330621
 31
0.0
  0
LINE
  5
47AB
  8
AM_0
 10
158.70811094476019
 20
219.7950797733061
 30
0.0
 11
158.70811094476019
 21
227.29507977330621
 31
0.0
  0
ARC
  5
47AC
  8
AM_0
 10
159.20811094476031
 20
219.7950797733061
 30
0.0
 40
0.5
 50
180.0
 51
270.0
  0
ARC
  5
47AD
  8
AM_0
 10
159.20811094476031
 20
227.29507977330621
 30
0.0
 40
0.5
 50
90.0
 51
180.0
  0
LINE
  5
47AE
  8
AM_0
 10
153.70811094475951
 20
220.1637582454261
 30
0.0
 11
158.70811094476019
 21
220.16375824542601
 31
0.0
  0
LINE
  5
47AF
  8
AM_0
 10
153.70811094475951
 20
229.89884074372199
 30
0.0
 11
162.70811094476019
 21
229.8988407437221
 31
0.0
  0
LINE
  5
47B0
  8
AM_0
 10
118.79752619342381
 20
298.42636358349222
 30
0.0
 11
118.79752619342381
 21
291.91475868453352
 31
0.0
  0
LINE
  5
47B1
  8
AM_0
 10
115.7081109447593
 20
251.43595273856619
 30
0.0
 11
115.7081109447593
 21
245.9359527385661
 31
0.0
  0
LINE
  5
47B2
  8
AM_0
 10
121.2081109447593
 20
258.9359527385663
 30
0.0
 11
121.2081109447593
 21
265.93595273856607
 31
0.0
  0
LINE
  5
47B3
  8
AM_0
 10
132.9081109447593
 20
245.9359527385661
 30
0.0
 11
115.7081109447593
 21
245.9359527385661
 31
0.0
  0
LINE
  5
47B4
  8
AM_0
 10
147.70811094475931
 20
208.4359527385661
 30
0.0
 11
147.7081109447594
 21
239.14429002075369
 31
0.0
  0
LINE
  5
47B5
  8
AM_0
 10
147.70811094475931
 20
244.87418123228909
 30
0.0
 11
147.70811094475931
 21
316.4359527385663
 31
0.0
  0
LINE
  5
47B6
  8
AM_0
 10
115.7081109447593
 20
260.9359527385663
 30
0.0
 11
116.6081109447593
 21
260.9359527385663
 31
0.0
  0
LINE
  5
47B7
  8
AM_0
 10
133.20811094475931
 20
253.9359527385661
 30
0.0
 11
133.20811094475931
 21
256.52046242317022
 31
0.0
  0
LINE
  5
47B8
  8
AM_0
 10
113.508110944759
 20
263.93595273856619
 30
0.0
 11
113.508110944759
 21
260.9359527385663
 31
0.0
  0
LINE
  5
47B9
  8
AM_0
 10
116.6081109447593
 20
260.66360100398282
 30
0.0
 11
116.6081109447593
 21
264.20830447315001
 31
0.0
  0
LINE
  5
47BA
  8
AM_0
 10
113.2081109447592
 20
263.63595273856617
 30
0.0
 11
116.6081109447594
 21
263.63595273856617
 31
0.0
  0
LINE
  5
47BB
  8
AM_0
 10
120.6081109447593
 20
260.054382878159
 30
0.0
 11
120.6081109447593
 21
258.9359527385663
 31
0.0
  0
LINE
  5
47BC
  8
AM_0
 10
120.6081109447593
 20
260.9359527385663
 30
0.0
 11
120.6081109447593
 21
260.83595273856622
 31
0.0
  0
LINE
  5
47BD
  8
AM_0
 10
120.6081109447593
 20
260.83595273856622
 30
0.0
 11
120.6081109447593
 21
260.054382878159
 31
0.0
  0
LINE
  5
47BE
  8
AM_0
 10
115.7081109447593
 20
245.9359527385661
 30
0.0
 11
115.7081109447593
 21
237.6984187291439
 31
0.0
  0
LINE
  5
47BF
  8
AM_0
 10
133.06166433535259
 20
256.87401581376349
 30
0.0
 11
132.70659720916441
 21
257.22908293995181
 31
0.0
  0
LINE
  5
47C0
  8
AM_0
 10
115.7081109447593
 20
263.93595273856619
 30
0.0
 11
115.7081109447593
 21
287.17348674798848
 31
0.0
  0
LINE
  5
47C1
  8
AM_0
 10
147.70811094475931
 20
307.4359527385663
 30
0.0
 11
123.9381022441267
 21
307.4359527385663
 31
0.0
  0
LINE
  5
47C2
  8
AM_0
 10
115.7081109447593
 20
252.36235591428729
 30
0.0
 11
115.7081109447593
 21
260.9359527385663
 31
0.0
  0
LINE
  5
47C3
  8
AM_0
 10
153.70811094475951
 20
316.4359527385663
 30
0.0
 11
147.70811094475931
 21
316.4359527385663
 31
0.0
  0
LINE
  5
47C4
  8
AM_0
 10
147.70811094475931
 20
208.4359527385661
 30
0.0
 11
153.70811094475931
 21
208.4359527385661
 31
0.0
  0
LINE
  5
47C5
  8
AM_0
 10
147.70811094475931
 20
217.43595273856619
 30
0.0
 11
138.20811094475931
 21
217.43595273856619
 31
0.0
  0
LINE
  5
47C6
  8
AM_0
 10
115.7536876857227
 20
287.69443128098931
 30
0.0
 11
118.323131133385
 21
302.266469192253
 31
0.0
  0
LINE
  5
47C7
  8
AM_0
 10
115.7081109447593
 20
252.36235591428729
 30
0.0
 11
115.7081109447593
 21
251.43595273856619
 31
0.0
  0
LINE
  5
47C8
  8
AM_0
 10
138.20811094475931
 20
217.50457518895209
 30
0.0
 11
135.64532364586231
 21
217.50457518895209
 31
0.0
  0
LINE
  5
47C9
  8
AM_0
 10
121.75194945246039
 20
217.43595273856619
 30
0.0
 11
122.7081109447593
 21
217.43595273856619
 31
0.0
  0
LINE
  5
47CA
  8
AM_0
 10
115.7536876857227
 20
237.17747419614309
 30
0.0
 11
118.79752619342381
 21
219.91500820556541
 31
0.0
  0
LINE
  5
47CB
  8
AM_0
 10
115.7081109447593
 20
237.4359527385661
 30
0.0
 11
115.7536876857227
 21
237.17747419614309
 31
0.0
  0
LINE
  5
47CC
  8
AM_0
 10
115.7081109447593
 20
237.6984187291439
 30
0.0
 11
115.7081109447593
 21
237.4359527385661
 31
0.0
  0
LINE
  5
47CD
  8
AM_0
 10
126.75811094475939
 20
233.43489635019409
 30
0.0
 11
131.6581109447593
 21
233.43489635019409
 31
0.0
  0
LINE
  5
47CE
  8
AM_0
 10
126.75811094475939
 20
232.22187603176161
 30
0.0
 11
131.6581109447593
 21
232.22187603176161
 31
0.0
  0
LINE
  5
47CF
  8
AM_0
 10
125.9581109447593
 20
232.6348963501942
 30
0.0
 11
125.9581109447593
 21
226.99376492974781
 31
0.0
  0
LINE
  5
47D0
  8
AM_0
 10
125.9581109447593
 20
225.16235906081511
 30
0.0
 11
125.9581109447593
 21
226.99376492974781
 31
0.0
  0
LINE
  5
47D1
  8
AM_0
 10
122.1081109447593
 20
218.47266240089209
 30
0.0
 11
122.1081109447593
 21
225.0952267790191
 31
0.0
  0
LINE
  5
47D2
  8
AM_0
 10
132.45811094475931
 20
232.6348963501942
 30
0.0
 11
132.45811094475931
 21
230.86952074419261
 31
0.0
  0
LINE
  5
47D3
  8
AM_0
 10
136.30811094475931
 20
225.0952267790191
 30
0.0
 11
136.30811094475931
 21
218.47266240089209
 31
0.0
  0
LINE
  5
47D4
  8
AM_0
 10
127.843275543533
 20
222.87639136070129
 30
0.0
 11
122.7081109447593
 21
221.08637610547689
 31
0.0
  0
LINE
  5
47D5
  8
AM_0
 10
135.70811094475931
 20
221.08637610547689
 30
0.0
 11
134.06807471861339
 21
221.65805979885309
 31
0.0
  0
LINE
  5
47D6
  8
AM_0
 10
126.6977375393864
 20
220.8922613355181
 30
0.0
 11
122.7081109447593
 21
219.5015576239492
 31
0.0
  0
LINE
  5
47D7
  8
AM_0
 10
135.70811094475931
 20
219.5015576239492
 30
0.0
 11
133.30637372958989
 21
220.33875498568909
 31
0.0
  0
LINE
  5
47D8
  8
AM_0
 10
135.70811094475931
 20
221.08637610547689
 30
0.0
 11
135.70811094475931
 21
218.2172349566321
 31
0.0
  0
LINE
  5
47D9
  8
AM_0
 10
135.70811094475931
 20
218.2172349566321
 30
0.0
 11
135.70811094475931
 21
216.1979923385114
 31
0.0
  0
LINE
  5
47DA
  8
AM_0
 10
129.20806868293309
 20
213.9322081392958
 30
0.0
 11
135.70811094475931
 21
216.1979923385114
 31
0.0
  0
LINE
  5
47DB
  8
AM_0
 10
122.7081109447593
 20
216.1979923385114
 30
0.0
 11
122.7081109447593
 21
218.2172349566321
 31
0.0
  0
LINE
  5
47DC
  8
AM_0
 10
122.7081109447593
 20
216.1979923385114
 30
0.0
 11
129.20806868293309
 21
213.93223760254361
 31
0.0
  0
LINE
  5
47DD
  8
AM_0
 10
122.7081109447593
 20
218.2172349566321
 30
0.0
 11
122.7081109447593
 21
221.08637610547689
 31
0.0
  0
LINE
  5
47DE
  8
AM_0
 10
115.2080722767524
 20
315.93595273856619
 30
0.0
 11
115.20804982435369
 21
342.93595273856619
 31
0.0
  0
LINE
  5
47DF
  8
AM_0
 10
115.20804982435369
 20
342.93595273856619
 30
0.0
 11
123.20804982435639
 21
342.93595273856619
 31
0.0
  0
LINE
  5
47E0
  8
AM_0
 10
123.20804982435639
 20
342.93595273856619
 30
0.0
 11
124.7080451691773
 21
348.5340115765548
 31
0.0
  0
LINE
  5
47E1
  8
AM_0
 10
124.7080451691773
 20
348.5340115765548
 30
0.0
 11
124.7080304058169
 21
366.28760385644517
 31
0.0
  0
LINE
  5
47E2
  8
AM_0
 10
115.20804982435369
 20
342.93595273856619
 30
0.0
 11
113.7080451691447
 21
348.53404632339613
 31
0.0
  0
LINE
  5
47E3
  8
AM_0
 10
113.7080451691447
 20
348.53404632339613
 30
0.0
 11
113.70803040582069
 21
366.28759470917169
 31
0.0
  0
LINE
  5
47E4
  8
AM_0
 10
119.2080722767537
 20
366.28759470917169
 30
0.0
 11
119.2080722767537
 21
348.53404632339613
 31
0.0
  0
LINE
  5
47E6
  8
AM_0
 10
123.20804982435639
 20
342.93595273856619
 30
0.0
 11
123.2080722767552
 21
315.93595273856619
 31
0.0
  0
LINE
  5
47E7
  8
AM_0
 10
133.20811094475931
 20
291.91475868453352
 30
0.0
 11
133.20811094475931
 21
246.23595273856611
 31
0.0
  0
LINE
  5
47E8
  8
AM_0
 10
121.2081109447593
 20
256.52046242317022
 30
0.0
 11
121.2081109447593
 21
253.9359527385661
 31
0.0
  0
LINE
  5
47E9
  8
AM_0
 10
121.7096246803543
 20
257.22908293995181
 30
0.0
 11
121.35455755416611
 21
256.87401581376349
 31
0.0
  0
LINE
  5
47EA
  8
AM_0
 10
132.70811094475931
 20
253.43595273856619
 30
0.0
 11
121.7081109447593
 21
253.43595273856619
 31
0.0
  0
LINE
  5
47EB
  8
AM_0
 10
112.7080731082584
 20
314.93594733335908
 30
0.0
 11
112.7081001342938
 21
309.93594733335919
 31
0.0
  0
LINE
  5
47EC
  8
AM_0
 10
125.7080731083899
 20
314.93595814377318
 30
0.0
 11
125.7080990362096
 21
310.13913549040262
 31
0.0
  0
LINE
  5
47ED
  8
AM_0
 10
116.32861419684021
 20
307.93595273856619
 30
0.0
 11
115.75705229547491
 21
308.59253656062651
 31
0.0
  0
LINE
  5
47EE
  8
AM_0
 10
113.70810013427921
 20
308.93595273856619
 30
0.0
 11
124.7080990362096
 21
308.93595273856619
 31
0.0
  0
LINE
  5
47EF
  8
AM_0
 10
125.7080990362096
 20
310.13913549040262
 30
0.0
 11
125.7080990362096
 21
309.93595273856619
 31
0.0
  0
LINE
  5
47F0
  8
AM_0
 10
125.7080990362096
 20
310.13913549040262
 30
0.0
 11
125.70810013442529
 21
309.93595814377318
 31
0.0
  0
LINE
  5
47F1
  8
AM_0
 10
113.70807310824379
 20
315.93595273856619
 30
0.0
 11
124.70807310840451
 21
315.93595273856619
 31
0.0
  0
LINE
  5
47F2
  8
AM_0
 10
123.7155469069215
 20
307.96653980885162
 30
0.0
 11
130.83834664026699
 21
290.98530049010481
 31
0.0
  0
LINE
  5
47F3
  8
AM_0
 10
116.32861419684021
 20
307.93595273856619
 30
0.0
 11
122.9053292721504
 21
289.2414121081639
 31
0.0
  0
LINE
  5
47F4
  8
AM_0
 10
120.6081109447593
 20
260.9359527385663
 30
0.0
 11
120.6081109447593
 21
260.83595273856622
 31
0.0
  0
LINE
  5
47F5
  8
AM_0
 10
120.6081109447593
 20
260.83595273856622
 30
0.0
 11
120.6081109447593
 21
260.054382878159
 31
0.0
  0
LINE
  5
47F6
  8
AM_0
 10
120.6081109447593
 20
258.9359527385663
 30
0.0
 11
121.2081109447593
 21
258.9359527385663
 31
0.0
  0
LINE
  5
47F7
  8
AM_0
 10
117.9081109447593
 20
260.054382878159
 30
0.0
 11
117.9081109447593
 21
264.81752259897343
 31
0.0
  0
LINE
  5
47F8
  8
AM_0
 10
117.7470667155018
 20
259.7676912498161
 30
0.0
 11
116.8145136659946
 21
260.30610100398269
 31
0.0
  0
LINE
  5
47F9
  8
AM_0
 10
120.6081109447593
 20
265.93595273856607
 30
0.0
 11
120.6081109447593
 21
260.9359527385663
 31
0.0
  0
LINE
  5
47FA
  8
AM_0
 10
118.18056253678979
 20
259.26052625802328
 30
0.0
 11
120.3356593527287
 21
259.26052625802328
 31
0.0
  0
LINE
  5
47FB
  8
AM_0
 10
118.18056253678979
 20
260.84823949829479
 30
0.0
 11
120.3356593527287
 21
260.84823949829479
 31
0.0
  0
LINE
  5
47FC
  8
AM_0
 10
116.6081109447594
 20
263.93595273856619
 30
0.0
 11
113.508110944759
 21
263.93595273856619
 31
0.0
  0
LINE
  5
47FD
  8
AM_0
 10
113.508110944759
 20
263.93595273856619
 30
0.0
 11
113.2081109447592
 21
263.63595273856617
 31
0.0
  0
LINE
  5
47FE
  8
AM_0
 10
113.2081109447592
 20
263.63595273856617
 30
0.0
 11
113.2081109447592
 21
261.23595273856631
 31
0.0
  0
LINE
  5
47FF
  8
AM_0
 10
113.508110944759
 20
260.9359527385663
 30
0.0
 11
115.7081109447593
 21
260.9359527385663
 31
0.0
  0
LINE
  5
4800
  8
AM_0
 10
113.2081109447592
 20
261.23595273856631
 30
0.0
 11
113.508110944759
 21
260.9359527385663
 31
0.0
  0
LINE
  5
4801
  8
AM_0
 10
116.6081109447593
 20
261.23595273856631
 30
0.0
 11
113.2081109447592
 21
261.23595273856631
 31
0.0
  0
ARC
  5
4802
  8
AM_0
 10
115.2081109447593
 20
262.43595273856619
 30
0.0
 40
18.000000000000082
 50
344.79096035988943
 51
15.209039640107409
  0
ARC
  5
4803
  8
AM_0
 10
119.3153341287328
 20
260.054382878159
 30
0.0
 40
1.292776816026465
 50
322.11555894630482
 51
0.0
  0
ARC
  5
4804
  8
AM_0
 10
139.20811094475931
 20
262.43595273856619
 30
0.0
 40
17.999999999999918
 50
164.7909603598894
 51
195.20903964011049
  0
ARC
  5
4805
  8
AM_0
 10
126.5119237958278
 20
219.1863648322317
 30
0.0
 40
6.001601094213977
 50
95.294644622325137
 51
137.2036378052704
  0
ARC
  5
4806
  8
AM_0
 10
126.5119237958278
 20
221.01777070116449
 30
0.0
 40
6.0016010942139628
 50
95.294644622325137
 51
137.2036378052704
  0
ARC
  5
4807
  8
AM_0
 10
122.9778426299565
 20
219.68325048931581
 30
0.0
 40
1.4906229315522701
 50
234.30512237790029
 51
259.57476505017542
  0
ARC
  5
4808
  8
AM_0
 10
131.9042980936909
 20
221.01777070116449
 30
0.0
 40
6.0016010942138758
 50
42.796362194729539
 51
44.995924864879747
  0
ARC
  5
4809
  8
AM_0
 10
131.9042980936909
 20
219.1863648322317
 30
0.0
 40
6.0016010942138758
 50
42.796362194729539
 51
53.897278316401717
  0
ARC
  5
480A
  8
AM_0
 10
135.43837925956231
 20
219.68325048931581
 30
0.0
 40
1.490622931552253
 50
280.42523494982129
 51
305.69487762209508
  0
ARC
  5
480B
  8
AM_0
 10
119.2080373508002
 20
357.93595273856619
 30
0.0
 40
10.0
 50
56.63303467623782
 51
123.3670606147022
  0
ARC
  5
480C
  8
AM_0
 10
116.4580513412872
 20
361.85494634956581
 30
0.0
 40
5.2164151124522951
 50
58.18448044842868
 51
121.8155195515713
  0
ARC
  5
480D
  8
AM_0
 10
121.9580587149218
 20
361.85407145880572
 30
0.0
 40
5.217140387381062
 50
58.190058295973543
 51
121.81013228735971
  0
ARC
  5
480E
  8
AM_0
 10
116.4580587229492
 20
349.90200033773903
 30
0.0
 40
3.0714610092699122
 50
206.44737672421749
 51
333.55262327578248
  0
ARC
  5
480F
  8
AM_0
 10
121.95806735432041
 20
349.90026013304362
 30
0.0
 40
3.070669812974502
 50
206.41845794673139
 51
333.58081810520707
  0
ARC
  5
4810
  8
AM_0
 10
122.670540820819
 20
262.43595273856619
 30
0.0
 40
4.762429876059711
 50
160.52575999458611
 51
199.4742400054138
  0
ARC
  5
4811
  8
AM_0
 10
119.2008877607858
 20
260.054382878159
 30
0.0
 40
1.292776816026556
 50
142.11555894629771
 51
217.8844410536951
  0
ARC
  5
4812
  8
AM_0
 10
115.8456810686997
 20
262.43595273856619
 30
0.0
 40
4.762429876059584
 50
340.52575999458628
 51
19.474240005409651
  0
ARC
  5
4813
  8
AM_0
 10
119.3153341287328
 20
260.054382878159
 30
0.0
 40
1.2927768160265021
 50
0.0
 51
37.884441053702282
  0
ARC
  5
4814
  8
AM_0
 10
128.94065910205569
 20
227.51105791315291
 30
8206336.7530117426
 40
12.9134744604336
 50
271.18655406403752
 51
287.92670513354841
  0
LINE
  5
4815
  8
AM_0
 10
132.91542803145421
 20
215.2245191573372
 30
8206336.7530117426
 11
133.3280087986555
 21
215.37776084272991
 31
8206336.7530117426
  0
LINE
  5
4816
  8
AM_0
 10
133.3280087986555
 20
215.37776084272991
 30
8206336.7530117426
 11
133.73050054291201
 21
215.55673020543571
 31
8206336.7530117426
  0
ARC
  5
4817
  8
AM_0
 10
131.22673890215609
 20
220.84153076915811
 30
8206336.7530117426
 40
5.8479004225482916
 50
295.35002817212489
 51
303.5670510400584
  0
LINE
  5
4818
  8
AM_0
 10
134.46011597816599
 20
215.9688300768957
 30
8206336.7530117426
 11
134.77465885741719
 21
216.20110353206621
 31
8206336.7530117426
  0
LINE
  5
4819
  8
AM_0
 10
134.77465885741719
 20
216.20110353206621
 30
8206336.7530117426
 11
135.06384800561449
 21
216.4639744081048
 31
8206336.7530117426
  0
ARC
  5
481A
  8
AM_0
 10
133.1849650422364
 20
218.32965879831221
 30
8206336.7530117426
 40
2.647825416060579
 50
315.20195107610522
 51
327.6690874537353
  0
LINE
  5
481B
  8
AM_0
 10
135.4223071220822
 20
216.91357975684329
 30
8206336.7530117426
 11
135.5512230783616
 21
217.15311152207951
 31
8206336.7530117426
  0
LINE
  5
481C
  8
AM_0
 10
135.5512230783616
 20
217.15311152207951
 30
8206336.7530117426
 11
135.64532364586231
 21
217.40777051056381
 31
8206336.7530117426
  0
ARC
  5
481D
  8
AM_0
 10
134.0465034069133
 20
217.8628591751671
 30
8206336.7530117426
 40
1.6623272388802151
 50
344.11151119415172
 51
352.55958186686092
  0
LINE
  5
481E
  8
AM_0
 10
135.69483394924131
 20
217.64759591227241
 30
8206336.7530117426
 11
135.70473861368231
 21
217.74846166599309
 31
8206336.7530117426
  0
LINE
  5
481F
  8
AM_0
 10
135.70473861368231
 20
217.74846166599309
 30
8206336.7530117426
 11
135.70811094475931
 21
217.8497603797318
 31
8206336.7530117426
  0
ARC
  5
4820
  8
AM_0
 10
134.11301752608989
 20
217.8467842282337
 30
8206336.7530117426
 40
1.595096195143147
 50
0.1069032823798393
 51
11.47976002760999
  0
LINE
  5
4821
  8
AM_0
 10
135.67620393514821
 20
218.16424307957541
 30
8206336.7530117426
 11
135.6355720249631
 21
218.32481695509981
 31
8206336.7530117426
  0
LINE
  5
4822
  8
AM_0
 10
135.6355720249631
 20
218.32481695509981
 30
8206336.7530117426
 11
135.57993196042949
 21
218.48078524852249
 31
8206336.7530117426
  0
ARC
  5
4823
  8
AM_0
 10
133.7044576667758
 20
217.70540246713759
 30
8206336.7530117426
 40
2.029438908620818
 50
22.461811304460369
 51
32.14428943578929
  0
LINE
  5
4824
  8
AM_0
 10
135.42280570977249
 20
218.78517201984471
 30
8206336.7530117426
 11
135.30051696323801
 21
218.9624826125665
 31
8206336.7530117426
  0
LINE
  5
4825
  8
AM_0
 10
135.30051696323801
 20
218.9624826125665
 30
8206336.7530117426
 11
135.1636633628998
 21
219.12886453495611
 31
8206336.7530117426
  0
ARC
  5
4826
  8
AM_0
 10
132.66550537671591
 20
216.8858528491433
 30
8206336.7530117426
 40
3.357364255874967
 50
41.919595935556771
 51
50.918621528346122
  0
LINE
  5
4827
  8
AM_0
 10
134.7820668817233
 20
219.492011352026
 30
8206336.7530117426
 11
134.36292826432319
 21
219.79470782965171
 31
8206336.7530117426
  0
LINE
  5
4828
  8
AM_0
 10
134.36292826432319
 20
219.79470782965171
 30
8206336.7530117426
 11
133.9137745844256
 21
220.05205953090621
 31
8206336.7530117426
  0
ARC
  5
4829
  8
AM_0
 10
130.5825489013979
 20
213.5244492366368
 30
8206336.7530117426
 40
7.3284896605723491
 50
62.963482965306312
 51
68.223671679105692
  0
ARC
  5
482A
  8
AM_0
 10
129.47556278747859
 20
227.5110579132058
 30
8206336.7530117426
 40
12.91347446048893
 50
252.0732948664546
 51
268.81307083254751
  0
LINE
  5
482B
  8
AM_0
 10
125.5007938580644
 20
215.2245191573372
 30
8206336.7530117426
 11
125.08821309086321
 21
215.37776084272991
 31
8206336.7530117426
  0
LINE
  5
482C
  8
AM_0
 10
125.08821309086321
 20
215.37776084272991
 30
8206336.7530117426
 11
124.6857213466066
 21
215.55673020543571
 31
8206336.7530117426
  0
ARC
  5
482D
  8
AM_0
 10
127.1894829873675
 20
220.8415307691667
 30
8206336.7530117426
 40
5.8479004225582418
 50
236.43294895995061
 51
244.649971827868
  0
LINE
  5
482E
  8
AM_0
 10
123.95610591135259
 20
215.9688300768957
 30
8206336.7530117426
 11
123.6415630321015
 21
216.20110353206621
 31
8206336.7530117426
  0
LINE
  5
482F
  8
AM_0
 10
123.6415630321015
 20
216.20110353206621
 30
8206336.7530117426
 11
123.35237388390399
 21
216.4639744081048
 31
8206336.7530117426
  0
ARC
  5
4830
  8
AM_0
 10
125.2312568472819
 20
218.3296587983117
 30
8206336.7530117426
 40
2.6478254160599781
 50
212.3309125462558
 51
224.79804892389021
  0
LINE
  5
4831
  8
AM_0
 10
122.99391476743649
 20
216.91357975684329
 30
8206336.7530117426
 11
122.86499881115709
 21
217.15311152207951
 31
8206336.7530117426
  0
LINE
  5
4832
  8
AM_0
 10
122.86499881115709
 20
217.15311152207951
 30
8206336.7530117426
 11
122.7708982436563
 21
217.40777051056381
 31
8206336.7530117426
  0
ARC
  5
4833
  8
AM_0
 10
124.36971848263499
 20
217.86285917517361
 30
8206336.7530117426
 40
1.6623272389105701
 50
187.4404181332275
 51
195.8884888057874
  0
LINE
  5
4834
  8
AM_0
 10
122.7213879402773
 20
217.64759591227241
 30
8206336.7530117426
 11
122.7114832758364
 21
217.74846166599309
 31
8206336.7530117426
  0
LINE
  5
4835
  8
AM_0
 10
122.7114832758364
 20
217.74846166599309
 30
8206336.7530117426
 11
122.7081109447593
 21
217.8497603797318
 31
8206336.7530117426
  0
ARC
  5
4836
  8
AM_0
 10
124.30320436342591
 20
217.8467842282337
 30
8206336.7530117426
 40
1.5950961951403351
 50
168.52023997237021
 51
179.8930967176201
  0
LINE
  5
4837
  8
AM_0
 10
122.7400179543703
 20
218.16424307957541
 30
8206336.7530117426
 11
122.7806498645556
 21
218.32481695509981
 31
8206336.7530117426
  0
LINE
  5
4838
  8
AM_0
 10
122.7806498645556
 20
218.32481695509981
 30
8206336.7530117426
 11
122.83628992908901
 21
218.48078524852249
 31
8206336.7530117426
  0
ARC
  5
4839
  8
AM_0
 10
124.71176422275251
 20
217.70540246713171
 30
8206336.7530117426
 40
2.02943890863216
 50
147.8557105642179
 51
157.53818869548999
  0
LINE
  5
483A
  8
AM_0
 10
122.99341617974611
 20
218.78517201984471
 30
8206336.7530117426
 11
123.1157049262807
 21
218.9624826125665
 31
8206336.7530117426
  0
LINE
  5
483B
  8
AM_0
 10
123.1157049262807
 20
218.9624826125665
 30
8206336.7530117426
 11
123.2525585266189
 21
219.12886453495611
 31
8206336.7530117426
  0
ARC
  5
483C
  8
AM_0
 10
125.75071651281149
 20
216.88585284913481
 30
8206336.7530117426
 40
3.3573642558870951
 50
129.0813784716793
 51
138.08040406443399
  0
LINE
  5
483D
  8
AM_0
 10
123.6341550077953
 20
219.492011352026
 30
8206336.7530117426
 11
124.05329362519539
 21
219.79470782965171
 31
8206336.7530117426
  0
LINE
  5
483E
  8
AM_0
 10
124.05329362519539
 20
219.79470782965171
 30
8206336.7530117426
 11
124.5024473050931
 21
220.05205953090621
 31
8206336.7530117426
  0
ARC
  5
483F
  8
AM_0
 10
127.8336729881195
 20
213.52444923664069
 30
8206336.7530117426
 40
7.3284896605682359
 50
109.0382363849769
 51
117.03651703470091
  0
LINE
  5
4840
  8
AM_0
 10
125.4431264433418
 20
220.45207855137079
 30
8206336.7530117426
 11
126.1196243379091
 21
220.65895840098921
 31
8206336.7530117426
  0
LINE
  5
4841
  8
AM_0
 10
126.1196243379091
 20
220.65895840098921
 30
8206336.7530117426
 11
126.6664137156444
 21
220.7840597225412
 31
8206336.7530117426
  0
ARC
  5
4842
  8
AM_0
 10
132.9081109447593
 20
246.23595273856611
 30
0.0
 40
0.2999999999999972
 50
270.0
 51
0.0
  0
ARC
  5
4843
  8
AM_0
 10
133.06015059975761
 20
257.5826363305452
 30
0.0
 40
0.4999999999998723
 50
164.7909603598988
 51
225.00000000001839
  0
ARC
  5
4844
  8
AM_0
 10
118.7081109447593
 20
237.6984187291439
 30
0.0
 40
3.0
 50
180.0
 51
190.00000000000171
  0
ARC
  5
4845
  8
AM_0
 10
118.7081109447593
 20
287.17348674798848
 30
0.0
 40
2.999999999999992
 50
169.9999999999981
 51
180.0
  0
ARC
  5
4846
  8
AM_0
 10
121.75194945246039
 20
220.4359527385661
 30
0.0
 40
2.9999999999999631
 50
190.00000000000171
 51
270.0
  0
ARC
  5
4847
  8
AM_0
 10
126.75811094475939
 20
232.6348963501942
 30
0.0
 40
0.7999999999998977
 50
90.0
 51
180.0
  0
ARC
  5
4848
  8
AM_0
 10
126.75811094475939
 20
231.4218760317616
 30
0.0
 40
0.7999999999999972
 50
90.0
 51
180.0
  0
ARC
  5
4849
  8
AM_0
 10
131.6581109447593
 20
232.6348963501942
 30
0.0
 40
0.8000000000000112
 50
0.0
 51
90.0
  0
ARC
  5
484A
  8
AM_0
 10
131.6581109447593
 20
231.4218760317616
 30
0.0
 40
0.8000000000000112
 50
0.0
 51
90.0
  0
ARC
  5
484B
  8
AM_0
 10
121.7081109447593
 20
253.9359527385661
 30
0.0
 40
0.5
 50
180.0
 51
270.0
  0
ARC
  5
484C
  8
AM_0
 10
132.70811094475931
 20
253.9359527385661
 30
0.0
 40
0.5
 50
270.0
 51
0.0
  0
ARC
  5
484D
  8
AM_0
 10
132.70811094475931
 20
256.52046242317022
 30
0.0
 40
0.5
 50
0.0
 51
45.0
  0
ARC
  5
484E
  8
AM_0
 10
121.356071289761
 20
257.5826363305452
 30
0.0
 40
0.5000000000001048
 50
314.99999999998619
 51
15.209039640101111
  0
ARC
  5
484F
  8
AM_0
 10
121.7081109447593
 20
256.52046242317022
 30
0.0
 40
0.499999999999984
 50
134.99999999999079
 51
180.0
  0
ARC
  5
4850
  8
AM_0
 10
113.70807310824379
 20
314.93595273856619
 30
0.0
 40
1.0
 50
90.0
 51
180.00030969555451
  0
ARC
  5
4851
  8
AM_0
 10
124.70807310840451
 20
314.93595273856619
 30
0.0
 40
0.9999999999999992
 50
0.0003096955479991
 51
90.0
  0
ARC
  5
4852
  8
AM_0
 10
113.70810013427921
 20
309.93595273856619
 30
0.0
 40
0.9999999999999992
 50
180.00030969555451
 51
270.0
  0
ARC
  5
4853
  8
AM_0
 10
124.7080990362096
 20
309.93595273856619
 30
0.0
 40
1.0
 50
270.0
 51
0.0
  0
ARC
  5
4854
  8
AM_0
 10
124.18834082329479
 20
308.33595273856622
 30
0.0
 40
0.5999999999999944
 50
90.0
 51
218.00194433773009
  0
ARC
  5
4855
  8
AM_0
 10
115.0027992314383
 20
307.93595273856619
 30
0.0
 40
0.9999999999999468
 50
41.03985310957956
 51
90.0
  0
ARC
  5
4856
  8
AM_0
 10
117.0209163872298
 20
260.66360100398282
 30
0.0
 40
0.4128054424705854
 50
180.0
 51
239.99999999999949
  0
ARC
  5
4857
  8
AM_0
 10
117.3342612730312
 20
259.05269124981612
 30
0.0
 40
0.8256108849411369
 50
28.217424594175291
 51
59.999999999996653
  0
LINE
  5
4858
  8
AM_0
 10
116.4978452743908
 20
291.91475868453352
 30
0.0
 11
121.96484942415969
 21
291.91475868453352
 31
0.0
  0
LINE
  5
4859
  8
AM_0
 10
130.44848436607339
 20
291.91475868453352
 30
0.0
 11
133.20811094475931
 21
291.91475868453352
 31
0.0
  0
LINE
  5
485A
  8
AM_0
 10
120.6081109447596
 20
265.93595273856607
 30
0.0
 11
121.2081109447596
 21
265.93595273856607
 31
0.0
  0
LINE
  5
485B
  8
AM_0
 10
117.747066715502
 20
265.1042142273165
 30
0.0
 11
116.8145136659948
 21
264.56580447315002
 31
0.0
  0
LINE
  5
485C
  8
AM_0
 10
118.18056253679021
 20
265.61137921910932
 30
0.0
 11
120.335659352729
 21
265.61137921910898
 31
0.0
  0
LINE
  5
485D
  8
AM_0
 10
118.18056253679001
 20
264.0236659788377
 30
0.0
 11
120.3356593527289
 21
264.02366597883753
 31
0.0
  0
ARC
  5
485E
  8
AM_0
 10
119.315334128733
 20
264.81752259897343
 30
0.0
 40
1.292776816026465
 50
359.99999999999352
 51
37.88444105369058
  0
ARC
  5
485F
  8
AM_0
 10
119.200887760786
 20
264.81752259897343
 30
0.0
 40
1.292776816026556
 50
142.11555894629771
 51
217.8844410536951
  0
ARC
  5
4860
  8
AM_0
 10
119.315334128733
 20
264.81752259897343
 30
0.0
 40
1.2927768160265021
 50
322.11555894629322
 51
359.99999999999352
  0
ARC
  5
4861
  8
AM_0
 10
117.02091638723
 20
264.20830447315001
 30
0.0
 40
0.4128054424705854
 50
119.99999999999331
 51
179.99999999999341
  0
ARC
  5
4862
  8
AM_0
 10
117.3342612730315
 20
265.81921422731648
 30
0.0
 40
0.8256108849411369
 50
300.00000000000051
 51
331.7825754058203
  0
LINE
  5
4863
  8
AM_0
 10
133.20811094475991
 20
270.93595273856567
 30
0.0
 11
133.20811094475971
 21
268.3514430539617
 31
0.0
  0
LINE
  5
4864
  8
AM_0
 10
133.06166433535299
 20
267.99788966336843
 30
0.0
 11
132.7065972091647
 21
267.64282253718028
 31
0.0
  0
LINE
  5
4865
  8
AM_0
 10
121.2081109447597
 20
268.3514430539625
 30
0.0
 11
121.2081109447598
 21
270.93595273856641
 31
0.0
  0
LINE
  5
4866
  8
AM_0
 10
121.70962468035469
 20
267.6428225371809
 30
0.0
 11
121.3545575541665
 21
267.99788966336911
 31
0.0
  0
LINE
  5
4867
  8
AM_0
 10
132.70811094475991
 20
271.43595273856567
 30
0.0
 11
132.2275330589124
 21
271.43595273856567
 31
0.0
  0
LINE
  5
4868
  8
AM_0
 10
122.18868883060721
 20
271.43595273856641
 30
0.0
 11
121.70811094475989
 21
271.43595273856641
 31
0.0
  0
ARC
  5
4869
  8
AM_0
 10
133.06015059975789
 20
267.28926914658678
 30
0.0
 40
0.4999999999998723
 50
134.99999999997701
 51
195.20903964009699
  0
ARC
  5
486A
  8
AM_0
 10
121.70811094475989
 20
270.93595273856641
 30
0.0
 40
0.5
 50
89.999999999996732
 51
179.99999999999659
  0
ARC
  5
486B
  8
AM_0
 10
132.70811094475991
 20
270.93595273856567
 30
0.0
 40
0.5
 50
359.99999999999682
 51
89.999999999996732
  0
ARC
  5
486C
  8
AM_0
 10
132.70811094475971
 20
268.3514430539617
 30
0.0
 40
0.5
 50
314.9999999999954
 51
359.99999999999682
  0
ARC
  5
486D
  8
AM_0
 10
121.3560712897613
 20
267.28926914658751
 30
0.0
 40
0.5000000000001048
 50
344.79096035989579
 51
45.000000000009209
  0
ARC
  5
486E
  8
AM_0
 10
121.7081109447597
 20
268.3514430539625
 30
0.0
 40
0.499999999999984
 50
179.99999999999659
 51
225.0000000000046
  0
LINE
  5
486F
  8
AM_0
 10
123.1886888306073
 20
287.58210413638812
 30
0.0
 11
123.18868883060721
 21
272.43595273856641
 31
0.0
  0
ARC
  5
4870
  8
AM_0
 10
122.18868883060721
 20
272.43595273856641
 30
0.0
 40
1.0
 50
269.99999999999682
 51
0.0
1001
GENIUS_GENODEF_13
1002
{
1000
HIER
1070
     0
1002
}
1002
{
1000
MANEDIT
1070
     0
1002
}
1002
{
1000
NOSEL
1070
     0
1002
}
1002
{
1000
BEHIND
1070
     0
1002
}
1002
{
1000
OTHER
1070
     0
1002
}
1002
{
1000
REACTOR
1002
}
1001
GENIUS_GENOBJ-N-FIL_13
1002
{
1000
OWNER
1000
GEN
1002
}
  0
ARC
  5
4871
  8
AM_0
 10
118.1886888306073
 20
287.58210413638812
 30
0.0
 40
5.0
 50
0.0
 51
19.381805699020159
1001
GENIUS_GENOBJ-N-FIL_13
1002
{
1000
OWNER
1000
GEN
1002
}
1001
GENIUS_GENODEF_13
1002
{
1000
HIER
1070
     0
1002
}
1002
{
1000
MANEDIT
1070
     0
1002
}
1002
{
1000
NOSEL
1070
     0
1002
}
1002
{
1000
BEHIND
1070
     0
1002
}
1002
{
1000
OTHER
1070
     0
1002
}
1002
{
1000
REACTOR
1002
}
  0
LINE
  5
4872
  8
AM_0
 10
131.22753305891251
 20
289.0512896013048
 30
0.0
 11
131.22753305891251
 21
272.43595273856579
 31
0.0
  0
ARC
  5
4873
  8
AM_0
 10
132.22753305891251
 20
272.43595273856579
 30
0.0
 40
1.0
 50
180.0
 51
269.99999999999352
1001
GENIUS_GENOBJ-N-FIL_13
1002
{
1000
OWNER
1000
GEN
1002
}
1001
GENIUS_GENODEF_13
1002
{
1000
HIER
1070
     0
1002
}
1002
{
1000
MANEDIT
1070
     0
1002
}
1002
{
1000
NOSEL
1070
     0
1002
}
1002
{
1000
BEHIND
1070
     0
1002
}
1002
{
1000
OTHER
1070
     0
1002
}
1002
{
1000
REACTOR
1002
}
  0
ARC
  5
4874
  8
AM_0
 10
126.2275330589125
 20
289.0512896013048
 30
0.0
 40
5.0
 50
0.0
 51
22.755667319206839
1001
GENIUS_GENODEF_13
1002
{
1000
HIER
1070
     0
1002
}
1002
{
1000
MANEDIT
1070
     0
1002
}
1002
{
1000
NOSEL
1070
     0
1002
}
1002
{
1000
BEHIND
1070
     0
1002
}
1002
{
1000
OTHER
1070
     0
1002
}
1002
{
1000
REACTOR
1002
}
1001
GENIUS_GENOBJ-N-FIL_13
1002
{
1000
OWNER
1000
GEN
1002
}
  0
LINE
  5
4875
  8
AM_0
 10
121.9346497914174
 20
267.41779742611823
 30
0.0
 11
132.48157209810259
 21
267.41779742611823
 31
0.0
  0
LINE
  5
4876
  8
AM_0
 10
121.9346497914171
 20
257.45410805101449
 30
0.0
 11
132.48157209810159
 21
257.45410805101449
 31
0.0
  0
LINE
  5
4877
  8
AM_0
 10
118.79752619342381
 20
226.4455418936401
 30
0.0
 11
118.79752619342381
 21
245.9359527385661
 31
0.0
  0
LINE
  5
4878
  8
AM_0
 10
121.75194945246039
 20
217.43595273856619
 30
0.0
 11
121.75194945246039
 21
245.9359527385661
 31
0.0
  0
LINE
  5
4893
  8
AM_0
 10
132.08640903236841
 20
218.22571414666109
 30
0.0
 11
141.44539464703291
 21
234.4359527385663
 31
0.0
  0
LINE
  5
4894
  8
AM_0
 10
126.8902566096618
 20
221.22571414666109
 30
0.0
 11
135.09454168594701
 21
235.4359527385661
 31
0.0
  0
POLYLINE
  5
4895
  8
AM_0
 66
     1
 10
0.0
 20
0.0
 30
0.0
 70
     8
  0
VERTEX
  5
59DC
  8
AM_0
 10
126.89
 20
221.226
 30
0.0
 70
    32
  0
VERTEX
  5
59DD
  8
AM_0
 10
126.846
 20
221.14699999999999
 30
0.0
 70
    32
  0
VERTEX
  5
59DE
  8
AM_0
 10
126.803
 20
221.06700000000001
 30
0.0
 70
    32
  0
VERTEX
  5
59DF
  8
AM_0
 10
126.761
 20
220.98599999999999
 30
0.0
 70
    32
  0
VERTEX
  5
59E0
  8
AM_0
 10
126.72199999999999
 20
220.905
 30
0.0
 70
    32
  0
VERTEX
  5
59E1
  8
AM_0
 10
126.684
 20
220.82300000000001
 30
0.0
 70
    32
  0
VERTEX
  5
59E2
  8
AM_0
 10
126.64700000000001
 20
220.74000000000001
 30
0.0
 70
    32
  0
VERTEX
  5
59E3
  8
AM_0
 10
126.613
 20
220.65700000000001
 30
0.0
 70
    32
  0
VERTEX
  5
59E4
  8
AM_0
 10
126.58
 20
220.57300000000001
 30
0.0
 70
    32
  0
VERTEX
  5
59E5
  8
AM_0
 10
126.54900000000001
 20
220.488
 30
0.0
 70
    32
  0
VERTEX
  5
59E6
  8
AM_0
 10
126.51900000000001
 20
220.40299999999999
 30
0.0
 70
    32
  0
VERTEX
  5
59E7
  8
AM_0
 10
126.492
 20
220.31800000000001
 30
0.0
 70
    32
  0
VERTEX
  5
59E8
  8
AM_0
 10
126.46599999999999
 20
220.232
 30
0.0
 70
    32
  0
VERTEX
  5
59E9
  8
AM_0
 10
126.44199999999999
 20
220.14599999999999
 30
0.0
 70
    32
  0
VERTEX
  5
59EA
  8
AM_0
 10
126.42
 20
220.06
 30
0.0
 70
    32
  0
VERTEX
  5
59EB
  8
AM_0
 10
126.399
 20
219.97300000000001
 30
0.0
 70
    32
  0
VERTEX
  5
59EC
  8
AM_0
 10
126.381
 20
219.887
 30
0.0
 70
    32
  0
VERTEX
  5
59ED
  8
AM_0
 10
126.364
 20
219.80000000000001
 30
0.0
 70
    32
  0
VERTEX
  5
59EE
  8
AM_0
 10
126.34999999999999
 20
219.71299999999999
 30
0.0
 70
    32
  0
VERTEX
  5
59EF
  8
AM_0
 10
126.337
 20
219.62700000000001
 30
0.0
 70
    32
  0
VERTEX
  5
59F0
  8
AM_0
 10
126.32599999999999
 20
219.53999999999999
 30
0.0
 70
    32
  0
VERTEX
  5
59F1
  8
AM_0
 10
126.31699999999999
 20
219.45400000000001
 30
0.0
 70
    32
  0
VERTEX
  5
59F2
  8
AM_0
 10
126.31
 20
219.36699999999999
 30
0.0
 70
    32
  0
VERTEX
  5
59F3
  8
AM_0
 10
126.30500000000001
 20
219.28100000000001
 30
0.0
 70
    32
  0
VERTEX
  5
59F4
  8
AM_0
 10
126.30200000000001
 20
219.19499999999999
 30
0.0
 70
    32
  0
VERTEX
  5
59F5
  8
AM_0
 10
126.3
 20
219.10900000000001
 30
0.0
 70
    32
  0
VERTEX
  5
59F6
  8
AM_0
 10
126.301
 20
219.024
 30
0.0
 70
    32
  0
VERTEX
  5
59F7
  8
AM_0
 10
126.303
 20
218.93899999999999
 30
0.0
 70
    32
  0
VERTEX
  5
59F8
  8
AM_0
 10
126.30800000000001
 20
218.85499999999999
 30
0.0
 70
    32
  0
VERTEX
  5
59F9
  8
AM_0
 10
126.31399999999999
 20
218.77099999999999
 30
0.0
 70
    32
  0
VERTEX
  5
59FA
  8
AM_0
 10
126.32299999999999
 20
218.68799999999999
 30
0.0
 70
    32
  0
VERTEX
  5
59FB
  8
AM_0
 10
126.333
 20
218.60499999999999
 30
0.0
 70
    32
  0
VERTEX
  5
59FC
  8
AM_0
 10
126.345
 20
218.524
 30
0.0
 70
    32
  0
VERTEX
  5
59FD
  8
AM_0
 10
126.35899999999999
 20
218.44200000000001
 30
0.0
 70
    32
  0
VERTEX
  5
59FE
  8
AM_0
 10
126.375
 20
218.36199999999999
 30
0.0
 70
    32
  0
VERTEX
  5
59FF
  8
AM_0
 10
126.392
 20
218.28200000000001
 30
0.0
 70
    32
  0
VERTEX
  5
5A00
  8
AM_0
 10
126.41200000000001
 20
218.20400000000001
 30
0.0
 70
    32
  0
VERTEX
  5
5A01
  8
AM_0
 10
126.43300000000001
 20
218.126
 30
0.0
 70
    32
  0
VERTEX
  5
5A02
  8
AM_0
 10
126.45699999999999
 20
218.04900000000001
 30
0.0
 70
    32
  0
VERTEX
  5
5A03
  8
AM_0
 10
126.482
 20
217.97300000000001
 30
0.0
 70
    32
  0
VERTEX
  5
5A04
  8
AM_0
 10
126.509
 20
217.898
 30
0.0
 70
    32
  0
VERTEX
  5
5A05
  8
AM_0
 10
126.53700000000001
 20
217.82499999999999
 30
0.0
 70
    32
  0
VERTEX
  5
5A06
  8
AM_0
 10
126.568
 20
217.75200000000001
 30
0.0
 70
    32
  0
VERTEX
  5
5A07
  8
AM_0
 10
126.59999999999999
 20
217.68100000000001
 30
0.0
 70
    32
  0
VERTEX
  5
5A08
  8
AM_0
 10
126.634
 20
217.61099999999999
 30
0.0
 70
    32
  0
VERTEX
  5
5A09
  8
AM_0
 10
126.67
 20
217.542
 30
0.0
 70
    32
  0
VERTEX
  5
5A0A
  8
AM_0
 10
126.70699999999999
 20
217.47399999999999
 30
0.0
 70
    32
  0
VERTEX
  5
5A0B
  8
AM_0
 10
126.746
 20
217.40799999999999
 30
0.0
 70
    32
  0
VERTEX
  5
5A0C
  8
AM_0
 10
126.78700000000001
 20
217.34299999999999
 30
0.0
 70
    32
  0
VERTEX
  5
5A0D
  8
AM_0
 10
126.83
 20
217.28
 30
0.0
 70
    32
  0
VERTEX
  5
5A0E
  8
AM_0
 10
126.873
 20
217.21799999999999
 30
0.0
 70
    32
  0
VERTEX
  5
5A0F
  8
AM_0
 10
126.919
 20
217.15799999999999
 30
0.0
 70
    32
  0
VERTEX
  5
5A10
  8
AM_0
 10
126.96599999999999
 20
217.09899999999999
 30
0.0
 70
    32
  0
VERTEX
  5
5A11
  8
AM_0
 10
127.015
 20
217.042
 30
0.0
 70
    32
  0
VERTEX
  5
5A12
  8
AM_0
 10
127.065
 20
216.98599999999999
 30
0.0
 70
    32
  0
VERTEX
  5
5A13
  8
AM_0
 10
127.116
 20
216.93199999999999
 30
0.0
 70
    32
  0
VERTEX
  5
5A14
  8
AM_0
 10
127.169
 20
216.88
 30
0.0
 70
    32
  0
VERTEX
  5
5A15
  8
AM_0
 10
127.224
 20
216.82900000000001
 30
0.0
 70
    32
  0
VERTEX
  5
5A16
  8
AM_0
 10
127.28
 20
216.78
 30
0.0
 70
    32
  0
VERTEX
  5
5A17
  8
AM_0
 10
127.337
 20
216.733
 30
0.0
 70
    32
  0
VERTEX
  5
5A18
  8
AM_0
 10
127.395
 20
216.68799999999999
 30
0.0
 70
    32
  0
VERTEX
  5
5A19
  8
AM_0
 10
127.455
 20
216.64500000000001
 30
0.0
 70
    32
  0
VERTEX
  5
5A1A
  8
AM_0
 10
127.515
 20
216.60300000000001
 30
0.0
 70
    32
  0
VERTEX
  5
5A1B
  8
AM_0
 10
127.578
 20
216.56299999999999
 30
0.0
 70
    32
  0
VERTEX
  5
5A1C
  8
AM_0
 10
127.64100000000001
 20
216.52600000000001
 30
0.0
 70
    32
  0
VERTEX
  5
5A1D
  8
AM_0
 10
127.705
 20
216.49000000000001
 30
0.0
 70
    32
  0
VERTEX
  5
5A1E
  8
AM_0
 10
127.77
 20
216.45599999999999
 30
0.0
 70
    32
  0
VERTEX
  5
5A1F
  8
AM_0
 10
127.837
 20
216.42400000000001
 30
0.0
 70
    32
  0
VERTEX
  5
5A20
  8
AM_0
 10
127.904
 20
216.39400000000001
 30
0.0
 70
    32
  0
VERTEX
  5
5A21
  8
AM_0
 10
127.973
 20
216.36600000000001
 30
0.0
 70
    32
  0
VERTEX
  5
5A22
  8
AM_0
 10
128.042
 20
216.34
 30
0.0
 70
    32
  0
VERTEX
  5
5A23
  8
AM_0
 10
128.11199999999999
 20
216.316
 30
0.0
 70
    32
  0
VERTEX
  5
5A24
  8
AM_0
 10
128.18299999999999
 20
216.29400000000001
 30
0.0
 70
    32
  0
VERTEX
  5
5A25
  8
AM_0
 10
128.255
 20
216.27500000000001
 30
0.0
 70
    32
  0
VERTEX
  5
5A26
  8
AM_0
 10
128.327
 20
216.25700000000001
 30
0.0
 70
    32
  0
VERTEX
  5
5A27
  8
AM_0
 10
128.40100000000001
 20
216.24100000000001
 30
0.0
 70
    32
  0
VERTEX
  5
5A28
  8
AM_0
 10
128.47399999999999
 20
216.22800000000001
 30
0.0
 70
    32
  0
VERTEX
  5
5A29
  8
AM_0
 10
128.54900000000001
 20
216.21700000000001
 30
0.0
 70
    32
  0
VERTEX
  5
5A2A
  8
AM_0
 10
128.624
 20
216.20699999999999
 30
0.0
 70
    32
  0
VERTEX
  5
5A2B
  8
AM_0
 10
128.69999999999999
 20
216.19999999999999
 30
0.0
 70
    32
  0
VERTEX
  5
5A2C
  8
AM_0
 10
128.77600000000001
 20
216.19499999999999
 30
0.0
 70
    32
  0
VERTEX
  5
5A2D
  8
AM_0
 10
128.852
 20
216.19200000000001
 30
0.0
 70
    32
  0
VERTEX
  5
5A2E
  8
AM_0
 10
128.929
 20
216.191
 30
0.0
 70
    32
  0
VERTEX
  5
5A2F
  8
AM_0
 10
129.006
 20
216.19300000000001
 30
0.0
 70
    32
  0
VERTEX
  5
5A30
  8
AM_0
 10
129.084
 20
216.196
 30
0.0
 70
    32
  0
VERTEX
  5
5A31
  8
AM_0
 10
129.161
 20
216.202
 30
0.0
 70
    32
  0
VERTEX
  5
5A32
  8
AM_0
 10
129.239
 20
216.21000000000001
 30
0.0
 70
    32
  0
VERTEX
  5
5A33
  8
AM_0
 10
129.31700000000001
 20
216.22
 30
0.0
 70
    32
  0
VERTEX
  5
5A34
  8
AM_0
 10
129.39599999999999
 20
216.232
 30
0.0
 70
    32
  0
VERTEX
  5
5A35
  8
AM_0
 10
129.47399999999999
 20
216.24600000000001
 30
0.0
 70
    32
  0
VERTEX
  5
5A36
  8
AM_0
 10
129.55199999999999
 20
216.262
 30
0.0
 70
    32
  0
VERTEX
  5
5A37
  8
AM_0
 10
129.63
 20
216.28
 30
0.0
 70
    32
  0
VERTEX
  5
5A38
  8
AM_0
 10
129.708
 20
216.30000000000001
 30
0.0
 70
    32
  0
VERTEX
  5
5A39
  8
AM_0
 10
129.786
 20
216.32300000000001
 30
0.0
 70
    32
  0
VERTEX
  5
5A3A
  8
AM_0
 10
129.864
 20
216.34700000000001
 30
0.0
 70
    32
  0
VERTEX
  5
5A3B
  8
AM_0
 10
129.94200000000001
 20
216.374
 30
0.0
 70
    32
  0
VERTEX
  5
5A3C
  8
AM_0
 10
130.01900000000001
 20
216.40199999999999
 30
0.0
 70
    32
  0
VERTEX
  5
5A3D
  8
AM_0
 10
130.096
 20
216.43299999999999
 30
0.0
 70
    32
  0
VERTEX
  5
5A3E
  8
AM_0
 10
130.173
 20
216.465
 30
0.0
 70
    32
  0
VERTEX
  5
5A3F
  8
AM_0
 10
130.249
 20
216.5
 30
0.0
 70
    32
  0
VERTEX
  5
5A40
  8
AM_0
 10
130.32499999999999
 20
216.536
 30
0.0
 70
    32
  0
VERTEX
  5
5A41
  8
AM_0
 10
130.40000000000001
 20
216.57400000000001
 30
0.0
 70
    32
  0
VERTEX
  5
5A42
  8
AM_0
 10
130.47499999999999
 20
216.61500000000001
 30
0.0
 70
    32
  0
VERTEX
  5
5A43
  8
AM_0
 10
130.54900000000001
 20
216.65700000000001
 30
0.0
 70
    32
  0
VERTEX
  5
5A44
  8
AM_0
 10
130.62200000000001
 20
216.70099999999999
 30
0.0
 70
    32
  0
VERTEX
  5
5A45
  8
AM_0
 10
130.69499999999999
 20
216.74600000000001
 30
0.0
 70
    32
  0
VERTEX
  5
5A46
  8
AM_0
 10
130.767
 20
216.79400000000001
 30
0.0
 70
    32
  0
VERTEX
  5
5A47
  8
AM_0
 10
130.83799999999999
 20
216.84299999999999
 30
0.0
 70
    32
  0
VERTEX
  5
5A48
  8
AM_0
 10
130.90899999999999
 20
216.89400000000001
 30
0.0
 70
    32
  0
VERTEX
  5
5A49
  8
AM_0
 10
130.97799999999989
 20
216.947
 30
0.0
 70
    32
  0
VERTEX
  5
5A4A
  8
AM_0
 10
131.047
 20
217.001
 30
0.0
 70
    32
  0
VERTEX
  5
5A4B
  8
AM_0
 10
131.11500000000001
 20
217.05799999999999
 30
0.0
 70
    32
  0
VERTEX
  5
5A4C
  8
AM_0
 10
131.18199999999999
 20
217.11500000000001
 30
0.0
 70
    32
  0
VERTEX
  5
5A4D
  8
AM_0
 10
131.24700000000001
 20
217.17500000000001
 30
0.0
 70
    32
  0
VERTEX
  5
5A4E
  8
AM_0
 10
131.31200000000001
 20
217.23500000000001
 30
0.0
 70
    32
  0
VERTEX
  5
5A4F
  8
AM_0
 10
131.376
 20
217.298
 30
0.0
 70
    32
  0
VERTEX
  5
5A50
  8
AM_0
 10
131.43799999999999
 20
217.36099999999999
 30
0.0
 70
    32
  0
VERTEX
  5
5A51
  8
AM_0
 10
131.5
 20
217.42699999999999
 30
0.0
 70
    32
  0
VERTEX
  5
5A52
  8
AM_0
 10
131.56
 20
217.49299999999999
 30
0.0
 70
    32
  0
VERTEX
  5
5A53
  8
AM_0
 10
131.61799999999999
 20
217.56100000000001
 30
0.0
 70
    32
  0
VERTEX
  5
5A54
  8
AM_0
 10
131.67599999999999
 20
217.63
 30
0.0
 70
    32
  0
VERTEX
  5
5A55
  8
AM_0
 10
131.732
 20
217.70099999999999
 30
0.0
 70
    32
  0
VERTEX
  5
5A56
  8
AM_0
 10
131.78700000000001
 20
217.77199999999999
 30
0.0
 70
    32
  0
VERTEX
  5
5A57
  8
AM_0
 10
131.84100000000001
 20
217.845
 30
0.0
 70
    32
  0
VERTEX
  5
5A58
  8
AM_0
 10
131.893
 20
217.91900000000001
 30
0.0
 70
    32
  0
VERTEX
  5
5A59
  8
AM_0
 10
131.94300000000001
 20
217.994
 30
0.0
 70
    32
  0
VERTEX
  5
5A5A
  8
AM_0
 10
131.99299999999999
 20
218.06999999999999
 30
0.0
 70
    32
  0
VERTEX
  5
5A5B
  8
AM_0
 10
132.03999999999999
 20
218.148
 30
0.0
 70
    32
  0
VERTEX
  5
5A5C
  8
AM_0
 10
132.08600000000001
 20
218.226
 30
0.0
 70
    32
  0
SEQEND
  5
5A5D
  8
AM_0
  0
LINE
  5
48A3
  8
AM_0
 10
146.70811094475931
 20
316.23595273856631
 30
0.0
 11
146.70811094475931
 21
308.63595273856617
 31
0.0
1001
GENIUS_GENOREF_13
1005
0
  0
LINE
  5
48A4
  8
AM_0
 10
146.70811094475931
 20
308.63595273856617
 30
0.0
 11
147.70811094475931
 21
308.63595273856617
 31
0.0
1001
GENIUS_GENOREF_13
1005
0
  0
LINE
  5
48A5
  8
AM_0
 10
147.70811094475931
 20
312.23595273856631
 30
0.0
 11
146.70811094475931
 21
311.87198250430009
 31
0.0
1001
GENIUS_GENOREF_13
1005
0
  0
LINE
  5
48A6
  8
AM_0
 10
147.70811094475931
 20
312.63595273856629
 30
0.0
 11
146.70811094475931
 21
312.27198250430001
 31
0.0
1001
GENIUS_GENOREF_13
1005
0
  0
LINE
  5
48A7
  8
AM_0
 10
147.70811094475931
 20
316.23595273856631
 30
0.0
 11
146.70811094475931
 21
316.23595273856631
 31
0.0
1001
GENIUS_GENOREF_13
1005
0
  0
LINE
  5
48A8
  8
AM_0N
 10
145.6491734326315
 20
308.52859776625968
 30
0.0
 11
146.70811094475931
 21
308.43595273856619
 31
0.0
  0
LINE
  5
48A9
  8
AM_0N
 10
145.6491734326315
 20
316.34330771087281
 30
0.0
 11
146.70811094475931
 21
316.43595273856619
 31
0.0
  0
ARC
  5
48AA
  8
AM_0N
 10
150.1081109447592
 20
312.43595273856619
 30
0.0
 40
6.5
 50
151.82726586813479
 51
208.1727341318651
  0
ARC
  5
48AB
  8
AM_0N
 10
145.78862262102771
 20
314.74939619392592
 30
0.0
 40
1.6000000000000001
 50
94.99999999999973
 51
151.82726586813479
  0
ARC
  5
48AC
  8
AM_0N
 10
145.78862262102771
 20
310.12250928320663
 30
0.0
 40
1.6000000000000001
 50
208.1727341318651
 51
265.00000000000028
  0
LINE
  5
48AD
  8
AM_0N
 10
146.70811094475931
 20
316.43595273856619
 30
0.0
 11
146.70811094475931
 21
308.43595273856619
 31
0.0
  0
LINE
  5
48AE
  8
AM_0
 10
146.70811094475931
 20
238.84109693227609
 30
0.0
 11
146.70811094475931
 21
233.3734527385663
 31
0.0
1001
GENIUS_GENOREF_13
1005
0
  0
LINE
  5
48AF
  8
AM_0
 10
146.70811094475931
 20
233.57345273856629
 30
0.0
 11
147.7081109447594
 21
233.57345273856629
 31
0.0
1001
GENIUS_GENOREF_13
1005
0
  0
LINE
  5
48B0
  8
AM_0
 10
147.7081109447594
 20
237.17345273856631
 30
0.0
 11
146.70811094475931
 21
236.80948250430021
 31
0.0
1001
GENIUS_GENOREF_13
1005
0
  0
LINE
  5
48B1
  8
AM_0
 10
147.7081109447594
 20
237.57345273856629
 30
0.0
 11
146.70811094475931
 21
237.2094825043001
 31
0.0
1001
GENIUS_GENOREF_13
1005
0
  0
LINE
  5
48B2
  8
AM_0N
 10
145.6491734326315
 20
233.46609776625971
 30
0.0
 11
146.70811094475931
 21
233.3734527385663
 31
0.0
  0
ARC
  5
48B3
  8
AM_0N
 10
150.1081109447592
 20
237.37345273856641
 30
0.0
 40
6.5
 50
182.900769989091
 51
208.1727341318651
  0
ARC
  5
48B4
  8
AM_0N
 10
145.7886226210278
 20
235.06000928320671
 30
0.0
 40
1.6000000000000001
 50
208.1727341318651
 51
265.00000000000028
  0
LINE
  5
4B3C
  8
AM_0
 10
647.02661649088896
 20
351.89287467673171
 30
0.0
 11
647.02661649088896
 21
365.6197018234858
 31
0.0
  0
LINE
  5
4B3D
  8
AM_0
 10
640.62661649088932
 20
351.89287467673171
 30
0.0
 11
640.62661649088932
 21
365.6197018234858
 31
0.0
  0
LINE
  5
4B3E
  8
AM_0
 10
639.82661649088914
 20
342.93595273856641
 30
0.0
 11
647.82661649088914
 21
342.93595273856641
 31
0.0
  0
LINE
  5
4B3F
  8
AM_0
 10
647.82661649088914
 20
333.36322041050391
 30
0.0
 11
647.82661649088914
 21
342.93595273856641
 31
0.0
  0
LINE
  5
4B40
  8
AM_0
 10
647.82661649088914
 20
342.93595273856641
 30
0.0
 11
650.22661649088911
 21
351.89287467673171
 31
0.0
  0
LINE
  5
4B41
  8
AM_0
 10
650.22661649088911
 20
351.89287467673171
 30
0.0
 11
650.22661649088911
 21
365.6197018234858
 31
0.0
  0
LINE
  5
4B42
  8
AM_0
 10
637.42661649088893
 20
365.6197018234858
 30
0.0
 11
637.42661649088893
 21
351.89287467673171
 31
0.0
  0
LINE
  5
4B43
  8
AM_0
 10
637.42661649088893
 20
351.89287467673171
 30
0.0
 11
639.82661649088914
 21
342.93595273856641
 31
0.0
  0
LINE
  5
4B44
  8
AM_0
 10
639.82661649088914
 20
342.93595273856641
 30
0.0
 11
639.82661649088914
 21
333.36322041050391
 31
0.0
  0
ARC
  5
4B45
  8
AM_0
 10
643.82661649088914
 20
357.93595273856641
 30
0.0
 40
9.9999999999999964
 50
50.208180500442623
 51
90.0
  0
ARC
  5
4B46
  8
AM_0
 10
639.02661649088896
 20
352.33162337103749
 30
0.0
 40
1.659066127903009
 50
195.33458427584509
 51
344.66541572415468
  0
ARC
  5
4B47
  8
AM_0
 10
643.82661649088914
 20
355.48294126567612
 30
0.0
 40
4.8092180355079419
 50
228.2878371051452
 51
311.71216289485483
  0
ARC
  5
4B48
  8
AM_0
 10
648.62661649088932
 20
352.3313454973914
 30
0.0
 40
1.6589926644111621
 50
195.32532916095269
 51
344.67467083904228
  0
ARC
  5
4B49
  8
AM_0
 10
643.82661649088914
 20
355.4047209286029
 30
0.0
 40
10.704477319459491
 50
72.606031891266454
 51
107.3939681087335
  0
ARC
  5
4B4A
  8
AM_0
 10
639.02661649088896
 20
363.24993642701151
 30
0.0
 40
2.8593334947723461
 50
55.973867765119778
 51
124.02613223488019
  0
ARC
  5
4B4B
  8
AM_0
 10
648.62661649088932
 20
363.25300334841393
 30
0.0
 40
2.856792199637066
 50
55.939448481710848
 51
124.060551518289
  0
ARC
  5
4B4C
  8
AM_0
 10
643.82661649088914
 20
357.93595273856641
 30
0.0
 40
10.0
 50
90.0
 51
129.79181949955731
  0
LINE
  5
50FE
  8
ﾁｭｳｼﾝｾﾝ
 10
106.4119600325737
 20
550.7273645932371
 30
0.0
 11
441.39920094475929
 21
550.7273645932371
 31
0.0
  0
LINE
  5
50FF
  8
AM_0
 10
343.20810094475928
 20
500.66013459323671
 30
0.0
 11
343.20810094475928
 21
480.0154145932371
 31
0.0
  0
LINE
  5
5100
  8
AM_0
 10
344.20810094475951
 20
499.18942459323711
 30
0.0
 11
344.20810094475951
 21
485.64237459323692
 31
0.0
  0
LINE
  5
5101
  8
AM_0
 10
343.20810094475928
 20
485.64237459323692
 30
0.0
 11
344.20810094475951
 21
485.64237459323692
 31
0.0
  0
LINE
  5
5102
  8
AM_0
 10
343.20810094475928
 20
499.18942459323711
 30
0.0
 11
344.20810094475951
 21
499.18942459323711
 31
0.0
  0
LINE
  5
5103
  8
AM_0
 10
348.20807094475941
 20
487.64237459323692
 30
0.0
 11
348.20807094475941
 21
497.18939459323713
 31
0.0
  0
LINE
  5
5104
  8
AM_0
 10
344.20810094475951
 20
495.30264459323689
 30
0.0
 11
347.20810094475922
 21
495.30264459323689
 31
0.0
  0
LINE
  5
5105
  8
AM_0
 10
344.20810094475951
 20
489.52914459323682
 30
0.0
 11
347.20810094475922
 21
489.52914459323682
 31
0.0
  0
LINE
  5
5106
  8
AM_0
 10
344.20810094475951
 20
486.64237459323692
 30
0.0
 11
347.20810094475922
 21
486.64237459323692
 31
0.0
  0
LINE
  5
5107
  8
AM_0
 10
344.20810094475951
 20
498.18942459323682
 30
0.0
 11
347.20810094475922
 21
498.18942459323682
 31
0.0
  0
LINE
  5
5108
  8
AM_0
 10
439.20810094475922
 20
562.7273645932371
 30
0.0
 11
439.20810094475922
 21
538.7273645932371
 31
0.0
  0
LINE
  5
5109
  8
AM_0
 10
405.20805094475901
 20
562.72736459323676
 30
0.0
 11
439.20810094475922
 21
562.7273645932371
 31
0.0
  0
LINE
  5
510A
  8
AM_0
 10
405.20805094475901
 20
538.72736459323676
 30
0.0
 11
439.20810094475922
 21
538.7273645932371
 31
0.0
  0
LINE
  5
510B
  8
AM_0
 10
407.20810094475911
 20
554.72733459323717
 30
0.0
 11
407.20810094475911
 21
546.7273645932371
 31
0.0
  0
LINE
  5
510C
  8
AM_0
 10
303.20810094475928
 20
625.94110459323713
 30
0.0
 11
303.20810094475928
 21
606.9630445932371
 31
0.0
  0
LINE
  5
510D
  8
AM_0
 10
397.20810094475922
 20
625.15552459323715
 30
0.0
 11
397.20810094475922
 21
602.29919459323685
 31
0.0
  0
LINE
  5
510E
  8
AM_0
 10
335.20813094475938
 20
628.7273645932371
 30
0.0
 11
395.26046094475942
 21
627.15482459323675
 31
0.0
  0
LINE
  5
510F
  8
AM_0
 10
305.15576094475932
 20
627.94043459323711
 30
0.0
 11
335.20810094475951
 21
628.72739459323668
 31
0.0
  0
LINE
  5
5110
  8
AM_0
 10
332.20810094475928
 20
621.7273645932371
 30
0.0
 11
332.20810094475928
 21
479.72736459323693
 31
0.0
  0
LINE
  5
5111
  8
AM_0
 10
394.20810094475922
 20
600.27231459323696
 30
0.0
 11
394.20810094475922
 21
501.1824045932371
 31
0.0
  0
LINE
  5
5112
  8
AM_0
 10
394.2081309447592
 20
600.27231459323696
 30
0.0
 11
395.26046094475942
 21
600.29987459323695
 31
0.0
  0
LINE
  5
5113
  8
AM_0
 10
397.20810094475922
 20
476.2991945932369
 30
0.0
 11
397.20810094475922
 21
499.1555245932372
 31
0.0
  0
LINE
  5
5114
  8
AM_0
 10
303.20810094475928
 20
475.51364459323707
 30
0.0
 11
303.20810094475928
 21
494.49167459323712
 31
0.0
  0
LINE
  5
5115
  8
AM_0
 10
335.20813094475938
 20
472.72736459323693
 30
0.0
 11
395.26046094475942
 21
474.29987459323689
 31
0.0
  0
LINE
  5
5116
  8
AM_0
 10
305.15576094475932
 20
473.51431459323697
 30
0.0
 11
335.20810094475951
 21
472.72736459323693
 31
0.0
  0
LINE
  5
5117
  8
AM_0
 10
335.20810094475951
 20
624.871404593237
 30
0.0
 11
328.20810094475928
 21
628.54407459323704
 31
0.0
  0
LINE
  5
5118
  8
AM_0
 10
332.6111109447595
 20
621.71683459323685
 30
0.0
 11
328.20813094475932
 21
624.02692459323714
 31
0.0
  0
LINE
  5
5119
  8
AM_0
 10
328.20810094475928
 20
628.54404459323723
 30
0.0
 11
328.20810094475928
 21
624.02695459323695
 31
0.0
  0
LINE
  5
511A
  8
AM_0
 10
395.26043094475921
 20
501.15482459323692
 30
0.0
 11
394.20810094475922
 21
501.18237459323711
 31
0.0
  0
LINE
  5
511B
  8
AM_0
 10
407.20810094475911
 20
546.7273645932371
 30
0.0
 11
439.20810094475922
 21
546.7273645932371
 31
0.0
  0
LINE
  5
511C
  8
AM_0
 10
407.20810094475911
 20
554.72733459323717
 30
0.0
 11
439.20810094475922
 21
554.72733459323717
 31
0.0
  0
LINE
  5
511D
  8
AM_0
 10
381.2081309447592
 20
500.47635459323698
 30
0.0
 11
381.2081309447592
 21
600.97836459323685
 31
0.0
  0
LINE
  5
511E
  8
AM_0
 10
389.64389094475922
 20
599.12668459323686
 30
0.0
 11
384.94638094475943
 21
599.53766459323697
 31
0.0
  0
LINE
  5
511F
  8
AM_0
 10
389.64389094475922
 20
502.32806459323677
 30
0.0
 11
384.94638094475943
 21
501.91708459323718
 31
0.0
  0
LINE
  5
5120
  8
AM_0
 10
378.46960094475918
 20
497.48776459323688
 30
0.0
 11
372.77231094475923
 21
496.98932459323709
 31
0.0
  0
LINE
  5
5121
  8
AM_0
 10
368.20810094475922
 20
478.72415459323707
 30
0.0
 11
368.20810094475922
 21
492.00833459323712
 31
0.0
  0
LINE
  5
5122
  8
AM_0
 10
335.20810094475951
 20
621.64880459323695
 30
0.0
 11
335.20810094475951
 21
624.87137459323685
 31
0.0
  0
LINE
  5
5123
  8
AM_0
 10
328.20810094475928
 20
472.91068459323691
 30
0.0
 11
328.20810094475928
 21
477.42777459323702
 31
0.0
  0
LINE
  5
5124
  8
AM_0
 10
332.6111109447595
 20
479.73792459323681
 30
0.0
 11
328.20810094475928
 21
477.42780459323677
 31
0.0
  0
LINE
  5
5125
  8
AM_0
 10
335.20810094475951
 20
476.58334459323692
 30
0.0
 11
328.20810094475928
 21
472.91068459323691
 31
0.0
  0
LINE
  5
5126
  8
AM_0
 10
335.20810094475951
 20
479.80591459323682
 30
0.0
 11
335.20810094475951
 21
476.58334459323692
 31
0.0
  0
LINE
  5
5127
  8
AM_0
 10
344.94397094475943
 20
480.06085459323702
 30
0.0
 11
332.20813094475932
 21
479.72736459323693
 31
0.0
  0
LINE
  5
5128
  8
AM_0
 10
344.94394094475922
 20
621.39386459323669
 30
0.0
 11
332.20813094475932
 21
621.7273645932371
 31
0.0
  0
LINE
  5
5129
  8
AM_0
 10
343.20810094475928
 20
500.66013459323671
 30
0.0
 11
346.20810094475922
 21
500.66013459323671
 31
0.0
  0
LINE
  5
512A
  8
AM_0
 10
346.20813094475938
 20
500.66013459323671
 30
0.0
 11
346.20813094475938
 21
600.79459459323698
 31
0.0
  0
LINE
  5
512B
  8
AM_0
 10
346.20813094475938
 20
500.66010459323689
 30
0.0
 11
359.79010094475922
 21
503.21848459323718
 31
0.0
  0
LINE
  5
512C
  8
AM_0
 10
347.30453094475951
 20
480.72409459323683
 30
0.0
 11
357.94131094475938
 21
486.8373145932369
 31
0.0
  0
LINE
  5
512D
  8
AM_0
 10
368.20810094475922
 20
609.44635459323695
 30
0.0
 11
368.20810094475922
 21
622.73056459323698
 31
0.0
  0
LINE
  5
512E
  8
AM_0
 10
378.28668094475921
 20
503.70282459323681
 30
0.0
 11
359.79010094475922
 21
503.21848459323718
 31
0.0
  0
LINE
  5
512F
  8
AM_0
 10
365.28665094475917
 20
487.63107459323709
 30
0.0
 11
360.30191094475941
 21
487.50052459323717
 31
0.0
  0
LINE
  5
5130
  8
AM_0
 10
378.46960094475918
 20
603.96692459323685
 30
0.0
 11
372.77234094475921
 21
604.46539459323697
 31
0.0
  0
LINE
  5
5131
  8
AM_0
 10
347.30453094475951
 20
620.73059459323667
 30
0.0
 11
357.94128094475923
 21
614.6174045932371
 31
0.0
  0
LINE
  5
5132
  8
AM_0
 10
346.20813094475938
 20
600.79459459323698
 30
0.0
 11
359.79010094475922
 21
598.23621459323704
 31
0.0
  0
LINE
  5
5133
  8
AM_0
 10
378.28668094475921
 20
597.75186459323686
 30
0.0
 11
359.79007094475918
 21
598.23624459323719
 31
0.0
  0
LINE
  5
5134
  8
AM_0
 10
365.28662094475942
 20
613.82364459323696
 30
0.0
 11
360.3018809447592
 21
613.95416459323701
 31
0.0
  0
LINE
  5
5135
  8
AM_0
 10
344.20810094475951
 20
603.26532459323698
 30
0.0
 11
347.20810094475922
 21
603.26532459323698
 31
0.0
  0
LINE
  5
5136
  8
AM_0
 10
344.20810094475951
 20
614.81232459323701
 30
0.0
 11
347.20810094475922
 21
614.81232459323701
 31
0.0
  0
LINE
  5
5137
  8
AM_0
 10
344.20810094475951
 20
611.92557459323689
 30
0.0
 11
347.20810094475922
 21
611.92557459323689
 31
0.0
  0
LINE
  5
5138
  8
AM_0
 10
344.20810094475951
 20
606.15207459323688
 30
0.0
 11
347.20810094475922
 21
606.15207459323688
 31
0.0
  0
LINE
  5
5139
  8
AM_0
 10
348.20807094475941
 20
613.81235459323705
 30
0.0
 11
348.20807094475941
 21
604.26532459323698
 31
0.0
  0
LINE
  5
513A
  8
AM_0
 10
343.20810094475928
 20
602.26529459323694
 30
0.0
 11
344.20810094475951
 21
602.26529459323694
 31
0.0
  0
LINE
  5
513B
  8
AM_0
 10
343.20810094475928
 20
615.81235459323705
 30
0.0
 11
344.20810094475951
 21
615.81235459323705
 31
0.0
  0
LINE
  5
513C
  8
AM_0
 10
344.20810094475951
 20
602.26529459323694
 30
0.0
 11
344.20810094475951
 21
615.81235459323705
 31
0.0
  0
LINE
  5
513D
  8
AM_0
 10
343.20810094475928
 20
600.79459459323698
 30
0.0
 11
343.20810094475928
 21
621.43930459323713
 31
0.0
  0
LINE
  5
513E
  8
AM_0
 10
343.20810094475928
 20
600.79459459323698
 30
0.0
 11
346.20810094475922
 21
600.79459459323698
 31
0.0
  0
LINE
  5
513F
  8
AM_0
 10
332.20813094475932
 20
479.72736459323693
 30
0.0
 11
327.15576094475938
 21
479.85965459323722
 31
0.0
  0
LINE
  5
5140
  8
AM_0
 10
332.20810094475928
 20
621.7273645932371
 30
0.0
 11
327.1557909447593
 21
621.59503459323696
 31
0.0
  0
LINE
  5
5141
  8
AM_0
 10
325.20813094475938
 20
481.85898459323693
 30
0.0
 11
325.20813094475938
 21
619.59573459323713
 31
0.0
  0
LINE
  5
5142
  8
AM_0
 10
294.20813094475938
 20
494.72736459323681
 30
0.0
 11
294.20813094475938
 21
606.72736459323687
 31
0.0
  0
LINE
  5
5143
  8
AM_0
 10
320.20810094475928
 20
494.04654459323689
 30
0.0
 11
294.20816094475941
 21
494.72736459323681
 31
0.0
  0
LINE
  5
5144
  8
AM_0
 10
294.20813094475938
 20
504.72705459323709
 30
0.0
 11
325.20813094475938
 21
504.72705459323709
 31
0.0
  0
LINE
  5
5145
  8
AM_0
 10
322.20810094475928
 20
485.51608459323683
 30
0.0
 11
323.20813094475938
 21
485.51608459323683
 31
0.0
  0
LINE
  5
5146
  8
AM_0
 10
320.20810094475928
 20
487.51608459323683
 30
0.0
 11
320.20810094475928
 21
502.72705459323703
 31
0.0
  0
LINE
  5
5147
  8
AM_0
 10
320.20810094475928
 20
613.93866459323704
 30
0.0
 11
320.20810094475928
 21
598.72766459323714
 31
0.0
  0
LINE
  5
5148
  8
AM_0
 10
320.20813094475932
 20
607.40820459323686
 30
0.0
 11
294.20816094475941
 21
606.72736459323687
 31
0.0
  0
LINE
  5
5149
  8
AM_0
 10
294.20813094475938
 20
596.72766459323714
 30
0.0
 11
325.20813094475938
 21
596.72766459323714
 31
0.0
  0
LINE
  5
514A
  8
AM_0
 10
322.20810094475928
 20
615.93866459323704
 30
0.0
 11
323.20813094475938
 21
615.93866459323704
 31
0.0
  0
LINE
  5
514B
  8
AM_0
 10
294.20813094475938
 20
518.78742459323712
 30
0.0
 11
325.20813094475938
 21
518.78742459323712
 31
0.0
  0
LINE
  5
514C
  8
AM_0
 10
294.20813094475938
 20
582.66730459323685
 30
0.0
 11
325.20813094475938
 21
582.66730459323685
 31
0.0
  0
ARC
  5
514D
  8
AM_0
 10
347.20810094475922
 20
497.18939459323713
 30
0.0
 40
1.0
 50
0.0
 51
90.00000299999769
  0
ARC
  5
514E
  8
AM_0
 10
347.20810094475922
 20
494.30264459323712
 30
0.0
 40
1.0
 50
0.0
 51
90.00000299999769
  0
ARC
  5
514F
  8
AM_0
 10
347.20810094475922
 20
488.52914459323711
 30
0.0
 40
1.0
 50
0.0
 51
90.00000299999769
  0
ARC
  5
5150
  8
AM_0
 10
347.20810094475922
 20
487.64237459323692
 30
0.0
 40
1.0
 50
269.999989999999
 51
0.0000006832495047
  0
ARC
  5
5151
  8
AM_0
 10
347.20810094475922
 20
490.52911459323678
 30
0.0
 40
1.0
 50
269.999989999999
 51
0.0000006832495047
  0
ARC
  5
5152
  8
AM_0
 10
347.20810094475922
 20
496.30264459323718
 30
0.0
 40
1.0
 50
269.999989999999
 51
0.0000006832495047
  0
ARC
  5
5153
  8
AM_0
 10
395.20810094475922
 20
625.15552459323715
 30
0.0
 40
2.0
 50
0.0
 51
88.499997000000747
  0
ARC
  5
5154
  8
AM_0
 10
305.20810094475928
 20
625.94110459323713
 30
0.0
 40
2.0
 50
91.500001000001546
 51
180.00001000000091
  0
ARC
  5
5155
  8
AM_0
 10
395.20810094475922
 20
602.29919459323685
 30
0.0
 40
2.0
 50
271.49999999999608
 51
0.0
  0
ARC
  5
5156
  8
AM_0
 10
315.20810094475951
 20
615.72736459323687
 30
0.0
 40
6.0
 50
359.45747999999497
 51
326.44272000000183
  0
CIRCLE
  5
5157
  8
AM_0
 10
385.20810094475922
 20
615.72736459323687
 30
0.0
 40
6.0
  0
ARC
  5
5158
  8
AM_0
 10
395.20810094475922
 20
476.2991945932369
 30
0.0
 40
2.0
 50
271.49999999999608
 51
0.0
  0
ARC
  5
5159
  8
AM_0
 10
305.20810094475928
 20
475.51364459323707
 30
0.0
 40
2.0
 50
180.00001000000091
 51
268.50000000000369
  0
ARC
  5
515A
  8
AM_0
 10
395.20810094475922
 20
499.1555245932372
 30
0.0
 40
2.0
 50
0.0
 51
88.499997000000747
  0
ARC
  5
515B
  8
AM_0
 10
315.20810094475951
 20
485.72736459323693
 30
0.0
 40
6.0
 50
33.557299999995493
 51
0.5425182800043014
  0
CIRCLE
  5
515C
  8
AM_0
 10
385.20810094475922
 20
485.72736459323693
 30
0.0
 40
6.0
  0
ARC
  5
515D
  8
AM_0
 10
407.20810094475911
 20
550.72733459323717
 30
0.0
 40
3.9999962
 50
90.00000299999769
 51
120.0008584236235
  0
ARC
  5
515E
  8
AM_0
 10
407.20810094475911
 20
550.72733459323717
 30
0.0
 40
3.9999962
 50
239.99914157637639
 51
270.0
  0
ARC
  5
515F
  8
AM_0
 10
389.20810094475922
 20
594.14569459323695
 30
0.0
 40
5.0
 50
0.0
 51
85.000003999997659
  0
ARC
  5
5160
  8
AM_0
 10
389.20810094475922
 20
507.308994593237
 30
0.0
 40
5.0
 50
274.99999999999972
 51
0.0
  0
ARC
  5
5161
  8
AM_0
 10
373.20810094475922
 20
492.00833459323712
 30
0.0
 40
5.0
 50
95.00000199999856
 51
180.00001000000091
  0
ARC
  5
5162
  8
AM_0
 10
373.20810094475922
 20
609.44635459323695
 30
0.0
 40
5.0
 50
180.00001000000091
 51
265.00001000000071
  0
ARC
  5
5163
  8
AM_0
 10
373.20810094475922
 20
478.72415459323707
 30
0.0
 40
5.0
 50
180.00001000000091
 51
271.49999999999608
  0
ARC
  5
5164
  8
AM_0
 10
373.20810094475922
 20
622.73056459323698
 30
0.0
 40
5.0
 50
88.499997000000747
 51
180.00001000000091
  0
ARC
  5
5165
  8
AM_0
 10
365.20810094475951
 20
490.63004459323702
 30
0.0
 40
3.0
 50
271.49999999999608
 51
0.0
  0
ARC
  5
5166
  8
AM_0
 10
344.81308094475941
 20
485.05914459323702
 30
0.0
 40
5.0
 50
271.49999999999608
 51
299.88701999999472
  0
ARC
  5
5167
  8
AM_0
 10
360.43277094475923
 20
482.50226459323687
 30
0.0
 40
5.0
 50
91.500001000001546
 51
119.88701999999461
  0
ARC
  5
5168
  8
AM_0
 10
378.2081309447592
 20
506.70181459323709
 30
0.0
 40
3.0
 50
271.49999999999608
 51
0.0
  0
ARC
  5
5169
  8
AM_0
 10
378.2081309447592
 20
500.47635459323698
 30
0.0
 40
3.0
 50
274.99999999999972
 51
0.0
  0
ARC
  5
516A
  8
AM_0
 10
385.38214094475921
 20
496.93607459323692
 30
0.0
 40
5.0
 50
95.00000199999856
 51
153.73433000000119
  0
ARC
  5
516B
  8
AM_0
 10
385.38214094475921
 20
604.51862459323695
 30
0.0
 40
5.0
 50
206.26566999999881
 51
265.00001000000071
  0
ARC
  5
516C
  8
AM_0
 10
378.2081309447592
 20
594.75290459323685
 30
0.0
 40
3.0
 50
0.0
 51
88.499997000000747
  0
ARC
  5
516D
  8
AM_0
 10
344.81308094475941
 20
616.39557459323703
 30
0.0
 40
5.0
 50
60.112980000005322
 51
88.499997000000747
  0
ARC
  5
516E
  8
AM_0
 10
378.2081309447592
 20
600.97836459323685
 30
0.0
 40
3.0
 50
0.0
 51
85.000003999997659
  0
ARC
  5
516F
  8
AM_0
 10
360.43277094475923
 20
618.95245459323712
 30
0.0
 40
5.0
 50
240.11298000000519
 51
268.50000000000369
  0
ARC
  5
5170
  8
AM_0
 10
365.20810094475951
 20
610.82468459323695
 30
0.0
 40
3.0
 50
0.0
 51
88.499997000000747
  0
ARC
  5
5171
  8
AM_0
 10
347.20810094475922
 20
605.15207459323699
 30
0.0
 40
1.0
 50
0.0
 51
90.00000299999769
  0
ARC
  5
5172
  8
AM_0
 10
347.20810094475922
 20
610.92560459323704
 30
0.0
 40
1.0
 50
0.0
 51
90.00000299999769
  0
ARC
  5
5173
  8
AM_0
 10
347.20810094475922
 20
613.81235459323705
 30
0.0
 40
1.0
 50
0.0
 51
90.00000299999769
  0
ARC
  5
5174
  8
AM_0
 10
347.20810094475922
 20
612.92557459323712
 30
0.0
 40
1.0
 50
269.999989999999
 51
0.0000006832495047
  0
ARC
  5
5175
  8
AM_0
 10
347.20810094475922
 20
607.1520745932371
 30
0.0
 40
1.0
 50
269.999989999999
 51
0.0000006832495047
  0
ARC
  5
5176
  8
AM_0
 10
347.20810094475922
 20
604.26532459323698
 30
0.0
 40
1.0
 50
269.999989999999
 51
0.0000006832495047
  0
ARC
  5
5177
  8
AM_0
 10
447.69684094475917
 20
550.7273645932371
 30
0.0
 40
101.4887199999999
 50
151.89333000000309
 51
208.10666999999691
  0
ARC
  5
5178
  8
AM_0
 10
327.20813094475938
 20
481.85898459323693
 30
0.0
 40
2.0
 50
180.00001000000091
 51
268.50000000000369
  0
ARC
  5
5179
  8
AM_0
 10
327.20813094475938
 20
619.59573459323713
 30
0.0
 40
2.0
 50
91.500001000001546
 51
180.00001000000091
  0
ARC
  5
517A
  8
AM_0
 10
322.20810094475928
 20
487.51608459323683
 30
0.0
 40
2.0
 50
180.00001000000091
 51
270.0
  0
ARC
  5
517B
  8
AM_0
 10
318.20810094475928
 20
502.72705459323703
 30
0.0
 40
2.0
 50
0.0
 51
90.00000299999769
  0
ARC
  5
517C
  8
AM_0
 10
323.20813094475938
 20
483.51608459323683
 30
0.0
 40
2.0
 50
0.0
 51
90.00000299999769
  0
ARC
  5
517D
  8
AM_0
 10
323.20813094475938
 20
617.93866459323704
 30
0.0
 40
2.0
 50
270.0
 51
0.0
  0
ARC
  5
517E
  8
AM_0
 10
322.20810094475928
 20
613.93866459323704
 30
0.0
 40
2.0
 50
90.00000299999769
 51
180.00001000000091
  0
ARC
  5
517F
  8
AM_0
 10
318.20810094475928
 20
598.72766459323714
 30
0.0
 40
2.0
 50
270.0
 51
0.0
  0
LINE
  5
53FB
  8
ﾁｭｳｼﾝｾﾝ1
 10
375.20810094475922
 20
615.72736459323687
 30
0.0
 11
395.20810094475922
 21
615.72736459323687
 31
0.0
  0
LINE
  5
53FC
  8
ﾁｭｳｼﾝｾﾝ1
 10
385.20810094475922
 20
625.7273645932371
 30
0.0
 11
385.20810094475922
 21
605.7273645932371
 31
0.0
  0
LINE
  5
53FE
  8
ﾁｭｳｼﾝｾﾝ1
 10
375.20810094475922
 20
485.72736459323693
 30
0.0
 11
395.20810094475922
 21
485.72736459323693
 31
0.0
  0
LINE
  5
53FF
  8
ﾁｭｳｼﾝｾﾝ1
 10
385.20810094475922
 20
495.7273645932371
 30
0.0
 11
385.20810094475922
 21
475.72736459323693
 31
0.0
  0
LINE
  5
5400
  8
ﾁｭｳｼﾝｾﾝ1
 10
305.20810094475951
 20
485.72736459323693
 30
0.0
 11
325.20810094475951
 21
485.72736459323693
 31
0.0
  0
LINE
  5
5401
  8
ﾁｭｳｼﾝｾﾝ1
 10
315.20810094475951
 20
495.7273645932371
 30
0.0
 11
315.20810094475951
 21
475.72736459323693
 31
0.0
  0
LINE
  5
5402
  8
ﾁｭｳｼﾝｾﾝ1
 10
305.20810094475951
 20
615.72736459323687
 30
0.0
 11
325.20810094475951
 21
615.72736459323687
 31
0.0
  0
LINE
  5
5403
  8
ﾁｭｳｼﾝｾﾝ1
 10
315.20810094475951
 20
625.7273645932371
 30
0.0
 11
315.20810094475951
 21
605.7273645932371
 31
0.0
  0
ARC
  5
5404
  8
AM_0
 10
396.20808094475962
 20
580.11411959323698
 30
0.0
 40
2.00000007
 50
179.999989999999
 51
240.00000999999969
  0
ARC
  5
5405
  8
AM_0
 10
396.20808094475962
 20
521.34061259323676
 30
0.0
 40
2.00000007
 50
120.0000000000005
 51
180.00001000000091
  0
LINE
  5
5406
  8
AM_0
 10
400.20805094475912
 20
584.22736159323676
 30
0.0
 11
405.20805094475901
 21
579.22736159323722
 31
0.0
  0
LINE
  5
5407
  8
AM_0
 10
395.70805094475918
 20
584.22736159323676
 30
0.0
 11
400.20805094475918
 21
584.22736159323676
 31
0.0
  0
LINE
  5
5408
  8
AM_0
 10
395.20805094475929
 20
583.72736159323676
 30
0.0
 11
395.20805094475878
 21
517.72736159323745
 31
0.0
  0
LINE
  5
5409
  8
AM_0
 10
405.20805094475901
 20
579.22736159323722
 30
0.0
 11
405.20805094475918
 21
522.22736159323711
 31
0.0
  0
LINE
  5
540A
  8
AM_0
 10
395.70805094475918
 20
517.22736159323676
 30
0.0
 11
400.20805094475912
 21
517.22736159323676
 31
0.0
  0
LINE
  5
540B
  8
AM_0
 10
400.20805094475912
 20
517.22736159323676
 30
0.0
 11
405.20805094475901
 21
522.22736159323711
 31
0.0
  0
LINE
  5
540C
  8
AM_0
 10
395.70805094475918
 20
584.22736159323676
 30
0.0
 11
395.20805094475929
 21
583.72736159323676
 31
0.0
1001
GENIUS_GENFIL_13
1070
     0
1040
0.5
1040
0.5
1040
20.0
1040
0.0
1002
{
1002
}
1001
GENIUS_GENOBJ-N-CHA_13
1002
{
1000
OWNER
1000
GEN
1002
}
1001
GENIUS_GENODEF_13
1002
{
1000
HIER
1070
     0
1002
}
1002
{
1000
MANEDIT
1070
     0
1002
}
1002
{
1000
NOSEL
1070
     0
1002
}
1002
{
1000
BEHIND
1070
     0
1002
}
1002
{
1000
OTHER
1070
     0
1002
}
1002
{
1000
REACTOR
1002
}
  0
LINE
  5
540D
  8
AM_0
 10
395.20805094475929
 20
517.72736159323676
 30
0.0
 11
395.70805094475918
 21
517.22736159323676
 31
0.0
1001
GENIUS_GENFIL_13
1070
     0
1040
0.5
1040
0.5
1040
20.0
1040
0.0
1002
{
1002
}
1001
GENIUS_GENOBJ-N-CHA_13
1002
{
1000
OWNER
1000
GEN
1002
}
1001
GENIUS_GENODEF_13
1002
{
1000
HIER
1070
     0
1002
}
1002
{
1000
MANEDIT
1070
     0
1002
}
1002
{
1000
NOSEL
1070
     0
1002
}
1002
{
1000
BEHIND
1070
     0
1002
}
1002
{
1000
OTHER
1070
     0
1002
}
1002
{
1000
REACTOR
1002
}
  0
LINE
  5
540E
  8
AM_0
 10
400.20805094475918
 20
584.22736159323676
 30
0.0
 11
400.20805094475912
 21
517.22736159323676
 31
0.0
  0
LINE
  5
5697
  8
AM_0
 10
265.23432079379972
 20
484.7273645932371
 30
0.0
 11
265.48887006782257
 21
494.44733459323692
 31
0.0
  0
LINE
  5
5698
  8
AM_0
 10
205.18188879855921
 20
484.7273645932371
 30
0.0
 11
204.92740675742041
 21
494.44733459323692
 31
0.0
  0
LINE
  5
5699
  8
AM_0
 10
201.70813094475929
 20
482.7273645932371
 30
0.0
 11
268.7081309447592
 21
482.7273645932371
 31
0.0
  0
LINE
  5
569A
  8
AM_0
 10
201.70813094475929
 20
481.7273645932371
 30
0.0
 11
201.70813094475929
 21
482.7273645932371
 31
0.0
  0
LINE
  5
569B
  8
AM_0
 10
268.7081309447592
 20
481.7273645932371
 30
0.0
 11
268.7081309447592
 21
482.7273645932371
 31
0.0
  0
LINE
  5
569C
  8
AM_0
 10
187.2081309447592
 20
443.72736459323693
 30
0.0
 11
188.46771608102151
 21
479.797163586642
 31
0.0
  0
LINE
  5
569D
  8
AM_0
 10
190.4664977350597
 20
481.7273645932371
 30
0.0
 11
279.94976415445882
 21
481.7273645932371
 31
0.0
  0
ARC
  5
569E
  8
AM_0
 10
190.4664977350599
 20
479.7273645932371
 30
0.0
 40
2.0
 50
90.0
 51
178.0000000000029
1001
GENIUS_GENODEF_13
1002
{
1000
HIER
1070
     0
1002
}
1002
{
1000
MANEDIT
1070
     0
1002
}
1002
{
1000
NOSEL
1070
     0
1002
}
1002
{
1000
BEHIND
1070
     0
1002
}
1002
{
1000
OTHER
1070
     0
1002
}
1002
{
1000
REACTOR
1002
}
1001
GENIUS_GENOBJ-N-FIL_13
1002
{
1000
OWNER
1000
GEN
1002
}
  0
LINE
  5
569F
  8
AM_0
 10
281.9485458084971
 20
479.797163586642
 30
0.0
 11
283.20813094475938
 21
443.7273645932371
 31
0.0
  0
ARC
  5
56A0
  8
AM_0
 10
279.94976415445888
 20
479.7273645932371
 30
0.0
 40
2.0
 50
1.9999999999971021
 51
90.0
1001
GENIUS_GENOBJ-N-FIL_13
1002
{
1000
OWNER
1000
GEN
1002
}
1001
GENIUS_GENODEF_13
1002
{
1000
HIER
1070
     0
1002
}
1002
{
1000
MANEDIT
1070
     0
1002
}
1002
{
1000
NOSEL
1070
     0
1002
}
1002
{
1000
BEHIND
1070
     0
1002
}
1002
{
1000
OTHER
1070
     0
1002
}
1002
{
1000
REACTOR
1002
}
  0
LINE
  5
56A1
  8
AM_0
 10
283.20813094475938
 20
443.7273645932371
 30
0.0
 11
187.20813094475901
 21
443.72736459323693
 31
0.0
  0
LINE
  5
56A2
  8
AM_0
 10
187.31289325323439
 20
446.72736459323681
 30
0.0
 11
186.2081309447592
 21
446.72736459323681
 31
0.0
  0
LINE
  5
56A3
  8
AM_0
 10
188.43035787697039
 20
478.72736459323681
 30
0.0
 11
186.20813094475909
 21
478.72736459323681
 31
0.0
  0
LINE
  5
56A4
  8
ﾁｭｳｼﾝｾﾝ1
 10
192.2081309447598
 20
433.46265709323688
 30
0.0
 11
192.2081309447598
 21
446.46265709323711
 31
0.0
  0
LINE
  5
56A5
  8
ﾁｭｳｼﾝｾﾝ
 10
235.2081309447592
 20
489.01939526646601
 30
0.0
 11
235.2081309447592
 21
431.27684195242762
 31
0.0
  0
LINE
  5
56A6
  8
AM_0
 10
183.7081309447592
 20
449.22736459323681
 30
0.0
 11
186.20813094475909
 21
449.2273645932367
 31
0.0
  0
LINE
  5
56A7
  8
AM_0
 10
186.20813094475909
 20
476.22736459323647
 30
0.0
 11
183.7081309447592
 21
476.22736459323681
 31
0.0
  0
LINE
  5
56A8
  8
AM_0
 10
172.80945984841321
 20
473.22736459323693
 30
0.0
 11
172.80945984841321
 21
452.22736459323693
 31
0.0
  0
LINE
  5
56A9
  8
AM_0
 10
157.8094598484133
 20
454.69573953922168
 30
0.0
 11
157.8094598484133
 21
470.75898964725269
 31
0.0
  0
LINE
  5
56AA
  8
AM_0
 10
170.80945984841321
 20
474.72736459323681
 30
0.0
 11
170.80945984841321
 21
450.72736459323681
 31
0.0
  0
LINE
  5
56AB
  8
AM_0
 10
161.30945984841321
 20
462.72736459323681
 30
0.0
 11
161.80945984841321
 21
463.22736459323681
 31
0.0
  0
LINE
  5
56AC
  8
AM_0
 10
168.3094598484133
 20
451.02736459323683
 30
0.0
 11
168.3094598484133
 21
474.42736459323669
 31
0.0
  0
LINE
  5
56AD
  8
AM_0
 10
178.20813094475909
 20
451.22736459323681
 30
0.0
 11
178.20813094475909
 21
474.22736459323681
 31
0.0
  0
LINE
  5
56AE
  8
AM_0
 10
172.3094598484133
 20
463.42736459323862
 30
0.0
 11
172.3094598484133
 21
462.02736459323557
 31
0.0
  0
LINE
  5
56AF
  8
AM_0
 10
174.40909557498421
 20
471.82736459323678
 30
0.0
 11
173.6590955749852
 21
453.62736459323668
 31
0.0
  0
LINE
  5
56B0
  8
AM_0
 10
173.45813094475909
 20
471.82736459323678
 30
0.0
 11
172.80945984841321
 21
456.08627932192059
 31
0.0
  0
LINE
  5
56B1
  8
AM_0
 10
174.20682353533121
 20
472.54302330560091
 30
0.0
 11
173.45956349192309
 21
452.91499283206969
 31
0.0
  0
LINE
  5
56B2
  8
AM_0
 10
173.6576630278212
 20
472.53973635440479
 30
0.0
 11
172.9090955749852
 21
452.87736459323679
 31
0.0
  0
LINE
  5
56B3
  8
AM_0
 10
170.80945984841321
 20
450.72736459323681
 30
0.0
 11
168.6094598484132
 21
450.72736459323681
 31
0.0
  0
ARC
  5
56B4
  8
AM_0
 10
182.7081309447592
 20
450.22736459323681
 30
0.0
 40
0.5
 50
0.0
 51
90.000000000013017
  0
ARC
  5
56B5
  8
AM_0
 10
183.70813094475929
 20
449.72736459323681
 30
0.0
 40
0.5
 50
180.0
 51
270.0
  0
LINE
  5
56B6
  8
AM_0
 10
183.20813094475929
 20
450.22736459323681
 30
0.0
 11
183.20813094475929
 21
449.72736459323681
 31
0.0
  0
LINE
  5
56B7
  8
AM_0
 10
174.20813094475909
 20
453.62736459323668
 30
0.0
 11
177.7081309447592
 21
453.62736459323668
 31
0.0
  0
LINE
  5
56B8
  8
AM_0
 10
183.20813094475929
 20
451.87129327182993
 30
0.0
 11
183.20813094475929
 21
461.58343591464478
 31
0.0
  0
LINE
  5
56B9
  8
AM_0
 10
178.70813094475909
 20
450.72736459323681
 30
0.0
 11
182.70813094475909
 21
450.72736459323681
 31
0.0
  0
LINE
  5
56BA
  8
AM_0
 10
182.70813094475909
 20
451.37129327182981
 30
0.0
 11
178.20813094475909
 21
451.37129327182981
 31
0.0
  0
ARC
  5
56BB
  8
AM_0
 10
182.7081309447592
 20
451.87129327182993
 30
0.0
 40
0.5
 50
270.0
 51
0.0
  0
ARC
  5
56BC
  8
AM_0
 10
177.7081309447592
 20
453.1273645932369
 30
0.0
 40
0.5
 50
0.0
 51
90.0
  0
ARC
  5
56BD
  8
AM_0
 10
178.70813094475909
 20
451.22736459323681
 30
0.0
 40
0.5
 50
180.0
 51
270.0
  0
LINE
  5
56BE
  8
AM_0
 10
182.70813094475909
 20
462.08343591464478
 30
0.0
 11
178.20813094475909
 21
462.08343591464478
 31
0.0
  0
ARC
  5
56BF
  8
AM_0
 10
182.70813094475909
 20
461.58343591464478
 30
0.0
 40
0.5
 50
0.0
 51
90.0
  0
LINE
  5
56C0
  8
AM_0
 10
172.3094598484133
 20
456.58219384094468
 30
0.0
 11
172.3094598484133
 21
457.75443702737772
 31
0.0
  0
LINE
  5
56C1
  8
AM_0
 10
173.73582800341021
 20
453.62736459323668
 30
0.0
 11
174.20813094475909
 21
453.62736459323668
 31
0.0
  0
LINE
  5
56C2
  8
AM_0
 10
173.63923550887091
 20
453.55324682650001
 30
0.0
 11
173.6590955749852
 21
453.62736459323668
 31
0.0
  0
ARC
  5
56C3
  8
AM_0
 10
173.73582800341021
 20
453.52736459323683
 30
0.0
 40
0.1000000000000346
 50
90.0
 51
164.99980499355539
  0
ARC
  5
56C4
  8
AM_0
 10
172.0094598484132
 20
453.44053161272888
 30
0.0
 40
0.3000000000000043
 50
0.0
 51
90.0
  0
LINE
  5
56C5
  8
AM_0
 10
170.80945984841321
 20
451.32736459323678
 30
0.0
 11
172.02941555157031
 21
451.40869497344789
 31
0.0
  0
LINE
  5
56C6
  8
AM_0
 10
170.80945984841321
 20
452.48361662907678
 30
0.0
 11
172.0094598484132
 21
452.48361662907678
 31
0.0
  0
LINE
  5
56C7
  8
AM_0
 10
172.3094598484133
 20
451.72736459323693
 30
0.0
 11
170.80945984841321
 21
451.72736459323693
 31
0.0
  0
ARC
  5
56C8
  8
AM_0
 10
172.3094598484133
 20
452.22736459323693
 30
0.0
 40
0.5
 50
270.0
 51
0.0
  0
LINE
  5
56C9
  8
AM_0
 10
172.3094598484133
 20
451.70803052080493
 30
0.0
 11
172.3094598484133
 21
451.72736459323693
 31
0.0
  0
LINE
  5
56CA
  8
AM_0
 10
172.3094598484133
 20
451.42736459323692
 30
0.0
 11
172.3094598484133
 21
451.70803052080493
 31
0.0
  0
LINE
  5
56CB
  8
AM_0
 10
172.02941555157031
 20
451.40869497344789
 30
0.0
 11
172.3094598484133
 21
451.42736459323692
 31
0.0
  0
ARC
  5
56CC
  8
AM_0
 10
172.0094598484132
 20
451.70803052080493
 30
0.0
 40
0.3000000000000007
 50
273.81407483428171
 51
0.0
  0
LINE
  5
56CD
  8
AM_0
 10
173.3813985163342
 20
452.87736459323679
 30
0.0
 11
173.45813094476009
 21
452.87736459323679
 31
0.0
  0
LINE
  5
56CE
  8
AM_0
 10
173.45813094476009
 20
452.87736459323679
 30
0.0
 11
173.47799101087321
 21
452.95148235997323
 31
0.0
  0
LINE
  5
56CF
  8
AM_0
 10
172.889235508871
 20
452.95148235997323
 30
0.0
 11
172.9090955749852
 21
452.87736459323679
 31
0.0
  0
LINE
  5
56D0
  8
AM_0
 10
172.9090955749852
 20
452.87736459323679
 30
0.0
 11
172.98582800341009
 21
452.87736459323679
 31
0.0
  0
LINE
  5
56D1
  8
AM_0
 10
173.47799101087321
 20
452.95148235997323
 30
0.0
 11
173.63923550887091
 21
453.55324682650001
 31
0.0
  0
LINE
  5
56D2
  8
AM_0
 10
172.98582800341009
 20
452.87736459323679
 30
0.0
 11
173.3813985163342
 21
452.87736459323679
 31
0.0
  0
LINE
  5
56D3
  8
AM_0
 10
172.80945984841401
 20
453.24920512479758
 30
0.0
 11
172.889235508871
 21
452.95148235997323
 31
0.0
  0
ARC
  5
56D4
  8
AM_0
 10
173.3813985163342
 20
452.97736459323681
 30
0.0
 40
0.0999999999999866
 50
270.0
 51
344.99980499343371
  0
ARC
  5
56D5
  8
AM_0
 10
172.98582800341009
 20
452.97736459323681
 30
0.0
 40
0.1000000000000014
 50
195.00019500656629
 51
270.0
  0
LINE
  5
56D6
  8
AM_0
 10
172.3094598484133
 20
452.78361662907668
 30
0.0
 11
172.3094598484133
 21
453.44053161272888
 31
0.0
  0
ARC
  5
56D7
  8
AM_0
 10
172.0094598484132
 20
452.7836166290769
 30
0.0
 40
0.3000000000000007
 50
270.0
 51
0.0
  0
LINE
  5
56D8
  8
AM_0
 10
170.80945984841321
 20
456.28219384094479
 30
0.0
 11
172.0094598484132
 21
456.28219384094479
 31
0.0
  0
LINE
  5
56D9
  8
AM_0
 10
172.0094598484132
 20
453.74053161272877
 30
0.0
 11
170.80945984841321
 21
453.74053161272877
 31
0.0
  0
LINE
  5
56DA
  8
AM_0
 10
173.6590955749852
 20
453.62736459323668
 30
0.0
 11
173.73582800341021
 21
453.62736459323668
 31
0.0
  0
ARC
  5
56DB
  8
AM_0
 10
172.0094598484132
 20
456.58219384094491
 30
0.0
 40
0.3000000000000007
 50
270.0
 51
0.0
  0
LINE
  5
56DC
  8
AM_0
 10
172.0094598484132
 20
458.05443702737779
 30
0.0
 11
170.80945984841321
 21
458.05443702737779
 31
0.0
  0
ARC
  5
56DD
  8
AM_0
 10
172.0094598484132
 20
457.75443702737772
 30
0.0
 40
0.3000000000000043
 50
0.0
 51
90.0
  0
LINE
  5
56DE
  8
AM_0
 10
172.0094598484132
 20
461.72736459323579
 30
0.0
 11
170.80945984841321
 21
461.72736459323579
 31
0.0
  0
ARC
  5
56DF
  8
AM_0
 10
172.0094598484132
 20
462.02736459323597
 30
0.0
 40
0.3000000000000007
 50
270.0
 51
0.0
  0
LINE
  5
56E0
  8
AM_0
 10
161.80945984841321
 20
452.59408476458958
 30
0.0
 11
168.3094598484133
 21
452.59408476458958
 31
0.0
  0
LINE
  5
56E1
  8
AM_0
 10
161.80945984841321
 20
452.09408476458958
 30
0.0
 11
168.3094598484133
 21
452.09408476458958
 31
0.0
  0
LINE
  5
56E2
  8
AM_0
 10
168.3094598484133
 20
462.22736459323681
 30
0.0
 11
161.80945984841321
 21
462.22736459323681
 31
0.0
  0
LINE
  5
56E3
  8
AM_0
 10
161.30945984841321
 20
461.72736459323681
 30
0.0
 11
168.3094598484133
 21
461.72736459323681
 31
0.0
  0
LINE
  5
56E4
  8
AM_0
 10
168.0094598484132
 20
451.72736459323693
 30
0.0
 11
161.17150978359521
 21
451.72736459323693
 31
0.0
  0
LINE
  5
56E5
  8
AM_0
 10
168.3094598484133
 20
461.38067652469562
 30
0.0
 11
161.80945984841321
 21
461.38067652469562
 31
0.0
  0
LINE
  5
56E6
  8
AM_0
 10
168.3094598484133
 20
453.0740526617779
 30
0.0
 11
161.80945984841321
 21
453.0740526617779
 31
0.0
  0
ARC
  5
56E7
  8
AM_0
 10
168.60945984841331
 20
451.02736459323683
 30
0.0
 40
0.2999999999999971
 50
180.0
 51
270.0
  0
ARC
  5
56E8
  8
AM_0
 10
168.0094598484132
 20
451.42736459323692
 30
0.0
 40
0.2999999999999971
 50
0.0
 51
90.0
  0
ARC
  5
56E9
  8
AM_0
 10
169.9344598484133
 20
457.22736459323681
 30
0.0
 40
9.124999999999984
 50
152.92493329271929
 51
207.07506670728071
  0
LINE
  5
56EA
  8
AM_0
 10
160.53132538393081
 20
451.95914331363917
 30
0.0
 11
158.16927544874869
 21
453.92751825962421
 31
0.0
  0
LINE
  5
56EB
  8
AM_0
 10
161.30945984841321
 20
452.30579717674482
 30
0.0
 11
161.80945984841321
 21
451.72736459323693
 31
0.0
  0
ARC
  5
56EC
  8
AM_0
 10
161.17150978359521
 20
452.72736459323693
 30
0.0
 40
1.0
 50
230.19442890774391
 51
270.0
  0
LINE
  5
56ED
  8
AM_0
 10
161.80945984841321
 20
452.09408476458958
 30
0.0
 11
161.30945984841321
 21
452.30579717674482
 31
0.0
  0
LINE
  5
56EE
  8
AM_0
 10
161.30945984841321
 20
452.76807244971587
 30
0.0
 11
161.80945984841321
 21
452.09408476458958
 31
0.0
  0
LINE
  5
56EF
  8
AM_0
 10
161.80945984841321
 20
452.59408476458958
 30
0.0
 11
161.30945984841321
 21
452.76807244971587
 31
0.0
  0
LINE
  5
56F0
  8
AM_0
 10
161.30945984841321
 20
453.30579717674482
 30
0.0
 11
161.80945984841321
 21
452.59408476458958
 31
0.0
  0
LINE
  5
56F1
  8
AM_0
 10
161.80945984841321
 20
453.0740526617779
 30
0.0
 11
161.30945984841321
 21
453.30579717674482
 31
0.0
  0
ARC
  5
56F2
  8
AM_0
 10
158.8094598484133
 20
454.6957395392219
 30
0.0
 40
1.0000000000000291
 50
180.0
 51
230.19442890773479
  0
LINE
  5
56F3
  8
AM_0
 10
161.80945984841321
 20
462.22736459323681
 30
0.0
 11
161.30945984841321
 21
462.72736459323681
 31
0.0
  0
LINE
  5
56F4
  8
AM_0
 10
161.30945984841321
 20
461.72736459323681
 30
0.0
 11
161.80945984841321
 21
462.22736459323681
 31
0.0
  0
LINE
  5
56F5
  8
AM_0
 10
161.80945984841321
 20
461.38067652469562
 30
0.0
 11
161.30945984841321
 21
461.72736459323681
 31
0.0
  0
LINE
  5
56F6
  8
AM_0
 10
168.6094598484132
 20
474.72736459323681
 30
0.0
 11
170.80945984841321
 21
474.72736459323681
 31
0.0
  0
ARC
  5
56F7
  8
AM_0
 10
182.70813094475909
 20
475.22736459323681
 30
0.0
 40
0.5
 50
269.99999999998693
 51
0.0
  0
LINE
  5
56F8
  8
AM_0
 10
177.7081309447592
 20
471.82736459323678
 30
0.0
 11
174.48582800341009
 21
471.82736459323678
 31
0.0
  0
LINE
  5
56F9
  8
AM_0
 10
183.20813094475929
 20
463.87129327182981
 30
0.0
 11
183.20813094475929
 21
473.58343591464501
 31
0.0
  0
LINE
  5
56FA
  8
AM_0
 10
178.20813094475909
 20
463.37129327182993
 30
0.0
 11
182.70813094475909
 21
463.37129327182993
 31
0.0
  0
ARC
  5
56FB
  8
AM_0
 10
182.70813094475909
 20
463.87129327182981
 30
0.0
 40
0.5
 50
270.0
 51
0.0
  0
LINE
  5
56FC
  8
AM_0
 10
178.20813094475909
 20
474.08343591464478
 30
0.0
 11
182.70813094475909
 21
474.08343591464478
 31
0.0
  0
LINE
  5
56FD
  8
AM_0
 10
182.70813094475909
 20
474.72736459323681
 30
0.0
 11
178.70813094475909
 21
474.72736459323681
 31
0.0
  0
ARC
  5
56FE
  8
AM_0
 10
182.70813094475909
 20
473.58343591464501
 30
0.0
 40
0.5
 50
0.0
 51
90.0
  0
ARC
  5
56FF
  8
AM_0
 10
177.7081309447592
 20
472.32736459323678
 30
0.0
 40
0.5
 50
270.0
 51
0.0
  0
ARC
  5
5700
  8
AM_0
 10
178.70813094475909
 20
474.22736459323681
 30
0.0
 40
0.5
 50
90.0
 51
180.0
  0
ARC
  5
5701
  8
AM_0
 10
172.0094598484132
 20
468.87253534552872
 30
0.0
 40
0.3000000000000114
 50
0.0
 51
90.0
  0
LINE
  5
5702
  8
AM_0
 10
170.80945984841321
 20
463.72736459323858
 30
0.0
 11
172.0094598484132
 21
463.72736459323858
 31
0.0
  0
ARC
  5
5703
  8
AM_0
 10
172.0094598484132
 20
463.42736459323902
 30
0.0
 40
0.2999999999999971
 50
0.0
 51
90.0
  0
LINE
  5
5704
  8
AM_0
 10
170.80945984841321
 20
467.40029215909573
 30
0.0
 11
172.0094598484132
 21
467.40029215909573
 31
0.0
  0
ARC
  5
5705
  8
AM_0
 10
172.0094598484132
 20
467.7002921590958
 30
0.0
 40
0.3000000000000007
 50
270.0
 51
0.0
  0
LINE
  5
5706
  8
AM_0
 10
172.3094598484133
 20
467.7002921590958
 30
0.0
 11
172.3094598484133
 21
468.87253534552872
 31
0.0
  0
LINE
  5
5707
  8
AM_0
 10
173.73582800341021
 20
472.57736459323678
 30
0.0
 11
174.13139851633409
 21
472.57736459323678
 31
0.0
  0
LINE
  5
5708
  8
AM_0
 10
173.73582800341021
 20
472.57736459323678
 30
0.0
 11
174.13139851633409
 21
472.57736459323678
 31
0.0
  0
LINE
  5
5709
  8
AM_0
 10
174.22799101087321
 20
472.5032468265004
 30
0.0
 11
174.38923550887111
 21
471.90148235997322
 31
0.0
  0
LINE
  5
570A
  8
AM_0
 10
174.22799101087321
 20
472.5032468265004
 30
0.0
 11
174.38923550887111
 21
471.90148235997322
 31
0.0
  0
ARC
  5
570B
  8
AM_0
 10
174.48582800341009
 20
471.92736459323692
 30
0.0
 40
0.0999999999999943
 50
195.00019500651879
 51
270.0
  0
ARC
  5
570C
  8
AM_0
 10
174.1313985163342
 20
472.47736459323681
 30
0.0
 40
0.0999999999999943
 50
15.000195006505431
 51
90.0
  0
LINE
  5
570D
  8
AM_0
 10
172.8086132598722
 20
472.20236459323689
 30
0.0
 11
172.889235508871
 21
471.90148235997322
 31
0.0
  0
LINE
  5
570E
  8
AM_0
 10
173.4608415969652
 20
471.86662912633477
 30
0.0
 11
173.639235508871
 21
472.5032468265004
 31
0.0
  0
LINE
  5
570F
  8
AM_0
 10
173.47799101087321
 20
471.90148235997322
 30
0.0
 11
173.639235508871
 21
472.5032468265004
 31
0.0
  0
LINE
  5
5710
  8
AM_0
 10
172.3094598484133
 20
472.01419757374561
 30
0.0
 11
172.3094598484133
 21
472.67111255739678
 31
0.0
  0
LINE
  5
5711
  8
AM_0
 10
172.80945984841321
 20
472.19920512479871
 30
0.0
 11
172.889235508871
 21
471.90148235997322
 31
0.0
  0
LINE
  5
5712
  8
AM_0
 10
170.80945984841321
 20
471.71419757374582
 30
0.0
 11
172.0094598484132
 21
471.71419757374582
 31
0.0
  0
LINE
  5
5713
  8
AM_0
 10
172.0094598484132
 20
469.17253534552879
 30
0.0
 11
170.80945984841321
 21
469.17253534552958
 31
0.0
  0
LINE
  5
5714
  8
AM_0
 10
173.41403078184911
 20
471.82736459323678
 30
0.0
 11
173.4608415969652
 21
471.86662912633477
 31
0.0
  0
LINE
  5
5715
  8
AM_0
 10
172.98582800341009
 20
471.82736459323678
 30
0.0
 11
173.41403078184911
 21
471.82736459323678
 31
0.0
  0
LINE
  5
5716
  8
AM_0
 10
172.98582800341009
 20
471.82736459323678
 30
0.0
 11
173.3813985163342
 21
471.82736459323678
 31
0.0
  0
ARC
  5
5717
  8
AM_0
 10
172.98582800341009
 20
471.92736459323692
 30
0.0
 40
0.0999999999999943
 50
195.00019500651879
 51
270.0
  0
ARC
  5
5718
  8
AM_0
 10
173.3813985163342
 20
471.92736459323692
 30
0.0
 40
0.0999999999999608
 50
270.0
 51
344.99980499348112
  0
ARC
  5
5719
  8
AM_0
 10
172.0094598484132
 20
472.01419757374561
 30
0.0
 40
0.3000000000000007
 50
270.0
 51
0.0
  0
LINE
  5
571A
  8
AM_0
 10
170.80945984841321
 20
473.72736459323681
 30
0.0
 11
172.3094598484133
 21
473.72736459323681
 31
0.0
  0
LINE
  5
571B
  8
AM_0
 10
172.0094598484132
 20
472.97111255739679
 30
0.0
 11
170.80945984841321
 21
472.97111255739679
 31
0.0
  0
LINE
  5
571C
  8
AM_0
 10
172.02941555157031
 20
474.04603421302681
 30
0.0
 11
170.80945984841321
 21
474.12736459323668
 31
0.0
  0
ARC
  5
571D
  8
AM_0
 10
172.3094598484133
 20
473.22736459323693
 30
0.0
 40
0.5
 50
0.0
 51
90.0
  0
ARC
  5
571E
  8
AM_0
 10
173.73582800341021
 20
472.47736459323681
 30
0.0
 40
0.0999999999999606
 50
90.0
 51
164.99980499349451
  0
ARC
  5
571F
  8
AM_0
 10
172.0094598484132
 20
472.67111255739678
 30
0.0
 40
0.2999999999999971
 50
0.0
 51
90.0
  0
LINE
  5
5720
  8
AM_0
 10
172.3094598484133
 20
473.72736459323681
 30
0.0
 11
172.3094598484133
 21
473.74669866566978
 31
0.0
  0
ARC
  5
5721
  8
AM_0
 10
172.0094598484132
 20
473.74669866566978
 30
0.0
 40
0.3000000000000043
 50
0.0
 51
86.185925165718274
  0
ARC
  5
5722
  8
AM_0
 10
183.7081309447592
 20
475.72736459323681
 30
0.0
 40
0.5
 50
90.0
 51
180.0
  0
LINE
  5
5723
  8
AM_0
 10
183.20813094475929
 20
475.72736459323681
 30
0.0
 11
183.20813094475929
 21
475.22736459323681
 31
0.0
  0
LINE
  5
5724
  8
AM_0
 10
161.80945984841321
 20
472.38067652469567
 30
0.0
 11
168.3094598484133
 21
472.38067652469567
 31
0.0
  0
LINE
  5
5725
  8
AM_0
 10
161.80945984841321
 20
464.07405266177773
 30
0.0
 11
168.3094598484133
 21
464.07405266177773
 31
0.0
  0
LINE
  5
5726
  8
AM_0
 10
161.17150978359521
 20
473.72736459323681
 30
0.0
 11
168.0094598484132
 21
473.72736459323681
 31
0.0
  0
LINE
  5
5727
  8
AM_0
 10
168.3094598484133
 20
463.72736459323681
 30
0.0
 11
161.30945984841321
 21
463.72736459323681
 31
0.0
  0
LINE
  5
5728
  8
AM_0
 10
161.80945984841321
 20
463.22736459323681
 30
0.0
 11
168.3094598484133
 21
463.22736459323681
 31
0.0
  0
LINE
  5
5729
  8
AM_0
 10
168.3094598484133
 20
473.36064442188479
 30
0.0
 11
161.80945984841321
 21
473.36064442188479
 31
0.0
  0
LINE
  5
572A
  8
AM_0
 10
168.3094598484133
 20
472.86064442188467
 30
0.0
 11
161.80945984841321
 21
472.86064442188467
 31
0.0
  0
ARC
  5
572B
  8
AM_0
 10
168.0094598484132
 20
474.02736459323683
 30
0.0
 40
0.3000000000000043
 50
270.0
 51
0.0
  0
ARC
  5
572C
  8
AM_0
 10
168.60945984841331
 20
474.4273645932368
 30
0.0
 40
0.2999999999999971
 50
90.0
 51
180.0
  0
ARC
  5
572D
  8
AM_0
 10
169.9344598484133
 20
468.22736459323681
 30
0.0
 40
9.124999999999984
 50
152.92493329271929
 51
207.07506670728071
  0
LINE
  5
572E
  8
AM_0
 10
161.30945984841321
 20
463.72736459323681
 30
0.0
 11
161.80945984841321
 21
464.07405266177773
 31
0.0
  0
LINE
  5
572F
  8
AM_0
 10
161.80945984841321
 20
463.22736459323681
 30
0.0
 11
161.30945984841321
 21
463.72736459323681
 31
0.0
  0
LINE
  5
5730
  8
AM_0
 10
158.16927544874869
 20
471.5272109268501
 30
0.0
 11
160.53132538393081
 21
473.49558587283423
 31
0.0
  0
LINE
  5
5731
  8
AM_0
 10
161.80945984841321
 20
473.72736459323681
 30
0.0
 11
161.30945984841321
 21
473.14893200972972
 31
0.0
  0
ARC
  5
5732
  8
AM_0
 10
161.17150978359521
 20
472.72736459323693
 30
0.0
 40
1.0000000000000411
 50
90.0
 51
129.805571092256
  0
LINE
  5
5733
  8
AM_0
 10
161.30945984841321
 20
472.14893200972978
 30
0.0
 11
161.80945984841321
 21
472.38067652469567
 31
0.0
  0
LINE
  5
5734
  8
AM_0
 10
161.80945984841321
 20
472.86064442188467
 30
0.0
 11
161.30945984841321
 21
472.14893200972978
 31
0.0
  0
LINE
  5
5735
  8
AM_0
 10
161.30945984841321
 20
472.68665673675781
 30
0.0
 11
161.80945984841321
 21
472.86064442188467
 31
0.0
  0
LINE
  5
5736
  8
AM_0
 10
161.80945984841321
 20
473.36064442188479
 30
0.0
 11
161.30945984841321
 21
472.68665673675781
 31
0.0
  0
LINE
  5
5737
  8
AM_0
 10
161.30945984841321
 20
473.14893200972972
 30
0.0
 11
161.80945984841321
 21
473.36064442188479
 31
0.0
  0
ARC
  5
5738
  8
AM_0
 10
158.8094598484133
 20
470.75898964725269
 30
0.0
 40
1.0
 50
129.80557109226521
 51
180.0
  0
LINE
  5
5739
  8
AM_0
 10
283.20813094475932
 20
439.7273645932371
 30
0.0
 11
262.39362604522688
 21
439.7273645932371
 31
0.0
  0
LINE
  5
573A
  8
AM_0
 10
208.02263584429161
 20
439.7273645932371
 30
0.0
 11
187.2081309447598
 21
439.7273645932371
 31
0.0
  0
LINE
  5
573B
  8
AM_0
 10
277.07234927559813
 20
435.7273645932371
 30
0.0
 11
193.34391261392011
 21
435.7273645932371
 31
0.0
  0
LINE
  5
573C
  8
AM_0
 10
196.11548591706631
 20
437.6684270811092
 30
0.0
 11
196.2081309447598
 21
438.72736459323721
 31
0.0
  0
LINE
  5
573D
  8
AM_0
 10
188.30077597245321
 20
437.6684270811092
 30
0.0
 11
188.2081309447598
 21
438.72736459323721
 31
0.0
  0
ARC
  5
573E
  8
AM_0
 10
192.2081309447598
 20
442.12736459323702
 30
0.0
 40
6.5
 50
241.82726586813479
 51
298.17273413186518
  0
ARC
  5
573F
  8
AM_0
 10
189.89468748940021
 20
437.80787626950553
 30
0.0
 40
1.6000000000000001
 50
184.99999999999969
 51
241.82726586813479
  0
LINE
  5
5740
  8
AM_0
 10
194.50813094475981
 20
436.04789093180881
 30
0.0
 11
192.2081309447598
 21
438.33745061060432
 31
0.0
  0
LINE
  5
5741
  8
AM_0
 10
192.5196309447598
 20
438.02736459323711
 30
0.0
 11
191.89663094475981
 21
438.02736459323711
 31
0.0
  0
LINE
  5
5742
  8
AM_0
 10
189.9081309447599
 20
436.04789093180881
 30
0.0
 11
192.2081309447598
 21
438.33745061060432
 31
0.0
  0
LINE
  5
5743
  8
AM_0
 10
192.5196309447598
 20
435.63483290290247
 30
0.0
 11
192.5196309447598
 21
438.02736459323711
 31
0.0
  0
LINE
  5
5744
  8
AM_0
 10
191.89663094475981
 20
435.63483290290247
 30
0.0
 11
191.89663094475981
 21
438.02736459323711
 31
0.0
  0
ARC
  5
5745
  8
AM_0
 10
194.5215744001195
 20
437.80787626950553
 30
0.0
 40
1.6000000000000001
 50
298.17273413186518
 51
355.00000000000023
  0
LINE
  5
5746
  8
AM_0
 10
283.20813094475938
 20
439.7273645932371
 30
0.0
 11
283.20813094475938
 21
443.7273645932371
 31
0.0
  0
LINE
  5
5747
  8
AM_0
 10
187.20813094475901
 20
443.72736459323693
 30
0.0
 11
187.20813094476
 21
439.7273645932371
 31
0.0
  0
LINE
  5
5748
  8
AM_0N
 10
196.0081309447599
 20
439.7273645932371
 30
0.0
 11
196.0081309447599
 21
438.72736459323721
 31
0.0
  0
LINE
  5
5749
  8
AM_0N
 10
192.4081309447599
 20
438.72736459323721
 30
0.0
 11
192.77210117902601
 21
439.7273645932371
 31
0.0
  0
LINE
  5
574A
  8
AM_0N
 10
192.0081309447599
 20
438.72736459323721
 30
0.0
 11
192.372101179026
 21
439.7273645932371
 31
0.0
  0
LINE
  5
574B
  8
AM_0N
 10
188.2081309447598
 20
438.72736459323721
 30
0.0
 11
196.2081309447598
 21
438.72736459323721
 31
0.0
  0
LINE
  5
574C
  8
AM_0N
 10
188.4081309447599
 20
438.72736459323721
 30
0.0
 11
188.4081309447599
 21
439.7273645932371
 31
0.0
  0
LINE
  5
574D
  8
AM_0
 10
208.0226358442915
 20
435.7273645932371
 30
0.0
 11
208.0226358442915
 21
439.7273645932371
 31
0.0
  0
LINE
  5
574E
  8
AM_0
 10
206.3657815947991
 20
439.7273645932371
 30
0.0
 11
208.0226358442915
 21
435.7273645932371
 31
0.0
  0
LINE
  5
574F
  8
AM_0
 10
262.39362604522688
 20
435.7273645932371
 30
0.0
 11
262.39362604522688
 21
439.7273645932371
 31
0.0
  0
LINE
  5
5750
  8
AM_0
 10
264.05048029471942
 20
439.7273645932371
 30
0.0
 11
262.39362604522688
 21
435.7273645932371
 31
0.0
  0
LINE
  5
5751
  8
AM_0
 10
201.70813094475929
 20
484.7273645932371
 30
0.0
 11
268.7081309447592
 21
484.7273645932371
 31
0.0
  0
LINE
  5
5752
  8
AM_0
 10
201.70813094475929
 20
484.7273645932371
 30
0.0
 11
201.70813094475929
 21
482.7273645932371
 31
0.0
  0
LINE
  5
5753
  8
AM_0
 10
268.7081309447592
 20
484.7273645932371
 30
0.0
 11
268.7081309447592
 21
482.7273645932371
 31
0.0
  0
LINE
  5
5754
  8
ﾁｭｳｼﾝｾﾝ1
 10
278.20813094475858
 20
433.46265709323688
 30
0.0
 11
278.20813094475858
 21
446.46265709323711
 31
0.0
  0
LINE
  5
5755
  8
AM_0
 10
274.30077597245219
 20
437.6684270811092
 30
0.0
 11
274.20813094475869
 21
438.72736459323721
 31
0.0
  0
LINE
  5
5756
  8
AM_0
 10
282.1154859170652
 20
437.6684270811092
 30
0.0
 11
282.20813094475858
 21
438.72736459323721
 31
0.0
  0
ARC
  5
5757
  8
AM_0
 10
278.20813094475892
 20
442.1273645932369
 30
0.0
 40
6.5
 50
241.82726586813479
 51
298.17273413186518
  0
ARC
  5
5758
  8
AM_0
 10
280.5215744001186
 20
437.80787626950553
 30
0.0
 40
1.6000000000000001
 50
298.17273413186518
 51
355.00000000000023
  0
LINE
  5
5759
  8
AM_0
 10
275.90813094475868
 20
436.04789093180881
 30
0.0
 11
278.20813094475869
 21
438.33745061060432
 31
0.0
  0
LINE
  5
575A
  8
AM_0
 10
277.89663094475878
 20
438.02736459323711
 30
0.0
 11
278.51963094475872
 21
438.02736459323711
 31
0.0
  0
LINE
  5
575B
  8
AM_0
 10
280.5081309447587
 20
436.04789093180881
 30
0.0
 11
278.20813094475869
 21
438.33745061060432
 31
0.0
  0
LINE
  5
575C
  8
AM_0
 10
277.89663094475878
 20
435.63483290290247
 30
0.0
 11
277.89663094475878
 21
438.02736459323711
 31
0.0
  0
LINE
  5
575D
  8
AM_0
 10
278.51963094475872
 20
435.63483290290247
 30
0.0
 11
278.51963094475872
 21
438.02736459323711
 31
0.0
  0
ARC
  5
575E
  8
AM_0
 10
275.89468748939919
 20
437.80787626950553
 30
0.0
 40
1.6000000000000001
 50
184.99999999999969
 51
241.82726586813479
  0
LINE
  5
575F
  8
AM_0N
 10
274.40813094475862
 20
439.7273645932371
 30
0.0
 11
274.40813094475862
 21
438.72736459323721
 31
0.0
  0
LINE
  5
5760
  8
AM_0N
 10
278.0081309447587
 20
438.72736459323721
 30
0.0
 11
277.64416071049249
 21
439.7273645932371
 31
0.0
  0
LINE
  5
5761
  8
AM_0N
 10
278.40813094475862
 20
438.72736459323721
 30
0.0
 11
278.04416071049252
 21
439.7273645932371
 31
0.0
  0
LINE
  5
5762
  8
AM_0N
 10
282.20813094475869
 20
438.72736459323721
 30
0.0
 11
274.20813094475869
 21
438.72736459323721
 31
0.0
  0
LINE
  5
5763
  8
AM_0N
 10
282.0081309447587
 20
438.72736459323721
 30
0.0
 11
282.0081309447587
 21
439.7273645932371
 31
0.0
  0
LINE
  5
5764
  8
AM_0
 10
186.2081309447592
 20
446.72736459323681
 30
0.0
 11
186.20813094475909
 21
478.72736459323681
 31
0.0
  0
LINE
  5
5765
  8
AM_0
 10
284.41388094475928
 20
595.65625459323712
 30
0.0
 11
280.26816094475947
 21
611.13736459323695
 31
0.0
  0
LINE
  5
5766
  8
AM_0
 10
284.41385094475947
 20
594.74625459323715
 30
0.0
 11
280.26813094475938
 21
610.22736459323698
 31
0.0
  0
LINE
  5
5767
  8
AM_0
 10
284.41385094475947
 20
592.89627459323719
 30
0.0
 11
280.26813094475938
 21
608.37741459323695
 31
0.0
  0
LINE
  5
5768
  8
AM_0
 10
286.20813094475938
 20
606.72736459323687
 30
0.0
 11
286.20813094475938
 21
494.72736459323681
 31
0.0
  0
LINE
  5
5769
  8
AM_0
 10
279.54816094475939
 20
586.72736459323687
 30
0.0
 11
180.5681209447593
 21
586.72736459323687
 31
0.0
  0
LINE
  5
576A
  8
AM_0
 10
279.54816094475939
 20
584.7273645932371
 30
0.0
 11
180.5681209447593
 21
584.7273645932371
 31
0.0
  0
LINE
  5
576B
  8
AM_0
 10
247.2081309447596
 20
576.7273645932371
 30
0.0
 11
180.5681209447593
 21
576.7273645932371
 31
0.0
  0
LINE
  5
576C
  8
AM_0
 10
279.5409609447596
 20
574.7273645932371
 30
0.0
 11
180.5681209447593
 21
574.7273645932371
 31
0.0
  0
LINE
  5
576D
  8
AM_0
 10
214.64685094475931
 20
566.7273645932371
 30
0.0
 11
180.5681209447593
 21
566.7273645932371
 31
0.0
  0
LINE
  5
576E
  8
AM_0
 10
214.64685094475931
 20
564.72736459323698
 30
0.0
 11
180.5681209447593
 21
564.72736459323698
 31
0.0
  0
LINE
  5
576F
  8
AM_0
 10
214.64685094475931
 20
556.72736459323687
 30
0.0
 11
180.5681209447593
 21
556.72736459323687
 31
0.0
  0
LINE
  5
5770
  8
AM_0
 10
214.64685094475931
 20
554.7273645932371
 30
0.0
 11
180.5681209447593
 21
554.7273645932371
 31
0.0
  0
LINE
  5
5771
  8
AM_0
 10
179.88812094475961
 20
587.44733459323686
 30
0.0
 11
283.02814094475929
 21
587.44733459323686
 31
0.0
  0
LINE
  5
5772
  8
AM_0
 10
179.88812094475961
 20
584.09735459323713
 30
0.0
 11
247.22815094475951
 21
584.09735459323713
 31
0.0
  0
LINE
  5
5773
  8
AM_0
 10
179.66815094475939
 20
577.21735459323679
 30
0.0
 11
247.2081309447596
 21
577.21735459323679
 31
0.0
  0
LINE
  5
5774
  8
AM_0
 10
179.66815094475939
 20
574.28741459323703
 30
0.0
 11
283.24237094475939
 21
574.28741459323703
 31
0.0
  0
LINE
  5
5775
  8
AM_0
 10
179.53815094475939
 20
567.06732459323712
 30
0.0
 11
215.8668209447595
 21
567.06732459323712
 31
0.0
  0
LINE
  5
5776
  8
AM_0
 10
179.53815094475939
 20
564.40741459323704
 30
0.0
 11
215.8668209447595
 21
564.40741459323704
 31
0.0
  0
LINE
  5
5777
  8
AM_0
 10
179.47815094475931
 20
556.99738459323692
 30
0.0
 11
215.9268209447595
 21
556.99738459323692
 31
0.0
  0
LINE
  5
5778
  8
AM_0
 10
179.47815094475931
 20
554.46735459323713
 30
0.0
 11
215.9268209447595
 21
554.46735459323713
 31
0.0
  0
LINE
  5
5779
  8
AM_0
 10
179.47815094475931
 20
546.99738459323692
 30
0.0
 11
215.9268209447595
 21
546.99738459323692
 31
0.0
  0
LINE
  5
577A
  8
AM_0
 10
214.64685094475931
 20
546.7273645932371
 30
0.0
 11
180.5681209447593
 21
546.7273645932371
 31
0.0
  0
LINE
  5
577B
  8
AM_0
 10
214.64685094475931
 20
544.72736459323676
 30
0.0
 11
180.5681209447593
 21
544.72736459323676
 31
0.0
  0
LINE
  5
577C
  8
AM_0
 10
179.47815094475931
 20
544.45734459323717
 30
0.0
 11
215.9268209447595
 21
544.45734459323717
 31
0.0
  0
LINE
  5
577D
  8
AM_0
 10
179.53815094475939
 20
537.04730459323719
 30
0.0
 11
215.8668209447595
 21
537.04730459323719
 31
0.0
  0
LINE
  5
577E
  8
AM_0
 10
214.64685094475931
 20
536.72736459323676
 30
0.0
 11
180.5681209447593
 21
536.72736459323676
 31
0.0
  0
LINE
  5
577F
  8
AM_0
 10
214.64685094475931
 20
534.7273645932371
 30
0.0
 11
180.5681209447593
 21
534.7273645932371
 31
0.0
  0
LINE
  5
5780
  8
AM_0
 10
179.53815094475939
 20
534.38739459323688
 30
0.0
 11
215.8794009447594
 21
534.38739459323688
 31
0.0
  0
LINE
  5
5781
  8
AM_0
 10
279.5409609447596
 20
526.7273645932371
 30
0.0
 11
180.5681209447593
 21
526.7273645932371
 31
0.0
  0
LINE
  5
5782
  8
AM_0
 10
179.66815094475939
 20
527.16730459323719
 30
0.0
 11
283.24237094475939
 21
527.16730459323719
 31
0.0
  0
LINE
  5
5783
  8
AM_0
 10
247.2081309447596
 20
524.7273645932371
 30
0.0
 11
180.5681209447593
 21
524.7273645932371
 31
0.0
  0
LINE
  5
5784
  8
AM_0
 10
179.66815094475939
 20
524.23737459323695
 30
0.0
 11
247.2081309447596
 21
524.23737459323695
 31
0.0
  0
LINE
  5
5785
  8
AM_0
 10
279.54816094475939
 20
516.72736459323676
 30
0.0
 11
235.2081309447594
 21
516.72736459323676
 31
0.0
  0
LINE
  5
5786
  8
AM_0
 10
279.54816094475939
 20
514.72736459323687
 30
0.0
 11
235.2081309447594
 21
514.72736459323687
 31
0.0
  0
LINE
  5
5787
  8
AM_0
 10
179.88812094475961
 20
514.00739459323677
 30
0.0
 11
235.2081309447594
 21
514.00739459323677
 31
0.0
  0
LINE
  5
5788
  8
AM_0
 10
283.02814094475929
 20
517.35736459323698
 30
0.0
 11
265.18817094475941
 21
517.35736459323698
 31
0.0
  0
LINE
  5
5789
  8
AM_0
 10
179.88812094475961
 20
517.35736459323698
 30
0.0
 11
247.22815094475951
 21
517.35736459323698
 31
0.0
  0
LINE
  5
578A
  8
AM_0
 10
235.2081309447594
 20
516.72736459323676
 30
0.0
 11
180.5681209447593
 21
516.72736459323676
 31
0.0
  0
LINE
  5
578B
  8
AM_0
 10
235.2081309447594
 20
514.72736459323687
 30
0.0
 11
180.5681209447593
 21
514.72736459323687
 31
0.0
  0
LINE
  5
578C
  8
AM_0
 10
235.2081309447594
 20
514.00739459323677
 30
0.0
 11
283.02814094475929
 21
514.00739459323677
 31
0.0
  0
LINE
  5
578D
  8
AM_0
 10
178.2081309447594
 20
603.7273645932371
 30
0.0
 11
178.2081309447594
 21
497.72736459323693
 31
0.0
  0
LINE
  5
578E
  8
AM_0
 10
286.20813094475938
 20
596.7273645932371
 30
0.0
 11
294.20813094475938
 21
596.7273645932371
 31
0.0
  0
LINE
  5
578F
  8
AM_0
 10
286.20813094475938
 20
582.66730459323685
 30
0.0
 11
294.20813094475938
 21
582.66730459323685
 31
0.0
  0
LINE
  5
5790
  8
AM_0
 10
286.20813094475938
 20
606.72736459323687
 30
0.0
 11
294.20813094475938
 21
606.72736459323687
 31
0.0
  0
LINE
  5
5791
  8
AM_0
 10
181.4181509447593
 20
607.00739459323722
 30
0.0
 11
278.3381409447594
 21
607.00739459323722
 31
0.0
  0
LINE
  5
5792
  8
AM_0
 10
178.2081309447594
 20
598.82742459323697
 30
0.0
 11
179.44812094475941
 21
605.38742459323703
 31
0.0
  0
LINE
  5
5793
  8
AM_0
 10
183.5681809447594
 20
587.37738459323703
 30
0.0
 11
178.20819094475939
 21
598.82736459323701
 31
0.0
  0
LINE
  5
5794
  8
AM_0
 10
183.5681209447593
 20
514.07733459323708
 30
0.0
 11
178.20819094475939
 21
502.63742459323691
 31
0.0
  0
LINE
  5
5795
  8
AM_0
 10
181.4581309447594
 20
609.85736459323675
 30
0.0
 11
278.3381409447594
 21
609.85736459323675
 31
0.0
  0
LINE
  5
5796
  8
AM_0
 10
181.47815094475931
 20
611.70734459323705
 30
0.0
 11
278.3381409447594
 21
611.70734459323705
 31
0.0
  0
LINE
  5
5797
  8
AM_0
 10
181.49817094475941
 20
612.61737459323695
 30
0.0
 11
278.33820094475948
 21
612.61737459323695
 31
0.0
  0
LINE
  5
5798
  8
AM_0
 10
178.20819094475939
 20
600.16739459323696
 30
0.0
 11
179.48816094475939
 21
608.17734459323719
 31
0.0
  0
LINE
  5
5799
  8
AM_0
 10
178.20819094475939
 20
601.51733459323668
 30
0.0
 11
179.49817094475949
 21
610.00742459323703
 31
0.0
  0
LINE
  5
579A
  8
AM_0
 10
178.2081309447594
 20
601.51736459323695
 30
0.0
 11
179.51813094475941
 21
610.89740459323696
 31
0.0
  0
LINE
  5
579B
  8
AM_0
 10
284.40820094475959
 20
590.06732459323712
 30
0.0
 11
280.26819094475928
 21
605.5273445932371
 31
0.0
  0
LINE
  5
579C
  8
AM_0
 10
280.74817094475952
 20
603.7273645932371
 30
0.0
 11
286.20813094475938
 21
603.7273645932371
 31
0.0
  0
LINE
  5
579D
  8
AM_0
 10
286.20813094475938
 20
504.72736459323681
 30
0.0
 11
294.20813094475938
 21
504.72736459323681
 31
0.0
  0
LINE
  5
579E
  8
AM_0
 10
286.20813094475938
 20
494.72736459323681
 30
0.0
 11
294.20813094475938
 21
494.72736459323681
 31
0.0
  0
LINE
  5
579F
  8
AM_0
 10
181.4181509447593
 20
494.44733459323692
 30
0.0
 11
278.3381409447594
 21
494.44733459323692
 31
0.0
  0
LINE
  5
57A0
  8
AM_0
 10
178.2081309447594
 20
502.63733459323691
 30
0.0
 11
179.4481809447594
 21
496.07733459323691
 31
0.0
  0
LINE
  5
57A1
  8
AM_0
 10
181.1143809447594
 20
491.59735459323713
 30
0.0
 11
203.6062609447593
 21
491.59735459323713
 31
0.0
  0
LINE
  5
57A2
  8
AM_0
 10
178.2081309447594
 20
501.28732459323692
 30
0.0
 11
179.48816094475939
 21
493.28741459323692
 31
0.0
  0
LINE
  5
57A3
  8
AM_0
 10
178.2081309447594
 20
499.9474245932368
 30
0.0
 11
179.21741094475939
 21
493.297244593237
 31
0.0
  0
LINE
  5
57A4
  8
AM_0
 10
178.20819094475939
 20
499.94739459323711
 30
0.0
 11
179.1336109447594
 21
493.32080459323691
 31
0.0
  0
LINE
  5
57A5
  8
AM_0
 10
284.41385094475947
 20
511.40851459323687
 30
0.0
 11
280.26813094475938
 21
495.92737459323712
 31
0.0
  0
LINE
  5
57A6
  8
AM_0
 10
280.75018094475939
 20
497.72736459323693
 30
0.0
 11
286.20813094475938
 21
497.72736459323693
 31
0.0
  0
LINE
  5
57A7
  8
AM_0
 10
286.20813094475938
 20
518.78741459323692
 30
0.0
 11
294.20813094475938
 21
518.78741459323692
 31
0.0
  0
LINE
  5
57A8
  8
AM_0
 10
285.20813094475938
 20
497.72736459323693
 30
0.0
 11
279.4823909447594
 21
488.91046459323718
 31
0.0
  0
LINE
  5
57A9
  8
AM_0
 10
266.7217409447594
 20
488.22736459323681
 30
0.0
 11
278.22437094475958
 21
488.22736459323681
 31
0.0
  0
LINE
  5
57AA
  8
AM_0
 10
264.18817094475941
 20
578.22736459323687
 30
0.0
 11
264.18817094475941
 21
583.08734459323705
 31
0.0
  0
LINE
  5
57AB
  8
AM_0
 10
248.22815094475939
 20
578.22736459323687
 30
0.0
 11
248.22815094475939
 21
583.08734459323705
 31
0.0
  0
LINE
  5
57AC
  8
AM_0
 10
263.70813094475949
 20
578.22736459323687
 30
0.0
 11
263.70813094475949
 21
583.2273645932371
 31
0.0
  0
LINE
  5
57AD
  8
AM_0
 10
248.7081309447594
 20
578.22736459323687
 30
0.0
 11
248.7081309447594
 21
583.2273645932371
 31
0.0
  0
LINE
  5
57AE
  8
AM_0
 10
220.2081309447594
 20
563.7273645932371
 30
0.0
 11
283.20813094475938
 21
563.7273645932371
 31
0.0
  0
LINE
  5
57AF
  8
AM_0
 10
220.2081309447594
 20
530.2273645932371
 30
0.0
 11
283.20813094475938
 21
530.2273645932371
 31
0.0
  0
LINE
  5
57B0
  8
AM_0
 10
220.2081309447594
 20
571.2273645932371
 30
0.0
 11
283.20813094475938
 21
571.2273645932371
 31
0.0
  0
LINE
  5
57B1
  8
AM_0
 10
283.20813094475938
 20
571.2273645932371
 30
0.0
 11
283.20813094475938
 21
530.2273645932371
 31
0.0
  0
LINE
  5
57B2
  8
AM_0
 10
220.2081309447594
 20
571.2273645932371
 30
0.0
 11
220.2081309447594
 21
530.2273645932371
 31
0.0
  0
LINE
  5
57B3
  8
AM_0
 10
265.20813094475938
 20
577.21735459323679
 30
0.0
 11
283.25385094475939
 21
577.21735459323679
 31
0.0
  0
LINE
  5
57B4
  8
AM_0
 10
265.20813094475938
 20
524.2473845932368
 30
0.0
 11
283.24237094475939
 21
524.2473845932368
 31
0.0
  0
LINE
  5
57B5
  8
AM_0
 10
264.18817094475941
 20
523.22736459323687
 30
0.0
 11
264.18817094475941
 21
518.36737459323695
 31
0.0
  0
LINE
  5
57B6
  8
AM_0
 10
248.22815094475939
 20
523.22736459323687
 30
0.0
 11
248.22815094475939
 21
518.36737459323695
 31
0.0
  0
LINE
  5
57B7
  8
AM_0
 10
263.70813094475949
 20
523.22736459323687
 30
0.0
 11
263.70813094475949
 21
518.2273645932371
 31
0.0
  0
LINE
  5
57B8
  8
AM_0
 10
248.7081309447594
 20
523.22736459323687
 30
0.0
 11
248.7081309447594
 21
518.2273645932371
 31
0.0
  0
LINE
  5
57B9
  8
AM_0
 10
279.5409609447596
 20
524.7273645932371
 30
0.0
 11
265.20813094475938
 21
524.7273645932371
 31
0.0
  0
LINE
  5
57BA
  8
AM_0
 10
279.55530094475961
 20
576.7273645932371
 30
0.0
 11
265.20813094475938
 21
576.7273645932371
 31
0.0
  0
LINE
  5
57BB
  8
AM_0
 10
265.18817094475941
 20
584.08734459323705
 30
0.0
 11
283.02814094475929
 21
584.08734459323705
 31
0.0
  0
ARC
  5
57BC
  8
AM_0
 10
285.86133094475929
 20
596.06012459323699
 30
0.0
 40
1.502775999999999
 50
194.75642999999971
 51
269.87757999999872
  0
ARC
  5
57BD
  8
AM_0
 10
285.86133094475929
 20
595.15009459323699
 30
0.0
 40
1.502775999999999
 50
194.75642999999971
 51
269.87757999999872
  0
ARC
  5
57BE
  8
AM_0
 10
285.86133094475929
 20
593.30011459323714
 30
0.0
 40
1.502775999999999
 50
194.75642999999971
 51
269.87757999999872
  0
ARC
  5
57BF
  8
AM_0
 10
278.3333109447596
 20
610.6126145932368
 30
0.0
 40
2.0047290000000002
 50
15.173495999996319
 51
89.861678000000197
  0
ARC
  5
57C0
  8
AM_0
 10
278.3333109447596
 20
609.70258459323679
 30
0.0
 40
2.0047290000000002
 50
15.173495999996319
 51
89.861678000000197
  0
ARC
  5
57C1
  8
AM_0
 10
278.3333109447596
 20
607.85260459323695
 30
0.0
 40
2.0047290000000002
 50
15.173495999996319
 51
89.861678000000197
  0
ARC
  5
57C2
  8
AM_0
 10
285.86133094475929
 20
511.00458459323681
 30
0.0
 40
1.502775999999999
 50
90.122413000001615
 51
165.2435700000002
  0
ARC
  5
57C3
  8
AM_0
 10
180.75275094475941
 20
515.72736459323676
 30
0.0
 40
1.000013899999999
 50
89.691659999999231
 51
270.30834000000078
  0
ARC
  5
57C4
  8
AM_0
 10
283.02814094475929
 20
585.77240459323673
 30
0.0
 40
1.6750020000000001
 50
269.999989999999
 51
90.00000299999769
  0
ARC
  5
57C5
  8
AM_0
 10
279.54816094475939
 20
585.72736459323687
 30
0.0
 40
1.0
 50
269.999989999999
 51
90.00000299999769
  0
ARC
  5
57C6
  8
AM_0
 10
279.54816094475939
 20
515.72736459323676
 30
0.0
 40
1.0
 50
269.999989999999
 51
90.00000299999769
  0
ARC
  5
57C7
  8
AM_0
 10
283.02814094475929
 20
515.68231459323692
 30
0.0
 40
1.6750020000000001
 50
269.999989999999
 51
90.00000299999769
  0
ARC
  5
57C8
  8
AM_0
 10
179.88074094475959
 20
585.77240459323673
 30
0.0
 40
1.6750160000000001
 50
89.746145000004447
 51
270.25387000000092
  0
ARC
  5
57C9
  8
AM_0
 10
180.75275094475941
 20
585.72736459323687
 30
0.0
 40
1.000013899999999
 50
89.691659999999231
 51
270.30834000000078
  0
ARC
  5
57CA
  8
AM_0
 10
180.75275094475941
 20
575.7273645932371
 30
0.0
 40
1.000013899999999
 50
89.691659999999231
 51
270.30834000000078
  0
ARC
  5
57CB
  8
AM_0
 10
180.75275094475941
 20
565.72736459323687
 30
0.0
 40
1.000013899999999
 50
89.691659999999231
 51
270.30834000000078
  0
ARC
  5
57CC
  8
AM_0
 10
180.75275094475941
 20
555.7273645932371
 30
0.0
 40
1.000013899999999
 50
89.691659999999231
 51
270.30834000000078
  0
ARC
  5
57CD
  8
AM_0
 10
180.75275094475941
 20
545.7273645932371
 30
0.0
 40
1.000013899999999
 50
89.691659999999231
 51
270.30834000000078
  0
ARC
  5
57CE
  8
AM_0
 10
180.75275094475941
 20
535.72736459323687
 30
0.0
 40
1.000013899999999
 50
89.691659999999231
 51
270.30834000000078
  0
ARC
  5
57CF
  8
AM_0
 10
180.75275094475941
 20
525.72736459323676
 30
0.0
 40
1.000013899999999
 50
89.691659999999231
 51
270.30834000000078
  0
ARC
  5
57D0
  8
AM_0
 10
179.66815094475939
 20
575.75238459323703
 30
0.0
 40
1.465004
 50
90.00000299999769
 51
270.0
  0
ARC
  5
57D1
  8
AM_0
 10
179.53815094475939
 20
565.73737459323695
 30
0.0
 40
1.3300049999999981
 50
90.00000299999769
 51
270.0
  0
ARC
  5
57D2
  8
AM_0
 10
179.47229094475941
 20
555.73236459323698
 30
0.0
 40
1.2650129999999991
 50
89.735579000001778
 51
270.2644100000025
  0
ARC
  5
57D3
  8
AM_0
 10
179.47229094475941
 20
545.7273645932371
 30
0.0
 40
1.2700129999999981
 50
89.736617000001615
 51
270.2633699999991
  0
ARC
  5
57D4
  8
AM_0
 10
179.53815094475939
 20
535.71735459323713
 30
0.0
 40
1.3300049999999981
 50
90.00000299999769
 51
270.0
  0
ARC
  5
57D5
  8
AM_0
 10
179.66815094475939
 20
525.70233459323697
 30
0.0
 40
1.465004
 50
90.00000299999769
 51
270.0
  0
ARC
  5
57D6
  8
AM_0
 10
179.88129094475929
 20
515.68231459323692
 30
0.0
 40
1.675014
 50
89.766498999996756
 51
270.2335099999994
  0
ARC
  5
57D7
  8
AM_0
 10
181.4068609447593
 20
605.01324459323712
 30
0.0
 40
1.994108999999999
 50
89.675548000002749
 51
169.18776999999901
  0
ARC
  5
57D8
  8
AM_0
 10
181.45838094475931
 20
607.86212459323713
 30
0.0
 40
1.995282999999997
 50
90.006203999996856
 51
170.90835000000069
  0
ARC
  5
57D9
  8
AM_0
 10
181.4727209447594
 20
609.71063459323705
 30
0.0
 40
1.9967330000000001
 50
89.843966999998912
 51
171.4538799999975
  0
ARC
  5
57DA
  8
AM_0
 10
181.49463094475931
 20
610.62176459323678
 30
0.0
 40
1.995633
 50
89.899707999995783
 51
172.06112999999939
  0
ARC
  5
57DB
  8
AM_0
 10
278.33826094475938
 20
605.00909459323714
 30
0.0
 40
1.9982919999999991
 50
15.032547999996
 51
90.002632000001341
  0
ARC
  5
57DC
  8
AM_0
 10
285.86133094475929
 20
590.45013459323695
 30
0.0
 40
1.502775999999999
 50
194.75642999999971
 51
269.87757999999872
  0
ARC
  5
57DD
  8
AM_0
 10
278.3333109447596
 20
496.45209459323701
 30
0.0
 40
2.0047290000000002
 50
270.13832000000423
 51
344.82650000000189
  0
ARC
  5
57DE
  8
AM_0
 10
181.41303094475941
 20
496.44659459323691
 30
0.0
 40
1.9992490000000001
 50
190.643100000001
 51
270.14743000000129
  0
ARC
  5
57DF
  8
AM_0
 10
181.46436094475951
 20
493.59772459323682
 30
0.0
 40
2.000420099999999
 50
188.9268200000011
 51
269.82270999999599
  0
ARC
  5
57E0
  8
AM_0
 10
266.7217409447594
 20
486.72736459323681
 30
0.0
 40
1.5
 50
90.00000299999769
 51
178.50000000000381
  0
ARC
  5
57E1
  8
AM_0
 10
278.22437094475958
 20
489.72736459323693
 30
0.0
 40
1.5
 50
269.999989999999
 51
326.99999999999892
  0
ARC
  5
57E2
  8
AM_0
 10
181.19476094475931
 20
493.59735459323713
 30
0.0
 40
2.0
 50
188.629620000004
 51
269.999989999999
  0
ARC
  5
57E3
  8
AM_0
 10
181.1143809447594
 20
493.59735459323713
 30
0.0
 40
2.0
 50
187.95044000000351
 51
269.999989999999
  0
ARC
  5
57E4
  8
AM_0
 10
203.6062609447593
 20
490.09735459323713
 30
0.0
 40
1.5
 50
1.5000027000022329
 51
90.00000299999769
  0
ARC
  5
57E5
  8
AM_0
 10
214.64685094475931
 20
565.72736459323687
 30
0.0
 40
1.0000056999999991
 50
269.999989999999
 51
90.00000299999769
  0
ARC
  5
57E6
  8
AM_0
 10
214.64685094475931
 20
555.7273645932371
 30
0.0
 40
1.0000056999999991
 50
269.999989999999
 51
90.00000299999769
  0
ARC
  5
57E7
  8
AM_0
 10
214.64685094475931
 20
545.7273645932371
 30
0.0
 40
1.0000056999999991
 50
269.999989999999
 51
90.00000299999769
  0
ARC
  5
57E8
  8
AM_0
 10
214.64685094475931
 20
535.72736459323687
 30
0.0
 40
1.0000056999999991
 50
269.999989999999
 51
90.00000299999769
  0
ARC
  5
57E9
  8
AM_0
 10
265.20813094475938
 20
518.2273645932371
 30
0.0
 40
1.5
 50
179.999989999999
 51
270.0
  0
ARC
  5
57EA
  8
AM_0
 10
247.2081309447596
 20
518.2273645932371
 30
0.0
 40
1.5
 50
269.999989999999
 51
0.0000006832495047
  0
ARC
  5
57EB
  8
AM_0
 10
247.22815094475951
 20
518.36737459323695
 30
0.0
 40
1.0
 50
269.999989999999
 51
0.0000006832495047
  0
ARC
  5
57EC
  8
AM_0
 10
265.18817094475941
 20
518.36737459323695
 30
0.0
 40
1.0
 50
179.999989999999
 51
270.0
  0
CIRCLE
  5
57ED
  8
AM_0
 10
253.7081309447594
 20
579.2273645932371
 30
0.0
 40
1.1000000000000001
  0
CIRCLE
  5
57EE
  8
AM_0
 10
253.7081309447594
 20
579.2273645932371
 30
0.0
 40
1.149999999999999
  0
CIRCLE
  5
57EF
  8
AM_0
 10
258.70813094475938
 20
579.2273645932371
 30
0.0
 40
1.0
  0
ARC
  5
57F0
  8
AM_0
 10
247.2081309447596
 20
578.22736459323687
 30
0.0
 40
1.02
 50
269.999989999999
 51
0.0000006832429909
  0
ARC
  5
57F1
  8
AM_0
 10
265.20813094475938
 20
578.22736459323687
 30
0.0
 40
1.02
 50
179.999989999999
 51
270.0
  0
ARC
  5
57F2
  8
AM_0
 10
247.2081309447596
 20
578.22736459323687
 30
0.0
 40
1.5
 50
269.999989999999
 51
0.0000006832495047
  0
ARC
  5
57F3
  8
AM_0
 10
265.20813094475938
 20
578.22736459323687
 30
0.0
 40
1.5
 50
179.999989999999
 51
270.0
  0
CIRCLE
  5
57F4
  8
AM_0
 10
258.70813094475938
 20
522.2273645932371
 30
0.0
 40
1.0
  0
CIRCLE
  5
57F5
  8
AM_0
 10
253.7081309447594
 20
522.2273645932371
 30
0.0
 40
1.149999999999999
  0
CIRCLE
  5
57F6
  8
AM_0
 10
253.7081309447594
 20
522.2273645932371
 30
0.0
 40
1.1000000000000001
  0
ARC
  5
57F7
  8
AM_0
 10
247.2081309447596
 20
523.22736459323687
 30
0.0
 40
1.02
 50
0.0
 51
90.00000299999769
  0
ARC
  5
57F8
  8
AM_0
 10
265.20813094475938
 20
523.22736459323687
 30
0.0
 40
1.02
 50
90.00000299999769
 51
180.00001000000091
  0
ARC
  5
57F9
  8
AM_0
 10
247.2081309447596
 20
523.22736459323687
 30
0.0
 40
1.5
 50
0.0
 51
90.00000299999769
  0
ARC
  5
57FA
  8
AM_0
 10
265.20813094475938
 20
523.22736459323687
 30
0.0
 40
1.5
 50
90.00000299999769
 51
180.00001000000091
  0
ARC
  5
57FB
  8
AM_0
 10
215.87311094475939
 20
535.71735459323713
 30
0.0
 40
1.3300148000000001
 50
269.7294199999987
 51
90.270567000000995
  0
ARC
  5
57FC
  8
AM_0
 10
215.93506094475941
 20
545.7273645932371
 30
0.0
 40
1.2700266
 50
269.62931999999989
 51
90.370669999998213
  0
ARC
  5
57FD
  8
AM_0
 10
215.93506094475941
 20
555.73737459323706
 30
0.0
 40
1.2700266
 50
269.62931999999989
 51
90.370669999998213
  0
ARC
  5
57FE
  8
AM_0
 10
215.87311094475939
 20
565.74237459323695
 30
0.0
 40
1.3350147999999991
 50
269.7304299999999
 51
90.269556000001344
  0
ARC
  5
57FF
  8
AM_0
 10
279.54810094475948
 20
575.7273645932371
 30
0.0
 40
1.0000255999999981
 50
269.5894700000033
 51
90.410530999997775
  0
ARC
  5
5800
  8
AM_0
 10
283.24811094475939
 20
575.75739459323711
 30
0.0
 40
1.460011199999999
 50
269.77524999999667
 51
90.224750000003354
  0
ARC
  5
5801
  8
AM_0
 10
279.54810094475948
 20
525.72736459323676
 30
0.0
 40
1.0000255999999981
 50
269.5894700000033
 51
90.410530999997775
  0
ARC
  5
5802
  8
AM_0
 10
283.24811094475939
 20
525.69733459323709
 30
0.0
 40
1.460011199999999
 50
269.77524999999667
 51
90.224750000003354
  0
ARC
  5
5803
  8
AM_0
 10
265.18817094475941
 20
583.08734459323705
 30
0.0
 40
1.0
 50
90.00000299999769
 51
180.00001000000091
  0
ARC
  5
5804
  8
AM_0
 10
265.20813094475938
 20
583.2273645932371
 30
0.0
 40
1.5
 50
90.00000299999769
 51
180.00001000000091
  0
ARC
  5
5805
  8
AM_0
 10
247.2081309447596
 20
583.2273645932371
 30
0.0
 40
1.5
 50
0.0
 51
90.00000299999769
  0
ARC
  5
5806
  8
AM_0
 10
247.22815094475951
 20
583.08734459323705
 30
0.0
 40
1.0
 50
0.0
 51
90.00000299999769
  0
POLYLINE
  5
5807
  8
AM_0
 66
     1
 10
0.0
 20
0.0
 30
0.0
  0
VERTEX
  5
5808
  8
AM_0
 10
180.5681209447593
 20
550.7273645932371
 30
0.0
 42
0.00039106593
  0
VERTEX
  5
5809
  8
AM_0
 10
180.5657609447594
 20
550.41622459323685
 30
0.0
 42
0.00040574899
  0
VERTEX
  5
580A
  8
AM_0
 10
180.56389094475929
 20
550.10511459323709
 30
0.0
 42
0.0003534546
  0
VERTEX
  5
580B
  8
AM_0
 10
180.56250094475931
 20
549.79401459323697
 30
0.0
 42
0.00034407327
  0
VERTEX
  5
580C
  8
AM_0
 10
180.56152094475931
 20
549.48287459323706
 30
0.0
 42
0.00045699408
  0
VERTEX
  5
580D
  8
AM_0
 10
180.5610609447593
 20
549.17176459323707
 30
0.0
 42
0.00035571853
  0
VERTEX
  5
580E
  8
AM_0
 10
180.5611009447594
 20
548.86066459323695
 30
0.0
 42
0.00038547362
  0
VERTEX
  5
580F
  8
AM_0
 10
180.5615909447593
 20
548.54952459323681
 30
0.0
 42
0.00035501498
  0
VERTEX
  5
5810
  8
AM_0
 10
180.56255094475941
 20
548.23842459323691
 30
0.0
 42
0.00040118614
  0
VERTEX
  5
5811
  8
AM_0
 10
180.5639709447594
 20
547.92718459323692
 30
0.0
 42
0.00038319871
  0
VERTEX
  5
5812
  8
AM_0
 10
180.56588094475941
 20
547.61605459323721
 30
0.0
 42
0.00040742136
  0
VERTEX
  5
5813
  8
AM_0
 10
180.56828094475961
 20
547.30482459323684
 30
0.0
 42
0.0003578071
  0
VERTEX
  5
5814
  8
AM_0
 10
180.5711709447593
 20
546.99371459323697
 30
0.0
  0
SEQEND
  5
5815
  8
AM_0
  0
POLYLINE
  5
5816
  8
AM_0
 66
     1
 10
0.0
 20
0.0
 30
0.0
  0
VERTEX
  5
5817
  8
AM_0
 10
180.61218094475939
 20
544.45697459323719
 30
0.0
 42
0.00076695232
  0
VERTEX
  5
5818
  8
AM_0
 10
180.62698094475931
 20
543.8392145932371
 30
0.0
 42
0.00073263044
  0
VERTEX
  5
5819
  8
AM_0
 10
180.64362094475959
 20
543.22161459323695
 30
0.0
 42
0.0007652599
  0
VERTEX
  5
581A
  8
AM_0
 10
180.66211094475941
 20
542.60394459323675
 30
0.0
 42
0.00075144485
  0
VERTEX
  5
581B
  8
AM_0
 10
180.68248094475959
 20
541.98634459323705
 30
0.0
 42
0.00078594403
  0
VERTEX
  5
581C
  8
AM_0
 10
180.70473094475929
 20
541.36891459323692
 30
0.0
 42
0.00073349202
  0
VERTEX
  5
581D
  8
AM_0
 10
180.72888094475931
 20
540.7515345932369
 30
0.0
 42
0.0007358075
  0
VERTEX
  5
581E
  8
AM_0
 10
180.7548209447593
 20
540.13413459323692
 30
0.0
 42
0.00078592699
  0
VERTEX
  5
581F
  8
AM_0
 10
180.78265094475941
 20
539.51674459323692
 30
0.0
 42
0.00074823144
  0
VERTEX
  5
5820
  8
AM_0
 10
180.81238094475941
 20
538.89935459323715
 30
0.0
 42
0.00074896603
  0
VERTEX
  5
5821
  8
AM_0
 10
180.8439409447594
 20
538.28222459323695
 30
0.0
 42
0.00076039765
  0
VERTEX
  5
5822
  8
AM_0
 10
180.8773609447596
 20
537.66519459323695
 30
0.0
 42
0.00075616128
  0
VERTEX
  5
5823
  8
AM_0
 10
180.91266094475941
 20
537.04816459323695
 30
0.0
  0
SEQEND
  5
5824
  8
AM_0
  0
POLYLINE
  5
5825
  8
AM_0
 66
     1
 10
0.0
 20
0.0
 30
0.0
  0
VERTEX
  5
5826
  8
AM_0
 10
181.08637094475941
 20
534.38678459323705
 30
0.0
 42
0.00073721992
  0
VERTEX
  5
5827
  8
AM_0
 10
181.13052094475941
 20
533.78437459323709
 30
0.0
 42
0.00074398496
  0
VERTEX
  5
5828
  8
AM_0
 10
181.1764509447593
 20
533.182104593237
 30
0.0
 42
0.00073322625
  0
VERTEX
  5
5829
  8
AM_0
 10
181.2241809447593
 20
532.57977459323695
 30
0.0
 42
0.00073594289
  0
VERTEX
  5
582A
  8
AM_0
 10
181.2736609447594
 20
531.97778459323695
 30
0.0
 42
0.00074742568
  0
VERTEX
  5
582B
  8
AM_0
 10
181.3249309447593
 20
531.37592459323719
 30
0.0
 42
0.00073216749
  0
VERTEX
  5
582C
  8
AM_0
 10
181.3779909447594
 20
530.77411459323707
 30
0.0
 42
0.00074184065
  0
VERTEX
  5
582D
  8
AM_0
 10
181.4328109447593
 20
530.17258459323705
 30
0.0
 42
0.00072077528
  0
VERTEX
  5
582E
  8
AM_0
 10
181.48939094475961
 20
529.57135459323695
 30
0.0
 42
0.00074978179
  0
VERTEX
  5
582F
  8
AM_0
 10
181.54773094475931
 20
528.970154593237
 30
0.0
 42
0.00074288888
  0
VERTEX
  5
5830
  8
AM_0
 10
181.60788094475939
 20
528.36913459323694
 30
0.0
 42
0.00072503679
  0
VERTEX
  5
5831
  8
AM_0
 10
181.66979094475931
 20
527.76839459323685
 30
0.0
 42
0.00074640584
  0
VERTEX
  5
5832
  8
AM_0
 10
181.73346094475929
 20
527.16779459323709
 30
0.0
  0
SEQEND
  5
5833
  8
AM_0
  0
POLYLINE
  5
5834
  8
AM_0
 66
     1
 10
0.0
 20
0.0
 30
0.0
  0
VERTEX
  5
5835
  8
AM_0
 10
182.06903094475931
 20
524.24432459323714
 30
0.0
 42
0.0006890001
  0
VERTEX
  5
5836
  8
AM_0
 10
182.13991094475929
 20
523.66957459323692
 30
0.0
 42
0.00070644651
  0
VERTEX
  5
5837
  8
AM_0
 10
182.2124109447594
 20
523.09489459323675
 30
0.0
 42
0.0006924559
  0
VERTEX
  5
5838
  8
AM_0
 10
182.2865009447595
 20
522.5205745932368
 30
0.0
 42
0.00069587797
  0
VERTEX
  5
5839
  8
AM_0
 10
182.3621809447593
 20
521.94643459323709
 30
0.0
 42
0.00071687041
  0
VERTEX
  5
583A
  8
AM_0
 10
182.4394909447592
 20
521.37243459323679
 30
0.0
 42
0.00069759113
  0
VERTEX
  5
583B
  8
AM_0
 10
182.5184309447593
 20
520.7986445932371
 30
0.0
 42
0.00071003142
  0
VERTEX
  5
583C
  8
AM_0
 10
182.5989709447594
 20
520.22517459323683
 30
0.0
 42
0.00069954544
  0
VERTEX
  5
583D
  8
AM_0
 10
182.68111094475941
 20
519.6520745932371
 30
0.0
 42
0.0007188852
  0
VERTEX
  5
583E
  8
AM_0
 10
182.7648909447594
 20
519.07904459323686
 30
0.0
 42
0.00071266165
  0
VERTEX
  5
583F
  8
AM_0
 10
182.8503209447594
 20
518.50628459323696
 30
0.0
 42
0.00071614577
  0
VERTEX
  5
5840
  8
AM_0
 10
182.93735094475929
 20
517.93393459323693
 30
0.0
 42
0.00072290806
  0
VERTEX
  5
5841
  8
AM_0
 10
183.02606094475931
 20
517.36163459323711
 30
0.0
  0
SEQEND
  5
5842
  8
AM_0
  0
POLYLINE
  5
5843
  8
AM_0
 66
     1
 10
0.0
 20
0.0
 30
0.0
  0
VERTEX
  5
5844
  8
AM_0
 10
180.5681209447593
 20
550.7273645932371
 30
0.0
 42
-0.00039106653
  0
VERTEX
  5
5845
  8
AM_0
 10
180.5657609447594
 20
551.03849459323692
 30
0.0
 42
-0.00040574511
  0
VERTEX
  5
5846
  8
AM_0
 10
180.56389094475929
 20
551.34960459323713
 30
0.0
 42
-0.00035346331
  0
VERTEX
  5
5847
  8
AM_0
 10
180.56250094475931
 20
551.66071459323712
 30
0.0
 42
-0.00034406545
  0
VERTEX
  5
5848
  8
AM_0
 10
180.56152094475931
 20
551.97185459323714
 30
0.0
 42
-0.00045699059
  0
VERTEX
  5
5849
  8
AM_0
 10
180.5610609447593
 20
552.28295459323692
 30
0.0
 42
-0.00035573431
  0
VERTEX
  5
584A
  8
AM_0
 10
180.5611009447594
 20
552.59405459323705
 30
0.0
 42
-0.00038545888
  0
VERTEX
  5
584B
  8
AM_0
 10
180.5615909447593
 20
552.90519459323696
 30
0.0
 42
-0.00035501203
  0
VERTEX
  5
584C
  8
AM_0
 10
180.56255094475941
 20
553.21630459323706
 30
0.0
 42
-0.00040120778
  0
VERTEX
  5
584D
  8
AM_0
 10
180.5639709447594
 20
553.52753459323708
 30
0.0
 42
-0.00038317821
  0
VERTEX
  5
584E
  8
AM_0
 10
180.56588094475941
 20
553.83866459323713
 30
0.0
 42
-0.00040741862
  0
VERTEX
  5
584F
  8
AM_0
 10
180.56828094475961
 20
554.14989459323692
 30
0.0
 42
-0.00035783324
  0
VERTEX
  5
5850
  8
AM_0
 10
180.5711709447593
 20
554.46100459323713
 30
0.0
  0
SEQEND
  5
5851
  8
AM_0
  0
POLYLINE
  5
5852
  8
AM_0
 66
     1
 10
0.0
 20
0.0
 30
0.0
  0
VERTEX
  5
5853
  8
AM_0
 10
180.61218094475939
 20
556.9977445932368
 30
0.0
 42
-0.00076691987
  0
VERTEX
  5
5854
  8
AM_0
 10
180.62698094475931
 20
557.61550459323712
 30
0.0
 42
-0.00073262795
  0
VERTEX
  5
5855
  8
AM_0
 10
180.64362094475959
 20
558.23310459323693
 30
0.0
 42
-0.0007652954
  0
VERTEX
  5
5856
  8
AM_0
 10
180.66211094475941
 20
558.85077459323713
 30
0.0
 42
-0.00077334627
  0
VERTEX
  5
5857
  8
AM_0
 10
180.6825209447596
 20
559.46837459323694
 30
0.0
 42
-0.00073282897
  0
VERTEX
  5
5858
  8
AM_0
 10
180.70478094475931
 20
560.0857945932371
 30
0.0
 42
-0.0007571179
  0
VERTEX
  5
5859
  8
AM_0
 10
180.72888094475931
 20
560.70331459323711
 30
0.0
 42
-0.00073783152
  0
VERTEX
  5
585A
  8
AM_0
 10
180.7548209447593
 20
561.32070459323688
 30
0.0
 42
-0.0007835518
  0
VERTEX
  5
585B
  8
AM_0
 10
180.78265094475941
 20
561.93797459323719
 30
0.0
 42
-0.00074826133
  0
VERTEX
  5
585C
  8
AM_0
 10
180.81238094475941
 20
562.55536459323685
 30
0.0
 42
-0.00074893555
  0
VERTEX
  5
585D
  8
AM_0
 10
180.8439409447594
 20
563.17249459323705
 30
0.0
 42
-0.00076039841
  0
VERTEX
  5
585E
  8
AM_0
 10
180.8773609447596
 20
563.78952459323705
 30
0.0
 42
-0.00075618789
  0
VERTEX
  5
585F
  8
AM_0
 10
180.91266094475941
 20
564.40655459323705
 30
0.0
  0
SEQEND
  5
5860
  8
AM_0
  0
POLYLINE
  5
5861
  8
AM_0
 66
     1
 10
0.0
 20
0.0
 30
0.0
  0
VERTEX
  5
5862
  8
AM_0
 10
181.08637094475941
 20
567.06793459323706
 30
0.0
 42
-0.0007337051
  0
VERTEX
  5
5863
  8
AM_0
 10
181.13051094475961
 20
567.67034459323679
 30
0.0
 42
-0.00075211323
  0
VERTEX
  5
5864
  8
AM_0
 10
181.1764509447593
 20
568.27274459323701
 30
0.0
 42
-0.0007297491
  0
VERTEX
  5
5865
  8
AM_0
 10
181.2241809447593
 20
568.87494459323705
 30
0.0
 42
-0.00073593041
  0
VERTEX
  5
5866
  8
AM_0
 10
181.2736609447594
 20
569.47693459323705
 30
0.0
 42
-0.00074742739
  0
VERTEX
  5
5867
  8
AM_0
 10
181.3249309447593
 20
570.07879459323703
 30
0.0
 42
-0.00073217363
  0
VERTEX
  5
5868
  8
AM_0
 10
181.3779909447594
 20
570.68060459323715
 30
0.0
 42
-0.00073754168
  0
VERTEX
  5
5869
  8
AM_0
 10
181.4328109447593
 20
571.28214459323704
 30
0.0
 42
-0.00073075073
  0
VERTEX
  5
586A
  8
AM_0
 10
181.48939094475961
 20
571.88349459323695
 30
0.0
 42
-0.00074550816
  0
VERTEX
  5
586B
  8
AM_0
 10
181.54773094475931
 20
572.48456459323688
 30
0.0
 42
-0.00074288416
  0
VERTEX
  5
586C
  8
AM_0
 10
181.60788094475939
 20
573.08558459323717
 30
0.0
 42
-0.00072504001
  0
VERTEX
  5
586D
  8
AM_0
 10
181.66979094475931
 20
573.68632459323703
 30
0.0
 42
-0.00074640667
  0
VERTEX
  5
586E
  8
AM_0
 10
181.73346094475929
 20
574.28693459323677
 30
0.0
  0
SEQEND
  5
586F
  8
AM_0
  0
POLYLINE
  5
5870
  8
AM_0
 66
     1
 10
0.0
 20
0.0
 30
0.0
  0
VERTEX
  5
5871
  8
AM_0
 10
182.06903094475931
 20
577.21039459323697
 30
0.0
 42
-0.00068898283
  0
VERTEX
  5
5872
  8
AM_0
 10
182.13991094475929
 20
577.78514459323685
 30
0.0
 42
-0.00070644357
  0
VERTEX
  5
5873
  8
AM_0
 10
182.2124109447594
 20
578.35983459323711
 30
0.0
 42
-0.00069248074
  0
VERTEX
  5
5874
  8
AM_0
 10
182.2865009447595
 20
578.93414459323685
 30
0.0
 42
-0.0006958566
  0
VERTEX
  5
5875
  8
AM_0
 10
182.3621809447593
 20
579.50828459323714
 30
0.0
 42
-0.00071687219
  0
VERTEX
  5
5876
  8
AM_0
 10
182.4394909447592
 20
580.08228459323686
 30
0.0
 42
-0.00069760022
  0
VERTEX
  5
5877
  8
AM_0
 10
182.5184309447593
 20
580.65607459323712
 30
0.0
 42
-0.00071002302
  0
VERTEX
  5
5878
  8
AM_0
 10
182.5989709447594
 20
581.22954459323705
 30
0.0
 42
-0.00069954889
  0
VERTEX
  5
5879
  8
AM_0
 10
182.68111094475941
 20
581.80264459323712
 30
0.0
 42
-0.00071887947
  0
VERTEX
  5
587A
  8
AM_0
 10
182.7648909447594
 20
582.37567459323714
 30
0.0
 42
-0.00071266929
  0
VERTEX
  5
587B
  8
AM_0
 10
182.8503209447594
 20
582.9484445932369
 30
0.0
 42
-0.00071614429
  0
VERTEX
  5
587C
  8
AM_0
 10
182.93735094475929
 20
583.52078459323673
 30
0.0
 42
-0.00072288978
  0
VERTEX
  5
587D
  8
AM_0
 10
183.02606094475931
 20
584.09308459323711
 30
0.0
  0
SEQEND
  5
587E
  8
AM_0
  0
LINE
  5
587F
  8
AM_0
 10
170.7081309447594
 20
603.72736459323721
 30
0.0
 11
170.7081309447592
 21
497.7273645932371
 31
0.0
  0
LINE
  5
5880
  8
AM_0
 10
170.7081309447592
 20
497.7273645932371
 30
0.0
 11
178.2081309447594
 21
497.7273645932371
 31
0.0
  0
LINE
  5
5881
  8
AM_0
 10
170.90814094475931
 20
507.53742459323718
 30
0.0
 11
177.13812094475929
 21
507.53742459323718
 31
0.0
  0
LINE
  5
5882
  8
AM_0
 10
170.90814094475931
 20
593.91730459323696
 30
0.0
 11
177.13812094475929
 21
593.91730459323696
 31
0.0
  0
LINE
  5
5883
  8
AM_0
 10
170.7081309447594
 20
603.72736459323721
 30
0.0
 11
178.20813094475949
 21
603.72736459323721
 31
0.0
  0
LINE
  5
5884
  8
AM_0
 10
162.70813094476031
 20
498.6659610844651
 30
0.0
 11
162.70813094475989
 21
536.38824799922236
 31
0.0
  0
LINE
  5
5885
  8
AM_0
 10
153.7081309447594
 20
496.72736459323721
 30
0.0
 11
153.7081309447594
 21
604.72736459323721
 31
0.0
  0
LINE
  5
5886
  8
AM_0
 10
153.7081309447594
 20
496.72736459323721
 30
0.0
 11
170.7081309447594
 21
497.7273645932371
 31
0.0
  0
LINE
  5
5887
  8
AM_0
 10
153.7081309447594
 20
604.72736459323721
 30
0.0
 11
170.7081309447594
 21
603.72736459323721
 31
0.0
  0
LINE
  5
5888
  8
AM_0
 10
162.7081309447602
 20
507.13346139514567
 30
0.0
 11
170.7081309447594
 21
507.13346139514567
 31
0.0
  0
LINE
  5
5889
  8
AM_0
 10
162.70813094476031
 20
498.6659610844651
 30
0.0
 11
170.7081309447594
 21
498.6659610844651
 31
0.0
  0
LINE
  5
588A
  8
AM_0
 10
159.2081309447602
 20
516.08649162797713
 30
0.0
 11
162.7081309447602
 21
516.08649162797713
 31
0.0
  0
LINE
  5
588B
  8
AM_0
 10
159.2081309447602
 20
507.58649162797713
 30
0.0
 11
162.70813094476031
 21
507.58649162797713
 31
0.0
  0
LINE
  5
588C
  8
AM_0
 10
158.70813094476009
 20
508.08649162797713
 30
0.0
 11
158.70813094476009
 21
515.58649162797713
 31
0.0
  0
ARC
  5
588D
  8
AM_0
 10
159.2081309447602
 20
508.08649162797713
 30
0.0
 40
0.5
 50
180.0
 51
270.0
  0
ARC
  5
588E
  8
AM_0
 10
159.2081309447602
 20
515.58649162797713
 30
0.0
 40
0.5
 50
90.0
 51
180.0
  0
LINE
  5
588F
  8
AM_0
 10
153.7081309447594
 20
508.45517010009712
 30
0.0
 11
158.70813094476009
 21
508.45517010009689
 31
0.0
  0
LINE
  5
5890
  8
AM_0
 10
153.7081309447594
 20
518.19025259839293
 30
0.0
 11
162.70813094476
 21
518.19025259839293
 31
0.0
  0
LINE
  5
5891
  8
AM_0
 10
162.70813094476031
 20
602.78876810200939
 30
0.0
 11
162.70813094475989
 21
565.0664811872565
 31
0.0
  0
LINE
  5
5892
  8
AM_0
 10
162.7081309447602
 20
594.32126779132875
 30
0.0
 11
170.7081309447594
 21
594.32126779132875
 31
0.0
  0
LINE
  5
5893
  8
AM_0
 10
162.70813094476031
 20
602.78876810200939
 30
0.0
 11
170.7081309447594
 21
602.78876810200939
 31
0.0
  0
LINE
  5
5894
  8
AM_0
 10
159.2081309447602
 20
585.36823755849719
 30
0.0
 11
162.7081309447602
 21
585.36823755849719
 31
0.0
  0
LINE
  5
5895
  8
AM_0
 10
159.2081309447602
 20
593.86823755849719
 30
0.0
 11
162.70813094476031
 21
593.86823755849719
 31
0.0
  0
LINE
  5
5896
  8
AM_0
 10
158.70813094476009
 20
593.36823755849719
 30
0.0
 11
158.70813094476009
 21
585.86823755849741
 31
0.0
  0
ARC
  5
5897
  8
AM_0
 10
159.2081309447602
 20
593.36823755849719
 30
0.0
 40
0.5
 50
90.0
 51
180.0
  0
ARC
  5
5898
  8
AM_0
 10
159.2081309447602
 20
585.86823755849707
 30
0.0
 40
0.5
 50
180.0
 51
270.0
  0
LINE
  5
5899
  8
AM_0
 10
153.7081309447594
 20
592.99955908637753
 30
0.0
 11
158.70813094476009
 21
592.99955908637753
 31
0.0
  0
LINE
  5
589A
  8
AM_0
 10
153.7081309447594
 20
583.26447658808138
 30
0.0
 11
162.70813094476
 21
583.26447658808138
 31
0.0
  0
LINE
  5
589B
  8
AM_0
 10
147.7081309447594
 20
604.72736459323755
 30
0.0
 11
147.7081309447594
 21
496.72736459323721
 31
0.0
  0
LINE
  5
589C
  8
AM_0
 10
153.7081309447594
 20
496.72736459323721
 30
0.0
 11
147.7081309447594
 21
496.72736459323721
 31
0.0
  0
LINE
  5
589D
  8
AM_0
 10
147.7081309447594
 20
604.72736459323755
 30
0.0
 11
153.70813094475909
 21
604.72736459323755
 31
0.0
  0
LINE
  5
589E
  8
AM_0
 10
146.7081309447594
 20
546.92736459323714
 30
0.0
 11
146.7081309447594
 21
554.52736459323705
 31
0.0
  0
LINE
  5
589F
  8
AM_0
 10
146.7081309447594
 20
554.52736459323705
 30
0.0
 11
147.7081309447594
 21
554.52736459323705
 31
0.0
  0
LINE
  5
58A0
  8
AM_0
 10
147.7081309447594
 20
550.92736459323714
 30
0.0
 11
146.7081309447594
 21
551.29133482750319
 31
0.0
  0
LINE
  5
58A1
  8
AM_0
 10
147.7081309447594
 20
550.52736459323705
 30
0.0
 11
146.7081309447594
 21
550.89133482750356
 31
0.0
  0
LINE
  5
58A2
  8
AM_0
 10
147.7081309447594
 20
546.92736459323714
 30
0.0
 11
146.7081309447594
 21
546.92736459323714
 31
0.0
  0
LINE
  5
58A3
  8
AM_0
 10
145.64919343263131
 20
554.63471956554383
 30
0.0
 11
146.7081309447594
 21
554.7273645932371
 31
0.0
  0
LINE
  5
58A4
  8
AM_0
 10
145.64919343263131
 20
546.82000962093082
 30
0.0
 11
146.7081309447594
 21
546.7273645932371
 31
0.0
  0
ARC
  5
58A5
  8
AM_0
 10
150.10813094475941
 20
550.7273645932371
 30
0.0
 40
6.5
 50
151.82726586813479
 51
208.1727341318651
  0
ARC
  5
58A6
  8
AM_0
 10
145.7886426210278
 20
548.41392113787765
 30
0.0
 40
1.6000000000000001
 50
208.1727341318651
 51
265.0
  0
ARC
  5
58A7
  8
AM_0
 10
145.7886426210278
 20
553.04080804859666
 30
0.0
 40
1.6000000000000001
 50
95.0
 51
151.82726586813479
  0
LINE
  5
58A8
  8
AM_0
 10
146.7081309447594
 20
546.7273645932371
 30
0.0
 11
146.7081309447594
 21
554.7273645932371
 31
0.0
  0
LINE
  5
58A9
  8
AM_0
 10
170.7081309447594
 20
536.38824799922247
 30
0.0
 11
162.70813094476
 21
536.38824799922247
 31
0.0
  0
LINE
  5
58AA
  8
AM_0
 10
170.7081309447592
 20
565.06648118725661
 30
0.0
 11
162.7081309447598
 21
565.06648118725661
 31
0.0
  0
LINE
  5
58AB
  8
AM_0
 10
133.20813094475881
 20
516.72736459323835
 30
0.0
 11
133.20813094475881
 21
505.7273645932371
 31
0.0
  0
LINE
  5
58AC
  8
AM_0
 10
147.70813094475881
 20
505.7273645932371
 30
0.0
 11
133.20813094475881
 21
505.72736459323733
 31
0.0
  0
LINE
  5
58AD
  8
AM_0
 10
121.2081309447593
 20
510.72736459323818
 30
0.0
 11
121.20813094475911
 21
507.72736459323829
 31
0.0
  0
LINE
  5
58AE
  8
AM_0
 10
121.20813094475911
 20
507.72736459323829
 30
0.0
 11
133.20813094475881
 21
507.72736459323829
 31
0.0
  0
LINE
  5
58AF
  8
AM_0
 10
121.20813094475891
 20
508.72736459323829
 30
0.0
 11
121.20813094475891
 21
510.90503299938479
 31
0.0
  0
LINE
  5
58B0
  8
AM_0
 10
115.70813094475891
 20
510.72736459323852
 30
0.0
 11
116.608130944759
 21
510.72736459323852
 31
0.0
  0
LINE
  5
58B1
  8
AM_0
 10
115.50813094475861
 20
513.72736459323835
 30
0.0
 11
115.50813094475861
 21
510.72736459323852
 31
0.0
  0
LINE
  5
58B2
  8
AM_0
 10
116.608130944759
 20
510.4550128586547
 30
0.0
 11
116.608130944759
 21
513.99971632782217
 31
0.0
  0
LINE
  5
58B3
  8
AM_0
 10
115.20813094475891
 20
513.42736459323851
 30
0.0
 11
116.60813094475721
 21
513.42736459323851
 31
0.0
  0
LINE
  5
58B4
  8
AM_0
 10
120.608130944759
 20
509.84579473283122
 30
0.0
 11
120.608130944759
 21
508.72736459323829
 31
0.0
  0
LINE
  5
58B5
  8
AM_0
 10
120.608130944759
 20
510.72736459323852
 30
0.0
 11
120.608130944759
 21
510.62736459323833
 31
0.0
  0
LINE
  5
58B6
  8
AM_0
 10
120.608130944759
 20
510.62736459323833
 30
0.0
 11
120.608130944759
 21
509.84579473283122
 31
0.0
  0
LINE
  5
58B7
  8
AM_0
 10
120.608130944759
 20
510.72736459323852
 30
0.0
 11
120.608130944759
 21
510.62736459323833
 31
0.0
  0
LINE
  5
58B8
  8
AM_0
 10
120.608130944759
 20
511.1111272695681
 30
0.0
 11
120.608130944759
 21
509.84579473283122
 31
0.0
  0
LINE
  5
58B9
  8
AM_0
 10
120.608130944759
 20
508.72736459323829
 30
0.0
 11
121.20813094475891
 21
508.72736459323829
 31
0.0
  0
LINE
  5
58BA
  8
AM_0
 10
117.90813094475919
 20
509.84579473283122
 30
0.0
 11
117.90813094475919
 21
513.27732592523137
 31
0.0
  0
LINE
  5
58BB
  8
AM_0
 10
117.7470867155015
 20
509.55910310448809
 30
0.0
 11
116.8145336659945
 21
510.0975128586548
 31
0.0
  0
LINE
  5
58BC
  8
AM_0
 10
118.1805825367896
 20
509.05193811269538
 30
0.0
 11
120.3356793527286
 21
509.05193811269538
 31
0.0
  0
LINE
  5
58BD
  8
AM_0
 10
118.1805825367896
 20
510.63965135296701
 30
0.0
 11
120.3356793527286
 21
510.63965135296712
 31
0.0
  0
LINE
  5
58BE
  8
AM_0
 10
116.6081309447576
 20
513.72736459323835
 30
0.0
 11
115.50813094475861
 21
513.72736459323835
 31
0.0
  0
LINE
  5
58BF
  8
AM_0
 10
115.50813094475861
 20
513.72736459323835
 30
0.0
 11
115.20813094475891
 21
513.42736459323851
 31
0.0
  0
LINE
  5
58C0
  8
AM_0
 10
115.20813094475891
 20
513.42736459323851
 30
0.0
 11
115.20813094475891
 21
511.0273645932383
 31
0.0
  0
LINE
  5
58C1
  8
AM_0
 10
115.50813094475861
 20
510.72736459323852
 30
0.0
 11
116.60813094475721
 21
510.72736459323852
 31
0.0
  0
LINE
  5
58C2
  8
AM_0
 10
115.20813094475891
 20
511.0273645932383
 30
0.0
 11
115.50813094475861
 21
510.72736459323852
 31
0.0
  0
LINE
  5
58C3
  8
AM_0
 10
116.60813094475721
 20
511.0273645932383
 30
0.0
 11
115.20813094475891
 21
511.0273645932383
 31
0.0
  0
ARC
  5
58C4
  8
AM_0
 10
119.31535412873239
 20
509.84579473283122
 30
0.0
 40
1.292776816026465
 50
322.11555894629771
 51
0.0
  0
ARC
  5
58C5
  8
AM_0
 10
122.67056082081869
 20
512.22736459323835
 30
0.0
 40
4.762429876059711
 50
168.45024695876941
 51
199.4742400054138
  0
ARC
  5
58C6
  8
AM_0
 10
119.2009077607856
 20
509.84579473283122
 30
0.0
 40
1.292776816026556
 50
142.11555894629771
 51
217.88444105370229
  0
ARC
  5
58C7
  8
AM_0
 10
115.8457010686995
 20
512.22736459323835
 30
0.0
 40
4.762429876059584
 50
340.52575999458628
 51
347.08714779821958
  0
ARC
  5
58C8
  8
AM_0
 10
119.31535412873239
 20
509.84579473283122
 30
0.0
 40
1.2927768160265021
 50
0.0
 51
37.884441053702282
  0
ARC
  5
58C9
  8
AM_0
 10
117.0209363872295
 20
510.45501285865492
 30
0.0
 40
0.4128054424705854
 50
180.0
 51
239.99999999999949
  0
ARC
  5
58CA
  8
AM_0
 10
117.3342812730311
 20
508.84410310448823
 30
0.0
 40
0.8256108849411369
 50
28.217424594175291
 51
59.999999999999439
  0
LINE
  5
58CB
  8
AM_0
 10
116.8232234772822
 20
514.36223339270828
 30
0.0
 11
116.8145336659945
 21
514.35721632782224
 31
0.0
  0
ARC
  5
58CC
  8
AM_0
 10
117.0209363872297
 20
513.99971632782228
 30
0.0
 40
0.4128054424705854
 50
119.9999999999916
 51
179.99999999999341
  0
CIRCLE
  5
58CD
  8
AM_0
 10
119.20809227675311
 20
550.72736459323755
 30
0.0
 40
5.5
  0
LINE
  5
58CE
  8
AM_0
 10
113.70809227675311
 20
547.55193811269453
 30
0.0
 11
119.2080922767535
 21
544.37651163215151
 31
0.0
  0
LINE
  5
58CF
  8
AM_0
 10
119.2080922767535
 20
544.37651163215151
 30
0.0
 11
124.70809227675311
 21
547.55193811269476
 31
0.0
  0
LINE
  5
58D0
  8
AM_0
 10
124.70809227675311
 20
547.55193811269476
 30
0.0
 11
124.70809227675311
 21
553.90279107378046
 31
0.0
  0
LINE
  5
58D1
  8
AM_0
 10
124.70809227675311
 20
553.90279107378046
 30
0.0
 11
119.20809227675311
 21
557.07821755432326
 31
0.0
  0
LINE
  5
58D2
  8
AM_0
 10
119.20809227675311
 20
557.07821755432326
 30
0.0
 11
113.70809227675311
 21
553.90279107377989
 31
0.0
  0
LINE
  5
58D3
  8
AM_0
 10
113.70809227675311
 20
553.90279107377989
 30
0.0
 11
113.70809227675311
 21
547.55193811269453
 31
0.0
  0
CIRCLE
  5
58D4
  8
AM_0
 10
119.20809227675311
 20
550.72736459323755
 30
0.0
 40
6.4999856554771771
  0
LINE
  5
58D5
  8
AM_0
 10
130.27338450712421
 20
516.72736459323824
 30
0.0
 11
133.20813094475881
 21
516.72736459323824
 31
0.0
  0
LINE
  5
58D6
  8
AM_0
 10
131.22755305891221
 20
515.22736459323824
 30
0.0
 11
133.20813094475881
 21
515.22736459323824
 31
0.0
  0
LINE
  5
58D7
  8
AM_0
 10
122.529160088618
 20
510.72736459323818
 30
0.0
 11
133.20813094475881
 21
510.72736459323818
 31
0.0
  0
ARC
  5
58D8
  8
AM_0
 10
122.5291600886178
 20
515.72736459323824
 30
0.0
 40
5.0
 50
225.0
 51
270.0
1001
GENIUS_GENODEF_13
1002
{
1000
HIER
1070
     0
1002
}
1002
{
1000
MANEDIT
1070
     0
1002
}
1002
{
1000
NOSEL
1070
     0
1002
}
1002
{
1000
BEHIND
1070
     0
1002
}
1002
{
1000
OTHER
1070
     0
1002
}
1002
{
1000
REACTOR
1002
}
1001
GENIUS_GENOBJ-N-FIL_13
1002
{
1000
OWNER
1000
GEN
1002
}
  0
LINE
  5
58D9
  8
AM_0
 10
131.22755305891181
 20
510.72736459323818
 30
0.0
 11
131.22755305891221
 21
515.22736459323824
 31
0.0
  0
LINE
  5
58DA
  8
AM_0
 10
117.70809227675311
 20
544.402824015345
 30
0.0
 11
117.70809227675331
 21
523.51538973952881
 31
0.0
  0
LINE
  5
58DB
  8
AM_0
 10
120.70809227675311
 20
544.402824015345
 30
0.0
 11
120.70809227675311
 21
523.51538973952881
 31
0.0
  0
LINE
  5
58DC
  8
AM_0
 10
115.45809227675311
 20
545.41819200973555
 30
0.0
 11
115.45809227675311
 21
517.79843240510286
 31
0.0
  0
ARC
  5
58DD
  8
AM_0
 10
120.45809227675311
 20
517.79843240510286
 30
0.0
 40
5.0
 50
180.0
 51
225.0
1001
GENIUS_GENOBJ-N-FIL_13
1002
{
1000
OWNER
1000
GEN
1002
}
1001
GENIUS_GENODEF_13
1002
{
1000
HIER
1070
     0
1002
}
1002
{
1000
MANEDIT
1070
     0
1002
}
1002
{
1000
NOSEL
1070
     0
1002
}
1002
{
1000
BEHIND
1070
     0
1002
}
1002
{
1000
OTHER
1070
     0
1002
}
1002
{
1000
REACTOR
1002
}
  0
LINE
  5
58DE
  8
AM_0
 10
122.95809227675311
 20
545.41819200973555
 30
0.0
 11
122.95809227675311
 21
521.25828293648965
 31
0.0
  0
ARC
  5
58DF
  8
AM_0
 10
127.95809227675321
 20
529.68288296256287
 30
0.0
 40
5.0
 50
180.0
 51
212.46094411514611
1001
GENIUS_GENODEF_13
1002
{
1000
HIER
1070
     0
1002
}
1002
{
1000
MANEDIT
1070
     0
1002
}
1002
{
1000
NOSEL
1070
     0
1002
}
1002
{
1000
BEHIND
1070
     0
1002
}
1002
{
1000
OTHER
1070
     0
1002
}
1002
{
1000
REACTOR
1002
}
1001
GENIUS_GENOBJ-N-FIL_13
1002
{
1000
OWNER
1000
GEN
1002
}
  0
ARC
  5
58E0
  8
AM_0
 10
127.95809227675321
 20
521.25828293648965
 30
0.0
 40
5.0
 50
180.0
 51
224.2123722808945
1001
GENIUS_GENOBJ-N-FIL_13
1002
{
1000
OWNER
1000
GEN
1002
}
1001
GENIUS_GENODEF_13
1002
{
1000
HIER
1070
     0
1002
}
1002
{
1000
MANEDIT
1070
     0
1002
}
1002
{
1000
NOSEL
1070
     0
1002
}
1002
{
1000
BEHIND
1070
     0
1002
}
1002
{
1000
OTHER
1070
     0
1002
}
1002
{
1000
REACTOR
1002
}
  0
LINE
  5
58E1
  8
AM_0
 10
131.22755305891181
 20
515.22736459323824
 30
0.0
 11
123.73930476598611
 21
526.99926004959718
 31
0.0
  0
LINE
  5
58E2
  8
AM_0
 10
131.22755305891181
 20
510.72736459323818
 30
0.0
 11
124.37429204090169
 21
517.77168346572876
 31
0.0
  0
LINE
  5
58E3
  8
AM_0
 10
116.9225583708204
 20
514.26289849916998
 30
0.0
 11
118.99362618268511
 21
512.19183068730547
 31
0.0
  0
ARC
  5
58E4
  8
AM_0
 10
119.20809227675311
 20
523.51538973952881
 30
0.0
 40
1.5
 50
180.0
 51
0.0
  0
LINE
  5
58E5
  8
AM_0
 10
133.2081309447594
 20
584.72736459323664
 30
0.0
 11
133.2081309447598
 21
595.72736459323755
 31
0.0
  0
LINE
  5
58E6
  8
AM_0
 10
147.7081309447598
 20
595.72736459323721
 30
0.0
 11
133.2081309447598
 21
595.72736459323755
 31
0.0
  0
LINE
  5
58E7
  8
AM_0
 10
121.20813094476
 20
590.72736459323676
 30
0.0
 11
121.20813094476
 21
593.72736459323687
 31
0.0
  0
LINE
  5
58E8
  8
AM_0
 10
121.20813094476
 20
593.72736459323687
 30
0.0
 11
133.2081309447598
 21
593.72736459323664
 31
0.0
  0
LINE
  5
58E9
  8
AM_0
 10
121.2081309447598
 20
592.72736459323664
 30
0.0
 11
121.2081309447598
 21
590.54969618709015
 31
0.0
  0
LINE
  5
58EA
  8
AM_0
 10
115.7081309447598
 20
590.72736459323676
 30
0.0
 11
116.60813094475991
 21
590.72736459323676
 31
0.0
  0
LINE
  5
58EB
  8
AM_0
 10
115.5081309447595
 20
587.72736459323676
 30
0.0
 11
115.5081309447595
 21
590.72736459323676
 31
0.0
  0
LINE
  5
58EC
  8
AM_0
 10
116.60813094475991
 20
590.99971632782035
 30
0.0
 11
116.60813094475991
 21
587.45501285865305
 31
0.0
  0
LINE
  5
58ED
  8
AM_0
 10
115.2081309447598
 20
588.02736459323705
 30
0.0
 11
116.60813094475969
 21
588.02736459323683
 31
0.0
  0
LINE
  5
58EE
  8
AM_0
 10
120.60813094475991
 20
591.60893445364377
 30
0.0
 11
120.60813094475991
 21
592.72736459323664
 31
0.0
  0
LINE
  5
58EF
  8
AM_0
 10
120.60813094475991
 20
590.72736459323676
 30
0.0
 11
120.60813094475991
 21
590.82736459323667
 31
0.0
  0
LINE
  5
58F0
  8
AM_0
 10
120.60813094475991
 20
590.82736459323667
 30
0.0
 11
120.60813094475991
 21
591.60893445364377
 31
0.0
  0
LINE
  5
58F1
  8
AM_0
 10
120.60813094475991
 20
590.72736459323676
 30
0.0
 11
120.60813094475991
 21
590.82736459323667
 31
0.0
  0
LINE
  5
58F2
  8
AM_0
 10
120.60813094475991
 20
590.34360191690701
 30
0.0
 11
120.60813094475991
 21
591.60893445364377
 31
0.0
  0
LINE
  5
58F3
  8
AM_0
 10
120.60813094475991
 20
592.72736459323664
 30
0.0
 11
121.2081309447598
 21
592.72736459323664
 31
0.0
  0
LINE
  5
58F4
  8
AM_0
 10
117.9081309447601
 20
591.60893445364377
 30
0.0
 11
117.9081309447598
 21
588.17740326124363
 31
0.0
  0
LINE
  5
58F5
  8
AM_0
 10
117.74708671550241
 20
591.89562608198719
 30
0.0
 11
116.8145336659954
 21
591.3572163278202
 31
0.0
  0
LINE
  5
58F6
  8
AM_0
 10
118.1805825367905
 20
592.40279107377955
 30
0.0
 11
120.3356793527295
 21
592.40279107377955
 31
0.0
  0
LINE
  5
58F7
  8
AM_0
 10
118.1805825367905
 20
590.81507783350833
 30
0.0
 11
120.3356793527295
 21
590.81507783350798
 31
0.0
  0
LINE
  5
58F8
  8
AM_0
 10
116.60813094475991
 20
587.72736459323676
 30
0.0
 11
115.5081309447595
 21
587.72736459323676
 31
0.0
  0
LINE
  5
58F9
  8
AM_0
 10
115.5081309447595
 20
587.72736459323676
 30
0.0
 11
115.2081309447598
 21
588.02736459323705
 31
0.0
  0
LINE
  5
58FA
  8
AM_0
 10
115.2081309447598
 20
588.02736459323705
 30
0.0
 11
115.2081309447598
 21
590.42736459323703
 31
0.0
  0
LINE
  5
58FB
  8
AM_0
 10
115.5081309447595
 20
590.72736459323676
 30
0.0
 11
116.60813094475991
 21
590.72736459323676
 31
0.0
  0
LINE
  5
58FC
  8
AM_0
 10
115.2081309447598
 20
590.42736459323703
 30
0.0
 11
115.5081309447595
 21
590.72736459323676
 31
0.0
  0
LINE
  5
58FD
  8
AM_0
 10
116.60813094475991
 20
590.42736459323669
 30
0.0
 11
115.2081309447598
 21
590.42736459323703
 31
0.0
  0
ARC
  5
58FE
  8
AM_0
 10
119.3153541287333
 20
591.60893445364377
 30
0.0
 40
1.292776816026465
 50
0.0
 51
37.884441053702282
  0
ARC
  5
58FF
  8
AM_0
 10
122.6705608208194
 20
589.22736459323664
 30
0.0
 40
4.762429876059711
 50
160.52575999458611
 51
191.5497530412305
  0
ARC
  5
5900
  8
AM_0
 10
119.20090776078651
 20
591.60893445364377
 30
0.0
 40
1.292776816026556
 50
142.11555894629771
 51
217.88444105370229
  0
ARC
  5
5901
  8
AM_0
 10
115.84570106870019
 20
589.22736459323687
 30
0.0
 40
4.762429876059584
 50
12.912852201780369
 51
19.474240005413812
  0
ARC
  5
5902
  8
AM_0
 10
119.3153541287333
 20
591.60893445364377
 30
0.0
 40
1.2927768160265021
 50
322.11555894629771
 51
0.0
  0
ARC
  5
5903
  8
AM_0
 10
117.02093638723041
 20
590.99971632782035
 30
0.0
 40
0.4128054424705854
 50
120.0000000000005
 51
180.0
  0
ARC
  5
5904
  8
AM_0
 10
117.33428127303181
 20
592.61062608198699
 30
0.0
 40
0.8256108849411369
 50
300.00000000000051
 51
331.78257540582467
  0
LINE
  5
5905
  8
AM_0
 10
116.82322347728309
 20
587.09249579376683
 30
0.0
 11
116.8145336659954
 21
587.09751285865286
 31
0.0
  0
ARC
  5
5906
  8
AM_0
 10
117.02093638723041
 20
587.45501285865305
 30
0.0
 40
0.4128054424705854
 50
180.00000000000659
 51
240.00000000000841
  0
LINE
  5
5907
  8
AM_0
 10
130.2733845071252
 20
584.72736459323664
 30
0.0
 11
133.2081309447594
 21
584.72736459323664
 31
0.0
  0
LINE
  5
5908
  8
AM_0
 10
131.2275530589128
 20
586.22736459323676
 30
0.0
 11
133.2081309447596
 21
586.22736459323664
 31
0.0
  0
LINE
  5
5909
  8
AM_0
 10
122.5291600886188
 20
590.72736459323676
 30
0.0
 11
133.2081309447596
 21
590.72736459323664
 31
0.0
  0
ARC
  5
590A
  8
AM_0
 10
122.5291600886185
 20
585.72736459323687
 30
0.0
 40
5.0
 50
90.0
 51
135.0
1001
GENIUS_GENODEF_13
1002
{
1000
HIER
1070
     0
1002
}
1002
{
1000
MANEDIT
1070
     0
1002
}
1002
{
1000
NOSEL
1070
     0
1002
}
1002
{
1000
BEHIND
1070
     0
1002
}
1002
{
1000
OTHER
1070
     0
1002
}
1002
{
1000
REACTOR
1002
}
1001
GENIUS_GENOBJ-N-FIL_13
1002
{
1000
OWNER
1000
GEN
1002
}
  0
LINE
  5
590B
  8
AM_0
 10
131.2275530589128
 20
590.72736459323676
 30
0.0
 11
131.2275530589128
 21
586.22736459323676
 31
0.0
  0
LINE
  5
590C
  8
AM_0
 10
117.7080922767536
 20
557.05190517113033
 30
0.0
 11
117.708092276754
 21
577.93933944694629
 31
0.0
  0
LINE
  5
590D
  8
AM_0
 10
120.70809227675331
 20
557.0519051711301
 30
0.0
 11
120.708092276754
 21
577.93933944694629
 31
0.0
  0
LINE
  5
590E
  8
AM_0
 10
115.4580922767536
 20
556.03653717673978
 30
0.0
 11
115.458092276754
 21
583.65629678137236
 31
0.0
  0
ARC
  5
590F
  8
AM_0
 10
120.4580922767538
 20
583.65629678137225
 30
0.0
 40
5.0
 50
135.0
 51
180.0
1001
GENIUS_GENOBJ-N-FIL_13
1002
{
1000
OWNER
1000
GEN
1002
}
1001
GENIUS_GENODEF_13
1002
{
1000
HIER
1070
     0
1002
}
1002
{
1000
MANEDIT
1070
     0
1002
}
1002
{
1000
NOSEL
1070
     0
1002
}
1002
{
1000
BEHIND
1070
     0
1002
}
1002
{
1000
OTHER
1070
     0
1002
}
1002
{
1000
REACTOR
1002
}
  0
LINE
  5
5910
  8
AM_0
 10
122.9580922767536
 20
556.03653717673933
 30
0.0
 11
122.958092276754
 21
580.19644624998523
 31
0.0
  0
ARC
  5
5911
  8
AM_0
 10
127.9580922767536
 20
571.77184622391212
 30
0.0
 40
5.0
 50
147.53905588485381
 51
180.0
1001
GENIUS_GENODEF_13
1002
{
1000
HIER
1070
     0
1002
}
1002
{
1000
MANEDIT
1070
     0
1002
}
1002
{
1000
NOSEL
1070
     0
1002
}
1002
{
1000
BEHIND
1070
     0
1002
}
1002
{
1000
OTHER
1070
     0
1002
}
1002
{
1000
REACTOR
1002
}
1001
GENIUS_GENOBJ-N-FIL_13
1002
{
1000
OWNER
1000
GEN
1002
}
  0
ARC
  5
5912
  8
AM_0
 10
127.9580922767538
 20
580.19644624998523
 30
0.0
 40
5.0
 50
135.7876277191055
 51
180.0
1001
GENIUS_GENOBJ-N-FIL_13
1002
{
1000
OWNER
1000
GEN
1002
}
1001
GENIUS_GENODEF_13
1002
{
1000
HIER
1070
     0
1002
}
1002
{
1000
MANEDIT
1070
     0
1002
}
1002
{
1000
NOSEL
1070
     0
1002
}
1002
{
1000
BEHIND
1070
     0
1002
}
1002
{
1000
OTHER
1070
     0
1002
}
1002
{
1000
REACTOR
1002
}
  0
LINE
  5
5913
  8
AM_0
 10
131.2275530589126
 20
586.22736459323676
 30
0.0
 11
123.7393047659865
 21
574.45546913687815
 31
0.0
  0
LINE
  5
5914
  8
AM_0
 10
131.2275530589128
 20
590.72736459323676
 30
0.0
 11
124.3742920409026
 21
583.68304572074624
 31
0.0
  0
LINE
  5
5915
  8
AM_0
 10
116.92255837082109
 20
587.19183068730513
 30
0.0
 11
118.993626182686
 21
589.26289849916975
 31
0.0
  0
ARC
  5
5916
  8
AM_0
 10
119.2080922767538
 20
577.93933944694629
 30
0.0
 40
1.5
 50
0.0
 51
180.0
  0
LINE
  5
595E
  8
AM_0
 10
152.137205191699
 20
473.43829623230391
 30
0.0
 11
134.18457217637641
 21
505.7273645932371
 31
0.0
  0
LINE
  5
5964
  8
AM_0
 10
147.17906224019961
 20
470.00860677865921
 30
0.0
 11
126.20753685366169
 21
507.72736459323829
 31
0.0
  0
ARC
  5
5975
  8
AM_0
 10
165.24710536026009
 20
480.7273645932371
 30
0.0
 40
15.0
 50
209.07393874564201
 51
240.27464366407159
1001
GENIUS_GENODEF_13
1002
{
1000
HIER
1070
     0
1002
}
1002
{
1000
MANEDIT
1070
     0
1002
}
1002
{
1000
NOSEL
1070
     0
1002
}
1002
{
1000
BEHIND
1070
     0
1002
}
1002
{
1000
OTHER
1070
     0
1002
}
1002
{
1000
REACTOR
1002
}
1001
GENIUS_GENOBJ-N-FIL_13
1002
{
1000
OWNER
1000
GEN
1002
}
  0
ARC
  5
5979
  8
AM_0
 10
164.65892913161451
 20
479.72736459323721
 30
0.0
 40
20.0
 50
209.0739387456421
 51
249.9723572882576
1001
GENIUS_GENODEF_13
1002
{
1000
HIER
1070
     0
1002
}
1002
{
1000
MANEDIT
1070
     0
1002
}
1002
{
1000
NOSEL
1070
     0
1002
}
1002
{
1000
BEHIND
1070
     0
1002
}
1002
{
1000
OTHER
1070
     0
1002
}
1002
{
1000
REACTOR
1002
}
1001
GENIUS_GENOBJ-N-FIL_13
1002
{
1000
OWNER
1000
GEN
1002
}
  0
TEXT
  5
5BFE
  8
AM_0
 10
526.16937516519567
 20
561.44079430908323
 30
0.0
 40
10.0
  1
VX01-060BW~VX01-200BW
  0
ENDSEC
  0
EOF
