  0
SECTION
  2
HEADER
  9
$ACADVER
  1
AC1009
  9
$INSBASE
 10
0.0
 20
0.0
 30
0.0
  9
$EXTMIN
 10
118.16109679029449
 20
188.1538614185815
 30
-250.41841640509659
  9
$EXTMAX
 10
729.4783877681225
 20
612.58286820241858
 30
8206587.2096418813
  9
$LIMMIN
 10
0.0
 20
0.0
  9
$LIMMAX
 10
853.5
 20
555.00000000000011
  9
$ORTHOMODE
 70
     0
  9
$REGENMODE
 70
     1
  9
$FILLMODE
 70
     1
  9
$QTEXTMODE
 70
     0
  9
$MIRRTEXT
 70
     1
  9
$DRAGMODE
 70
     2
  9
$LTSCALE
 40
3.0
  9
$OSMODE
 70
   551
  9
$ATTMODE
 70
     1
  9
$TEXTSIZE
 40
2.5
  9
$TRACEWID
 40
1.0
  9
$TEXTSTYLE
  7
STANDARD
  9
$CLAYER
  8
AM_0
  9
$CELTYPE
  6
BYLAYER
  9
$CECOLOR
 62
   256
  9
$DIMSCALE
 40
3.0
  9
$DIMASZ
 40
2.5
  9
$DIMEXO
 40
1.0
  9
$DIMDLI
 40
8.0
  9
$DIMRND
 40
0.0
  9
$DIMDLE
 40
0.0
  9
$DIMEXE
 40
0.6
  9
$DIMTP
 40
0.1
  9
$DIMTM
 40
0.1
  9
$DIMTXT
 40
2.5
  9
$DIMCEN
 40
0.0
  9
$DIMTSZ
 40
0.0
  9
$DIMTOL
 70
     0
  9
$DIMLIM
 70
     0
  9
$DIMTIH
 70
     0
  9
$DIMTOH
 70
     0
  9
$DIMSE1
 70
     0
  9
$DIMSE2
 70
     0
  9
$DIMTAD
 70
     1
  9
$DIMZIN
 70
     8
  9
$DIMBLK
  1

  9
$DIMASO
 70
     1
  9
$DIMSHO
 70
     1
  9
$DIMPOST
  1

  9
$DIMAPOST
  1
"
  9
$DIMALT
 70
     0
  9
$DIMALTD
 70
     2
  9
$DIMALTF
 40
0.0393701
  9
$DIMLFAC
 40
1.0
  9
$DIMTOFL
 70
     1
  9
$DIMTVP
 40
0.0
  9
$DIMTIX
 70
     0
  9
$DIMSOXD
 70
     0
  9
$DIMSAH
 70
     0
  9
$DIMBLK1
  1

  9
$DIMBLK2
  1

  9
$DIMSTYLE
  2
AM_ISO
  9
$DIMCLRD
 70
   256
  9
$DIMCLRE
 70
   256
  9
$DIMCLRT
 70
     4
  9
$DIMTFAC
 40
0.71
  9
$DIMGAP
 40
0.8
  9
$LUNITS
 70
     2
  9
$LUPREC
 70
     2
  9
$SKETCHINC
 40
1.0
  9
$FILLETRAD
 40
15.0
  9
$AUNITS
 70
     0
  9
$AUPREC
 70
     0
  9
$MENU
  1
.
  9
$ELEVATION
 40
0.0
  9
$PELEVATION
 40
0.0
  9
$THICKNESS
 40
0.0
  9
$LIMCHECK
 70
     0
  9
$BLIPMODE
 70
     0
  9
$CHAMFERA
 40
6.0
  9
$CHAMFERB
 40
3.0
  9
$SKPOLY
 70
     0
  9
$TDCREATE
 40
2452065.6056192131
  9
$TDUPDATE
 40
2458541.6074613081
  9
$TDINDWG
 40
0.3195103125
  9
$TDUSRTIMER
 40
0.3195101157
  9
$USRTIMER
 70
     1
  9
$ANGBASE
 50
0.0
  9
$ANGDIR
 70
     0
  9
$PDMODE
 70
     0
  9
$PDSIZE
 40
0.0
  9
$PLINEWID
 40
0.0
  9
$COORDS
 70
     1
  9
$SPLFRAME
 70
     0
  9
$SPLINETYPE
 70
     6
  9
$SPLINESEGS
 70
     8
  9
$ATTDIA
 70
     1
  9
$ATTREQ
 70
     1
  9
$HANDLING
 70
     1
  9
$HANDSEED
  5
6104
  9
$SURFTAB1
 70
     6
  9
$SURFTAB2
 70
     6
  9
$SURFTYPE
 70
     6
  9
$SURFU
 70
     6
  9
$SURFV
 70
     6
  9
$UCSNAME
  2

  9
$UCSORG
 10
0.0
 20
0.0
 30
0.0
  9
$UCSXDIR
 10
1.0
 20
0.0
 30
0.0
  9
$UCSYDIR
 10
0.0
 20
1.0
 30
0.0
  9
$PUCSNAME
  2

  9
$PUCSORG
 10
0.0
 20
0.0
 30
0.0
  9
$PUCSXDIR
 10
1.0
 20
0.0
 30
0.0
  9
$PUCSYDIR
 10
0.0
 20
1.0
 30
0.0
  9
$USERI1
 70
     0
  9
$USERI2
 70
     0
  9
$USERI3
 70
     0
  9
$USERI4
 70
     0
  9
$USERI5
 70
     0
  9
$USERR1
 40
0.0
  9
$USERR2
 40
0.0
  9
$USERR3
 40
0.0
  9
$USERR4
 40
0.0
  9
$USERR5
 40
0.0
  9
$WORLDVIEW
 70
     1
  9
$SHADEDGE
 70
     3
  9
$SHADEDIF
 70
    70
  9
$TILEMODE
 70
     1
  9
$MAXACTVP
 70
    64
  9
$PLIMCHECK
 70
     0
  9
$PEXTMIN
 10
1.0000000000000000E+020
 20
1.0000000000000000E+020
 30
1.0000000000000000E+020
  9
$PEXTMAX
 10
-1.0000000000000000E+020
 20
-1.0000000000000000E+020
 30
-1.0000000000000000E+020
  9
$PLIMMIN
 10
0.0
 20
0.0
  9
$PLIMMAX
 10
420.0
 20
297.0
  9
$UNITMODE
 70
     0
  9
$VISRETAIN
 70
     1
  9
$PLINEGEN
 70
     0
  9
$PSLTSCALE
 70
     1
  0
ENDSEC
  0
SECTION
  2
TABLES
  0
TABLE
  2
VPORT
 70
     1
  0
VPORT
  2
*ACTIVE
 70
     0
 10
0.0
 20
0.0
 11
1.0
 21
1.0
 12
423.81974227920853
 22
400.36836481050011
 13
0.0
 23
0.0
 14
7.5
 24
7.5
 15
30.0
 25
30.0
 16
0.0
 26
0.0
 36
1.0
 17
0.0
 27
0.0
 37
0.0
 40
427.34270705924098
 41
1.7571592210767459
 42
50.0
 43
0.0
 44
0.0
 50
0.0
 51
0.0
 71
     0
 72
   100
 73
     1
 74
     3
 75
     0
 76
     0
 77
     0
 78
     0
  0
ENDTAB
  0
TABLE
  2
LTYPE
 70
    27
  0
LTYPE
  2
CONTINUOUS
 70
     0
  3
Solid line
 72
    65
 73
     0
 40
0.0
  0
LTYPE
  2
AM_ISO02W050
 70
     0
  3
__ __ __ __ __ __ __ __ __ __ __ __ __ __ __
 72
    65
 73
     2
 40
7.5
 49
6.0
 49
-1.5
  0
LTYPE
  2
AM_ISO08W050
 70
     0
  3
____ . ____ . ____ . ____ . ____ . ____ . ____
 72
    65
 73
     4
 40
18.0
 49
12.0
 49
-1.5
 49
3.0
 49
-1.5
  0
LTYPE
  2
AM_ISO09W050
 70
     0
  3
_____ . . _____ . . _____ . . ____ .. ____
 72
    65
 73
     6
 40
22.5
 49
12.0
 49
-1.5
 49
3.0
 49
-1.5
 49
3.0
 49
-1.5
  0
LTYPE
  2
AMCONSTR
 70
     0
  3
_______________________
 72
    65
 73
     2
 40
9999.0
 49
9999.0
 49
0.0
  0
LTYPE
  2
AM_ISO08W050X2
 70
     0
  3
__ . __ . __ . __ . __ . __
 72
    65
 73
     4
 40
9.0
 49
6.0
 49
-0.75
 49
1.5
 49
-0.75
  0
LTYPE
  2
AM_ISO02W050X2
 70
     0
  3
 _ _ _ _ _ _ _ _ _ _ _ _
 72
    65
 73
     2
 40
3.75
 49
3.0
 49
-0.75
  0
LTYPE
  2
AMZIGZAG
 70
     0
  3
/\/-/\/-/\/-/\/-/\/-/\/
 72
    65
 73
     2
 40
11.0001
 49
0.0001
 49
-11.0
  0
LTYPE
  2
ACISOWELD
 70
     0
  3
_ _ _ _ _
 72
    65
 73
     2
 40
2.0
 49
2.0
 49
-1.0
  0
LTYPE
  2
ACISOTGB
 70
     0
  3
__ . . __ . .
 72
    65
 73
     6
 40
9.0
 49
4.0
 49
-1.0
 49
1.0
 49
-1.0
 49
1.0
 49
-1.0
  0
LTYPE
  2
ACISOTGL
 70
     0
  3
_ _ _ _ _
 72
    65
 73
     2
 40
3.0
 49
2.0
 49
-1.0
  0
LTYPE
  2
CENTER
 70
     0
  3
__ . __
 72
    65
 73
     4
 40
7.0
 49
4.0
 49
-1.0
 49
1.0
 49
-1.0
  0
LTYPE
  2
HIDDEN
 70
     0
  3
Hidden __ __ __ __ __ __ __ __ __ __ __ __ __ _
 72
    65
 73
     2
 40
9.5249999999999986
 49
6.3499999999999979
 49
-3.174999999999998
  0
LTYPE
  2
PHANTOM2
 70
     0
  3
Phantom (.5x) ___ _ _ ___ _ _ ___ _ _ ___ _ _
 72
    65
 73
     6
 40
31.75
 49
15.875
 49
-3.174999999999998
 49
3.174999999999998
 49
-3.174999999999998
 49
3.174999999999998
 49
-3.174999999999998
  0
LTYPE
  2
ACANSTGBM
 70
     0
  3
__ . . __ . .
 72
    65
 73
     6
 40
9.0
 49
4.0
 49
-1.0
 49
1.0
 49
-1.0
 49
1.0
 49
-1.0
  0
LTYPE
  2
ACANSTGLM
 70
     0
  3
_ _ _ _ _
 72
    65
 73
     2
 40
3.0
 49
2.0
 49
-1.0
  0
LTYPE
  2
GEN3B
 70
     0
  3
 - - - - -
 72
    65
 73
     2
 40
1.0
 49
0.5
 49
-0.5
  0
LTYPE
  2
GEN7A
 70
     0
  3
__ . __ . __
 72
    65
 73
     4
 40
7.375
 49
4.75
 49
-0.875
 49
0.875
 49
-0.875
  0
LTYPE
  2
ACJISTGB
 70
     0
  3
__ . . __ . .
 72
    65
 73
     6
 40
9.0
 49
4.0
 49
-1.0
 49
1.0
 49
-1.0
 49
1.0
 49
-1.0
  0
LTYPE
  2
ACJISTGL
 70
     0
  3
_ _ _ _ _
 72
    65
 73
     2
 40
3.0
 49
2.0
 49
-1.0
  0
LTYPE
  2
GEN7
 70
     0
  3
____ . ____ . ____ . ____ . ____ . ____ . ____
 72
    65
 73
     4
 40
14.25
 49
9.75
 49
-1.5
 49
1.5
 49
-1.5
  0
LTYPE
  2
CENTER2
 70
     0
  3
Center (.5x) ___ _ ___ _ ___ _ ___ _ ___ _ ___
 72
    65
 73
     4
 40
1.125
 49
0.75
 49
-0.125
 49
0.125
 49
-0.125
  0
LTYPE
  2
HIDDEN2
 70
     0
  3
Hidden (.5x) _ _ _ _ _ _ _ _ _ _ _ _ _ _ _ _ _
 72
    65
 73
     2
 40
0.1875
 49
0.125
 49
-0.0625
  0
LTYPE
  2
AMZIGZAG2
 70
     0
  3
/\/-/\/-/\/-/\/-/\/-/\/
 72
    65
 73
     2
 40
0.4401
 49
0.0001
 49
-0.4400000000000001
  0
LTYPE
  2
ACANSTGB
 70
     0
  3
__ . . __ . .
 72
    65
 73
     6
 40
0.35433070866
 49
0.15748031496
 49
-0.03937007874
 49
0.03937007874
 49
-0.03937007874
 49
0.03937007874
 49
-0.03937007874
  0
LTYPE
  2
ACANSTGL
 70
     0
  3
_ _ _ _ _
 72
    65
 73
     2
 40
0.11811023622
 49
0.07874015748
 49
-0.03937007874
  0
ENDTAB
  0
TABLE
  2
LAYER
 70
     8
  0
LAYER
  2
0
 70
     0
 62
     7
  6
CONTINUOUS
  0
LAYER
  2
AM_0
 70
     0
 62
     7
  6
CONTINUOUS
  0
LAYER
  2
DEFPOINTS
 70
     0
 62
     7
  6
CONTINUOUS
  0
LAYER
  2
ｶｸﾚｾﾝ2
 70
     0
 62
     3
  6
GEN3B
  0
LAYER
  2
ﾁｭｳｼﾝｾﾝ1
 70
     0
 62
     1
  6
GEN7A
  0
LAYER
  2
AM_0N
 70
     0
 62
     7
  6
CONTINUOUS
  0
LAYER
  2
AM_4
 70
     0
 62
     2
  6
CONTINUOUS
  0
LAYER
  2
ﾁｭｳｼﾝｾﾝ
 70
     0
 62
     1
  6
GEN7
  0
ENDTAB
  0
TABLE
  2
STYLE
 70
    10
  0
STYLE
  2
STANDARD
 70
     0
 40
0.0
 41
0.8299999999999999
 50
0.0
 71
     0
 42
2.5
  3
txt.shx
  4
bigfont.shx
  0
STYLE
  2
ANNOTATIVE
 70
     0
 40
0.0
 41
1.0
 50
0.0
 71
     0
 42
0.2
  3
txt
  4

  0
STYLE
  2

 70
     1
 40
0.0
 41
1.0
 50
0.0
 71
     0
 42
2.5
  3
ltypeshp.shx
  4

  0
STYLE
  2
ACISOTS
 70
     0
 40
1.0
 41
1.0
 50
0.0
 71
     0
 42
2.5
  3
isocp.shx
  4
extfont.shx
  0
STYLE
  2
ACISOGDT
 70
     0
 40
0.0
 41
1.0
 50
0.0
 71
     0
 42
2.5
  3
amgdt.shx
  4

  0
STYLE
  2
ACANSTS
 70
     0
 40
1.0
 41
1.0
 50
0.0
 71
     0
 42
2.5
  3
romans.shx
  4
bigfont.shx
  0
STYLE
  2
ACANSGDT
 70
     0
 40
0.0
 41
1.0
 50
0.0
 71
     0
 42
2.5
  3
amgdt.shx
  4

  0
STYLE
  2
ACJISTS
 70
     0
 40
1.0
 41
1.0
 50
0.0
 71
     0
 42
2.5
  3
isocp.shx
  4
bigfont.shx
  0
STYLE
  2
ACJISGDT
 70
     0
 40
0.0
 41
1.0
 50
0.0
 71
     0
 42
2.5
  3
amgdt.shx
  4

  0
STYLE
  2

 70
     1
 40
0.0
 41
1.0
 50
0.0
 71
     0
 42
2.5
  3
genltshp.shx
  4

  0
ENDTAB
  0
TABLE
  2
VIEW
 70
     6
  0
VIEW
  2
AM_VIEW1
 70
     0
 40
277.50000000000011
 10
249.64779005524869
 20
416.25
 41
499.29558011049721
 11
0.0
 21
0.0
 31
1.0
 12
0.0
 22
0.0
 32
0.0
 42
50.0
 43
0.0
 44
0.0
 50
0.0
 71
     0
  0
VIEW
  2
AM_VIEW2
 70
     0
 40
277.50000000000011
 10
603.85220994475117
 20
416.25
 41
499.29558011049721
 11
0.0
 21
0.0
 31
1.0
 12
0.0
 22
0.0
 32
0.0
 42
50.0
 43
0.0
 44
0.0
 50
0.0
 71
     0
  0
VIEW
  2
AM_VIEW3
 70
     0
 40
277.50000000000011
 10
249.64779005524869
 20
138.75
 41
499.29558011049721
 11
0.0
 21
0.0
 31
1.0
 12
0.0
 22
0.0
 32
0.0
 42
50.0
 43
0.0
 44
0.0
 50
0.0
 71
     0
  0
VIEW
  2
AM_VIEW4
 70
     0
 40
277.50000000000011
 10
603.85220994475117
 20
138.75
 41
499.29558011049721
 11
0.0
 21
0.0
 31
1.0
 12
0.0
 22
0.0
 32
0.0
 42
50.0
 43
0.0
 44
0.0
 50
0.0
 71
     0
  0
VIEW
  2
AM_VIEW5
 70
     0
 40
277.50000000000011
 10
426.75
 20
277.50000000000011
 41
499.2955801104971
 11
0.0
 21
0.0
 31
1.0
 12
0.0
 22
0.0
 32
0.0
 42
50.0
 43
0.0
 44
0.0
 50
0.0
 71
     0
  0
VIEW
  2
AM_VIEW6
 70
     0
 40
554.99445000000014
 10
426.75
 20
277.5
 41
998.5811743093924
 11
0.0
 21
0.0
 31
1.0
 12
0.0
 22
0.0
 32
0.0
 42
50.0
 43
0.0
 44
0.0
 50
0.0
 71
     0
  0
ENDTAB
  0
TABLE
  2
UCS
 70
     0
  0
ENDTAB
  0
TABLE
  2
APPID
 70
   101
  0
APPID
  2
ACAD
 70
     0
  0
APPID
  2
ACADANNOTATIVE
 70
     0
  0
APPID
  2
MCAD_NO_VIS
 70
     0
  0
APPID
  2
ACAD_TEMP_GRAPHIC
 70
     0
  0
APPID
  2
ACATTRIBSERVICES
 70
     0
  0
APPID
  2
GENIUS_GENREC_14
 70
     0
  0
APPID
  2
GENIUS_GENOBJ-N-REC_13
 70
     0
  0
APPID
  2
GENIUS_GENODEF_13
 70
     0
  0
APPID
  2
GENIUS_GENOLIS_13
 70
     0
  0
APPID
  2
GENIUS_GENOBJ-N-TIT_13
 70
     0
  0
APPID
  2
GENIUS_GENOENT_13
 70
     0
  0
APPID
  2
GENIUS_GENTITLE_13
 70
     0
  0
APPID
  2
GENIUS_GENOREF_13
 70
     0
  0
APPID
  2
GENIUS_GENSCREG_15
 70
     0
  0
APPID
  2
GENIUS_GENOBJ-N-SDF_13
 70
     0
  0
APPID
  2
GENIUS_GENFIL_13
 70
     0
  0
APPID
  2
GENIUS_GENOBJ-N-CHA_13
 70
     0
  0
APPID
  2
GENIUS_GENDTOL_13
 70
     0
  0
APPID
  2
GENIUS_GENOBJ-N-FIL_13
 70
     0
  0
APPID
  2
AD_DRAW
 70
     0
  0
APPID
  2
DESIGNERASSEMBLIES
 70
     0
  0
APPID
  2
ASURF_PCURVE_APPNAME
 70
     0
  0
APPID
  2
GENIUS_GE3SECT_13
 70
     0
  0
APPID
  2
GENIUS_GENCFG_13
 70
     0
  0
APPID
  2
GENIUS_GE3CFG0_13
 70
     0
  0
APPID
  2
GENIUS_GENCFG0_13
 70
     0
  0
APPID
  2
GENIUS_GENCFG1_13
 70
     0
  0
APPID
  2
GENIUS_GENCFG2_13
 70
     0
  0
APPID
  2
GENIUS_GENCFG3_13
 70
     0
  0
APPID
  2
GENIUS_GENCFG4_13
 70
     0
  0
APPID
  2
GENIUS_GEVCFG0_13
 70
     0
  0
APPID
  2
GENIUS_GENHINW_13
 70
     0
  0
APPID
  2
GENIUS_FIRSTVISTXT_14
 70
     0
  0
APPID
  2
GENIUS_GENOBJ-N-LEADER_13
 70
     0
  0
APPID
  2
GEV_VCCNULL_SWITCH_OFF
 70
     0
  0
APPID
  2
GENIUS_GEFCFG0_13
 70
     0
  0
APPID
  2
GENIUS_GENZVEED_13
 70
     0
  0
APPID
  2
GENIUS_GENSCREG_13
 70
     0
  0
APPID
  2
GENIUS_DUMCFG0_13
 70
     0
  0
APPID
  2
GEVID936201362
 70
     0
  0
APPID
  2
GEVDC
 70
     0
  0
APPID
  2
GEVCON
 70
     0
  0
APPID
  2
VCC
 70
     0
  0
APPID
  2
GEVPT
 70
     0
  0
APPID
  2
GEVIT
 70
     0
  0
APPID
  2
GENBH
 70
     0
  0
APPID
  2
GEVMK
 70
     0
  0
APPID
  2
GENIUS_GENBH_13
 70
     0
  0
APPID
  2
GENIUS_GENOBJ-NBEHI-BHF_13
 70
     0
  0
APPID
  2
GENIUS_GENOBJ-NBEHI-BHB_13
 70
     0
  0
APPID
  2
GENIUS_GENOBJ-F-DESC_13
 70
     0
  0
APPID
  2
GENIUS_GEFDESC_14
 70
     0
  0
APPID
  2
GENIUS_GENOBJ-F-PART_13
 70
     0
  0
APPID
  2
GENIUS_GEFSTDP_13
 70
     0
  0
APPID
  2
GENIUS_GEFPARTINS_13
 70
     0
  0
APPID
  2
GENIUS_GENTRA_14
 70
     0
  0
APPID
  2
GENIUS_GENINF13_13
 70
     0
  0
APPID
  2
GENIUS_GENOBJ-N-INFOPT_13
 70
     0
  0
APPID
  2
GENIUS_GENOBJ-N-RSSYM_13
 70
     0
  0
APPID
  2
GENIUS_GENSYMENT_13
 70
     0
  0
APPID
  2
GENIUS_GENSCSYM_13
 70
     0
  0
APPID
  2
GENIUS_GEFINFNAM_13
 70
     0
  0
APPID
  2
GENIUS_GENOBJ-N-CEN_13
 70
     0
  0
APPID
  2
GENIUS_GENOBJ-N-CRS_13
 70
     0
  0
APPID
  2
GENIUS_GENOBJ-N-CRC_13
 70
     0
  0
APPID
  2
GENIUS_GENCRC_14
 70
     0
  0
APPID
  2
GEVID942827039
 70
     0
  0
APPID
  2
GEVID942827040
 70
     0
  0
APPID
  2
GEVID942827041
 70
     0
  0
APPID
  2
GENIUS_GENOBJ-F-SCPASSM_13
 70
     0
  0
APPID
  2
GENIUS_GENDIMSH_14
 70
     0
  0
APPID
  2
GEVID942827042
 70
     0
  0
APPID
  2
GEVID946020473
 70
     0
  0
APPID
  2
GEVID946020474
 70
     0
  0
APPID
  2
GEVID946020475
 70
     0
  0
APPID
  2
GENIUS_GENOBJ-N-HTC_13
 70
     0
  0
APPID
  2
GENIUS_GENHATCH_13
 70
     0
  0
APPID
  2
GEVID948854295
 70
     0
  0
APPID
  2
GEVID939402019
 70
     0
  0
APPID
  2
GEVID952919491
 70
     0
  0
APPID
  2
GEVID952919492
 70
     0
  0
APPID
  2
GENIUS_GEFWELD_13
 70
     0
  0
APPID
  2
GENIUS_GENOBJ-F-WELS_13
 70
     0
  0
APPID
  2
GEVID952919493
 70
     0
  0
APPID
  2
GENIUS_GENOBJ-N-RSBK_13
 70
     0
  0
APPID
  2
GENIUS_GENOBJ-N-LIB_13
 70
     0
  0
APPID
  2
GENIUS_GENSCALE_13
 70
     0
  0
APPID
  2
GEVID986376691
 70
     0
  0
APPID
  2
DCO15
 70
     0
  0
APPID
  2
GEVID988070561
 70
     0
  0
APPID
  2
GEVID988070562
 70
     0
  0
APPID
  2
GEVID988070563
 70
     0
  0
APPID
  2
ACADM_DIM_EDIT
 70
     0
  0
APPID
  2
AMDT_DM_ADJ
 70
     0
  0
APPID
  2
ACAD_PSEXT
 70
     0
  0
APPID
  2
ACAD_DSTYLE_DIMJAG
 70
     0
  0
APPID
  2
ACAD_DSTYLE_DIMBREAK
 70
     0
  0
APPID
  2
ACAD_NAV_VCDISPLAY
 70
     0
  0
APPID
  2
ACADANNOPO
 70
     0
  0
APPID
  2
ACAD_EXEMPT_FROM_CAD_STANDARDS
 70
     0
  0
APPID
  2
ACAD_MLEADERVER
 70
     0
  0
ENDTAB
  0
TABLE
  2
DIMSTYLE
 70
    23
  0
DIMSTYLE
  2
STANDARD
 70
     0
  3

  4

  5

  6

  7

 40
1.0
 41
0.18
 42
0.0625
 43
0.38
 44
0.18
 45
0.0
 46
0.0
 47
0.0
 48
0.0
140
0.18
141
0.09
142
0.0
143
25.399999999999999
144
1.0
145
0.0
146
1.0
147
0.09
 71
     0
 72
     0
 73
     1
 74
     1
 75
     0
 76
     0
 77
     0
 78
     0
170
     0
171
     2
172
     0
173
     0
174
     0
175
     0
176
     0
177
     0
178
     0
  0
DIMSTYLE
  2
ANNOTATIVE
 70
     0
  3

  4

  5

  6

  7

 40
1.0
 41
0.18
 42
0.0625
 43
0.38
 44
0.18
 45
0.0
 46
0.0
 47
0.0
 48
0.0
140
0.18
141
0.09
142
0.0
143
25.399999999999999
144
1.0
145
0.0
146
1.0
147
0.09
 71
     0
 72
     0
 73
     1
 74
     1
 75
     0
 76
     0
 77
     0
 78
     0
170
     0
171
     2
172
     0
173
     0
174
     0
175
     0
176
     0
177
     0
178
     0
  0
DIMSTYLE
  2
AM_ISO
 70
     0
  3

  4
"
  5

  6

  7

 40
1.0
 41
2.5
 42
1.0
 43
8.0
 44
0.6
 45
0.0
 46
0.0
 47
0.1
 48
0.1
140
2.5
141
0.0
142
0.0
143
0.0393701
144
1.0
145
0.0
146
0.71
147
0.8
 71
     0
 72
     0
 73
     0
 74
     0
 75
     0
 76
     0
 77
     1
 78
     8
170
     0
171
     2
172
     1
173
     0
174
     0
175
     0
176
   256
177
   256
178
     4
  0
DIMSTYLE
  2
AM_ISO$3
 70
     0
  3

  4
"
  5

  6

  7

 40
1.0
 41
2.5
 42
1.0
 43
8.0
 44
0.6
 45
0.0
 46
0.0
 47
0.1
 48
0.1
140
2.5
141
0.0
142
0.0
143
0.0393701
144
1.0
145
0.0
146
0.71
147
0.8
 71
     0
 72
     0
 73
     0
 74
     1
 75
     0
 76
     0
 77
     1
 78
     8
170
     0
171
     2
172
     0
173
     0
174
     0
175
     0
176
   256
177
   256
178
     4
  0
DIMSTYLE
  2
AM_ISO$4
 70
     0
  3

  4
"
  5

  6

  7

 40
1.0
 41
2.5
 42
1.0
 43
8.0
 44
0.6
 45
0.0
 46
0.0
 47
0.1
 48
0.1
140
2.5
141
0.0
142
0.0
143
0.0393701
144
1.0
145
0.0
146
0.71
147
0.8
 71
     0
 72
     0
 73
     0
 74
     1
 75
     0
 76
     0
 77
     1
 78
     8
170
     0
171
     2
172
     0
173
     0
174
     0
175
     0
176
   256
177
   256
178
     4
  0
DIMSTYLE
  2
AM_ISO$6
 70
     0
  3

  4
"
  5

  6

  7

 40
1.0
 41
2.5
 42
1.0
 43
8.0
 44
0.6
 45
0.0
 46
0.0
 47
0.1
 48
0.1
140
2.5
141
0.0
142
0.0
143
0.0393701
144
1.0
145
0.0
146
0.71
147
0.8
 71
     0
 72
     0
 73
     0
 74
     0
 75
     0
 76
     0
 77
     0
 78
     8
170
     0
171
     2
172
     1
173
     0
174
     0
175
     0
176
   256
177
   256
178
     4
  0
DIMSTYLE
  2
AM_ISO$7
 70
     0
  3

  4
"
  5

  6

  7

 40
1.0
 41
2.5
 42
1.0
 43
8.0
 44
0.6
 45
0.0
 46
0.0
 47
0.1
 48
0.1
140
2.5
141
0.0
142
0.0
143
0.0393701
144
1.0
145
0.0
146
0.71
147
0.8
 71
     0
 72
     0
 73
     0
 74
     0
 75
     0
 76
     0
 77
     1
 78
     8
170
     0
171
     2
172
     1
173
     0
174
     0
175
     0
176
   256
177
   256
178
     4
  0
DIMSTYLE
  2
AM_ISO$SF
 70
     0
  3

  4
"
  5

  6

  7

 40
1.0
 41
2.5
 42
1.0
 43
10.0
 44
1.0
 45
0.0
 46
0.0
 47
0.1
 48
0.1
140
3.5
141
0.0
142
0.0
143
0.0393701
144
1.0
145
0.0
146
0.71
147
1.5
 71
     0
 72
     0
 73
     0
 74
     0
 75
     1
 76
     1
 77
     1
 78
     8
170
     0
171
     2
172
     1
173
     0
174
     0
175
     0
176
   256
177
   256
178
     2
  0
DIMSTYLE
  2
AM_ISO$SH
 70
     0
  3

  4
"
  5

  6

  7

 40
1.0
 41
2.5
 42
1.0
 43
10.0
 44
1.0
 45
0.0
 46
0.0
 47
0.1
 48
0.1
140
3.5
141
0.0
142
0.0
143
0.0393701
144
2.0
145
0.0
146
0.71
147
1.5
 71
     0
 72
     0
 73
     0
 74
     0
 75
     1
 76
     1
 77
     1
 78
     8
170
     0
171
     2
172
     1
173
     1
174
     0
175
     0
176
   256
177
   256
178
     2
  0
DIMSTYLE
  2
AM_JIS
 70
     0
  3

  4
"
  5

  6

  7

 40
1.0
 41
2.5
 42
1.0
 43
7.0
 44
1.0
 45
0.0
 46
0.0
 47
0.1
 48
0.1000000001
140
2.5
141
0.0
142
0.0
143
0.0393701
144
1.0
145
0.0
146
0.71
147
1.0
 71
     0
 72
     0
 73
     0
 74
     0
 75
     0
 76
     0
 77
     3
 78
     8
170
     0
171
     2
172
     1
173
     0
174
     0
175
     0
176
   256
177
   256
178
     4
  0
DIMSTYLE
  2
AM_JIS$3
 70
     0
  3

  4
"
  5

  6

  7

 40
1.0
 41
2.5
 42
1.0
 43
7.0
 44
1.0
 45
0.0
 46
0.0
 47
0.1
 48
0.1000000001
140
2.5
141
0.0
142
0.0
143
0.0393701
144
1.0
145
0.0
146
0.71
147
1.0
 71
     0
 72
     0
 73
     0
 74
     1
 75
     0
 76
     0
 77
     3
 78
     8
170
     0
171
     2
172
     0
173
     0
174
     0
175
     0
176
   256
177
   256
178
     4
  0
DIMSTYLE
  2
AM_JIS$4
 70
     0
  3

  4
"
  5

  6

  7

 40
1.0
 41
2.5
 42
1.0
 43
7.0
 44
1.0
 45
0.0
 46
0.0
 47
0.1
 48
0.1000000001
140
2.5
141
0.0
142
0.0
143
0.0393701
144
1.0
145
0.0
146
0.71
147
1.0
 71
     0
 72
     0
 73
     0
 74
     0
 75
     0
 76
     0
 77
     3
 78
     8
170
     0
171
     2
172
     0
173
     0
174
     0
175
     0
176
   256
177
   256
178
     4
  0
DIMSTYLE
  2
AM_JIS$6
 70
     0
  3

  4
"
  5

  6

  7

 40
1.0
 41
2.5
 42
1.0
 43
7.0
 44
1.0
 45
0.0
 46
0.0
 47
0.1
 48
0.1000000001
140
2.5
141
0.0
142
0.0
143
0.0393701
144
1.0
145
0.0
146
0.71
147
1.0
 71
     0
 72
     0
 73
     0
 74
     0
 75
     0
 76
     0
 77
     0
 78
     8
170
     0
171
     2
172
     1
173
     0
174
     0
175
     0
176
   256
177
   256
178
     4
  0
DIMSTYLE
  2
AM_JIS$7
 70
     0
  3

  4
"
  5

  6

  7

 40
1.0
 41
2.5
 42
1.0
 43
7.0
 44
1.0
 45
0.0
 46
0.0
 47
0.1
 48
0.1000000001
140
2.5
141
0.0
142
0.0
143
0.0393701
144
1.0
145
0.0
146
0.71
147
1.0
 71
     0
 72
     0
 73
     0
 74
     0
 75
     0
 76
     0
 77
     3
 78
     8
170
     0
171
     2
172
     1
173
     0
174
     0
175
     0
176
   256
177
   256
178
     4
  0
DIMSTYLE
  2
AM_JIS$SF
 70
     0
  3

  4
"
  5

  6

  7

 40
1.0
 41
2.5
 42
1.0
 43
10.0
 44
1.0
 45
0.0
 46
0.0
 47
0.1
 48
0.1
140
3.5
141
0.0
142
0.0
143
0.0393701
144
1.0
145
0.0
146
0.71
147
1.5
 71
     0
 72
     0
 73
     0
 74
     0
 75
     1
 76
     1
 77
     3
 78
     8
170
     0
171
     2
172
     1
173
     0
174
     0
175
     0
176
   256
177
   256
178
     4
  0
DIMSTYLE
  2
AM_JIS$SH
 70
     0
  3

  4
"
  5

  6

  7

 40
1.0
 41
2.5
 42
1.0
 43
10.0
 44
1.0
 45
0.0
 46
0.0
 47
0.1
 48
0.1
140
3.5
141
0.0
142
0.0
143
0.0393701
144
1.0
145
0.0
146
0.71
147
1.5
 71
     0
 72
     0
 73
     0
 74
     0
 75
     1
 76
     0
 77
     3
 78
     8
170
     0
171
     2
172
     1
173
     1
174
     0
175
     0
176
   256
177
   256
178
     4
  0
DIMSTYLE
  2
AM_ISO$0
 70
     0
  3

  4
"
  5

  6

  7

 40
1.0
 41
2.5
 42
1.0
 43
8.0
 44
0.6
 45
0.0
 46
0.0
 47
0.1
 48
0.1
140
2.5
141
0.0
142
0.0
143
0.0393701
144
1.0
145
0.0
146
0.71
147
0.8
 71
     0
 72
     0
 73
     0
 74
     0
 75
     0
 76
     0
 77
     1
 78
     8
170
     0
171
     2
172
     1
173
     0
174
     0
175
     0
176
   256
177
   256
178
     4
  0
DIMSTYLE
  2
AM_ANSI
 70
     0
  3

  4
mm
  5

  6

  7

 40
1.0
 41
0.12
 42
0.05
 43
0.5
 44
0.1
 45
0.0
 46
0.0
 47
0.1
 48
0.1
140
0.12
141
0.0
142
0.0
143
25.399999999999999
144
1.0
145
0.0
146
0.71
147
0.06
 71
     0
 72
     0
 73
     1
 74
     1
 75
     0
 76
     0
 77
     0
 78
     7
170
     0
171
     2
172
     0
173
     0
174
     0
175
     0
176
   256
177
   256
178
     2
  0
DIMSTYLE
  2
AM_ANSI$3
 70
     0
  3

  4
mm
  5

  6

  7

 40
1.0
 41
0.12
 42
0.05
 43
0.5
 44
0.1
 45
0.0
 46
0.0
 47
0.1
 48
0.1
140
0.12
141
0.0
142
0.0
143
25.399999999999999
144
1.0
145
0.0
146
0.71
147
0.06
 71
     0
 72
     0
 73
     1
 74
     1
 75
     0
 76
     0
 77
     0
 78
     7
170
     0
171
     2
172
     0
173
     0
174
     0
175
     0
176
   256
177
   256
178
     2
  0
DIMSTYLE
  2
AM_ANSI$4
 70
     0
  3

  4
mm
  5

  6

  7

 40
1.0
 41
0.12
 42
0.05
 43
0.5
 44
0.1
 45
0.0
 46
0.0
 47
0.1
 48
0.1
140
0.12
141
0.0
142
0.0
143
25.399999999999999
144
1.0
145
0.0
146
0.71
147
0.06
 71
     0
 72
     0
 73
     1
 74
     1
 75
     0
 76
     0
 77
     0
 78
     7
170
     0
171
     2
172
     0
173
     0
174
     0
175
     0
176
   256
177
   256
178
     2
  0
DIMSTYLE
  2
AM_ANSI$7
 70
     0
  3

  4
mm
  5

  6

  7

 40
1.0
 41
0.12
 42
0.05
 43
0.5
 44
0.1
 45
0.0
 46
0.0
 47
0.1
 48
0.1
140
0.12
141
0.0
142
0.0
143
25.399999999999999
144
1.0
145
0.0
146
0.71
147
0.06
 71
     0
 72
     0
 73
     1
 74
     1
 75
     0
 76
     0
 77
     0
 78
     7
170
     0
171
     2
172
     0
173
     0
174
     0
175
     0
176
   256
177
   256
178
     2
  0
DIMSTYLE
  2
AM_ANSI$SF
 70
     0
  3

  4
mm
  5

  6

  7

 40
1.0
 41
0.12
 42
0.05
 43
0.5
 44
0.1
 45
0.0
 46
0.0
 47
0.1
 48
0.1
140
0.12
141
0.0
142
0.0
143
25.399999999999999
144
1.0
145
0.0
146
0.71
147
0.06
 71
     0
 72
     0
 73
     1
 74
     1
 75
     1
 76
     1
 77
     0
 78
     7
170
     0
171
     2
172
     0
173
     0
174
     0
175
     0
176
   256
177
   256
178
     2
  0
DIMSTYLE
  2
AM_ANSI$SH
 70
     0
  3

  4
mm
  5

  6
GENAXEH
  7

 40
1.0
 41
0.12
 42
0.05
 43
0.5
 44
0.1
 45
0.0
 46
0.0
 47
0.1
 48
0.1
140
0.12
141
0.0
142
0.0
143
25.399999999999999
144
1.0
145
0.0
146
0.71
147
0.06
 71
     0
 72
     0
 73
     1
 74
     1
 75
     1
 76
     1
 77
     0
 78
     7
170
     0
171
     2
172
     0
173
     1
174
     0
175
     0
176
   256
177
   256
178
     2
  0
ENDTAB
  0
ENDSEC
  0
SECTION
  2
BLOCKS
  0
BLOCK
  8
0
  2
$MODEL_SPACE
 70
     0
 10
0.0
 20
0.0
 30
0.0
  3
$MODEL_SPACE
  1

  0
ENDBLK
  5
5F73
  8
0
  0
BLOCK
 67
     1
  8
0
  2
$PAPER_SPACE
 70
     0
 10
0.0
 20
0.0
 30
0.0
  3
$PAPER_SPACE
  1

  0
ENDBLK
  5
5F6F
 67
     1
  8
0
  0
BLOCK
  8
0
  2
GENAXEH
 70
     0
 10
0.0
 20
0.0
 30
0.0
  3
GENAXEH
  1

  0
LINE
  5
73
  8
0
 10
-1.0
 20
0.0
 30
0.0
 11
1.0
 21
0.0
 31
0.0
  0
ENDBLK
  5
75
  8
0
  0
BLOCK
  8
0
  2
_OPEN30
 70
     0
 10
0.0
 20
0.0
 30
0.0
  3
_OPEN30
  1

  0
LINE
  5
31A
  8
0
 62
     0
 10
-1.0
 20
0.26794919
 30
0.0
 11
0.0
 21
0.0
 31
0.0
  0
LINE
  5
31B
  8
0
 62
     0
 10
0.0
 20
0.0
 30
0.0
 11
-1.0
 21
-0.26794919
 31
0.0
  0
LINE
  5
31C
  8
0
 62
     0
 10
0.0
 20
0.0
 30
0.0
 11
-1.0
 21
0.0
 31
0.0
  0
ENDBLK
  5
31E
  8
0
  0
BLOCK
  8
0
  2
_NONE
 70
     0
 10
0.0
 20
0.0
 30
0.0
  3
_NONE
  1

  0
ENDBLK
  5
579
  8
0
  0
BLOCK
  8
0
  2
*U5
 70
     1
 10
0.0
 20
0.0
 30
0.0
  3
*U5
  1

  0
TEXT
  5
5E7E
  8
AM_0
 10
557.86849628971254
 20
518.17399982152415
 30
0.0
 40
10.0
  1
ＶＸ０２－００５～０３０ＢＷ
 41
0.8299999999999999
  0
ENDBLK
  5
5E80
  8
0
  0
BLOCK
  8
0
  2
_ACMFILLEDHALF
 70
     0
 10
0.0
 20
0.0
 30
0.0
  3
_ACMFILLEDHALF
  1

  0
TRACE
  5
6077
  8
AM_0
 62
     0
 10
-0.8
 20
0.0
 30
0.0
 11
-1.0
 21
0.166666666
 31
0.0
 12
0.0
 22
0.0
 32
0.0
 13
0.0
 23
0.0
 33
0.0
  0
LINE
  5
6078
  8
AM_0
 62
     0
 10
-1.0
 20
0.0
 30
0.0
 11
-0.8
 21
0.0
 31
0.0
  0
ENDBLK
  5
6076
  8
0
  0
ENDSEC
  0
SECTION
  2
ENTITIES
  0
LINE
  5
56E9
  8
AM_0
 10
295.87680912954272
 20
222.9737534958935
 30
0.0
 11
298.87680912954249
 21
222.97375349589359
 31
0.0
  0
LINE
  5
56EA
  8
AM_0
 10
295.87680912954249
 20
299.41985249589362
 30
0.0
 11
298.87680912954249
 21
299.41985249589362
 31
0.0
  0
LINE
  5
56EB
  8
ﾁｭｳｼﾝｾﾝ
 10
118.1880042572197
 20
261.19683749589348
 30
0.0
 11
328.84038912954242
 21
261.19683749589359
 31
0.0
  0
LINE
  5
56EC
  8
AM_0
 10
194.08323912954239
 20
204.91358549589361
 30
0.0
 11
291.0029791295425
 21
204.91358549589361
 31
0.0
  0
LINE
  5
56ED
  8
AM_0
 10
192.55473912954241
 20
224.47375349589359
 30
0.0
 11
199.87680912954241
 21
224.4737534958937
 31
0.0
  0
LINE
  5
56EE
  8
AM_0
 10
199.87680912954241
 20
227.19683549589351
 30
0.0
 11
193.24221912954221
 21
227.19683549589359
 31
0.0
  0
LINE
  5
56EF
  8
AM_0
 10
199.87680912954241
 20
225.19683749589359
 30
0.0
 11
193.24221912954221
 21
225.19683749589359
 31
0.0
  0
LINE
  5
56F0
  8
AM_0
 10
199.87680912954241
 20
297.19685249589361
 30
0.0
 11
193.24221912954221
 21
297.19685249589361
 31
0.0
  0
LINE
  5
56F1
  8
AM_0
 10
199.87680912954241
 20
295.1968394958937
 30
0.0
 11
193.24221912954221
 21
295.1968394958937
 31
0.0
  0
LINE
  5
56F2
  8
AM_0
 10
192.5541091295423
 20
297.91985249589362
 30
0.0
 11
199.87680912954241
 21
297.91985249589362
 31
0.0
  0
LINE
  5
56F3
  8
AM_0
 10
194.08323912954239
 20
317.48009249589359
 30
0.0
 11
291.0029791295425
 21
317.48009249589359
 31
0.0
  0
ARC
  5
56F4
  8
AM_0
 10
192.5541091295423
 20
296.24194349589362
 30
0.0
 40
1.6779127499999991
 50
90.00000299999769
 51
270.0
  0
ARC
  5
56F5
  8
AM_0
 10
193.42617912954239
 20
296.19683849589359
 30
0.0
 40
1.0000000199999981
 50
90.00000299999769
 51
270.0
  0
LINE
  5
56F6
  8
AM_0
 10
190.87680912954241
 20
314.1968324958936
 30
0.0
 11
190.87680912954241
 21
247.79683749589361
 31
0.0
  0
LINE
  5
56F7
  8
AM_0
 10
190.87680912954241
 20
234.59683749589351
 30
0.0
 11
190.87680912954241
 21
211.7566034958937
 31
0.0
  0
LINE
  5
56F8
  8
AM_0
 10
196.2422791295424
 20
224.54556149589359
 30
0.0
 11
190.87686912954231
 21
213.10108649589361
 31
0.0
  0
ARC
  5
56F9
  8
AM_0
 10
227.87679912954241
 20
204.0671954958936
 30
0.0
 40
2.00000007
 50
270.0
 51
0.0
  0
ARC
  5
56FA
  8
AM_0
 10
227.87679912954241
 20
201.30889649589361
 30
0.0
 40
2.00000007
 50
270.0
 51
0.0
  0
LINE
  5
56FB
  8
AM_0
 10
229.87680912954249
 20
201.30889649589361
 30
0.0
 11
229.87680912954249
 21
204.91358549589361
 31
0.0
  0
ARC
  5
56FC
  8
AM_0
 10
227.87679912954241
 20
202.21941749589359
 30
0.0
 40
2.00000007
 50
270.0
 51
0.0
  0
LINE
  5
56FD
  8
AM_0
 10
190.87680912954241
 20
213.10105649589369
 30
0.0
 11
192.11802912954241
 21
206.54170049589359
 31
0.0
  0
LINE
  5
56FE
  8
AM_0
 10
190.87680912954241
 20
211.7565284958936
 30
0.0
 11
192.15690912954241
 21
203.75135549589359
 31
0.0
  0
LINE
  5
56FF
  8
AM_0
 10
190.8767491295423
 20
210.41200049589369
 30
0.0
 11
192.1678291295425
 21
201.9188804958936
 31
0.0
  0
ARC
  5
5700
  8
AM_0
 10
194.08323912954239
 20
206.91357149589359
 30
0.0
 40
2.00000007
 50
190.71568999999951
 51
270.0
  0
ARC
  5
5701
  8
AM_0
 10
194.1318091295426
 20
204.0671954958936
 30
0.0
 40
2.00000007
 50
189.08497000000031
 51
270.0
  0
LINE
  5
5702
  8
AM_0
 10
183.3768191295423
 20
208.19685149589361
 30
0.0
 11
190.87680912954241
 21
208.19685149589361
 31
0.0
  0
ARC
  5
5703
  8
AM_0
 10
194.16648912954241
 20
201.30889649589361
 30
0.0
 40
2.00000007
 50
187.94404000000071
 51
270.0
  0
LINE
  5
5704
  8
AM_0
 10
190.8767491295423
 20
210.41195549589369
 30
0.0
 11
192.1856491295425
 21
201.0325124958936
 31
0.0
  0
ARC
  5
5705
  8
AM_0
 10
194.14518912954259
 20
202.21941749589359
 30
0.0
 40
2.00000007
 50
188.64339000000061
 51
270.0
  0
LINE
  5
5706
  8
AM_0
 10
194.1318091295426
 20
202.06721249589361
 30
0.0
 11
227.87679912954241
 21
202.06721249589361
 31
0.0
  0
LINE
  5
5707
  8
AM_0
 10
194.14518912954259
 20
200.21941949589359
 30
0.0
 11
227.87679912954241
 21
200.21941949589359
 31
0.0
  0
LINE
  5
5708
  8
AM_0
 10
194.16648912954241
 20
199.3089104958936
 30
0.0
 11
227.87679912954241
 21
199.3089104958936
 31
0.0
  0
POLYLINE
  5
5709
  8
AM_0
 66
     1
 10
0.0
 20
0.0
 30
0.0
  0
VERTEX
  5
570A
  8
AM_0
 10
194.8106481035507
 20
288.19683749589359
 30
0.0
  0
VERTEX
  5
570B
  8
AM_0
 10
195.69951912954241
 20
294.56540849589362
 30
0.0
 42
-1.0
  0
SEQEND
  5
570C
  8
AM_0
  0
LINE
  5
570D
  8
AM_0
 10
192.5541091295423
 20
294.5640254958937
 30
0.0
 11
199.87680912954241
 21
294.5640254958937
 31
0.0
  0
POLYLINE
  5
570E
  8
AM_0
 66
     1
 10
0.0
 20
0.0
 30
0.0
  0
VERTEX
  5
570F
  8
AM_0
 10
195.02000037327809
 20
232.69683749589359
 30
0.0
  0
VERTEX
  5
5710
  8
AM_0
 10
195.69951912954241
 20
227.8282604958936
 30
0.0
 42
-1.0
  0
SEQEND
  5
5711
  8
AM_0
  0
ARC
  5
5712
  8
AM_0
 10
192.55473912954241
 20
226.15167149589359
 30
0.0
 40
1.6779175200000001
 50
90.00000299999769
 51
270.0
  0
ARC
  5
5713
  8
AM_0
 10
193.42617912954239
 20
226.19685149589361
 30
0.0
 40
1.0000000199999981
 50
90.00000299999769
 51
270.0
  0
LINE
  5
5714
  8
AM_0
 10
183.5749291295424
 20
218.0053694958936
 30
0.0
 11
189.80472912954261
 21
218.0053694958936
 31
0.0
  0
LINE
  5
5715
  8
AM_0
 10
192.55473912954241
 20
227.8296044958937
 30
0.0
 11
199.87680912954241
 21
227.8296044958937
 31
0.0
  0
ARC
  5
5716
  8
AM_0
 10
227.87679912954241
 20
318.32648249589357
 30
0.0
 40
2.00000007
 50
0.0
 51
90.00000299999769
  0
ARC
  5
5717
  8
AM_0
 10
227.87679912954241
 20
320.17418249589372
 30
0.0
 40
2.00000007
 50
0.0
 51
90.00000299999769
  0
ARC
  5
5718
  8
AM_0
 10
227.87679912954241
 20
321.08471249589371
 30
0.0
 40
2.00000007
 50
0.0
 51
90.00000299999769
  0
LINE
  5
5719
  8
AM_0
 10
229.87680912954249
 20
321.08471249589371
 30
0.0
 11
229.87680912954249
 21
317.48009249589359
 31
0.0
  0
ARC
  5
571A
  8
AM_0
 10
194.08323912954239
 20
315.48011249589359
 30
0.0
 40
2.00000007
 50
90.00000299999769
 51
169.2843100000004
  0
ARC
  5
571B
  8
AM_0
 10
194.1318091295426
 20
318.32648249589357
 30
0.0
 40
2.00000007
 50
90.00000299999769
 51
170.9150299999996
  0
ARC
  5
571C
  8
AM_0
 10
194.14518912954259
 20
320.17418249589372
 30
0.0
 40
2.00000007
 50
90.00000299999769
 51
171.35660999999939
  0
ARC
  5
571D
  8
AM_0
 10
194.16648912954241
 20
321.08471249589371
 30
0.0
 40
2.00000007
 50
90.00000299999769
 51
172.05595999999929
  0
LINE
  5
571E
  8
AM_0
 10
190.87680912954241
 20
310.63709249589363
 30
0.0
 11
192.15684912954239
 21
318.64223249589361
 31
0.0
  0
LINE
  5
571F
  8
AM_0
 10
190.87680912954241
 20
311.98169249589358
 30
0.0
 11
192.1678291295425
 21
320.4747524958936
 31
0.0
  0
LINE
  5
5720
  8
AM_0
 10
190.87680912954241
 20
311.98169249589358
 30
0.0
 11
192.1856491295425
 21
321.36110249589359
 31
0.0
  0
LINE
  5
5721
  8
AM_0
 10
190.87680912954241
 20
309.29255249589357
 30
0.0
 11
192.1180891295426
 21
315.8519624958937
 31
0.0
  0
LINE
  5
5722
  8
AM_0
 10
183.3768191295423
 20
314.1968324958936
 30
0.0
 11
190.87680912954241
 21
314.1968324958936
 31
0.0
  0
LINE
  5
5723
  8
AM_0
 10
183.5749291295424
 20
304.38824249589362
 30
0.0
 11
189.80472912954261
 21
304.38824249589362
 31
0.0
  0
LINE
  5
5724
  8
AM_0
 10
196.24221912954241
 20
297.84803249589362
 30
0.0
 11
190.87680912954241
 21
309.29252249589359
 31
0.0
  0
LINE
  5
5725
  8
AM_0
 10
194.1318091295426
 20
320.32649249589372
 30
0.0
 11
227.87679912954241
 21
320.32649249589372
 31
0.0
  0
LINE
  5
5726
  8
AM_0
 10
194.14518912954259
 20
322.17419249589358
 30
0.0
 11
227.87679912954241
 21
322.17419249589358
 31
0.0
  0
LINE
  5
5727
  8
AM_0
 10
194.16648912954241
 20
323.08472249589357
 30
0.0
 11
227.87679912954241
 21
323.08472249589357
 31
0.0
  0
LINE
  5
5728
  8
AM_0
 10
388.87677912954263
 20
306.19685249589361
 30
0.0
 11
388.87677912954263
 21
206.38723349589361
 31
0.0
  0
ARC
  5
5729
  8
AM_0
 10
345.87681912954241
 20
295.6620494958936
 30
0.0
 40
1.0000000199999981
 50
0.0
 51
90.00000299999769
  0
LINE
  5
572A
  8
AM_0
 10
346.87677912954263
 20
294.77530049589359
 30
0.0
 11
346.87677912954263
 21
304.32233249589359
 31
0.0
  0
LINE
  5
572B
  8
AM_0
 10
342.87681912954241
 20
305.82230249589361
 30
0.0
 11
342.87681912954241
 21
293.27529749589371
 31
0.0
  0
LINE
  5
572C
  8
AM_0
 10
315.87681912954241
 20
305.19683249589372
 30
0.0
 11
315.87681912954241
 21
286.9795514958937
 31
0.0
  0
LINE
  5
572D
  8
AM_0
 10
324.87681912954241
 20
301.07045249589362
 30
0.0
 11
324.87681912954241
 21
261.19683749589359
 31
0.0
  0
ARC
  5
572E
  8
AM_0
 10
295.69890912954241
 20
296.24194349589362
 30
0.0
 40
1.6779127499999991
 50
276.08620038401648
 51
83.913799615983422
  0
LINE
  5
572F
  8
ﾁｭｳｼﾝｾﾝ
 10
247.87680912954249
 20
312.1968374958937
 30
0.0
 11
247.87680912954249
 21
210.1968374958935
 31
0.0
  0
LINE
  5
5730
  8
AM_0
 10
341.87682912954261
 20
309.41879249589363
 30
0.0
 11
341.87682912954261
 21
290.03506349589361
 31
0.0
  0
LINE
  5
5731
  8
AM_0
 10
378.87681912954241
 20
315.06914249589357
 30
0.0
 11
378.87681912954241
 21
229.9642604958936
 31
0.0
  0
LINE
  5
5732
  8
AM_0
 10
298.87680912954249
 20
317.19683249589372
 30
0.0
 11
298.87680912954249
 21
205.19685149589361
 31
0.0
  0
LINE
  5
5733
  8
AM_0
 10
306.8768191295423
 20
317.19686249589358
 30
0.0
 11
306.8768191295423
 21
205.19685149589361
 31
0.0
  0
LINE
  5
5734
  8
AM_0
 10
183.3768191295423
 20
314.1968324958936
 30
0.0
 11
183.3768191295423
 21
288.19683749589359
 31
0.0
  0
LINE
  5
5735
  8
AM_0
 10
183.3768191295423
 20
264.1968374958937
 30
0.0
 11
183.3768191295423
 21
249.69683749589521
 31
0.0
  0
LINE
  5
5736
  8
AM_0
 10
183.3768191295423
 20
232.69683749589299
 30
0.0
 11
183.3768191295423
 21
208.19685149589361
 31
0.0
  0
LINE
  5
5737
  8
AM_0
 10
330.87681912954241
 20
321.19685249589361
 30
0.0
 11
330.87681912954241
 21
211.19685149589361
 31
0.0
  0
ARC
  5
5738
  8
AM_0
 10
370.87677912954251
 20
286.11425849589369
 30
0.0
 40
5.0000001000000003
 50
90.00000299999769
 51
180.00000999999941
  0
LINE
  5
5739
  8
AM_0
 10
373.87677912954263
 20
224.9642474958936
 30
0.0
 11
365.87682912954261
 21
224.9642474958936
 31
0.0
  0
ARC
  5
573A
  8
AM_0
 10
370.87677912954251
 20
208.1968214958936
 30
0.0
 40
5.0000001000000003
 50
180.00000999999941
 51
270.0
  0
ARC
  5
573B
  8
AM_0
 10
369.87681912954241
 20
193.1968214958936
 30
0.0
 40
1.0000000199999981
 50
0.0
 51
90.00000299999769
  0
LINE
  5
573C
  8
ﾁｭｳｼﾝｾﾝ
 10
319.52739912954218
 20
278.19683849589359
 30
0.0
 11
426.8077903597225
 21
278.19683849589359
 31
0.0
  0
LINE
  5
573D
  8
AM_0
 10
355.66251912954237
 20
285.53616449589367
 30
0.0
 11
343.87680912954249
 21
203.19680549589361
 31
0.0
  0
LINE
  5
573E
  8
AM_0
 10
343.87677912954263
 20
289.82769749589357
 30
0.0
 11
343.87677912954263
 21
203.19683549589359
 31
0.0
  0
LINE
  5
573F
  8
AM_0
 10
324.87681912954241
 20
203.19683549589359
 30
0.0
 11
324.87681912954241
 21
261.19683749589359
 31
0.0
  0
LINE
  5
5740
  8
AM_0
 10
365.87682912954261
 20
208.1968214958936
 30
0.0
 11
365.87682912954261
 21
286.11425849589369
 31
0.0
  0
LINE
  5
5741
  8
AM_0
 10
333.85629912954232
 20
237.02215349589369
 30
0.0
 11
330.18858912954249
 21
205.84627949589361
 31
0.0
  0
LINE
  5
5742
  8
AM_0
 10
297.37680912954249
 20
222.97379849589359
 30
0.0
 11
292.9347991295424
 21
206.3959334958937
 31
0.0
  0
LINE
  5
5743
  8
AM_0
 10
298.87680912954249
 20
205.19685149589361
 30
0.0
 11
306.8768191295423
 21
205.19685149589361
 31
0.0
  0
LINE
  5
5744
  8
AM_0
 10
293.41734912954229
 20
208.19685149589361
 30
0.0
 11
298.87680912954249
 21
208.19685149589361
 31
0.0
  0
ARC
  5
5745
  8
AM_0
 10
291.0029791295425
 20
206.91357149589359
 30
0.0
 40
2.00000007
 50
270.0
 51
345.00000000000091
  0
ARC
  5
5746
  8
AM_0
 10
323.3768191295423
 20
203.26426349589369
 30
0.0
 40
1.5000000299999989
 50
0.0
 51
88.499997000000747
  0
ARC
  5
5747
  8
AM_0
 10
327.20907912954237
 20
206.19683549589359
 30
0.0
 40
3.0
 50
270.0
 51
353.29016000000053
  0
ARC
  5
5748
  8
AM_0
 10
309.37680912954249
 20
201.69683549589359
 30
0.0
 40
1.5000000299999989
 50
90.00000299999769
 51
180.00000999999941
  0
LINE
  5
5749
  8
AM_0
 10
306.8768191295423
 20
205.1968214958936
 30
0.0
 11
323.41611912954238
 21
204.76372949589361
 31
0.0
  0
LINE
  5
574A
  8
AM_0
 10
327.20907912954237
 20
203.19683549589359
 30
0.0
 11
309.37680912954249
 21
203.19683549589359
 31
0.0
  0
LINE
  5
574B
  8
AM_0
 10
327.8768191295423
 20
193.1968214958936
 30
0.0
 11
327.8768191295423
 21
193.1968214958936
 31
0.0
  0
ARC
  5
574C
  8
AM_0
 10
328.87680912954249
 20
193.1968214958936
 30
0.0
 40
1.0000000199999981
 50
90.00000299999769
 51
180.00000999999941
  0
LINE
  5
574D
  8
AM_0
 10
307.87680912954249
 20
193.1968214958936
 30
0.0
 11
327.8768191295423
 21
193.1968214958936
 31
0.0
  0
LINE
  5
574E
  8
ｶｸﾚｾﾝ2
 10
322.87680912954249
 20
193.1968214958936
 30
0.0
 11
322.87680912954249
 21
203.19683549589359
 31
0.0
  0
LINE
  5
574F
  8
ｶｸﾚｾﾝ2
 10
312.8768191295423
 20
193.1968214958936
 30
0.0
 11
312.8768191295423
 21
203.19683549589359
 31
0.0
  0
LINE
  5
5750
  8
AM_0
 10
307.87680912954249
 20
193.1968214958936
 30
0.0
 11
307.87680912954249
 21
201.69683549589359
 31
0.0
  0
LINE
  5
5751
  8
AM_0
 10
328.87680912954249
 20
194.19683549589359
 30
0.0
 11
369.87681912954241
 21
194.19683549589359
 31
0.0
  0
LINE
  5
5752
  8
AM_0
 10
298.87680912954249
 20
293.13427649589357
 30
0.0
 11
306.8768191295423
 21
293.13427649589357
 31
0.0
  0
LINE
  5
5753
  8
AM_0
 10
298.87680912954249
 20
229.25939849589361
 30
0.0
 11
306.8768191295423
 21
229.25939849589361
 31
0.0
  0
LINE
  5
5754
  8
AM_0
 10
298.87680912954249
 20
215.19683549589359
 30
0.0
 11
306.8768191295423
 21
215.19683549589359
 31
0.0
  0
ARC
  5
5755
  8
AM_0
 10
295.69890912954241
 20
226.15167149589359
 30
0.0
 40
1.6779127499999991
 50
276.08620038402319
 51
83.913799615976814
  0
ARC
  5
5756
  8
AM_0
 10
345.87681912954241
 20
294.77530049589359
 30
0.0
 40
1.0000000199999981
 50
270.0
 51
0.0
  0
ARC
  5
5757
  8
AM_0
 10
360.61206912954242
 20
284.82769649589369
 30
0.0
 40
5.0000001000000003
 50
90.00000299999769
 51
171.85423999999969
  0
LINE
  5
5758
  8
AM_0
 10
341.87682912954261
 20
293.27529749589371
 30
0.0
 11
342.87681912954241
 21
293.27529749589371
 31
0.0
  0
ARC
  5
5759
  8
AM_0
 10
342.87681912954241
 20
290.03506349589361
 30
0.0
 40
1.0000000199999981
 50
179.99999000000059
 51
270.0
  0
LINE
  5
575A
  8
AM_0
 10
306.8768191295423
 20
293.13427649589357
 30
0.0
 11
315.87681912954241
 21
293.13427649589357
 31
0.0
  0
LINE
  5
575B
  8
AM_0
 10
315.87681912954241
 20
286.9795514958937
 30
0.0
 11
324.87681912954241
 21
286.9795514958937
 31
0.0
  0
ARC
  5
575C
  8
AM_0
 10
330.87681912954241
 20
237.3726944958936
 30
0.0
 40
3.0
 50
353.29016000000053
 51
0.0
  0
LINE
  5
575D
  8
AM_0
 10
333.8768191295423
 20
265.94766149589361
 30
0.0
 11
333.8768191295423
 21
237.3726944958936
 31
0.0
  0
ARC
  5
575E
  8
AM_0
 10
342.87681912954241
 20
288.0350654958936
 30
0.0
 40
1.0000000199999981
 50
0.0
 51
90.00000299999769
  0
LINE
  5
575F
  8
AM_0
 10
342.87681912954241
 20
293.77526849589361
 30
0.0
 11
345.87681912954241
 21
293.77526849589361
 31
0.0
  0
LINE
  5
5760
  8
AM_0
 10
343.87677912954263
 20
289.82769749589357
 30
0.0
 11
367.52859912954239
 21
289.82769749589357
 31
0.0
  0
LINE
  5
5761
  8
AM_0
 10
306.8768191295423
 20
229.25939849589361
 30
0.0
 11
324.87681912954241
 21
229.25939849589361
 31
0.0
  0
LINE
  5
5762
  8
AM_0
 10
306.8768191295423
 20
215.19683549589359
 30
0.0
 11
324.87681912954241
 21
215.19683549589359
 31
0.0
  0
ARC
  5
5763
  8
AM_0
 10
389.3768191295423
 20
201.69683549589359
 30
0.0
 40
1.5000000299999989
 50
0.0
 51
90.00000299999769
  0
ARC
  5
5764
  8
AM_0
 10
393.8768191295423
 20
206.38723349589361
 30
0.0
 40
5.0000001000000003
 50
179.99999000000059
 51
226.186930000003
  0
LINE
  5
5765
  8
AM_0
 10
390.87681912954241
 20
193.1968214958936
 30
0.0
 11
390.87681912954241
 21
201.69683549589359
 31
0.0
  0
LINE
  5
5766
  8
ｶｸﾚｾﾝ2
 10
385.87677912954263
 20
193.1968214958936
 30
0.0
 11
385.87677912954263
 21
203.19683549589359
 31
0.0
  0
LINE
  5
5767
  8
AM_0
 10
370.87677912954251
 20
193.1968214958936
 30
0.0
 11
370.87677912954251
 21
193.1968214958936
 31
0.0
  0
LINE
  5
5768
  8
ｶｸﾚｾﾝ2
 10
375.87681912954241
 20
193.1968214958936
 30
0.0
 11
375.87681912954241
 21
203.19683549589359
 31
0.0
  0
LINE
  5
5769
  8
AM_0
 10
370.87677912954251
 20
193.1968214958936
 30
0.0
 11
390.87681912954241
 21
193.1968214958936
 31
0.0
  0
LINE
  5
576A
  8
AM_0
 10
389.3768191295423
 20
203.19683549589359
 30
0.0
 11
370.87677912954251
 21
203.19683549589359
 31
0.0
  0
LINE
  5
576B
  8
AM_0
 10
398.87679912954252
 20
287.69683949589358
 30
0.0
 11
398.87679912954252
 21
290.19683749589359
 31
0.0
  0
LINE
  5
576C
  8
AM_0
 10
396.87679912954252
 20
287.69683949589358
 30
0.0
 11
420.87681912954241
 21
287.69683949589358
 31
0.0
  0
LINE
  5
576D
  8
AM_0
 10
398.87679912954252
 20
290.19683749589359
 30
0.0
 11
420.87681912954241
 21
290.19683749589359
 31
0.0
  0
ARC
  5
576E
  8
AM_0
 10
389.8768291295425
 20
257.17028549589361
 30
0.0
 40
1.0000000199999981
 50
90.001718873355244
 51
180.00000999999941
  0
LINE
  5
576F
  8
AM_0
 10
396.87679912954292
 20
268.69683749589359
 30
0.0
 11
420.87681912954241
 21
268.6968374958937
 31
0.0
  0
LINE
  5
5770
  8
AM_0
 10
420.87681912954241
 20
268.6968374958937
 30
0.0
 11
420.87681912954241
 21
290.19683749589359
 31
0.0
  0
LINE
  5
5771
  8
AM_0
 10
378.87681912954241
 20
291.11425649589358
 30
0.0
 11
370.87677912954251
 21
291.11425649589358
 31
0.0
  0
ARC
  5
5772
  8
AM_0
 10
373.87677912954263
 20
229.9642604958936
 30
0.0
 40
5.0000001000000003
 50
270.0
 51
0.0
  0
LINE
  5
5773
  8
AM_0
 10
330.87681912954241
 20
321.19682249589363
 30
0.0
 11
374.00769912954252
 21
320.06738249589358
 31
0.0
  0
LINE
  5
5774
  8
AM_0
 10
346.87677912954263
 20
304.71824249589361
 30
0.0
 11
373.87677912954263
 21
304.71824249589361
 31
0.0
  0
LINE
  5
5775
  8
AM_0
 10
298.87680912954249
 20
317.19683249589372
 30
0.0
 11
306.8768191295423
 21
317.19683249589372
 31
0.0
  0
LINE
  5
5776
  8
AM_0
 10
298.87680912954249
 20
307.19684249589358
 30
0.0
 11
306.8768191295423
 21
307.19684249589358
 31
0.0
  0
LINE
  5
5777
  8
AM_0
 10
293.41734912954229
 20
314.1968324958936
 30
0.0
 11
298.87680912954249
 21
314.1968324958936
 31
0.0
  0
ARC
  5
5778
  8
AM_0
 10
291.0029791295425
 20
315.48011249589359
 30
0.0
 40
2.00000007
 50
14.99999999999917
 51
90.00000299999769
  0
ARC
  5
5779
  8
AM_0
 10
298.52781912954248
 20
300.91985249589362
 30
0.0
 40
1.5000000299999989
 50
195.00000999999969
 51
270.0
  0
LINE
  5
577A
  8
AM_0
 10
297.07896912954237
 20
300.53165249589358
 30
0.0
 11
292.9347991295424
 21
315.99773249589362
 31
0.0
  0
ARC
  5
577B
  8
AM_0
 10
342.87681912954241
 20
309.41879249589363
 30
0.0
 40
1.0000000199999981
 50
90.00000299999769
 51
180.00000999999941
  0
ARC
  5
577C
  8
AM_0
 10
323.3768191295423
 20
319.12943249589358
 30
0.0
 40
1.5000000299999989
 50
271.49999999999608
 51
0.0
  0
ARC
  5
577D
  8
AM_0
 10
326.37681912954241
 20
319.5785024958937
 30
0.0
 40
1.5000000299999989
 50
91.500001000001546
 51
180.00000999999941
  0
LINE
  5
577E
  8
AM_0
 10
326.33757912954252
 20
321.07799249589368
 30
0.0
 11
330.87681912954241
 21
321.19688249589359
 31
0.0
  0
LINE
  5
577F
  8
AM_0
 10
306.8768191295423
 20
317.19683249589372
 30
0.0
 11
323.41605912954248
 21
317.62994249589372
 31
0.0
  0
LINE
  5
5780
  8
AM_0
 10
306.8768191295423
 20
307.19684249589358
 30
0.0
 11
324.87681912954241
 21
307.19684249589358
 31
0.0
  0
ARC
  5
5781
  8
AM_0
 10
342.87681912954241
 20
311.4188324958937
 30
0.0
 40
1.0000000199999981
 50
270.0
 51
0.0
  0
ARC
  5
5782
  8
AM_0
 10
345.87681912954241
 20
304.32233249589359
 30
0.0
 40
1.0000000199999981
 50
0.0
 51
90.00000299999769
  0
ARC
  5
5783
  8
AM_0
 10
345.87681912954241
 20
301.4355524958936
 30
0.0
 40
1.0000000199999981
 50
0.0
 51
90.00000299999769
  0
ARC
  5
5784
  8
AM_0
 10
345.87681912954241
 20
303.43553249589371
 30
0.0
 40
1.0000000199999981
 50
270.0
 51
0.0
  0
ARC
  5
5785
  8
AM_0
 10
345.87681912954241
 20
297.66206249589362
 30
0.0
 40
1.0000000199999981
 50
270.0
 51
0.0
  0
LINE
  5
5786
  8
AM_0
 10
341.87682912954261
 20
305.82230249589361
 30
0.0
 11
342.87681912954241
 21
305.82230249589361
 31
0.0
  0
LINE
  5
5787
  8
AM_0
 10
315.87681912954241
 20
305.19683249589372
 30
0.0
 11
324.87681912954241
 21
305.19683249589372
 31
0.0
  0
LINE
  5
5788
  8
AM_0
 10
315.87681912954241
 20
303.80369249589359
 30
0.0
 11
341.87682912954261
 21
303.80369249589359
 31
0.0
  0
LINE
  5
5789
  8
AM_0
 10
342.87681912954241
 20
302.43554249589363
 30
0.0
 11
345.87681912954241
 21
302.43554249589363
 31
0.0
  0
LINE
  5
578A
  8
AM_0
 10
342.87681912954241
 20
296.66201849589368
 30
0.0
 11
345.87681912954241
 21
296.66201849589368
 31
0.0
  0
LINE
  5
578B
  8
AM_0
 10
342.87681912954241
 20
305.32229249589358
 30
0.0
 11
345.87681912954241
 21
305.32229249589358
 31
0.0
  0
LINE
  5
578C
  8
AM_0
 10
356.27682912954231
 20
304.71824249589361
 30
0.0
 11
343.8768691295424
 21
320.85641249589361
 31
0.0
  0
LINE
  5
578D
  8
AM_0
 10
343.87677912954263
 20
320.7516824958937
 30
0.0
 11
343.87677912954263
 21
305.32229249589358
 31
0.0
  0
LINE
  5
578E
  8
AM_0
 10
324.87681912954241
 20
319.5785024958937
 30
0.0
 11
324.87681912954241
 21
305.19683249589372
 31
0.0
  0
ARC
  5
578F
  8
AM_0
 10
389.8768291295425
 20
299.22335249589361
 30
0.0
 40
1.0000000199999981
 50
179.99999000000059
 51
269.99828112664488
  0
ARC
  5
5790
  8
AM_0
 10
386.87682912954261
 20
306.19685249589361
 30
0.0
 40
2.00000007
 50
0.0
 51
90.00000299999769
  0
ARC
  5
5791
  8
AM_0
 10
373.87677912954263
 20
315.06914249589357
 30
0.0
 40
5.0000001000000003
 50
0.0
 51
88.499997000000747
  0
ARC
  5
5792
  8
AM_0
 10
373.87677912954263
 20
299.71823249589357
 30
0.0
 40
5.0000001000000003
 50
0.0
 51
90.00000299999769
  0
ARC
  5
5793
  8
AM_0
 10
383.8768291295425
 20
313.19681249589371
 30
0.0
 40
5.0000001000000003
 50
180.00000999999941
 51
270.0
  0
LINE
  5
5794
  8
AM_0
 10
383.8768291295425
 20
308.1968324958936
 30
0.0
 11
386.87682912954261
 21
308.1968324958936
 31
0.0
  0
LINE
  5
5795
  8
AM_0
 10
684.21392867895031
 20
296.66204849589371
 30
0.0
 11
689.21392967895031
 21
293.77529849589371
 31
0.0
  0
CIRCLE
  5
5796
  8
AM_0
 10
689.21392967895031
 20
299.54879249589362
 30
0.0
 40
4.9999998000000003
  0
LINE
  5
5797
  8
AM_0
 10
689.21394467895016
 20
293.77529849589371
 30
0.0
 11
694.21394567895015
 21
296.66204849589371
 31
0.0
  0
ARC
  5
5798
  8
AM_0
 10
690.80064467895033
 20
300.7663124958936
 30
0.0
 40
11.000000399999999
 50
149.8422100000013
 51
285.1636500000007
  0
LINE
  5
5799
  8
AM_0
 10
584.25141767895025
 20
296.66204849589371
 30
0.0
 11
589.25141567895025
 21
293.77529849589371
 31
0.0
  0
LINE
  5
579A
  8
AM_0
 10
589.25141567895025
 20
293.77532849589358
 30
0.0
 11
594.25141667895036
 21
296.66207849589358
 31
0.0
  0
CIRCLE
  5
579B
  8
AM_0
 10
589.25141567895025
 20
299.54879249589362
 30
0.0
 40
4.9999998000000003
  0
ARC
  5
579C
  8
AM_0
 10
587.6647156789503
 20
300.7663124958936
 30
0.0
 40
11.000000399999999
 50
254.8363599999997
 51
30.157795000002519
  0
ARC
  5
579D
  8
AM_0
 10
679.23268067895015
 20
291.1968374958937
 30
0.0
 40
20.000000700000001
 50
6.402379800000273
 51
61.92751500000066
  0
ARC
  5
579E
  8
AM_0
 10
639.23268167895037
 20
265.69683749589359
 30
0.0
 40
42.500000999999997
 50
0.0
 51
180.00000999999941
  0
LINE
  5
579F
  8
ﾁｭｳｼﾝｾﾝ
 10
639.23268167895037
 20
190.12616168525119
 30
0.0
 11
639.23268167895037
 21
370.35744289638211
 31
0.0
  0
LINE
  5
57A0
  8
AM_0
 10
573.23268167895037
 20
238.84425344174181
 30
0.0
 11
573.23268167895037
 21
291.1968374958937
 31
0.0
  0
ARC
  5
57A1
  8
AM_0
 10
599.23267967895015
 20
291.1968374958937
 30
0.0
 40
20.000000700000001
 50
118.0724799999965
 51
173.59761999999901
  0
LINE
  5
57A2
  8
AM_0
 10
669.23268167895037
 20
212.6968214958936
 30
0.0
 11
609.23267867895015
 21
212.6968214958936
 31
0.0
  0
LINE
  5
57A3
  8
AM_0
 10
678.23268167895026
 20
194.19683549589359
 30
0.0
 11
639.23268167895037
 21
194.19683549589359
 31
0.0
  0
LINE
  5
57A4
  8
ﾁｭｳｼﾝｾﾝ
 10
705.4760012153439
 20
261.19683749589359
 30
0.0
 11
522.06392301980964
 21
261.19683749589359
 31
0.0
  0
ARC
  5
57A5
  8
AM_0
 10
648.21877967895023
 20
209.6968214958936
 30
0.0
 40
3.0
 50
90.00000299999769
 51
183.18473999999989
  0
ARC
  5
57A6
  8
AM_0
 10
630.24656567895022
 20
209.6968214958936
 30
0.0
 40
3.0
 50
356.81526000000008
 51
90.00000299999769
  0
ARC
  5
57A7
  8
AM_0
 10
639.23268167895037
 20
209.19683549589359
 30
0.0
 40
6.0000002999999991
 50
176.81526999999909
 51
3.1847359999998139
  0
ARC
  5
57A8
  8
AM_0
 10
609.23267867895015
 20
207.69683549589359
 30
0.0
 40
5.0000001000000003
 50
90.00000299999769
 51
180.00000999999941
  0
LINE
  5
57A9
  8
AM_0
 10
596.73268067895015
 20
265.69683749589359
 30
0.0
 11
596.73268067895015
 21
206.19683549589359
 31
0.0
  0
LINE
  5
57AA
  8
AM_0
 10
569.23268267895025
 20
203.1968204958936
 30
0.0
 11
579.35741267895025
 21
293.42700149589359
 31
0.0
  0
LINE
  5
57AB
  8
AM_0
 10
569.23271267895029
 20
203.19680549589361
 30
0.0
 11
579.98036267895009
 21
270.63928049589367
 31
0.0
  0
ARC
  5
57AC
  8
AM_0
 10
601.23268067895015
 20
198.69683549589359
 30
0.0
 40
3.0
 50
270.0
 51
0.0
  0
LINE
  5
57AD
  8
AM_0
 10
600.23267867895015
 20
194.19683549589359
 30
0.0
 11
639.23268167895037
 21
194.19683549589359
 31
0.0
  0
ARC
  5
57AE
  8
AM_0
 10
593.73267767895015
 20
206.19683549589359
 30
0.0
 40
3.0
 50
270.0
 51
0.0
  0
LINE
  5
57AF
  8
AM_0
 10
570.73298267900839
 20
203.19683549589359
 30
0.0
 11
597.23267867895015
 21
203.19683549589359
 31
0.0
  0
ARC
  5
57B0
  8
AM_0
 10
600.23267867895015
 20
194.6968214958936
 30
0.0
 40
1.0000000199999981
 50
90.00000299999769
 51
180.00000999999941
  0
ARC
  5
57B1
  8
AM_0
 10
600.23267867895015
 20
193.1968214958936
 30
0.0
 40
1.0000000199999981
 50
90.00000299999769
 51
180.00000999999941
  0
LINE
  5
57B2
  8
AM_0
 10
599.23267967895015
 20
201.1968344958936
 30
0.0
 11
599.23267967895015
 21
193.1968214958936
 31
0.0
  0
LINE
  5
57B3
  8
AM_0
 10
600.23267867895015
 20
195.69683549589359
 30
0.0
 11
601.23268067895015
 21
195.69683549589359
 31
0.0
  0
ARC
  5
57B4
  8
AM_0
 10
597.23267867895015
 20
201.1968344958936
 30
0.0
 40
2.00000007
 50
0.0
 51
90.00000299999769
  0
LINE
  5
57B5
  8
ｶｸﾚｾﾝ2
 10
586.73267867895015
 20
203.19683549589359
 30
0.0
 11
586.73267867895015
 21
193.1968214958936
 31
0.0
  0
ARC
  5
57B6
  8
AM_0
 10
570.73268267895025
 20
201.69683549589359
 30
0.0
 40
1.5000000299999989
 50
90.00000299999769
 51
180.00000999999941
  0
LINE
  5
57B7
  8
ｶｸﾚｾﾝ2
 10
576.73268267895037
 20
203.19683549589359
 30
0.0
 11
576.73268267895037
 21
193.1968214958936
 31
0.0
  0
LINE
  5
57B8
  8
AM_0
 10
569.23268267895025
 20
203.19683549589359
 30
0.0
 11
569.23268267895025
 21
193.1968214958936
 31
0.0
  0
LINE
  5
57B9
  8
AM_0
 10
569.23268267895025
 20
193.1968214958936
 30
0.0
 11
599.23267967895015
 21
193.1968214958936
 31
0.0
  0
LINE
  5
57BA
  8
AM_0
 10
668.34173567895039
 20
205.87916249589361
 30
0.0
 11
663.34173467895005
 21
208.76591249589359
 31
0.0
  0
LINE
  5
57BB
  8
AM_0
 10
663.34173467895005
 20
197.21891549589361
 30
0.0
 11
668.34175067895023
 21
200.1056654958937
 31
0.0
  0
LINE
  5
57BC
  8
AM_0
 10
668.34173567895039
 20
200.1056654958937
 30
0.0
 11
668.34173567895039
 21
205.87919249589359
 31
0.0
  0
LINE
  5
57BD
  8
AM_0
 10
658.34172167894997
 20
205.87919249589359
 30
0.0
 11
658.34172167894997
 21
200.1056654958937
 31
0.0
  0
LINE
  5
57BE
  8
AM_0
 10
620.12360867894995
 20
205.87916249589361
 30
0.0
 11
615.1236106789504
 21
208.76591249589359
 31
0.0
  0
LINE
  5
57BF
  8
AM_0
 10
615.12364067895032
 20
208.76591249589359
 30
0.0
 11
610.12363967895033
 21
205.87916249589361
 31
0.0
  0
LINE
  5
57C0
  8
AM_0
 10
615.12364067895032
 20
197.21891549589361
 30
0.0
 11
620.12364167895032
 21
200.1056654958937
 31
0.0
  0
LINE
  5
57C1
  8
AM_0
 10
610.12360967895006
 20
200.1056654958937
 30
0.0
 11
615.1236106789504
 21
197.21891549589361
 31
0.0
  0
LINE
  5
57C2
  8
AM_0
 10
620.12360867894995
 20
200.1056654958937
 30
0.0
 11
620.12360867894995
 21
205.87919249589359
 31
0.0
  0
LINE
  5
57C3
  8
AM_0
 10
604.23268067895015
 20
207.69683549589359
 30
0.0
 11
604.23268067895015
 21
198.69683549589359
 31
0.0
  0
LINE
  5
57C4
  8
AM_0
 10
610.12363967895033
 20
205.87919249589359
 30
0.0
 11
610.12363967895033
 21
200.1056654958937
 31
0.0
  0
CIRCLE
  5
57C5
  8
AM_0
 10
615.1236106789504
 20
202.99244549589369
 30
0.0
 40
4.9999998000000003
  0
CIRCLE
  5
57C6
  8
AM_0
 10
663.34173467895005
 20
202.99244549589369
 30
0.0
 40
4.9999998000000003
  0
LINE
  5
57C7
  8
AM_0
 10
658.34173667895016
 20
200.1056654958937
 30
0.0
 11
663.34173467895005
 21
197.21891549589361
 31
0.0
  0
LINE
  5
57C8
  8
AM_0
 10
663.34174967895035
 20
208.76592749589369
 30
0.0
 11
658.34173667895016
 21
205.8791774958936
 31
0.0
  0
ARC
  5
57C9
  8
AM_0
 10
588.29673467894997
 20
286.78057949589362
 30
0.0
 40
3.0
 50
92.587449000000944
 51
153.33085000000079
  0
ARC
  5
57CA
  8
AM_0
 10
592.23267767895015
 20
285.43225049589358
 30
0.0
 40
5.0000001000000003
 50
106.5886100000033
 51
180.00000999999941
  0
LINE
  5
57CB
  8
AM_0
 10
587.23267967895015
 20
285.43225049589358
 30
0.0
 11
587.23267967895015
 21
243.1968374958937
 31
0.0
  0
ARC
  5
57CC
  8
AM_0
 10
619.23268067895015
 20
243.1968374958937
 30
0.0
 40
32.000000999999997
 50
179.99999000000059
 51
225.32174000000001
  0
LINE
  5
57CD
  8
AM_0
 10
579.10715267895023
 20
291.1968374958937
 30
0.0
 11
571.23268167895026
 21
291.1968374958937
 31
0.0
  0
ARC
  5
57CE
  8
AM_0
 10
639.23268167895037
 20
261.19683749589359
 30
0.0
 40
60.000002999999992
 50
171.12478999999959
 51
172.44926000000061
  0
ARC
  5
57CF
  8
AM_0
 10
583.47950567894998
 20
285.32339549589369
 30
0.0
 40
5.0000001000000003
 50
74.836353999996945
 51
173.59761999999901
  0
ARC
  5
57D0
  8
AM_0
 10
639.23268167895037
 20
261.19683749589359
 30
0.0
 40
60.000002999999992
 50
153.33085000000079
 51
170.94546000000039
  0
LINE
  5
57D1
  8
AM_0
 10
642.23268167895026
 20
284.19683849589359
 30
0.0
 11
642.23268167895026
 21
290.19683849589359
 31
0.0
  0
CIRCLE
  5
57D2
  8
AM_0
 10
639.23268167895037
 20
278.19683849589359
 30
0.0
 40
2.4999998400000001
  0
LINE
  5
57D3
  8
AM_0
 10
636.23268167895026
 20
290.19683849589359
 30
0.0
 11
636.23268167895026
 21
284.19683849589359
 31
0.0
  0
LINE
  5
57D4
  8
AM_0
 10
636.23268167895026
 20
284.19683849589359
 30
0.0
 11
642.23268167895026
 21
284.19683849589359
 31
0.0
  0
LINE
  5
57D5
  8
AM_0
 10
642.23268167895026
 20
290.19683849589359
 30
0.0
 11
636.23268167895026
 21
290.19683849589359
 31
0.0
  0
CIRCLE
  5
57D6
  8
AM_4
 10
639.23268167895037
 20
278.19683849589359
 30
0.0
 40
3.0
  0
ARC
  5
57D7
  8
AM_0
 10
639.23268167895037
 20
278.19683849589359
 30
0.0
 40
9.5000003999999993
 50
108.40848
 51
71.591512000000776
  0
LINE
  5
57D8
  8
ﾁｭｳｼﾝｾﾝ
 10
596.25586572859265
 20
278.19683849589359
 30
0.0
 11
682.20949762930798
 21
278.19683849589359
 31
0.0
  0
ARC
  5
57D9
  8
AM_0
 10
669.23268167895037
 20
207.69683549589359
 30
0.0
 40
5.0000001000000003
 50
0.0
 51
90.00000299999769
  0
LINE
  5
57DA
  8
AM_0
 10
709.2326686789504
 20
203.1968204958936
 30
0.0
 11
699.1079416789504
 21
293.42703149589357
 31
0.0
  0
LINE
  5
57DB
  8
AM_0
 10
709.23268367895025
 20
203.19680549589361
 30
0.0
 11
698.48501567895016
 21
270.63928049589367
 31
0.0
  0
LINE
  5
57DC
  8
AM_0
 10
681.73266767894995
 20
265.69683749589359
 30
0.0
 11
681.73266767894995
 21
206.19683549589359
 31
0.0
  0
ARC
  5
57DD
  8
AM_0
 10
707.73268367895025
 20
201.69683549589359
 30
0.0
 40
1.5000000299999989
 50
0.0
 51
90.00000299999769
  0
LINE
  5
57DE
  8
AM_0
 10
709.23268367895025
 20
203.19683549589359
 30
0.0
 11
709.23268367895025
 21
193.1968214958936
 31
0.0
  0
ARC
  5
57DF
  8
AM_0
 10
684.73266767894995
 20
206.19683549589359
 30
0.0
 40
3.0
 50
179.99999000000059
 51
270.0
  0
LINE
  5
57E0
  8
AM_0
 10
707.73238367894737
 20
203.19683549589359
 30
0.0
 11
681.23268167895037
 21
203.19683549589359
 31
0.0
  0
ARC
  5
57E1
  8
AM_0
 10
678.23268167895026
 20
194.6968214958936
 30
0.0
 40
1.0000000199999981
 50
0.0
 51
90.00000299999769
  0
ARC
  5
57E2
  8
AM_0
 10
678.23268167895026
 20
193.1968214958936
 30
0.0
 40
1.0000000199999981
 50
0.0
 51
90.00000299999769
  0
LINE
  5
57E3
  8
AM_0
 10
678.23268167895026
 20
195.69683549589359
 30
0.0
 11
677.23266767894995
 21
195.69683549589359
 31
0.0
  0
LINE
  5
57E4
  8
AM_0
 10
679.23268067895015
 20
193.1968214958936
 30
0.0
 11
679.23268067895015
 21
201.1968344958936
 31
0.0
  0
ARC
  5
57E5
  8
AM_0
 10
677.23266767894995
 20
198.69683549589359
 30
0.0
 40
3.0
 50
179.99999000000059
 51
270.0
  0
LINE
  5
57E6
  8
ﾁｭｳｼﾝｾﾝ1
 10
696.73266767895007
 20
208.19683549589371
 30
0.0
 11
696.73266767895007
 21
188.1968214958936
 31
0.0
  0
LINE
  5
57E7
  8
ｶｸﾚｾﾝ2
 10
691.73268167895014
 20
203.19683549589359
 30
0.0
 11
691.73268167895014
 21
193.1968214958936
 31
0.0
  0
LINE
  5
57E8
  8
ｶｸﾚｾﾝ2
 10
701.73268367895037
 20
203.19683549589359
 30
0.0
 11
701.73268367895037
 21
193.1968214958936
 31
0.0
  0
ARC
  5
57E9
  8
AM_0
 10
681.23268167895037
 20
201.1968344958936
 30
0.0
 40
2.00000007
 50
90.00000299999769
 51
180.00000999999941
  0
LINE
  5
57EA
  8
AM_0
 10
674.23266767895007
 20
207.69683549589359
 30
0.0
 11
674.23266767895007
 21
198.69683549589359
 31
0.0
  0
LINE
  5
57EB
  8
AM_0
 10
709.23268367895025
 20
193.1968214958936
 30
0.0
 11
679.23268067895015
 21
193.1968214958936
 31
0.0
  0
ARC
  5
57EC
  8
AM_0
 10
694.98587267895039
 20
285.32339549589369
 30
0.0
 40
5.0000001000000003
 50
6.402379800000273
 51
105.1636400000003
  0
ARC
  5
57ED
  8
AM_0
 10
686.23266767894995
 20
285.43225049589358
 30
0.0
 40
5.0000001000000003
 50
0.0
 51
73.411385000001786
  0
ARC
  5
57EE
  8
AM_0
 10
690.16864067895006
 20
286.78057949589362
 30
0.0
 40
3.0
 50
26.66915699999943
 51
87.412549000002571
  0
LINE
  5
57EF
  8
AM_0
 10
691.23268067895015
 20
285.43225049589358
 30
0.0
 11
691.23268067895015
 21
243.1968374958937
 31
0.0
  0
ARC
  5
57F0
  8
AM_0
 10
639.23268167895037
 20
261.19683749589359
 30
0.0
 40
60.000002999999992
 50
9.0545419000001583
 51
26.66915699999943
  0
ARC
  5
57F1
  8
AM_0
 10
659.23266467894996
 20
243.1968374958937
 30
0.0
 40
32.000000999999997
 50
314.67826000000002
 51
0.0
  0
ARC
  5
57F2
  8
AM_0
 10
639.23268167895037
 20
216.1968344958936
 30
0.0
 40
105.00000300000001
 50
61.92751500000066
 51
118.0724799999965
  0
ARC
  5
57F3
  8
AM_0
 10
639.23268167895037
 20
261.19683749589359
 30
0.0
 40
60.000002999999992
 50
48.330844999998341
 51
131.66914999999699
  0
ARC
  5
57F4
  8
AM_0
 10
601.33747667895034
 20
303.7756124958936
 30
0.0
 40
3.0
 50
131.66914999999699
 51
192.41255000000001
  0
LINE
  5
57F5
  8
AM_0
 10
594.25141667895036
 20
296.66204849589371
 30
0.0
 11
594.25141667895036
 21
302.43554249589363
 31
0.0
  0
LINE
  5
57F6
  8
AM_0
 10
584.25141767895025
 20
302.43554249589363
 30
0.0
 11
584.25141767895025
 21
296.66204849589371
 31
0.0
  0
LINE
  5
57F7
  8
AM_0
 10
589.25141567895025
 20
305.32232249589367
 30
0.0
 11
584.25141767895025
 21
302.43557249589361
 31
0.0
  0
LINE
  5
57F8
  8
AM_0
 10
594.25138667895033
 20
302.43554249589363
 30
0.0
 11
589.25141567895025
 21
305.32229249589358
 31
0.0
  0
ARC
  5
57F9
  8
AM_0
 10
601.49903567895035
 20
308.80448249589358
 30
0.0
 40
5.0000001000000003
 50
112.1688000000035
 51
210.1577899999985
  0
LINE
  5
57FA
  8
AM_0
 10
663.73269767895033
 20
318.29849249589358
 30
0.0
 11
663.73269767895033
 21
320.2647824958936
 31
0.0
  0
LINE
  5
57FB
  8
AM_0
 10
653.73268067895015
 20
320.19080249589371
 30
0.0
 11
653.73268067895015
 21
322.24586249589362
 31
0.0
  0
LINE
  5
57FC
  8
AM_0
 10
643.73268167895037
 20
321.02786249589371
 30
0.0
 11
643.73268167895037
 21
323.19683249589372
 31
0.0
  0
LINE
  5
57FD
  8
AM_0
 10
634.73268167895037
 20
321.02786249589371
 30
0.0
 11
634.73268167895037
 21
323.19683249589372
 31
0.0
  0
LINE
  5
57FE
  8
AM_0
 10
624.73267967895015
 20
320.19080249589371
 30
0.0
 11
624.73267967895015
 21
322.24586249589362
 31
0.0
  0
LINE
  5
57FF
  8
AM_0
 10
614.73268067895015
 20
318.29849249589358
 30
0.0
 11
614.73268067895015
 21
320.2647824958936
 31
0.0
  0
LINE
  5
5800
  8
AM_0
 10
604.73267867895015
 20
315.36713249589371
 30
0.0
 11
604.73267867895015
 21
317.18873249589359
 31
0.0
  0
LINE
  5
5801
  8
AM_0
 10
673.73268167895026
 20
315.36713249589371
 30
0.0
 11
673.73268167895026
 21
317.18873249589359
 31
0.0
  0
LINE
  5
5802
  8
AM_0
 10
694.21394567895015
 20
296.66204849589371
 30
0.0
 11
694.21394567895015
 21
302.43554249589363
 31
0.0
  0
LINE
  5
5803
  8
AM_0
 10
689.21394467895016
 20
305.32229249589358
 30
0.0
 11
684.21394367895005
 21
302.43554249589363
 31
0.0
  0
LINE
  5
5804
  8
AM_0
 10
684.21392867895031
 20
302.43554249589363
 30
0.0
 11
684.21392867895031
 21
296.66204849589371
 31
0.0
  0
LINE
  5
5805
  8
AM_0
 10
694.2139276789502
 20
302.43554249589363
 30
0.0
 11
689.21392967895031
 21
305.32229249589358
 31
0.0
  0
ARC
  5
5806
  8
AM_0
 10
677.1278836789503
 20
303.7756124958936
 30
0.0
 40
3.0
 50
347.58744999999982
 51
48.330844999998341
  0
ARC
  5
5807
  8
AM_0
 10
676.96632467895029
 20
308.80448249589358
 30
0.0
 40
5.0000001000000003
 50
329.84219999999971
 51
67.831202999998027
  0
LINE
  5
5808
  8
AM_0
 10
291.87680912954261
 20
215.19683749589359
 30
0.0
 11
203.87680912954249
 21
215.19683749589359
 31
0.0
  0
ARC
  5
5809
  8
AM_0
 10
221.94787694140791
 20
220.19683749589359
 30
0.0
 40
5.0
 50
225.0
 51
270.0
1001
GENIUS_GENOBJ-N-FIL_13
1002
{
1000
OWNER
1000
GEN
1002
}
1001
GENIUS_GENODEF_13
1002
{
1000
HIER
1070
     0
1002
}
1002
{
1000
MANEDIT
1070
     0
1002
}
1002
{
1000
NOSEL
1070
     0
1002
}
1002
{
1000
BEHIND
1070
     0
1002
}
1002
{
1000
OTHER
1070
     0
1002
}
1002
{
1000
REACTOR
1002
}
  0
LINE
  5
580A
  8
AM_0
 10
273.14888706818482
 20
220.19683749589359
 30
0.0
 11
222.6047311909002
 21
220.19683749589359
 31
0.0
  0
ARC
  5
580B
  8
AM_0
 10
273.14888706818482
 20
225.19683749589359
 30
0.0
 40
5.0
 50
270.0
 51
315.0
1001
GENIUS_GENOBJ-N-FIL_13
1002
{
1000
OWNER
1000
GEN
1002
}
1001
GENIUS_GENODEF_13
1002
{
1000
HIER
1070
     0
1002
}
1002
{
1000
MANEDIT
1070
     0
1002
}
1002
{
1000
NOSEL
1070
     0
1002
}
1002
{
1000
BEHIND
1070
     0
1002
}
1002
{
1000
OTHER
1070
     0
1002
}
1002
{
1000
REACTOR
1002
}
  0
ARC
  5
580C
  8
AM_0
 10
291.87680912954261
 20
219.19683749589359
 30
0.0
 40
4.0
 50
270.0
 51
0.0
1001
GENIUS_GENOBJ-N-FIL_13
1002
{
1000
OWNER
1000
GEN
1002
}
1001
GENIUS_GENODEF_13
1002
{
1000
HIER
1070
     0
1002
}
1002
{
1000
MANEDIT
1070
     0
1002
}
1002
{
1000
NOSEL
1070
     0
1002
}
1002
{
1000
BEHIND
1070
     0
1002
}
1002
{
1000
OTHER
1070
     0
1002
}
1002
{
1000
REACTOR
1002
}
  0
LINE
  5
580D
  8
AM_0
 10
291.87680912954238
 20
307.19683749589382
 30
0.0
 11
203.87680912954249
 21
307.19683749589359
 31
0.0
  0
ARC
  5
580E
  8
AM_0
 10
273.80574131767702
 20
302.19683749589382
 30
0.0
 40
5.0
 50
45.0
 51
90.0
1001
GENIUS_GENOBJ-N-FIL_13
1002
{
1000
OWNER
1000
GEN
1002
}
1001
GENIUS_GENODEF_13
1002
{
1000
HIER
1070
     0
1002
}
1002
{
1000
MANEDIT
1070
     0
1002
}
1002
{
1000
NOSEL
1070
     0
1002
}
1002
{
1000
BEHIND
1070
     0
1002
}
1002
{
1000
OTHER
1070
     0
1002
}
1002
{
1000
REACTOR
1002
}
  0
ARC
  5
580F
  8
AM_0
 10
221.94787694140811
 20
302.19683749589382
 30
0.0
 40
5.0
 50
90.0
 51
135.0
1001
GENIUS_GENODEF_13
1002
{
1000
HIER
1070
     0
1002
}
1002
{
1000
MANEDIT
1070
     0
1002
}
1002
{
1000
NOSEL
1070
     0
1002
}
1002
{
1000
BEHIND
1070
     0
1002
}
1002
{
1000
OTHER
1070
     0
1002
}
1002
{
1000
REACTOR
1002
}
1001
GENIUS_GENOBJ-N-FIL_13
1002
{
1000
OWNER
1000
GEN
1002
}
  0
LINE
  5
5810
  8
AM_0
 10
273.14888706818448
 20
302.19683749589359
 30
0.0
 11
222.6047311909004
 21
302.19683749589382
 31
0.0
  0
ARC
  5
5811
  8
AM_0
 10
222.6047311909004
 20
297.19683749589382
 30
0.0
 40
5.0
 50
90.0
 51
135.0
1001
GENIUS_GENODEF_13
1002
{
1000
HIER
1070
     0
1002
}
1002
{
1000
MANEDIT
1070
     0
1002
}
1002
{
1000
NOSEL
1070
     0
1002
}
1002
{
1000
BEHIND
1070
     0
1002
}
1002
{
1000
OTHER
1070
     0
1002
}
1002
{
1000
REACTOR
1002
}
1001
GENIUS_GENOBJ-N-FIL_13
1002
{
1000
OWNER
1000
GEN
1002
}
  0
ARC
  5
5812
  8
AM_0
 10
203.87680912954249
 20
303.19683749589359
 30
0.0
 40
4.0
 50
90.0
 51
180.0
1001
GENIUS_GENODEF_13
1002
{
1000
HIER
1070
     0
1002
}
1002
{
1000
MANEDIT
1070
     0
1002
}
1002
{
1000
NOSEL
1070
     0
1002
}
1002
{
1000
BEHIND
1070
     0
1002
}
1002
{
1000
OTHER
1070
     0
1002
}
1002
{
1000
REACTOR
1002
}
1001
GENIUS_GENOBJ-N-FIL_13
1002
{
1000
OWNER
1000
GEN
1002
}
  0
LINE
  5
5813
  8
AM_0
 10
199.87680912954241
 20
303.19683749589359
 30
0.0
 11
199.87680912954241
 21
219.19683749589359
 31
0.0
  0
ARC
  5
5814
  8
AM_0
 10
204.87680912954241
 20
237.26790530775881
 30
0.0
 40
5.0
 50
180.0
 51
225.0
1001
GENIUS_GENOBJ-N-FIL_13
1002
{
1000
OWNER
1000
GEN
1002
}
1001
GENIUS_GENODEF_13
1002
{
1000
HIER
1070
     0
1002
}
1002
{
1000
MANEDIT
1070
     0
1002
}
1002
{
1000
NOSEL
1070
     0
1002
}
1002
{
1000
BEHIND
1070
     0
1002
}
1002
{
1000
OTHER
1070
     0
1002
}
1002
{
1000
REACTOR
1002
}
  0
ARC
  5
5815
  8
AM_0
 10
204.87680912954241
 20
285.12576968402851
 30
0.0
 40
5.0
 50
135.0
 51
180.0
1001
GENIUS_GENOBJ-N-FIL_13
1002
{
1000
OWNER
1000
GEN
1002
}
1001
GENIUS_GENODEF_13
1002
{
1000
HIER
1070
     0
1002
}
1002
{
1000
MANEDIT
1070
     0
1002
}
1002
{
1000
NOSEL
1070
     0
1002
}
1002
{
1000
BEHIND
1070
     0
1002
}
1002
{
1000
OTHER
1070
     0
1002
}
1002
{
1000
REACTOR
1002
}
  0
LINE
  5
5816
  8
AM_0
 10
204.87680912954241
 20
284.4689154345358
 30
0.0
 11
204.87680912954241
 21
237.92475955725121
 31
0.0
  0
ARC
  5
5817
  8
AM_0
 10
209.87680912954241
 20
237.92475955725121
 30
0.0
 40
5.0
 50
180.0
 51
225.0
1001
GENIUS_GENOBJ-N-FIL_13
1002
{
1000
OWNER
1000
GEN
1002
}
1001
GENIUS_GENODEF_13
1002
{
1000
HIER
1070
     0
1002
}
1002
{
1000
MANEDIT
1070
     0
1002
}
1002
{
1000
NOSEL
1070
     0
1002
}
1002
{
1000
BEHIND
1070
     0
1002
}
1002
{
1000
OTHER
1070
     0
1002
}
1002
{
1000
REACTOR
1002
}
  0
ARC
  5
5818
  8
AM_0
 10
203.87680912954249
 20
219.19683749589359
 30
0.0
 40
4.0
 50
180.0
 51
270.0
1001
GENIUS_GENODEF_13
1002
{
1000
HIER
1070
     0
1002
}
1002
{
1000
MANEDIT
1070
     0
1002
}
1002
{
1000
NOSEL
1070
     0
1002
}
1002
{
1000
BEHIND
1070
     0
1002
}
1002
{
1000
OTHER
1070
     0
1002
}
1002
{
1000
REACTOR
1002
}
1001
GENIUS_GENOBJ-N-FIL_13
1002
{
1000
OWNER
1000
GEN
1002
}
  0
LINE
  5
5819
  8
AM_0
 10
295.87680912954249
 20
303.19683749589382
 30
0.0
 11
295.87680912954272
 21
219.19683749589359
 31
0.0
  0
ARC
  5
581A
  8
AM_0
 10
290.87680912954261
 20
285.12576968402823
 30
0.0
 40
5.0
 50
0.0
 51
45.0
1001
GENIUS_GENOBJ-N-FIL_13
1002
{
1000
OWNER
1000
GEN
1002
}
1001
GENIUS_GENODEF_13
1002
{
1000
HIER
1070
     0
1002
}
1002
{
1000
MANEDIT
1070
     0
1002
}
1002
{
1000
NOSEL
1070
     0
1002
}
1002
{
1000
BEHIND
1070
     0
1002
}
1002
{
1000
OTHER
1070
     0
1002
}
1002
{
1000
REACTOR
1002
}
  0
ARC
  5
581B
  8
AM_0
 10
290.87680912954261
 20
237.26790530775901
 30
0.0
 40
5.0
 50
315.0
 51
0.0
1001
GENIUS_GENOBJ-N-FIL_13
1002
{
1000
OWNER
1000
GEN
1002
}
1001
GENIUS_GENODEF_13
1002
{
1000
HIER
1070
     0
1002
}
1002
{
1000
MANEDIT
1070
     0
1002
}
1002
{
1000
NOSEL
1070
     0
1002
}
1002
{
1000
BEHIND
1070
     0
1002
}
1002
{
1000
OTHER
1070
     0
1002
}
1002
{
1000
REACTOR
1002
}
  0
LINE
  5
581C
  8
AM_0
 10
277.34127522360973
 20
305.73237140182653
 30
0.0
 11
294.4123430354752
 21
288.66130358996099
 31
0.0
  0
LINE
  5
581D
  8
AM_0
 10
276.6844209741173
 20
300.73237140182641
 30
0.0
 11
289.41234303547509
 21
288.00444934046891
 31
0.0
  0
ARC
  5
581E
  8
AM_0
 10
273.14888706818448
 20
297.1968374958937
 30
0.0
 40
5.0
 50
45.0
 51
90.0
1001
GENIUS_GENOBJ-N-FIL_13
1002
{
1000
OWNER
1000
GEN
1002
}
1001
GENIUS_GENODEF_13
1002
{
1000
HIER
1070
     0
1002
}
1002
{
1000
MANEDIT
1070
     0
1002
}
1002
{
1000
NOSEL
1070
     0
1002
}
1002
{
1000
BEHIND
1070
     0
1002
}
1002
{
1000
OTHER
1070
     0
1002
}
1002
{
1000
REACTOR
1002
}
  0
LINE
  5
581F
  8
AM_0
 10
290.87680912954238
 20
284.46891543453597
 30
0.0
 11
290.87680912954261
 21
237.92475955725121
 31
0.0
  0
ARC
  5
5820
  8
AM_0
 10
285.87680912954238
 20
284.46891543453597
 30
0.0
 40
5.0
 50
0.0
 51
45.0
1001
GENIUS_GENODEF_13
1002
{
1000
HIER
1070
     0
1002
}
1002
{
1000
MANEDIT
1070
     0
1002
}
1002
{
1000
NOSEL
1070
     0
1002
}
1002
{
1000
BEHIND
1070
     0
1002
}
1002
{
1000
OTHER
1070
     0
1002
}
1002
{
1000
REACTOR
1002
}
1001
GENIUS_GENOBJ-N-FIL_13
1002
{
1000
OWNER
1000
GEN
1002
}
  0
ARC
  5
5821
  8
AM_0
 10
291.87680912954238
 20
303.19683749589382
 30
0.0
 40
4.0
 50
0.0
 51
90.0
1001
GENIUS_GENODEF_13
1002
{
1000
HIER
1070
     0
1002
}
1002
{
1000
MANEDIT
1070
     0
1002
}
1002
{
1000
NOSEL
1070
     0
1002
}
1002
{
1000
BEHIND
1070
     0
1002
}
1002
{
1000
OTHER
1070
     0
1002
}
1002
{
1000
REACTOR
1002
}
1001
GENIUS_GENOBJ-N-FIL_13
1002
{
1000
OWNER
1000
GEN
1002
}
  0
LINE
  5
5822
  8
ﾁｭｳｼﾝｾﾝ1
 10
290.87680912954397
 20
296.19683749589319
 30
0.0
 11
290.87680912954471
 21
308.19683749589331
 31
0.0
  0
LINE
  5
5823
  8
ﾁｭｳｼﾝｾﾝ1
 10
296.87680912954431
 20
302.19683749589308
 30
0.0
 11
284.87680912954431
 21
302.19683749589359
 31
0.0
  0
LINE
  5
5824
  8
AM_0
 10
196.37680912954241
 20
289.69683749589359
 30
0.0
 11
198.87680912954221
 21
289.69683749589387
 31
0.0
  0
LINE
  5
5825
  8
AM_0
 10
198.87680912954241
 20
262.69683749589387
 30
0.0
 11
196.37680912954241
 21
262.69683749589359
 31
0.0
  0
LINE
  5
5826
  8
AM_0
 10
185.4781380331965
 20
265.69683749589387
 30
0.0
 11
185.4781380331965
 21
286.69683749589359
 31
0.0
  0
LINE
  5
5827
  8
AM_0
 10
170.4781380331965
 20
284.22846254990873
 30
0.0
 11
170.4781380331965
 21
268.16521244187788
 31
0.0
  0
LINE
  5
5828
  8
AM_0
 10
183.4781380331965
 20
264.1968374958937
 30
0.0
 11
183.4781380331965
 21
288.19683749589359
 31
0.0
  0
LINE
  5
5829
  8
AM_0
 10
173.9781380331965
 20
276.19683749589387
 30
0.0
 11
174.4781380331965
 21
275.69683749589387
 31
0.0
  0
LINE
  5
582A
  8
AM_0
 10
180.9781380331965
 20
287.89683749589369
 30
0.0
 11
180.9781380331965
 21
264.49683749589371
 31
0.0
  0
LINE
  5
582B
  8
AM_0
 10
190.87680912954241
 20
287.69683749589359
 30
0.0
 11
190.87680912954241
 21
264.69683749589359
 31
0.0
  0
LINE
  5
582C
  8
AM_0
 10
184.9781380331965
 20
275.49683749589178
 30
0.0
 11
184.9781380331965
 21
276.89683749589472
 31
0.0
  0
LINE
  5
582D
  8
AM_0
 10
187.0777737597675
 20
267.09683749589368
 30
0.0
 11
186.32777375976841
 21
285.29683749589373
 31
0.0
  0
LINE
  5
582E
  8
AM_0
 10
186.12680912954249
 20
267.09683749589368
 30
0.0
 11
185.4781380331965
 21
282.83792276720982
 31
0.0
  0
LINE
  5
582F
  8
AM_0
 10
186.87550172011441
 20
266.38117878352972
 30
0.0
 11
186.12824167670641
 21
286.00920925706072
 31
0.0
  0
LINE
  5
5830
  8
AM_0
 10
186.32634121260449
 20
266.38446573472572
 30
0.0
 11
185.57777375976841
 21
286.04683749589373
 31
0.0
  0
LINE
  5
5831
  8
AM_0
 10
183.4781380331965
 20
288.19683749589359
 30
0.0
 11
181.2781380331964
 21
288.19683749589359
 31
0.0
  0
ARC
  5
5832
  8
AM_0
 10
195.37680912954261
 20
288.69683749589359
 30
0.0
 40
0.5
 50
269.99999999998693
 51
0.0
  0
ARC
  5
5833
  8
AM_0
 10
196.37680912954261
 20
289.1968374958937
 30
0.0
 40
0.5
 50
90.0
 51
180.0
  0
LINE
  5
5834
  8
AM_0
 10
195.87680912954241
 20
288.69683749589359
 30
0.0
 11
195.87680912954241
 21
289.1968374958937
 31
0.0
  0
LINE
  5
5835
  8
AM_0
 10
186.87680912954241
 20
285.29683749589373
 30
0.0
 11
190.37680912954241
 21
285.29683749589373
 31
0.0
  0
LINE
  5
5836
  8
AM_0
 10
195.87680912954241
 20
287.0529088173007
 30
0.0
 11
195.87680912954241
 21
277.34076617448568
 31
0.0
  0
LINE
  5
5837
  8
AM_0
 10
191.37680912954241
 20
288.19683749589359
 30
0.0
 11
195.37680912954241
 21
288.19683749589359
 31
0.0
  0
LINE
  5
5838
  8
AM_0
 10
195.37680912954241
 20
287.5529088173007
 30
0.0
 11
190.87680912954241
 21
287.5529088173007
 31
0.0
  0
ARC
  5
5839
  8
AM_0
 10
195.37680912954261
 20
287.0529088173007
 30
0.0
 40
0.5
 50
0.0
 51
90.0
  0
ARC
  5
583A
  8
AM_0
 10
190.37680912954241
 20
285.79683749589373
 30
0.0
 40
0.5
 50
270.0
 51
0.0
  0
ARC
  5
583B
  8
AM_0
 10
191.37680912954241
 20
287.69683749589359
 30
0.0
 40
0.5
 50
90.0
 51
180.0
  0
LINE
  5
583C
  8
AM_0
 10
195.37680912954241
 20
276.84076617448568
 30
0.0
 11
190.87680912954241
 21
276.84076617448568
 31
0.0
  0
ARC
  5
583D
  8
AM_0
 10
195.37680912954241
 20
277.34076617448568
 30
0.0
 40
0.5
 50
270.0
 51
0.0
  0
LINE
  5
583E
  8
AM_0
 10
184.9781380331965
 20
282.34200824818561
 30
0.0
 11
184.9781380331965
 21
281.1697650617528
 31
0.0
  0
LINE
  5
583F
  8
AM_0
 10
186.40450618819341
 20
285.29683749589373
 30
0.0
 11
186.87680912954241
 21
285.29683749589373
 31
0.0
  0
LINE
  5
5840
  8
AM_0
 10
186.3079136936542
 20
285.37095526263022
 30
0.0
 11
186.32777375976841
 21
285.29683749589373
 31
0.0
  0
ARC
  5
5841
  8
AM_0
 10
186.40450618819341
 20
285.39683749589369
 30
0.0
 40
0.1000000000000346
 50
195.00019500644541
 51
270.0
  0
ARC
  5
5842
  8
AM_0
 10
184.67813803319649
 20
285.4836704764017
 30
0.0
 40
0.3000000000000043
 50
270.0
 51
0.0
  0
LINE
  5
5843
  8
AM_0
 10
183.4781380331965
 20
287.59683749589368
 30
0.0
 11
184.6980937363536
 21
287.51550711568268
 31
0.0
  0
LINE
  5
5844
  8
AM_0
 10
183.4781380331965
 20
286.44058546005368
 30
0.0
 11
184.67813803319649
 21
286.44058546005368
 31
0.0
  0
LINE
  5
5845
  8
AM_0
 10
184.9781380331965
 20
287.1968374958937
 30
0.0
 11
183.4781380331965
 21
287.1968374958937
 31
0.0
  0
ARC
  5
5846
  8
AM_0
 10
184.9781380331965
 20
286.69683749589359
 30
0.0
 40
0.5
 50
0.0
 51
90.0
  0
LINE
  5
5847
  8
AM_0
 10
184.9781380331965
 20
287.21617156832571
 30
0.0
 11
184.9781380331965
 21
287.1968374958937
 31
0.0
  0
ARC
  5
5848
  8
AM_0
 10
184.67813803319649
 20
287.21617156832571
 30
0.0
 40
0.3000000000000007
 50
0.0
 51
86.185925165718416
  0
LINE
  5
5849
  8
AM_0
 10
186.0500767011174
 20
286.04683749589373
 30
0.0
 11
186.1268091295434
 21
286.04683749589373
 31
0.0
  0
LINE
  5
584A
  8
AM_0
 10
186.1268091295434
 20
286.04683749589373
 30
0.0
 11
186.14666919565661
 21
285.97271972915718
 31
0.0
  0
LINE
  5
584B
  8
AM_0
 10
185.5579136936544
 20
285.97271972915718
 30
0.0
 11
185.57777375976841
 21
286.04683749589373
 31
0.0
  0
LINE
  5
584C
  8
AM_0
 10
185.57777375976841
 20
286.04683749589373
 30
0.0
 11
185.65450618819341
 21
286.04683749589373
 31
0.0
  0
LINE
  5
584D
  8
AM_0
 10
186.14666919565661
 20
285.97271972915718
 30
0.0
 11
186.3079136936542
 21
285.37095526263022
 31
0.0
  0
LINE
  5
584E
  8
AM_0
 10
185.65450618819341
 20
286.04683749589373
 30
0.0
 11
186.0500767011174
 21
286.04683749589373
 31
0.0
  0
LINE
  5
584F
  8
AM_0
 10
185.47813803319741
 20
285.67499696433282
 30
0.0
 11
185.5579136936544
 21
285.97271972915718
 31
0.0
  0
ARC
  5
5850
  8
AM_0
 10
186.0500767011174
 20
285.94683749589359
 30
0.0
 40
0.0999999999999866
 50
15.000195006570261
 51
90.0
  0
ARC
  5
5851
  8
AM_0
 10
185.65450618819341
 20
285.94683749589359
 30
0.0
 40
0.1000000000000014
 50
90.0
 51
164.99980499342971
  0
LINE
  5
5852
  8
AM_0
 10
184.9781380331965
 20
286.14058546005373
 30
0.0
 11
184.9781380331965
 21
285.4836704764017
 31
0.0
  0
ARC
  5
5853
  8
AM_0
 10
184.67813803319649
 20
286.14058546005373
 30
0.0
 40
0.3000000000000007
 50
0.0
 51
90.0
  0
LINE
  5
5854
  8
AM_0
 10
183.4781380331965
 20
282.64200824818579
 30
0.0
 11
184.67813803319649
 21
282.64200824818579
 31
0.0
  0
LINE
  5
5855
  8
AM_0
 10
184.67813803319649
 20
285.18367047640169
 30
0.0
 11
183.4781380331965
 21
285.18367047640169
 31
0.0
  0
LINE
  5
5856
  8
AM_0
 10
186.32777375976841
 20
285.29683749589373
 30
0.0
 11
186.40450618819341
 21
285.29683749589373
 31
0.0
  0
ARC
  5
5857
  8
AM_0
 10
184.67813803319649
 20
282.34200824818561
 30
0.0
 40
0.3000000000000007
 50
0.0
 51
90.0
  0
LINE
  5
5858
  8
AM_0
 10
184.67813803319649
 20
280.86976506175279
 30
0.0
 11
183.4781380331965
 21
280.86976506175279
 31
0.0
  0
ARC
  5
5859
  8
AM_0
 10
184.67813803319649
 20
281.1697650617528
 30
0.0
 40
0.3000000000000043
 50
270.0
 51
0.0
  0
LINE
  5
585A
  8
AM_0
 10
184.67813803319649
 20
277.19683749589478
 30
0.0
 11
183.4781380331965
 21
277.19683749589478
 31
0.0
  0
ARC
  5
585B
  8
AM_0
 10
184.67813803319649
 20
276.89683749589472
 30
0.0
 40
0.3000000000000007
 50
0.0
 51
90.0
  0
LINE
  5
585C
  8
AM_0
 10
174.4781380331965
 20
286.33011732454082
 30
0.0
 11
180.9781380331965
 21
286.33011732454082
 31
0.0
  0
LINE
  5
585D
  8
AM_0
 10
174.4781380331965
 20
286.83011732454082
 30
0.0
 11
180.9781380331965
 21
286.83011732454082
 31
0.0
  0
LINE
  5
585E
  8
AM_0
 10
180.9781380331965
 20
276.6968374958937
 30
0.0
 11
174.4781380331965
 21
276.6968374958937
 31
0.0
  0
LINE
  5
585F
  8
AM_0
 10
173.9781380331965
 20
277.19683749589359
 30
0.0
 11
180.9781380331965
 21
277.19683749589359
 31
0.0
  0
LINE
  5
5860
  8
AM_0
 10
180.67813803319649
 20
287.1968374958937
 30
0.0
 11
173.8401879683785
 21
287.1968374958937
 31
0.0
  0
LINE
  5
5861
  8
AM_0
 10
180.9781380331965
 20
277.54352556443467
 30
0.0
 11
174.4781380331965
 21
277.54352556443467
 31
0.0
  0
LINE
  5
5862
  8
AM_0
 10
180.9781380331965
 20
285.8501494273529
 30
0.0
 11
174.4781380331965
 21
285.8501494273529
 31
0.0
  0
ARC
  5
5863
  8
AM_0
 10
181.2781380331964
 20
287.89683749589369
 30
0.0
 40
0.2999999999999971
 50
90.0
 51
180.0
  0
ARC
  5
5864
  8
AM_0
 10
180.67813803319649
 20
287.49683749589371
 30
0.0
 40
0.2999999999999971
 50
270.0
 51
0.0
  0
ARC
  5
5865
  8
AM_0
 10
182.6031380331965
 20
281.69683749589359
 30
0.0
 40
9.124999999999984
 50
152.92493329272219
 51
207.07506670727781
  0
LINE
  5
5866
  8
AM_0
 10
173.20000356871401
 20
286.96505877549117
 30
0.0
 11
170.8379536335319
 21
284.9966838295062
 31
0.0
  0
LINE
  5
5867
  8
AM_0
 10
173.9781380331965
 20
286.6184049123857
 30
0.0
 11
174.4781380331965
 21
287.1968374958937
 31
0.0
  0
ARC
  5
5868
  8
AM_0
 10
173.8401879683785
 20
286.19683749589359
 30
0.0
 40
1.0
 50
90.0
 51
129.805571092256
  0
LINE
  5
5869
  8
AM_0
 10
174.4781380331965
 20
286.83011732454082
 30
0.0
 11
173.9781380331965
 21
286.6184049123857
 31
0.0
  0
LINE
  5
586A
  8
AM_0
 10
173.9781380331965
 20
286.1561296394147
 30
0.0
 11
174.4781380331965
 21
286.83011732454082
 31
0.0
  0
LINE
  5
586B
  8
AM_0
 10
174.4781380331965
 20
286.33011732454082
 30
0.0
 11
173.9781380331965
 21
286.1561296394147
 31
0.0
  0
LINE
  5
586C
  8
AM_0
 10
173.9781380331965
 20
285.6184049123857
 30
0.0
 11
174.4781380331965
 21
286.33011732454082
 31
0.0
  0
LINE
  5
586D
  8
AM_0
 10
174.4781380331965
 20
285.8501494273529
 30
0.0
 11
173.9781380331965
 21
285.6184049123857
 31
0.0
  0
ARC
  5
586E
  8
AM_0
 10
171.4781380331965
 20
284.22846254990873
 30
0.0
 40
1.0000000000000291
 50
129.80557109226311
 51
180.0
  0
LINE
  5
586F
  8
AM_0
 10
174.4781380331965
 20
276.6968374958937
 30
0.0
 11
173.9781380331965
 21
276.19683749589387
 31
0.0
  0
LINE
  5
5870
  8
AM_0
 10
173.9781380331965
 20
277.19683749589359
 30
0.0
 11
174.4781380331965
 21
276.6968374958937
 31
0.0
  0
LINE
  5
5871
  8
AM_0
 10
174.4781380331965
 20
277.54352556443467
 30
0.0
 11
173.9781380331965
 21
277.19683749589359
 31
0.0
  0
LINE
  5
5872
  8
AM_0
 10
181.2781380331964
 20
264.1968374958937
 30
0.0
 11
183.4781380331965
 21
264.1968374958937
 31
0.0
  0
ARC
  5
5873
  8
AM_0
 10
195.37680912954241
 20
263.69683749589359
 30
0.0
 40
0.5
 50
0.0
 51
90.000000000006537
  0
LINE
  5
5874
  8
AM_0
 10
190.37680912954241
 20
267.09683749589368
 30
0.0
 11
187.15450618819341
 21
267.09683749589368
 31
0.0
  0
LINE
  5
5875
  8
AM_0
 10
195.87680912954241
 20
275.0529088173007
 30
0.0
 11
195.87680912954241
 21
265.34076617448568
 31
0.0
  0
LINE
  5
5876
  8
AM_0
 10
190.87680912954241
 20
275.5529088173007
 30
0.0
 11
195.37680912954241
 21
275.5529088173007
 31
0.0
  0
ARC
  5
5877
  8
AM_0
 10
195.37680912954241
 20
275.0529088173007
 30
0.0
 40
0.5
 50
0.0
 51
90.0
  0
LINE
  5
5878
  8
AM_0
 10
190.87680912954241
 20
264.84076617448568
 30
0.0
 11
195.37680912954241
 21
264.84076617448568
 31
0.0
  0
LINE
  5
5879
  8
AM_0
 10
195.37680912954241
 20
264.1968374958937
 30
0.0
 11
191.37680912954241
 21
264.1968374958937
 31
0.0
  0
ARC
  5
587A
  8
AM_0
 10
195.37680912954241
 20
265.34076617448568
 30
0.0
 40
0.5
 50
270.0
 51
0.0
  0
ARC
  5
587B
  8
AM_0
 10
190.37680912954241
 20
266.59683749589379
 30
0.0
 40
0.5
 50
0.0
 51
90.0
  0
ARC
  5
587C
  8
AM_0
 10
191.37680912954241
 20
264.69683749589359
 30
0.0
 40
0.5
 50
180.0
 51
270.0
  0
ARC
  5
587D
  8
AM_0
 10
184.67813803319649
 20
270.05166674360169
 30
0.0
 40
0.3000000000000114
 50
270.0
 51
0.0
  0
LINE
  5
587E
  8
AM_0
 10
183.4781380331965
 20
275.19683749589171
 30
0.0
 11
184.67813803319649
 21
275.19683749589171
 31
0.0
  0
ARC
  5
587F
  8
AM_0
 10
184.67813803319649
 20
275.49683749589173
 30
0.0
 40
0.2999999999999971
 50
270.0
 51
0.0
  0
LINE
  5
5880
  8
AM_0
 10
183.4781380331965
 20
271.52390993003468
 30
0.0
 11
184.67813803319649
 21
271.52390993003468
 31
0.0
  0
ARC
  5
5881
  8
AM_0
 10
184.67813803319649
 20
271.22390993003472
 30
0.0
 40
0.3000000000000007
 50
0.0
 51
90.0
  0
LINE
  5
5882
  8
AM_0
 10
184.9781380331965
 20
271.22390993003478
 30
0.0
 11
184.9781380331965
 21
270.0516667436018
 31
0.0
  0
LINE
  5
5883
  8
AM_0
 10
186.40450618819341
 20
266.34683749589379
 30
0.0
 11
186.8000767011174
 21
266.34683749589379
 31
0.0
  0
LINE
  5
5884
  8
AM_0
 10
186.40450618819341
 20
266.34683749589379
 30
0.0
 11
186.8000767011174
 21
266.34683749589379
 31
0.0
  0
LINE
  5
5885
  8
AM_0
 10
186.89666919565661
 20
266.42095526263029
 30
0.0
 11
187.0579136936544
 21
267.0227197291573
 31
0.0
  0
LINE
  5
5886
  8
AM_0
 10
186.89666919565661
 20
266.42095526263029
 30
0.0
 11
187.0579136936544
 21
267.0227197291573
 31
0.0
  0
ARC
  5
5887
  8
AM_0
 10
187.15450618819341
 20
266.99683749589371
 30
0.0
 40
0.0999999999999943
 50
90.0
 51
164.9998049934851
  0
ARC
  5
5888
  8
AM_0
 10
186.8000767011174
 20
266.4468374958937
 30
0.0
 40
0.0999999999999943
 50
270.0
 51
344.99980499349448
  0
LINE
  5
5889
  8
AM_0
 10
185.47729144465541
 20
266.72183749589351
 30
0.0
 11
185.5579136936544
 21
267.0227197291573
 31
0.0
  0
LINE
  5
588A
  8
AM_0
 10
186.1295197817484
 20
267.05757296279569
 30
0.0
 11
186.3079136936544
 21
266.42095526263029
 31
0.0
  0
LINE
  5
588B
  8
AM_0
 10
186.14666919565661
 20
267.0227197291573
 30
0.0
 11
186.3079136936544
 21
266.42095526263029
 31
0.0
  0
LINE
  5
588C
  8
AM_0
 10
184.9781380331965
 20
266.9100045153848
 30
0.0
 11
184.9781380331965
 21
266.25308953173368
 31
0.0
  0
LINE
  5
588D
  8
AM_0
 10
185.4781380331965
 20
266.72499696433169
 30
0.0
 11
185.5579136936544
 21
267.0227197291573
 31
0.0
  0
LINE
  5
588E
  8
AM_0
 10
183.4781380331965
 20
267.21000451538481
 30
0.0
 11
184.67813803319649
 21
267.21000451538481
 31
0.0
  0
LINE
  5
588F
  8
AM_0
 10
184.67813803319649
 20
269.75166674360167
 30
0.0
 11
183.4781380331965
 21
269.75166674360071
 31
0.0
  0
LINE
  5
5890
  8
AM_0
 10
186.0827089666324
 20
267.09683749589368
 30
0.0
 11
186.1295197817484
 21
267.05757296279569
 31
0.0
  0
LINE
  5
5891
  8
AM_0
 10
185.65450618819341
 20
267.09683749589368
 30
0.0
 11
186.0827089666324
 21
267.09683749589368
 31
0.0
  0
LINE
  5
5892
  8
AM_0
 10
185.65450618819341
 20
267.09683749589368
 30
0.0
 11
186.0500767011174
 21
267.09683749589368
 31
0.0
  0
ARC
  5
5893
  8
AM_0
 10
185.65450618819341
 20
266.99683749589371
 30
0.0
 40
0.0999999999999943
 50
90.0
 51
164.9998049934851
  0
ARC
  5
5894
  8
AM_0
 10
186.0500767011174
 20
266.99683749589371
 30
0.0
 40
0.0999999999999608
 50
15.000195006514859
 51
90.0
  0
ARC
  5
5895
  8
AM_0
 10
184.67813803319649
 20
266.91000451538468
 30
0.0
 40
0.3000000000000007
 50
0.0
 51
90.0
  0
LINE
  5
5896
  8
AM_0
 10
183.4781380331965
 20
265.19683749589387
 30
0.0
 11
184.9781380331965
 21
265.19683749589387
 31
0.0
  0
LINE
  5
5897
  8
AM_0
 10
184.67813803319649
 20
265.95308953173372
 30
0.0
 11
183.4781380331965
 21
265.95308953173372
 31
0.0
  0
LINE
  5
5898
  8
AM_0
 10
184.6980937363536
 20
264.8781678761037
 30
0.0
 11
183.4781380331965
 21
264.79683749589373
 31
0.0
  0
ARC
  5
5899
  8
AM_0
 10
184.9781380331965
 20
265.69683749589359
 30
0.0
 40
0.5
 50
270.0
 51
0.0
  0
ARC
  5
589A
  8
AM_0
 10
186.40450618819341
 20
266.4468374958937
 30
0.0
 40
0.0999999999999606
 50
195.00019500650541
 51
270.0
  0
ARC
  5
589B
  8
AM_0
 10
184.67813803319649
 20
266.25308953173368
 30
0.0
 40
0.2999999999999971
 50
270.0
 51
0.0
  0
LINE
  5
589C
  8
AM_0
 10
184.9781380331965
 20
265.19683749589387
 30
0.0
 11
184.9781380331965
 21
265.17750342346068
 31
0.0
  0
ARC
  5
589D
  8
AM_0
 10
184.67813803319649
 20
265.17750342346068
 30
0.0
 40
0.3000000000000043
 50
273.8140748342816
 51
0.0
  0
ARC
  5
589E
  8
AM_0
 10
196.37680912954241
 20
263.19683749589359
 30
0.0
 40
0.5
 50
180.0
 51
270.0
  0
LINE
  5
589F
  8
AM_0
 10
195.87680912954241
 20
263.19683749589359
 30
0.0
 11
195.87680912954241
 21
263.69683749589359
 31
0.0
  0
LINE
  5
58A0
  8
AM_0
 10
174.4781380331965
 20
266.54352556443467
 30
0.0
 11
180.9781380331965
 21
266.54352556443467
 31
0.0
  0
LINE
  5
58A1
  8
AM_0
 10
174.4781380331965
 20
274.85014942735279
 30
0.0
 11
180.9781380331965
 21
274.85014942735279
 31
0.0
  0
LINE
  5
58A2
  8
AM_0
 10
173.8401879683785
 20
265.19683749589387
 30
0.0
 11
180.67813803319649
 21
265.19683749589387
 31
0.0
  0
LINE
  5
58A3
  8
AM_0
 10
180.9781380331965
 20
275.19683749589387
 30
0.0
 11
173.9781380331965
 21
275.19683749589387
 31
0.0
  0
LINE
  5
58A4
  8
AM_0
 10
174.4781380331965
 20
275.69683749589387
 30
0.0
 11
180.9781380331965
 21
275.69683749589387
 31
0.0
  0
LINE
  5
58A5
  8
AM_0
 10
180.9781380331965
 20
265.56355766724568
 30
0.0
 11
174.4781380331965
 21
265.56355766724568
 31
0.0
  0
LINE
  5
58A6
  8
AM_0
 10
180.9781380331965
 20
266.06355766724568
 30
0.0
 11
174.4781380331965
 21
266.06355766724568
 31
0.0
  0
ARC
  5
58A7
  8
AM_0
 10
180.67813803319649
 20
264.89683749589369
 30
0.0
 40
0.3000000000000043
 50
0.0
 51
90.0
  0
ARC
  5
58A8
  8
AM_0
 10
181.2781380331964
 20
264.49683749589371
 30
0.0
 40
0.2999999999999971
 50
180.0
 51
270.0
  0
ARC
  5
58A9
  8
AM_0
 10
182.6031380331965
 20
270.6968374958937
 30
0.0
 40
9.124999999999984
 50
152.92493329272219
 51
207.07506670727781
  0
LINE
  5
58AA
  8
AM_0
 10
173.9781380331965
 20
275.19683749589387
 30
0.0
 11
174.4781380331965
 21
274.85014942735279
 31
0.0
  0
LINE
  5
58AB
  8
AM_0
 10
174.4781380331965
 20
275.69683749589387
 30
0.0
 11
173.9781380331965
 21
275.19683749589387
 31
0.0
  0
LINE
  5
58AC
  8
AM_0
 10
170.8379536335319
 20
267.3969911622803
 30
0.0
 11
173.20000356871401
 21
265.42861621629629
 31
0.0
  0
LINE
  5
58AD
  8
AM_0
 10
174.4781380331965
 20
265.19683749589387
 30
0.0
 11
173.9781380331965
 21
265.7752700794008
 31
0.0
  0
ARC
  5
58AE
  8
AM_0
 10
173.8401879683785
 20
266.1968374958937
 30
0.0
 40
1.0000000000000411
 50
230.19442890774391
 51
270.0
  0
LINE
  5
58AF
  8
AM_0
 10
173.9781380331965
 20
266.7752700794008
 30
0.0
 11
174.4781380331965
 21
266.54352556443467
 31
0.0
  0
LINE
  5
58B0
  8
AM_0
 10
174.4781380331965
 20
266.06355766724568
 30
0.0
 11
173.9781380331965
 21
266.7752700794008
 31
0.0
  0
LINE
  5
58B1
  8
AM_0
 10
173.9781380331965
 20
266.23754535237282
 30
0.0
 11
174.4781380331965
 21
266.06355766724568
 31
0.0
  0
LINE
  5
58B2
  8
AM_0
 10
174.4781380331965
 20
265.56355766724568
 30
0.0
 11
173.9781380331965
 21
266.23754535237282
 31
0.0
  0
LINE
  5
58B3
  8
AM_0
 10
173.9781380331965
 20
265.7752700794008
 30
0.0
 11
174.4781380331965
 21
265.56355766724568
 31
0.0
  0
ARC
  5
58B4
  8
AM_0
 10
171.4781380331965
 20
268.16521244187771
 30
0.0
 40
1.0
 50
180.0
 51
230.19442890773689
  0
CIRCLE
  5
58B5
  8
AM_0
 10
204.87680912954079
 20
302.19683749589342
 30
0.0
 40
4.0
  0
LINE
  5
58B6
  8
AM_0
 10
204.56530912954079
 20
299.918029090169
 30
0.0
 11
205.18830912954081
 21
299.918029090169
 31
0.0
  0
LINE
  5
58B7
  8
AM_0
 10
204.56530912954079
 20
304.47564590161772
 30
0.0
 11
205.18830912954081
 21
304.47564590161772
 31
0.0
  0
LINE
  5
58B8
  8
AM_0
 10
204.56530912954079
 20
299.918029090169
 30
0.0
 11
204.56530912954079
 21
301.88533749589328
 31
0.0
  0
LINE
  5
58B9
  8
AM_0
 10
204.56530912954079
 20
302.50833749589339
 30
0.0
 11
204.56530912954079
 21
304.47564590161772
 31
0.0
  0
LINE
  5
58BA
  8
AM_0
 10
204.56530912954079
 20
302.50833749589339
 30
0.0
 11
202.5980007238164
 21
302.50833749589339
 31
0.0
  0
LINE
  5
58BB
  8
AM_0
 10
204.56530912954079
 20
301.88533749589328
 30
0.0
 11
202.5980007238164
 21
301.88533749589328
 31
0.0
  0
LINE
  5
58BC
  8
AM_0
 10
202.5980007238164
 20
302.50833749589339
 30
0.0
 11
202.5980007238164
 21
301.88533749589328
 31
0.0
  0
LINE
  5
58BD
  8
AM_0
 10
205.18830912954081
 20
299.918029090169
 30
0.0
 11
205.18830912954081
 21
301.88533749589328
 31
0.0
  0
LINE
  5
58BE
  8
AM_0
 10
205.18830912954081
 20
302.50833749589339
 30
0.0
 11
205.18830912954081
 21
304.47564590161772
 31
0.0
  0
LINE
  5
58BF
  8
AM_0
 10
207.15561753526521
 20
301.88533749589328
 30
0.0
 11
205.18830912954081
 21
301.88533749589328
 31
0.0
  0
LINE
  5
58C0
  8
AM_0
 10
207.15561753526521
 20
302.50833749589339
 30
0.0
 11
205.18830912954081
 21
302.50833749589339
 31
0.0
  0
LINE
  5
58C1
  8
AM_0
 10
207.15561753526521
 20
302.50833749589339
 30
0.0
 11
207.15561753526521
 21
301.88533749589328
 31
0.0
  0
CIRCLE
  5
58C2
  8
AM_0
 10
290.87680912954431
 20
302.19683749589331
 30
0.0
 40
4.0
  0
LINE
  5
58C3
  8
AM_0
 10
290.5653091295444
 20
299.91802909016889
 30
0.0
 11
291.18830912954428
 21
299.91802909016889
 31
0.0
  0
LINE
  5
58C4
  8
AM_0
 10
290.5653091295444
 20
304.47564590161772
 30
0.0
 11
291.18830912954428
 21
304.47564590161772
 31
0.0
  0
LINE
  5
58C5
  8
AM_0
 10
290.5653091295444
 20
299.91802909016889
 30
0.0
 11
290.5653091295444
 21
301.88533749589322
 31
0.0
  0
LINE
  5
58C6
  8
AM_0
 10
290.5653091295444
 20
302.50833749589327
 30
0.0
 11
290.5653091295444
 21
304.47564590161772
 31
0.0
  0
LINE
  5
58C7
  8
AM_0
 10
290.5653091295444
 20
302.50833749589327
 30
0.0
 11
288.59800072381989
 21
302.50833749589327
 31
0.0
  0
LINE
  5
58C8
  8
AM_0
 10
290.5653091295444
 20
301.88533749589322
 30
0.0
 11
288.59800072381989
 21
301.88533749589322
 31
0.0
  0
LINE
  5
58C9
  8
AM_0
 10
288.59800072381989
 20
302.50833749589327
 30
0.0
 11
288.59800072381989
 21
301.88533749589322
 31
0.0
  0
LINE
  5
58CA
  8
AM_0
 10
291.18830912954428
 20
299.91802909016889
 30
0.0
 11
291.18830912954428
 21
301.88533749589322
 31
0.0
  0
LINE
  5
58CB
  8
AM_0
 10
291.18830912954428
 20
302.50833749589327
 30
0.0
 11
291.18830912954428
 21
304.47564590161772
 31
0.0
  0
LINE
  5
58CC
  8
AM_0
 10
293.15561753526868
 20
301.88533749589322
 30
0.0
 11
291.18830912954428
 21
301.88533749589322
 31
0.0
  0
LINE
  5
58CD
  8
AM_0
 10
293.15561753526868
 20
302.50833749589327
 30
0.0
 11
291.18830912954428
 21
302.50833749589327
 31
0.0
  0
LINE
  5
58CE
  8
AM_0
 10
293.15561753526868
 20
302.50833749589327
 30
0.0
 11
293.15561753526868
 21
301.88533749589322
 31
0.0
  0
LINE
  5
58CF
  8
AM_0
 10
218.4123430354754
 20
305.73237140182653
 30
0.0
 11
201.34127522360981
 21
288.66130358996122
 31
0.0
  0
LINE
  5
58D0
  8
AM_0
 10
219.06919728496769
 20
300.73237140182653
 30
0.0
 11
206.3412752236097
 21
288.00444934046862
 31
0.0
  0
ARC
  5
58D1
  8
AM_0
 10
209.87680912954249
 20
284.4689154345358
 30
0.0
 40
5.0
 50
135.0
 51
180.0
1001
GENIUS_GENOBJ-N-FIL_13
1002
{
1000
OWNER
1000
GEN
1002
}
1001
GENIUS_GENODEF_13
1002
{
1000
HIER
1070
     0
1002
}
1002
{
1000
MANEDIT
1070
     0
1002
}
1002
{
1000
NOSEL
1070
     0
1002
}
1002
{
1000
BEHIND
1070
     0
1002
}
1002
{
1000
OTHER
1070
     0
1002
}
1002
{
1000
REACTOR
1002
}
  0
LINE
  5
58D2
  8
AM_0
 10
277.34127522360973
 20
216.6613035899608
 30
0.0
 11
294.4123430354752
 21
233.73237140182621
 31
0.0
  0
ARC
  5
58D3
  8
AM_0
 10
273.80574131767702
 20
220.19683749589359
 30
0.0
 40
5.0
 50
270.0
 51
315.0
1001
GENIUS_GENODEF_13
1002
{
1000
HIER
1070
     0
1002
}
1002
{
1000
MANEDIT
1070
     0
1002
}
1002
{
1000
NOSEL
1070
     0
1002
}
1002
{
1000
BEHIND
1070
     0
1002
}
1002
{
1000
OTHER
1070
     0
1002
}
1002
{
1000
REACTOR
1002
}
1001
GENIUS_GENOBJ-N-FIL_13
1002
{
1000
OWNER
1000
GEN
1002
}
  0
LINE
  5
58D4
  8
AM_0
 10
276.68442097411747
 20
221.6613035899608
 30
0.0
 11
289.41234303547532
 21
234.3892256513185
 31
0.0
  0
ARC
  5
58D5
  8
AM_0
 10
285.87680912954261
 20
237.92475955725121
 30
0.0
 40
5.0
 50
315.0
 51
0.0
1001
GENIUS_GENOBJ-N-FIL_13
1002
{
1000
OWNER
1000
GEN
1002
}
1001
GENIUS_GENODEF_13
1002
{
1000
HIER
1070
     0
1002
}
1002
{
1000
MANEDIT
1070
     0
1002
}
1002
{
1000
NOSEL
1070
     0
1002
}
1002
{
1000
BEHIND
1070
     0
1002
}
1002
{
1000
OTHER
1070
     0
1002
}
1002
{
1000
REACTOR
1002
}
  0
LINE
  5
58D6
  8
AM_0
 10
218.4123430354752
 20
216.6613035899608
 30
0.0
 11
201.34127522360981
 21
233.7323714018261
 31
0.0
  0
LINE
  5
58D7
  8
AM_0
 10
219.06919728496749
 20
221.66130358996091
 30
0.0
 11
206.3412752236097
 21
234.3892256513185
 31
0.0
  0
ARC
  5
58D8
  8
AM_0
 10
222.6047311909002
 20
225.19683749589359
 30
0.0
 40
5.0
 50
225.0
 51
270.0
1001
GENIUS_GENOBJ-N-FIL_13
1002
{
1000
OWNER
1000
GEN
1002
}
1001
GENIUS_GENODEF_13
1002
{
1000
HIER
1070
     0
1002
}
1002
{
1000
MANEDIT
1070
     0
1002
}
1002
{
1000
NOSEL
1070
     0
1002
}
1002
{
1000
BEHIND
1070
     0
1002
}
1002
{
1000
OTHER
1070
     0
1002
}
1002
{
1000
REACTOR
1002
}
  0
CIRCLE
  5
58D9
  8
AM_0
 10
204.8768091295407
 20
220.19683749589399
 30
0.0
 40
4.0
  0
LINE
  5
58DA
  8
AM_0
 10
204.56530912954071
 20
222.47564590161829
 30
0.0
 11
205.1883091295407
 21
222.47564590161829
 31
0.0
  0
LINE
  5
58DB
  8
AM_0
 10
204.56530912954071
 20
217.9180290901696
 30
0.0
 11
205.1883091295407
 21
217.9180290901696
 31
0.0
  0
LINE
  5
58DC
  8
AM_0
 10
204.56530912954071
 20
222.47564590161829
 30
0.0
 11
204.56530912954071
 21
220.50833749589401
 31
0.0
  0
LINE
  5
58DD
  8
AM_0
 10
204.56530912954071
 20
219.88533749589399
 30
0.0
 11
204.56530912954071
 21
217.9180290901696
 31
0.0
  0
LINE
  5
58DE
  8
AM_0
 10
204.56530912954071
 20
219.88533749589399
 30
0.0
 11
202.59800072381631
 21
219.88533749589399
 31
0.0
  0
LINE
  5
58DF
  8
AM_0
 10
204.56530912954071
 20
220.50833749589401
 30
0.0
 11
202.59800072381631
 21
220.50833749589401
 31
0.0
  0
LINE
  5
58E0
  8
AM_0
 10
202.59800072381631
 20
219.88533749589399
 30
0.0
 11
202.59800072381631
 21
220.50833749589401
 31
0.0
  0
LINE
  5
58E1
  8
AM_0
 10
205.1883091295407
 20
222.47564590161829
 30
0.0
 11
205.1883091295407
 21
220.50833749589401
 31
0.0
  0
LINE
  5
58E2
  8
AM_0
 10
205.1883091295407
 20
219.88533749589399
 30
0.0
 11
205.1883091295407
 21
217.9180290901696
 31
0.0
  0
LINE
  5
58E3
  8
AM_0
 10
207.15561753526501
 20
220.50833749589401
 30
0.0
 11
205.1883091295407
 21
220.50833749589401
 31
0.0
  0
LINE
  5
58E4
  8
AM_0
 10
207.15561753526501
 20
219.88533749589399
 30
0.0
 11
205.1883091295407
 21
219.88533749589399
 31
0.0
  0
LINE
  5
58E5
  8
AM_0
 10
207.15561753526501
 20
219.88533749589399
 30
0.0
 11
207.15561753526501
 21
220.50833749589401
 31
0.0
  0
CIRCLE
  5
58E6
  8
AM_0
 10
290.8768091295442
 20
220.1968374958937
 30
0.0
 40
4.0
  0
LINE
  5
58E7
  8
AM_0
 10
290.56530912954418
 20
222.47564590161821
 30
0.0
 11
291.18830912954428
 21
222.47564590161821
 31
0.0
  0
LINE
  5
58E8
  8
AM_0
 10
290.56530912954418
 20
217.9180290901694
 30
0.0
 11
291.18830912954428
 21
217.9180290901694
 31
0.0
  0
LINE
  5
58E9
  8
AM_0
 10
290.56530912954418
 20
222.47564590161821
 30
0.0
 11
290.56530912954418
 21
220.50833749589381
 31
0.0
  0
LINE
  5
58EA
  8
AM_0
 10
290.56530912954418
 20
219.88533749589371
 30
0.0
 11
290.56530912954418
 21
217.9180290901694
 31
0.0
  0
LINE
  5
58EB
  8
AM_0
 10
290.56530912954418
 20
219.88533749589371
 30
0.0
 11
288.59800072381989
 21
219.88533749589371
 31
0.0
  0
LINE
  5
58EC
  8
AM_0
 10
290.56530912954418
 20
220.50833749589381
 30
0.0
 11
288.59800072381989
 21
220.50833749589381
 31
0.0
  0
LINE
  5
58ED
  8
AM_0
 10
288.59800072381989
 20
219.88533749589371
 30
0.0
 11
288.59800072381989
 21
220.50833749589381
 31
0.0
  0
LINE
  5
58EE
  8
AM_0
 10
291.18830912954428
 20
222.47564590161821
 30
0.0
 11
291.18830912954428
 21
220.50833749589381
 31
0.0
  0
LINE
  5
58EF
  8
AM_0
 10
291.18830912954428
 20
219.88533749589371
 30
0.0
 11
291.18830912954428
 21
217.9180290901694
 31
0.0
  0
LINE
  5
58F0
  8
AM_0
 10
293.15561753526862
 20
220.50833749589381
 30
0.0
 11
291.18830912954428
 21
220.50833749589381
 31
0.0
  0
LINE
  5
58F1
  8
AM_0
 10
293.15561753526862
 20
219.88533749589371
 30
0.0
 11
291.18830912954428
 21
219.88533749589371
 31
0.0
  0
LINE
  5
58F2
  8
AM_0
 10
293.15561753526862
 20
219.88533749589371
 30
0.0
 11
293.15561753526862
 21
220.50833749589381
 31
0.0
  0
LINE
  5
58F3
  8
AM_0
 10
199.87680912954241
 20
230.19683749589359
 30
0.0
 11
198.87680912954241
 21
230.19683749589359
 31
0.0
  0
LINE
  5
58F4
  8
AM_0
 10
199.87680912954241
 20
292.19683749589359
 30
0.0
 11
198.87680912954241
 21
292.19683749589359
 31
0.0
  0
LINE
  5
58F5
  8
AM_0
 10
198.87680912954241
 20
230.19683749589359
 30
0.0
 11
198.87680912954241
 21
292.19683749589359
 31
0.0
  0
LINE
  5
58F6
  8
AM_0
 10
571.23268167895026
 20
227.69683749589359
 30
0.0
 11
571.23268167895026
 21
294.69683749589359
 31
0.0
  0
LINE
  5
58F7
  8
AM_0
 10
570.23268167895026
 20
227.69683749589359
 30
0.0
 11
571.23268167895026
 21
227.69683749589359
 31
0.0
  0
LINE
  5
58F8
  8
AM_0
 10
570.23268167895026
 20
294.69683749589359
 30
0.0
 11
571.23268167895026
 21
294.69683749589359
 31
0.0
  0
LINE
  5
58F9
  8
AM_0
 10
532.23268167895026
 20
215.19683749589359
 30
0.0
 11
568.30248067235516
 21
216.45642263215601
 31
0.0
  0
LINE
  5
58FA
  8
AM_0
 10
570.23268167895026
 20
218.4552042861942
 30
0.0
 11
570.23268167895026
 21
303.9384707055932
 31
0.0
  0
ARC
  5
58FB
  8
AM_0
 10
568.23268167895037
 20
218.4552042861942
 30
0.0
 40
2.0
 50
271.9999999999971
 51
0.0
1001
GENIUS_GENODEF_13
1002
{
1000
HIER
1070
     0
1002
}
1002
{
1000
MANEDIT
1070
     0
1002
}
1002
{
1000
NOSEL
1070
     0
1002
}
1002
{
1000
BEHIND
1070
     0
1002
}
1002
{
1000
OTHER
1070
     0
1002
}
1002
{
1000
REACTOR
1002
}
1001
GENIUS_GENOBJ-N-FIL_13
1002
{
1000
OWNER
1000
GEN
1002
}
  0
LINE
  5
58FC
  8
AM_0
 10
568.30248067235516
 20
305.93725235963137
 30
0.0
 11
532.23268167895026
 21
307.19683749589382
 31
0.0
  0
ARC
  5
58FD
  8
AM_0
 10
568.23268167895048
 20
303.9384707055932
 30
0.0
 40
2.0
 50
0.0
 51
88.000000000002842
1001
GENIUS_GENOBJ-N-FIL_13
1002
{
1000
OWNER
1000
GEN
1002
}
1001
GENIUS_GENODEF_13
1002
{
1000
HIER
1070
     0
1002
}
1002
{
1000
MANEDIT
1070
     0
1002
}
1002
{
1000
NOSEL
1070
     0
1002
}
1002
{
1000
BEHIND
1070
     0
1002
}
1002
{
1000
OTHER
1070
     0
1002
}
1002
{
1000
REACTOR
1002
}
  0
LINE
  5
58FE
  8
AM_0
 10
532.23268167895026
 20
307.19683749589382
 30
0.0
 11
532.23268167895026
 21
215.19683749589339
 31
0.0
  0
LINE
  5
58FF
  8
ﾁｭｳｼﾝｾﾝ1
 10
521.23268167895003
 20
220.1968374958943
 30
0.0
 11
537.060204691487
 21
220.1968374958943
 31
0.0
  0
LINE
  5
5900
  8
AM_0
 10
528.23268167895026
 20
307.19683749589359
 30
0.0
 11
528.23268167895026
 21
286.38233259636121
 31
0.0
  0
LINE
  5
5901
  8
AM_0
 10
528.23268167895003
 20
236.011342395426
 30
0.0
 11
528.23268167895003
 21
215.19683749589441
 31
0.0
  0
LINE
  5
5902
  8
AM_0
 10
524.23268167895026
 20
301.06105582673308
 30
0.0
 11
524.23268167895003
 21
221.3326191650543
 31
0.0
  0
LINE
  5
5903
  8
AM_0
 10
526.17374416682219
 20
224.10419246820069
 30
0.0
 11
527.23268167895003
 21
224.19683749589419
 31
0.0
  0
LINE
  5
5904
  8
AM_0
 10
526.17374416682219
 20
216.28948252358771
 30
0.0
 11
527.23268167895003
 21
216.1968374958943
 31
0.0
  0
ARC
  5
5905
  8
AM_0
 10
530.63268167895035
 20
220.19683749589419
 30
0.0
 40
6.5
 50
151.82726586813479
 51
208.1727341318651
  0
ARC
  5
5906
  8
AM_0
 10
526.3131933552188
 20
217.8833940405346
 30
0.0
 40
1.6000000000000001
 50
208.1727341318651
 51
265.00000000000028
  0
LINE
  5
5907
  8
AM_0
 10
524.55320801752202
 20
222.4968374958942
 30
0.0
 11
526.84276769631765
 21
220.19683749589419
 31
0.0
  0
LINE
  5
5908
  8
AM_0
 10
526.53268167895033
 20
220.50833749589421
 30
0.0
 11
526.53268167895033
 21
219.88533749589419
 31
0.0
  0
LINE
  5
5909
  8
AM_0
 10
524.55320801752202
 20
217.89683749589429
 30
0.0
 11
526.84276769631765
 21
220.19683749589419
 31
0.0
  0
LINE
  5
590A
  8
AM_0
 10
524.14014998861569
 20
220.50833749589421
 30
0.0
 11
526.53268167895033
 21
220.50833749589421
 31
0.0
  0
LINE
  5
590B
  8
AM_0
 10
524.14014998861569
 20
219.88533749589419
 30
0.0
 11
526.53268167895033
 21
219.88533749589419
 31
0.0
  0
ARC
  5
590C
  8
AM_0
 10
526.3131933552188
 20
222.51028095125389
 30
0.0
 40
1.6000000000000001
 50
94.99999999999973
 51
151.82726586813479
  0
LINE
  5
590D
  8
AM_0
 10
528.23268167895026
 20
307.19683749589382
 30
0.0
 11
532.23268167895026
 21
307.19683749589382
 31
0.0
  0
LINE
  5
590E
  8
AM_0
 10
527.23268167895003
 20
306.19683749589348
 30
0.0
 11
528.23268167895026
 21
307.19683749589382
 31
0.0
  0
LINE
  5
590F
  8
AM_0
 10
532.23268167895026
 20
215.19683749589339
 30
0.0
 11
528.23268167895003
 21
215.19683749589441
 31
0.0
  0
LINE
  5
5910
  8
AM_0N
 10
528.23268167895003
 20
223.99683749589431
 30
0.0
 11
527.23268167895003
 21
223.99683749589431
 31
0.0
  0
LINE
  5
5911
  8
AM_0N
 10
527.23268167895003
 20
220.39683749589429
 30
0.0
 11
528.23268167895003
 21
220.76080773016039
 31
0.0
  0
LINE
  5
5912
  8
AM_0N
 10
527.23268167895003
 20
219.99683749589431
 30
0.0
 11
528.23268167895003
 21
220.3608077301605
 31
0.0
  0
LINE
  5
5913
  8
AM_0N
 10
527.23268167895003
 20
216.19683749589419
 30
0.0
 11
527.23268167895003
 21
224.19683749589419
 31
0.0
  0
LINE
  5
5914
  8
AM_0N
 10
527.23268167895003
 20
216.39683749589429
 30
0.0
 11
528.23268167895003
 21
216.39683749589429
 31
0.0
  0
LINE
  5
5915
  8
AM_0
 10
524.23268167895003
 20
236.01134239542591
 30
0.0
 11
528.23268167895003
 21
236.011342395426
 31
0.0
  0
LINE
  5
5916
  8
AM_0
 10
528.23268167895003
 20
234.3544881459334
 30
0.0
 11
524.23268167895003
 21
236.01134239542591
 31
0.0
  0
LINE
  5
5917
  8
AM_0
 10
524.23268167895026
 20
286.38233259636121
 30
0.0
 11
528.23268167895026
 21
286.38233259636121
 31
0.0
  0
LINE
  5
5918
  8
AM_0
 10
528.23268167895026
 20
288.03918684585381
 30
0.0
 11
524.23268167895026
 21
286.38233259636121
 31
0.0
  0
LINE
  5
5919
  8
ﾁｭｳｼﾝｾﾝ1
 10
521.23268167895048
 20
302.19683749589308
 30
0.0
 11
537.060204691487
 21
302.19683749589308
 31
0.0
  0
LINE
  5
591A
  8
AM_0
 10
526.17374416682219
 20
298.28948252358663
 30
0.0
 11
527.23268167895003
 21
298.19683749589308
 31
0.0
  0
LINE
  5
591B
  8
AM_0
 10
526.17374416682219
 20
306.10419246819959
 30
0.0
 11
527.23268167895003
 21
306.19683749589308
 31
0.0
  0
ARC
  5
591C
  8
AM_0
 10
530.63268167895035
 20
302.19683749589308
 30
0.0
 40
6.5
 50
151.82726586813479
 51
208.1727341318651
  0
ARC
  5
591D
  8
AM_0
 10
526.3131933552188
 20
304.51028095125281
 30
0.0
 40
1.6000000000000001
 50
94.99999999999973
 51
151.82726586813479
  0
LINE
  5
591E
  8
AM_0
 10
524.55320801752202
 20
299.89683749589312
 30
0.0
 11
526.84276769631765
 21
302.19683749589308
 31
0.0
  0
LINE
  5
591F
  8
AM_0
 10
526.53268167895033
 20
301.88533749589311
 30
0.0
 11
526.53268167895033
 21
302.50833749589322
 31
0.0
  0
LINE
  5
5920
  8
AM_0
 10
524.55320801752202
 20
304.49683749589292
 30
0.0
 11
526.84276769631765
 21
302.19683749589308
 31
0.0
  0
LINE
  5
5921
  8
AM_0
 10
524.14014998861569
 20
301.88533749589311
 30
0.0
 11
526.53268167895033
 21
301.88533749589311
 31
0.0
  0
LINE
  5
5922
  8
AM_0
 10
524.14014998861569
 20
302.50833749589322
 30
0.0
 11
526.53268167895033
 21
302.50833749589322
 31
0.0
  0
ARC
  5
5923
  8
AM_0
 10
526.3131933552188
 20
299.88339404053329
 30
0.0
 40
1.6000000000000001
 50
208.1727341318651
 51
265.00000000000028
  0
LINE
  5
5924
  8
AM_0N
 10
528.23268167895003
 20
298.39683749589301
 30
0.0
 11
527.23268167895003
 21
298.39683749589301
 31
0.0
  0
LINE
  5
5925
  8
AM_0N
 10
527.23268167895003
 20
301.99683749589309
 30
0.0
 11
528.23268167895003
 21
301.63286726162693
 31
0.0
  0
LINE
  5
5926
  8
AM_0N
 10
527.23268167895003
 20
302.39683749589301
 30
0.0
 11
528.23268167895003
 21
302.0328672616269
 31
0.0
  0
LINE
  5
5927
  8
AM_0N
 10
527.23268167895003
 20
306.19683749589308
 30
0.0
 11
527.23268167895003
 21
298.19683749589308
 31
0.0
  0
LINE
  5
5928
  8
AM_0N
 10
527.23268167895003
 20
305.99683749589309
 30
0.0
 11
528.23268167895003
 21
305.99683749589309
 31
0.0
  0
LINE
  5
5929
  8
AM_0
 10
572.37456501785834
 20
231.1968374958937
 30
0.0
 11
571.23268167895026
 21
231.1968374958937
 31
0.0
  0
LINE
  5
592A
  8
ﾁｭｳｼﾝｾﾝ1
 10
581.73269267895023
 20
208.19683549589371
 30
0.0
 11
581.73269267895023
 21
188.1968214958936
 31
0.0
  0
LINE
  5
592B
  8
ﾁｭｳｼﾝｾﾝ1
 10
380.87679912954252
 20
208.19683549589371
 30
0.0
 11
380.87679912954252
 21
188.1968214958936
 31
0.0
  0
LINE
  5
592C
  8
ﾁｭｳｼﾝｾﾝ1
 10
317.8768291295425
 20
208.19683549589371
 30
0.0
 11
317.8768291295425
 21
188.1968214958936
 31
0.0
  0
LINE
  5
592D
  8
AM_0
 10
392.87679912954241
 20
302.69683849589359
 30
0.0
 11
396.87679912954241
 21
298.69683849589381
 31
0.0
  0
LINE
  5
592E
  8
AM_0
 10
390.37679912954241
 20
302.69683849589359
 30
0.0
 11
392.87679912954241
 21
302.69683849589359
 31
0.0
  0
LINE
  5
592F
  8
AM_0
 10
389.87679912954252
 20
302.19683849589359
 30
0.0
 11
389.87679912954252
 21
254.1968384958937
 31
0.0
  0
LINE
  5
5930
  8
AM_0
 10
396.87679912954241
 20
298.69683849589381
 30
0.0
 11
396.87679912954292
 21
257.69683849589359
 31
0.0
  0
LINE
  5
5931
  8
AM_0
 10
392.87679912954241
 20
253.6968384958937
 30
0.0
 11
396.87679912954241
 21
257.69683849589359
 31
0.0
  0
LINE
  5
5932
  8
AM_0
 10
390.37679912954241
 20
253.6968384958937
 30
0.0
 11
392.87679912954241
 21
253.6968384958937
 31
0.0
  0
LINE
  5
5933
  8
AM_0
 10
389.87679912954252
 20
302.19683849589359
 30
0.0
 11
390.37679912954241
 21
302.69683849589359
 31
0.0
1001
GENIUS_GENFIL_13
1070
     0
1040
0.5
1040
0.5
1040
20.0
1040
0.0
1002
{
1002
}
1001
GENIUS_GENOBJ-N-CHA_13
1002
{
1000
OWNER
1000
GEN
1002
}
1001
GENIUS_GENODEF_13
1002
{
1000
HIER
1070
     0
1002
}
1002
{
1000
MANEDIT
1070
     0
1002
}
1002
{
1000
NOSEL
1070
     0
1002
}
1002
{
1000
BEHIND
1070
     0
1002
}
1002
{
1000
OTHER
1070
     0
1002
}
1002
{
1000
REACTOR
1002
}
  0
LINE
  5
5934
  8
AM_0
 10
389.87679912954252
 20
254.1968384958937
 30
0.0
 11
390.37679912954241
 21
253.6968384958937
 31
0.0
1001
GENIUS_GENFIL_13
1070
     0
1040
0.5
1040
0.5
1040
20.0
1040
0.0
1002
{
1002
}
1001
GENIUS_GENODEF_13
1002
{
1000
HIER
1070
     0
1002
}
1002
{
1000
MANEDIT
1070
     0
1002
}
1002
{
1000
NOSEL
1070
     0
1002
}
1002
{
1000
BEHIND
1070
     0
1002
}
1002
{
1000
OTHER
1070
     0
1002
}
1002
{
1000
REACTOR
1002
}
1001
GENIUS_GENOBJ-N-CHA_13
1002
{
1000
OWNER
1000
GEN
1002
}
  0
CIRCLE
  5
5935
  8
AM_0
 10
639.23268167895037
 20
278.19683849589359
 30
0.0
 40
24.49999999999989
  0
CIRCLE
  5
5936
  8
AM_0
 10
639.23268167895037
 20
278.19683849589359
 30
0.0
 40
20.50000000000011
  0
LINE
  5
5937
  8
AM_0
 10
392.87679912954241
 20
302.69683849589359
 30
0.0
 11
392.87679912954241
 21
253.6968384958937
 31
0.0
  0
LINE
  5
5938
  8
ﾁｭｳｼﾝｾﾝ1
 10
204.87680912954039
 20
296.19683749589342
 30
0.0
 11
204.8768091295411
 21
308.19683749589331
 31
0.0
  0
LINE
  5
5939
  8
ﾁｭｳｼﾝｾﾝ1
 10
210.87680912954079
 20
302.19683749589308
 30
0.0
 11
198.87680912954079
 21
302.19683749589382
 31
0.0
  0
LINE
  5
593A
  8
ﾁｭｳｼﾝｾﾝ1
 10
204.87680912954031
 20
214.19683749589399
 30
0.0
 11
204.87680912954099
 21
226.19683749589399
 31
0.0
  0
LINE
  5
593B
  8
ﾁｭｳｼﾝｾﾝ1
 10
210.8768091295407
 20
220.1968374958937
 30
0.0
 11
198.8768091295407
 21
220.1968374958943
 31
0.0
  0
LINE
  5
593C
  8
ﾁｭｳｼﾝｾﾝ1
 10
290.87680912954397
 20
214.1968374958937
 30
0.0
 11
290.87680912954448
 21
226.1968374958937
 31
0.0
  0
LINE
  5
593D
  8
ﾁｭｳｼﾝｾﾝ1
 10
296.8768091295442
 20
220.19683749589359
 30
0.0
 11
284.8768091295442
 21
220.19683749589419
 31
0.0
  0
LINE
  5
593E
  8
AM_0
 10
162.7743568696601
 20
238.1968374958935
 30
0.0
 11
171.87680912954221
 21
238.1968374958935
 31
0.0
  0
ARC
  5
593F
  8
AM_0
 10
162.7743568696601
 20
228.1968374958935
 30
0.0
 40
10.0
 50
90.0
 51
149.9999999999994
1001
GENIUS_GENOBJ-N-FIL_13
1002
{
1000
OWNER
1000
GEN
1002
}
1001
GENIUS_GENODEF_13
1002
{
1000
HIER
1070
     0
1002
}
1002
{
1000
MANEDIT
1070
     0
1002
}
1002
{
1000
NOSEL
1070
     0
1002
}
1002
{
1000
BEHIND
1070
     0
1002
}
1002
{
1000
OTHER
1070
     0
1002
}
1002
{
1000
REACTOR
1002
}
  0
LINE
  5
5940
  8
AM_0
 10
165.08375794641859
 20
244.19683749589359
 30
0.0
 11
171.87680912954241
 21
244.1968374958935
 31
0.0
  0
ARC
  5
5941
  8
AM_0
 10
165.08375794641859
 20
224.1968374958935
 30
0.0
 40
20.0
 50
90.0
 51
149.9999999999994
1001
GENIUS_GENODEF_13
1002
{
1000
HIER
1070
     0
1002
}
1002
{
1000
MANEDIT
1070
     0
1002
}
1002
{
1000
NOSEL
1070
     0
1002
}
1002
{
1000
BEHIND
1070
     0
1002
}
1002
{
1000
OTHER
1070
     0
1002
}
1002
{
1000
REACTOR
1002
}
1001
GENIUS_GENOBJ-N-FIL_13
1002
{
1000
OWNER
1000
GEN
1002
}
  0
LINE
  5
5942
  8
AM_0
 10
188.7518091295434
 20
234.8067834397695
 30
0.0
 11
188.7625187340885
 21
234.59683749589351
 31
0.0
  0
LINE
  5
5943
  8
AM_0
 10
188.7625187340885
 20
234.59683749589351
 30
0.0
 11
188.79882412128941
 21
233.88512412200649
 31
0.0
  0
LINE
  5
5944
  8
AM_0
 10
188.7518091295434
 20
238.56411498741051
 30
0.0
 11
188.9978353522234
 21
234.59683749589351
 31
0.0
  0
LINE
  5
5945
  8
AM_0
 10
189.4701382935724
 20
234.59683749589351
 30
0.0
 11
189.07456778064841
 21
234.59683749589351
 31
0.0
  0
LINE
  5
5946
  8
AM_0
 10
188.9779752861094
 20
234.52271972915801
 30
0.0
 11
188.81673078811161
 21
233.92095526263
 31
0.0
  0
LINE
  5
5947
  8
AM_0
 10
188.9978353522234
 20
234.59683749589351
 30
0.0
 11
188.9779752861094
 21
234.52271972915801
 31
0.0
  0
LINE
  5
5948
  8
AM_0
 10
187.2518091295434
 20
232.19683749589359
 30
0.0
 11
187.2518091295434
 21
232.4968374958946
 31
0.0
  0
LINE
  5
5949
  8
AM_0
 10
176.75180912954241
 20
235.69683749589359
 30
0.0
 11
176.75180912954241
 21
235.86442255502959
 31
0.0
  0
LINE
  5
594A
  8
AM_0
 10
176.75180912954241
 20
241.19683749589359
 30
0.0
 11
176.75180912954241
 21
235.87786246348449
 31
0.0
  0
LINE
  5
594B
  8
AM_0
 10
179.48599660253251
 20
232.6968374958914
 30
0.0
 11
179.25180912953951
 21
232.6968374958914
 31
0.0
  0
LINE
  5
594C
  8
AM_0
 10
179.10188596273321
 20
232.87674529605991
 30
0.0
 11
179.25180912953951
 21
232.6968374958914
 31
0.0
  0
LINE
  5
594D
  8
AM_0
 10
176.75180912954241
 20
235.69683749589359
 30
0.0
 11
176.86769848974359
 21
235.5577702636526
 31
0.0
  0
LINE
  5
594E
  8
AM_0
 10
187.2518091295434
 20
232.69683749589461
 30
0.0
 11
188.55180912954339
 21
232.69683749589461
 31
0.0
  0
LINE
  5
594F
  8
AM_0
 10
188.25180912954241
 20
232.6683337645286
 30
0.0
 11
188.2518091295434
 21
232.69683749589461
 31
0.0
  0
LINE
  5
5950
  8
AM_0
 10
179.25180912954059
 20
233.66464628775759
 30
0.0
 11
185.2518091295434
 21
233.66464628775759
 31
0.0
  0
LINE
  5
5951
  8
AM_0
 10
185.2518091295434
 20
233.16464628775759
 30
0.0
 11
179.25180912953951
 21
233.16464628775759
 31
0.0
  0
LINE
  5
5952
  8
AM_0
 10
179.25180912953951
 20
233.16464628775759
 30
0.0
 11
179.75180912953951
 21
232.69683749589359
 31
0.0
  0
LINE
  5
5953
  8
AM_0
 10
179.75180912953951
 20
233.16464628775759
 30
0.0
 11
179.25180912954059
 21
233.66464628775759
 31
0.0
  0
LINE
  5
5954
  8
AM_0
 10
179.25180912954059
 20
234.33562156372659
 30
0.0
 11
179.75180912953951
 21
233.66464628775759
 31
0.0
  0
LINE
  5
5955
  8
AM_0
 10
179.75180912953951
 20
234.38509980440361
 30
0.0
 11
179.25180912954059
 21
234.33562156372659
 31
0.0
  0
LINE
  5
5956
  8
AM_0
 10
185.2518091295434
 20
240.1066436608356
 30
0.0
 11
185.2518091295434
 21
241.19683749589359
 31
0.0
  0
LINE
  5
5957
  8
AM_0
 10
179.25180912953951
 20
240.19683749589359
 30
0.0
 11
185.2518091295434
 21
240.19683749589359
 31
0.0
  0
LINE
  5
5958
  8
AM_0
 10
179.75180912953951
 20
239.50857518738351
 30
0.0
 11
179.25180912953951
 21
240.19683749589359
 31
0.0
  0
LINE
  5
5959
  8
AM_0
 10
179.25180912953951
 20
240.19683749589359
 30
0.0
 11
179.7518091295405
 21
240.69683749589359
 31
0.0
  0
LINE
  5
595A
  8
AM_0
 10
179.25180912954059
 20
241.19683749589359
 30
0.0
 11
179.7518091295405
 21
240.69683749589359
 31
0.0
  0
LINE
  5
595B
  8
AM_0
 10
179.7518091295405
 20
240.69683749589359
 30
0.0
 11
185.2518091295434
 21
240.69683749589359
 31
0.0
  0
LINE
  5
595C
  8
AM_0
 10
179.75180912953951
 20
239.50857518738351
 30
0.0
 11
185.2518091295434
 21
239.50857518738351
 31
0.0
  0
LINE
  5
595D
  8
AM_0
 10
179.75180912953951
 20
234.38509980440361
 30
0.0
 11
185.2518091295434
 21
234.38509980440449
 31
0.0
  0
LINE
  5
595E
  8
AM_0
 10
188.25180912954241
 20
240.7468374958946
 30
0.0
 11
188.2518091295434
 21
241.19683749589359
 31
0.0
  0
LINE
  5
595F
  8
AM_0
 10
187.2518091295434
 20
232.4968374958946
 30
0.0
 11
187.2518091295434
 21
241.19683749589561
 31
0.0
  0
LINE
  5
5960
  8
AM_0
 10
187.9518091295424
 20
234.23933280786159
 30
0.0
 11
187.2518091295434
 21
234.23933280786159
 31
0.0
  0
LINE
  5
5961
  8
AM_0
 10
188.25180912954241
 20
233.53422195057161
 30
0.0
 11
188.25180912954241
 21
233.9393328078616
 31
0.0
  0
LINE
  5
5962
  8
AM_0
 10
187.2518091295434
 20
233.23422195057151
 30
0.0
 11
187.9518091295424
 21
233.23422195057151
 31
0.0
  0
LINE
  5
5963
  8
AM_0
 10
187.9518091295424
 20
237.6129329932626
 30
0.0
 11
187.2518091295434
 21
237.6129329932626
 31
0.0
  0
LINE
  5
5964
  8
AM_0
 10
188.25180912954241
 20
236.51301672697059
 30
0.0
 11
188.25180912954241
 21
237.31293299326259
 31
0.0
  0
LINE
  5
5965
  8
AM_0
 10
187.2518091295434
 20
236.21301672697061
 30
0.0
 11
187.9518091295424
 21
236.21301672697061
 31
0.0
  0
LINE
  5
5966
  8
AM_0
 10
187.2518091295434
 20
240.44683749589359
 30
0.0
 11
187.9518091295424
 21
240.44683749589359
 31
0.0
  0
LINE
  5
5967
  8
AM_0
 10
188.7518091295434
 20
241.1968374958935
 30
0.0
 11
188.7518091295434
 21
232.8968374958944
 31
0.0
  0
LINE
  5
5968
  8
AM_0
 10
185.4518091295424
 20
232.19683749589359
 30
0.0
 11
187.2518091295434
 21
232.19683749589359
 31
0.0
  0
LINE
  5
5969
  8
AM_0
 10
176.86769848974359
 20
235.5577702636526
 30
0.0
 11
179.10188596273321
 21
232.87674529605991
 31
0.0
  0
LINE
  5
596A
  8
AM_0
 10
187.98166024524889
 20
232.36982260746561
 30
0.0
 11
187.2518091295434
 21
232.29683749589461
 31
0.0
  0
LINE
  5
596B
  8
AM_0
 10
185.05180912954339
 20
232.69683749589359
 30
0.0
 11
179.48599660253251
 21
232.6968374958914
 31
0.0
  0
LINE
  5
596C
  8
AM_0
 10
185.2518091295434
 20
240.1066436608356
 30
0.0
 11
185.2518091295434
 21
232.49683749589349
 31
0.0
  0
LINE
  5
596D
  8
AM_0
 10
185.2518091295434
 20
232.49683749589349
 30
0.0
 11
185.25180912954241
 21
232.39683749589361
 31
0.0
  0
LINE
  5
596E
  8
AM_0
 10
192.87680912954241
 20
232.89683749589361
 30
0.0
 11
192.87680912954241
 21
239.50857518738351
 31
0.0
  0
LINE
  5
596F
  8
AM_0
 10
189.3768091295434
 20
241.1968374958935
 30
0.0
 11
189.74956298755339
 21
233.88069914837351
 31
0.0
  0
LINE
  5
5970
  8
AM_0
 10
189.9258444993184
 20
241.1968374958935
 30
0.0
 11
190.29882412128941
 21
233.88512412200649
 31
0.0
  0
LINE
  5
5971
  8
AM_0
 10
189.56673078811161
 20
234.52271972915699
 30
0.0
 11
189.54687072199849
 21
234.59683749589351
 31
0.0
  0
LINE
  5
5972
  8
AM_0
 10
190.4978353522234
 20
234.59683749589351
 30
0.0
 11
190.4779752861094
 21
234.52271972915801
 31
0.0
  0
LINE
  5
5973
  8
AM_0
 10
190.2201382935724
 20
233.84683749589351
 30
0.0
 11
189.82456778064841
 21
233.84683749589351
 31
0.0
  0
LINE
  5
5974
  8
AM_0
 10
189.72797528610931
 20
233.92095526263009
 30
0.0
 11
189.56673078811161
 21
234.52271972915699
 31
0.0
  0
LINE
  5
5975
  8
AM_0
 10
190.4779752861094
 20
234.52271972915801
 30
0.0
 11
190.31673078811161
 21
233.92095526263
 31
0.0
  0
LINE
  5
5976
  8
AM_0
 10
189.13757919319551
 20
241.1968374958935
 30
0.0
 11
189.54687072199849
 21
234.59683749589351
 31
0.0
  0
LINE
  5
5977
  8
AM_0
 10
190.08854382342051
 20
241.1968374958935
 30
0.0
 11
190.4978353522234
 21
234.59683749589351
 31
0.0
  0
LINE
  5
5978
  8
AM_0
 10
190.57456778064849
 20
234.59683749589351
 30
0.0
 11
192.37680912954249
 21
234.59683749589351
 31
0.0
  0
LINE
  5
5979
  8
AM_0
 10
192.87680912954241
 20
239.50857518738351
 30
0.0
 11
192.87680912954241
 21
241.19683749589461
 31
0.0
  0
LINE
  5
597A
  8
AM_0
 10
193.0768091295424
 20
232.6968374958935
 30
0.0
 11
196.67680912954239
 21
232.6968374958935
 31
0.0
  0
LINE
  5
597B
  8
AM_0
 10
196.67680912954259
 20
239.50857518738351
 30
0.0
 11
192.87680912954241
 21
239.50857518738351
 31
0.0
  0
LINE
  5
597C
  8
AM_0
 10
192.87680912954241
 20
234.38509980440449
 30
0.0
 11
196.67680912954259
 21
234.38509980440449
 31
0.0
  0
LINE
  5
597D
  8
AM_0
 10
171.87680912954241
 20
241.19683749589359
 30
0.0
 11
171.87680912954241
 21
236.94683749589359
 31
0.0
  0
LINE
  5
597E
  8
AM_0
 10
176.75180912954241
 20
236.89570113225761
 30
0.0
 11
171.87680912954241
 21
236.94683749589359
 31
0.0
  0
LINE
  5
597F
  8
AM_0
 10
171.87680912954261
 20
245.44683749589359
 30
0.0
 11
176.75180912954261
 21
245.49797385953059
 31
0.0
  0
LINE
  5
5980
  8
AM_0
 10
171.87680912954261
 20
245.44683749589359
 30
0.0
 11
171.87680912954241
 21
241.19683749589359
 31
0.0
  0
LINE
  5
5981
  8
AM_0
 10
196.67680912954259
 20
248.00857518738351
 30
0.0
 11
192.87680912954261
 21
248.00857518738351
 31
0.0
  0
LINE
  5
5982
  8
AM_0
 10
192.87680912954241
 20
242.88509980440449
 30
0.0
 11
196.67680912954259
 21
242.88509980440449
 31
0.0
  0
LINE
  5
5983
  8
AM_0
 10
196.67680912954259
 20
249.6968374958935
 30
0.0
 11
193.0768091295424
 21
249.6968374958935
 31
0.0
  0
LINE
  5
5984
  8
AM_0
 10
192.87680912954241
 20
241.19683749589461
 30
0.0
 11
192.87680912954241
 21
242.88509980440449
 31
0.0
  0
LINE
  5
5985
  8
AM_0
 10
192.37680912954261
 20
247.79683749589361
 30
0.0
 11
189.82854155796849
 21
247.79683749589361
 31
0.0
  0
LINE
  5
5986
  8
AM_0
 10
189.75180912954261
 20
247.79683749589361
 30
0.0
 11
190.08854382342051
 21
241.1968374958935
 31
0.0
  0
LINE
  5
5987
  8
AM_0
 10
188.80084449931741
 20
247.79683749589361
 30
0.0
 11
189.13757919319551
 21
241.1968374958935
 31
0.0
  0
LINE
  5
5988
  8
AM_0
 10
189.5707045654317
 20
248.47271972915701
 30
0.0
 11
189.73194906342951
 21
247.87095526262999
 31
0.0
  0
LINE
  5
5989
  8
AM_0
 10
188.8207045654317
 20
247.87095526262999
 30
0.0
 11
188.98194906342931
 21
248.47271972915701
 31
0.0
  0
LINE
  5
598A
  8
AM_0
 10
189.07854155796849
 20
248.5468374958935
 30
0.0
 11
189.47411207089249
 21
248.5468374958935
 31
0.0
  0
LINE
  5
598B
  8
AM_0
 10
189.73194906342951
 20
247.87095526262999
 30
0.0
 11
189.75180912954261
 21
247.79683749589361
 31
0.0
  0
LINE
  5
598C
  8
AM_0
 10
188.80084449931741
 20
247.79683749589361
 30
0.0
 11
188.8207045654317
 21
247.87095526262999
 31
0.0
  0
LINE
  5
598D
  8
AM_0
 10
189.5527978986095
 20
248.50855086978041
 30
0.0
 11
189.9258444993184
 21
241.1968374958935
 31
0.0
  0
LINE
  5
598E
  8
AM_0
 10
189.0035367648735
 20
248.51297584341441
 30
0.0
 11
189.3768091295434
 21
241.1968374958935
 31
0.0
  0
LINE
  5
598F
  8
AM_0
 10
192.87680912954241
 20
242.88509980440449
 30
0.0
 11
192.87680912954261
 21
249.49683749589431
 31
0.0
  0
LINE
  5
5990
  8
AM_0
 10
185.25180912954261
 20
249.9968374958946
 30
0.0
 11
185.2518091295434
 21
249.89683749589469
 31
0.0
  0
LINE
  5
5991
  8
AM_0
 10
185.2518091295434
 20
249.89683749589469
 30
0.0
 11
185.2518091295434
 21
242.2870313309526
 31
0.0
  0
LINE
  5
5992
  8
AM_0
 10
179.48599660253251
 20
249.69683749589649
 30
0.0
 11
185.05180912954339
 21
249.6968374958945
 31
0.0
  0
LINE
  5
5993
  8
AM_0
 10
187.2518091295434
 20
250.0968374958936
 30
0.0
 11
187.98166024524909
 21
250.02385238432259
 31
0.0
  0
LINE
  5
5994
  8
AM_0
 10
179.10188596273321
 20
249.51692969572821
 30
0.0
 11
176.86769848974359
 21
246.8359047281356
 31
0.0
  0
LINE
  5
5995
  8
AM_0
 10
187.2518091295434
 20
250.19683749589359
 30
0.0
 11
185.4518091295424
 21
250.19683749589359
 31
0.0
  0
LINE
  5
5996
  8
AM_0
 10
188.7518091295434
 20
249.49683749589349
 30
0.0
 11
188.7518091295434
 21
241.1968374958935
 31
0.0
  0
LINE
  5
5997
  8
AM_0
 10
187.9518091295424
 20
241.94683749589359
 30
0.0
 11
187.2518091295434
 21
241.94683749589359
 31
0.0
  0
LINE
  5
5998
  8
AM_0
 10
187.9518091295424
 20
246.18065826481759
 30
0.0
 11
187.2518091295434
 21
246.18065826481759
 31
0.0
  0
LINE
  5
5999
  8
AM_0
 10
188.25180912954249
 20
245.08074199852561
 30
0.0
 11
188.25180912954249
 21
245.8806582648175
 31
0.0
  0
LINE
  5
599A
  8
AM_0
 10
187.2518091295434
 20
244.7807419985256
 30
0.0
 11
187.9518091295424
 21
244.7807419985256
 31
0.0
  0
LINE
  5
599B
  8
AM_0
 10
187.9518091295424
 20
249.15945304121661
 30
0.0
 11
187.2518091295434
 21
249.15945304121661
 31
0.0
  0
LINE
  5
599C
  8
AM_0
 10
188.25180912954249
 20
248.4543421839266
 30
0.0
 11
188.25180912954249
 21
248.8594530412166
 31
0.0
  0
LINE
  5
599D
  8
AM_0
 10
187.2518091295434
 20
248.15434218392659
 30
0.0
 11
187.9518091295424
 21
248.15434218392659
 31
0.0
  0
LINE
  5
599E
  8
AM_0
 10
187.2518091295434
 20
241.19683749589561
 30
0.0
 11
187.2518091295434
 21
249.89683749589361
 31
0.0
  0
LINE
  5
599F
  8
AM_0
 10
188.2518091295434
 20
241.19683749589359
 30
0.0
 11
188.25180912954241
 21
241.64683749589361
 31
0.0
  0
LINE
  5
59A0
  8
AM_0
 10
185.2518091295434
 20
248.00857518738351
 30
0.0
 11
179.75180912953951
 21
248.00857518738351
 31
0.0
  0
LINE
  5
59A1
  8
AM_0
 10
185.2518091295434
 20
242.88509980440449
 30
0.0
 11
179.75180912953951
 21
242.88509980440361
 31
0.0
  0
LINE
  5
59A2
  8
AM_0
 10
185.2518091295434
 20
241.69683749589359
 30
0.0
 11
179.7518091295405
 21
241.69683749589359
 31
0.0
  0
LINE
  5
59A3
  8
AM_0
 10
179.7518091295405
 20
241.69683749589359
 30
0.0
 11
179.25180912954059
 21
241.19683749589359
 31
0.0
  0
LINE
  5
59A4
  8
AM_0
 10
179.7518091295405
 20
241.69683749589359
 30
0.0
 11
179.25180912953951
 21
242.19683749589359
 31
0.0
  0
LINE
  5
59A5
  8
AM_0
 10
179.25180912953951
 20
242.19683749589359
 30
0.0
 11
179.75180912953951
 21
242.88509980440361
 31
0.0
  0
LINE
  5
59A6
  8
AM_0
 10
185.2518091295434
 20
242.19683749589359
 30
0.0
 11
179.25180912953951
 21
242.19683749589359
 31
0.0
  0
LINE
  5
59A7
  8
AM_0
 10
185.2518091295434
 20
241.19683749589359
 30
0.0
 11
185.2518091295434
 21
242.2870313309526
 31
0.0
  0
LINE
  5
59A8
  8
AM_0
 10
179.25180912954059
 20
248.0580534280615
 30
0.0
 11
179.75180912953951
 21
248.00857518738351
 31
0.0
  0
LINE
  5
59A9
  8
AM_0
 10
179.75180912953951
 20
248.7290287040305
 30
0.0
 11
179.25180912954059
 21
248.0580534280615
 31
0.0
  0
LINE
  5
59AA
  8
AM_0
 10
179.25180912954059
 20
248.7290287040305
 30
0.0
 11
179.75180912953951
 21
249.2290287040305
 31
0.0
  0
LINE
  5
59AB
  8
AM_0
 10
179.75180912953951
 20
249.69683749589359
 30
0.0
 11
179.25180912953951
 21
249.2290287040305
 31
0.0
  0
LINE
  5
59AC
  8
AM_0
 10
179.25180912953951
 20
249.2290287040305
 30
0.0
 11
185.2518091295434
 21
249.2290287040305
 31
0.0
  0
LINE
  5
59AD
  8
AM_0
 10
185.2518091295434
 20
248.7290287040305
 30
0.0
 11
179.25180912954059
 21
248.7290287040305
 31
0.0
  0
LINE
  5
59AE
  8
AM_0
 10
188.2518091295434
 20
249.69683749589359
 30
0.0
 11
188.25180912954249
 21
249.72534122725949
 31
0.0
  0
LINE
  5
59AF
  8
AM_0
 10
188.55180912954339
 20
249.6968374958935
 30
0.0
 11
187.2518091295434
 21
249.69683749589359
 31
0.0
  0
LINE
  5
59B0
  8
AM_0
 10
176.86769848974359
 20
246.8359047281356
 30
0.0
 11
176.75180912954261
 21
246.69683749589359
 31
0.0
  0
LINE
  5
59B1
  8
AM_0
 10
179.25180912953951
 20
249.69683749589649
 30
0.0
 11
179.10188596273321
 21
249.51692969572821
 31
0.0
  0
LINE
  5
59B2
  8
AM_0
 10
179.25180912953951
 20
249.69683749589649
 30
0.0
 11
179.48599660253251
 21
249.69683749589649
 31
0.0
  0
LINE
  5
59B3
  8
AM_0
 10
176.75180912954261
 20
246.51581252830371
 30
0.0
 11
176.75180912954241
 21
241.19683749589359
 31
0.0
  0
LINE
  5
59B4
  8
AM_0
 10
176.75180912954261
 20
246.52925243675759
 30
0.0
 11
176.75180912954261
 21
246.69683749589359
 31
0.0
  0
LINE
  5
59B5
  8
AM_0
 10
187.2518091295434
 20
249.89683749589361
 30
0.0
 11
187.2518091295434
 21
250.19683749589359
 31
0.0
  0
ARC
  5
59B6
  8
AM_0
 10
189.4701382935724
 20
234.4968374958936
 30
0.0
 40
0.0999999999999643
 50
15.00019500651173
 51
90.0
  0
ARC
  5
59B7
  8
AM_0
 10
186.06430912953951
 20
236.94683749589359
 30
0.0
 40
6.8125000000000382
 50
157.91171016506041
 51
202.08828983493959
  0
ARC
  5
59B8
  8
AM_0
 10
196.67680912954239
 20
232.4968374958936
 30
0.0
 40
0.1999999999999993
 50
0.0
 51
90.0
  0
ARC
  5
59B9
  8
AM_0
 10
196.67680912954239
 20
249.89683749589349
 30
0.0
 40
0.2000000000000028
 50
270.0
 51
0.0
  0
ARC
  5
59BA
  8
AM_0
 10
186.06430912953951
 20
245.44683749589359
 30
0.0
 40
6.8125000000000382
 50
157.91171016506041
 51
202.08828983493959
  0
ARC
  5
59BB
  8
AM_0
 10
188.7201382935724
 20
233.94683749589359
 30
0.0
 40
0.1000000000000547
 50
288.46397675729747
 51
344.99980499348823
  0
ARC
  5
59BC
  8
AM_0
 10
189.07456778064841
 20
234.4968374958946
 30
0.0
 40
0.1000000000000014
 50
90.0
 51
164.9998049934851
  0
ARC
  5
59BD
  8
AM_0
 10
179.48599660253251
 20
233.1968374958916
 30
0.0
 40
0.499999999999975
 50
219.8055710921868
 51
270.0
  0
ARC
  5
59BE
  8
AM_0
 10
177.25180912954241
 20
235.8778624634846
 30
0.0
 40
0.5
 50
180.00000000000981
 51
219.80557109222721
  0
ARC
  5
59BF
  8
AM_0
 10
187.9518091295424
 20
233.9393328078616
 30
0.0
 40
0.3000000000000007
 50
0.0
 51
90.0
  0
ARC
  5
59C0
  8
AM_0
 10
187.9518091295424
 20
233.53422195057161
 30
0.0
 40
0.3000000000000043
 50
270.0
 51
0.0
  0
ARC
  5
59C1
  8
AM_0
 10
187.9518091295424
 20
237.31293299326259
 30
0.0
 40
0.3000000000000007
 50
0.0
 51
90.0
  0
ARC
  5
59C2
  8
AM_0
 10
187.9518091295424
 20
236.51301672697059
 30
0.0
 40
0.2999999999999971
 50
270.0
 51
0.0
  0
ARC
  5
59C3
  8
AM_0
 10
187.9518091295424
 20
240.7468374958946
 30
0.0
 40
0.2999999999999971
 50
270.0
 51
0.0
  0
ARC
  5
59C4
  8
AM_0
 10
187.9518091295424
 20
232.6683337645286
 30
0.0
 40
0.3000000000000302
 50
275.7105931375562
 51
0.0
  0
ARC
  5
59C5
  8
AM_0
 10
185.4518091295424
 20
232.39683749589361
 30
0.0
 40
0.1999999999999993
 50
180.0
 51
270.0
  0
ARC
  5
59C6
  8
AM_0
 10
188.55180912954339
 20
232.8968374958946
 30
0.0
 40
0.1999999999999957
 50
270.0
 51
0.0
  0
ARC
  5
59C7
  8
AM_0
 10
185.05180912954339
 20
232.4968374958936
 30
0.0
 40
0.1999999999999993
 50
359.99999999997061
 51
90.0
  0
ARC
  5
59C8
  8
AM_0
 10
190.57456778064849
 20
234.49683749589451
 30
0.0
 40
0.1000000000000014
 50
90.0
 51
164.9998049934851
  0
ARC
  5
59C9
  8
AM_0
 10
190.2201382935724
 20
233.94683749589359
 30
0.0
 40
0.1000000000000014
 50
270.0
 51
344.99980499348823
  0
ARC
  5
59CA
  8
AM_0
 10
189.82456778064841
 20
233.94683749589359
 30
0.0
 40
0.1000000000000311
 50
195.00019500644541
 51
270.0
  0
ARC
  5
59CB
  8
AM_0
 10
192.37680912954249
 20
234.09683749589351
 30
0.0
 40
0.5
 50
359.99999999997721
 51
90.0
  0
ARC
  5
59CC
  8
AM_0
 10
196.67680912954239
 20
239.30857518738361
 30
0.0
 40
0.1999999999999993
 50
0.0
 51
90.0
  0
ARC
  5
59CD
  8
AM_0
 10
196.67680912954239
 20
234.58509980440459
 30
0.0
 40
0.2000000000000028
 50
270.0
 51
0.0
  0
ARC
  5
59CE
  8
AM_0
 10
193.0768091295424
 20
232.89683749589349
 30
0.0
 40
0.1999999999999993
 50
179.99999999994131
 51
270.0
  0
ARC
  5
59CF
  8
AM_0
 10
193.0768091295424
 20
249.49683749589451
 30
0.0
 40
0.2000000000000028
 50
90.0
 51
180.00000000005531
  0
ARC
  5
59D0
  8
AM_0
 10
196.67680912954239
 20
247.80857518738361
 30
0.0
 40
0.1999999999999993
 50
0.0
 51
90.0
  0
ARC
  5
59D1
  8
AM_0
 10
196.67680912954239
 20
243.08509980440351
 30
0.0
 40
0.2000000000000028
 50
270.0
 51
0.0
  0
ARC
  5
59D2
  8
AM_0
 10
192.37680912954249
 20
248.2968374958935
 30
0.0
 40
0.5
 50
270.0
 51
0.0000000000227982
  0
ARC
  5
59D3
  8
AM_0
 10
189.07854155796849
 20
248.44683749589359
 30
0.0
 40
0.1000000000000014
 50
90.0
 51
164.99980499355451
  0
ARC
  5
59D4
  8
AM_0
 10
189.47411207089249
 20
248.44683749589359
 30
0.0
 40
0.0999999999999608
 50
15.000195006514859
 51
90.0
  0
ARC
  5
59D5
  8
AM_0
 10
189.82854155796849
 20
247.89683749589361
 30
0.0
 40
0.0999999999999608
 50
195.0001950065149
 51
270.0
  0
ARC
  5
59D6
  8
AM_0
 10
188.72411207089249
 20
247.89683749589361
 30
0.0
 40
0.0999999999999803
 50
286.07948273872017
 51
344.99980499348521
  0
ARC
  5
59D7
  8
AM_0
 10
185.05180912954339
 20
249.8968374958946
 30
0.0
 40
0.1999999999999957
 50
270.0
 51
0.000000000029312
  0
ARC
  5
59D8
  8
AM_0
 10
188.55180912954339
 20
249.4968374958936
 30
0.0
 40
0.1999999999999993
 50
0.0
 51
90.0
  0
ARC
  5
59D9
  8
AM_0
 10
185.4518091295424
 20
249.9968374958946
 30
0.0
 40
0.2000000000000028
 50
90.0
 51
180.0
  0
ARC
  5
59DA
  8
AM_0
 10
187.9518091295424
 20
249.72534122725961
 30
0.0
 40
0.3000000000000007
 50
0.0
 51
84.289406862443784
  0
ARC
  5
59DB
  8
AM_0
 10
187.9518091295424
 20
241.64683749589361
 30
0.0
 40
0.3000000000000007
 50
0.0
 51
90.0
  0
ARC
  5
59DC
  8
AM_0
 10
187.9518091295424
 20
245.88065826481761
 30
0.0
 40
0.3000000000000007
 50
0.0
 51
90.0
  0
ARC
  5
59DD
  8
AM_0
 10
187.9518091295424
 20
245.08074199852561
 30
0.0
 40
0.2999999999999971
 50
270.0
 51
0.0
  0
ARC
  5
59DE
  8
AM_0
 10
187.9518091295424
 20
248.8594530412166
 30
0.0
 40
0.3000000000000007
 50
0.0
 51
90.0
  0
ARC
  5
59DF
  8
AM_0
 10
187.9518091295424
 20
248.4543421839266
 30
0.0
 40
0.3000000000000043
 50
270.0
 51
0.0
  0
ARC
  5
59E0
  8
AM_0
 10
177.25180912954241
 20
246.5158125283036
 30
0.0
 40
0.5000000000000059
 50
140.1944289077727
 51
179.99999999998701
  0
ARC
  5
59E1
  8
AM_0
 10
179.48599660253251
 20
249.1968374958966
 30
0.0
 40
0.5
 50
90.0
 51
140.19442890781301
  0
LINE
  5
59E2
  8
AM_0
 10
197.0768091295424
 20
232.1968374958935
 30
0.0
 11
198.87680912954241
 21
232.1968374958935
 31
0.0
  0
LINE
  5
59E3
  8
AM_0
 10
196.87680912954241
 20
232.39683749589349
 30
0.0
 11
196.87680912954241
 21
249.99683749589451
 31
0.0
  0
LINE
  5
59E4
  8
AM_0
 10
198.87680912954241
 20
250.1968374958935
 30
0.0
 11
197.0768091295424
 21
250.19683749589359
 31
0.0
  0
ARC
  5
59E5
  8
AM_0
 10
197.0768091295424
 20
232.39683749589349
 30
0.0
 40
0.1999999999999993
 50
180.0
 51
270.0
  0
ARC
  5
59E6
  8
AM_0
 10
197.0768091295424
 20
249.99683749589451
 30
0.0
 40
0.2000000000000028
 50
90.0
 51
180.0
  0
LINE
  5
59E7
  8
ﾁｭｳｼﾝｾﾝ1
 10
168.87680912954241
 20
276.19683749589348
 30
0.0
 11
202.1747552680329
 21
276.19683749589348
 31
0.0
  0
POLYLINE
  5
59E8
  8
AM_0
 66
     1
 10
0.0
 20
0.0
 30
0.0
  0
VERTEX
  5
59E9
  8
AM_0
  6
CONTINUOUS
 10
193.24005487623521
 20
264.1968374958937
 30
0.0
  0
VERTEX
  5
59EA
  8
AM_0
  6
CONTINUOUS
 10
193.2449791295424
 20
257.46436049589357
 30
0.0
 42
-1.0
  0
SEQEND
  5
59EB
  8
AM_0
  0
LINE
  5
59EC
  8
AM_0
 10
198.87680912954241
 20
257.19683849589359
 30
0.0
 11
193.24221912954221
 21
257.19683849589359
 31
0.0
  0
LINE
  5
59ED
  8
AM_0
 10
198.87680912954241
 20
255.19683749589359
 30
0.0
 11
193.24221912954221
 21
255.19683749589359
 31
0.0
  0
ARC
  5
59EE
  8
AM_0
 10
192.14571912954241
 20
256.19293049589362
 30
0.0
 40
1.26892095
 50
90.00000299999769
 51
270.0
  0
ARC
  5
59EF
  8
AM_0
 10
193.42617912954239
 20
256.19683649589371
 30
0.0
 40
1.0000000199999981
 50
90.00000299999769
 51
270.0
  0
LINE
  5
59F0
  8
AM_0
 10
192.14571912954241
 20
257.4618524958936
 30
0.0
 11
198.87680912954241
 21
257.4618524958936
 31
0.0
  0
LINE
  5
59F1
  8
AM_0
 10
192.14571912954241
 20
254.92400849589359
 30
0.0
 11
198.87680912954241
 21
254.92400849589359
 31
0.0
  0
POLYLINE
  5
59F2
  8
AM_0
 66
     1
 10
0.0
 20
0.0
 30
0.0
  0
VERTEX
  5
59F3
  8
AM_0
 10
193.28556912954241
 20
254.92750649589371
 30
0.0
  0
VERTEX
  5
59F4
  8
AM_0
 10
193.49634017444939
 20
249.6968374958935
 30
0.0
 42
-1.0
  0
SEQEND
  5
59F5
  8
AM_0
  0
LINE
  5
59F6
  8
AM_0
 10
175.37681912954321
 20
313.25824100466548
 30
0.0
 11
175.37681912954301
 21
287.1968374958937
 31
0.0
  0
LINE
  5
59F7
  8
AM_0
 10
166.3768191295423
 20
315.19683749589359
 30
0.0
 11
166.3768191295423
 21
244.1968374958935
 31
0.0
  0
LINE
  5
59F8
  8
AM_0
 10
166.3768191295423
 20
238.19683749589359
 30
0.0
 11
166.3768191295423
 21
207.1968374958935
 31
0.0
  0
LINE
  5
59F9
  8
AM_0
 10
166.3768191295423
 20
315.19683749589359
 30
0.0
 11
183.3768191295423
 21
314.19683749589348
 31
0.0
  0
LINE
  5
59FA
  8
AM_0
 10
166.3768191295423
 20
207.19683749589359
 30
0.0
 11
183.3768191295423
 21
208.19683749589359
 31
0.0
  0
LINE
  5
59FB
  8
AM_0
 10
175.37681912954301
 20
304.79074069398501
 30
0.0
 11
183.3768191295423
 21
304.79074069398501
 31
0.0
  0
LINE
  5
59FC
  8
AM_0
 10
175.37681912954321
 20
313.25824100466548
 30
0.0
 11
183.3768191295423
 21
313.25824100466548
 31
0.0
  0
LINE
  5
59FD
  8
AM_0
 10
171.87681912954301
 20
295.83771046115362
 30
0.0
 11
175.37681912954301
 21
295.83771046115362
 31
0.0
  0
LINE
  5
59FE
  8
AM_0
 10
171.87681912954301
 20
304.33771046115362
 30
0.0
 11
175.37681912954321
 21
304.33771046115362
 31
0.0
  0
LINE
  5
59FF
  8
AM_0
 10
171.37681912954309
 20
303.83771046115362
 30
0.0
 11
171.37681912954309
 21
296.33771046115362
 31
0.0
  0
ARC
  5
5A00
  8
AM_0
 10
171.87681912954301
 20
303.83771046115362
 30
0.0
 40
0.5
 50
90.0
 51
180.0
  0
ARC
  5
5A01
  8
AM_0
 10
171.87681912954301
 20
296.33771046115362
 30
0.0
 40
0.5
 50
180.0
 51
270.0
  0
LINE
  5
5A02
  8
AM_0
 10
166.3768191295423
 20
303.46903198903368
 30
0.0
 11
171.37681912954309
 21
303.46903198903379
 31
0.0
  0
LINE
  5
5A03
  8
AM_0
 10
166.3768191295423
 20
293.7339494907377
 30
0.0
 11
175.37681912954301
 21
293.7339494907377
 31
0.0
  0
LINE
  5
5A04
  8
AM_0
 10
175.37681912954321
 20
209.1354339871215
 30
0.0
 11
175.37681912954301
 21
236.9101241042855
 31
0.0
  0
LINE
  5
5A05
  8
AM_0
 10
175.37681912954301
 20
217.60293429780199
 30
0.0
 11
183.3768191295423
 21
217.60293429780211
 31
0.0
  0
LINE
  5
5A06
  8
AM_0
 10
175.37681912954321
 20
209.1354339871215
 30
0.0
 11
183.3768191295423
 21
209.1354339871215
 31
0.0
  0
LINE
  5
5A07
  8
AM_0
 10
171.87681912954301
 20
226.5559645306335
 30
0.0
 11
175.37681912954301
 21
226.5559645306335
 31
0.0
  0
LINE
  5
5A08
  8
AM_0
 10
171.87681912954301
 20
218.0559645306335
 30
0.0
 11
175.37681912954321
 21
218.0559645306335
 31
0.0
  0
LINE
  5
5A09
  8
AM_0
 10
171.37681912954309
 20
218.5559645306335
 30
0.0
 11
171.37681912954309
 21
226.05596453063339
 31
0.0
  0
ARC
  5
5A0A
  8
AM_0
 10
171.87681912954301
 20
218.5559645306335
 30
0.0
 40
0.5
 50
180.0
 51
270.0
  0
ARC
  5
5A0B
  8
AM_0
 10
171.87681912954301
 20
226.05596453063339
 30
0.0
 40
0.5
 50
90.0
 51
180.0
  0
LINE
  5
5A0C
  8
AM_0
 10
166.3768191295423
 20
218.92464300275341
 30
0.0
 11
171.37681912954309
 21
218.9246430027533
 31
0.0
  0
LINE
  5
5A0D
  8
AM_0
 10
166.3768191295423
 20
228.65972550104931
 30
0.0
 11
175.37681912954301
 21
228.65972550104939
 31
0.0
  0
LINE
  5
5A0E
  8
AM_0
 10
131.46623437820671
 20
297.18724834081962
 30
0.0
 11
131.46623437820671
 21
290.67564344186081
 31
0.0
  0
LINE
  5
5A0F
  8
AM_0
 10
128.3768191295421
 20
250.1968374958935
 30
0.0
 11
128.3768191295421
 21
244.6968374958935
 31
0.0
  0
LINE
  5
5A10
  8
AM_0
 10
133.8768191295421
 20
257.69683749589348
 30
0.0
 11
133.8768191295421
 21
264.69683749589342
 31
0.0
  0
LINE
  5
5A11
  8
AM_0
 10
145.57681912954209
 20
244.6968374958935
 30
0.0
 11
128.3768191295421
 21
244.6968374958935
 31
0.0
  0
LINE
  5
5A12
  8
AM_0
 10
160.3768191295421
 20
207.1968374958935
 30
0.0
 11
160.3768191295421
 21
237.905174778081
 31
0.0
  0
LINE
  5
5A13
  8
AM_0
 10
160.3768191295421
 20
243.63506598961641
 30
0.0
 11
160.3768191295421
 21
315.19683749589359
 31
0.0
  0
LINE
  5
5A14
  8
AM_0
 10
128.3768191295421
 20
259.69683749589348
 30
0.0
 11
129.27681912954219
 21
259.69683749589348
 31
0.0
  0
LINE
  5
5A15
  8
AM_0
 10
145.8768191295421
 20
252.69683749589359
 30
0.0
 11
145.8768191295421
 21
255.28134718049751
 31
0.0
  0
LINE
  5
5A16
  8
AM_0
 10
126.1768191295418
 20
262.69683749589348
 30
0.0
 11
126.1768191295418
 21
259.69683749589348
 31
0.0
  0
LINE
  5
5A17
  8
AM_0
 10
129.27681912954219
 20
259.42448576130988
 30
0.0
 11
129.27681912954219
 21
262.9691892304773
 31
0.0
  0
LINE
  5
5A18
  8
AM_0
 10
125.8768191295421
 20
262.39683749589352
 30
0.0
 11
129.27681912954219
 21
262.39683749589352
 31
0.0
  0
LINE
  5
5A19
  8
AM_0
 10
133.27681912954219
 20
258.81526763548641
 30
0.0
 11
133.27681912954219
 21
257.69683749589348
 31
0.0
  0
LINE
  5
5A1A
  8
AM_0
 10
133.27681912954219
 20
259.69683749589348
 30
0.0
 11
133.27681912954219
 21
259.59683749589351
 31
0.0
  0
LINE
  5
5A1B
  8
AM_0
 10
133.27681912954219
 20
259.59683749589351
 30
0.0
 11
133.27681912954219
 21
258.81526763548641
 31
0.0
  0
LINE
  5
5A1C
  8
AM_0
 10
128.3768191295421
 20
244.6968374958935
 30
0.0
 11
128.3768191295421
 21
236.45930348647121
 31
0.0
  0
LINE
  5
5A1D
  8
AM_0
 10
145.7303725201354
 20
255.6349005710909
 30
0.0
 11
145.3753053939472
 21
255.98996769727901
 31
0.0
  0
LINE
  5
5A1E
  8
AM_0
 10
128.3768191295421
 20
262.69683749589348
 30
0.0
 11
128.3768191295421
 21
285.93437150531582
 31
0.0
  0
LINE
  5
5A1F
  8
AM_0
 10
160.3768191295421
 20
306.1968374958937
 30
0.0
 11
136.60681042890951
 21
306.1968374958937
 31
0.0
  0
LINE
  5
5A20
  8
AM_0
 10
128.3768191295421
 20
251.12324067161461
 30
0.0
 11
128.3768191295421
 21
259.69683749589348
 31
0.0
  0
LINE
  5
5A21
  8
AM_0
 10
166.3768191295423
 20
315.19683749589359
 30
0.0
 11
160.3768191295421
 21
315.19683749589359
 31
0.0
  0
LINE
  5
5A22
  8
AM_0
 10
160.3768191295421
 20
207.1968374958935
 30
0.0
 11
166.3768191295421
 21
207.1968374958935
 31
0.0
  0
LINE
  5
5A23
  8
AM_0
 10
160.3768191295421
 20
216.1968374958935
 30
0.0
 11
150.8768191295421
 21
216.1968374958935
 31
0.0
  0
LINE
  5
5A24
  8
AM_0
 10
128.4223958705056
 20
286.4553160383166
 30
0.0
 11
130.99183931816779
 21
301.02735394958029
 31
0.0
  0
LINE
  5
5A25
  8
AM_0
 10
128.3768191295421
 20
251.12324067161461
 30
0.0
 11
128.3768191295421
 21
250.1968374958935
 31
0.0
  0
LINE
  5
5A26
  8
AM_0
 10
150.8768191295421
 20
216.26545994627941
 30
0.0
 11
148.31403183064509
 21
216.26545994627941
 31
0.0
  0
LINE
  5
5A27
  8
AM_0
 10
134.42065763724321
 20
216.1968374958935
 30
0.0
 11
135.3768191295421
 21
216.1968374958935
 31
0.0
  0
LINE
  5
5A28
  8
AM_0
 10
128.4223958705056
 20
235.93835895347041
 30
0.0
 11
131.46623437820671
 21
218.6758929628927
 31
0.0
  0
LINE
  5
5A29
  8
AM_0
 10
128.3768191295421
 20
236.1968374958935
 30
0.0
 11
128.4223958705056
 21
235.93835895347041
 31
0.0
  0
LINE
  5
5A2A
  8
AM_0
 10
128.3768191295421
 20
236.45930348647121
 30
0.0
 11
128.3768191295421
 21
236.1968374958935
 31
0.0
  0
LINE
  5
5A2B
  8
AM_0
 10
139.42681912954231
 20
232.19578110752141
 30
0.0
 11
144.32681912954209
 21
232.19578110752141
 31
0.0
  0
LINE
  5
5A2C
  8
AM_0
 10
139.42681912954231
 20
230.9827607890889
 30
0.0
 11
144.32681912954209
 21
230.9827607890889
 31
0.0
  0
LINE
  5
5A2D
  8
AM_0
 10
138.6268191295421
 20
231.39578110752149
 30
0.0
 11
138.6268191295421
 21
225.7546496870751
 31
0.0
  0
LINE
  5
5A2E
  8
AM_0
 10
138.6268191295421
 20
223.9232438181424
 30
0.0
 11
138.6268191295421
 21
225.7546496870751
 31
0.0
  0
LINE
  5
5A2F
  8
AM_0
 10
134.77681912954219
 20
217.23354715821941
 30
0.0
 11
134.77681912954219
 21
223.85611153634639
 31
0.0
  0
LINE
  5
5A30
  8
AM_0
 10
145.1268191295421
 20
231.39578110752149
 30
0.0
 11
145.1268191295421
 21
229.6304055015199
 31
0.0
  0
LINE
  5
5A31
  8
AM_0
 10
148.97681912954209
 20
223.85611153634639
 30
0.0
 11
148.97681912954209
 21
217.23354715821941
 31
0.0
  0
LINE
  5
5A32
  8
AM_0
 10
140.5119837283159
 20
221.63727611802861
 30
0.0
 11
135.3768191295421
 21
219.84726086280409
 31
0.0
  0
LINE
  5
5A33
  8
AM_0
 10
148.3768191295421
 20
219.84726086280409
 30
0.0
 11
146.73678290339609
 21
220.41894455618041
 31
0.0
  0
LINE
  5
5A34
  8
AM_0
 10
139.36644572416921
 20
219.65314609284539
 30
0.0
 11
135.3768191295421
 21
218.26244238127649
 31
0.0
  0
LINE
  5
5A35
  8
AM_0
 10
148.3768191295421
 20
218.26244238127649
 30
0.0
 11
145.97508191437279
 21
219.09963974301641
 31
0.0
  0
LINE
  5
5A36
  8
AM_0
 10
148.3768191295421
 20
219.84726086280409
 30
0.0
 11
148.3768191295421
 21
216.9781197139593
 31
0.0
  0
LINE
  5
5A37
  8
AM_0
 10
148.3768191295421
 20
216.9781197139593
 30
0.0
 11
148.3768191295421
 21
214.95887709583869
 31
0.0
  0
LINE
  5
5A38
  8
AM_0
 10
141.87677686771599
 20
212.69309289662311
 30
0.0
 11
148.3768191295421
 21
214.95887709583869
 31
0.0
  0
LINE
  5
5A39
  8
AM_0
 10
135.3768191295421
 20
214.95887709583869
 30
0.0
 11
135.3768191295421
 21
216.9781197139593
 31
0.0
  0
LINE
  5
5A3A
  8
AM_0
 10
135.3768191295421
 20
214.95887709583869
 30
0.0
 11
141.87677686771599
 21
212.6931223598709
 31
0.0
  0
LINE
  5
5A3B
  8
AM_0
 10
135.3768191295421
 20
216.9781197139593
 30
0.0
 11
135.3768191295421
 21
219.84726086280409
 31
0.0
  0
LINE
  5
5A3C
  8
AM_0
 10
127.8767804615353
 20
314.69683749589348
 30
0.0
 11
127.87675800913659
 21
341.69683749589348
 31
0.0
  0
LINE
  5
5A3D
  8
AM_0
 10
127.87675800913659
 20
341.69683749589348
 30
0.0
 11
135.87675800913919
 21
341.69683749589348
 31
0.0
  0
LINE
  5
5A3E
  8
AM_0
 10
135.87675800913919
 20
341.69683749589348
 30
0.0
 11
137.37675335396011
 21
347.29489633388209
 31
0.0
  0
LINE
  5
5A3F
  8
AM_0
 10
137.37675335396011
 20
347.29489633388209
 30
0.0
 11
137.37673859059981
 21
365.04848861377241
 31
0.0
  0
LINE
  5
5A40
  8
AM_0
 10
127.87675800913659
 20
341.69683749589348
 30
0.0
 11
126.3767533539276
 21
347.29493108072342
 31
0.0
  0
LINE
  5
5A41
  8
AM_0
 10
126.3767533539276
 20
347.29493108072342
 30
0.0
 11
126.37673859060359
 21
365.04847946649897
 31
0.0
  0
LINE
  5
5A42
  8
AM_0
 10
131.8767804615365
 20
365.04847946649897
 30
0.0
 11
131.8767804615365
 21
347.29493108072342
 31
0.0
  0
LINE
  5
5A43
  8
AM_0
 10
135.87675800913919
 20
341.69683749589348
 30
0.0
 11
135.87678046153809
 21
314.69683749589348
 31
0.0
  0
LINE
  5
5A44
  8
AM_0
 10
145.87681912954221
 20
290.67564344186081
 30
0.0
 11
145.8768191295421
 21
244.99683749589349
 31
0.0
  0
LINE
  5
5A45
  8
AM_0
 10
133.8768191295421
 20
255.28134718049751
 30
0.0
 11
133.8768191295421
 21
252.69683749589359
 31
0.0
  0
LINE
  5
5A46
  8
AM_0
 10
134.3783328651372
 20
255.98996769727901
 30
0.0
 11
134.02326573894899
 21
255.6349005710909
 31
0.0
  0
LINE
  5
5A47
  8
AM_0
 10
145.3768191295421
 20
252.1968374958935
 30
0.0
 11
134.3768191295421
 21
252.1968374958935
 31
0.0
  0
LINE
  5
5A48
  8
AM_0
 10
125.3767812930413
 20
313.69683209068643
 30
0.0
 11
125.3768083190766
 21
308.69683209068643
 31
0.0
  0
LINE
  5
5A49
  8
AM_0
 10
138.3767812931728
 20
313.69684290110052
 30
0.0
 11
138.3768072209925
 21
308.90002024773003
 31
0.0
  0
LINE
  5
5A4A
  8
AM_0
 10
128.99732238162301
 20
306.69683749589359
 30
0.0
 11
128.42576048025779
 21
307.3534213179538
 31
0.0
  0
LINE
  5
5A4B
  8
AM_0
 10
126.37680831906211
 20
307.69683749589348
 30
0.0
 11
137.3768072209925
 21
307.69683749589348
 31
0.0
  0
LINE
  5
5A4C
  8
AM_0
 10
138.3768072209925
 20
308.90002024773003
 30
0.0
 11
138.3768072209925
 21
308.69683749589359
 31
0.0
  0
LINE
  5
5A4D
  8
AM_0
 10
138.3768072209925
 20
308.90002024773003
 30
0.0
 11
138.37680831920821
 21
308.69684290110052
 31
0.0
  0
LINE
  5
5A4E
  8
AM_0
 10
126.3767812930266
 20
314.69683749589348
 30
0.0
 11
137.37678129318721
 21
314.69683749589348
 31
0.0
  0
LINE
  5
5A4F
  8
AM_0
 10
136.3842550917044
 20
306.72742456617891
 30
0.0
 11
143.50705482504981
 21
289.74618524743221
 31
0.0
  0
LINE
  5
5A50
  8
AM_0
 10
128.99732238162301
 20
306.69683749589359
 30
0.0
 11
135.57403745693341
 21
288.0022968654913
 31
0.0
  0
LINE
  5
5A51
  8
AM_0
 10
133.27681912954219
 20
259.69683749589348
 30
0.0
 11
133.27681912954219
 21
259.59683749589351
 31
0.0
  0
LINE
  5
5A52
  8
AM_0
 10
133.27681912954219
 20
259.59683749589351
 30
0.0
 11
133.27681912954219
 21
258.81526763548641
 31
0.0
  0
LINE
  5
5A53
  8
AM_0
 10
133.27681912954219
 20
257.69683749589348
 30
0.0
 11
133.8768191295421
 21
257.69683749589348
 31
0.0
  0
LINE
  5
5A54
  8
AM_0
 10
130.57681912954209
 20
258.81526763548641
 30
0.0
 11
130.57681912954209
 21
263.57840735630072
 31
0.0
  0
LINE
  5
5A55
  8
AM_0
 10
130.4157749002847
 20
258.52857600714339
 30
0.0
 11
129.4832218507774
 21
259.06698576130992
 31
0.0
  0
LINE
  5
5A56
  8
AM_0
 10
133.27681912954219
 20
264.69683749589342
 30
0.0
 11
133.27681912954219
 21
259.69683749589348
 31
0.0
  0
LINE
  5
5A57
  8
AM_0
 10
130.84927072157279
 20
258.02141101535062
 30
0.0
 11
133.0043675375116
 21
258.02141101535062
 31
0.0
  0
LINE
  5
5A58
  8
AM_0
 10
130.84927072157279
 20
259.60912425562208
 30
0.0
 11
133.0043675375116
 21
259.60912425562208
 31
0.0
  0
LINE
  5
5A59
  8
AM_0
 10
129.27681912954219
 20
262.69683749589348
 30
0.0
 11
126.1768191295418
 21
262.69683749589348
 31
0.0
  0
LINE
  5
5A5A
  8
AM_0
 10
126.1768191295418
 20
262.69683749589348
 30
0.0
 11
125.8768191295421
 21
262.39683749589352
 31
0.0
  0
LINE
  5
5A5B
  8
AM_0
 10
125.8768191295421
 20
262.39683749589352
 30
0.0
 11
125.8768191295421
 21
259.99683749589349
 31
0.0
  0
LINE
  5
5A5C
  8
AM_0
 10
126.1768191295418
 20
259.69683749589348
 30
0.0
 11
128.3768191295421
 21
259.69683749589348
 31
0.0
  0
LINE
  5
5A5D
  8
AM_0
 10
125.8768191295421
 20
259.99683749589349
 30
0.0
 11
126.1768191295418
 21
259.69683749589348
 31
0.0
  0
LINE
  5
5A5E
  8
AM_0
 10
129.27681912954219
 20
259.99683749589349
 30
0.0
 11
125.8768191295421
 21
259.99683749589349
 31
0.0
  0
ARC
  5
5A5F
  8
AM_0
 10
127.8768191295421
 20
261.19683749589348
 30
0.0
 40
18.000000000000082
 50
344.79096035988852
 51
15.20903964010826
  0
ARC
  5
5A60
  8
AM_0
 10
131.98404231351549
 20
258.81526763548641
 30
0.0
 40
1.292776816026465
 50
322.11555894630823
 51
0.0
  0
ARC
  5
5A61
  8
AM_0
 10
151.8768191295421
 20
261.19683749589348
 30
0.0
 40
17.999999999999918
 50
164.7909603598886
 51
195.2090396401114
  0
ARC
  5
5A62
  8
AM_0
 10
139.18063198061071
 20
217.94724958955899
 30
0.0
 40
6.001601094213977
 50
95.294644622328207
 51
137.2036378052704
  0
ARC
  5
5A63
  8
AM_0
 10
139.18063198061071
 20
219.77865545849181
 30
0.0
 40
6.0016010942139628
 50
95.294644622328207
 51
137.2036378052704
  0
ARC
  5
5A64
  8
AM_0
 10
135.64655081473941
 20
218.44413524664321
 30
0.0
 40
1.4906229315522701
 50
234.3051223779039
 51
259.5747650501786
  0
ARC
  5
5A65
  8
AM_0
 10
144.5730062784738
 20
219.77865545849181
 30
0.0
 40
6.0016010942138758
 50
42.796362194729539
 51
44.995924864879747
  0
ARC
  5
5A66
  8
AM_0
 10
144.5730062784738
 20
217.94724958955899
 30
0.0
 40
6.0016010942138758
 50
42.796362194729539
 51
53.897278316401717
  0
ARC
  5
5A67
  8
AM_0
 10
148.1070874443451
 20
218.44413524664321
 30
0.0
 40
1.490622931552253
 50
280.42523494982129
 51
305.6948776220961
  0
ARC
  5
5A68
  8
AM_0
 10
131.87674553558301
 20
356.69683749589359
 30
0.0
 40
10.0
 50
56.63303467623421
 51
123.3670606147022
  0
ARC
  5
5A69
  8
AM_0
 10
129.12675952607009
 20
360.61583110689321
 30
0.0
 40
5.2164151124522951
 50
58.184480448432318
 51
121.8155195515677
  0
ARC
  5
5A6A
  8
AM_0
 10
134.62676689970471
 20
360.61495621613301
 30
0.0
 40
5.217140387381062
 50
58.190058295970758
 51
121.8101322873589
  0
ARC
  5
5A6B
  8
AM_0
 10
129.12676690773219
 20
348.6628850950662
 30
0.0
 40
3.0714610092699122
 50
206.44737672422039
 51
333.55262327577952
  0
ARC
  5
5A6C
  8
AM_0
 10
134.62677553910339
 20
348.66114489037091
 30
0.0
 40
3.070669812974502
 50
206.41845794672841
 51
333.58081810520417
  0
ARC
  5
5A6D
  8
AM_0
 10
135.33924900560191
 20
261.19683749589348
 30
0.0
 40
4.762429876059711
 50
160.52575999458611
 51
199.4742400054138
  0
ARC
  5
5A6E
  8
AM_0
 10
131.86959594556879
 20
258.81526763548641
 30
0.0
 40
1.292776816026556
 50
142.11555894629771
 51
217.8844410536918
  0
ARC
  5
5A6F
  8
AM_0
 10
128.5143892534827
 20
261.19683749589348
 30
0.0
 40
4.762429876059584
 50
340.52575999458628
 51
19.474240005410739
  0
ARC
  5
5A70
  8
AM_0
 10
131.98404231351549
 20
258.81526763548641
 30
0.0
 40
1.2927768160265021
 50
0.0
 51
37.884441053702282
  0
ARC
  5
5A71
  8
AM_0
 10
141.60936728683851
 20
226.27194267048009
 30
8206336.7530117426
 40
12.9134744604336
 50
271.18655406404071
 51
287.92670513354892
  0
LINE
  5
5A72
  8
AM_0
 10
145.58413621623711
 20
213.9854039146646
 30
8206336.7530117426
 11
145.99671698343829
 21
214.1386456000572
 31
8206336.7530117426
  0
LINE
  5
5A73
  8
AM_0
 10
145.99671698343829
 20
214.1386456000572
 30
8206336.7530117426
 11
146.39920872769491
 21
214.317614962763
 31
8206336.7530117426
  0
ARC
  5
5A74
  8
AM_0
 10
143.8954470869389
 20
219.60241552648529
 30
8206336.7530117426
 40
5.8479004225482916
 50
295.35002817212552
 51
303.56705104006198
  0
LINE
  5
5A75
  8
AM_0
 10
147.1288241629488
 20
214.72971483422299
 30
8206336.7530117426
 11
147.44336704220009
 21
214.9619882893935
 31
8206336.7530117426
  0
LINE
  5
5A76
  8
AM_0
 10
147.44336704220009
 20
214.9619882893935
 30
8206336.7530117426
 11
147.7325561903975
 21
215.22485916543221
 31
8206336.7530117426
  0
ARC
  5
5A77
  8
AM_0
 10
145.85367322701919
 20
217.09054355563961
 30
8206336.7530117426
 40
2.647825416060579
 50
315.20195107610863
 51
327.6690874537353
  0
LINE
  5
5A78
  8
AM_0
 10
148.09101530686499
 20
215.67446451417061
 30
8206336.7530117426
 11
148.2199312631445
 21
215.9139962794068
 31
8206336.7530117426
  0
LINE
  5
5A79
  8
AM_0
 10
148.2199312631445
 20
215.9139962794068
 30
8206336.7530117426
 11
148.31403183064509
 21
216.1686552678911
 31
8206336.7530117426
  0
ARC
  5
5A7A
  8
AM_0
 10
146.71521159169629
 20
216.62374393249431
 30
8206336.7530117426
 40
1.6623272388802151
 50
344.11151119415172
 51
352.55958186686132
  0
LINE
  5
5A7B
  8
AM_0
 10
148.36354213402399
 20
216.4084806695997
 30
8206336.7530117426
 11
148.37344679846521
 21
216.50934642332041
 31
8206336.7530117426
  0
LINE
  5
5A7C
  8
AM_0
 10
148.37344679846521
 20
216.50934642332041
 30
8206336.7530117426
 11
148.3768191295421
 21
216.61064513705921
 31
8206336.7530117426
  0
ARC
  5
5A7D
  8
AM_0
 10
146.78172571087271
 20
216.60766898556099
 30
8206336.7530117426
 40
1.595096195143147
 50
0.1069032823798332
 51
11.47976002760999
  0
LINE
  5
5A7E
  8
AM_0
 10
148.34491211993119
 20
216.9251278369027
 30
8206336.7530117426
 11
148.304280209746
 21
217.0857017124271
 31
8206336.7530117426
  0
LINE
  5
5A7F
  8
AM_0
 10
148.304280209746
 20
217.0857017124271
 30
8206336.7530117426
 11
148.24864014521239
 21
217.2416700058497
 31
8206336.7530117426
  0
ARC
  5
5A80
  8
AM_0
 10
146.3731658515587
 20
216.46628722446479
 30
8206336.7530117426
 40
2.029438908620818
 50
22.461811304463112
 51
32.144289435792402
  0
LINE
  5
5A81
  8
AM_0
 10
148.09151389455539
 20
217.546056777172
 30
8206336.7530117426
 11
147.96922514802091
 21
217.72336736989391
 31
8206336.7530117426
  0
LINE
  5
5A82
  8
AM_0
 10
147.96922514802091
 20
217.72336736989391
 30
8206336.7530117426
 11
147.83237154768261
 21
217.88974929228331
 31
8206336.7530117426
  0
ARC
  5
5A83
  8
AM_0
 10
145.33421356149881
 20
215.64673760647059
 30
8206336.7530117426
 40
3.357364255874967
 50
41.919595935560153
 51
50.918621528346122
  0
LINE
  5
5A84
  8
AM_0
 10
147.45077506650611
 20
218.25289610935329
 30
8206336.7530117426
 11
147.03163644910609
 21
218.555592586979
 31
8206336.7530117426
  0
LINE
  5
5A85
  8
AM_0
 10
147.03163644910609
 20
218.555592586979
 30
8206336.7530117426
 11
146.5824827692085
 21
218.81294428823361
 31
8206336.7530117426
  0
ARC
  5
5A86
  8
AM_0
 10
143.25125708618091
 20
212.285333993964
 30
8206336.7530117426
 40
7.3284896605723491
 50
62.963482965305559
 51
68.223671679106289
  0
ARC
  5
5A87
  8
AM_0
 10
142.14427097226141
 20
226.27194267053321
 30
8206336.7530117426
 40
12.91347446048893
 50
252.0732948664583
 51
268.8130708325474
  0
LINE
  5
5A88
  8
AM_0
 10
138.16950204284731
 20
213.9854039146646
 30
8206336.7530117426
 11
137.75692127564611
 21
214.1386456000572
 31
8206336.7530117426
  0
LINE
  5
5A89
  8
AM_0
 10
137.75692127564611
 20
214.1386456000572
 30
8206336.7530117426
 11
137.35442953138951
 21
214.317614962763
 31
8206336.7530117426
  0
ARC
  5
5A8A
  8
AM_0
 10
139.8581911721503
 20
219.60241552649401
 30
8206336.7530117426
 40
5.8479004225582418
 50
236.43294895995331
 51
244.64997182786729
  0
LINE
  5
5A8B
  8
AM_0
 10
136.6248140961354
 20
214.72971483422299
 30
8206336.7530117426
 11
136.3102712168843
 21
214.9619882893935
 31
8206336.7530117426
  0
LINE
  5
5A8C
  8
AM_0
 10
136.3102712168843
 20
214.9619882893935
 30
8206336.7530117426
 11
136.02108206868681
 21
215.22485916543221
 31
8206336.7530117426
  0
ARC
  5
5A8D
  8
AM_0
 10
137.8999650320647
 20
217.0905435556389
 30
8206336.7530117426
 40
2.6478254160599781
 50
212.3309125462558
 51
224.79804892389021
  0
LINE
  5
5A8E
  8
AM_0
 10
135.66262295221941
 20
215.67446451417061
 30
8206336.7530117426
 11
135.53370699594001
 21
215.9139962794068
 31
8206336.7530117426
  0
LINE
  5
5A8F
  8
AM_0
 10
135.53370699594001
 20
215.9139962794068
 30
8206336.7530117426
 11
135.43960642843919
 21
216.1686552678911
 31
8206336.7530117426
  0
ARC
  5
5A90
  8
AM_0
 10
137.03842666741789
 20
216.6237439325009
 30
8206336.7530117426
 40
1.6623272389105701
 50
187.4404181332275
 51
195.8884888057899
  0
LINE
  5
5A91
  8
AM_0
 10
135.3900961250601
 20
216.4084806695997
 30
8206336.7530117426
 11
135.38019146061919
 21
216.50934642332041
 31
8206336.7530117426
  0
LINE
  5
5A92
  8
AM_0
 10
135.38019146061919
 20
216.50934642332041
 30
8206336.7530117426
 11
135.3768191295421
 21
216.61064513705921
 31
8206336.7530117426
  0
ARC
  5
5A93
  8
AM_0
 10
136.97191254820879
 20
216.60766898556099
 30
8206336.7530117426
 40
1.5950961951403351
 50
168.5202399723695
 51
179.8930967176201
  0
LINE
  5
5A94
  8
AM_0
 10
135.4087261391532
 20
216.9251278369027
 30
8206336.7530117426
 11
135.44935804933851
 21
217.0857017124271
 31
8206336.7530117426
  0
LINE
  5
5A95
  8
AM_0
 10
135.44935804933851
 20
217.0857017124271
 30
8206336.7530117426
 11
135.50499811387181
 21
217.2416700058497
 31
8206336.7530117426
  0
ARC
  5
5A96
  8
AM_0
 10
137.38047240753539
 20
216.46628722445891
 30
8206336.7530117426
 40
2.02943890863216
 50
147.8557105642179
 51
157.53818869548721
  0
LINE
  5
5A97
  8
AM_0
 10
135.66212436452901
 20
217.546056777172
 30
8206336.7530117426
 11
135.7844131110636
 21
217.72336736989391
 31
8206336.7530117426
  0
LINE
  5
5A98
  8
AM_0
 10
135.7844131110636
 20
217.72336736989391
 30
8206336.7530117426
 11
135.92126671140181
 21
217.88974929228331
 31
8206336.7530117426
  0
ARC
  5
5A99
  8
AM_0
 10
138.41942469759439
 20
215.6467376064621
 30
8206336.7530117426
 40
3.3573642558870951
 50
129.08137847167831
 51
138.0804040644374
  0
LINE
  5
5A9A
  8
AM_0
 10
136.30286319257809
 20
218.25289610935329
 30
8206336.7530117426
 11
136.72200180997831
 21
218.555592586979
 31
8206336.7530117426
  0
LINE
  5
5A9B
  8
AM_0
 10
136.72200180997831
 20
218.555592586979
 30
8206336.7530117426
 11
137.17115548987601
 21
218.81294428823361
 31
8206336.7530117426
  0
ARC
  5
5A9C
  8
AM_0
 10
140.5023811729024
 20
212.28533399396801
 30
8206336.7530117426
 40
7.3284896605682359
 50
109.0382363849763
 51
117.0365170347017
  0
LINE
  5
5A9D
  8
AM_0
 10
138.1118346281246
 20
219.21296330869811
 30
8206336.7530117426
 11
138.788332522692
 21
219.41984315831641
 31
8206336.7530117426
  0
LINE
  5
5A9E
  8
AM_0
 10
138.788332522692
 20
219.41984315831641
 30
8206336.7530117426
 11
139.33512190042731
 21
219.54494447986841
 31
8206336.7530117426
  0
ARC
  5
5A9F
  8
AM_0
 10
145.57681912954209
 20
244.99683749589349
 30
0.0
 40
0.2999999999999972
 50
270.0
 51
0.0
  0
ARC
  5
5AA0
  8
AM_0
 10
145.72885878454051
 20
256.34352108787238
 30
0.0
 40
0.4999999999998723
 50
164.79096035989971
 51
225.00000000001839
  0
ARC
  5
5AA1
  8
AM_0
 10
131.3768191295421
 20
236.45930348647121
 30
0.0
 40
3.0
 50
180.0
 51
190.00000000000171
  0
ARC
  5
5AA2
  8
AM_0
 10
131.3768191295421
 20
285.93437150531582
 30
0.0
 40
2.999999999999992
 50
169.9999999999981
 51
180.0
  0
ARC
  5
5AA3
  8
AM_0
 10
134.42065763724321
 20
219.1968374958935
 30
0.0
 40
2.9999999999999631
 50
190.00000000000171
 51
270.0
  0
ARC
  5
5AA4
  8
AM_0
 10
139.42681912954231
 20
231.39578110752149
 30
0.0
 40
0.7999999999998977
 50
90.0
 51
180.0
  0
ARC
  5
5AA5
  8
AM_0
 10
139.42681912954231
 20
230.18276078908889
 30
0.0
 40
0.7999999999999972
 50
90.0
 51
180.0
  0
ARC
  5
5AA6
  8
AM_0
 10
144.32681912954209
 20
231.39578110752149
 30
0.0
 40
0.8000000000000112
 50
0.0
 51
90.0
  0
ARC
  5
5AA7
  8
AM_0
 10
144.32681912954209
 20
230.18276078908889
 30
0.0
 40
0.8000000000000112
 50
0.0
 51
90.0
  0
ARC
  5
5AA8
  8
AM_0
 10
134.3768191295421
 20
252.69683749589359
 30
0.0
 40
0.5
 50
180.0
 51
270.0
  0
ARC
  5
5AA9
  8
AM_0
 10
145.3768191295421
 20
252.69683749589359
 30
0.0
 40
0.5
 50
270.0
 51
0.0
  0
ARC
  5
5AAA
  8
AM_0
 10
145.3768191295421
 20
255.28134718049751
 30
0.0
 40
0.5
 50
0.0
 51
45.0
  0
ARC
  5
5AAB
  8
AM_0
 10
134.02477947454381
 20
256.34352108787238
 30
0.0
 40
0.5000000000001048
 50
314.99999999998278
 51
15.20903964010027
  0
ARC
  5
5AAC
  8
AM_0
 10
134.3768191295421
 20
255.28134718049751
 30
0.0
 40
0.499999999999984
 50
134.99999999999079
 51
180.0
  0
ARC
  5
5AAD
  8
AM_0
 10
126.3767812930266
 20
313.69683749589348
 30
0.0
 40
1.0
 50
90.0
 51
180.00030969555451
  0
ARC
  5
5AAE
  8
AM_0
 10
137.37678129318721
 20
313.69683749589348
 30
0.0
 40
0.9999999999999992
 50
0.0003096955479991
 51
90.0
  0
ARC
  5
5AAF
  8
AM_0
 10
126.37680831906211
 20
308.69683749589359
 30
0.0
 40
0.9999999999999992
 50
180.00030969555451
 51
270.0
  0
ARC
  5
5AB0
  8
AM_0
 10
137.3768072209925
 20
308.69683749589359
 30
0.0
 40
1.0
 50
270.0
 51
0.0
  0
ARC
  5
5AB1
  8
AM_0
 10
136.85704900807761
 20
307.09683749589351
 30
0.0
 40
0.5999999999999944
 50
90.0
 51
218.00194433773009
  0
ARC
  5
5AB2
  8
AM_0
 10
127.6715074162211
 20
306.69683749589359
 30
0.0
 40
0.9999999999999468
 50
41.039853109576207
 51
90.0
  0
ARC
  5
5AB3
  8
AM_0
 10
129.68962457201269
 20
259.42448576130988
 30
0.0
 40
0.4128054424705854
 50
180.0
 51
239.99999999999949
  0
ARC
  5
5AB4
  8
AM_0
 10
130.002969457814
 20
257.81357600714341
 30
0.0
 40
0.8256108849411369
 50
28.217424594178269
 51
59.999999999999439
  0
LINE
  5
5AB5
  8
AM_0
 10
129.1665534591736
 20
290.6756434418607
 30
0.0
 11
134.63355760894251
 21
290.6756434418607
 31
0.0
  0
LINE
  5
5AB6
  8
AM_0
 10
143.11719255085629
 20
290.6756434418607
 30
0.0
 11
145.8768191295421
 21
290.6756434418607
 31
0.0
  0
LINE
  5
5AB7
  8
AM_0
 10
133.27681912954239
 20
264.69683749589342
 30
0.0
 11
133.8768191295425
 21
264.69683749589342
 31
0.0
  0
LINE
  5
5AB8
  8
AM_0
 10
130.41577490028499
 20
263.86509898464368
 30
0.0
 11
129.4832218507776
 21
263.32668923047731
 31
0.0
  0
LINE
  5
5AB9
  8
AM_0
 10
130.84927072157299
 20
264.37226397643661
 30
0.0
 11
133.0043675375118
 21
264.37226397643627
 31
0.0
  0
LINE
  5
5ABA
  8
AM_0
 10
130.84927072157279
 20
262.7845507361651
 30
0.0
 11
133.0043675375118
 21
262.78455073616482
 31
0.0
  0
ARC
  5
5ABB
  8
AM_0
 10
131.9840423135158
 20
263.5784073563006
 30
0.0
 40
1.292776816026465
 50
359.99999999999352
 51
37.88444105369058
  0
ARC
  5
5ABC
  8
AM_0
 10
131.8695959455689
 20
263.57840735630072
 30
0.0
 40
1.292776816026556
 50
142.11555894629771
 51
217.8844410536918
  0
ARC
  5
5ABD
  8
AM_0
 10
131.9840423135158
 20
263.5784073563006
 30
0.0
 40
1.2927768160265021
 50
322.11555894628992
 51
359.99999999999352
  0
ARC
  5
5ABE
  8
AM_0
 10
129.68962457201289
 20
262.9691892304773
 30
0.0
 40
0.4128054424705854
 50
119.9999999999924
 51
179.99999999999341
  0
ARC
  5
5ABF
  8
AM_0
 10
130.00296945781429
 20
264.58009898464388
 30
0.0
 40
0.8256108849411369
 50
299.99999999999972
 51
331.7825754058203
  0
LINE
  5
5AC0
  8
AM_0
 10
145.87681912954281
 20
269.69683749589302
 30
0.0
 11
145.8768191295425
 21
267.11232781128888
 31
0.0
  0
LINE
  5
5AC1
  8
AM_0
 10
145.73037252013589
 20
266.75877442069572
 30
0.0
 11
145.3753053939476
 21
266.4037072945074
 31
0.0
  0
LINE
  5
5AC2
  8
AM_0
 10
133.87681912954261
 20
267.11232781128967
 30
0.0
 11
133.87681912954281
 21
269.69683749589387
 31
0.0
  0
LINE
  5
5AC3
  8
AM_0
 10
134.37833286513751
 20
266.40370729450819
 30
0.0
 11
134.02326573894939
 21
266.7587744206964
 31
0.0
  0
LINE
  5
5AC4
  8
AM_0
 10
145.37681912954281
 20
270.19683749589302
 30
0.0
 11
144.8962412436953
 21
270.19683749589302
 31
0.0
  0
LINE
  5
5AC5
  8
AM_0
 10
134.85739701539001
 20
270.1968374958937
 30
0.0
 11
134.37681912954281
 21
270.1968374958937
 31
0.0
  0
ARC
  5
5AC6
  8
AM_0
 10
145.72885878454071
 20
266.05015390391412
 30
0.0
 40
0.4999999999998723
 50
134.99999999997351
 51
195.20903964009699
  0
ARC
  5
5AC7
  8
AM_0
 10
134.37681912954281
 20
269.69683749589359
 30
0.0
 40
0.5
 50
89.999999999993477
 51
179.99999999999659
  0
ARC
  5
5AC8
  8
AM_0
 10
145.37681912954281
 20
269.69683749589302
 30
0.0
 40
0.5
 50
359.99999999999682
 51
89.999999999993477
  0
ARC
  5
5AC9
  8
AM_0
 10
145.37681912954261
 20
267.11232781128899
 30
0.0
 40
0.5
 50
314.99999999999193
 51
359.99999999999682
  0
ARC
  5
5ACA
  8
AM_0
 10
134.0247794745442
 20
266.0501539039148
 30
0.0
 40
0.5000000000001048
 50
344.79096035989659
 51
45.000000000009209
  0
ARC
  5
5ACB
  8
AM_0
 10
134.37681912954261
 20
267.11232781128967
 30
0.0
 40
0.499999999999984
 50
179.99999999999659
 51
225.0000000000081
  0
LINE
  5
5ACC
  8
AM_0
 10
135.85739701539021
 20
286.34298889371541
 30
0.0
 11
135.85739701539001
 21
271.19683749589359
 31
0.0
  0
ARC
  5
5ACD
  8
AM_0
 10
134.85739701539001
 20
271.19683749589359
 30
0.0
 40
1.0
 50
269.99999999999352
 51
0.0
1001
GENIUS_GENODEF_13
1002
{
1000
HIER
1070
     0
1002
}
1002
{
1000
MANEDIT
1070
     0
1002
}
1002
{
1000
NOSEL
1070
     0
1002
}
1002
{
1000
BEHIND
1070
     0
1002
}
1002
{
1000
OTHER
1070
     0
1002
}
1002
{
1000
REACTOR
1002
}
1001
GENIUS_GENOBJ-N-FIL_13
1002
{
1000
OWNER
1000
GEN
1002
}
  0
ARC
  5
5ACE
  8
AM_0
 10
130.85739701539021
 20
286.34298889371541
 30
0.0
 40
5.0
 50
0.0
 51
19.381805699022781
1001
GENIUS_GENOBJ-N-FIL_13
1002
{
1000
OWNER
1000
GEN
1002
}
1001
GENIUS_GENODEF_13
1002
{
1000
HIER
1070
     0
1002
}
1002
{
1000
MANEDIT
1070
     0
1002
}
1002
{
1000
NOSEL
1070
     0
1002
}
1002
{
1000
BEHIND
1070
     0
1002
}
1002
{
1000
OTHER
1070
     0
1002
}
1002
{
1000
REACTOR
1002
}
  0
LINE
  5
5ACF
  8
AM_0
 10
143.8962412436953
 20
287.81217435863198
 30
0.0
 11
143.8962412436953
 21
271.19683749589302
 31
0.0
  0
ARC
  5
5AD0
  8
AM_0
 10
144.8962412436953
 20
271.19683749589302
 30
0.0
 40
1.0
 50
180.0
 51
269.99999999999352
1001
GENIUS_GENOBJ-N-FIL_13
1002
{
1000
OWNER
1000
GEN
1002
}
1001
GENIUS_GENODEF_13
1002
{
1000
HIER
1070
     0
1002
}
1002
{
1000
MANEDIT
1070
     0
1002
}
1002
{
1000
NOSEL
1070
     0
1002
}
1002
{
1000
BEHIND
1070
     0
1002
}
1002
{
1000
OTHER
1070
     0
1002
}
1002
{
1000
REACTOR
1002
}
  0
ARC
  5
5AD1
  8
AM_0
 10
138.89624124369541
 20
287.81217435863198
 30
0.0
 40
5.0
 50
0.0
 51
22.755667319206839
1001
GENIUS_GENODEF_13
1002
{
1000
HIER
1070
     0
1002
}
1002
{
1000
MANEDIT
1070
     0
1002
}
1002
{
1000
NOSEL
1070
     0
1002
}
1002
{
1000
BEHIND
1070
     0
1002
}
1002
{
1000
OTHER
1070
     0
1002
}
1002
{
1000
REACTOR
1002
}
1001
GENIUS_GENOBJ-N-FIL_13
1002
{
1000
OWNER
1000
GEN
1002
}
  0
LINE
  5
5AD2
  8
AM_0
 10
134.6033579762003
 20
266.1786821834454
 30
0.0
 11
145.1502802828854
 21
266.1786821834454
 31
0.0
  0
LINE
  5
5AD3
  8
AM_0
 10
134.6033579761999
 20
256.21499280834178
 30
0.0
 11
145.15028028288441
 21
256.21499280834178
 31
0.0
  0
LINE
  5
5AD4
  8
AM_0
 10
131.46623437820671
 20
225.2064266509675
 30
0.0
 11
131.46623437820671
 21
244.6968374958935
 31
0.0
  0
LINE
  5
5AD5
  8
AM_0
 10
134.42065763724321
 20
216.1968374958935
 30
0.0
 11
134.42065763724321
 21
244.6968374958935
 31
0.0
  0
LINE
  5
5AD6
  8
AM_0
 10
144.75511721715131
 20
216.98659890398829
 30
0.0
 11
154.11410283181581
 21
233.1968374958935
 31
0.0
  0
LINE
  5
5AD7
  8
AM_0
 10
139.55896479444459
 20
219.98659890398841
 30
0.0
 11
147.76324987072979
 21
234.1968374958935
 31
0.0
  0
POLYLINE
  5
5AD8
  8
AM_0
 66
     1
 10
0.0
 20
0.0
 30
0.0
 70
     8
  0
VERTEX
  5
5E81
  8
AM_0
 10
139.559
 20
219.98699999999999
 30
0.0
 70
    32
  0
VERTEX
  5
5E82
  8
AM_0
 10
139.51400000000001
 20
219.90799999999999
 30
0.0
 70
    32
  0
VERTEX
  5
5E83
  8
AM_0
 10
139.471
 20
219.828
 30
0.0
 70
    32
  0
VERTEX
  5
5E84
  8
AM_0
 10
139.43000000000001
 20
219.74700000000001
 30
0.0
 70
    32
  0
VERTEX
  5
5E85
  8
AM_0
 10
139.38999999999999
 20
219.666
 30
0.0
 70
    32
  0
VERTEX
  5
5E86
  8
AM_0
 10
139.352
 20
219.584
 30
0.0
 70
    32
  0
VERTEX
  5
5E87
  8
AM_0
 10
139.316
 20
219.501
 30
0.0
 70
    32
  0
VERTEX
  5
5E88
  8
AM_0
 10
139.28100000000001
 20
219.417
 30
0.0
 70
    32
  0
VERTEX
  5
5E89
  8
AM_0
 10
139.24799999999999
 20
219.333
 30
0.0
 70
    32
  0
VERTEX
  5
5E8A
  8
AM_0
 10
139.21700000000001
 20
219.249
 30
0.0
 70
    32
  0
VERTEX
  5
5E8B
  8
AM_0
 10
139.18799999999999
 20
219.16399999999999
 30
0.0
 70
    32
  0
VERTEX
  5
5E8C
  8
AM_0
 10
139.16
 20
219.07900000000001
 30
0.0
 70
    32
  0
VERTEX
  5
5E8D
  8
AM_0
 10
139.13499999999999
 20
218.99299999999999
 30
0.0
 70
    32
  0
VERTEX
  5
5E8E
  8
AM_0
 10
139.11099999999999
 20
218.90700000000001
 30
0.0
 70
    32
  0
VERTEX
  5
5E8F
  8
AM_0
 10
139.08799999999999
 20
218.821
 30
0.0
 70
    32
  0
VERTEX
  5
5E90
  8
AM_0
 10
139.06800000000001
 20
218.73400000000001
 30
0.0
 70
    32
  0
VERTEX
  5
5E91
  8
AM_0
 10
139.05000000000001
 20
218.648
 30
0.0
 70
    32
  0
VERTEX
  5
5E92
  8
AM_0
 10
139.03299999999999
 20
218.56100000000001
 30
0.0
 70
    32
  0
VERTEX
  5
5E93
  8
AM_0
 10
139.018
 20
218.47399999999999
 30
0.0
 70
    32
  0
VERTEX
  5
5E94
  8
AM_0
 10
139.006
 20
218.38800000000001
 30
0.0
 70
    32
  0
VERTEX
  5
5E95
  8
AM_0
 10
138.995
 20
218.30099999999999
 30
0.0
 70
    32
  0
VERTEX
  5
5E96
  8
AM_0
 10
138.98599999999999
 20
218.214
 30
0.0
 70
    32
  0
VERTEX
  5
5E97
  8
AM_0
 10
138.97900000000001
 20
218.12799999999999
 30
0.0
 70
    32
  0
VERTEX
  5
5E98
  8
AM_0
 10
138.97399999999999
 20
218.042
 30
0.0
 70
    32
  0
VERTEX
  5
5E99
  8
AM_0
 10
138.97
 20
217.95599999999999
 30
0.0
 70
    32
  0
VERTEX
  5
5E9A
  8
AM_0
 10
138.96899999999999
 20
217.87
 30
0.0
 70
    32
  0
VERTEX
  5
5E9B
  8
AM_0
 10
138.97
 20
217.785
 30
0.0
 70
    32
  0
VERTEX
  5
5E9C
  8
AM_0
 10
138.97200000000001
 20
217.69999999999999
 30
0.0
 70
    32
  0
VERTEX
  5
5E9D
  8
AM_0
 10
138.977
 20
217.61600000000001
 30
0.0
 70
    32
  0
VERTEX
  5
5E9E
  8
AM_0
 10
138.983
 20
217.53200000000001
 30
0.0
 70
    32
  0
VERTEX
  5
5E9F
  8
AM_0
 10
138.99100000000001
 20
217.44900000000001
 30
0.0
 70
    32
  0
VERTEX
  5
5EA0
  8
AM_0
 10
139.001
 20
217.36600000000001
 30
0.0
 70
    32
  0
VERTEX
  5
5EA1
  8
AM_0
 10
139.01300000000001
 20
217.28399999999999
 30
0.0
 70
    32
  0
VERTEX
  5
5EA2
  8
AM_0
 10
139.02699999999999
 20
217.203
 30
0.0
 70
    32
  0
VERTEX
  5
5EA3
  8
AM_0
 10
139.04300000000001
 20
217.12299999999999
 30
0.0
 70
    32
  0
VERTEX
  5
5EA4
  8
AM_0
 10
139.06100000000001
 20
217.04300000000001
 30
0.0
 70
    32
  0
VERTEX
  5
5EA5
  8
AM_0
 10
139.08099999999999
 20
216.964
 30
0.0
 70
    32
  0
VERTEX
  5
5EA6
  8
AM_0
 10
139.102
 20
216.887
 30
0.0
 70
    32
  0
VERTEX
  5
5EA7
  8
AM_0
 10
139.125
 20
216.81
 30
0.0
 70
    32
  0
VERTEX
  5
5EA8
  8
AM_0
 10
139.15000000000001
 20
216.73400000000001
 30
0.0
 70
    32
  0
VERTEX
  5
5EA9
  8
AM_0
 10
139.17699999999999
 20
216.65899999999999
 30
0.0
 70
    32
  0
VERTEX
  5
5EAA
  8
AM_0
 10
139.20599999999999
 20
216.58500000000001
 30
0.0
 70
    32
  0
VERTEX
  5
5EAB
  8
AM_0
 10
139.23699999999999
 20
216.51300000000001
 30
0.0
 70
    32
  0
VERTEX
  5
5EAC
  8
AM_0
 10
139.26900000000001
 20
216.44200000000001
 30
0.0
 70
    32
  0
VERTEX
  5
5EAD
  8
AM_0
 10
139.303
 20
216.37100000000001
 30
0.0
 70
    32
  0
VERTEX
  5
5EAE
  8
AM_0
 10
139.339
 20
216.303
 30
0.0
 70
    32
  0
VERTEX
  5
5EAF
  8
AM_0
 10
139.376
 20
216.23500000000001
 30
0.0
 70
    32
  0
VERTEX
  5
5EB0
  8
AM_0
 10
139.41499999999999
 20
216.16900000000001
 30
0.0
 70
    32
  0
VERTEX
  5
5EB1
  8
AM_0
 10
139.45599999999999
 20
216.10400000000001
 30
0.0
 70
    32
  0
VERTEX
  5
5EB2
  8
AM_0
 10
139.49799999999999
 20
216.041
 30
0.0
 70
    32
  0
VERTEX
  5
5EB3
  8
AM_0
 10
139.542
 20
215.97900000000001
 30
0.0
 70
    32
  0
VERTEX
  5
5EB4
  8
AM_0
 10
139.58799999999999
 20
215.91900000000001
 30
0.0
 70
    32
  0
VERTEX
  5
5EB5
  8
AM_0
 10
139.63499999999999
 20
215.86000000000001
 30
0.0
 70
    32
  0
VERTEX
  5
5EB6
  8
AM_0
 10
139.68299999999999
 20
215.80199999999999
 30
0.0
 70
    32
  0
VERTEX
  5
5EB7
  8
AM_0
 10
139.73400000000001
 20
215.74700000000001
 30
0.0
 70
    32
  0
VERTEX
  5
5EB8
  8
AM_0
 10
139.785
 20
215.69300000000001
 30
0.0
 70
    32
  0
VERTEX
  5
5EB9
  8
AM_0
 10
139.83799999999999
 20
215.64099999999999
 30
0.0
 70
    32
  0
VERTEX
  5
5EBA
  8
AM_0
 10
139.892
 20
215.59
 30
0.0
 70
    32
  0
VERTEX
  5
5EBB
  8
AM_0
 10
139.94800000000001
 20
215.541
 30
0.0
 70
    32
  0
VERTEX
  5
5EBC
  8
AM_0
 10
140.005
 20
215.494
 30
0.0
 70
    32
  0
VERTEX
  5
5EBD
  8
AM_0
 10
140.06399999999999
 20
215.44900000000001
 30
0.0
 70
    32
  0
VERTEX
  5
5EBE
  8
AM_0
 10
140.12299999999999
 20
215.405
 30
0.0
 70
    32
  0
VERTEX
  5
5EBF
  8
AM_0
 10
140.184
 20
215.364
 30
0.0
 70
    32
  0
VERTEX
  5
5EC0
  8
AM_0
 10
140.24600000000001
 20
215.32400000000001
 30
0.0
 70
    32
  0
VERTEX
  5
5EC1
  8
AM_0
 10
140.309
 20
215.286
 30
0.0
 70
    32
  0
VERTEX
  5
5EC2
  8
AM_0
 10
140.374
 20
215.251
 30
0.0
 70
    32
  0
VERTEX
  5
5EC3
  8
AM_0
 10
140.43899999999999
 20
215.21700000000001
 30
0.0
 70
    32
  0
VERTEX
  5
5EC4
  8
AM_0
 10
140.506
 20
215.185
 30
0.0
 70
    32
  0
VERTEX
  5
5EC5
  8
AM_0
 10
140.57300000000001
 20
215.155
 30
0.0
 70
    32
  0
VERTEX
  5
5EC6
  8
AM_0
 10
140.64099999999999
 20
215.12700000000001
 30
0.0
 70
    32
  0
VERTEX
  5
5EC7
  8
AM_0
 10
140.71100000000001
 20
215.101
 30
0.0
 70
    32
  0
VERTEX
  5
5EC8
  8
AM_0
 10
140.78100000000001
 20
215.077
 30
0.0
 70
    32
  0
VERTEX
  5
5EC9
  8
AM_0
 10
140.852
 20
215.05500000000001
 30
0.0
 70
    32
  0
VERTEX
  5
5ECA
  8
AM_0
 10
140.92400000000001
 20
215.036
 30
0.0
 70
    32
  0
VERTEX
  5
5ECB
  8
AM_0
 10
140.99600000000001
 20
215.018
 30
0.0
 70
    32
  0
VERTEX
  5
5ECC
  8
AM_0
 10
141.06899999999999
 20
215.00200000000001
 30
0.0
 70
    32
  0
VERTEX
  5
5ECD
  8
AM_0
 10
141.143
 20
214.989
 30
0.0
 70
    32
  0
VERTEX
  5
5ECE
  8
AM_0
 10
141.21799999999999
 20
214.977
 30
0.0
 70
    32
  0
VERTEX
  5
5ECF
  8
AM_0
 10
141.29300000000001
 20
214.96799999999999
 30
0.0
 70
    32
  0
VERTEX
  5
5ED0
  8
AM_0
 10
141.36799999999999
 20
214.96100000000001
 30
0.0
 70
    32
  0
VERTEX
  5
5ED1
  8
AM_0
 10
141.44399999999999
 20
214.95599999999999
 30
0.0
 70
    32
  0
VERTEX
  5
5ED2
  8
AM_0
 10
141.52099999999999
 20
214.953
 30
0.0
 70
    32
  0
VERTEX
  5
5ED3
  8
AM_0
 10
141.59800000000001
 20
214.952
 30
0.0
 70
    32
  0
VERTEX
  5
5ED4
  8
AM_0
 10
141.67500000000001
 20
214.95400000000001
 30
0.0
 70
    32
  0
VERTEX
  5
5ED5
  8
AM_0
 10
141.75200000000001
 20
214.95699999999999
 30
0.0
 70
    32
  0
VERTEX
  5
5ED6
  8
AM_0
 10
141.83000000000001
 20
214.96299999999999
 30
0.0
 70
    32
  0
VERTEX
  5
5ED7
  8
AM_0
 10
141.90799999999999
 20
214.971
 30
0.0
 70
    32
  0
VERTEX
  5
5ED8
  8
AM_0
 10
141.98599999999999
 20
214.97999999999999
 30
0.0
 70
    32
  0
VERTEX
  5
5ED9
  8
AM_0
 10
142.06399999999999
 20
214.99199999999999
 30
0.0
 70
    32
  0
VERTEX
  5
5EDA
  8
AM_0
 10
142.142
 20
215.00700000000001
 30
0.0
 70
    32
  0
VERTEX
  5
5EDB
  8
AM_0
 10
142.221
 20
215.023
 30
0.0
 70
    32
  0
VERTEX
  5
5EDC
  8
AM_0
 10
142.29900000000001
 20
215.041
 30
0.0
 70
    32
  0
VERTEX
  5
5EDD
  8
AM_0
 10
142.37700000000001
 20
215.06100000000001
 30
0.0
 70
    32
  0
VERTEX
  5
5EDE
  8
AM_0
 10
142.45500000000001
 20
215.084
 30
0.0
 70
    32
  0
VERTEX
  5
5EDF
  8
AM_0
 10
142.53299999999999
 20
215.108
 30
0.0
 70
    32
  0
VERTEX
  5
5EE0
  8
AM_0
 10
142.61000000000001
 20
215.13499999999999
 30
0.0
 70
    32
  0
VERTEX
  5
5EE1
  8
AM_0
 10
142.68799999999999
 20
215.16300000000001
 30
0.0
 70
    32
  0
VERTEX
  5
5EE2
  8
AM_0
 10
142.76499999999999
 20
215.19399999999999
 30
0.0
 70
    32
  0
VERTEX
  5
5EE3
  8
AM_0
 10
142.84100000000001
 20
215.226
 30
0.0
 70
    32
  0
VERTEX
  5
5EE4
  8
AM_0
 10
142.91800000000001
 20
215.261
 30
0.0
 70
    32
  0
VERTEX
  5
5EE5
  8
AM_0
 10
142.99299999999999
 20
215.297
 30
0.0
 70
    32
  0
VERTEX
  5
5EE6
  8
AM_0
 10
143.06899999999999
 20
215.33500000000001
 30
0.0
 70
    32
  0
VERTEX
  5
5EE7
  8
AM_0
 10
143.143
 20
215.375
 30
0.0
 70
    32
  0
VERTEX
  5
5EE8
  8
AM_0
 10
143.21700000000001
 20
215.41800000000001
 30
0.0
 70
    32
  0
VERTEX
  5
5EE9
  8
AM_0
 10
143.291
 20
215.46100000000001
 30
0.0
 70
    32
  0
VERTEX
  5
5EEA
  8
AM_0
 10
143.364
 20
215.50700000000001
 30
0.0
 70
    32
  0
VERTEX
  5
5EEB
  8
AM_0
 10
143.43600000000001
 20
215.55500000000001
 30
0.0
 70
    32
  0
VERTEX
  5
5EEC
  8
AM_0
 10
143.50700000000001
 20
215.60400000000001
 30
0.0
 70
    32
  0
VERTEX
  5
5EED
  8
AM_0
 10
143.577
 20
215.655
 30
0.0
 70
    32
  0
VERTEX
  5
5EEE
  8
AM_0
 10
143.64699999999999
 20
215.708
 30
0.0
 70
    32
  0
VERTEX
  5
5EEF
  8
AM_0
 10
143.71600000000001
 20
215.762
 30
0.0
 70
    32
  0
VERTEX
  5
5EF0
  8
AM_0
 10
143.78399999999999
 20
215.81800000000001
 30
0.0
 70
    32
  0
VERTEX
  5
5EF1
  8
AM_0
 10
143.84999999999999
 20
215.876
 30
0.0
 70
    32
  0
VERTEX
  5
5EF2
  8
AM_0
 10
143.916
 20
215.935
 30
0.0
 70
    32
  0
VERTEX
  5
5EF3
  8
AM_0
 10
143.98099999999999
 20
215.99600000000001
 30
0.0
 70
    32
  0
VERTEX
  5
5EF4
  8
AM_0
 10
144.04400000000001
 20
216.05799999999999
 30
0.0
 70
    32
  0
VERTEX
  5
5EF5
  8
AM_0
 10
144.107
 20
216.12200000000001
 30
0.0
 70
    32
  0
VERTEX
  5
5EF6
  8
AM_0
 10
144.16800000000001
 20
216.18700000000001
 30
0.0
 70
    32
  0
VERTEX
  5
5EF7
  8
AM_0
 10
144.22800000000001
 20
216.25399999999999
 30
0.0
 70
    32
  0
VERTEX
  5
5EF8
  8
AM_0
 10
144.28700000000001
 20
216.322
 30
0.0
 70
    32
  0
VERTEX
  5
5EF9
  8
AM_0
 10
144.345
 20
216.39099999999999
 30
0.0
 70
    32
  0
VERTEX
  5
5EFA
  8
AM_0
 10
144.40100000000001
 20
216.46199999999999
 30
0.0
 70
    32
  0
VERTEX
  5
5EFB
  8
AM_0
 10
144.45599999999999
 20
216.53299999999999
 30
0.0
 70
    32
  0
VERTEX
  5
5EFC
  8
AM_0
 10
144.50899999999999
 20
216.60599999999999
 30
0.0
 70
    32
  0
VERTEX
  5
5EFD
  8
AM_0
 10
144.56200000000001
 20
216.68000000000001
 30
0.0
 70
    32
  0
VERTEX
  5
5EFE
  8
AM_0
 10
144.61199999999999
 20
216.755
 30
0.0
 70
    32
  0
VERTEX
  5
5EFF
  8
AM_0
 10
144.661
 20
216.83099999999999
 30
0.0
 70
    32
  0
VERTEX
  5
5F00
  8
AM_0
 10
144.709
 20
216.90899999999999
 30
0.0
 70
    32
  0
VERTEX
  5
5F01
  8
AM_0
 10
144.755
 20
216.98699999999999
 30
0.0
 70
    32
  0
SEQEND
  5
5F02
  8
AM_0
  0
LINE
  5
5AD9
  8
AM_0
 10
642.4326816789503
 20
350.65375943405883
 30
0.0
 11
642.4326816789503
 21
364.38058658081309
 31
0.0
  0
LINE
  5
5ADA
  8
AM_0
 10
636.03268167895033
 20
350.65375943405883
 30
0.0
 11
636.03268167895033
 21
364.38058658081309
 31
0.0
  0
LINE
  5
5ADB
  8
AM_0
 10
635.23268167895037
 20
341.6968374958937
 30
0.0
 11
643.23268167895037
 21
341.6968374958937
 31
0.0
  0
LINE
  5
5ADC
  8
AM_0
 10
643.23268167895037
 20
321.12061935900277
 30
0.0
 11
643.23268167895037
 21
341.6968374958937
 31
0.0
  0
LINE
  5
5ADD
  8
AM_0
 10
643.23268167895037
 20
341.6968374958937
 30
0.0
 11
645.63268167895035
 21
350.65375943405883
 31
0.0
  0
LINE
  5
5ADE
  8
AM_0
 10
645.63268167895035
 20
350.65375943405883
 30
0.0
 11
645.63268167895035
 21
364.38058658081309
 31
0.0
  0
LINE
  5
5ADF
  8
AM_0
 10
632.83268167895039
 20
364.38058658081309
 30
0.0
 11
632.83268167895039
 21
350.65375943405883
 31
0.0
  0
LINE
  5
5AE0
  8
AM_0
 10
632.83268167895039
 20
350.65375943405883
 30
0.0
 11
635.23268167895037
 21
341.6968374958937
 31
0.0
  0
LINE
  5
5AE1
  8
AM_0
 10
635.23268167895037
 20
341.6968374958937
 30
0.0
 11
635.23268167895037
 21
321.12061935900277
 31
0.0
  0
ARC
  5
5AE2
  8
AM_0
 10
639.23268167895037
 20
356.69683749589359
 30
0.0
 40
9.9999999999999964
 50
50.208180500443653
 51
90.0
  0
ARC
  5
5AE3
  8
AM_0
 10
634.4326816789503
 20
351.09250812836478
 30
0.0
 40
1.659066127903009
 50
195.33458427584509
 51
344.66541572415468
  0
ARC
  5
5AE4
  8
AM_0
 10
639.23268167895037
 20
354.24382602300341
 30
0.0
 40
4.8092180355079419
 50
228.28783710514421
 51
311.71216289485591
  0
ARC
  5
5AE5
  8
AM_0
 10
644.03268167895033
 20
351.09223025471857
 30
0.0
 40
1.6589926644111621
 50
195.32532916095269
 51
344.67467083904228
  0
ARC
  5
5AE6
  8
AM_0
 10
639.23268167895037
 20
354.16560568593007
 30
0.0
 40
10.704477319459491
 50
72.606031891266454
 51
107.3939681087335
  0
ARC
  5
5AE7
  8
AM_0
 10
634.4326816789503
 20
362.01082118433862
 30
0.0
 40
2.8593334947723461
 50
55.973867765119778
 51
124.02613223488019
  0
ARC
  5
5AE8
  8
AM_0
 10
644.03268167895033
 20
362.01388810574122
 30
0.0
 40
2.856792199637066
 50
55.939448481710848
 51
124.060551518289
  0
ARC
  5
5AE9
  8
AM_0
 10
639.23268167895037
 20
356.69683749589359
 30
0.0
 40
10.0
 50
90.0
 51
129.79181949955631
  0
LINE
  5
5AEA
  8
AM_0
 10
159.3768191295421
 20
314.99683749589349
 30
0.0
 11
159.3768191295421
 21
307.39683749589352
 31
0.0
1001
GENIUS_GENOREF_13
1005
0
  0
LINE
  5
5AEB
  8
AM_0
 10
159.3768191295421
 20
307.39683749589352
 30
0.0
 11
160.3768191295421
 21
307.39683749589352
 31
0.0
1001
GENIUS_GENOREF_13
1005
0
  0
LINE
  5
5AEC
  8
AM_0
 10
160.3768191295421
 20
310.99683749589349
 30
0.0
 11
159.3768191295421
 21
310.63286726162733
 31
0.0
1001
GENIUS_GENOREF_13
1005
0
  0
LINE
  5
5AED
  8
AM_0
 10
160.3768191295421
 20
311.39683749589352
 30
0.0
 11
159.3768191295421
 21
311.0328672616273
 31
0.0
1001
GENIUS_GENOREF_13
1005
0
  0
LINE
  5
5AEE
  8
AM_0
 10
160.3768191295421
 20
314.99683749589349
 30
0.0
 11
159.3768191295421
 21
314.99683749589349
 31
0.0
1001
GENIUS_GENOREF_13
1005
0
  0
LINE
  5
5AEF
  8
AM_0N
 10
158.31788161741429
 20
307.28948252358708
 30
0.0
 11
159.3768191295421
 21
307.19683749589348
 31
0.0
  0
LINE
  5
5AF0
  8
AM_0N
 10
158.31788161741429
 20
315.10419246819998
 30
0.0
 11
159.3768191295421
 21
315.19683749589359
 31
0.0
  0
ARC
  5
5AF1
  8
AM_0N
 10
162.77681912954219
 20
311.19683749589348
 30
0.0
 40
6.5
 50
151.82726586813479
 51
208.1727341318651
  0
ARC
  5
5AF2
  8
AM_0N
 10
158.45733080581061
 20
313.51028095125321
 30
0.0
 40
1.6000000000000001
 50
94.99999999999973
 51
151.82726586813479
  0
ARC
  5
5AF3
  8
AM_0N
 10
158.45733080581061
 20
308.88339404053391
 30
0.0
 40
1.6000000000000001
 50
208.1727341318651
 51
265.00000000000028
  0
LINE
  5
5AF4
  8
AM_0N
 10
159.3768191295421
 20
315.19683749589359
 30
0.0
 11
159.3768191295421
 21
307.19683749589348
 31
0.0
  0
LINE
  5
5AF5
  8
AM_0
 10
159.37681912954221
 20
237.60198168960341
 30
0.0
 11
159.37681912954221
 21
232.13433749589359
 31
0.0
1001
GENIUS_GENOREF_13
1005
0
  0
LINE
  5
5AF6
  8
AM_0
 10
159.37681912954221
 20
232.33433749589361
 30
0.0
 11
160.3768191295421
 21
232.33433749589361
 31
0.0
1001
GENIUS_GENOREF_13
1005
0
  0
LINE
  5
5AF7
  8
AM_0
 10
160.3768191295421
 20
235.9343374958936
 30
0.0
 11
159.37681912954221
 21
235.57036726162741
 31
0.0
1001
GENIUS_GENOREF_13
1005
0
  0
LINE
  5
5AF8
  8
AM_0
 10
160.3768191295421
 20
236.33433749589361
 30
0.0
 11
159.37681912954221
 21
235.97036726162739
 31
0.0
1001
GENIUS_GENOREF_13
1005
0
  0
LINE
  5
5AF9
  8
AM_0N
 10
158.3178816174144
 20
232.22698252358711
 30
0.0
 11
159.37681912954221
 21
232.13433749589359
 31
0.0
  0
ARC
  5
5AFA
  8
AM_0N
 10
162.77681912954219
 20
236.13433749589359
 30
0.0
 40
6.5
 50
182.90076998909271
 51
208.1727341318651
  0
ARC
  5
5AFB
  8
AM_0N
 10
158.45733080581061
 20
233.820894040534
 30
0.0
 40
1.6000000000000001
 50
208.1727341318651
 51
265.00000000000028
  0
LINE
  5
5AFC
  8
AM_0
 10
277.90300897858282
 20
476.56360749463488
 30
0.0
 11
278.1575582526055
 21
486.28357749463481
 31
0.0
  0
LINE
  5
5AFD
  8
AM_0
 10
217.85057698334219
 20
476.56360749463488
 30
0.0
 11
217.59609494220339
 21
486.28357749463481
 31
0.0
  0
LINE
  5
5AFE
  8
AM_0
 10
214.37681912954221
 20
474.56360749463488
 30
0.0
 11
281.3768191295423
 21
474.56360749463488
 31
0.0
  0
LINE
  5
5AFF
  8
AM_0
 10
214.37681912954221
 20
473.56360749463488
 30
0.0
 11
214.37681912954221
 21
474.56360749463488
 31
0.0
  0
LINE
  5
5B00
  8
AM_0
 10
281.3768191295423
 20
473.56360749463488
 30
0.0
 11
281.3768191295423
 21
474.56360749463488
 31
0.0
  0
LINE
  5
5B01
  8
AM_0
 10
199.87681912954221
 20
435.56360749463488
 30
0.0
 11
201.1364042658046
 21
471.63340648803978
 31
0.0
  0
LINE
  5
5B02
  8
AM_0
 10
203.1351859198428
 20
473.56360749463488
 30
0.0
 11
292.6184523392418
 21
473.56360749463488
 31
0.0
  0
ARC
  5
5B03
  8
AM_0
 10
203.13518591984291
 20
471.56360749463488
 30
0.0
 40
2.0
 50
90.0
 51
178.00000000000259
1001
GENIUS_GENODEF_13
1002
{
1000
HIER
1070
     0
1002
}
1002
{
1000
MANEDIT
1070
     0
1002
}
1002
{
1000
NOSEL
1070
     0
1002
}
1002
{
1000
BEHIND
1070
     0
1002
}
1002
{
1000
OTHER
1070
     0
1002
}
1002
{
1000
REACTOR
1002
}
1001
GENIUS_GENOBJ-N-FIL_13
1002
{
1000
OWNER
1000
GEN
1002
}
  0
LINE
  5
5B04
  8
AM_0
 10
294.61723399328002
 20
471.63340648803978
 30
0.0
 11
295.87681912954241
 21
435.56360749463488
 31
0.0
  0
ARC
  5
5B05
  8
AM_0
 10
292.6184523392418
 20
471.56360749463488
 30
0.0
 40
2.0
 50
1.9999999999972149
 51
90.0
1001
GENIUS_GENOBJ-N-FIL_13
1002
{
1000
OWNER
1000
GEN
1002
}
1001
GENIUS_GENODEF_13
1002
{
1000
HIER
1070
     0
1002
}
1002
{
1000
MANEDIT
1070
     0
1002
}
1002
{
1000
NOSEL
1070
     0
1002
}
1002
{
1000
BEHIND
1070
     0
1002
}
1002
{
1000
OTHER
1070
     0
1002
}
1002
{
1000
REACTOR
1002
}
  0
LINE
  5
5B06
  8
AM_0
 10
295.87681912954241
 20
435.56360749463488
 30
0.0
 11
199.87681912954201
 21
435.56360749463488
 31
0.0
  0
LINE
  5
5B07
  8
AM_0
 10
199.9815814380174
 20
438.56360749463471
 30
0.0
 11
198.87681912954221
 21
438.56360749463471
 31
0.0
  0
LINE
  5
5B08
  8
AM_0
 10
201.0990460617534
 20
470.56360749463471
 30
0.0
 11
198.87681912954201
 21
470.56360749463471
 31
0.0
  0
LINE
  5
5B09
  8
ﾁｭｳｼﾝｾﾝ1
 10
204.87681912954289
 20
425.29889999463478
 30
0.0
 11
204.87681912954289
 21
438.29889999463478
 31
0.0
  0
LINE
  5
5B0A
  8
ﾁｭｳｼﾝｾﾝ
 10
247.87681912954221
 20
480.85563816786402
 30
0.0
 11
247.87681912954221
 21
423.11308485382551
 31
0.0
  0
LINE
  5
5B0B
  8
AM_0
 10
196.37681912954221
 20
441.06360749463482
 30
0.0
 11
198.87681912954201
 21
441.0636074946346
 31
0.0
  0
LINE
  5
5B0C
  8
AM_0
 10
198.87681912954201
 20
468.06360749463443
 30
0.0
 11
196.37681912954221
 21
468.06360749463471
 31
0.0
  0
LINE
  5
5B0D
  8
AM_0
 10
185.47814803319611
 20
465.06360749463471
 30
0.0
 11
185.47814803319611
 21
444.06360749463471
 31
0.0
  0
LINE
  5
5B0E
  8
AM_0
 10
170.47814803319619
 20
446.53198244061957
 30
0.0
 11
170.47814803319619
 21
462.59523254865059
 31
0.0
  0
LINE
  5
5B0F
  8
AM_0
 10
183.47814803319611
 20
466.56360749463471
 30
0.0
 11
183.47814803319611
 21
442.56360749463471
 31
0.0
  0
LINE
  5
5B10
  8
AM_0
 10
173.97814803319619
 20
454.56360749463471
 30
0.0
 11
174.47814803319619
 21
455.06360749463471
 31
0.0
  0
LINE
  5
5B11
  8
AM_0
 10
180.97814803319611
 20
442.86360749463472
 30
0.0
 11
180.97814803319611
 21
466.26360749463453
 31
0.0
  0
LINE
  5
5B12
  8
AM_0
 10
190.87681912954221
 20
443.06360749463471
 30
0.0
 11
190.87681912954221
 21
466.06360749463482
 31
0.0
  0
LINE
  5
5B13
  8
AM_0
 10
184.97814803319611
 20
455.26360749463669
 30
0.0
 11
184.97814803319611
 21
453.86360749463358
 31
0.0
  0
LINE
  5
5B14
  8
AM_0
 10
187.0777837597671
 20
463.66360749463462
 30
0.0
 11
186.32778375976821
 21
445.46360749463452
 31
0.0
  0
LINE
  5
5B15
  8
AM_0
 10
186.12681912954221
 20
463.66360749463462
 30
0.0
 11
185.47814803319611
 21
447.92252222331848
 31
0.0
  0
LINE
  5
5B16
  8
AM_0
 10
186.8755117201141
 20
464.37926620699881
 30
0.0
 11
186.12825167670621
 21
444.75123573346769
 31
0.0
  0
LINE
  5
5B17
  8
AM_0
 10
186.32635121260421
 20
464.37597925580258
 30
0.0
 11
185.57778375976821
 21
444.71360749463457
 31
0.0
  0
LINE
  5
5B18
  8
AM_0
 10
183.47814803319611
 20
442.56360749463471
 30
0.0
 11
181.27814803319609
 21
442.56360749463471
 31
0.0
  0
ARC
  5
5B19
  8
AM_0
 10
195.3768191295423
 20
442.06360749463471
 30
0.0
 40
0.5
 50
0.0
 51
90.000000000013017
  0
ARC
  5
5B1A
  8
AM_0
 10
196.3768191295423
 20
441.56360749463471
 30
0.0
 40
0.5
 50
180.0
 51
270.0
  0
LINE
  5
5B1B
  8
AM_0
 10
195.87681912954221
 20
442.06360749463471
 30
0.0
 11
195.87681912954221
 21
441.56360749463471
 31
0.0
  0
LINE
  5
5B1C
  8
AM_0
 10
186.87681912954221
 20
445.46360749463452
 30
0.0
 11
190.3768191295421
 21
445.46360749463452
 31
0.0
  0
LINE
  5
5B1D
  8
AM_0
 10
195.87681912954221
 20
443.70753617322782
 30
0.0
 11
195.87681912954221
 21
453.41967881604262
 31
0.0
  0
LINE
  5
5B1E
  8
AM_0
 10
191.37681912954221
 20
442.56360749463471
 30
0.0
 11
195.37681912954201
 21
442.56360749463471
 31
0.0
  0
LINE
  5
5B1F
  8
AM_0
 10
195.37681912954221
 20
443.20753617322788
 30
0.0
 11
190.87681912954221
 21
443.20753617322788
 31
0.0
  0
ARC
  5
5B20
  8
AM_0
 10
195.3768191295423
 20
443.70753617322782
 30
0.0
 40
0.5
 50
270.0
 51
0.0
  0
ARC
  5
5B21
  8
AM_0
 10
190.37681912954201
 20
444.9636074946348
 30
0.0
 40
0.5
 50
0.0
 51
90.0
  0
ARC
  5
5B22
  8
AM_0
 10
191.3768191295421
 20
443.06360749463471
 30
0.0
 40
0.5
 50
180.0
 51
270.0
  0
LINE
  5
5B23
  8
AM_0
 10
195.37681912954221
 20
453.91967881604262
 30
0.0
 11
190.87681912954221
 21
453.91967881604262
 31
0.0
  0
ARC
  5
5B24
  8
AM_0
 10
195.37681912954201
 20
453.41967881604279
 30
0.0
 40
0.5
 50
0.0
 51
90.0
  0
LINE
  5
5B25
  8
AM_0
 10
184.97814803319611
 20
448.41843674234241
 30
0.0
 11
184.97814803319611
 21
449.59067992877561
 31
0.0
  0
LINE
  5
5B26
  8
AM_0
 10
186.4045161881931
 20
445.46360749463452
 30
0.0
 11
186.87681912954221
 21
445.46360749463452
 31
0.0
  0
LINE
  5
5B27
  8
AM_0
 10
186.30792369365381
 20
445.38948972789802
 30
0.0
 11
186.32778375976821
 21
445.46360749463452
 31
0.0
  0
ARC
  5
5B28
  8
AM_0
 10
186.4045161881931
 20
445.36360749463478
 30
0.0
 40
0.1000000000000346
 50
90.0
 51
164.99980499355451
  0
ARC
  5
5B29
  8
AM_0
 10
184.67814803319629
 20
445.27677451412671
 30
0.0
 40
0.3000000000000043
 50
0.0
 51
90.0
  0
LINE
  5
5B2A
  8
AM_0
 10
183.47814803319611
 20
443.16360749463462
 30
0.0
 11
184.6981037363532
 21
443.24493787484562
 31
0.0
  0
LINE
  5
5B2B
  8
AM_0
 10
183.47814803319611
 20
444.31985953047462
 30
0.0
 11
184.67814803319609
 21
444.31985953047462
 31
0.0
  0
LINE
  5
5B2C
  8
AM_0
 10
184.97814803319611
 20
443.56360749463471
 30
0.0
 11
183.47814803319611
 21
443.56360749463471
 31
0.0
  0
ARC
  5
5B2D
  8
AM_0
 10
184.97814803319611
 20
444.06360749463471
 30
0.0
 40
0.5
 50
270.0
 51
0.0
  0
LINE
  5
5B2E
  8
AM_0
 10
184.97814803319611
 20
443.54427342220282
 30
0.0
 11
184.97814803319611
 21
443.56360749463471
 31
0.0
  0
LINE
  5
5B2F
  8
AM_0
 10
184.97814803319611
 20
443.26360749463493
 30
0.0
 11
184.97814803319611
 21
443.54427342220282
 31
0.0
  0
LINE
  5
5B30
  8
AM_0
 10
184.6981037363532
 20
443.24493787484562
 30
0.0
 11
184.97814803319611
 21
443.26360749463493
 31
0.0
  0
ARC
  5
5B31
  8
AM_0
 10
184.67814803319629
 20
443.54427342220282
 30
0.0
 40
0.3000000000000007
 50
273.8140748342816
 51
0.0
  0
LINE
  5
5B32
  8
AM_0
 10
186.0500867011171
 20
444.71360749463457
 30
0.0
 11
186.12681912954301
 21
444.71360749463457
 31
0.0
  0
LINE
  5
5B33
  8
AM_0
 10
186.12681912954301
 20
444.71360749463457
 30
0.0
 11
186.14667919565611
 21
444.78772526137118
 31
0.0
  0
LINE
  5
5B34
  8
AM_0
 10
185.557923693654
 20
444.78772526137118
 30
0.0
 11
185.57778375976821
 21
444.71360749463457
 31
0.0
  0
LINE
  5
5B35
  8
AM_0
 10
185.57778375976821
 20
444.71360749463457
 30
0.0
 11
185.6545161881931
 21
444.71360749463457
 31
0.0
  0
LINE
  5
5B36
  8
AM_0
 10
186.14667919565611
 20
444.78772526137118
 30
0.0
 11
186.30792369365381
 21
445.38948972789802
 31
0.0
  0
LINE
  5
5B37
  8
AM_0
 10
185.6545161881931
 20
444.71360749463457
 30
0.0
 11
186.0500867011171
 21
444.71360749463457
 31
0.0
  0
LINE
  5
5B38
  8
AM_0
 10
185.4781480331971
 20
445.08544802619559
 30
0.0
 11
185.557923693654
 21
444.78772526137118
 31
0.0
  0
ARC
  5
5B39
  8
AM_0
 10
186.0500867011171
 20
444.81360749463471
 30
0.0
 40
0.0999999999999866
 50
270.0
 51
344.99980499343462
  0
ARC
  5
5B3A
  8
AM_0
 10
185.6545161881931
 20
444.81360749463471
 30
0.0
 40
0.1000000000000014
 50
195.00019500656541
 51
270.0
  0
LINE
  5
5B3B
  8
AM_0
 10
184.97814803319611
 20
444.61985953047451
 30
0.0
 11
184.97814803319611
 21
445.27677451412671
 31
0.0
  0
ARC
  5
5B3C
  8
AM_0
 10
184.67814803319629
 20
444.6198595304748
 30
0.0
 40
0.3000000000000007
 50
270.0
 51
0.0
  0
LINE
  5
5B3D
  8
AM_0
 10
183.47814803319611
 20
448.1184367423424
 30
0.0
 11
184.67814803319609
 21
448.1184367423424
 31
0.0
  0
LINE
  5
5B3E
  8
AM_0
 10
184.67814803319609
 20
445.57677451412673
 30
0.0
 11
183.47814803319611
 21
445.57677451412673
 31
0.0
  0
LINE
  5
5B3F
  8
AM_0
 10
186.32778375976821
 20
445.46360749463452
 30
0.0
 11
186.4045161881931
 21
445.46360749463452
 31
0.0
  0
ARC
  5
5B40
  8
AM_0
 10
184.67814803319629
 20
448.41843674234281
 30
0.0
 40
0.3000000000000007
 50
270.0
 51
0.0
  0
LINE
  5
5B41
  8
AM_0
 10
184.67814803319609
 20
449.8906799287758
 30
0.0
 11
183.47814803319611
 21
449.8906799287758
 31
0.0
  0
ARC
  5
5B42
  8
AM_0
 10
184.67814803319629
 20
449.59067992877578
 30
0.0
 40
0.3000000000000043
 50
0.0
 51
90.0
  0
LINE
  5
5B43
  8
AM_0
 10
184.67814803319609
 20
453.56360749463369
 30
0.0
 11
183.47814803319611
 21
453.56360749463369
 31
0.0
  0
ARC
  5
5B44
  8
AM_0
 10
184.67814803319629
 20
453.8636074946337
 30
0.0
 40
0.3000000000000007
 50
270.0
 51
0.0
  0
LINE
  5
5B45
  8
AM_0
 10
174.47814803319619
 20
444.43032766598759
 30
0.0
 11
180.97814803319611
 21
444.43032766598759
 31
0.0
  0
LINE
  5
5B46
  8
AM_0
 10
174.47814803319619
 20
443.9303276659877
 30
0.0
 11
180.97814803319611
 21
443.9303276659877
 31
0.0
  0
LINE
  5
5B47
  8
AM_0
 10
180.97814803319611
 20
454.06360749463471
 30
0.0
 11
174.47814803319619
 21
454.06360749463471
 31
0.0
  0
LINE
  5
5B48
  8
AM_0
 10
173.97814803319619
 20
453.56360749463482
 30
0.0
 11
180.97814803319611
 21
453.56360749463482
 31
0.0
  0
LINE
  5
5B49
  8
AM_0
 10
180.67814803319609
 20
443.56360749463471
 30
0.0
 11
173.84019796837819
 21
443.56360749463471
 31
0.0
  0
LINE
  5
5B4A
  8
AM_0
 10
180.97814803319611
 20
453.21691942609363
 30
0.0
 11
174.47814803319619
 21
453.21691942609363
 31
0.0
  0
LINE
  5
5B4B
  8
AM_0
 10
180.97814803319611
 20
444.91029556317562
 30
0.0
 11
174.47814803319619
 21
444.91029556317562
 31
0.0
  0
ARC
  5
5B4C
  8
AM_0
 10
181.27814803319609
 20
442.86360749463472
 30
0.0
 40
0.2999999999999971
 50
180.0
 51
270.0
  0
ARC
  5
5B4D
  8
AM_0
 10
180.67814803319629
 20
443.26360749463493
 30
0.0
 40
0.2999999999999971
 50
0.0
 51
90.0
  0
ARC
  5
5B4E
  8
AM_0
 10
182.60314803319611
 20
449.06360749463482
 30
0.0
 40
9.124999999999984
 50
152.92493329271929
 51
207.07506670728071
  0
LINE
  5
5B4F
  8
AM_0
 10
173.2000135687137
 20
443.79538621503713
 30
0.0
 11
170.83796363353159
 21
445.76376116102222
 31
0.0
  0
LINE
  5
5B50
  8
AM_0
 10
173.97814803319619
 20
444.14204007814271
 30
0.0
 11
174.47814803319619
 21
443.56360749463471
 31
0.0
  0
ARC
  5
5B51
  8
AM_0
 10
173.84019796837811
 20
444.56360749463482
 30
0.0
 40
1.0
 50
230.19442890774391
 51
270.0
  0
LINE
  5
5B52
  8
AM_0
 10
174.47814803319619
 20
443.9303276659877
 30
0.0
 11
173.97814803319619
 21
444.14204007814271
 31
0.0
  0
LINE
  5
5B53
  8
AM_0
 10
173.97814803319619
 20
444.60431535111371
 30
0.0
 11
174.47814803319619
 21
443.9303276659877
 31
0.0
  0
LINE
  5
5B54
  8
AM_0
 10
174.47814803319619
 20
444.43032766598759
 30
0.0
 11
173.97814803319619
 21
444.60431535111371
 31
0.0
  0
LINE
  5
5B55
  8
AM_0
 10
173.97814803319619
 20
445.14204007814283
 30
0.0
 11
174.47814803319619
 21
444.43032766598759
 31
0.0
  0
LINE
  5
5B56
  8
AM_0
 10
174.47814803319619
 20
444.91029556317562
 30
0.0
 11
173.97814803319619
 21
445.14204007814283
 31
0.0
  0
ARC
  5
5B57
  8
AM_0
 10
171.47814803319619
 20
446.5319824406198
 30
0.0
 40
1.0000000000000291
 50
180.0
 51
230.19442890773581
  0
LINE
  5
5B58
  8
AM_0
 10
174.47814803319619
 20
454.06360749463471
 30
0.0
 11
173.97814803319619
 21
454.56360749463471
 31
0.0
  0
LINE
  5
5B59
  8
AM_0
 10
173.97814803319619
 20
453.56360749463482
 30
0.0
 11
174.47814803319619
 21
454.06360749463471
 31
0.0
  0
LINE
  5
5B5A
  8
AM_0
 10
174.47814803319619
 20
453.21691942609363
 30
0.0
 11
173.97814803319619
 21
453.56360749463482
 31
0.0
  0
LINE
  5
5B5B
  8
AM_0
 10
181.27814803319609
 20
466.56360749463471
 30
0.0
 11
183.47814803319611
 21
466.56360749463471
 31
0.0
  0
ARC
  5
5B5C
  8
AM_0
 10
195.37681912954201
 20
467.06360749463471
 30
0.0
 40
0.5
 50
269.99999999998693
 51
0.0
  0
LINE
  5
5B5D
  8
AM_0
 10
190.3768191295421
 20
463.66360749463462
 30
0.0
 11
187.1545161881931
 21
463.66360749463462
 31
0.0
  0
LINE
  5
5B5E
  8
AM_0
 10
195.87681912954221
 20
455.70753617322788
 30
0.0
 11
195.87681912954221
 21
465.41967881604279
 31
0.0
  0
LINE
  5
5B5F
  8
AM_0
 10
190.87681912954221
 20
455.20753617322788
 30
0.0
 11
195.37681912954221
 21
455.20753617322788
 31
0.0
  0
ARC
  5
5B60
  8
AM_0
 10
195.37681912954201
 20
455.70753617322788
 30
0.0
 40
0.5
 50
270.0
 51
0.0
  0
LINE
  5
5B61
  8
AM_0
 10
190.87681912954221
 20
465.91967881604279
 30
0.0
 11
195.37681912954221
 21
465.91967881604279
 31
0.0
  0
LINE
  5
5B62
  8
AM_0
 10
195.37681912954201
 20
466.56360749463471
 30
0.0
 11
191.37681912954221
 21
466.56360749463471
 31
0.0
  0
ARC
  5
5B63
  8
AM_0
 10
195.37681912954201
 20
465.41967881604279
 30
0.0
 40
0.5
 50
0.0
 51
90.0
  0
ARC
  5
5B64
  8
AM_0
 10
190.37681912954201
 20
464.16360749463462
 30
0.0
 40
0.5
 50
270.0
 51
0.0
  0
ARC
  5
5B65
  8
AM_0
 10
191.3768191295421
 20
466.06360749463482
 30
0.0
 40
0.5
 50
90.0
 51
180.0
  0
ARC
  5
5B66
  8
AM_0
 10
184.67814803319629
 20
460.70877824692673
 30
0.0
 40
0.3000000000000114
 50
0.0
 51
90.0
  0
LINE
  5
5B67
  8
AM_0
 10
183.47814803319611
 20
455.56360749463653
 30
0.0
 11
184.67814803319609
 21
455.56360749463653
 31
0.0
  0
ARC
  5
5B68
  8
AM_0
 10
184.67814803319629
 20
455.2636074946368
 30
0.0
 40
0.2999999999999971
 50
0.0
 51
90.0
  0
LINE
  5
5B69
  8
AM_0
 10
183.47814803319611
 20
459.23653506049362
 30
0.0
 11
184.67814803319609
 21
459.23653506049362
 31
0.0
  0
ARC
  5
5B6A
  8
AM_0
 10
184.67814803319629
 20
459.53653506049369
 30
0.0
 40
0.3000000000000007
 50
270.0
 51
0.0
  0
LINE
  5
5B6B
  8
AM_0
 10
184.97814803319611
 20
459.53653506049369
 30
0.0
 11
184.97814803319611
 21
460.70877824692673
 31
0.0
  0
LINE
  5
5B6C
  8
AM_0
 10
186.4045161881931
 20
464.41360749463462
 30
0.0
 11
186.8000867011171
 21
464.41360749463462
 31
0.0
  0
LINE
  5
5B6D
  8
AM_0
 10
186.4045161881931
 20
464.41360749463462
 30
0.0
 11
186.8000867011171
 21
464.41360749463462
 31
0.0
  0
LINE
  5
5B6E
  8
AM_0
 10
186.89667919565611
 20
464.3394897278983
 30
0.0
 11
187.05792369365389
 21
463.73772526137122
 31
0.0
  0
LINE
  5
5B6F
  8
AM_0
 10
186.89667919565611
 20
464.3394897278983
 30
0.0
 11
187.05792369365389
 21
463.73772526137122
 31
0.0
  0
ARC
  5
5B70
  8
AM_0
 10
187.1545161881931
 20
463.76360749463493
 30
0.0
 40
0.0999999999999943
 50
195.00019500651641
 51
270.0
  0
ARC
  5
5B71
  8
AM_0
 10
186.8000867011171
 20
464.31360749463471
 30
0.0
 40
0.0999999999999943
 50
15.000195006505431
 51
90.0
  0
LINE
  5
5B72
  8
AM_0
 10
185.47730144465501
 20
464.03860749463479
 30
0.0
 11
185.557923693654
 21
463.73772526137122
 31
0.0
  0
LINE
  5
5B73
  8
AM_0
 10
186.12952978174809
 20
463.70287202773272
 30
0.0
 11
186.307923693654
 21
464.3394897278983
 31
0.0
  0
LINE
  5
5B74
  8
AM_0
 10
186.14667919565611
 20
463.73772526137122
 30
0.0
 11
186.307923693654
 21
464.3394897278983
 31
0.0
  0
LINE
  5
5B75
  8
AM_0
 10
184.97814803319611
 20
463.85044047514361
 30
0.0
 11
184.97814803319611
 21
464.50735545879462
 31
0.0
  0
LINE
  5
5B76
  8
AM_0
 10
185.47814803319611
 20
464.0354480261966
 30
0.0
 11
185.557923693654
 21
463.73772526137122
 31
0.0
  0
LINE
  5
5B77
  8
AM_0
 10
183.47814803319611
 20
463.5504404751436
 30
0.0
 11
184.67814803319609
 21
463.5504404751436
 31
0.0
  0
LINE
  5
5B78
  8
AM_0
 10
184.67814803319609
 20
461.00877824692662
 30
0.0
 11
183.47814803319611
 21
461.00877824692759
 31
0.0
  0
LINE
  5
5B79
  8
AM_0
 10
186.0827189666322
 20
463.66360749463462
 30
0.0
 11
186.12952978174809
 21
463.70287202773272
 31
0.0
  0
LINE
  5
5B7A
  8
AM_0
 10
185.6545161881931
 20
463.66360749463462
 30
0.0
 11
186.0827189666322
 21
463.66360749463462
 31
0.0
  0
LINE
  5
5B7B
  8
AM_0
 10
185.6545161881931
 20
463.66360749463462
 30
0.0
 11
186.0500867011171
 21
463.66360749463462
 31
0.0
  0
ARC
  5
5B7C
  8
AM_0
 10
185.6545161881931
 20
463.76360749463493
 30
0.0
 40
0.0999999999999943
 50
195.00019500651641
 51
270.0
  0
ARC
  5
5B7D
  8
AM_0
 10
186.0500867011171
 20
463.76360749463493
 30
0.0
 40
0.0999999999999608
 50
270.0
 51
344.99980499348368
  0
ARC
  5
5B7E
  8
AM_0
 10
184.67814803319629
 20
463.85044047514361
 30
0.0
 40
0.3000000000000007
 50
270.0
 51
0.0
  0
LINE
  5
5B7F
  8
AM_0
 10
183.47814803319611
 20
465.56360749463482
 30
0.0
 11
184.97814803319611
 21
465.56360749463482
 31
0.0
  0
LINE
  5
5B80
  8
AM_0
 10
184.67814803319609
 20
464.80735545879458
 30
0.0
 11
183.47814803319611
 21
464.80735545879458
 31
0.0
  0
LINE
  5
5B81
  8
AM_0
 10
184.6981037363532
 20
465.88227711442471
 30
0.0
 11
183.47814803319611
 21
465.96360749463452
 31
0.0
  0
ARC
  5
5B82
  8
AM_0
 10
184.97814803319611
 20
465.06360749463471
 30
0.0
 40
0.5
 50
0.0
 51
90.0
  0
ARC
  5
5B83
  8
AM_0
 10
186.4045161881931
 20
464.31360749463471
 30
0.0
 40
0.0999999999999606
 50
90.0
 51
164.99980499349451
  0
ARC
  5
5B84
  8
AM_0
 10
184.67814803319629
 20
464.50735545879462
 30
0.0
 40
0.2999999999999971
 50
0.0
 51
90.0
  0
LINE
  5
5B85
  8
AM_0
 10
184.97814803319611
 20
465.56360749463482
 30
0.0
 11
184.97814803319611
 21
465.58294156706768
 31
0.0
  0
ARC
  5
5B86
  8
AM_0
 10
184.67814803319629
 20
465.58294156706768
 30
0.0
 40
0.3000000000000043
 50
0.0
 51
86.185925165718416
  0
ARC
  5
5B87
  8
AM_0
 10
196.3768191295421
 20
467.56360749463471
 30
0.0
 40
0.5
 50
90.0
 51
180.0
  0
LINE
  5
5B88
  8
AM_0
 10
195.87681912954221
 20
467.56360749463471
 30
0.0
 11
195.87681912954221
 21
467.06360749463471
 31
0.0
  0
LINE
  5
5B89
  8
AM_0
 10
174.47814803319619
 20
464.21691942609363
 30
0.0
 11
180.97814803319611
 21
464.21691942609363
 31
0.0
  0
LINE
  5
5B8A
  8
AM_0
 10
174.47814803319619
 20
455.91029556317568
 30
0.0
 11
180.97814803319611
 21
455.91029556317568
 31
0.0
  0
LINE
  5
5B8B
  8
AM_0
 10
173.84019796837819
 20
465.56360749463482
 30
0.0
 11
180.67814803319609
 21
465.56360749463482
 31
0.0
  0
LINE
  5
5B8C
  8
AM_0
 10
180.97814803319611
 20
455.56360749463471
 30
0.0
 11
173.97814803319619
 21
455.56360749463471
 31
0.0
  0
LINE
  5
5B8D
  8
AM_0
 10
174.47814803319619
 20
455.06360749463471
 30
0.0
 11
180.97814803319611
 21
455.06360749463471
 31
0.0
  0
LINE
  5
5B8E
  8
AM_0
 10
180.97814803319611
 20
465.19688732328251
 30
0.0
 11
174.47814803319619
 21
465.19688732328251
 31
0.0
  0
LINE
  5
5B8F
  8
AM_0
 10
180.97814803319611
 20
464.69688732328251
 30
0.0
 11
174.47814803319619
 21
464.69688732328251
 31
0.0
  0
ARC
  5
5B90
  8
AM_0
 10
180.67814803319629
 20
465.86360749463478
 30
0.0
 40
0.3000000000000043
 50
270.0
 51
0.0
  0
ARC
  5
5B91
  8
AM_0
 10
181.27814803319609
 20
466.2636074946347
 30
0.0
 40
0.2999999999999971
 50
90.0
 51
180.0
  0
ARC
  5
5B92
  8
AM_0
 10
182.60314803319611
 20
460.06360749463471
 30
0.0
 40
9.124999999999984
 50
152.92493329271929
 51
207.07506670728071
  0
LINE
  5
5B93
  8
AM_0
 10
173.97814803319619
 20
455.56360749463471
 30
0.0
 11
174.47814803319619
 21
455.91029556317568
 31
0.0
  0
LINE
  5
5B94
  8
AM_0
 10
174.47814803319619
 20
455.06360749463471
 30
0.0
 11
173.97814803319619
 21
455.56360749463471
 31
0.0
  0
LINE
  5
5B95
  8
AM_0
 10
170.83796363353159
 20
463.36345382824788
 30
0.0
 11
173.2000135687137
 21
465.33182877423218
 31
0.0
  0
LINE
  5
5B96
  8
AM_0
 10
174.47814803319619
 20
465.56360749463482
 30
0.0
 11
173.97814803319619
 21
464.98517491112761
 31
0.0
  0
ARC
  5
5B97
  8
AM_0
 10
173.84019796837811
 20
464.56360749463471
 30
0.0
 40
1.0000000000000411
 50
90.0
 51
129.805571092256
  0
LINE
  5
5B98
  8
AM_0
 10
173.97814803319619
 20
463.98517491112779
 30
0.0
 11
174.47814803319619
 21
464.21691942609363
 31
0.0
  0
LINE
  5
5B99
  8
AM_0
 10
174.47814803319619
 20
464.69688732328251
 30
0.0
 11
173.97814803319619
 21
463.98517491112779
 31
0.0
  0
LINE
  5
5B9A
  8
AM_0
 10
173.97814803319619
 20
464.52289963815582
 30
0.0
 11
174.47814803319619
 21
464.69688732328251
 31
0.0
  0
LINE
  5
5B9B
  8
AM_0
 10
174.47814803319619
 20
465.19688732328251
 30
0.0
 11
173.97814803319619
 21
464.52289963815582
 31
0.0
  0
LINE
  5
5B9C
  8
AM_0
 10
173.97814803319619
 20
464.98517491112761
 30
0.0
 11
174.47814803319619
 21
465.19688732328251
 31
0.0
  0
ARC
  5
5B9D
  8
AM_0
 10
171.47814803319619
 20
462.59523254865059
 30
0.0
 40
1.0
 50
129.8055710922641
 51
180.0
  0
LINE
  5
5B9E
  8
AM_0
 10
295.8768191295423
 20
431.56360749463488
 30
0.0
 11
275.06231423000992
 21
431.56360749463488
 31
0.0
  0
LINE
  5
5B9F
  8
AM_0
 10
220.69132402907459
 20
431.56360749463488
 30
0.0
 11
199.87681912954289
 21
431.56360749463488
 31
0.0
  0
LINE
  5
5BA0
  8
AM_0
 10
289.74103746038122
 20
427.56360749463488
 30
0.0
 11
206.01260079870309
 21
427.56360749463488
 31
0.0
  0
LINE
  5
5BA1
  8
AM_0
 10
208.78417410184929
 20
429.50466998250698
 30
0.0
 11
208.87681912954281
 21
430.56360749463488
 31
0.0
  0
LINE
  5
5BA2
  8
AM_0
 10
200.9694641572363
 20
429.50466998250698
 30
0.0
 11
200.87681912954289
 21
430.56360749463488
 31
0.0
  0
ARC
  5
5BA3
  8
AM_0
 10
204.87681912954289
 20
433.96360749463503
 30
0.0
 40
6.5
 50
241.82726586813479
 51
298.17273413186518
  0
ARC
  5
5BA4
  8
AM_0
 10
202.56337567418319
 20
429.64411917090348
 30
0.0
 40
1.6000000000000001
 50
185.0
 51
241.82726586813479
  0
LINE
  5
5BA5
  8
AM_0
 10
207.17681912954271
 20
427.8841338332067
 30
0.0
 11
204.87681912954281
 21
430.17369351200227
 31
0.0
  0
LINE
  5
5BA6
  8
AM_0
 10
205.1883191295428
 20
429.863607494635
 30
0.0
 11
204.56531912954279
 21
429.863607494635
 31
0.0
  0
LINE
  5
5BA7
  8
AM_0
 10
202.57681912954291
 20
427.8841338332067
 30
0.0
 11
204.87681912954281
 21
430.17369351200227
 31
0.0
  0
LINE
  5
5BA8
  8
AM_0
 10
205.1883191295428
 20
427.47107580430043
 30
0.0
 11
205.1883191295428
 21
429.863607494635
 31
0.0
  0
LINE
  5
5BA9
  8
AM_0
 10
204.56531912954279
 20
427.47107580430043
 30
0.0
 11
204.56531912954279
 21
429.863607494635
 31
0.0
  0
ARC
  5
5BAA
  8
AM_0
 10
207.1902625849026
 20
429.64411917090348
 30
0.0
 40
1.6000000000000001
 50
298.17273413186518
 51
354.99999999999977
  0
LINE
  5
5BAB
  8
AM_0
 10
295.87681912954241
 20
431.56360749463488
 30
0.0
 11
295.87681912954241
 21
435.56360749463488
 31
0.0
  0
LINE
  5
5BAC
  8
AM_0
 10
199.87681912954201
 20
435.56360749463488
 30
0.0
 11
199.87681912954301
 21
431.56360749463488
 31
0.0
  0
LINE
  5
5BAD
  8
AM_0N
 10
208.67681912954291
 20
431.56360749463488
 30
0.0
 11
208.67681912954291
 21
430.56360749463488
 31
0.0
  0
LINE
  5
5BAE
  8
AM_0N
 10
205.0768191295428
 20
430.56360749463488
 30
0.0
 11
205.44078936380899
 21
431.56360749463488
 31
0.0
  0
LINE
  5
5BAF
  8
AM_0N
 10
204.67681912954291
 20
430.56360749463488
 30
0.0
 11
205.04078936380901
 21
431.56360749463488
 31
0.0
  0
LINE
  5
5BB0
  8
AM_0N
 10
200.87681912954281
 20
430.56360749463488
 30
0.0
 11
208.87681912954281
 21
430.56360749463488
 31
0.0
  0
LINE
  5
5BB1
  8
AM_0N
 10
201.0768191295428
 20
430.56360749463488
 30
0.0
 11
201.0768191295428
 21
431.56360749463488
 31
0.0
  0
LINE
  5
5BB2
  8
AM_0
 10
220.69132402907451
 20
427.56360749463488
 30
0.0
 11
220.69132402907451
 21
431.56360749463488
 31
0.0
  0
LINE
  5
5BB3
  8
AM_0
 10
219.03446977958211
 20
431.56360749463488
 30
0.0
 11
220.69132402907451
 21
427.56360749463488
 31
0.0
  0
LINE
  5
5BB4
  8
AM_0
 10
275.06231423000992
 20
427.56360749463488
 30
0.0
 11
275.06231423000992
 21
431.56360749463488
 31
0.0
  0
LINE
  5
5BB5
  8
AM_0
 10
276.7191684795024
 20
431.56360749463488
 30
0.0
 11
275.06231423000992
 21
427.56360749463488
 31
0.0
  0
LINE
  5
5BB6
  8
AM_0
 10
214.37681912954221
 20
476.56360749463488
 30
0.0
 11
281.3768191295423
 21
476.56360749463488
 31
0.0
  0
LINE
  5
5BB7
  8
AM_0
 10
214.37681912954221
 20
476.56360749463488
 30
0.0
 11
214.37681912954221
 21
474.56360749463488
 31
0.0
  0
LINE
  5
5BB8
  8
AM_0
 10
281.3768191295423
 20
476.56360749463488
 30
0.0
 11
281.3768191295423
 21
474.56360749463488
 31
0.0
  0
LINE
  5
5BB9
  8
ﾁｭｳｼﾝｾﾝ1
 10
290.87681912954162
 20
425.29889999463478
 30
0.0
 11
290.87681912954162
 21
438.29889999463478
 31
0.0
  0
LINE
  5
5BBA
  8
AM_0
 10
286.96946415723522
 20
429.50466998250698
 30
0.0
 11
286.87681912954167
 21
430.56360749463488
 31
0.0
  0
LINE
  5
5BBB
  8
AM_0
 10
294.78417410184818
 20
429.50466998250698
 30
0.0
 11
294.87681912954162
 21
430.56360749463488
 31
0.0
  0
ARC
  5
5BBC
  8
AM_0
 10
290.87681912954167
 20
433.9636074946348
 30
0.0
 40
6.5
 50
241.82726586813479
 51
298.17273413186518
  0
ARC
  5
5BBD
  8
AM_0
 10
293.19026258490152
 20
429.64411917090342
 30
0.0
 40
1.6000000000000001
 50
298.17273413186518
 51
354.99999999999977
  0
LINE
  5
5BBE
  8
AM_0
 10
288.57681912954172
 20
427.8841338332067
 30
0.0
 11
290.87681912954167
 21
430.17369351200227
 31
0.0
  0
LINE
  5
5BBF
  8
AM_0
 10
290.56531912954159
 20
429.863607494635
 30
0.0
 11
291.1883191295417
 21
429.863607494635
 31
0.0
  0
LINE
  5
5BC0
  8
AM_0
 10
293.17681912954163
 20
427.8841338332067
 30
0.0
 11
290.87681912954167
 21
430.17369351200227
 31
0.0
  0
LINE
  5
5BC1
  8
AM_0
 10
290.56531912954159
 20
427.47107580430043
 30
0.0
 11
290.56531912954159
 21
429.863607494635
 31
0.0
  0
LINE
  5
5BC2
  8
AM_0
 10
291.1883191295417
 20
427.47107580430043
 30
0.0
 11
291.1883191295417
 21
429.863607494635
 31
0.0
  0
ARC
  5
5BC3
  8
AM_0
 10
288.56337567418211
 20
429.64411917090342
 30
0.0
 40
1.6000000000000001
 50
185.0
 51
241.82726586813479
  0
LINE
  5
5BC4
  8
AM_0N
 10
287.0768191295416
 20
431.56360749463488
 30
0.0
 11
287.0768191295416
 21
430.56360749463488
 31
0.0
  0
LINE
  5
5BC5
  8
AM_0N
 10
290.67681912954163
 20
430.56360749463488
 30
0.0
 11
290.31284889527552
 21
431.56360749463488
 31
0.0
  0
LINE
  5
5BC6
  8
AM_0N
 10
291.0768191295416
 20
430.56360749463488
 30
0.0
 11
290.71284889527539
 21
431.56360749463488
 31
0.0
  0
LINE
  5
5BC7
  8
AM_0N
 10
294.87681912954179
 20
430.56360749463488
 30
0.0
 11
286.87681912954167
 21
430.56360749463488
 31
0.0
  0
LINE
  5
5BC8
  8
AM_0N
 10
294.67681912954163
 20
430.56360749463488
 30
0.0
 11
294.67681912954163
 21
431.56360749463488
 31
0.0
  0
LINE
  5
5BC9
  8
AM_0
 10
198.87681912954221
 20
438.56360749463471
 30
0.0
 11
198.87681912954201
 21
470.56360749463471
 31
0.0
  0
LINE
  5
5BCA
  8
ﾁｭｳｼﾝｾﾝ
 10
118.1880042572197
 20
542.56360749463477
 30
0.0
 11
426.24061912954238
 21
542.56360749463477
 31
0.0
  0
LINE
  5
5BCB
  8
AM_0
 10
398.87681912954241
 20
539.56360749463488
 30
0.0
 11
398.87681912954241
 21
545.56360749463477
 31
0.0
  0
LINE
  5
5BCC
  8
AM_0
 10
396.87679912954292
 20
533.06363749463469
 30
0.0
 11
420.87681912954241
 21
533.06363749463469
 31
0.0
  0
LINE
  5
5BCD
  8
AM_0
 10
396.87679912954252
 20
552.0636374946348
 30
0.0
 11
420.87681912954241
 21
552.0636374946348
 31
0.0
  0
LINE
  5
5BCE
  8
AM_0
 10
420.87681912954241
 20
533.06363749463469
 30
0.0
 11
420.87681912954241
 21
552.0636374946348
 31
0.0
  0
LINE
  5
5BCF
  8
AM_0
 10
398.87681912954241
 20
539.56360749463488
 30
0.0
 11
420.87681912954241
 21
539.56360749463488
 31
0.0
  0
LINE
  5
5BD0
  8
AM_0
 10
398.87681912954241
 20
545.56360749463477
 30
0.0
 11
420.87681912954241
 21
545.56360749463477
 31
0.0
  0
LINE
  5
5BD1
  8
AM_0
 10
365.87681912954241
 20
476.5596974946348
 30
0.0
 11
365.87681912954241
 21
485.69284749463492
 31
0.0
  0
LINE
  5
5BD2
  8
AM_0
 10
375.87681912954241
 20
493.74795749463482
 30
0.0
 11
375.87681912954241
 21
591.37927749463495
 31
0.0
  0
LINE
  5
5BD3
  8
AM_0
 10
370.7459291295425
 20
490.69110749463482
 30
0.0
 11
372.95536912954242
 21
490.74896749463471
 31
0.0
  0
LINE
  5
5BD4
  8
AM_0
 10
332.85066912954238
 20
476.51330749463472
 30
0.0
 11
330.9030091295424
 21
476.56433749463508
 31
0.0
  0
LINE
  5
5BD5
  8
AM_0
 10
333.8768191295423
 20
474.59051749463481
 30
0.0
 11
333.8768191295423
 21
480.58911749463482
 31
0.0
  0
LINE
  5
5BD6
  8
AM_0
 10
329.8768191295423
 20
473.56396749463471
 30
0.0
 11
329.8768191295423
 21
475.56463749463478
 31
0.0
  0
LINE
  5
5BD7
  8
AM_0
 10
386.00773912954247
 20
474.00726749463479
 30
0.0
 11
330.87684912954239
 21
472.56360749463488
 31
0.0
  0
LINE
  5
5BD8
  8
AM_0
 10
330.87681912954258
 20
472.5636374946348
 30
0.0
 11
312.74595912954243
 21
473.03839749463492
 31
0.0
  0
LINE
  5
5BD9
  8
AM_0
 10
388.87681912954241
 20
581.80072749463477
 30
0.0
 11
388.87681912954241
 21
500.12170749463479
 31
0.0
  0
LINE
  5
5BDA
  8
AM_0
 10
330.87681912954258
 20
482.56360749463482
 30
0.0
 11
330.87681912954258
 21
602.56363749463503
 31
0.0
  0
LINE
  5
5BDB
  8
AM_0
 10
380.74595912954243
 20
500.1911374946348
 30
0.0
 11
385.95536912954242
 21
500.32754749463481
 31
0.0
  0
LINE
  5
5BDC
  8
AM_0
 10
390.87681912954241
 20
479.00555749463479
 30
0.0
 11
390.87681912954241
 21
496.12170749463502
 31
0.0
  0
LINE
  5
5BDD
  8
AM_0
 10
307.87681912954241
 20
478.0366874946348
 30
0.0
 11
307.87681912954241
 21
486.03741749463478
 31
0.0
  0
LINE
  5
5BDE
  8
AM_0
 10
330.87681912954258
 20
482.5636374946348
 30
0.0
 11
339.33802912954252
 21
482.78518749463478
 31
0.0
  0
LINE
  5
5BDF
  8
AM_0
 10
365.87681912954241
 20
608.56753749463485
 30
0.0
 11
365.87681912954241
 21
599.43438749463485
 31
0.0
  0
LINE
  5
5BE0
  8
AM_0
 10
370.74595912954243
 20
594.43612749463489
 30
0.0
 11
372.95536912954242
 21
594.378267494635
 31
0.0
  0
LINE
  5
5BE1
  8
AM_0
 10
332.85066912954238
 20
608.61392749463516
 30
0.0
 11
330.90303912954238
 21
608.56292749463501
 31
0.0
  0
LINE
  5
5BE2
  8
AM_0
 10
333.8768191295423
 20
610.53674749463482
 30
0.0
 11
333.8768191295423
 21
604.53811749463478
 31
0.0
  0
LINE
  5
5BE3
  8
AM_0
 10
329.8768191295423
 20
611.56329749463487
 30
0.0
 11
329.8768191295423
 21
609.56259749463504
 31
0.0
  0
LINE
  5
5BE4
  8
AM_0
 10
386.00770912954238
 20
611.11999749463484
 30
0.0
 11
330.87684912954239
 21
612.56363749463503
 31
0.0
  0
LINE
  5
5BE5
  8
AM_0
 10
330.87684912954239
 20
612.56360749463477
 30
0.0
 11
312.74595912954243
 21
612.08883749463519
 31
0.0
  0
LINE
  5
5BE6
  8
AM_0
 10
380.74595912954243
 20
584.936127494635
 30
0.0
 11
385.95536912954242
 21
584.79971749463505
 31
0.0
  0
LINE
  5
5BE7
  8
AM_0
 10
390.87681912954241
 20
606.1216774946347
 30
0.0
 11
390.87681912954241
 21
589.0055574946349
 31
0.0
  0
LINE
  5
5BE8
  8
AM_0
 10
307.87681912954241
 20
607.090577494635
 30
0.0
 11
307.87681912954241
 21
599.08981749463499
 31
0.0
  0
LINE
  5
5BE9
  8
AM_0
 10
330.87684912954239
 20
602.56363749463503
 30
0.0
 11
339.3380591295425
 21
602.34207749463474
 31
0.0
  0
LINE
  5
5BEA
  8
AM_0
 10
341.8768191295423
 20
585.29727749463495
 30
0.0
 11
341.8768191295423
 21
601.94531749463499
 31
0.0
  0
LINE
  5
5BEB
  8
AM_0
 10
343.8768191295423
 20
499.82998749463508
 30
0.0
 11
343.8768191295423
 21
585.29727749463495
 31
0.0
  0
LINE
  5
5BEC
  8
AM_0
 10
330.87681912954258
 20
598.08996749463495
 30
0.0
 11
341.8768191295423
 21
598.08996749463495
 31
0.0
  0
LINE
  5
5BED
  8
AM_0
 10
330.87681912954258
 20
487.03729749463503
 30
0.0
 11
341.8768191295423
 21
487.03729749463503
 31
0.0
  0
LINE
  5
5BEE
  8
AM_0
 10
350.8398591295425
 20
597.10077749463483
 30
0.0
 11
344.07624912954242
 21
601.00573749463501
 31
0.0
  0
LINE
  5
5BEF
  8
AM_0
 10
341.8768191295423
 20
585.29727749463495
 30
0.0
 11
343.8768191295423
 21
585.29727749463495
 31
0.0
  0
LINE
  5
5BF0
  8
AM_0
 10
367.86579912954238
 20
595.44269749463501
 30
0.0
 11
355.57807912954252
 21
595.76446749463503
 31
0.0
  0
LINE
  5
5BF1
  8
AM_0
 10
355.37492912954252
 20
583.8854674946349
 30
0.0
 11
343.8768191295423
 21
585.29727749463495
 31
0.0
  0
LINE
  5
5BF2
  8
AM_0
 10
375.87681912954241
 20
583.16952749463474
 30
0.0
 11
355.37495912954239
 21
583.8854674946349
 31
0.0
  0
LINE
  5
5BF3
  8
AM_0
 10
350.8398591295425
 20
488.02646749463503
 30
0.0
 11
344.07627912954251
 21
484.12152749463507
 31
0.0
  0
LINE
  5
5BF4
  8
AM_0
 10
341.8768191295423
 20
499.82998749463508
 30
0.0
 11
341.8768191295423
 21
483.18194749463493
 31
0.0
  0
LINE
  5
5BF5
  8
AM_0
 10
375.87681912954241
 20
501.95770749463492
 30
0.0
 11
355.37492912954252
 21
501.24176749463481
 31
0.0
  0
LINE
  5
5BF6
  8
AM_0
 10
355.37492912954252
 20
501.24179749463508
 30
0.0
 11
343.8768191295423
 21
499.82998749463508
 31
0.0
  0
LINE
  5
5BF7
  8
AM_0
 10
341.8768191295423
 20
499.82998749463508
 30
0.0
 11
343.8768191295423
 21
499.82998749463508
 31
0.0
  0
LINE
  5
5BF8
  8
AM_0
 10
367.86579912954238
 20
489.68457749463482
 30
0.0
 11
355.57807912954252
 21
489.36279749463478
 31
0.0
  0
LINE
  5
5BF9
  8
AM_0
 10
342.87681912954258
 20
498.3558974946348
 30
0.0
 11
345.87681912954241
 21
498.3558974946348
 31
0.0
  0
LINE
  5
5BFA
  8
AM_0
 10
342.87681912954258
 20
486.80884749463479
 30
0.0
 11
345.87681912954241
 21
486.80884749463479
 31
0.0
  0
LINE
  5
5BFB
  8
AM_0
 10
342.87681912954258
 20
495.46911749463482
 30
0.0
 11
345.87681912954241
 21
495.46911749463482
 31
0.0
  0
LINE
  5
5BFC
  8
AM_0
 10
346.87681912954253
 20
487.80887749463483
 30
0.0
 11
346.87681912954253
 21
497.35589749463492
 31
0.0
  0
LINE
  5
5BFD
  8
AM_0
 10
342.87681912954258
 20
489.69561749463492
 30
0.0
 11
345.87681912954241
 21
489.69561749463492
 31
0.0
  0
LINE
  5
5BFE
  8
AM_0
 10
341.8768191295423
 20
486.30887749463471
 30
0.0
 11
342.87681912954258
 21
486.30887749463471
 31
0.0
  0
LINE
  5
5BFF
  8
AM_0
 10
341.8768191295423
 20
498.85586749463482
 30
0.0
 11
342.87681912954258
 21
498.85586749463482
 31
0.0
  0
LINE
  5
5C00
  8
AM_0
 10
342.87681912954258
 20
498.85586749463482
 30
0.0
 11
342.87681912954258
 21
486.30887749463471
 31
0.0
  0
LINE
  5
5C01
  8
AM_0
 10
342.87681912954258
 20
586.27136749463477
 30
0.0
 11
342.87681912954258
 21
598.81839749463495
 31
0.0
  0
LINE
  5
5C02
  8
AM_0
 10
341.8768191295423
 20
586.27136749463477
 30
0.0
 11
342.87681912954258
 21
586.27136749463477
 31
0.0
  0
LINE
  5
5C03
  8
AM_0
 10
341.8768191295423
 20
598.81839749463495
 30
0.0
 11
342.87681912954258
 21
598.81839749463495
 31
0.0
  0
LINE
  5
5C04
  8
AM_0
 10
342.87681912954258
 20
595.43164749463506
 30
0.0
 11
345.87681912954241
 21
595.43164749463506
 31
0.0
  0
LINE
  5
5C05
  8
AM_0
 10
346.87681912954253
 20
597.31839749463495
 30
0.0
 11
346.87681912954253
 21
587.771367494635
 31
0.0
  0
LINE
  5
5C06
  8
AM_0
 10
342.87681912954258
 20
589.65811749463501
 30
0.0
 11
345.87681912954241
 21
589.65811749463501
 31
0.0
  0
LINE
  5
5C07
  8
AM_0
 10
342.87681912954258
 20
598.31839749463495
 30
0.0
 11
345.87681912954241
 21
598.31839749463495
 31
0.0
  0
LINE
  5
5C08
  8
AM_0
 10
342.87681912954258
 20
586.771367494635
 30
0.0
 11
345.87681912954241
 21
586.771367494635
 31
0.0
  0
LINE
  5
5C09
  8
AM_0
 10
324.87681912954241
 20
484.66906749463487
 30
0.0
 11
324.87681912954241
 21
600.45819749463499
 31
0.0
  0
LINE
  5
5C0A
  8
AM_0
 10
330.87684912954239
 20
482.56360749463482
 30
0.0
 11
326.82450912954238
 21
482.66974749463492
 31
0.0
  0
LINE
  5
5C0B
  8
AM_0
 10
326.8244791295424
 20
602.45752749463475
 30
0.0
 11
330.87681912954258
 21
602.56363749463503
 31
0.0
  0
LINE
  5
5C0C
  8
AM_0
 10
306.8768191295423
 20
486.06360749463488
 30
0.0
 11
306.8768191295423
 21
599.06363749463503
 31
0.0
  0
LINE
  5
5C0D
  8
AM_0
 10
306.87684912954239
 20
599.06363749463503
 30
0.0
 11
316.87117912954238
 21
599.32531749463499
 31
0.0
  0
LINE
  5
5C0E
  8
AM_0
 10
315.87681912954241
 20
590.74792749463495
 30
0.0
 11
315.87681912954241
 21
597.59655749463457
 31
0.0
  0
LINE
  5
5C0F
  8
AM_0
 10
317.82447912954251
 20
599.59588749463512
 30
0.0
 11
323.50550912954259
 21
599.744667494635
 31
0.0
  0
LINE
  5
5C10
  8
AM_0
 10
306.8768191295423
 20
588.56393749463496
 30
0.0
 11
322.92918912954252
 21
588.98425749463479
 31
0.0
  0
LINE
  5
5C11
  8
AM_0
 10
317.82447912954251
 20
485.53137749463451
 30
0.0
 11
323.50547912954249
 21
485.38260749463512
 31
0.0
  0
LINE
  5
5C12
  8
AM_0
 10
306.87684912954239
 20
486.0636374946348
 30
0.0
 11
316.87117912954238
 21
485.80191749463472
 31
0.0
  0
LINE
  5
5C13
  8
AM_0
 10
315.87681912954241
 20
494.37933749463502
 30
0.0
 11
315.87681912954241
 21
487.53067749463457
 31
0.0
  0
LINE
  5
5C14
  8
AM_0
 10
306.87684912954239
 20
496.56332749463468
 30
0.0
 11
322.92918912954252
 21
496.14297749463481
 31
0.0
  0
LINE
  5
5C15
  8
AM_0
 10
297.08256912954238
 20
587.49249749463502
 30
0.0
 11
292.9368491295424
 21
602.97360749463485
 31
0.0
  0
LINE
  5
5C16
  8
AM_0
 10
297.0825391295424
 20
586.58249749463516
 30
0.0
 11
292.93681912954241
 21
602.06360749463499
 31
0.0
  0
LINE
  5
5C17
  8
AM_0
 10
297.0825391295424
 20
584.7325174946352
 30
0.0
 11
292.93681912954241
 21
600.21365749463484
 31
0.0
  0
LINE
  5
5C18
  8
AM_0
 10
298.87681912954241
 20
598.56360749463488
 30
0.0
 11
298.87681912954241
 21
486.56360749463482
 31
0.0
  0
LINE
  5
5C19
  8
AM_0
 10
292.21684912954231
 20
578.56360749463477
 30
0.0
 11
193.23680912954251
 21
578.56360749463477
 31
0.0
  0
LINE
  5
5C1A
  8
AM_0
 10
292.21684912954231
 20
576.56360749463499
 30
0.0
 11
193.23680912954251
 21
576.56360749463499
 31
0.0
  0
LINE
  5
5C1B
  8
AM_0
 10
259.87681912954258
 20
568.56360749463499
 30
0.0
 11
193.23680912954251
 21
568.56360749463499
 31
0.0
  0
LINE
  5
5C1C
  8
AM_0
 10
292.20964912954258
 20
566.56360749463477
 30
0.0
 11
193.23680912954251
 21
566.56360749463477
 31
0.0
  0
LINE
  5
5C1D
  8
AM_0
 10
227.3155391295424
 20
558.56360749463477
 30
0.0
 11
193.23680912954251
 21
558.56360749463477
 31
0.0
  0
LINE
  5
5C1E
  8
AM_0
 10
227.3155391295424
 20
556.56360749463488
 30
0.0
 11
193.23680912954251
 21
556.56360749463488
 31
0.0
  0
LINE
  5
5C1F
  8
AM_0
 10
227.3155391295424
 20
548.56360749463488
 30
0.0
 11
193.23680912954251
 21
548.56360749463488
 31
0.0
  0
LINE
  5
5C20
  8
AM_0
 10
227.3155391295424
 20
546.56360749463477
 30
0.0
 11
193.23680912954251
 21
546.56360749463477
 31
0.0
  0
LINE
  5
5C21
  8
AM_0
 10
192.55680912954259
 20
579.28357749463487
 30
0.0
 11
295.69682912954238
 21
579.28357749463487
 31
0.0
  0
LINE
  5
5C22
  8
AM_0
 10
192.55680912954259
 20
575.93359749463502
 30
0.0
 11
259.89683912954251
 21
575.93359749463502
 31
0.0
  0
LINE
  5
5C23
  8
AM_0
 10
192.33683912954231
 20
569.0535974946348
 30
0.0
 11
259.87681912954258
 21
569.0535974946348
 31
0.0
  0
LINE
  5
5C24
  8
AM_0
 10
192.33683912954231
 20
566.12365749463481
 30
0.0
 11
295.91105912954242
 21
566.12365749463481
 31
0.0
  0
LINE
  5
5C25
  8
AM_0
 10
192.2068391295424
 20
558.90356749463513
 30
0.0
 11
228.5355091295425
 21
558.90356749463513
 31
0.0
  0
LINE
  5
5C26
  8
AM_0
 10
192.2068391295424
 20
556.24365749463482
 30
0.0
 11
228.5355091295425
 21
556.24365749463482
 31
0.0
  0
LINE
  5
5C27
  8
AM_0
 10
192.14683912954229
 20
548.8336274946347
 30
0.0
 11
228.59550912954239
 21
548.8336274946347
 31
0.0
  0
LINE
  5
5C28
  8
AM_0
 10
192.14683912954229
 20
546.3035974946348
 30
0.0
 11
228.59550912954239
 21
546.3035974946348
 31
0.0
  0
LINE
  5
5C29
  8
AM_0
 10
192.14683912954229
 20
538.83362749463481
 30
0.0
 11
228.59550912954239
 21
538.83362749463481
 31
0.0
  0
LINE
  5
5C2A
  8
AM_0
 10
227.3155391295424
 20
538.56360749463477
 30
0.0
 11
193.23680912954251
 21
538.56360749463477
 31
0.0
  0
LINE
  5
5C2B
  8
AM_0
 10
227.3155391295424
 20
536.56360749463477
 30
0.0
 11
193.23680912954251
 21
536.56360749463477
 31
0.0
  0
LINE
  5
5C2C
  8
AM_0
 10
192.14683912954229
 20
536.29358749463518
 30
0.0
 11
228.59550912954239
 21
536.29358749463518
 31
0.0
  0
LINE
  5
5C2D
  8
AM_0
 10
192.2068391295424
 20
528.8835474946352
 30
0.0
 11
228.5355091295425
 21
528.8835474946352
 31
0.0
  0
LINE
  5
5C2E
  8
AM_0
 10
227.3155391295424
 20
528.56360749463477
 30
0.0
 11
193.23680912954251
 21
528.56360749463477
 31
0.0
  0
LINE
  5
5C2F
  8
AM_0
 10
227.3155391295424
 20
526.56360749463488
 30
0.0
 11
193.23680912954251
 21
526.56360749463488
 31
0.0
  0
LINE
  5
5C30
  8
AM_0
 10
192.2068391295424
 20
526.223637494635
 30
0.0
 11
228.54808912954221
 21
526.223637494635
 31
0.0
  0
LINE
  5
5C31
  8
AM_0
 10
292.20964912954258
 20
518.56360749463488
 30
0.0
 11
193.23680912954251
 21
518.56360749463488
 31
0.0
  0
LINE
  5
5C32
  8
AM_0
 10
192.33683912954231
 20
519.00354749463486
 30
0.0
 11
295.91105912954242
 21
519.00354749463486
 31
0.0
  0
LINE
  5
5C33
  8
AM_0
 10
259.87681912954258
 20
516.56360749463477
 30
0.0
 11
193.23680912954251
 21
516.56360749463477
 31
0.0
  0
LINE
  5
5C34
  8
AM_0
 10
192.33683912954231
 20
516.07361749463485
 30
0.0
 11
259.87681912954258
 21
516.07361749463485
 31
0.0
  0
LINE
  5
5C35
  8
AM_0
 10
292.21684912954231
 20
508.56360749463471
 30
0.0
 11
247.87681912954241
 21
508.56360749463471
 31
0.0
  0
LINE
  5
5C36
  8
AM_0
 10
292.21684912954231
 20
506.56360749463488
 30
0.0
 11
247.87681912954241
 21
506.56360749463488
 31
0.0
  0
LINE
  5
5C37
  8
AM_0
 10
192.55680912954259
 20
505.84363749463478
 30
0.0
 11
247.87681912954241
 21
505.84363749463478
 31
0.0
  0
LINE
  5
5C38
  8
AM_0
 10
295.69682912954238
 20
509.19360749463488
 30
0.0
 11
277.85685912954239
 21
509.19360749463488
 31
0.0
  0
LINE
  5
5C39
  8
AM_0
 10
192.55680912954259
 20
509.19360749463488
 30
0.0
 11
259.89683912954251
 21
509.19360749463488
 31
0.0
  0
LINE
  5
5C3A
  8
AM_0
 10
247.87681912954241
 20
508.56360749463471
 30
0.0
 11
193.23680912954251
 21
508.56360749463471
 31
0.0
  0
LINE
  5
5C3B
  8
AM_0
 10
247.87681912954241
 20
506.56360749463488
 30
0.0
 11
193.23680912954251
 21
506.56360749463488
 31
0.0
  0
LINE
  5
5C3C
  8
AM_0
 10
247.87681912954241
 20
505.84363749463478
 30
0.0
 11
295.69682912954238
 21
505.84363749463478
 31
0.0
  0
LINE
  5
5C3D
  8
AM_0
 10
190.8768191295423
 20
595.56360749463477
 30
0.0
 11
190.8768191295423
 21
489.56360749463488
 31
0.0
  0
LINE
  5
5C3E
  8
AM_0
 10
298.87681912954241
 20
588.56360749463499
 30
0.0
 11
306.8768191295423
 21
588.56360749463499
 31
0.0
  0
LINE
  5
5C3F
  8
AM_0
 10
298.87681912954241
 20
574.50354749463474
 30
0.0
 11
306.8768191295423
 21
574.50354749463474
 31
0.0
  0
LINE
  5
5C40
  8
AM_0
 10
298.87681912954241
 20
598.56360749463488
 30
0.0
 11
306.8768191295423
 21
598.56360749463488
 31
0.0
  0
LINE
  5
5C41
  8
AM_0
 10
194.08683912954231
 20
598.84363749463512
 30
0.0
 11
291.00682912954238
 21
598.84363749463512
 31
0.0
  0
LINE
  5
5C42
  8
AM_0
 10
190.8768191295423
 20
590.66366749463498
 30
0.0
 11
192.11680912954239
 21
597.22366749463481
 31
0.0
  0
LINE
  5
5C43
  8
AM_0
 10
196.2368691295423
 20
579.21362749463481
 30
0.0
 11
190.8768791295424
 21
590.6636074946349
 31
0.0
  0
LINE
  5
5C44
  8
AM_0
 10
196.23680912954251
 20
505.91357749463481
 30
0.0
 11
190.8768791295424
 21
494.47366749463481
 31
0.0
  0
LINE
  5
5C45
  8
AM_0
 10
194.1268191295423
 20
601.69360749463476
 30
0.0
 11
291.00682912954238
 21
601.69360749463476
 31
0.0
  0
LINE
  5
5C46
  8
AM_0
 10
194.14683912954229
 20
603.54358749463495
 30
0.0
 11
291.00682912954238
 21
603.54358749463495
 31
0.0
  0
LINE
  5
5C47
  8
AM_0
 10
194.16685912954239
 20
604.45361749463495
 30
0.0
 11
291.0068891295424
 21
604.45361749463495
 31
0.0
  0
LINE
  5
5C48
  8
AM_0
 10
190.8768791295424
 20
592.00363749463497
 30
0.0
 11
192.15684912954239
 21
600.0135874946352
 31
0.0
  0
LINE
  5
5C49
  8
AM_0
 10
190.8768791295424
 20
593.35357749463458
 30
0.0
 11
192.16685912954239
 21
601.84366749463481
 31
0.0
  0
LINE
  5
5C4A
  8
AM_0
 10
190.8768191295423
 20
593.35360749463484
 30
0.0
 11
192.1868191295423
 21
602.73364749463485
 31
0.0
  0
LINE
  5
5C4B
  8
AM_0
 10
297.07688912954251
 20
581.90356749463479
 30
0.0
 11
292.93687912954232
 21
597.36358749463477
 31
0.0
  0
LINE
  5
5C4C
  8
AM_0
 10
293.41685912954239
 20
595.56360749463477
 30
0.0
 11
298.87681912954241
 21
595.56360749463477
 31
0.0
  0
LINE
  5
5C4D
  8
AM_0
 10
298.87681912954241
 20
496.56360749463471
 30
0.0
 11
306.8768191295423
 21
496.56360749463471
 31
0.0
  0
LINE
  5
5C4E
  8
AM_0
 10
298.87681912954241
 20
486.56360749463482
 30
0.0
 11
306.8768191295423
 21
486.56360749463482
 31
0.0
  0
LINE
  5
5C4F
  8
AM_0
 10
194.08683912954231
 20
486.28357749463481
 30
0.0
 11
291.00682912954238
 21
486.28357749463481
 31
0.0
  0
LINE
  5
5C50
  8
AM_0
 10
190.8768191295423
 20
494.47357749463481
 30
0.0
 11
192.11686912954241
 21
487.91357749463481
 31
0.0
  0
LINE
  5
5C51
  8
AM_0
 10
193.7830691295423
 20
483.43359749463502
 30
0.0
 11
216.27494912954231
 21
483.43359749463502
 31
0.0
  0
LINE
  5
5C52
  8
AM_0
 10
190.8768191295423
 20
493.12356749463481
 30
0.0
 11
192.15684912954239
 21
485.12365749463481
 31
0.0
  0
LINE
  5
5C53
  8
AM_0
 10
190.8768191295423
 20
491.78366749463481
 30
0.0
 11
191.88609912954229
 21
485.13348749463472
 31
0.0
  0
LINE
  5
5C54
  8
AM_0
 10
190.8768791295424
 20
491.78363749463477
 30
0.0
 11
191.8022991295424
 21
485.15704749463481
 31
0.0
  0
LINE
  5
5C55
  8
AM_0
 10
297.0825391295424
 20
503.24475749463471
 30
0.0
 11
292.93681912954241
 21
487.76361749463501
 31
0.0
  0
LINE
  5
5C56
  8
AM_0
 10
293.41886912954237
 20
489.56360749463488
 30
0.0
 11
298.87681912954241
 21
489.56360749463488
 31
0.0
  0
LINE
  5
5C57
  8
AM_0
 10
298.87681912954241
 20
510.62365749463493
 30
0.0
 11
306.8768191295423
 21
510.62365749463493
 31
0.0
  0
LINE
  5
5C58
  8
AM_0
 10
297.87681912954241
 20
489.56360749463488
 30
0.0
 11
292.15107912954238
 21
480.74670749463507
 31
0.0
  0
LINE
  5
5C59
  8
AM_0
 10
279.3904291295425
 20
480.06360749463471
 30
0.0
 11
290.89305912954239
 21
480.06360749463471
 31
0.0
  0
LINE
  5
5C5A
  8
AM_0
 10
276.85685912954239
 20
570.06360749463477
 30
0.0
 11
276.85685912954239
 21
574.92358749463483
 31
0.0
  0
LINE
  5
5C5B
  8
AM_0
 10
260.8968391295424
 20
570.06360749463477
 30
0.0
 11
260.8968391295424
 21
574.92358749463483
 31
0.0
  0
LINE
  5
5C5C
  8
AM_0
 10
276.37681912954253
 20
570.06360749463477
 30
0.0
 11
276.37681912954253
 21
575.06360749463477
 31
0.0
  0
LINE
  5
5C5D
  8
AM_0
 10
261.37681912954241
 20
570.06360749463477
 30
0.0
 11
261.37681912954241
 21
575.06360749463477
 31
0.0
  0
LINE
  5
5C5E
  8
AM_0
 10
232.87681912954241
 20
555.56360749463477
 30
0.0
 11
295.87681912954241
 21
555.56360749463477
 31
0.0
  0
LINE
  5
5C5F
  8
AM_0
 10
232.87681912954241
 20
522.06360749463477
 30
0.0
 11
295.87681912954241
 21
522.06360749463477
 31
0.0
  0
LINE
  5
5C60
  8
AM_0
 10
232.87681912954241
 20
563.06360749463499
 30
0.0
 11
295.87681912954241
 21
563.06360749463499
 31
0.0
  0
LINE
  5
5C61
  8
AM_0
 10
295.87681912954241
 20
563.06360749463499
 30
0.0
 11
295.87681912954241
 21
522.06360749463477
 31
0.0
  0
LINE
  5
5C62
  8
AM_0
 10
232.87681912954241
 20
563.06360749463499
 30
0.0
 11
232.87681912954241
 21
522.06360749463477
 31
0.0
  0
LINE
  5
5C63
  8
AM_0
 10
277.8768191295423
 20
569.0535974946348
 30
0.0
 11
295.92253912954237
 21
569.0535974946348
 31
0.0
  0
LINE
  5
5C64
  8
AM_0
 10
277.8768191295423
 20
516.08362749463481
 30
0.0
 11
295.91105912954242
 21
516.08362749463481
 31
0.0
  0
LINE
  5
5C65
  8
AM_0
 10
276.85685912954239
 20
515.06360749463488
 30
0.0
 11
276.85685912954239
 21
510.20361749463478
 31
0.0
  0
LINE
  5
5C66
  8
AM_0
 10
260.8968391295424
 20
515.06360749463488
 30
0.0
 11
260.8968391295424
 21
510.20361749463478
 31
0.0
  0
LINE
  5
5C67
  8
AM_0
 10
276.37681912954253
 20
515.06360749463488
 30
0.0
 11
276.37681912954253
 21
510.06360749463488
 31
0.0
  0
LINE
  5
5C68
  8
AM_0
 10
261.37681912954241
 20
515.06360749463488
 30
0.0
 11
261.37681912954241
 21
510.06360749463488
 31
0.0
  0
LINE
  5
5C69
  8
AM_0
 10
292.20964912954258
 20
516.56360749463477
 30
0.0
 11
277.8768191295423
 21
516.56360749463477
 31
0.0
  0
LINE
  5
5C6A
  8
AM_0
 10
292.22398912954259
 20
568.56360749463499
 30
0.0
 11
277.8768191295423
 21
568.56360749463499
 31
0.0
  0
LINE
  5
5C6B
  8
AM_0
 10
277.85685912954239
 20
575.92358749463483
 30
0.0
 11
295.69682912954238
 21
575.92358749463483
 31
0.0
  0
LINE
  5
5C6C
  8
AM_0
 10
306.8768191295423
 20
510.62365749463493
 30
0.0
 11
322.87681912954241
 21
510.62365749463493
 31
0.0
  0
LINE
  5
5C6D
  8
AM_0
 10
306.8768191295423
 20
574.50354749463474
 30
0.0
 11
322.87681912954241
 21
574.50354749463474
 31
0.0
  0
ARC
  5
5C6E
  8
AM_0
 10
398.87681912954241
 20
542.56360749463477
 30
0.0
 40
3.0
 50
89.986014000002498
 51
131.81082736685559
  0
ARC
  5
5C6F
  8
AM_0
 10
398.87681912954241
 20
542.56360749463477
 30
0.0
 40
3.0
 50
228.18917263315251
 51
270.01399000000328
  0
ARC
  5
5C70
  8
AM_0
 10
330.87681912954258
 20
473.56396749463471
 30
0.0
 40
1.0
 50
180.00001000000091
 51
268.49999999999721
  0
ARC
  5
5C71
  8
AM_0
 10
385.8768191295423
 20
503.32650749463482
 30
0.0
 40
3.0
 50
271.50000000000267
 51
0.0
  0
ARC
  5
5C72
  8
AM_0
 10
331.8768191295423
 20
474.59051749463481
 30
0.0
 40
2.0
 50
271.50000000000267
 51
0.0
  0
ARC
  5
5C73
  8
AM_0
 10
331.8768191295423
 20
480.58911749463482
 30
0.0
 40
2.0
 50
0.0
 51
91.500001000001546
  0
ARC
  5
5C74
  8
AM_0
 10
372.87681912954241
 20
493.74795749463482
 30
0.0
 40
3.0
 50
271.50000000000267
 51
0.0
  0
ARC
  5
5C75
  8
AM_0
 10
368.8768191295423
 20
476.5596974946348
 30
0.0
 40
3.0
 50
180.00001000000091
 51
271.50000000000267
  0
ARC
  5
5C76
  8
AM_0
 10
370.87681912954253
 20
485.69284749463492
 30
0.0
 40
5.0
 50
91.500001000001546
 51
180.00001000000091
  0
ARC
  5
5C77
  8
AM_0
 10
380.87681912954241
 20
495.19284749463492
 30
0.0
 40
5.0
 50
91.500001000001546
 51
180.00001000000091
  0
ARC
  5
5C78
  8
AM_0
 10
332.87681912954241
 20
477.51297749463481
 30
0.0
 40
1.0
 50
268.49999999999721
 51
0.0000006832462478
  0
ARC
  5
5C79
  8
AM_0
 10
330.87681912954258
 20
475.56463749463478
 30
0.0
 40
1.0
 50
88.499997000000747
 51
180.00001000000091
  0
CIRCLE
  5
5C7A
  8
AM_0
 10
380.87681912954241
 20
485.06360749463488
 30
0.0
 40
5.0
  0
ARC
  5
5C7B
  8
AM_0
 10
312.8768191295423
 20
478.0366874946348
 30
0.0
 40
5.0
 50
180.00001000000091
 51
268.49999999999721
  0
ARC
  5
5C7C
  8
AM_0
 10
385.8768191295423
 20
496.12170749463502
 30
0.0
 40
5.0
 50
0.0
 51
70.485339000001346
  0
ARC
  5
5C7D
  8
AM_0
 10
385.8768191295423
 20
479.00555749463479
 30
0.0
 40
5.0
 50
271.50000000000267
 51
0.0
  0
ARC
  5
5C7E
  8
AM_0
 10
330.87681912954258
 20
611.56329749463487
 30
0.0
 40
1.0
 50
91.500001000001546
 51
180.00001000000091
  0
ARC
  5
5C7F
  8
AM_0
 10
385.8768191295423
 20
581.80072749463477
 30
0.0
 40
3.0
 50
0.0
 51
88.499997000000747
  0
ARC
  5
5C80
  8
AM_0
 10
331.8768191295423
 20
610.53674749463482
 30
0.0
 40
2.0
 50
0.0
 51
88.499997000000747
  0
ARC
  5
5C81
  8
AM_0
 10
331.8768191295423
 20
604.53811749463478
 30
0.0
 40
2.0
 50
268.49999999999721
 51
0.0000006832462478
  0
ARC
  5
5C82
  8
AM_0
 10
372.87681912954241
 20
591.37927749463495
 30
0.0
 40
3.0
 50
0.0
 51
88.499997000000747
  0
ARC
  5
5C83
  8
AM_0
 10
368.8768191295423
 20
608.56753749463485
 30
0.0
 40
3.0
 50
88.499997000000747
 51
180.00001000000091
  0
ARC
  5
5C84
  8
AM_0
 10
370.87681912954253
 20
599.43438749463485
 30
0.0
 40
5.0
 50
180.00001000000091
 51
268.49999999999721
  0
ARC
  5
5C85
  8
AM_0
 10
380.87681912954241
 20
589.93438749463473
 30
0.0
 40
5.0
 50
180.00001000000091
 51
268.49999999999721
  0
ARC
  5
5C86
  8
AM_0
 10
332.87681912954241
 20
607.61429749463503
 30
0.0
 40
1.0
 50
0.0
 51
91.500001000001546
  0
ARC
  5
5C87
  8
AM_0
 10
330.87681912954258
 20
609.56259749463504
 30
0.0
 40
1.0
 50
180.00001000000091
 51
271.50000000000267
  0
CIRCLE
  5
5C88
  8
AM_0
 10
380.87681912954241
 20
600.06363749463503
 30
0.0
 40
5.0
  0
ARC
  5
5C89
  8
AM_0
 10
312.8768191295423
 20
607.090577494635
 30
0.0
 40
5.0
 50
91.500001000001546
 51
180.00001000000091
  0
ARC
  5
5C8A
  8
AM_0
 10
385.8768191295423
 20
589.0055574946349
 30
0.0
 40
5.0
 50
289.51467000000258
 51
0.0
  0
ARC
  5
5C8B
  8
AM_0
 10
385.8768191295423
 20
606.1216774946347
 30
0.0
 40
5.0
 50
0.0
 51
88.499997000000747
  0
ARC
  5
5C8C
  8
AM_0
 10
423.8768191295423
 20
542.56360749463477
 30
0.0
 40
80.0
 50
148.90067999999891
 51
211.09929999999611
  0
ARC
  5
5C8D
  8
AM_0
 10
345.87681912954241
 20
496.46911749463487
 30
0.0
 40
1.0
 50
269.999989999999
 51
0.0000006832462478
  0
ARC
  5
5C8E
  8
AM_0
 10
345.87681912954241
 20
490.69561749463492
 30
0.0
 40
1.0
 50
269.999989999999
 51
0.0000006832462478
  0
ARC
  5
5C8F
  8
AM_0
 10
345.87681912954241
 20
487.80887749463483
 30
0.0
 40
1.0
 50
269.999989999999
 51
0.0000006832462478
  0
ARC
  5
5C90
  8
AM_0
 10
345.87681912954241
 20
494.46911749463482
 30
0.0
 40
1.0
 50
0.0
 51
90.00000299999769
  0
ARC
  5
5C91
  8
AM_0
 10
345.87681912954241
 20
497.35589749463492
 30
0.0
 40
1.0
 50
0.0
 51
90.00000299999769
  0
ARC
  5
5C92
  8
AM_0
 10
345.87681912954241
 20
488.69561749463492
 30
0.0
 40
1.0
 50
0.0
 51
90.00000299999769
  0
ARC
  5
5C93
  8
AM_0
 10
345.87681912954241
 20
596.43164749463483
 30
0.0
 40
1.0
 50
269.999989999999
 51
0.0000006832462478
  0
ARC
  5
5C94
  8
AM_0
 10
345.87681912954241
 20
587.771367494635
 30
0.0
 40
1.0
 50
269.999989999999
 51
0.0000006832462478
  0
ARC
  5
5C95
  8
AM_0
 10
345.87681912954241
 20
590.65814749463482
 30
0.0
 40
1.0
 50
269.999989999999
 51
0.0000006832462478
  0
ARC
  5
5C96
  8
AM_0
 10
345.87681912954241
 20
597.31839749463495
 30
0.0
 40
1.0
 50
0.0
 51
90.00000299999769
  0
ARC
  5
5C97
  8
AM_0
 10
345.87681912954241
 20
594.43164749463483
 30
0.0
 40
1.0
 50
0.0
 51
90.00000299999769
  0
ARC
  5
5C98
  8
AM_0
 10
345.87681912954241
 20
588.65814749463516
 30
0.0
 40
1.0
 50
0.0
 51
90.00000299999769
  0
ARC
  5
5C99
  8
AM_0
 10
326.87681912954258
 20
600.45819749463499
 30
0.0
 40
2.0
 50
91.500001000001546
 51
180.00001000000091
  0
ARC
  5
5C9A
  8
AM_0
 10
326.87681912954258
 20
484.66906749463487
 30
0.0
 40
2.0
 50
180.00001000000091
 51
268.49999999999721
  0
ARC
  5
5C9B
  8
AM_0
 10
323.46623912954237
 20
601.24414749463483
 30
0.0
 40
1.5
 50
271.50000000000267
 51
347.02334999999908
  0
ARC
  5
5C9C
  8
AM_0
 10
317.87681912954258
 20
597.59655749463457
 30
0.0
 40
2.0
 50
91.500001000001546
 51
180.00001000000091
  0
ARC
  5
5C9D
  8
AM_0
 10
322.87681912954241
 20
590.98358749463512
 30
0.0
 40
2.0
 50
271.50000000000267
 51
0.0
  0
ARC
  5
5C9E
  8
AM_0
 10
313.87681912954253
 20
590.74792749463495
 30
0.0
 40
2.0
 50
271.50000000000267
 51
0.0
  0
ARC
  5
5C9F
  8
AM_0
 10
313.87681912954253
 20
494.37933749463502
 30
0.0
 40
2.0
 50
0.0
 51
88.499997000000747
  0
ARC
  5
5CA0
  8
AM_0
 10
317.87681912954258
 20
487.53067749463457
 30
0.0
 40
2.0
 50
180.00001000000091
 51
268.49999999999721
  0
ARC
  5
5CA1
  8
AM_0
 10
323.46623912954237
 20
483.8831174946348
 30
0.0
 40
1.5
 50
12.97665300000153
 51
88.499997000000747
  0
ARC
  5
5CA2
  8
AM_0
 10
322.87681912954241
 20
494.1436774946348
 30
0.0
 40
2.0
 50
0.0
 51
88.499997000000747
  0
ARC
  5
5CA3
  8
AM_0
 10
317.87681912954258
 20
485.06360749463488
 30
0.0
 40
5.0
 50
170.3165899999986
 51
3.8501329999993601
  0
ARC
  5
5CA4
  8
AM_0
 10
317.87681912954258
 20
600.06363749463503
 30
0.0
 40
5.0
 50
356.1498700000015
 51
189.68341000000129
  0
ARC
  5
5CA5
  8
AM_0
 10
355.83982912954252
 20
479.36621749463512
 30
0.0
 40
10.0
 50
91.500001000001546
 51
120.0000000000005
  0
ARC
  5
5CA6
  8
AM_0
 10
355.83982912954252
 20
605.76104749463502
 30
0.0
 40
10.0
 50
239.99999999999949
 51
268.49999999999721
  0
ARC
  5
5CA7
  8
AM_0
 10
339.0762791295424
 20
592.34549749463486
 30
0.0
 40
10.0
 50
60.000002000001302
 51
88.499997000000747
  0
ARC
  5
5CA8
  8
AM_0
 10
339.0762791295424
 20
492.78174749463483
 30
0.0
 40
10.0
 50
271.50000000000267
 51
300.00001000000083
  0
ARC
  5
5CA9
  8
AM_0
 10
298.53001912954238
 20
587.896367494635
 30
0.0
 40
1.502775999999999
 50
194.75642999999889
 51
269.87757999999872
  0
ARC
  5
5CAA
  8
AM_0
 10
298.53001912954238
 20
586.98633749463499
 30
0.0
 40
1.502775999999999
 50
194.75642999999889
 51
269.87757999999872
  0
ARC
  5
5CAB
  8
AM_0
 10
298.53001912954238
 20
585.13635749463504
 30
0.0
 40
1.502775999999999
 50
194.75642999999889
 51
269.87757999999872
  0
ARC
  5
5CAC
  8
AM_0
 10
291.00199912954258
 20
602.44885749463481
 30
0.0
 40
2.0047290000000002
 50
15.173495999999471
 51
89.861678000000197
  0
ARC
  5
5CAD
  8
AM_0
 10
291.00199912954258
 20
601.5388274946348
 30
0.0
 40
2.0047290000000002
 50
15.173495999999471
 51
89.861678000000197
  0
ARC
  5
5CAE
  8
AM_0
 10
291.00199912954258
 20
599.68884749463496
 30
0.0
 40
2.0047290000000002
 50
15.173495999999471
 51
89.861678000000197
  0
ARC
  5
5CAF
  8
AM_0
 10
298.53001912954238
 20
502.84082749463488
 30
0.0
 40
1.502775999999999
 50
90.122413000001615
 51
165.24357000000111
  0
ARC
  5
5CB0
  8
AM_0
 10
193.42143912954251
 20
507.56360749463482
 30
0.0
 40
1.000013899999999
 50
89.69165999999926
 51
270.30834000000078
  0
ARC
  5
5CB1
  8
AM_0
 10
295.69682912954238
 20
577.60864749463474
 30
0.0
 40
1.6750020000000001
 50
269.999989999999
 51
90.00000299999769
  0
ARC
  5
5CB2
  8
AM_0
 10
292.21684912954231
 20
577.56360749463499
 30
0.0
 40
1.0
 50
269.999989999999
 51
90.00000299999769
  0
ARC
  5
5CB3
  8
AM_0
 10
292.21684912954231
 20
507.56360749463482
 30
0.0
 40
1.0
 50
269.999989999999
 51
90.00000299999769
  0
ARC
  5
5CB4
  8
AM_0
 10
295.69682912954238
 20
507.51855749463482
 30
0.0
 40
1.6750020000000001
 50
269.999989999999
 51
90.00000299999769
  0
ARC
  5
5CB5
  8
AM_0
 10
192.54942912954269
 20
577.60864749463474
 30
0.0
 40
1.6750160000000001
 50
89.746145000004447
 51
270.25387000000092
  0
ARC
  5
5CB6
  8
AM_0
 10
193.42143912954251
 20
577.56360749463499
 30
0.0
 40
1.000013899999999
 50
89.69165999999926
 51
270.30834000000078
  0
ARC
  5
5CB7
  8
AM_0
 10
193.42143912954251
 20
567.56360749463499
 30
0.0
 40
1.000013899999999
 50
89.69165999999926
 51
270.30834000000078
  0
ARC
  5
5CB8
  8
AM_0
 10
193.42143912954251
 20
557.56360749463477
 30
0.0
 40
1.000013899999999
 50
89.69165999999926
 51
270.30834000000078
  0
ARC
  5
5CB9
  8
AM_0
 10
193.42143912954251
 20
547.56360749463488
 30
0.0
 40
1.000013899999999
 50
89.69165999999926
 51
270.30834000000078
  0
ARC
  5
5CBA
  8
AM_0
 10
193.42143912954251
 20
537.56360749463477
 30
0.0
 40
1.000013899999999
 50
89.69165999999926
 51
270.30834000000078
  0
ARC
  5
5CBB
  8
AM_0
 10
193.42143912954251
 20
527.56360749463488
 30
0.0
 40
1.000013899999999
 50
89.69165999999926
 51
270.30834000000078
  0
ARC
  5
5CBC
  8
AM_0
 10
193.42143912954251
 20
517.56360749463465
 30
0.0
 40
1.000013899999999
 50
89.69165999999926
 51
270.30834000000078
  0
ARC
  5
5CBD
  8
AM_0
 10
192.33683912954231
 20
567.58862749463481
 30
0.0
 40
1.465004
 50
90.00000299999769
 51
270.0
  0
ARC
  5
5CBE
  8
AM_0
 10
192.2068391295424
 20
557.57361749463485
 30
0.0
 40
1.3300049999999981
 50
90.00000299999769
 51
270.0
  0
ARC
  5
5CBF
  8
AM_0
 10
192.1409791295423
 20
547.56860749463488
 30
0.0
 40
1.2650129999999991
 50
89.735579000001735
 51
270.2644100000025
  0
ARC
  5
5CC0
  8
AM_0
 10
192.1409791295423
 20
537.56360749463477
 30
0.0
 40
1.2700129999999981
 50
89.736617000001587
 51
270.26336999999921
  0
ARC
  5
5CC1
  8
AM_0
 10
192.2068391295424
 20
527.5535974946348
 30
0.0
 40
1.3300049999999981
 50
90.00000299999769
 51
270.0
  0
ARC
  5
5CC2
  8
AM_0
 10
192.33683912954231
 20
517.53857749463475
 30
0.0
 40
1.465004
 50
90.00000299999769
 51
270.0
  0
ARC
  5
5CC3
  8
AM_0
 10
192.54997912954241
 20
507.51855749463482
 30
0.0
 40
1.675014
 50
89.766498999996756
 51
270.2335099999994
  0
ARC
  5
5CC4
  8
AM_0
 10
194.0755491295424
 20
596.84948749463501
 30
0.0
 40
1.994108999999999
 50
89.675548000002749
 51
169.18776999999841
  0
ARC
  5
5CC5
  8
AM_0
 10
194.12706912954241
 20
599.69836749463502
 30
0.0
 40
1.995282999999997
 50
90.006203999996856
 51
170.90835000000069
  0
ARC
  5
5CC6
  8
AM_0
 10
194.1414091295423
 20
601.54687749463483
 30
0.0
 40
1.9967330000000001
 50
89.843966999998912
 51
171.4538800000002
  0
ARC
  5
5CC7
  8
AM_0
 10
194.16331912954229
 20
602.45800749463478
 30
0.0
 40
1.995633
 50
89.899707999995783
 51
172.06112999999991
  0
ARC
  5
5CC8
  8
AM_0
 10
291.00694912954231
 20
596.84533749463503
 30
0.0
 40
1.9982919999999991
 50
15.03254799999914
 51
90.002632000001341
  0
ARC
  5
5CC9
  8
AM_0
 10
298.53001912954238
 20
582.28637749463485
 30
0.0
 40
1.502775999999999
 50
194.75642999999889
 51
269.87757999999872
  0
ARC
  5
5CCA
  8
AM_0
 10
291.00199912954258
 20
488.28833749463479
 30
0.0
 40
2.0047290000000002
 50
270.13832000000423
 51
344.82649999999882
  0
ARC
  5
5CCB
  8
AM_0
 10
194.08171912954231
 20
488.2828374946348
 30
0.0
 40
1.9992490000000001
 50
190.643100000001
 51
270.14743000000129
  0
ARC
  5
5CCC
  8
AM_0
 10
194.1330491295424
 20
485.43396749463483
 30
0.0
 40
2.000420099999999
 50
188.92682000000181
 51
269.82270999999599
  0
ARC
  5
5CCD
  8
AM_0
 10
279.3904291295425
 20
478.56360749463482
 30
0.0
 40
1.5
 50
90.00000299999769
 51
178.5000000000006
  0
ARC
  5
5CCE
  8
AM_0
 10
290.89305912954239
 20
481.56360749463471
 30
0.0
 40
1.5
 50
269.999989999999
 51
326.99999999999892
  0
ARC
  5
5CCF
  8
AM_0
 10
193.8634491295424
 20
485.43359749463508
 30
0.0
 40
2.0
 50
188.62962000000121
 51
269.999989999999
  0
ARC
  5
5CD0
  8
AM_0
 10
193.7830691295423
 20
485.43359749463508
 30
0.0
 40
2.0
 50
187.9504400000001
 51
269.999989999999
  0
ARC
  5
5CD1
  8
AM_0
 10
216.27494912954231
 20
481.93359749463502
 30
0.0
 40
1.5
 50
1.5000026999989771
 51
90.00000299999769
  0
ARC
  5
5CD2
  8
AM_0
 10
227.3155391295424
 20
557.56360749463477
 30
0.0
 40
1.0000056999999991
 50
269.999989999999
 51
90.00000299999769
  0
ARC
  5
5CD3
  8
AM_0
 10
227.3155391295424
 20
547.56360749463488
 30
0.0
 40
1.0000056999999991
 50
269.999989999999
 51
90.00000299999769
  0
ARC
  5
5CD4
  8
AM_0
 10
227.3155391295424
 20
537.56360749463477
 30
0.0
 40
1.0000056999999991
 50
269.999989999999
 51
90.00000299999769
  0
ARC
  5
5CD5
  8
AM_0
 10
227.3155391295424
 20
527.56360749463488
 30
0.0
 40
1.0000056999999991
 50
269.999989999999
 51
90.00000299999769
  0
ARC
  5
5CD6
  8
AM_0
 10
277.8768191295423
 20
510.06360749463488
 30
0.0
 40
1.5
 50
179.999989999999
 51
270.0
  0
ARC
  5
5CD7
  8
AM_0
 10
259.87681912954258
 20
510.06360749463488
 30
0.0
 40
1.5
 50
269.999989999999
 51
0.0000006832462478
  0
ARC
  5
5CD8
  8
AM_0
 10
259.89683912954251
 20
510.20361749463478
 30
0.0
 40
1.0
 50
269.999989999999
 51
0.0000006832462478
  0
ARC
  5
5CD9
  8
AM_0
 10
277.85685912954239
 20
510.20361749463478
 30
0.0
 40
1.0
 50
179.999989999999
 51
270.0
  0
CIRCLE
  5
5CDA
  8
AM_0
 10
266.37681912954241
 20
571.06360749463477
 30
0.0
 40
1.1000000000000001
  0
CIRCLE
  5
5CDB
  8
AM_0
 10
266.37681912954241
 20
571.06360749463477
 30
0.0
 40
1.149999999999999
  0
CIRCLE
  5
5CDC
  8
AM_0
 10
271.3768191295423
 20
571.06360749463477
 30
0.0
 40
1.0
  0
ARC
  5
5CDD
  8
AM_0
 10
259.87681912954258
 20
570.06360749463477
 30
0.0
 40
1.02
 50
269.999989999999
 51
0.0000006832429909
  0
ARC
  5
5CDE
  8
AM_0
 10
277.8768191295423
 20
570.06360749463477
 30
0.0
 40
1.02
 50
179.999989999999
 51
270.0
  0
ARC
  5
5CDF
  8
AM_0
 10
259.87681912954258
 20
570.06360749463477
 30
0.0
 40
1.5
 50
269.999989999999
 51
0.0000006832462478
  0
ARC
  5
5CE0
  8
AM_0
 10
277.8768191295423
 20
570.06360749463477
 30
0.0
 40
1.5
 50
179.999989999999
 51
270.0
  0
CIRCLE
  5
5CE1
  8
AM_0
 10
271.3768191295423
 20
514.06360749463488
 30
0.0
 40
1.0
  0
CIRCLE
  5
5CE2
  8
AM_0
 10
266.37681912954241
 20
514.06360749463488
 30
0.0
 40
1.149999999999999
  0
CIRCLE
  5
5CE3
  8
AM_0
 10
266.37681912954241
 20
514.06360749463488
 30
0.0
 40
1.1000000000000001
  0
ARC
  5
5CE4
  8
AM_0
 10
259.87681912954258
 20
515.06360749463488
 30
0.0
 40
1.02
 50
0.0
 51
90.00000299999769
  0
ARC
  5
5CE5
  8
AM_0
 10
277.8768191295423
 20
515.06360749463488
 30
0.0
 40
1.02
 50
90.00000299999769
 51
180.00001000000091
  0
ARC
  5
5CE6
  8
AM_0
 10
259.87681912954258
 20
515.06360749463488
 30
0.0
 40
1.5
 50
0.0
 51
90.00000299999769
  0
ARC
  5
5CE7
  8
AM_0
 10
277.8768191295423
 20
515.06360749463488
 30
0.0
 40
1.5
 50
90.00000299999769
 51
180.00001000000091
  0
ARC
  5
5CE8
  8
AM_0
 10
228.5417991295424
 20
527.5535974946348
 30
0.0
 40
1.3300148000000001
 50
269.7294199999987
 51
90.270567000000995
  0
ARC
  5
5CE9
  8
AM_0
 10
228.60374912954231
 20
537.56360749463477
 30
0.0
 40
1.2700266
 50
269.62932000000001
 51
90.370669999998213
  0
ARC
  5
5CEA
  8
AM_0
 10
228.60374912954231
 20
547.57361749463485
 30
0.0
 40
1.2700266
 50
269.62932000000001
 51
90.370669999998213
  0
ARC
  5
5CEB
  8
AM_0
 10
228.5417991295424
 20
557.57861749463495
 30
0.0
 40
1.3350147999999991
 50
269.7304299999999
 51
90.269556000001344
  0
ARC
  5
5CEC
  8
AM_0
 10
292.21678912954241
 20
567.56360749463499
 30
0.0
 40
1.0000255999999981
 50
269.5894700000033
 51
90.410530999997775
  0
ARC
  5
5CED
  8
AM_0
 10
295.91679912954243
 20
567.593637494635
 30
0.0
 40
1.460011199999999
 50
269.77524999999667
 51
90.224750000003354
  0
ARC
  5
5CEE
  8
AM_0
 10
292.21678912954241
 20
517.56360749463465
 30
0.0
 40
1.0000255999999981
 50
269.5894700000033
 51
90.410530999997775
  0
ARC
  5
5CEF
  8
AM_0
 10
295.91679912954243
 20
517.53357749463498
 30
0.0
 40
1.460011199999999
 50
269.77524999999667
 51
90.224750000003354
  0
ARC
  5
5CF0
  8
AM_0
 10
277.85685912954239
 20
574.92358749463483
 30
0.0
 40
1.0
 50
90.00000299999769
 51
180.00001000000091
  0
ARC
  5
5CF1
  8
AM_0
 10
277.8768191295423
 20
575.06360749463477
 30
0.0
 40
1.5
 50
90.00000299999769
 51
180.00001000000091
  0
ARC
  5
5CF2
  8
AM_0
 10
259.87681912954258
 20
575.06360749463477
 30
0.0
 40
1.5
 50
0.0
 51
90.00000299999769
  0
ARC
  5
5CF3
  8
AM_0
 10
259.89683912954251
 20
574.92358749463483
 30
0.0
 40
1.0
 50
0.0
 51
90.00000299999769
  0
ARC
  5
5CF4
  8
AM_0
 10
322.87681912954241
 20
508.62365749463481
 30
0.0
 40
2.0
 50
0.0
 51
90.00000299999769
  0
ARC
  5
5CF5
  8
AM_0
 10
322.87681912954241
 20
576.50354749463474
 30
0.0
 40
2.0
 50
270.0
 51
0.0
  0
POLYLINE
  5
5CF6
  8
AM_0
 66
     1
 10
0.0
 20
0.0
 30
0.0
  0
VERTEX
  5
5CF7
  8
AM_0
 10
193.23680912954251
 20
542.56360749463477
 30
0.0
 42
0.00039106593
  0
VERTEX
  5
5CF8
  8
AM_0
 10
193.2344491295423
 20
542.25246749463474
 30
0.0
 42
0.00040574899
  0
VERTEX
  5
5CF9
  8
AM_0
 10
193.2325791295421
 20
541.94135749463476
 30
0.0
 42
0.0003534546
  0
VERTEX
  5
5CFA
  8
AM_0
 10
193.23118912954229
 20
541.63025749463498
 30
0.0
 42
0.00034407327
  0
VERTEX
  5
5CFB
  8
AM_0
 10
193.23020912954229
 20
541.31911749463495
 30
0.0
 42
0.00045699408
  0
VERTEX
  5
5CFC
  8
AM_0
 10
193.2297491295424
 20
541.00800749463519
 30
0.0
 42
0.00035571853
  0
VERTEX
  5
5CFD
  8
AM_0
 10
193.2297891295425
 20
540.69690749463496
 30
0.0
 42
0.00038547362
  0
VERTEX
  5
5CFE
  8
AM_0
 10
193.2302791295424
 20
540.38576749463482
 30
0.0
 42
0.00035501498
  0
VERTEX
  5
5CFF
  8
AM_0
 10
193.23123912954239
 20
540.07466749463481
 30
0.0
 42
0.00040118614
  0
VERTEX
  5
5D00
  8
AM_0
 10
193.2326591295423
 20
539.76342749463481
 30
0.0
 42
0.00038319871
  0
VERTEX
  5
5D01
  8
AM_0
 10
193.23456912954251
 20
539.45229749463476
 30
0.0
 42
0.00040742136
  0
VERTEX
  5
5D02
  8
AM_0
 10
193.2369691295425
 20
539.14106749463485
 30
0.0
 42
0.0003578071
  0
VERTEX
  5
5D03
  8
AM_0
 10
193.23985912954231
 20
538.82995749463487
 30
0.0
  0
SEQEND
  5
5D04
  8
AM_0
  0
POLYLINE
  5
5D05
  8
AM_0
 66
     1
 10
0.0
 20
0.0
 30
0.0
  0
VERTEX
  5
5D06
  8
AM_0
 10
193.2808691295424
 20
536.29321749463486
 30
0.0
 42
0.00076695232
  0
VERTEX
  5
5D07
  8
AM_0
 10
193.2956691295422
 20
535.67545749463477
 30
0.0
 42
0.00073263044
  0
VERTEX
  5
5D08
  8
AM_0
 10
193.3123091295426
 20
535.05785749463485
 30
0.0
 42
0.0007652599
  0
VERTEX
  5
5D09
  8
AM_0
 10
193.3307991295423
 20
534.44018749463476
 30
0.0
 42
0.00075144485
  0
VERTEX
  5
5D0A
  8
AM_0
 10
193.3511691295424
 20
533.82258749463483
 30
0.0
 42
0.00078594403
  0
VERTEX
  5
5D0B
  8
AM_0
 10
193.3734191295423
 20
533.20515749463482
 30
0.0
 42
0.00073349202
  0
VERTEX
  5
5D0C
  8
AM_0
 10
193.39756912954221
 20
532.58777749463479
 30
0.0
 42
0.0007358075
  0
VERTEX
  5
5D0D
  8
AM_0
 10
193.4235091295424
 20
531.97037749463482
 30
0.0
 42
0.00078592699
  0
VERTEX
  5
5D0E
  8
AM_0
 10
193.4513391295425
 20
531.35298749463482
 30
0.0
 42
0.00074823144
  0
VERTEX
  5
5D0F
  8
AM_0
 10
193.48106912954239
 20
530.73559749463504
 30
0.0
 42
0.00074896603
  0
VERTEX
  5
5D10
  8
AM_0
 10
193.5126291295422
 20
530.11846749463496
 30
0.0
 42
0.00076039765
  0
VERTEX
  5
5D11
  8
AM_0
 10
193.5460491295425
 20
529.50143749463496
 30
0.0
 42
0.00075616128
  0
VERTEX
  5
5D12
  8
AM_0
 10
193.5813491295423
 20
528.88440749463496
 30
0.0
  0
SEQEND
  5
5D13
  8
AM_0
  0
POLYLINE
  5
5D14
  8
AM_0
 66
     1
 10
0.0
 20
0.0
 30
0.0
  0
VERTEX
  5
5D15
  8
AM_0
 10
193.7550591295423
 20
526.22302749463495
 30
0.0
 42
0.00073721992
  0
VERTEX
  5
5D16
  8
AM_0
 10
193.79920912954231
 20
525.62061749463476
 30
0.0
 42
0.00074398496
  0
VERTEX
  5
5D17
  8
AM_0
 10
193.8451391295423
 20
525.01834749463467
 30
0.0
 42
0.00073322625
  0
VERTEX
  5
5D18
  8
AM_0
 10
193.89286912954231
 20
524.41601749463484
 30
0.0
 42
0.00073594289
  0
VERTEX
  5
5D19
  8
AM_0
 10
193.94234912954229
 20
523.81402749463496
 30
0.0
 42
0.00074742568
  0
VERTEX
  5
5D1A
  8
AM_0
 10
193.99361912954231
 20
523.21216749463485
 30
0.0
 42
0.00073216749
  0
VERTEX
  5
5D1B
  8
AM_0
 10
194.0466791295425
 20
522.61035749463485
 30
0.0
 42
0.00074184065
  0
VERTEX
  5
5D1C
  8
AM_0
 10
194.10149912954239
 20
522.00882749463506
 30
0.0
 42
0.00072077528
  0
VERTEX
  5
5D1D
  8
AM_0
 10
194.1580791295425
 20
521.40759749463496
 30
0.0
 42
0.00074978179
  0
VERTEX
  5
5D1E
  8
AM_0
 10
194.21641912954229
 20
520.80639749463467
 30
0.0
 42
0.00074288888
  0
VERTEX
  5
5D1F
  8
AM_0
 10
194.27656912954239
 20
520.20537749463483
 30
0.0
 42
0.00072503679
  0
VERTEX
  5
5D20
  8
AM_0
 10
194.33847912954221
 20
519.60463749463474
 30
0.0
 42
0.00074640584
  0
VERTEX
  5
5D21
  8
AM_0
 10
194.40214912954229
 20
519.00403749463499
 30
0.0
  0
SEQEND
  5
5D22
  8
AM_0
  0
POLYLINE
  5
5D23
  8
AM_0
 66
     1
 10
0.0
 20
0.0
 30
0.0
  0
VERTEX
  5
5D24
  8
AM_0
 10
194.7377191295424
 20
516.08056749463503
 30
0.0
 42
0.0006890001
  0
VERTEX
  5
5D25
  8
AM_0
 10
194.8085991295421
 20
515.50581749463481
 30
0.0
 42
0.00070644651
  0
VERTEX
  5
5D26
  8
AM_0
 10
194.88109912954241
 20
514.93113749463475
 30
0.0
 42
0.0006924559
  0
VERTEX
  5
5D27
  8
AM_0
 10
194.9551891295425
 20
514.35681749463481
 30
0.0
 42
0.00069587797
  0
VERTEX
  5
5D28
  8
AM_0
 10
195.0308691295424
 20
513.78267749463498
 30
0.0
 42
0.00071687041
  0
VERTEX
  5
5D29
  8
AM_0
 10
195.10817912954221
 20
513.2086774946348
 30
0.0
 42
0.00069759113
  0
VERTEX
  5
5D2A
  8
AM_0
 10
195.1871191295424
 20
512.634887494635
 30
0.0
 42
0.00071003142
  0
VERTEX
  5
5D2B
  8
AM_0
 10
195.2676591295423
 20
512.0614174946345
 30
0.0
 42
0.00069954544
  0
VERTEX
  5
5D2C
  8
AM_0
 10
195.3497991295423
 20
511.48831749463483
 30
0.0
 42
0.0007188852
  0
VERTEX
  5
5D2D
  8
AM_0
 10
195.4335791295423
 20
510.91528749463492
 30
0.0
 42
0.00071266165
  0
VERTEX
  5
5D2E
  8
AM_0
 10
195.51900912954241
 20
510.34252749463479
 30
0.0
 42
0.00071614577
  0
VERTEX
  5
5D2F
  8
AM_0
 10
195.6060391295423
 20
509.77017749463482
 30
0.0
 42
0.00072290806
  0
VERTEX
  5
5D30
  8
AM_0
 10
195.69474912954229
 20
509.19787749463478
 30
0.0
  0
SEQEND
  5
5D31
  8
AM_0
  0
POLYLINE
  5
5D32
  8
AM_0
 66
     1
 10
0.0
 20
0.0
 30
0.0
  0
VERTEX
  5
5D33
  8
AM_0
 10
193.23680912954251
 20
542.56360749463477
 30
0.0
 42
-0.00039106653
  0
VERTEX
  5
5D34
  8
AM_0
 10
193.2344491295423
 20
542.87473749463481
 30
0.0
 42
-0.00040574511
  0
VERTEX
  5
5D35
  8
AM_0
 10
193.2325791295421
 20
543.18584749463514
 30
0.0
 42
-0.00035346331
  0
VERTEX
  5
5D36
  8
AM_0
 10
193.23118912954229
 20
543.49695749463478
 30
0.0
 42
-0.00034406545
  0
VERTEX
  5
5D37
  8
AM_0
 10
193.23020912954229
 20
543.80809749463504
 30
0.0
 42
-0.00045699059
  0
VERTEX
  5
5D38
  8
AM_0
 10
193.2297491295424
 20
544.11919749463482
 30
0.0
 42
-0.00035573431
  0
VERTEX
  5
5D39
  8
AM_0
 10
193.2297891295425
 20
544.43029749463483
 30
0.0
 42
-0.00038545888
  0
VERTEX
  5
5D3A
  8
AM_0
 10
193.2302791295424
 20
544.74143749463485
 30
0.0
 42
-0.00035501203
  0
VERTEX
  5
5D3B
  8
AM_0
 10
193.23123912954239
 20
545.05254749463495
 30
0.0
 42
-0.00040120778
  0
VERTEX
  5
5D3C
  8
AM_0
 10
193.2326591295423
 20
545.36377749463497
 30
0.0
 42
-0.00038317821
  0
VERTEX
  5
5D3D
  8
AM_0
 10
193.23456912954251
 20
545.67490749463514
 30
0.0
 42
-0.00040741862
  0
VERTEX
  5
5D3E
  8
AM_0
 10
193.2369691295425
 20
545.98613749463482
 30
0.0
 42
-0.00035783324
  0
VERTEX
  5
5D3F
  8
AM_0
 10
193.23985912954231
 20
546.29724749463503
 30
0.0
  0
SEQEND
  5
5D40
  8
AM_0
  0
POLYLINE
  5
5D41
  8
AM_0
 66
     1
 10
0.0
 20
0.0
 30
0.0
  0
VERTEX
  5
5D42
  8
AM_0
 10
193.2808691295424
 20
548.83398749463481
 30
0.0
 42
-0.00076691987
  0
VERTEX
  5
5D43
  8
AM_0
 10
193.2956691295422
 20
549.4517474946349
 30
0.0
 42
-0.00073262795
  0
VERTEX
  5
5D44
  8
AM_0
 10
193.3123091295426
 20
550.06934749463483
 30
0.0
 42
-0.0007652954
  0
VERTEX
  5
5D45
  8
AM_0
 10
193.3307991295423
 20
550.68701749463514
 30
0.0
 42
-0.00077334627
  0
VERTEX
  5
5D46
  8
AM_0
 10
193.3512091295425
 20
551.30461749463495
 30
0.0
 42
-0.00073282897
  0
VERTEX
  5
5D47
  8
AM_0
 10
193.3734691295424
 20
551.92203749463488
 30
0.0
 42
-0.0007571179
  0
VERTEX
  5
5D48
  8
AM_0
 10
193.39756912954221
 20
552.53955749463512
 30
0.0
 42
-0.00073783152
  0
VERTEX
  5
5D49
  8
AM_0
 10
193.4235091295424
 20
553.15694749463489
 30
0.0
 42
-0.0007835518
  0
VERTEX
  5
5D4A
  8
AM_0
 10
193.4513391295425
 20
553.7742174946352
 30
0.0
 42
-0.00074826133
  0
VERTEX
  5
5D4B
  8
AM_0
 10
193.48106912954239
 20
554.39160749463485
 30
0.0
 42
-0.00074893555
  0
VERTEX
  5
5D4C
  8
AM_0
 10
193.5126291295422
 20
555.00873749463483
 30
0.0
 42
-0.00076039841
  0
VERTEX
  5
5D4D
  8
AM_0
 10
193.5460491295425
 20
555.62576749463483
 30
0.0
 42
-0.00075618789
  0
VERTEX
  5
5D4E
  8
AM_0
 10
193.5813491295423
 20
556.24279749463483
 30
0.0
  0
SEQEND
  5
5D4F
  8
AM_0
  0
POLYLINE
  5
5D50
  8
AM_0
 66
     1
 10
0.0
 20
0.0
 30
0.0
  0
VERTEX
  5
5D51
  8
AM_0
 10
193.7550591295423
 20
558.90417749463495
 30
0.0
 42
-0.0007337051
  0
VERTEX
  5
5D52
  8
AM_0
 10
193.7991991295425
 20
559.5065874946348
 30
0.0
 42
-0.00075211323
  0
VERTEX
  5
5D53
  8
AM_0
 10
193.8451391295423
 20
560.10898749463513
 30
0.0
 42
-0.0007297491
  0
VERTEX
  5
5D54
  8
AM_0
 10
193.89286912954231
 20
560.71118749463471
 30
0.0
 42
-0.00073593041
  0
VERTEX
  5
5D55
  8
AM_0
 10
193.94234912954229
 20
561.31317749463483
 30
0.0
 42
-0.00074742739
  0
VERTEX
  5
5D56
  8
AM_0
 10
193.99361912954231
 20
561.91503749463482
 30
0.0
 42
-0.00073217363
  0
VERTEX
  5
5D57
  8
AM_0
 10
194.0466791295425
 20
562.51684749463504
 30
0.0
 42
-0.00073754168
  0
VERTEX
  5
5D58
  8
AM_0
 10
194.10149912954239
 20
563.11838749463482
 30
0.0
 42
-0.00073075073
  0
VERTEX
  5
5D59
  8
AM_0
 10
194.1580791295425
 20
563.71973749463496
 30
0.0
 42
-0.00074550816
  0
VERTEX
  5
5D5A
  8
AM_0
 10
194.21641912954229
 20
564.32080749463501
 30
0.0
 42
-0.00074288416
  0
VERTEX
  5
5D5B
  8
AM_0
 10
194.27656912954239
 20
564.92182749463495
 30
0.0
 42
-0.00072504001
  0
VERTEX
  5
5D5C
  8
AM_0
 10
194.33847912954221
 20
565.52256749463481
 30
0.0
 42
-0.00074640667
  0
VERTEX
  5
5D5D
  8
AM_0
 10
194.40214912954229
 20
566.12317749463466
 30
0.0
  0
SEQEND
  5
5D5E
  8
AM_0
  0
POLYLINE
  5
5D5F
  8
AM_0
 66
     1
 10
0.0
 20
0.0
 30
0.0
  0
VERTEX
  5
5D60
  8
AM_0
 10
194.7377191295424
 20
569.04663749463509
 30
0.0
 42
-0.00068898283
  0
VERTEX
  5
5D61
  8
AM_0
 10
194.8085991295421
 20
569.6213874946352
 30
0.0
 42
-0.00070644357
  0
VERTEX
  5
5D62
  8
AM_0
 10
194.88109912954241
 20
570.19607749463501
 30
0.0
 42
-0.00069248074
  0
VERTEX
  5
5D63
  8
AM_0
 10
194.9551891295425
 20
570.77038749463475
 30
0.0
 42
-0.0006958566
  0
VERTEX
  5
5D64
  8
AM_0
 10
195.0308691295424
 20
571.34452749463503
 30
0.0
 42
-0.00071687219
  0
VERTEX
  5
5D65
  8
AM_0
 10
195.10817912954221
 20
571.91852749463476
 30
0.0
 42
-0.00069760022
  0
VERTEX
  5
5D66
  8
AM_0
 10
195.1871191295424
 20
572.49231749463502
 30
0.0
 42
-0.00071002302
  0
VERTEX
  5
5D67
  8
AM_0
 10
195.2676591295423
 20
573.06578749463495
 30
0.0
 42
-0.00069954889
  0
VERTEX
  5
5D68
  8
AM_0
 10
195.3497991295423
 20
573.63888749463479
 30
0.0
 42
-0.00071887947
  0
VERTEX
  5
5D69
  8
AM_0
 10
195.4335791295423
 20
574.21191749463503
 30
0.0
 42
-0.00071266929
  0
VERTEX
  5
5D6A
  8
AM_0
 10
195.51900912954241
 20
574.7846874946348
 30
0.0
 42
-0.00071614429
  0
VERTEX
  5
5D6B
  8
AM_0
 10
195.6060391295423
 20
575.35702749463474
 30
0.0
 42
-0.00072288978
  0
VERTEX
  5
5D6C
  8
AM_0
 10
195.69474912954229
 20
575.929327494635
 30
0.0
  0
SEQEND
  5
5D6D
  8
AM_0
  0
LINE
  5
5D6E
  8
ﾁｭｳｼﾝｾﾝ1
 10
370.87681912954241
 20
600.06363749463503
 30
0.0
 11
390.87681912954241
 21
600.06363749463503
 31
0.0
  0
LINE
  5
5D6F
  8
ﾁｭｳｼﾝｾﾝ1
 10
380.87681912954241
 20
610.06363749463503
 30
0.0
 11
380.87681912954241
 21
590.06363749463503
 31
0.0
  0
LINE
  5
5D70
  8
ﾁｭｳｼﾝｾﾝ1
 10
370.87681912954241
 20
485.06360749463488
 30
0.0
 11
390.87681912954241
 21
485.06360749463488
 31
0.0
  0
LINE
  5
5D71
  8
ﾁｭｳｼﾝｾﾝ1
 10
380.87681912954241
 20
495.06360749463482
 30
0.0
 11
380.87681912954241
 21
475.06360749463482
 31
0.0
  0
LINE
  5
5D72
  8
ﾁｭｳｼﾝｾﾝ1
 10
307.87681912954258
 20
485.06360749463488
 30
0.0
 11
327.87681912954258
 21
485.06360749463488
 31
0.0
  0
LINE
  5
5D73
  8
ﾁｭｳｼﾝｾﾝ1
 10
317.87681912954258
 20
495.06360749463482
 30
0.0
 11
317.87681912954258
 21
475.06360749463482
 31
0.0
  0
LINE
  5
5D74
  8
ﾁｭｳｼﾝｾﾝ1
 10
307.87681912954258
 20
600.06363749463503
 30
0.0
 11
327.87681912954258
 21
600.06363749463503
 31
0.0
  0
LINE
  5
5D75
  8
ﾁｭｳｼﾝｾﾝ1
 10
317.87681912954258
 20
610.06363749463503
 30
0.0
 11
317.87681912954258
 21
590.06363749463503
 31
0.0
  0
ARC
  5
5D76
  8
AM_0
 10
389.8768291295425
 20
521.53708449463466
 30
0.0
 40
1.0000000199999981
 50
90.001718873355244
 51
180.00001000000091
  0
ARC
  5
5D77
  8
AM_0
 10
389.8768291295425
 20
563.59015149463482
 30
0.0
 40
1.0000000199999981
 50
179.999989999999
 51
269.99828112664488
  0
LINE
  5
5D78
  8
AM_0
 10
392.87679912954241
 20
567.06363749463469
 30
0.0
 11
396.87679912954241
 21
563.06363749463526
 31
0.0
  0
LINE
  5
5D79
  8
AM_0
 10
390.37679912954241
 20
567.06363749463469
 30
0.0
 11
392.87679912954241
 21
567.06363749463469
 31
0.0
  0
LINE
  5
5D7A
  8
AM_0
 10
389.87679912954252
 20
566.56363749463469
 30
0.0
 11
389.87679912954252
 21
518.56363749463503
 31
0.0
  0
LINE
  5
5D7B
  8
AM_0
 10
396.87679912954241
 20
563.06363749463526
 30
0.0
 11
396.87679912954292
 21
522.0636374946348
 31
0.0
  0
LINE
  5
5D7C
  8
AM_0
 10
392.87679912954241
 20
518.06363749463503
 30
0.0
 11
396.87679912954241
 21
522.0636374946348
 31
0.0
  0
LINE
  5
5D7D
  8
AM_0
 10
390.37679912954241
 20
518.06363749463503
 30
0.0
 11
392.87679912954241
 21
518.06363749463503
 31
0.0
  0
LINE
  5
5D7E
  8
AM_0
 10
389.87679912954252
 20
566.56363749463469
 30
0.0
 11
390.37679912954241
 21
567.06363749463469
 31
0.0
1001
GENIUS_GENFIL_13
1070
     0
1040
0.5
1040
0.5
1040
20.0
1040
0.0
1002
{
1002
}
1001
GENIUS_GENOBJ-N-CHA_13
1002
{
1000
OWNER
1000
GEN
1002
}
1001
GENIUS_GENODEF_13
1002
{
1000
HIER
1070
     0
1002
}
1002
{
1000
MANEDIT
1070
     0
1002
}
1002
{
1000
NOSEL
1070
     0
1002
}
1002
{
1000
BEHIND
1070
     0
1002
}
1002
{
1000
OTHER
1070
     0
1002
}
1002
{
1000
REACTOR
1002
}
  0
LINE
  5
5D7F
  8
AM_0
 10
389.87679912954252
 20
518.56363749463503
 30
0.0
 11
390.37679912954241
 21
518.06363749463503
 31
0.0
1001
GENIUS_GENFIL_13
1070
     0
1040
0.5
1040
0.5
1040
20.0
1040
0.0
1002
{
1002
}
1001
GENIUS_GENODEF_13
1002
{
1000
HIER
1070
     0
1002
}
1002
{
1000
MANEDIT
1070
     0
1002
}
1002
{
1000
NOSEL
1070
     0
1002
}
1002
{
1000
BEHIND
1070
     0
1002
}
1002
{
1000
OTHER
1070
     0
1002
}
1002
{
1000
REACTOR
1002
}
1001
GENIUS_GENOBJ-N-CHA_13
1002
{
1000
OWNER
1000
GEN
1002
}
  0
LINE
  5
5D80
  8
AM_0
 10
392.87679912954241
 20
567.06363749463469
 30
0.0
 11
392.87679912954241
 21
518.06363749463503
 31
0.0
  0
LINE
  5
5D81
  8
AM_0
 10
183.37681912954241
 20
595.56360749463511
 30
0.0
 11
183.37681912954221
 21
489.56360749463511
 31
0.0
  0
LINE
  5
5D82
  8
AM_0
 10
183.37681912954221
 20
489.56360749463511
 30
0.0
 11
190.8768191295423
 21
489.56360749463511
 31
0.0
  0
LINE
  5
5D83
  8
AM_0
 10
183.57682912954229
 20
499.37366749463519
 30
0.0
 11
189.8068091295423
 21
499.37366749463519
 31
0.0
  0
LINE
  5
5D84
  8
AM_0
 10
183.57682912954229
 20
585.75354749463509
 30
0.0
 11
189.8068091295423
 21
585.75354749463509
 31
0.0
  0
LINE
  5
5D85
  8
AM_0
 10
183.37681912954241
 20
595.56360749463511
 30
0.0
 11
190.87681912954241
 21
595.56360749463511
 31
0.0
  0
LINE
  5
5D86
  8
AM_0
 10
175.37681912954321
 20
490.50220398586299
 30
0.0
 11
175.37681912954289
 21
528.22449090062037
 31
0.0
  0
LINE
  5
5D87
  8
AM_0
 10
166.37681912954241
 20
488.56360749463522
 30
0.0
 11
166.37681912954241
 21
596.56360749463522
 31
0.0
  0
LINE
  5
5D88
  8
AM_0
 10
166.37681912954241
 20
488.56360749463522
 30
0.0
 11
183.3768191295423
 21
489.56360749463511
 31
0.0
  0
LINE
  5
5D89
  8
AM_0
 10
166.37681912954241
 20
596.56360749463511
 30
0.0
 11
183.3768191295423
 21
595.56360749463511
 31
0.0
  0
LINE
  5
5D8A
  8
AM_0
 10
175.37681912954301
 20
498.96970429654368
 30
0.0
 11
183.3768191295423
 21
498.96970429654368
 31
0.0
  0
LINE
  5
5D8B
  8
AM_0
 10
175.37681912954321
 20
490.50220398586299
 30
0.0
 11
183.3768191295423
 21
490.50220398586299
 31
0.0
  0
LINE
  5
5D8C
  8
AM_0
 10
171.87681912954301
 20
507.92273452937508
 30
0.0
 11
175.37681912954301
 21
507.92273452937508
 31
0.0
  0
LINE
  5
5D8D
  8
AM_0
 10
171.87681912954301
 20
499.42273452937502
 30
0.0
 11
175.37681912954321
 21
499.42273452937502
 31
0.0
  0
LINE
  5
5D8E
  8
AM_0
 10
171.37681912954309
 20
499.92273452937508
 30
0.0
 11
171.37681912954309
 21
507.42273452937502
 31
0.0
  0
ARC
  5
5D8F
  8
AM_0
 10
171.87681912954309
 20
499.92273452937508
 30
0.0
 40
0.5
 50
180.0
 51
270.0
  0
ARC
  5
5D90
  8
AM_0
 10
171.87681912954309
 20
507.42273452937502
 30
0.0
 40
0.5
 50
90.0
 51
180.0
  0
LINE
  5
5D91
  8
AM_0
 10
166.37681912954241
 20
500.29141300149502
 30
0.0
 11
171.37681912954309
 21
500.2914130014949
 31
0.0
  0
LINE
  5
5D92
  8
AM_0
 10
166.37681912954241
 20
510.02649549979088
 30
0.0
 11
175.37681912954301
 21
510.026495499791
 31
0.0
  0
LINE
  5
5D93
  8
AM_0
 10
175.37681912954321
 20
594.62501100340717
 30
0.0
 11
175.37681912954289
 21
556.90272408865417
 31
0.0
  0
LINE
  5
5D94
  8
AM_0
 10
175.37681912954301
 20
586.15751069272665
 30
0.0
 11
183.3768191295423
 21
586.15751069272665
 31
0.0
  0
LINE
  5
5D95
  8
AM_0
 10
175.37681912954321
 20
594.62501100340717
 30
0.0
 11
183.3768191295423
 21
594.62501100340717
 31
0.0
  0
LINE
  5
5D96
  8
AM_0
 10
171.87681912954301
 20
577.20448045989519
 30
0.0
 11
175.37681912954301
 21
577.20448045989519
 31
0.0
  0
LINE
  5
5D97
  8
AM_0
 10
171.87681912954301
 20
585.70448045989519
 30
0.0
 11
175.37681912954321
 21
585.70448045989519
 31
0.0
  0
LINE
  5
5D98
  8
AM_0
 10
171.37681912954309
 20
585.20448045989519
 30
0.0
 11
171.37681912954309
 21
577.70448045989508
 31
0.0
  0
ARC
  5
5D99
  8
AM_0
 10
171.87681912954309
 20
585.20448045989519
 30
0.0
 40
0.5
 50
90.0
 51
180.0
  0
ARC
  5
5D9A
  8
AM_0
 10
171.87681912954309
 20
577.70448045989508
 30
0.0
 40
0.5
 50
180.0
 51
270.0
  0
LINE
  5
5D9B
  8
AM_0
 10
166.37681912954241
 20
584.8358019877752
 30
0.0
 11
171.37681912954309
 21
584.8358019877752
 31
0.0
  0
LINE
  5
5D9C
  8
AM_0
 10
166.37681912954241
 20
575.10071948947939
 30
0.0
 11
175.37681912954301
 21
575.10071948947939
 31
0.0
  0
LINE
  5
5D9D
  8
AM_0
 10
160.3768191295423
 20
596.56360749463522
 30
0.0
 11
160.3768191295423
 21
488.56360749463522
 31
0.0
  0
LINE
  5
5D9E
  8
AM_0
 10
166.37681912954241
 20
488.56360749463522
 30
0.0
 11
160.3768191295423
 21
488.56360749463522
 31
0.0
  0
LINE
  5
5D9F
  8
AM_0
 10
160.3768191295423
 20
596.56360749463522
 30
0.0
 11
166.37681912954221
 21
596.56360749463522
 31
0.0
  0
LINE
  5
5DA0
  8
AM_0
 10
159.3768191295423
 20
538.76360749463515
 30
0.0
 11
159.3768191295423
 21
546.36360749463495
 31
0.0
  0
LINE
  5
5DA1
  8
AM_0
 10
159.3768191295423
 20
546.36360749463495
 30
0.0
 11
160.3768191295423
 21
546.36360749463495
 31
0.0
  0
LINE
  5
5DA2
  8
AM_0
 10
160.3768191295423
 20
542.76360749463515
 30
0.0
 11
159.3768191295423
 21
543.1275777289012
 31
0.0
  0
LINE
  5
5DA3
  8
AM_0
 10
160.3768191295423
 20
542.36360749463495
 30
0.0
 11
159.3768191295423
 21
542.72757772890157
 31
0.0
  0
LINE
  5
5DA4
  8
AM_0
 10
160.3768191295423
 20
538.76360749463515
 30
0.0
 11
159.3768191295423
 21
538.76360749463515
 31
0.0
  0
LINE
  5
5DA5
  8
AM_0
 10
158.31788161741429
 20
546.47096246694173
 30
0.0
 11
159.3768191295423
 21
546.56360749463511
 31
0.0
  0
LINE
  5
5DA6
  8
AM_0
 10
158.31788161741429
 20
538.65625252232871
 30
0.0
 11
159.3768191295423
 21
538.56360749463511
 31
0.0
  0
ARC
  5
5DA7
  8
AM_0
 10
162.77681912954239
 20
542.56360749463511
 30
0.0
 40
6.5
 50
151.82726586813479
 51
208.1727341318651
  0
ARC
  5
5DA8
  8
AM_0
 10
158.4573308058109
 20
540.25016403927532
 30
0.0
 40
1.6000000000000001
 50
208.1727341318651
 51
265.00000000000028
  0
ARC
  5
5DA9
  8
AM_0
 10
158.4573308058109
 20
544.87705094999455
 30
0.0
 40
1.6000000000000001
 50
94.99999999999973
 51
151.82726586813479
  0
LINE
  5
5DAA
  8
AM_0
 10
159.3768191295423
 20
538.56360749463511
 30
0.0
 11
159.3768191295423
 21
546.56360749463511
 31
0.0
  0
LINE
  5
5DAB
  8
AM_0
 10
183.3768191295423
 20
528.22449090062037
 30
0.0
 11
175.37681912954301
 21
528.22449090062037
 31
0.0
  0
LINE
  5
5DAC
  8
AM_0
 10
183.37681912954221
 20
556.90272408865451
 30
0.0
 11
175.37681912954281
 21
556.90272408865451
 31
0.0
  0
LINE
  5
5DAD
  8
AM_0
 10
145.8768191295419
 20
508.56360749463607
 30
0.0
 11
145.8768191295419
 21
497.56360749463511
 31
0.0
  0
LINE
  5
5DAE
  8
AM_0
 10
160.3768191295419
 20
497.56360749463511
 30
0.0
 11
145.8768191295419
 21
497.56360749463511
 31
0.0
  0
LINE
  5
5DAF
  8
AM_0
 10
133.8768191295423
 20
502.56360749463602
 30
0.0
 11
133.8768191295421
 21
499.56360749463607
 31
0.0
  0
LINE
  5
5DB0
  8
AM_0
 10
133.8768191295421
 20
499.56360749463607
 30
0.0
 11
145.8768191295419
 21
499.56360749463607
 31
0.0
  0
LINE
  5
5DB1
  8
AM_0
 10
133.8768191295419
 20
500.56360749463619
 30
0.0
 11
133.8768191295419
 21
502.74127590078291
 31
0.0
  0
LINE
  5
5DB2
  8
AM_0
 10
128.3768191295419
 20
502.5636074946363
 30
0.0
 11
129.27681912954199
 21
502.5636074946363
 31
0.0
  0
LINE
  5
5DB3
  8
AM_0
 10
128.1768191295416
 20
505.56360749463619
 30
0.0
 11
128.1768191295416
 21
502.5636074946363
 31
0.0
  0
LINE
  5
5DB4
  8
AM_0
 10
129.27681912954199
 20
502.29125576005259
 30
0.0
 11
129.27681912954199
 21
505.8359592292199
 31
0.0
  0
LINE
  5
5DB5
  8
AM_0
 10
127.8768191295419
 20
505.2636074946364
 30
0.0
 11
129.27681912954009
 21
505.2636074946364
 31
0.0
  0
LINE
  5
5DB6
  8
AM_0
 10
133.27681912954199
 20
501.68203763422912
 30
0.0
 11
133.27681912954199
 21
500.56360749463619
 31
0.0
  0
LINE
  5
5DB7
  8
AM_0
 10
133.27681912954199
 20
502.5636074946363
 30
0.0
 11
133.27681912954199
 21
502.46360749463622
 31
0.0
  0
LINE
  5
5DB8
  8
AM_0
 10
133.27681912954199
 20
502.46360749463622
 30
0.0
 11
133.27681912954199
 21
501.68203763422912
 31
0.0
  0
LINE
  5
5DB9
  8
AM_0
 10
133.27681912954199
 20
502.5636074946363
 30
0.0
 11
133.27681912954199
 21
502.46360749463622
 31
0.0
  0
LINE
  5
5DBA
  8
AM_0
 10
133.27681912954199
 20
502.947370170966
 30
0.0
 11
133.27681912954199
 21
501.68203763422912
 31
0.0
  0
LINE
  5
5DBB
  8
AM_0
 10
133.27681912954199
 20
500.56360749463619
 30
0.0
 11
133.8768191295419
 21
500.56360749463619
 31
0.0
  0
LINE
  5
5DBC
  8
AM_0
 10
130.57681912954209
 20
501.68203763422912
 30
0.0
 11
130.57681912954209
 21
505.11356882662938
 31
0.0
  0
LINE
  5
5DBD
  8
AM_0
 10
130.4157749002845
 20
501.3953460058861
 30
0.0
 11
129.4832218507774
 21
501.9337557600528
 31
0.0
  0
LINE
  5
5DBE
  8
AM_0
 10
130.84927072157251
 20
500.88818101409328
 30
0.0
 11
133.0043675375116
 21
500.88818101409328
 31
0.0
  0
LINE
  5
5DBF
  8
AM_0
 10
130.84927072157251
 20
502.47589425436468
 30
0.0
 11
133.0043675375116
 21
502.47589425436479
 31
0.0
  0
LINE
  5
5DC0
  8
AM_0
 10
129.2768191295406
 20
505.56360749463619
 30
0.0
 11
128.1768191295416
 21
505.56360749463619
 31
0.0
  0
LINE
  5
5DC1
  8
AM_0
 10
128.1768191295416
 20
505.56360749463619
 30
0.0
 11
127.8768191295419
 21
505.2636074946364
 31
0.0
  0
LINE
  5
5DC2
  8
AM_0
 10
127.8768191295419
 20
505.2636074946364
 30
0.0
 11
127.8768191295419
 21
502.86360749463631
 31
0.0
  0
LINE
  5
5DC3
  8
AM_0
 10
128.1768191295416
 20
502.5636074946363
 30
0.0
 11
129.27681912954009
 21
502.5636074946363
 31
0.0
  0
LINE
  5
5DC4
  8
AM_0
 10
127.8768191295419
 20
502.86360749463631
 30
0.0
 11
128.1768191295416
 21
502.5636074946363
 31
0.0
  0
LINE
  5
5DC5
  8
AM_0
 10
129.27681912954009
 20
502.86360749463631
 30
0.0
 11
127.8768191295419
 21
502.86360749463631
 31
0.0
  0
ARC
  5
5DC6
  8
AM_0
 10
131.98404231351529
 20
501.68203763422912
 30
0.0
 40
1.292776816026465
 50
322.11555894629771
 51
0.0
  0
ARC
  5
5DC7
  8
AM_0
 10
135.33924900560169
 20
504.0636074946363
 30
0.0
 40
4.762429876059711
 50
168.45024695877001
 51
199.4742400054138
  0
ARC
  5
5DC8
  8
AM_0
 10
131.86959594556851
 20
501.68203763422912
 30
0.0
 40
1.292776816026556
 50
142.11555894629771
 51
217.8844410536997
  0
ARC
  5
5DC9
  8
AM_0
 10
128.51438925348251
 20
504.0636074946363
 30
0.0
 40
4.762429876059584
 50
340.52575999458628
 51
347.08714779821958
  0
ARC
  5
5DCA
  8
AM_0
 10
131.98404231351529
 20
501.68203763422912
 30
0.0
 40
1.2927768160265021
 50
0.0
 51
37.884441053702282
  0
ARC
  5
5DCB
  8
AM_0
 10
129.68962457201241
 20
502.29125576005271
 30
0.0
 40
0.4128054424705854
 50
180.0
 51
239.99999999999949
  0
ARC
  5
5DCC
  8
AM_0
 10
130.002969457814
 20
500.68034600588612
 30
0.0
 40
0.8256108849411369
 50
28.217424594178269
 51
59.999999999999439
  0
LINE
  5
5DCD
  8
AM_0
 10
129.49191166206509
 20
506.19847629410629
 30
0.0
 11
129.4832218507774
 21
506.19345922922003
 31
0.0
  0
ARC
  5
5DCE
  8
AM_0
 10
129.68962457201269
 20
505.83595922922018
 30
0.0
 40
0.4128054424705854
 50
119.9999999999924
 51
179.99999999999341
  0
CIRCLE
  5
5DCF
  8
AM_0
 10
131.8767804615361
 20
542.56360749463545
 30
0.0
 40
5.5
  0
LINE
  5
5DD0
  8
AM_0
 10
126.3767804615361
 20
539.38818101409242
 30
0.0
 11
131.8767804615365
 21
536.2127545335494
 31
0.0
  0
LINE
  5
5DD1
  8
AM_0
 10
131.8767804615365
 20
536.2127545335494
 30
0.0
 11
137.3767804615361
 21
539.38818101409277
 31
0.0
  0
LINE
  5
5DD2
  8
AM_0
 10
137.3767804615361
 20
539.38818101409277
 30
0.0
 11
137.3767804615361
 21
545.73903397517824
 31
0.0
  0
LINE
  5
5DD3
  8
AM_0
 10
137.3767804615361
 20
545.73903397517824
 30
0.0
 11
131.8767804615361
 21
548.91446045572116
 31
0.0
  0
LINE
  5
5DD4
  8
AM_0
 10
131.8767804615361
 20
548.91446045572116
 30
0.0
 11
126.3767804615361
 21
545.73903397517802
 31
0.0
  0
LINE
  5
5DD5
  8
AM_0
 10
126.3767804615361
 20
545.73903397517802
 30
0.0
 11
126.3767804615361
 21
539.38818101409242
 31
0.0
  0
CIRCLE
  5
5DD6
  8
AM_0
 10
131.8767804615361
 20
542.56360749463545
 30
0.0
 40
6.4999856554771771
  0
LINE
  5
5DD7
  8
AM_0
 10
142.94207269190721
 20
508.56360749463607
 30
0.0
 11
145.8768191295419
 21
508.56360749463607
 31
0.0
  0
LINE
  5
5DD8
  8
AM_0
 10
143.8962412436951
 20
507.06360749463602
 30
0.0
 11
145.8768191295419
 21
507.06360749463602
 31
0.0
  0
LINE
  5
5DD9
  8
AM_0
 10
135.19784827340081
 20
502.56360749463602
 30
0.0
 11
145.8768191295419
 21
502.56360749463602
 31
0.0
  0
ARC
  5
5DDA
  8
AM_0
 10
135.19784827340069
 20
507.56360749463602
 30
0.0
 40
5.0
 50
225.0
 51
270.0
1001
GENIUS_GENODEF_13
1002
{
1000
HIER
1070
     0
1002
}
1002
{
1000
MANEDIT
1070
     0
1002
}
1002
{
1000
NOSEL
1070
     0
1002
}
1002
{
1000
BEHIND
1070
     0
1002
}
1002
{
1000
OTHER
1070
     0
1002
}
1002
{
1000
REACTOR
1002
}
1001
GENIUS_GENOBJ-N-FIL_13
1002
{
1000
OWNER
1000
GEN
1002
}
  0
LINE
  5
5DDB
  8
AM_0
 10
143.8962412436949
 20
502.56360749463602
 30
0.0
 11
143.8962412436951
 21
507.06360749463602
 31
0.0
  0
LINE
  5
5DDC
  8
AM_0
 10
130.3767804615361
 20
536.2390669167429
 30
0.0
 11
130.3767804615363
 21
515.35163264092671
 31
0.0
  0
LINE
  5
5DDD
  8
AM_0
 10
133.3767804615361
 20
536.2390669167429
 30
0.0
 11
133.3767804615361
 21
515.35163264092671
 31
0.0
  0
LINE
  5
5DDE
  8
AM_0
 10
128.1267804615361
 20
537.25443491113344
 30
0.0
 11
128.1267804615361
 21
509.63467530650092
 31
0.0
  0
ARC
  5
5DDF
  8
AM_0
 10
133.1267804615361
 20
509.63467530650092
 30
0.0
 40
5.0
 50
180.0
 51
225.0
1001
GENIUS_GENOBJ-N-FIL_13
1002
{
1000
OWNER
1000
GEN
1002
}
1001
GENIUS_GENODEF_13
1002
{
1000
HIER
1070
     0
1002
}
1002
{
1000
MANEDIT
1070
     0
1002
}
1002
{
1000
NOSEL
1070
     0
1002
}
1002
{
1000
BEHIND
1070
     0
1002
}
1002
{
1000
OTHER
1070
     0
1002
}
1002
{
1000
REACTOR
1002
}
  0
LINE
  5
5DE0
  8
AM_0
 10
135.6267804615361
 20
537.25443491113344
 30
0.0
 11
135.6267804615361
 21
513.09452583788766
 31
0.0
  0
ARC
  5
5DE1
  8
AM_0
 10
140.6267804615361
 20
521.51912586396065
 30
0.0
 40
5.0
 50
180.0
 51
212.46094411514301
1001
GENIUS_GENODEF_13
1002
{
1000
HIER
1070
     0
1002
}
1002
{
1000
MANEDIT
1070
     0
1002
}
1002
{
1000
NOSEL
1070
     0
1002
}
1002
{
1000
BEHIND
1070
     0
1002
}
1002
{
1000
OTHER
1070
     0
1002
}
1002
{
1000
REACTOR
1002
}
1001
GENIUS_GENOBJ-N-FIL_13
1002
{
1000
OWNER
1000
GEN
1002
}
  0
ARC
  5
5DE2
  8
AM_0
 10
140.6267804615361
 20
513.09452583788766
 30
0.0
 40
5.0
 50
180.0
 51
224.2123722808945
1001
GENIUS_GENOBJ-N-FIL_13
1002
{
1000
OWNER
1000
GEN
1002
}
1001
GENIUS_GENODEF_13
1002
{
1000
HIER
1070
     0
1002
}
1002
{
1000
MANEDIT
1070
     0
1002
}
1002
{
1000
NOSEL
1070
     0
1002
}
1002
{
1000
BEHIND
1070
     0
1002
}
1002
{
1000
OTHER
1070
     0
1002
}
1002
{
1000
REACTOR
1002
}
  0
LINE
  5
5DE3
  8
AM_0
 10
143.8962412436949
 20
507.06360749463602
 30
0.0
 11
136.40799295076911
 21
518.83550295099485
 31
0.0
  0
LINE
  5
5DE4
  8
AM_0
 10
143.8962412436949
 20
502.56360749463602
 30
0.0
 11
137.04298022568469
 21
509.60792636712671
 31
0.0
  0
LINE
  5
5DE5
  8
AM_0
 10
129.59124655560339
 20
506.09914140056787
 30
0.0
 11
131.66231436746801
 21
504.02807358870342
 31
0.0
  0
ARC
  5
5DE6
  8
AM_0
 10
131.8767804615361
 20
515.35163264092671
 30
0.0
 40
1.5
 50
180.0
 51
0.0
  0
LINE
  5
5DE7
  8
AM_0
 10
145.8768191295423
 20
576.56360749463443
 30
0.0
 11
145.87681912954281
 21
587.56360749463545
 31
0.0
  0
LINE
  5
5DE8
  8
AM_0
 10
160.37681912954281
 20
587.56360749463522
 30
0.0
 11
145.87681912954281
 21
587.56360749463545
 31
0.0
  0
LINE
  5
5DE9
  8
AM_0
 10
133.87681912954301
 20
582.56360749463477
 30
0.0
 11
133.87681912954301
 21
585.56360749463465
 31
0.0
  0
LINE
  5
5DEA
  8
AM_0
 10
133.87681912954301
 20
585.56360749463465
 30
0.0
 11
145.87681912954281
 21
585.56360749463443
 31
0.0
  0
LINE
  5
5DEB
  8
AM_0
 10
133.87681912954281
 20
584.56360749463465
 30
0.0
 11
133.87681912954281
 21
582.38593908848804
 31
0.0
  0
LINE
  5
5DEC
  8
AM_0
 10
128.3768191295427
 20
582.56360749463477
 30
0.0
 11
129.2768191295429
 21
582.56360749463477
 31
0.0
  0
LINE
  5
5DED
  8
AM_0
 10
128.17681912954251
 20
579.56360749463465
 30
0.0
 11
128.17681912954251
 21
582.56360749463477
 31
0.0
  0
LINE
  5
5DEE
  8
AM_0
 10
129.2768191295429
 20
582.83595922921836
 30
0.0
 11
129.2768191295429
 21
579.29125576005094
 31
0.0
  0
LINE
  5
5DEF
  8
AM_0
 10
127.8768191295428
 20
579.86360749463483
 30
0.0
 11
129.27681912954259
 21
579.86360749463483
 31
0.0
  0
LINE
  5
5DF0
  8
AM_0
 10
133.2768191295429
 20
583.44517735504166
 30
0.0
 11
133.2768191295429
 21
584.56360749463465
 31
0.0
  0
LINE
  5
5DF1
  8
AM_0
 10
133.2768191295429
 20
582.56360749463477
 30
0.0
 11
133.2768191295429
 21
582.66360749463445
 31
0.0
  0
LINE
  5
5DF2
  8
AM_0
 10
133.2768191295429
 20
582.66360749463445
 30
0.0
 11
133.2768191295429
 21
583.44517735504166
 31
0.0
  0
LINE
  5
5DF3
  8
AM_0
 10
133.2768191295429
 20
582.56360749463477
 30
0.0
 11
133.2768191295429
 21
582.66360749463445
 31
0.0
  0
LINE
  5
5DF4
  8
AM_0
 10
133.2768191295429
 20
582.17984481830501
 30
0.0
 11
133.2768191295429
 21
583.44517735504166
 31
0.0
  0
LINE
  5
5DF5
  8
AM_0
 10
133.2768191295429
 20
584.56360749463465
 30
0.0
 11
133.87681912954281
 21
584.56360749463465
 31
0.0
  0
LINE
  5
5DF6
  8
AM_0
 10
130.57681912954311
 20
583.44517735504166
 30
0.0
 11
130.5768191295428
 21
580.01364616264152
 31
0.0
  0
LINE
  5
5DF7
  8
AM_0
 10
130.41577490028541
 20
583.73186898338486
 30
0.0
 11
129.48322185077831
 21
583.19345922921832
 31
0.0
  0
LINE
  5
5DF8
  8
AM_0
 10
130.8492707215735
 20
584.23903397517756
 30
0.0
 11
133.00436753751251
 21
584.23903397517756
 31
0.0
  0
LINE
  5
5DF9
  8
AM_0
 10
130.8492707215735
 20
582.65132073490622
 30
0.0
 11
133.00436753751251
 21
582.65132073490588
 31
0.0
  0
LINE
  5
5DFA
  8
AM_0
 10
129.2768191295429
 20
579.56360749463465
 30
0.0
 11
128.17681912954251
 21
579.56360749463465
 31
0.0
  0
LINE
  5
5DFB
  8
AM_0
 10
128.17681912954251
 20
579.56360749463465
 30
0.0
 11
127.8768191295428
 21
579.86360749463483
 31
0.0
  0
LINE
  5
5DFC
  8
AM_0
 10
127.8768191295428
 20
579.86360749463483
 30
0.0
 11
127.8768191295428
 21
582.2636074946347
 31
0.0
  0
LINE
  5
5DFD
  8
AM_0
 10
128.17681912954251
 20
582.56360749463477
 30
0.0
 11
129.2768191295429
 21
582.56360749463477
 31
0.0
  0
LINE
  5
5DFE
  8
AM_0
 10
127.8768191295428
 20
582.2636074946347
 30
0.0
 11
128.17681912954251
 21
582.56360749463477
 31
0.0
  0
LINE
  5
5DFF
  8
AM_0
 10
129.2768191295429
 20
582.2636074946347
 30
0.0
 11
127.8768191295428
 21
582.2636074946347
 31
0.0
  0
ARC
  5
5E00
  8
AM_0
 10
131.98404231351631
 20
583.44517735504166
 30
0.0
 40
1.292776816026465
 50
0.0
 51
37.884441053702282
  0
ARC
  5
5E01
  8
AM_0
 10
135.33924900560231
 20
581.06360749463465
 30
0.0
 40
4.762429876059711
 50
160.52575999458611
 51
191.54975304122991
  0
ARC
  5
5E02
  8
AM_0
 10
131.8695959455695
 20
583.44517735504166
 30
0.0
 40
1.292776816026556
 50
142.11555894629771
 51
217.88444105370229
  0
ARC
  5
5E03
  8
AM_0
 10
128.5143892534831
 20
581.06360749463465
 30
0.0
 40
4.762429876059584
 50
12.912852201780369
 51
19.474240005413812
  0
ARC
  5
5E04
  8
AM_0
 10
131.98404231351631
 20
583.44517735504166
 30
0.0
 40
1.2927768160265021
 50
322.11555894629771
 51
0.0
  0
ARC
  5
5E05
  8
AM_0
 10
129.6896245720134
 20
582.83595922921836
 30
0.0
 40
0.4128054424705854
 50
120.0000000000005
 51
180.0
  0
ARC
  5
5E06
  8
AM_0
 10
130.00296945781469
 20
584.44686898338466
 30
0.0
 40
0.8256108849411369
 50
299.99999999999972
 51
331.78257540582172
  0
LINE
  5
5E07
  8
AM_0
 10
129.491911662066
 20
578.92873869516472
 30
0.0
 11
129.48322185077831
 21
578.93375576005099
 31
0.0
  0
ARC
  5
5E08
  8
AM_0
 10
129.6896245720134
 20
579.29125576005094
 30
0.0
 40
0.4128054424705854
 50
180.00000000000659
 51
240.00000000000759
  0
LINE
  5
5E09
  8
AM_0
 10
142.94207269190809
 20
576.56360749463465
 30
0.0
 11
145.8768191295423
 21
576.56360749463443
 31
0.0
  0
LINE
  5
5E0A
  8
AM_0
 10
143.89624124369581
 20
578.06360749463465
 30
0.0
 11
145.8768191295425
 21
578.06360749463443
 31
0.0
  0
LINE
  5
5E0B
  8
AM_0
 10
135.1978482734018
 20
582.56360749463477
 30
0.0
 11
145.8768191295425
 21
582.56360749463443
 31
0.0
  0
ARC
  5
5E0C
  8
AM_0
 10
135.19784827340141
 20
577.56360749463465
 30
0.0
 40
5.0
 50
90.0
 51
135.0
1001
GENIUS_GENODEF_13
1002
{
1000
HIER
1070
     0
1002
}
1002
{
1000
MANEDIT
1070
     0
1002
}
1002
{
1000
NOSEL
1070
     0
1002
}
1002
{
1000
BEHIND
1070
     0
1002
}
1002
{
1000
OTHER
1070
     0
1002
}
1002
{
1000
REACTOR
1002
}
1001
GENIUS_GENOBJ-N-FIL_13
1002
{
1000
OWNER
1000
GEN
1002
}
  0
LINE
  5
5E0D
  8
AM_0
 10
143.89624124369581
 20
582.56360749463465
 30
0.0
 11
143.89624124369581
 21
578.06360749463465
 31
0.0
  0
LINE
  5
5E0E
  8
AM_0
 10
130.3767804615365
 20
548.88814807252811
 30
0.0
 11
130.37678046153701
 21
569.7755823483443
 31
0.0
  0
LINE
  5
5E0F
  8
AM_0
 10
133.3767804615363
 20
548.88814807252811
 30
0.0
 11
133.37678046153701
 21
569.7755823483443
 31
0.0
  0
LINE
  5
5E10
  8
AM_0
 10
128.1267804615365
 20
547.87278007813768
 30
0.0
 11
128.12678046153701
 21
575.49253968277014
 31
0.0
  0
ARC
  5
5E11
  8
AM_0
 10
133.12678046153681
 20
575.49253968277014
 30
0.0
 40
5.0
 50
135.0
 51
180.0
1001
GENIUS_GENOBJ-N-FIL_13
1002
{
1000
OWNER
1000
GEN
1002
}
1001
GENIUS_GENODEF_13
1002
{
1000
HIER
1070
     0
1002
}
1002
{
1000
MANEDIT
1070
     0
1002
}
1002
{
1000
NOSEL
1070
     0
1002
}
1002
{
1000
BEHIND
1070
     0
1002
}
1002
{
1000
OTHER
1070
     0
1002
}
1002
{
1000
REACTOR
1002
}
  0
LINE
  5
5E12
  8
AM_0
 10
135.6267804615365
 20
547.87278007813745
 30
0.0
 11
135.62678046153701
 21
572.03268915138324
 31
0.0
  0
ARC
  5
5E13
  8
AM_0
 10
140.6267804615365
 20
563.60808912531013
 30
0.0
 40
5.0
 50
147.53905588485699
 51
180.0
1001
GENIUS_GENODEF_13
1002
{
1000
HIER
1070
     0
1002
}
1002
{
1000
MANEDIT
1070
     0
1002
}
1002
{
1000
NOSEL
1070
     0
1002
}
1002
{
1000
BEHIND
1070
     0
1002
}
1002
{
1000
OTHER
1070
     0
1002
}
1002
{
1000
REACTOR
1002
}
1001
GENIUS_GENOBJ-N-FIL_13
1002
{
1000
OWNER
1000
GEN
1002
}
  0
ARC
  5
5E14
  8
AM_0
 10
140.62678046153681
 20
572.03268915138312
 30
0.0
 40
5.0
 50
135.7876277191055
 51
180.0
1001
GENIUS_GENOBJ-N-FIL_13
1002
{
1000
OWNER
1000
GEN
1002
}
1001
GENIUS_GENODEF_13
1002
{
1000
HIER
1070
     0
1002
}
1002
{
1000
MANEDIT
1070
     0
1002
}
1002
{
1000
NOSEL
1070
     0
1002
}
1002
{
1000
BEHIND
1070
     0
1002
}
1002
{
1000
OTHER
1070
     0
1002
}
1002
{
1000
REACTOR
1002
}
  0
LINE
  5
5E15
  8
AM_0
 10
143.89624124369561
 20
578.06360749463465
 30
0.0
 11
136.40799295076951
 21
566.29171203827593
 31
0.0
  0
LINE
  5
5E16
  8
AM_0
 10
143.89624124369581
 20
582.56360749463465
 30
0.0
 11
137.0429802256856
 21
575.51928862214413
 31
0.0
  0
LINE
  5
5E17
  8
AM_0
 10
129.5912465556041
 20
579.02807358870302
 30
0.0
 11
131.66231436746901
 21
581.09914140056765
 31
0.0
  0
ARC
  5
5E18
  8
AM_0
 10
131.87678046153681
 20
569.7755823483443
 30
0.0
 40
1.5
 50
0.0
 51
180.0
  0
ARC
  5
5E19
  8
AM_0
 10
177.32761731639741
 20
471.56360749463522
 30
0.0
 40
20.0
 50
209.07393874564249
 51
249.97235728825609
1001
GENIUS_GENODEF_13
1002
{
1000
HIER
1070
     0
1002
}
1002
{
1000
MANEDIT
1070
     0
1002
}
1002
{
1000
NOSEL
1070
     0
1002
}
1002
{
1000
BEHIND
1070
     0
1002
}
1002
{
1000
OTHER
1070
     0
1002
}
1002
{
1000
REACTOR
1002
}
1001
GENIUS_GENOBJ-N-FIL_13
1002
{
1000
OWNER
1000
GEN
1002
}
  0
ARC
  5
5E1A
  8
AM_0
 10
177.91579354504319
 20
472.56360749463511
 30
0.0
 40
15.0
 50
209.07393874564249
 51
240.27464366407139
1001
GENIUS_GENODEF_13
1002
{
1000
HIER
1070
     0
1002
}
1002
{
1000
MANEDIT
1070
     0
1002
}
1002
{
1000
NOSEL
1070
     0
1002
}
1002
{
1000
BEHIND
1070
     0
1002
}
1002
{
1000
OTHER
1070
     0
1002
}
1002
{
1000
REACTOR
1002
}
1001
GENIUS_GENOBJ-N-FIL_13
1002
{
1000
OWNER
1000
GEN
1002
}
  0
LINE
  5
5E1B
  8
AM_0
 10
159.84775042498259
 20
461.84484968005722
 30
0.0
 11
138.87622503844469
 21
499.56360749463607
 31
0.0
  0
LINE
  5
5E1C
  8
AM_0
 10
164.805893376482
 20
465.27453913370181
 30
0.0
 11
146.85326036115941
 21
497.56360749463511
 31
0.0
  0
TEXT
  5
60A3
  8
AM_0
 10
519.47430977803731
 20
544.01912594459156
 30
0.0
 40
10.0
  1
VX02-005BW~VX02-030BW
  0
ENDSEC
  0
EOF
