  0
SECTION
  2
HEADER
  9
$ACADVER
  1
AC1009
  9
$INSBASE
 10
0.0
 20
0.0
 30
0.0
  9
$EXTMIN
 10
107.09122678229031
 20
185.64947674819129
 30
-250.41841640509659
  9
$EXTMAX
 10
724.52950470572023
 20
631.53396823729327
 30
8206587.2096418813
  9
$LIMMIN
 10
0.0
 20
0.0
  9
$LIMMAX
 10
853.5
 20
555.00000000000011
  9
$ORTHOMODE
 70
     0
  9
$REGENMODE
 70
     1
  9
$FILLMODE
 70
     1
  9
$QTEXTMODE
 70
     0
  9
$MIRRTEXT
 70
     1
  9
$DRAGMODE
 70
     2
  9
$LTSCALE
 40
3.0
  9
$OSMODE
 70
   551
  9
$ATTMODE
 70
     1
  9
$TEXTSIZE
 40
2.5
  9
$TRACEWID
 40
1.0
  9
$TEXTSTYLE
  7
STANDARD
  9
$CLAYER
  8
AM_0
  9
$CELTYPE
  6
BYLAYER
  9
$CECOLOR
 62
   256
  9
$DIMSCALE
 40
3.0
  9
$DIMASZ
 40
2.5
  9
$DIMEXO
 40
1.0
  9
$DIMDLI
 40
8.0
  9
$DIMRND
 40
0.0
  9
$DIMDLE
 40
0.0
  9
$DIMEXE
 40
0.6
  9
$DIMTP
 40
0.1
  9
$DIMTM
 40
0.1
  9
$DIMTXT
 40
2.5
  9
$DIMCEN
 40
0.0
  9
$DIMTSZ
 40
0.0
  9
$DIMTOL
 70
     0
  9
$DIMLIM
 70
     0
  9
$DIMTIH
 70
     0
  9
$DIMTOH
 70
     0
  9
$DIMSE1
 70
     0
  9
$DIMSE2
 70
     0
  9
$DIMTAD
 70
     1
  9
$DIMZIN
 70
     8
  9
$DIMBLK
  1

  9
$DIMASO
 70
     1
  9
$DIMSHO
 70
     1
  9
$DIMPOST
  1

  9
$DIMAPOST
  1
"
  9
$DIMALT
 70
     0
  9
$DIMALTD
 70
     2
  9
$DIMALTF
 40
0.0393701
  9
$DIMLFAC
 40
1.0
  9
$DIMTOFL
 70
     1
  9
$DIMTVP
 40
0.0
  9
$DIMTIX
 70
     0
  9
$DIMSOXD
 70
     0
  9
$DIMSAH
 70
     0
  9
$DIMBLK1
  1

  9
$DIMBLK2
  1

  9
$DIMSTYLE
  2
AM_ISO
  9
$DIMCLRD
 70
   256
  9
$DIMCLRE
 70
   256
  9
$DIMCLRT
 70
     4
  9
$DIMTFAC
 40
0.71
  9
$DIMGAP
 40
0.8
  9
$LUNITS
 70
     2
  9
$LUPREC
 70
     2
  9
$SKETCHINC
 40
1.0
  9
$FILLETRAD
 40
15.0
  9
$AUNITS
 70
     0
  9
$AUPREC
 70
     0
  9
$MENU
  1
.
  9
$ELEVATION
 40
0.0
  9
$PELEVATION
 40
0.0
  9
$THICKNESS
 40
0.0
  9
$LIMCHECK
 70
     0
  9
$BLIPMODE
 70
     0
  9
$CHAMFERA
 40
6.0
  9
$CHAMFERB
 40
3.0
  9
$SKPOLY
 70
     0
  9
$TDCREATE
 40
2452065.6056192131
  9
$TDUPDATE
 40
2458541.6077419678
  9
$TDINDWG
 40
0.3511956829
  9
$TDUSRTIMER
 40
0.3511954745
  9
$USRTIMER
 70
     1
  9
$ANGBASE
 50
0.0
  9
$ANGDIR
 70
     0
  9
$PDMODE
 70
     0
  9
$PDSIZE
 40
0.0
  9
$PLINEWID
 40
0.0
  9
$COORDS
 70
     1
  9
$SPLFRAME
 70
     0
  9
$SPLINETYPE
 70
     6
  9
$SPLINESEGS
 70
     8
  9
$ATTDIA
 70
     1
  9
$ATTREQ
 70
     1
  9
$HANDLING
 70
     1
  9
$HANDSEED
  5
6D35
  9
$SURFTAB1
 70
     6
  9
$SURFTAB2
 70
     6
  9
$SURFTYPE
 70
     6
  9
$SURFU
 70
     6
  9
$SURFV
 70
     6
  9
$UCSNAME
  2

  9
$UCSORG
 10
0.0
 20
0.0
 30
0.0
  9
$UCSXDIR
 10
1.0
 20
0.0
 30
0.0
  9
$UCSYDIR
 10
0.0
 20
1.0
 30
0.0
  9
$PUCSNAME
  2

  9
$PUCSORG
 10
0.0
 20
0.0
 30
0.0
  9
$PUCSXDIR
 10
1.0
 20
0.0
 30
0.0
  9
$PUCSYDIR
 10
0.0
 20
1.0
 30
0.0
  9
$USERI1
 70
     0
  9
$USERI2
 70
     0
  9
$USERI3
 70
     0
  9
$USERI4
 70
     0
  9
$USERI5
 70
     0
  9
$USERR1
 40
0.0
  9
$USERR2
 40
0.0
  9
$USERR3
 40
0.0
  9
$USERR4
 40
0.0
  9
$USERR5
 40
0.0
  9
$WORLDVIEW
 70
     1
  9
$SHADEDGE
 70
     3
  9
$SHADEDIF
 70
    70
  9
$TILEMODE
 70
     1
  9
$MAXACTVP
 70
    64
  9
$PLIMCHECK
 70
     0
  9
$PEXTMIN
 10
1.0000000000000000E+020
 20
1.0000000000000000E+020
 30
1.0000000000000000E+020
  9
$PEXTMAX
 10
-1.0000000000000000E+020
 20
-1.0000000000000000E+020
 30
-1.0000000000000000E+020
  9
$PLIMMIN
 10
0.0
 20
0.0
  9
$PLIMMAX
 10
420.0
 20
297.0
  9
$UNITMODE
 70
     0
  9
$VISRETAIN
 70
     1
  9
$PLINEGEN
 70
     0
  9
$PSLTSCALE
 70
     1
  0
ENDSEC
  0
SECTION
  2
TABLES
  0
TABLE
  2
VPORT
 70
     1
  0
VPORT
  2
*ACTIVE
 70
     0
 10
0.0
 20
0.0
 11
1.0
 21
1.0
 12
415.8103657440052
 22
408.59172249274218
 13
0.0
 23
0.0
 14
7.5
 24
7.5
 15
30.0
 25
30.0
 16
0.0
 26
0.0
 36
1.0
 17
0.0
 27
0.0
 37
0.0
 40
448.94548342152137
 41
1.7571592210767459
 42
50.0
 43
0.0
 44
0.0
 50
0.0
 51
0.0
 71
     0
 72
   100
 73
     1
 74
     3
 75
     0
 76
     0
 77
     0
 78
     0
  0
ENDTAB
  0
TABLE
  2
LTYPE
 70
    27
  0
LTYPE
  2
CONTINUOUS
 70
     0
  3
Solid line
 72
    65
 73
     0
 40
0.0
  0
LTYPE
  2
AM_ISO02W050
 70
     0
  3
__ __ __ __ __ __ __ __ __ __ __ __ __ __ __
 72
    65
 73
     2
 40
7.5
 49
6.0
 49
-1.5
  0
LTYPE
  2
AM_ISO08W050
 70
     0
  3
____ . ____ . ____ . ____ . ____ . ____ . ____
 72
    65
 73
     4
 40
18.0
 49
12.0
 49
-1.5
 49
3.0
 49
-1.5
  0
LTYPE
  2
AM_ISO09W050
 70
     0
  3
_____ . . _____ . . _____ . . ____ .. ____
 72
    65
 73
     6
 40
22.5
 49
12.0
 49
-1.5
 49
3.0
 49
-1.5
 49
3.0
 49
-1.5
  0
LTYPE
  2
AMCONSTR
 70
     0
  3
_______________________
 72
    65
 73
     2
 40
9999.0
 49
9999.0
 49
0.0
  0
LTYPE
  2
AM_ISO08W050X2
 70
     0
  3
__ . __ . __ . __ . __ . __
 72
    65
 73
     4
 40
9.0
 49
6.0
 49
-0.75
 49
1.5
 49
-0.75
  0
LTYPE
  2
AM_ISO02W050X2
 70
     0
  3
 _ _ _ _ _ _ _ _ _ _ _ _
 72
    65
 73
     2
 40
3.75
 49
3.0
 49
-0.75
  0
LTYPE
  2
AMZIGZAG
 70
     0
  3
/\/-/\/-/\/-/\/-/\/-/\/
 72
    65
 73
     2
 40
11.0001
 49
0.0001
 49
-11.0
  0
LTYPE
  2
ACISOWELD
 70
     0
  3
_ _ _ _ _
 72
    65
 73
     2
 40
2.0
 49
2.0
 49
-1.0
  0
LTYPE
  2
ACISOTGB
 70
     0
  3
__ . . __ . .
 72
    65
 73
     6
 40
9.0
 49
4.0
 49
-1.0
 49
1.0
 49
-1.0
 49
1.0
 49
-1.0
  0
LTYPE
  2
ACISOTGL
 70
     0
  3
_ _ _ _ _
 72
    65
 73
     2
 40
3.0
 49
2.0
 49
-1.0
  0
LTYPE
  2
CENTER
 70
     0
  3
__ . __
 72
    65
 73
     4
 40
7.0
 49
4.0
 49
-1.0
 49
1.0
 49
-1.0
  0
LTYPE
  2
HIDDEN
 70
     0
  3
Hidden __ __ __ __ __ __ __ __ __ __ __ __ __ _
 72
    65
 73
     2
 40
9.5249999999999986
 49
6.3499999999999979
 49
-3.174999999999998
  0
LTYPE
  2
PHANTOM2
 70
     0
  3
Phantom (.5x) ___ _ _ ___ _ _ ___ _ _ ___ _ _
 72
    65
 73
     6
 40
31.75
 49
15.875
 49
-3.174999999999998
 49
3.174999999999998
 49
-3.174999999999998
 49
3.174999999999998
 49
-3.174999999999998
  0
LTYPE
  2
ACANSTGBM
 70
     0
  3
__ . . __ . .
 72
    65
 73
     6
 40
9.0
 49
4.0
 49
-1.0
 49
1.0
 49
-1.0
 49
1.0
 49
-1.0
  0
LTYPE
  2
ACANSTGLM
 70
     0
  3
_ _ _ _ _
 72
    65
 73
     2
 40
3.0
 49
2.0
 49
-1.0
  0
LTYPE
  2
GEN3B
 70
     0
  3
 - - - - -
 72
    65
 73
     2
 40
1.0
 49
0.5
 49
-0.5
  0
LTYPE
  2
GEN7A
 70
     0
  3
__ . __ . __
 72
    65
 73
     4
 40
7.375
 49
4.75
 49
-0.875
 49
0.875
 49
-0.875
  0
LTYPE
  2
ACJISTGB
 70
     0
  3
__ . . __ . .
 72
    65
 73
     6
 40
9.0
 49
4.0
 49
-1.0
 49
1.0
 49
-1.0
 49
1.0
 49
-1.0
  0
LTYPE
  2
ACJISTGL
 70
     0
  3
_ _ _ _ _
 72
    65
 73
     2
 40
3.0
 49
2.0
 49
-1.0
  0
LTYPE
  2
GEN7
 70
     0
  3
____ . ____ . ____ . ____ . ____ . ____ . ____
 72
    65
 73
     4
 40
14.25
 49
9.75
 49
-1.5
 49
1.5
 49
-1.5
  0
LTYPE
  2
CENTER2
 70
     0
  3
Center (.5x) ___ _ ___ _ ___ _ ___ _ ___ _ ___
 72
    65
 73
     4
 40
1.125
 49
0.75
 49
-0.125
 49
0.125
 49
-0.125
  0
LTYPE
  2
HIDDEN2
 70
     0
  3
Hidden (.5x) _ _ _ _ _ _ _ _ _ _ _ _ _ _ _ _ _
 72
    65
 73
     2
 40
0.1875
 49
0.125
 49
-0.0625
  0
LTYPE
  2
AMZIGZAG2
 70
     0
  3
/\/-/\/-/\/-/\/-/\/-/\/
 72
    65
 73
     2
 40
0.4401
 49
0.0001
 49
-0.4400000000000001
  0
LTYPE
  2
ACANSTGB
 70
     0
  3
__ . . __ . .
 72
    65
 73
     6
 40
0.35433070866
 49
0.15748031496
 49
-0.03937007874
 49
0.03937007874
 49
-0.03937007874
 49
0.03937007874
 49
-0.03937007874
  0
LTYPE
  2
ACANSTGL
 70
     0
  3
_ _ _ _ _
 72
    65
 73
     2
 40
0.11811023622
 49
0.07874015748
 49
-0.03937007874
  0
ENDTAB
  0
TABLE
  2
LAYER
 70
     7
  0
LAYER
  2
0
 70
     0
 62
     7
  6
CONTINUOUS
  0
LAYER
  2
AM_0
 70
     0
 62
     7
  6
CONTINUOUS
  0
LAYER
  2
DEFPOINTS
 70
     0
 62
     7
  6
CONTINUOUS
  0
LAYER
  2
ｶｸﾚｾﾝ2
 70
     0
 62
     3
  6
GEN3B
  0
LAYER
  2
ﾁｭｳｼﾝｾﾝ1
 70
     0
 62
     1
  6
GEN7A
  0
LAYER
  2
AM_0N
 70
     0
 62
     7
  6
CONTINUOUS
  0
LAYER
  2
ﾁｭｳｼﾝｾﾝ
 70
     0
 62
     1
  6
GEN7
  0
ENDTAB
  0
TABLE
  2
STYLE
 70
    10
  0
STYLE
  2
STANDARD
 70
     0
 40
0.0
 41
0.8299999999999999
 50
0.0
 71
     0
 42
2.5
  3
txt.shx
  4
bigfont.shx
  0
STYLE
  2
ANNOTATIVE
 70
     0
 40
0.0
 41
1.0
 50
0.0
 71
     0
 42
0.2
  3
txt
  4

  0
STYLE
  2

 70
     1
 40
0.0
 41
1.0
 50
0.0
 71
     0
 42
2.5
  3
ltypeshp.shx
  4

  0
STYLE
  2
ACISOTS
 70
     0
 40
1.0
 41
1.0
 50
0.0
 71
     0
 42
2.5
  3
isocp.shx
  4
extfont.shx
  0
STYLE
  2
ACISOGDT
 70
     0
 40
0.0
 41
1.0
 50
0.0
 71
     0
 42
2.5
  3
amgdt.shx
  4

  0
STYLE
  2
ACANSTS
 70
     0
 40
1.0
 41
1.0
 50
0.0
 71
     0
 42
2.5
  3
romans.shx
  4
bigfont.shx
  0
STYLE
  2
ACANSGDT
 70
     0
 40
0.0
 41
1.0
 50
0.0
 71
     0
 42
2.5
  3
amgdt.shx
  4

  0
STYLE
  2
ACJISTS
 70
     0
 40
1.0
 41
1.0
 50
0.0
 71
     0
 42
2.5
  3
isocp.shx
  4
bigfont.shx
  0
STYLE
  2
ACJISGDT
 70
     0
 40
0.0
 41
1.0
 50
0.0
 71
     0
 42
2.5
  3
amgdt.shx
  4

  0
STYLE
  2

 70
     1
 40
0.0
 41
1.0
 50
0.0
 71
     0
 42
2.5
  3
genltshp.shx
  4

  0
ENDTAB
  0
TABLE
  2
VIEW
 70
     6
  0
VIEW
  2
AM_VIEW1
 70
     0
 40
277.50000000000011
 10
249.64779005524869
 20
416.25
 41
499.29558011049721
 11
0.0
 21
0.0
 31
1.0
 12
0.0
 22
0.0
 32
0.0
 42
50.0
 43
0.0
 44
0.0
 50
0.0
 71
     0
  0
VIEW
  2
AM_VIEW2
 70
     0
 40
277.50000000000011
 10
603.85220994475117
 20
416.25
 41
499.29558011049721
 11
0.0
 21
0.0
 31
1.0
 12
0.0
 22
0.0
 32
0.0
 42
50.0
 43
0.0
 44
0.0
 50
0.0
 71
     0
  0
VIEW
  2
AM_VIEW3
 70
     0
 40
277.50000000000011
 10
249.64779005524869
 20
138.75
 41
499.29558011049721
 11
0.0
 21
0.0
 31
1.0
 12
0.0
 22
0.0
 32
0.0
 42
50.0
 43
0.0
 44
0.0
 50
0.0
 71
     0
  0
VIEW
  2
AM_VIEW4
 70
     0
 40
277.50000000000011
 10
603.85220994475117
 20
138.75
 41
499.29558011049721
 11
0.0
 21
0.0
 31
1.0
 12
0.0
 22
0.0
 32
0.0
 42
50.0
 43
0.0
 44
0.0
 50
0.0
 71
     0
  0
VIEW
  2
AM_VIEW5
 70
     0
 40
277.50000000000011
 10
426.75
 20
277.50000000000011
 41
499.2955801104971
 11
0.0
 21
0.0
 31
1.0
 12
0.0
 22
0.0
 32
0.0
 42
50.0
 43
0.0
 44
0.0
 50
0.0
 71
     0
  0
VIEW
  2
AM_VIEW6
 70
     0
 40
554.99445000000014
 10
426.75
 20
277.5
 41
998.5811743093924
 11
0.0
 21
0.0
 31
1.0
 12
0.0
 22
0.0
 32
0.0
 42
50.0
 43
0.0
 44
0.0
 50
0.0
 71
     0
  0
ENDTAB
  0
TABLE
  2
UCS
 70
     0
  0
ENDTAB
  0
TABLE
  2
APPID
 70
   101
  0
APPID
  2
ACAD
 70
     0
  0
APPID
  2
ACADANNOTATIVE
 70
     0
  0
APPID
  2
MCAD_NO_VIS
 70
     0
  0
APPID
  2
ACAD_TEMP_GRAPHIC
 70
     0
  0
APPID
  2
ACATTRIBSERVICES
 70
     0
  0
APPID
  2
GENIUS_GENREC_14
 70
     0
  0
APPID
  2
GENIUS_GENOBJ-N-REC_13
 70
     0
  0
APPID
  2
GENIUS_GENODEF_13
 70
     0
  0
APPID
  2
GENIUS_GENOLIS_13
 70
     0
  0
APPID
  2
GENIUS_GENOBJ-N-TIT_13
 70
     0
  0
APPID
  2
GENIUS_GENOENT_13
 70
     0
  0
APPID
  2
GENIUS_GENTITLE_13
 70
     0
  0
APPID
  2
GENIUS_GENOREF_13
 70
     0
  0
APPID
  2
GENIUS_GENSCREG_15
 70
     0
  0
APPID
  2
GENIUS_GENOBJ-N-SDF_13
 70
     0
  0
APPID
  2
GENIUS_GENFIL_13
 70
     0
  0
APPID
  2
GENIUS_GENOBJ-N-CHA_13
 70
     0
  0
APPID
  2
GENIUS_GENDTOL_13
 70
     0
  0
APPID
  2
GENIUS_GENOBJ-N-FIL_13
 70
     0
  0
APPID
  2
AD_DRAW
 70
     0
  0
APPID
  2
DESIGNERASSEMBLIES
 70
     0
  0
APPID
  2
ASURF_PCURVE_APPNAME
 70
     0
  0
APPID
  2
GENIUS_GE3SECT_13
 70
     0
  0
APPID
  2
GENIUS_GENCFG_13
 70
     0
  0
APPID
  2
GENIUS_GE3CFG0_13
 70
     0
  0
APPID
  2
GENIUS_GENCFG0_13
 70
     0
  0
APPID
  2
GENIUS_GENCFG1_13
 70
     0
  0
APPID
  2
GENIUS_GENCFG2_13
 70
     0
  0
APPID
  2
GENIUS_GENCFG3_13
 70
     0
  0
APPID
  2
GENIUS_GENCFG4_13
 70
     0
  0
APPID
  2
GENIUS_GEVCFG0_13
 70
     0
  0
APPID
  2
GENIUS_GENHINW_13
 70
     0
  0
APPID
  2
GENIUS_FIRSTVISTXT_14
 70
     0
  0
APPID
  2
GENIUS_GENOBJ-N-LEADER_13
 70
     0
  0
APPID
  2
GEV_VCCNULL_SWITCH_OFF
 70
     0
  0
APPID
  2
GENIUS_GEFCFG0_13
 70
     0
  0
APPID
  2
GENIUS_GENZVEED_13
 70
     0
  0
APPID
  2
GENIUS_GENSCREG_13
 70
     0
  0
APPID
  2
GENIUS_DUMCFG0_13
 70
     0
  0
APPID
  2
GEVID936201362
 70
     0
  0
APPID
  2
GEVDC
 70
     0
  0
APPID
  2
GEVCON
 70
     0
  0
APPID
  2
VCC
 70
     0
  0
APPID
  2
GEVPT
 70
     0
  0
APPID
  2
GEVIT
 70
     0
  0
APPID
  2
GENBH
 70
     0
  0
APPID
  2
GEVMK
 70
     0
  0
APPID
  2
GENIUS_GENBH_13
 70
     0
  0
APPID
  2
GENIUS_GENOBJ-NBEHI-BHF_13
 70
     0
  0
APPID
  2
GENIUS_GENOBJ-NBEHI-BHB_13
 70
     0
  0
APPID
  2
GENIUS_GENOBJ-F-DESC_13
 70
     0
  0
APPID
  2
GENIUS_GEFDESC_14
 70
     0
  0
APPID
  2
GENIUS_GENOBJ-F-PART_13
 70
     0
  0
APPID
  2
GENIUS_GEFSTDP_13
 70
     0
  0
APPID
  2
GENIUS_GEFPARTINS_13
 70
     0
  0
APPID
  2
GENIUS_GENTRA_14
 70
     0
  0
APPID
  2
GENIUS_GENINF13_13
 70
     0
  0
APPID
  2
GENIUS_GENOBJ-N-INFOPT_13
 70
     0
  0
APPID
  2
GENIUS_GENOBJ-N-RSSYM_13
 70
     0
  0
APPID
  2
GENIUS_GENSYMENT_13
 70
     0
  0
APPID
  2
GENIUS_GENSCSYM_13
 70
     0
  0
APPID
  2
GENIUS_GEFINFNAM_13
 70
     0
  0
APPID
  2
GENIUS_GENOBJ-N-CEN_13
 70
     0
  0
APPID
  2
GENIUS_GENOBJ-N-CRS_13
 70
     0
  0
APPID
  2
GENIUS_GENOBJ-N-CRC_13
 70
     0
  0
APPID
  2
GENIUS_GENCRC_14
 70
     0
  0
APPID
  2
GEVID942827039
 70
     0
  0
APPID
  2
GEVID942827040
 70
     0
  0
APPID
  2
GEVID942827041
 70
     0
  0
APPID
  2
GENIUS_GENOBJ-F-SCPASSM_13
 70
     0
  0
APPID
  2
GENIUS_GENDIMSH_14
 70
     0
  0
APPID
  2
GEVID942827042
 70
     0
  0
APPID
  2
GEVID946020473
 70
     0
  0
APPID
  2
GEVID946020474
 70
     0
  0
APPID
  2
GEVID946020475
 70
     0
  0
APPID
  2
GENIUS_GENOBJ-N-HTC_13
 70
     0
  0
APPID
  2
GENIUS_GENHATCH_13
 70
     0
  0
APPID
  2
GEVID948854295
 70
     0
  0
APPID
  2
GEVID939402019
 70
     0
  0
APPID
  2
GEVID952919491
 70
     0
  0
APPID
  2
GEVID952919492
 70
     0
  0
APPID
  2
GENIUS_GEFWELD_13
 70
     0
  0
APPID
  2
GENIUS_GENOBJ-F-WELS_13
 70
     0
  0
APPID
  2
GEVID952919493
 70
     0
  0
APPID
  2
GENIUS_GENOBJ-N-RSBK_13
 70
     0
  0
APPID
  2
GENIUS_GENOBJ-N-LIB_13
 70
     0
  0
APPID
  2
GENIUS_GENSCALE_13
 70
     0
  0
APPID
  2
GEVID986376691
 70
     0
  0
APPID
  2
DCO15
 70
     0
  0
APPID
  2
GEVID988070561
 70
     0
  0
APPID
  2
GEVID988070562
 70
     0
  0
APPID
  2
GEVID988070563
 70
     0
  0
APPID
  2
ACADM_DIM_EDIT
 70
     0
  0
APPID
  2
AMDT_DM_ADJ
 70
     0
  0
APPID
  2
ACAD_PSEXT
 70
     0
  0
APPID
  2
ACAD_DSTYLE_DIMJAG
 70
     0
  0
APPID
  2
ACAD_DSTYLE_DIMBREAK
 70
     0
  0
APPID
  2
ACAD_NAV_VCDISPLAY
 70
     0
  0
APPID
  2
ACADANNOPO
 70
     0
  0
APPID
  2
ACAD_EXEMPT_FROM_CAD_STANDARDS
 70
     0
  0
APPID
  2
ACAD_MLEADERVER
 70
     0
  0
ENDTAB
  0
TABLE
  2
DIMSTYLE
 70
    23
  0
DIMSTYLE
  2
STANDARD
 70
     0
  3

  4

  5

  6

  7

 40
1.0
 41
0.18
 42
0.0625
 43
0.38
 44
0.18
 45
0.0
 46
0.0
 47
0.0
 48
0.0
140
0.18
141
0.09
142
0.0
143
25.399999999999999
144
1.0
145
0.0
146
1.0
147
0.09
 71
     0
 72
     0
 73
     1
 74
     1
 75
     0
 76
     0
 77
     0
 78
     0
170
     0
171
     2
172
     0
173
     0
174
     0
175
     0
176
     0
177
     0
178
     0
  0
DIMSTYLE
  2
ANNOTATIVE
 70
     0
  3

  4

  5

  6

  7

 40
1.0
 41
0.18
 42
0.0625
 43
0.38
 44
0.18
 45
0.0
 46
0.0
 47
0.0
 48
0.0
140
0.18
141
0.09
142
0.0
143
25.399999999999999
144
1.0
145
0.0
146
1.0
147
0.09
 71
     0
 72
     0
 73
     1
 74
     1
 75
     0
 76
     0
 77
     0
 78
     0
170
     0
171
     2
172
     0
173
     0
174
     0
175
     0
176
     0
177
     0
178
     0
  0
DIMSTYLE
  2
AM_ISO
 70
     0
  3

  4
"
  5

  6

  7

 40
1.0
 41
2.5
 42
1.0
 43
8.0
 44
0.6
 45
0.0
 46
0.0
 47
0.1
 48
0.1
140
2.5
141
0.0
142
0.0
143
0.0393701
144
1.0
145
0.0
146
0.71
147
0.8
 71
     0
 72
     0
 73
     0
 74
     0
 75
     0
 76
     0
 77
     1
 78
     8
170
     0
171
     2
172
     1
173
     0
174
     0
175
     0
176
   256
177
   256
178
     4
  0
DIMSTYLE
  2
AM_ISO$3
 70
     0
  3

  4
"
  5

  6

  7

 40
1.0
 41
2.5
 42
1.0
 43
8.0
 44
0.6
 45
0.0
 46
0.0
 47
0.1
 48
0.1
140
2.5
141
0.0
142
0.0
143
0.0393701
144
1.0
145
0.0
146
0.71
147
0.8
 71
     0
 72
     0
 73
     0
 74
     1
 75
     0
 76
     0
 77
     1
 78
     8
170
     0
171
     2
172
     0
173
     0
174
     0
175
     0
176
   256
177
   256
178
     4
  0
DIMSTYLE
  2
AM_ISO$4
 70
     0
  3

  4
"
  5

  6

  7

 40
1.0
 41
2.5
 42
1.0
 43
8.0
 44
0.6
 45
0.0
 46
0.0
 47
0.1
 48
0.1
140
2.5
141
0.0
142
0.0
143
0.0393701
144
1.0
145
0.0
146
0.71
147
0.8
 71
     0
 72
     0
 73
     0
 74
     1
 75
     0
 76
     0
 77
     1
 78
     8
170
     0
171
     2
172
     0
173
     0
174
     0
175
     0
176
   256
177
   256
178
     4
  0
DIMSTYLE
  2
AM_ISO$6
 70
     0
  3

  4
"
  5

  6

  7

 40
1.0
 41
2.5
 42
1.0
 43
8.0
 44
0.6
 45
0.0
 46
0.0
 47
0.1
 48
0.1
140
2.5
141
0.0
142
0.0
143
0.0393701
144
1.0
145
0.0
146
0.71
147
0.8
 71
     0
 72
     0
 73
     0
 74
     0
 75
     0
 76
     0
 77
     0
 78
     8
170
     0
171
     2
172
     1
173
     0
174
     0
175
     0
176
   256
177
   256
178
     4
  0
DIMSTYLE
  2
AM_ISO$7
 70
     0
  3

  4
"
  5

  6

  7

 40
1.0
 41
2.5
 42
1.0
 43
8.0
 44
0.6
 45
0.0
 46
0.0
 47
0.1
 48
0.1
140
2.5
141
0.0
142
0.0
143
0.0393701
144
1.0
145
0.0
146
0.71
147
0.8
 71
     0
 72
     0
 73
     0
 74
     0
 75
     0
 76
     0
 77
     1
 78
     8
170
     0
171
     2
172
     1
173
     0
174
     0
175
     0
176
   256
177
   256
178
     4
  0
DIMSTYLE
  2
AM_ISO$SF
 70
     0
  3

  4
"
  5

  6

  7

 40
1.0
 41
2.5
 42
1.0
 43
10.0
 44
1.0
 45
0.0
 46
0.0
 47
0.1
 48
0.1
140
3.5
141
0.0
142
0.0
143
0.0393701
144
1.0
145
0.0
146
0.71
147
1.5
 71
     0
 72
     0
 73
     0
 74
     0
 75
     1
 76
     1
 77
     1
 78
     8
170
     0
171
     2
172
     1
173
     0
174
     0
175
     0
176
   256
177
   256
178
     2
  0
DIMSTYLE
  2
AM_ISO$SH
 70
     0
  3

  4
"
  5

  6

  7

 40
1.0
 41
2.5
 42
1.0
 43
10.0
 44
1.0
 45
0.0
 46
0.0
 47
0.1
 48
0.1
140
3.5
141
0.0
142
0.0
143
0.0393701
144
2.0
145
0.0
146
0.71
147
1.5
 71
     0
 72
     0
 73
     0
 74
     0
 75
     1
 76
     1
 77
     1
 78
     8
170
     0
171
     2
172
     1
173
     1
174
     0
175
     0
176
   256
177
   256
178
     2
  0
DIMSTYLE
  2
AM_JIS
 70
     0
  3

  4
"
  5

  6

  7

 40
1.0
 41
2.5
 42
1.0
 43
7.0
 44
1.0
 45
0.0
 46
0.0
 47
0.1
 48
0.1000000001
140
2.5
141
0.0
142
0.0
143
0.0393701
144
1.0
145
0.0
146
0.71
147
1.0
 71
     0
 72
     0
 73
     0
 74
     0
 75
     0
 76
     0
 77
     3
 78
     8
170
     0
171
     2
172
     1
173
     0
174
     0
175
     0
176
   256
177
   256
178
     4
  0
DIMSTYLE
  2
AM_JIS$3
 70
     0
  3

  4
"
  5

  6

  7

 40
1.0
 41
2.5
 42
1.0
 43
7.0
 44
1.0
 45
0.0
 46
0.0
 47
0.1
 48
0.1000000001
140
2.5
141
0.0
142
0.0
143
0.0393701
144
1.0
145
0.0
146
0.71
147
1.0
 71
     0
 72
     0
 73
     0
 74
     1
 75
     0
 76
     0
 77
     3
 78
     8
170
     0
171
     2
172
     0
173
     0
174
     0
175
     0
176
   256
177
   256
178
     4
  0
DIMSTYLE
  2
AM_JIS$4
 70
     0
  3

  4
"
  5

  6

  7

 40
1.0
 41
2.5
 42
1.0
 43
7.0
 44
1.0
 45
0.0
 46
0.0
 47
0.1
 48
0.1000000001
140
2.5
141
0.0
142
0.0
143
0.0393701
144
1.0
145
0.0
146
0.71
147
1.0
 71
     0
 72
     0
 73
     0
 74
     0
 75
     0
 76
     0
 77
     3
 78
     8
170
     0
171
     2
172
     0
173
     0
174
     0
175
     0
176
   256
177
   256
178
     4
  0
DIMSTYLE
  2
AM_JIS$6
 70
     0
  3

  4
"
  5

  6

  7

 40
1.0
 41
2.5
 42
1.0
 43
7.0
 44
1.0
 45
0.0
 46
0.0
 47
0.1
 48
0.1000000001
140
2.5
141
0.0
142
0.0
143
0.0393701
144
1.0
145
0.0
146
0.71
147
1.0
 71
     0
 72
     0
 73
     0
 74
     0
 75
     0
 76
     0
 77
     0
 78
     8
170
     0
171
     2
172
     1
173
     0
174
     0
175
     0
176
   256
177
   256
178
     4
  0
DIMSTYLE
  2
AM_JIS$7
 70
     0
  3

  4
"
  5

  6

  7

 40
1.0
 41
2.5
 42
1.0
 43
7.0
 44
1.0
 45
0.0
 46
0.0
 47
0.1
 48
0.1000000001
140
2.5
141
0.0
142
0.0
143
0.0393701
144
1.0
145
0.0
146
0.71
147
1.0
 71
     0
 72
     0
 73
     0
 74
     0
 75
     0
 76
     0
 77
     3
 78
     8
170
     0
171
     2
172
     1
173
     0
174
     0
175
     0
176
   256
177
   256
178
     4
  0
DIMSTYLE
  2
AM_JIS$SF
 70
     0
  3

  4
"
  5

  6

  7

 40
1.0
 41
2.5
 42
1.0
 43
10.0
 44
1.0
 45
0.0
 46
0.0
 47
0.1
 48
0.1
140
3.5
141
0.0
142
0.0
143
0.0393701
144
1.0
145
0.0
146
0.71
147
1.5
 71
     0
 72
     0
 73
     0
 74
     0
 75
     1
 76
     1
 77
     3
 78
     8
170
     0
171
     2
172
     1
173
     0
174
     0
175
     0
176
   256
177
   256
178
     4
  0
DIMSTYLE
  2
AM_JIS$SH
 70
     0
  3

  4
"
  5

  6

  7

 40
1.0
 41
2.5
 42
1.0
 43
10.0
 44
1.0
 45
0.0
 46
0.0
 47
0.1
 48
0.1
140
3.5
141
0.0
142
0.0
143
0.0393701
144
1.0
145
0.0
146
0.71
147
1.5
 71
     0
 72
     0
 73
     0
 74
     0
 75
     1
 76
     0
 77
     3
 78
     8
170
     0
171
     2
172
     1
173
     1
174
     0
175
     0
176
   256
177
   256
178
     4
  0
DIMSTYLE
  2
AM_ISO$0
 70
     0
  3

  4
"
  5

  6

  7

 40
1.0
 41
2.5
 42
1.0
 43
8.0
 44
0.6
 45
0.0
 46
0.0
 47
0.1
 48
0.1
140
2.5
141
0.0
142
0.0
143
0.0393701
144
1.0
145
0.0
146
0.71
147
0.8
 71
     0
 72
     0
 73
     0
 74
     0
 75
     0
 76
     0
 77
     1
 78
     8
170
     0
171
     2
172
     1
173
     0
174
     0
175
     0
176
   256
177
   256
178
     4
  0
DIMSTYLE
  2
AM_ANSI
 70
     0
  3

  4
mm
  5

  6

  7

 40
1.0
 41
0.12
 42
0.05
 43
0.5
 44
0.1
 45
0.0
 46
0.0
 47
0.1
 48
0.1
140
0.12
141
0.0
142
0.0
143
25.399999999999999
144
1.0
145
0.0
146
0.71
147
0.06
 71
     0
 72
     0
 73
     1
 74
     1
 75
     0
 76
     0
 77
     0
 78
     7
170
     0
171
     2
172
     0
173
     0
174
     0
175
     0
176
   256
177
   256
178
     2
  0
DIMSTYLE
  2
AM_ANSI$3
 70
     0
  3

  4
mm
  5

  6

  7

 40
1.0
 41
0.12
 42
0.05
 43
0.5
 44
0.1
 45
0.0
 46
0.0
 47
0.1
 48
0.1
140
0.12
141
0.0
142
0.0
143
25.399999999999999
144
1.0
145
0.0
146
0.71
147
0.06
 71
     0
 72
     0
 73
     1
 74
     1
 75
     0
 76
     0
 77
     0
 78
     7
170
     0
171
     2
172
     0
173
     0
174
     0
175
     0
176
   256
177
   256
178
     2
  0
DIMSTYLE
  2
AM_ANSI$4
 70
     0
  3

  4
mm
  5

  6

  7

 40
1.0
 41
0.12
 42
0.05
 43
0.5
 44
0.1
 45
0.0
 46
0.0
 47
0.1
 48
0.1
140
0.12
141
0.0
142
0.0
143
25.399999999999999
144
1.0
145
0.0
146
0.71
147
0.06
 71
     0
 72
     0
 73
     1
 74
     1
 75
     0
 76
     0
 77
     0
 78
     7
170
     0
171
     2
172
     0
173
     0
174
     0
175
     0
176
   256
177
   256
178
     2
  0
DIMSTYLE
  2
AM_ANSI$7
 70
     0
  3

  4
mm
  5

  6

  7

 40
1.0
 41
0.12
 42
0.05
 43
0.5
 44
0.1
 45
0.0
 46
0.0
 47
0.1
 48
0.1
140
0.12
141
0.0
142
0.0
143
25.399999999999999
144
1.0
145
0.0
146
0.71
147
0.06
 71
     0
 72
     0
 73
     1
 74
     1
 75
     0
 76
     0
 77
     0
 78
     7
170
     0
171
     2
172
     0
173
     0
174
     0
175
     0
176
   256
177
   256
178
     2
  0
DIMSTYLE
  2
AM_ANSI$SF
 70
     0
  3

  4
mm
  5

  6

  7

 40
1.0
 41
0.12
 42
0.05
 43
0.5
 44
0.1
 45
0.0
 46
0.0
 47
0.1
 48
0.1
140
0.12
141
0.0
142
0.0
143
25.399999999999999
144
1.0
145
0.0
146
0.71
147
0.06
 71
     0
 72
     0
 73
     1
 74
     1
 75
     1
 76
     1
 77
     0
 78
     7
170
     0
171
     2
172
     0
173
     0
174
     0
175
     0
176
   256
177
   256
178
     2
  0
DIMSTYLE
  2
AM_ANSI$SH
 70
     0
  3

  4
mm
  5

  6
GENAXEH
  7

 40
1.0
 41
0.12
 42
0.05
 43
0.5
 44
0.1
 45
0.0
 46
0.0
 47
0.1
 48
0.1
140
0.12
141
0.0
142
0.0
143
25.399999999999999
144
1.0
145
0.0
146
0.71
147
0.06
 71
     0
 72
     0
 73
     1
 74
     1
 75
     1
 76
     1
 77
     0
 78
     7
170
     0
171
     2
172
     0
173
     1
174
     0
175
     0
176
   256
177
   256
178
     2
  0
ENDTAB
  0
ENDSEC
  0
SECTION
  2
BLOCKS
  0
BLOCK
  8
0
  2
$MODEL_SPACE
 70
     0
 10
0.0
 20
0.0
 30
0.0
  3
$MODEL_SPACE
  1

  0
ENDBLK
  5
6BAE
  8
0
  0
BLOCK
 67
     1
  8
0
  2
$PAPER_SPACE
 70
     0
 10
0.0
 20
0.0
 30
0.0
  3
$PAPER_SPACE
  1

  0
ENDBLK
  5
6BAA
 67
     1
  8
0
  0
BLOCK
  8
0
  2
GENAXEH
 70
     0
 10
0.0
 20
0.0
 30
0.0
  3
GENAXEH
  1

  0
LINE
  5
73
  8
0
 10
-1.0
 20
0.0
 30
0.0
 11
1.0
 21
0.0
 31
0.0
  0
ENDBLK
  5
75
  8
0
  0
BLOCK
  8
0
  2
_OPEN30
 70
     0
 10
0.0
 20
0.0
 30
0.0
  3
_OPEN30
  1

  0
LINE
  5
31A
  8
0
 62
     0
 10
-1.0
 20
0.26794919
 30
0.0
 11
0.0
 21
0.0
 31
0.0
  0
LINE
  5
31B
  8
0
 62
     0
 10
0.0
 20
0.0
 30
0.0
 11
-1.0
 21
-0.26794919
 31
0.0
  0
LINE
  5
31C
  8
0
 62
     0
 10
0.0
 20
0.0
 30
0.0
 11
-1.0
 21
0.0
 31
0.0
  0
ENDBLK
  5
31E
  8
0
  0
BLOCK
  8
0
  2
_NONE
 70
     0
 10
0.0
 20
0.0
 30
0.0
  3
_NONE
  1

  0
ENDBLK
  5
579
  8
0
  0
BLOCK
  8
0
  2
*U5
 70
     1
 10
0.0
 20
0.0
 30
0.0
  3
*U5
  1

  0
TEXT
  5
6AB9
  8
AM_0
 10
559.40107902491263
 20
547.09825446910372
 30
0.0
 40
10.0
  1
ＶＸ０２－０４０～０６０ＢＷ
 41
0.8299999999999999
  0
ENDBLK
  5
6ABB
  8
0
  0
BLOCK
  8
0
  2
_ACMFILLEDHALF
 70
     0
 10
0.0
 20
0.0
 30
0.0
  3
_ACMFILLEDHALF
  1

  0
TRACE
  5
6CB1
  8
AM_0
 62
     0
 10
-0.8
 20
0.0
 30
0.0
 11
-1.0
 21
0.166666666
 31
0.0
 12
0.0
 22
0.0
 32
0.0
 13
0.0
 23
0.0
 33
0.0
  0
LINE
  5
6CB2
  8
AM_0
 62
     0
 10
-1.0
 20
0.0
 30
0.0
 11
-0.8
 21
0.0
 31
0.0
  0
ENDBLK
  5
6CB0
  8
0
  0
ENDSEC
  0
SECTION
  2
ENTITIES
  0
LINE
  5
6335
  8
AM_0
 10
576.52681231525003
 20
297.54234590086168
 30
0.0
 11
576.52681231525003
 21
298.73580262320462
 31
0.0
  0
LINE
  5
6336
  8
AM_0
 10
575.52681231525003
 20
298.73580262320462
 30
0.0
 11
576.52681231525003
 21
298.73580262320462
 31
0.0
  0
LINE
  5
6337
  8
AM_0
 10
537.52681231524991
 20
219.23580262320459
 30
0.0
 11
568.42372980731955
 21
220.3147467569506
 31
0.0
  0
LINE
  5
6338
  8
AM_0
 10
575.5268123152498
 20
288.01170135067503
 30
0.0
 11
575.52681231525003
 21
307.97743583290412
 31
0.0
  0
LINE
  5
6339
  8
AM_0
 10
573.59661130865481
 20
309.97621748694218
 30
0.0
 11
537.52681231525003
 21
311.23580262320468
 31
0.0
  0
ARC
  5
633A
  8
AM_0
 10
573.52681231525014
 20
307.97743583290412
 30
0.0
 40
2.0
 50
0.0
 51
88.000000000002842
1001
GENIUS_GENOBJ-N-FIL_13
1002
{
1000
OWNER
1000
GEN
1002
}
1001
GENIUS_GENODEF_13
1002
{
1000
HIER
1070
     0
1002
}
1002
{
1000
MANEDIT
1070
     0
1002
}
1002
{
1000
NOSEL
1070
     0
1002
}
1002
{
1000
BEHIND
1070
     0
1002
}
1002
{
1000
OTHER
1070
     0
1002
}
1002
{
1000
REACTOR
1002
}
  0
LINE
  5
633B
  8
AM_0
 10
537.52681231525003
 20
311.23580262320468
 30
0.0
 11
537.52681231524991
 21
219.23580262320431
 31
0.0
  0
LINE
  5
633C
  8
ﾁｭｳｼﾝｾﾝ1
 10
526.52681231524991
 20
224.23580262320519
 30
0.0
 11
542.35433532778654
 21
224.2358026232051
 31
0.0
  0
LINE
  5
633D
  8
AM_0
 10
533.52681231525003
 20
311.23580262320468
 30
0.0
 11
533.52681231525003
 21
290.42129772367218
 31
0.0
  0
LINE
  5
633E
  8
AM_0
 10
533.5268123152498
 20
240.05030752273689
 30
0.0
 11
533.5268123152498
 21
219.2358026232053
 31
0.0
  0
LINE
  5
633F
  8
AM_0
 10
529.52681231525003
 20
305.100020954044
 30
0.0
 11
529.5268123152498
 21
225.3715842923651
 31
0.0
  0
LINE
  5
6340
  8
AM_0
 10
531.46787480312196
 20
228.14315759551161
 30
0.0
 11
532.52681231524991
 21
228.2358026232051
 31
0.0
  0
LINE
  5
6341
  8
AM_0
 10
531.46787480312196
 20
220.32844765089871
 30
0.0
 11
532.52681231524991
 21
220.2358026232051
 31
0.0
  0
ARC
  5
6342
  8
AM_0
 10
535.92681231525012
 20
224.2358026232051
 30
0.0
 40
6.5
 50
151.82726586813479
 51
208.1727341318651
  0
ARC
  5
6343
  8
AM_0
 10
531.60732399151846
 20
221.92235916784551
 30
0.0
 40
1.6000000000000001
 50
208.1727341318651
 51
265.00000000000028
  0
LINE
  5
6344
  8
AM_0
 10
529.84733865382157
 20
226.53580262320509
 30
0.0
 11
532.13689833261719
 21
224.2358026232051
 31
0.0
  0
LINE
  5
6345
  8
AM_0
 10
531.82681231524975
 20
224.54730262320521
 30
0.0
 11
531.82681231524975
 21
223.92430262320511
 31
0.0
  0
LINE
  5
6346
  8
AM_0
 10
529.84733865382157
 20
221.93580262320521
 30
0.0
 11
532.13689833261719
 21
224.2358026232051
 31
0.0
  0
LINE
  5
6347
  8
AM_0
 10
529.43428062491512
 20
224.54730262320521
 30
0.0
 11
531.82681231524975
 21
224.54730262320521
 31
0.0
  0
LINE
  5
6348
  8
AM_0
 10
529.43428062491512
 20
223.92430262320511
 30
0.0
 11
531.82681231524975
 21
223.92430262320511
 31
0.0
  0
ARC
  5
6349
  8
AM_0
 10
531.60732399151846
 20
226.54924607856481
 30
0.0
 40
1.6000000000000001
 50
94.99999999999973
 51
151.82726586813479
  0
LINE
  5
634A
  8
AM_0
 10
533.52681231525003
 20
311.23580262320468
 30
0.0
 11
537.52681231525003
 21
311.23580262320468
 31
0.0
  0
LINE
  5
634B
  8
AM_0
 10
532.5268123152498
 20
310.23580262320451
 30
0.0
 11
533.52681231525014
 21
311.23580262320468
 31
0.0
  0
LINE
  5
634C
  8
AM_0
 10
537.52681231524991
 20
219.23580262320431
 30
0.0
 11
533.5268123152498
 21
219.2358026232053
 31
0.0
  0
LINE
  5
634D
  8
AM_0N
 10
533.5268123152498
 20
228.0358026232052
 30
0.0
 11
532.52681231524991
 21
228.0358026232052
 31
0.0
  0
LINE
  5
634E
  8
AM_0N
 10
532.52681231524991
 20
224.43580262320521
 30
0.0
 11
533.5268123152498
 21
224.79977285747131
 31
0.0
  0
LINE
  5
634F
  8
AM_0N
 10
532.52681231524991
 20
224.0358026232052
 30
0.0
 11
533.5268123152498
 21
224.39977285747139
 31
0.0
  0
LINE
  5
6350
  8
AM_0N
 10
532.52681231524991
 20
220.2358026232051
 30
0.0
 11
532.52681231524991
 21
228.2358026232051
 31
0.0
  0
LINE
  5
6351
  8
AM_0N
 10
532.52681231524991
 20
220.43580262320521
 30
0.0
 11
533.5268123152498
 21
220.43580262320521
 31
0.0
  0
LINE
  5
6352
  8
AM_0
 10
529.5268123152498
 20
240.0503075227368
 30
0.0
 11
533.5268123152498
 21
240.05030752273689
 31
0.0
  0
LINE
  5
6353
  8
AM_0
 10
533.5268123152498
 20
238.3934532732444
 30
0.0
 11
529.5268123152498
 21
240.0503075227368
 31
0.0
  0
LINE
  5
6354
  8
AM_0
 10
529.52681231525003
 20
290.42129772367218
 30
0.0
 11
533.52681231525003
 21
290.42129772367218
 31
0.0
  0
LINE
  5
6355
  8
AM_0
 10
533.52681231525003
 20
292.07815197316472
 30
0.0
 11
529.52681231525003
 21
290.42129772367218
 31
0.0
  0
LINE
  5
6356
  8
ﾁｭｳｼﾝｾﾝ1
 10
526.52681231525003
 20
306.23580262320388
 30
0.0
 11
542.35433532778654
 21
306.23580262320399
 31
0.0
  0
LINE
  5
6357
  8
AM_0
 10
531.46787480312196
 20
302.32844765089749
 30
0.0
 11
532.52681231524991
 21
302.23580262320399
 31
0.0
  0
LINE
  5
6358
  8
AM_0
 10
531.46787480312196
 20
310.14315759551039
 30
0.0
 11
532.52681231524991
 21
310.23580262320399
 31
0.0
  0
ARC
  5
6359
  8
AM_0
 10
535.92681231525012
 20
306.23580262320399
 30
0.0
 40
6.5
 50
151.82726586813479
 51
208.1727341318651
  0
ARC
  5
635A
  8
AM_0
 10
531.60732399151846
 20
308.54924607856378
 30
0.0
 40
1.6000000000000001
 50
94.99999999999973
 51
151.82726586813479
  0
LINE
  5
635B
  8
AM_0
 10
529.84733865382157
 20
303.93580262320398
 30
0.0
 11
532.13689833261719
 21
306.23580262320399
 31
0.0
  0
LINE
  5
635C
  8
AM_0
 10
531.82681231524975
 20
305.92430262320408
 30
0.0
 11
531.82681231524975
 21
306.54730262320402
 31
0.0
  0
LINE
  5
635D
  8
AM_0
 10
529.84733865382157
 20
308.53580262320389
 30
0.0
 11
532.13689833261719
 21
306.23580262320399
 31
0.0
  0
LINE
  5
635E
  8
AM_0
 10
529.43428062491512
 20
305.92430262320408
 30
0.0
 11
531.82681231524975
 21
305.92430262320408
 31
0.0
  0
LINE
  5
635F
  8
AM_0
 10
529.43428062491512
 20
306.54730262320402
 30
0.0
 11
531.82681231524975
 21
306.54730262320402
 31
0.0
  0
ARC
  5
6360
  8
AM_0
 10
531.60732399151846
 20
303.92235916784432
 30
0.0
 40
1.6000000000000001
 50
208.1727341318651
 51
265.00000000000028
  0
LINE
  5
6361
  8
AM_0N
 10
533.5268123152498
 20
302.43580262320393
 30
0.0
 11
532.52681231524991
 21
302.43580262320393
 31
0.0
  0
LINE
  5
6362
  8
AM_0N
 10
532.52681231524991
 20
306.03580262320401
 30
0.0
 11
533.5268123152498
 21
305.67183238893779
 31
0.0
  0
LINE
  5
6363
  8
AM_0N
 10
532.52681231524991
 20
306.43580262320393
 30
0.0
 11
533.5268123152498
 21
306.07183238893782
 31
0.0
  0
LINE
  5
6364
  8
AM_0N
 10
532.52681231524991
 20
310.23580262320399
 30
0.0
 11
532.52681231524991
 21
302.23580262320399
 31
0.0
  0
LINE
  5
6365
  8
AM_0N
 10
532.52681231524991
 20
310.03580262320401
 30
0.0
 11
533.5268123152498
 21
310.03580262320401
 31
0.0
  0
LINE
  5
6366
  8
ﾁｭｳｼﾝｾﾝ
 10
596.07110957195323
 20
285.23580362320462
 30
0.0
 11
692.98251505854648
 21
285.23580362320462
 31
0.0
  0
LINE
  5
6367
  8
AM_0
 10
405.90824676911978
 20
297.23578862320448
 30
0.0
 11
439.90829676911989
 21
297.23578862320448
 31
0.0
  0
LINE
  5
6368
  8
AM_0
 10
439.90829676911989
 20
300.23578862320448
 30
0.0
 11
439.90829676911989
 21
273.23580362320462
 31
0.0
  0
LINE
  5
6369
  8
AM_0
 10
405.90824676911978
 20
273.23580362320462
 30
0.0
 11
439.90829676911989
 21
273.23580362320462
 31
0.0
  0
LINE
  5
636A
  8
ﾁｭｳｼﾝｾﾝ
 10
446.88430380550682
 20
285.23580362320462
 30
0.0
 11
316.00757073958908
 21
285.23580362320462
 31
0.0
  0
LINE
  5
636B
  8
ﾁｭｳｼﾝｾﾝ
 10
644.52681231525003
 20
374.49593982654318
 30
0.0
 11
644.52681231525003
 21
186.0015306232045
 31
0.0
  0
LINE
  5
636C
  8
AM_0
 10
407.90825676912033
 20
300.23578862320448
 30
0.0
 11
407.90825676912033
 21
297.23578862320448
 31
0.0
  0
LINE
  5
636D
  8
AM_0
 10
586.96898331524994
 20
304.25569862320458
 30
0.0
 11
591.54938331525011
 21
307.77040862320462
 31
0.0
  0
LINE
  5
636E
  8
AM_0
 10
591.54938331525011
 20
307.77037862320452
 30
0.0
 11
590.79578331524999
 21
313.49449862320461
 31
0.0
  0
LINE
  5
636F
  8
AM_0
 10
590.79578331524999
 20
313.4944686232044
 30
0.0
 11
585.46178331524982
 21
315.7039086232046
 31
0.0
  0
LINE
  5
6370
  8
AM_0
 10
585.46181331524997
 20
315.7039086232046
 30
0.0
 11
580.88135331524995
 21
312.18922862320449
 31
0.0
  0
LINE
  5
6371
  8
AM_0
 10
580.88135331524995
 20
312.18922862320449
 30
0.0
 11
581.63492331525015
 21
306.46510862320451
 31
0.0
  0
LINE
  5
6372
  8
AM_0
 10
581.63492331525015
 20
306.46510862320451
 30
0.0
 11
586.96895331525025
 21
304.2556686232046
 31
0.0
  0
LINE
  5
6373
  8
AM_0
 10
697.50428931525005
 20
307.77028862320452
 30
0.0
 11
702.08471931524991
 21
304.25560862320452
 31
0.0
  0
LINE
  5
6374
  8
AM_0
 10
698.25786231524978
 20
313.49440862320461
 30
0.0
 11
697.50425931525024
 21
307.77028862320452
 31
0.0
  0
LINE
  5
6375
  8
AM_0
 10
703.59190731524995
 20
315.70384862320452
 30
0.0
 11
698.25787731524986
 21
313.49443862320447
 31
0.0
  0
LINE
  5
6376
  8
AM_0
 10
708.17233731525005
 20
312.1891386232046
 30
0.0
 11
703.59190731524995
 21
315.7038186232046
 31
0.0
  0
LINE
  5
6377
  8
AM_0
 10
702.08471931524991
 20
304.25563862320439
 30
0.0
 11
707.4187493152499
 21
306.46504862320461
 31
0.0
  0
LINE
  5
6378
  8
AM_0
 10
668.07364131525026
 20
200.84535962320459
 30
0.0
 11
667.3200563152501
 21
195.12125162320461
 31
0.0
  0
LINE
  5
6379
  8
AM_0
 10
667.32007131525006
 20
195.1212366232046
 30
0.0
 11
671.90049831524982
 21
191.6065596232045
 31
0.0
  0
LINE
  5
637A
  8
AM_0
 10
673.40770131525005
 20
203.05478462320451
 30
0.0
 11
668.07367131525007
 21
200.84535962320459
 31
0.0
  0
LINE
  5
637B
  8
AM_0
 10
677.98811631524995
 20
199.5400746232045
 30
0.0
 11
673.4076863152502
 21
203.05476962320461
 31
0.0
  0
LINE
  5
637C
  8
AM_0
 10
671.90049831524982
 20
191.60657462320441
 30
0.0
 11
677.23452831524992
 21
193.8159996232045
 31
0.0
  0
LINE
  5
637D
  8
AM_0
 10
677.23449831524999
 20
193.8159846232046
 30
0.0
 11
677.98810131524999
 21
199.5400926232044
 31
0.0
  0
LINE
  5
637E
  8
AM_0
 10
621.73356831525007
 20
195.12126662320441
 30
0.0
 11
620.97996531525007
 21
200.84537462320449
 31
0.0
  0
LINE
  5
637F
  8
AM_0
 10
617.15312331525013
 20
191.60657462320441
 30
0.0
 11
621.73356831525007
 21
195.12125162320461
 31
0.0
  0
LINE
  5
6380
  8
AM_0
 10
620.97999531525011
 20
200.8453446232046
 30
0.0
 11
615.64598031524986
 21
203.05476962320461
 31
0.0
  0
LINE
  5
6381
  8
AM_0
 10
615.64595031525005
 20
203.05478462320451
 30
0.0
 11
611.06553531524992
 21
199.5400926232044
 31
0.0
  0
LINE
  5
6382
  8
AM_0
 10
611.81913831525003
 20
193.8159696232045
 30
0.0
 11
617.15315331525005
 21
191.60654162320441
 31
0.0
  0
LINE
  5
6383
  8
AM_0
 10
611.06550531524977
 20
199.54010762320439
 30
0.0
 11
611.81910831525011
 21
193.8159996232045
 31
0.0
  0
LINE
  5
6384
  8
AM_0
 10
648.52679631525007
 20
300.23578862320448
 30
0.0
 11
648.52679631525007
 21
293.23579862320452
 31
0.0
  0
LINE
  5
6385
  8
AM_0
 10
640.52681031525015
 20
300.23578862320448
 30
0.0
 11
640.52681031525015
 21
293.23579862320452
 31
0.0
  0
LINE
  5
6386
  8
AM_0
 10
640.52681031525015
 20
300.23578862320448
 30
0.0
 11
648.52679631525007
 21
300.23578862320448
 31
0.0
  0
LINE
  5
6387
  8
AM_0
 10
640.52681031525015
 20
293.23579862320452
 30
0.0
 11
648.52679631525007
 21
293.23579862320452
 31
0.0
  0
LINE
  5
6388
  8
AM_0
 10
407.90825676912033
 20
300.23578862320448
 30
0.0
 11
439.90829676911989
 21
300.23578862320448
 31
0.0
  0
LINE
  5
6389
  8
AM_0
 10
344.90825676912038
 20
315.75331862320462
 30
0.0
 11
347.90825676912038
 21
315.75331862320462
 31
0.0
  0
LINE
  5
638A
  8
AM_0
 10
344.90825676912038
 20
304.20628862320461
 30
0.0
 11
347.90825676912038
 21
304.20628862320461
 31
0.0
  0
LINE
  5
638B
  8
AM_0
 10
344.90825676912038
 20
307.09303862320468
 30
0.0
 11
347.90825676912038
 21
307.09303862320468
 31
0.0
  0
LINE
  5
638C
  8
AM_0
 10
344.90825676912038
 20
312.86653862320458
 30
0.0
 11
347.90825676912038
 21
312.86653862320458
 31
0.0
  0
LINE
  5
638D
  8
AM_0
 10
348.90824676912018
 20
305.2062486232046
 30
0.0
 11
348.90824676912018
 21
314.75329862320461
 31
0.0
  0
LINE
  5
638E
  8
AM_0
 10
344.90825676912038
 20
316.75330862320459
 30
0.0
 11
344.90825676912038
 21
303.20629862320459
 31
0.0
  0
LINE
  5
638F
  8
AM_0
 10
708.17227431524987
 20
312.18919862320462
 30
0.0
 11
707.41868931525005
 21
306.46510862320451
 31
0.0
  0
LINE
  5
6390
  8
AM_0
 10
343.90832676911998
 20
316.75330862320459
 30
0.0
 11
344.90825676912038
 21
316.75330862320459
 31
0.0
  0
LINE
  5
6391
  8
AM_0
 10
343.90832676911998
 20
303.20629862320459
 30
0.0
 11
344.90825676912038
 21
303.20629862320459
 31
0.0
  0
LINE
  5
6392
  8
AM_0
 10
320.90825676912038
 20
314.90296862320457
 30
0.0
 11
320.90825676912038
 21
295.2638586232045
 31
0.0
  0
LINE
  5
6393
  8
ﾁｭｳｼﾝｾﾝ
 10
107.11215585693461
 20
265.23580262320462
 30
0.0
 11
330.33420650034287
 21
265.23580262320462
 31
0.0
  0
LINE
  5
6394
  8
AM_0
 10
294.90824676912018
 20
321.23581862320458
 30
0.0
 11
321.03917676912027
 21
321.92005862320451
 31
0.0
  0
LINE
  5
6395
  8
AM_0
 10
294.90830676912037
 20
209.2358166232045
 30
0.0
 11
317.98679676912019
 21
208.63147562320461
 31
0.0
  0
LINE
  5
6396
  8
AM_0
 10
294.90830676912037
 20
209.2358016232044
 30
0.0
 11
294.90830676912037
 21
321.23581862320458
 31
0.0
  0
LINE
  5
6397
  8
AM_0
 10
327.90830676912037
 20
336.23581862320458
 30
0.0
 11
332.90825676912038
 21
336.23581862320458
 31
0.0
  0
LINE
  5
6398
  8
AM_0
 10
325.90832676911998
 20
334.23580862320449
 30
0.0
 11
325.90832676911998
 21
318.9029586232046
 31
0.0
  0
LINE
  5
6399
  8
AM_0
 10
722.52681231524991
 20
202.2358146232045
 30
0.0
 11
711.7583963152498
 21
304.86598862320449
 31
0.0
  0
LINE
  5
639A
  8
AM_0
 10
690.5268263152501
 20
193.2358146232045
 30
0.0
 11
686.52681231525003
 21
193.2358146232045
 31
0.0
  0
LINE
  5
639B
  8
AM_0
 10
691.52681331525025
 20
191.2358316232046
 30
0.0
 11
597.52685331525004
 21
191.2358316232046
 31
0.0
  0
LINE
  5
639C
  8
AM_0
 10
602.52680931525003
 20
193.2358146232045
 30
0.0
 11
598.52681031525026
 21
193.2358146232045
 31
0.0
  0
LINE
  5
639D
  8
AM_0
 10
683.52681231525003
 20
202.2358146232045
 30
0.0
 11
683.52681231525003
 21
196.2358146232045
 31
0.0
  0
LINE
  5
639E
  8
AM_0
 10
692.5268123152498
 20
190.2358146232045
 30
0.0
 11
692.5268123152498
 21
200.2358316232046
 31
0.0
  0
LINE
  5
639F
  8
ﾁｭｳｼﾝｾﾝ1
 10
579.52682331525
 20
206.78127062320439
 30
0.0
 11
579.52682331525
 21
185.6903586232045
 31
0.0
  0
LINE
  5
63A0
  8
ﾁｭｳｼﾝｾﾝ1
 10
709.52682831525021
 20
206.78127062320439
 30
0.0
 11
709.52682831525021
 21
185.6903586232045
 31
0.0
  0
LINE
  5
63A1
  8
AM_0
 10
610.52681031525037
 20
207.23581562320459
 30
0.0
 11
678.52682631524999
 21
207.23581562320459
 31
0.0
  0
LINE
  5
63A2
  8
ﾁｭｳｼﾝｾﾝ1
 10
385.90829676912023
 20
206.78127062320439
 30
0.0
 11
385.90829676912023
 21
186.8028979770402
 31
0.0
  0
LINE
  5
63A3
  8
AM_0
 10
303.90830676912037
 20
190.2358146232045
 30
0.0
 11
328.90832676911998
 21
190.2358146232045
 31
0.0
  0
LINE
  5
63A4
  8
AM_0
 10
305.90825676912038
 20
202.2358146232045
 30
0.0
 11
324.85766676912039
 21
202.2358146232045
 31
0.0
  0
LINE
  5
63A5
  8
AM_0
 10
372.90827676912039
 20
190.2358146232045
 30
0.0
 11
397.90829676912023
 21
190.2358146232045
 31
0.0
  0
LINE
  5
63A6
  8
ﾁｭｳｼﾝｾﾝ1
 10
315.90830676912037
 20
206.78127062320439
 30
0.0
 11
315.90830676912037
 21
186.8028979770402
 31
0.0
  0
LINE
  5
63A7
  8
AM_0
 10
332.90825676912038
 20
336.23581862320458
 30
0.0
 11
332.90825676912038
 21
221.09296262320461
 31
0.0
  0
LINE
  5
63A8
  8
AM_0
 10
332.90831676912018
 20
336.23581862320458
 30
0.0
 11
377.03918676912019
 21
335.08018862320449
 31
0.0
  0
LINE
  5
63A9
  8
AM_0
 10
386.47250676912017
 20
318.97384862320462
 30
0.0
 11
392.16977676912029
 21
318.47539862320463
 31
0.0
  0
LINE
  5
63AA
  8
AM_0
 10
394.90829676912023
 20
315.48679862320461
 30
0.0
 11
394.90829676912023
 21
205.9803696232045
 31
0.0
  0
LINE
  5
63AB
  8
AM_0
 10
303.90830676912037
 20
200.23580162320451
 30
0.0
 11
303.90830676912037
 21
190.2358146232045
 31
0.0
  0
LINE
  5
63AC
  8
AM_0
 10
329.90825676912038
 20
191.2358016232044
 30
0.0
 11
371.90825676912038
 21
191.2358016232044
 31
0.0
  0
LINE
  5
63AD
  8
AM_0
 10
397.90829676912023
 20
200.23580162320451
 30
0.0
 11
397.90829676912023
 21
190.2358146232045
 31
0.0
  0
LINE
  5
63AE
  8
AM_0
 10
335.90825676912038
 20
205.2358146232045
 30
0.0
 11
335.90825676912038
 21
235.2358176232045
 31
0.0
  0
LINE
  5
63AF
  8
ｶｸﾚｾﾝ2
 10
321.90830676912037
 20
202.2358146232045
 30
0.0
 11
321.90830676912037
 21
190.2358146232045
 31
0.0
  0
LINE
  5
63B0
  8
ｶｸﾚｾﾝ2
 10
309.90830676912037
 20
202.2358146232045
 30
0.0
 11
309.90830676912037
 21
190.2358146232045
 31
0.0
  0
LINE
  5
63B1
  8
ｶｸﾚｾﾝ2
 10
585.52685331525004
 20
202.2358146232045
 30
0.0
 11
585.52685331525004
 21
190.2358146232045
 31
0.0
  0
LINE
  5
63B2
  8
ｶｸﾚｾﾝ2
 10
573.52685331525004
 20
202.2358146232045
 30
0.0
 11
573.52685331525004
 21
190.2358146232045
 31
0.0
  0
LINE
  5
63B3
  8
AM_0
 10
566.52680331525005
 20
190.2358146232045
 30
0.0
 11
566.52680331525005
 21
202.2358146232045
 31
0.0
  0
LINE
  5
63B4
  8
AM_0
 10
566.52680331525005
 20
190.2358146232045
 30
0.0
 11
596.52680331525005
 21
190.2358146232045
 31
0.0
  0
LINE
  5
63B5
  8
AM_0
 10
594.52685331525004
 20
202.2358146232045
 30
0.0
 11
568.52681331524991
 21
202.2358146232045
 31
0.0
  0
LINE
  5
63B6
  8
AM_0
 10
335.90825676912038
 20
272.45208062320438
 30
0.0
 11
335.90825676912038
 21
235.76027762320459
 31
0.0
  0
LINE
  5
63B7
  8
AM_0
 10
373.90829676912023
 20
202.2358146232045
 30
0.0
 11
395.90825676912038
 21
202.2358146232045
 31
0.0
  0
LINE
  5
63B8
  8
AM_0
 10
324.85766676912039
 20
202.2358146232045
 30
0.0
 11
332.90825676912038
 21
202.2358146232045
 31
0.0
  0
LINE
  5
63B9
  8
ｶｸﾚｾﾝ2
 10
391.90829676912023
 20
202.2358146232045
 30
0.0
 11
391.90829676912023
 21
190.2358146232045
 31
0.0
  0
LINE
  5
63BA
  8
ｶｸﾚｾﾝ2
 10
703.52681331525025
 20
202.2358146232045
 30
0.0
 11
703.52681331525025
 21
190.2358146232045
 31
0.0
  0
LINE
  5
63BB
  8
AM_0
 10
346.90832676911998
 20
316.76326862320451
 30
0.0
 11
381.9082767691205
 21
316.76326862320451
 31
0.0
  0
LINE
  5
63BC
  8
ｶｸﾚｾﾝ2
 10
379.90829676912023
 20
202.2358146232045
 30
0.0
 11
379.90829676912023
 21
190.2358146232045
 31
0.0
  0
LINE
  5
63BD
  8
AM_0
 10
328.90832676911998
 20
190.2358146232045
 30
0.0
 11
328.90832676911998
 21
190.2358146232045
 31
0.0
  0
LINE
  5
63BE
  8
AM_0
 10
368.90825676912038
 20
295.02661862320463
 30
0.0
 11
368.90825676912038
 21
207.23581562320459
 31
0.0
  0
LINE
  5
63BF
  8
AM_0
 10
566.52680331525005
 20
202.2358146232045
 30
0.0
 11
577.29524331524976
 21
304.86598862320449
 31
0.0
  0
LINE
  5
63C0
  8
AM_0
 10
381.9082767691205
 20
330.0819186232045
 30
0.0
 11
381.9082767691205
 21
221.27661962320451
 31
0.0
  0
LINE
  5
63C1
  8
ｶｸﾚｾﾝ2
 10
715.52682831524999
 20
202.2358146232045
 30
0.0
 11
715.52682831524999
 21
190.2358146232045
 31
0.0
  0
LINE
  5
63C2
  8
AM_0
 10
722.52681231524991
 20
190.2358146232045
 30
0.0
 11
692.5268123152498
 21
190.2358146232045
 31
0.0
  0
LINE
  5
63C3
  8
AM_0
 10
694.52681331525025
 20
202.2358146232045
 30
0.0
 11
720.52682931524987
 21
202.2358146232045
 31
0.0
  0
LINE
  5
63C4
  8
AM_0
 10
368.90825676912038
 20
217.27663262320451
 30
0.0
 11
377.90825676912038
 21
217.27663262320451
 31
0.0
  0
LINE
  5
63C5
  8
AM_0
 10
605.52680931525003
 20
202.2358146232045
 30
0.0
 11
605.52680931525003
 21
196.2358146232045
 31
0.0
  0
LINE
  5
63C6
  8
AM_0
 10
596.52680331525005
 20
190.2358146232045
 30
0.0
 11
596.52680331525005
 21
200.2358316232046
 31
0.0
  0
LINE
  5
63C7
  8
AM_0
 10
697.52681331525025
 20
300.48835862320459
 30
0.0
 11
697.52681331525025
 21
239.2358016232044
 31
0.0
  0
LINE
  5
63C8
  8
AM_0
 10
722.52681231524991
 20
190.2358146232045
 30
0.0
 11
722.52681231524991
 21
202.2358146232045
 31
0.0
  0
LINE
  5
63C9
  8
AM_0
 10
376.90829676912023
 20
303.02659862320451
 30
0.0
 11
381.9082767691205
 21
303.02659862320451
 31
0.0
  0
LINE
  5
63CA
  8
AM_0
 10
591.52685331525004
 20
300.48835862320459
 30
0.0
 11
591.52685331525004
 21
239.2358016232044
 31
0.0
  0
LINE
  5
63CB
  8
AM_0
 10
596.52680331525005
 20
270.23580362320462
 30
0.0
 11
596.52680331525005
 21
207.23581562320459
 31
0.0
  0
LINE
  5
63CC
  8
AM_0
 10
692.5268123152498
 20
270.23580362320462
 30
0.0
 11
692.5268123152498
 21
207.23581562320459
 31
0.0
  0
LINE
  5
63CD
  8
AM_0
 10
372.90827676912039
 20
190.2358146232045
 30
0.0
 11
372.90827676912039
 21
190.2358146232045
 31
0.0
  0
LINE
  5
63CE
  8
AM_0
 10
329.74883676912009
 20
206.1982956232045
 30
0.0
 11
335.79941676912023
 21
234.72275462320451
 31
0.0
  0
LINE
  5
63CF
  8
AM_0
 10
343.90832676911998
 20
321.76258862320458
 30
0.0
 11
343.90832676911998
 21
298.86055862320461
 31
0.0
  0
LINE
  5
63D0
  8
AM_0
 10
346.90832676911998
 20
335.79064862320462
 30
0.0
 11
346.90832676911998
 21
316.76326862320451
 31
0.0
  0
LINE
  5
63D1
  8
AM_0
 10
346.90826676912019
 20
335.79064862320462
 30
0.0
 11
360.49022676912023
 21
316.76326862320451
 31
0.0
  0
LINE
  5
63D2
  8
AM_0
 10
346.90832676911998
 20
298.58452862320451
 30
0.0
 11
346.90832676911998
 21
272.45208062320438
 31
0.0
  0
LINE
  5
63D3
  8
AM_0
 10
359.73791676912049
 20
298.58452862320451
 30
0.0
 11
346.90826676912019
 21
272.45208062320438
 31
0.0
  0
LINE
  5
63D4
  8
AM_0
 10
335.90825676912038
 20
272.45208062320438
 30
0.0
 11
346.90832676911998
 21
272.45208062320438
 31
0.0
  0
LINE
  5
63D5
  8
AM_0
 10
346.90832676911998
 20
298.58452862320451
 30
0.0
 11
369.74300676912031
 21
298.58452862320451
 31
0.0
  0
LINE
  5
63D6
  8
AM_0
 10
322.90832676911998
 20
316.90294862320451
 30
0.0
 11
323.90825676912038
 21
316.90294862320451
 31
0.0
  0
LINE
  5
63D7
  8
AM_0
 10
320.90825676912038
 20
216.02007362320461
 30
0.0
 11
325.90832676911998
 21
216.02007362320461
 31
0.0
  0
LINE
  5
63D8
  8
AM_0
 10
320.90825676912038
 20
293.26384862320469
 30
0.0
 11
325.90832676911998
 21
293.26384862320469
 31
0.0
  0
LINE
  5
63D9
  8
AM_0
 10
322.90832676911998
 20
308.73016862320458
 30
0.0
 11
323.90825676912038
 21
308.73016862320458
 31
0.0
  0
LINE
  5
63DA
  8
AM_0
 10
325.90832676911998
 20
306.7301586232046
 30
0.0
 11
325.90832676911998
 21
202.36572962320449
 31
0.0
  0
LINE
  5
63DB
  8
AM_0
 10
320.90825676912038
 20
214.02005762320459
 30
0.0
 11
320.90825676912038
 21
202.2358146232045
 31
0.0
  0
LINE
  5
63DC
  8
AM_0
 10
294.90830676912037
 20
311.23579862320452
 30
0.0
 11
320.90825676912038
 21
311.23579862320452
 31
0.0
  0
LINE
  5
63DD
  8
AM_0
 10
294.90830676912037
 20
297.17281862320448
 30
0.0
 11
320.90825676912038
 21
297.17281862320448
 31
0.0
  0
LINE
  5
63DE
  8
AM_0
 10
294.90830676912037
 20
233.29878962320461
 30
0.0
 11
325.90832676911998
 21
233.29878962320461
 31
0.0
  0
LINE
  5
63DF
  8
AM_0
 10
294.90830676912037
 20
219.23581562320459
 30
0.0
 11
325.90832676911998
 21
219.23581562320459
 31
0.0
  0
LINE
  5
63E0
  8
ﾁｭｳｼﾝｾﾝ
 10
718.70120241317909
 20
265.23580262320462
 30
0.0
 11
526.51207217189722
 21
265.23580262320462
 31
0.0
  0
CIRCLE
  5
63E1
  8
AM_0
 10
586.21535331525001
 20
309.97978862320463
 30
0.0
 40
4.9999998000000003
  0
CIRCLE
  5
63E2
  8
AM_0
 10
702.83828931525022
 20
309.97972862320461
 30
0.0
 40
4.9999998000000003
  0
CIRCLE
  5
63E3
  8
AM_0
 10
672.65405331525005
 20
197.3306796232045
 30
0.0
 40
4.9999998000000003
  0
CIRCLE
  5
63E4
  8
AM_0
 10
616.39952031525002
 20
197.3306796232045
 30
0.0
 40
4.9999998000000003
  0
ARC
  5
63E5
  8
AM_0
 10
644.52681231525003
 20
285.23580362320462
 30
0.0
 40
12.0000003
 50
109.4712200000001
 51
70.528788999999307
  0
ARC
  5
63E6
  8
AM_0
 10
347.90825676912038
 20
308.09299862320461
 30
0.0
 40
1.0000000199999981
 50
270.0
 51
0.0
  0
ARC
  5
63E7
  8
AM_0
 10
347.90825676912038
 20
311.86654862320461
 30
0.0
 40
1.0000000199999981
 50
0.0
 51
90.00000299999769
  0
ARC
  5
63E8
  8
AM_0
 10
347.90825676912038
 20
313.8665286232046
 30
0.0
 40
1.0000000199999981
 50
270.0
 51
0.0
  0
ARC
  5
63E9
  8
AM_0
 10
347.90825676912038
 20
306.0930486232046
 30
0.0
 40
1.0000000199999981
 50
0.0
 51
90.00000299999769
  0
ARC
  5
63EA
  8
AM_0
 10
347.90825676912038
 20
305.2062486232046
 30
0.0
 40
1.0000000199999981
 50
270.0
 51
0.0
  0
ARC
  5
63EB
  8
AM_0
 10
347.90825676912038
 20
314.75329862320461
 30
0.0
 40
1.0000000199999981
 50
0.0
 51
90.00000299999769
  0
CIRCLE
  5
63EC
  8
AM_0
 62
     2
 10
644.52681231525003
 20
285.23580362320462
 30
0.0
 40
4.0000001999999979
  0
CIRCLE
  5
63ED
  8
AM_0
 10
644.52681231525003
 20
285.23580362320462
 30
0.0
 40
3.0
  0
ARC
  5
63EE
  8
AM_0
 10
320.90825676912038
 20
326.9183586232046
 30
0.0
 40
5.0000001000000003
 50
271.50000000000267
 51
0.0
  0
ARC
  5
63EF
  8
AM_0
 10
327.90830676912037
 20
334.23580862320449
 30
0.0
 40
2.00000007
 50
90.00000299999769
 51
180.00001000000091
  0
ARC
  5
63F0
  8
AM_0
 10
317.90825676912038
 20
205.6324986232045
 30
0.0
 40
3.0
 50
0.0
 51
88.499997000000747
  0
ARC
  5
63F1
  8
AM_0
 10
705.11494731524988
 20
296.1077886232045
 30
0.0
 40
3.0
 50
27.00057300000061
 51
84.294261000002294
  0
ARC
  5
63F2
  8
AM_0
 10
391.90829676912023
 20
315.48679862320461
 30
0.0
 40
3.0
 50
0.0
 51
84.999996999998729
  0
ARC
  5
63F3
  8
AM_0
 10
386.90825676912038
 20
323.95480862320449
 30
0.0
 40
5.0000001000000003
 50
179.999989999999
 51
265.00000000000028
  0
ARC
  5
63F4
  8
AM_0
 10
583.93868331525005
 20
296.1077886232045
 30
0.0
 40
3.0
 50
95.705737999999002
 51
152.99941999999629
  0
ARC
  5
63F5
  8
AM_0
 10
591.52685331525004
 20
207.23581562320459
 30
0.0
 40
5.0000001000000003
 50
270.0
 51
0.0
  0
ARC
  5
63F6
  8
AM_0
 10
596.52680331525005
 20
300.48835862320459
 30
0.0
 40
5.0000001000000003
 50
138.71940999999791
 51
180.00001000000091
  0
ARC
  5
63F7
  8
AM_0
 10
599.02537431525002
 20
315.76915862320448
 30
0.0
 40
3.0
 50
132.0006499999993
 51
189.2943400000016
  0
ARC
  5
63F8
  8
AM_0
 10
692.5268123152498
 20
300.48835862320459
 30
0.0
 40
5.0000001000000003
 50
0.0
 51
41.280591000002673
  0
ARC
  5
63F9
  8
AM_0
 10
691.52681331525025
 20
190.2358146232045
 30
0.0
 40
1.0000000199999981
 50
0.0
 51
90.00000299999769
  0
ARC
  5
63FA
  8
AM_0
 10
597.52685331525004
 20
190.2358146232045
 30
0.0
 40
1.0000000199999981
 50
90.00000299999769
 51
180.00001000000091
  0
ARC
  5
63FB
  8
AM_0
 10
602.52680931525003
 20
196.2358146232045
 30
0.0
 40
3.0
 50
270.0
 51
0.0
  0
ARC
  5
63FC
  8
AM_0
 10
598.52681031525026
 20
191.2358316232046
 30
0.0
 40
2.00000007
 50
90.00000299999769
 51
180.00001000000091
  0
ARC
  5
63FD
  8
AM_0
 10
689.59405731524998
 20
321.07222862320458
 30
0.0
 40
5.0000001000000003
 50
334.93703000000249
 51
64.582444000001288
  0
ARC
  5
63FE
  8
AM_0
 10
344.90825676912038
 20
321.76258862320458
 30
0.0
 40
1.0000000199999981
 50
90.00000299999769
 51
180.00001000000091
  0
ARC
  5
63FF
  8
AM_0
 10
371.90825676912038
 20
190.2358146232045
 30
0.0
 40
1.0000000199999981
 50
0.0
 51
90.00000299999769
  0
ARC
  5
6400
  8
AM_0
 10
330.90830676912037
 20
235.76027762320459
 30
0.0
 40
5.0000001000000003
 50
348.0238700000001
 51
0.0
  0
ARC
  5
6401
  8
AM_0
 10
644.52681231525003
 20
265.23580262320462
 30
0.0
 40
71.000000999999983
 50
5.9898141999996781
 51
27.00057300000061
  0
ARC
  5
6402
  8
AM_0
 10
568.52681331524991
 20
200.2358316232046
 30
0.0
 40
2.00000007
 50
90.00000299999769
 51
180.00001000000091
  0
ARC
  5
6403
  8
AM_0
 10
332.90825676912038
 20
205.2358146232045
 30
0.0
 40
3.0
 50
270.0
 51
0.0
  0
ARC
  5
6404
  8
AM_0
 10
644.52681231525003
 20
270.23580362320462
 30
0.0
 40
48.0
 50
0.0
 51
77.663515021265255
  0
ARC
  5
6405
  8
AM_0
 10
644.52681231525003
 20
270.23580362320462
 30
0.0
 40
48.0
 50
102.3364849787347
 51
180.00001000000091
  0
ARC
  5
6406
  8
AM_0
 10
377.90825676912038
 20
221.27661962320451
 30
0.0
 40
4.0000001999999979
 50
270.0
 51
0.0
  0
ARC
  5
6407
  8
AM_0
 10
582.24854331525
 20
313.02355862320451
 30
0.0
 40
13.9999986
 50
266.80063999999902
 51
25.06296899999742
  0
ARC
  5
6408
  8
AM_0
 10
697.52681331525025
 20
207.23581562320459
 30
0.0
 40
5.0000001000000003
 50
179.999989999999
 51
270.0
  0
ARC
  5
6409
  8
AM_0
 10
686.52681231525003
 20
196.2358146232045
 30
0.0
 40
3.0
 50
179.999989999999
 51
270.0
  0
ARC
  5
640A
  8
AM_0
 10
376.90829676912023
 20
330.0819186232045
 30
0.0
 40
5.0000001000000003
 50
0.0
 51
88.499997000000747
  0
ARC
  5
640B
  8
AM_0
 10
399.90827676912039
 20
205.9803696232045
 30
0.0
 40
5.0000001000000003
 50
179.999989999999
 51
235.15011000000041
  0
ARC
  5
640C
  8
AM_0
 10
395.90825676912038
 20
200.23580162320451
 30
0.0
 40
2.00000007
 50
0.0
 51
90.00000299999769
  0
ARC
  5
640D
  8
AM_0
 10
305.90825676912038
 20
200.23580162320451
 30
0.0
 40
2.00000007
 50
90.00000299999769
 51
180.00001000000091
  0
ARC
  5
640E
  8
AM_0
 10
329.90825676912038
 20
190.2358146232045
 30
0.0
 40
1.0000000199999981
 50
90.00000299999769
 51
180.00001000000091
  0
ARC
  5
640F
  8
AM_0
 10
594.52685331525004
 20
200.2358316232046
 30
0.0
 40
2.00000007
 50
0.0
 51
90.00000299999769
  0
ARC
  5
6410
  8
AM_0
 10
706.80508731524992
 20
313.02355862320451
 30
0.0
 40
13.9999986
 50
154.9370400000038
 51
273.19937000000078
  0
ARC
  5
6411
  8
AM_0
 10
373.90829676912023
 20
207.23581562320459
 30
0.0
 40
5.0000001000000003
 50
180.00001000000091
 51
270.0
  0
ARC
  5
6412
  8
AM_0
 10
720.52682931524987
 20
200.2358316232046
 30
0.0
 40
2.00000007
 50
0.0
 51
90.00000299999769
  0
ARC
  5
6413
  8
AM_0
 10
610.52681031525037
 20
202.2358146232045
 30
0.0
 40
5.0000001000000003
 50
90.00000299999769
 51
180.00001000000091
  0
ARC
  5
6414
  8
AM_0
 10
644.52681231525003
 20
265.23580262320462
 30
0.0
 40
71.000000999999983
 50
47.99935899999911
 51
132.0006499999993
  0
ARC
  5
6415
  8
AM_0
 10
694.52681331525025
 20
200.2358316232046
 30
0.0
 40
2.00000007
 50
90.00000299999769
 51
180.00001000000091
  0
ARC
  5
6416
  8
AM_0
 10
678.52682631524999
 20
202.2358146232045
 30
0.0
 40
5.0000001000000003
 50
0.0
 51
90.00000299999769
  0
ARC
  5
6417
  8
AM_0
 10
644.52681231525003
 20
265.23580262320462
 30
0.0
 40
71.000000999999983
 50
152.99941999999629
 51
174.01019000000019
  0
ARC
  5
6418
  8
AM_0
 10
376.90829676912023
 20
295.02661862320463
 30
0.0
 40
8.0000000999999976
 50
90.00000299999769
 51
180.00001000000091
  0
ARC
  5
6419
  8
AM_0
 10
324.85766676912039
 20
207.23581562320459
 30
0.0
 40
5.0000001000000003
 50
270.0
 51
348.0238700000001
  0
ARC
  5
641A
  8
AM_0
 10
625.52681031525015
 20
239.2358016232044
 30
0.0
 40
34.000002000000002
 50
179.999989999999
 51
211.4669699999952
  0
ARC
  5
641B
  8
AM_0
 10
707.86548231524989
 20
294.05314862320461
 30
0.0
 40
5.0000001000000003
 50
5.9898155000032931
 51
93.199358999997784
  0
ARC
  5
641C
  8
AM_0
 10
690.5268263152501
 20
191.2358316232046
 30
0.0
 40
2.00000007
 50
0.0
 51
90.00000299999769
  0
ARC
  5
641D
  8
AM_0
 10
663.5268263152501
 20
239.2358016232044
 30
0.0
 40
34.000002000000002
 50
328.53301999999962
 51
0.0
  0
ARC
  5
641E
  8
AM_0
 10
396.9082767691205
 20
314.6225586232045
 30
0.0
 40
2.00000007
 50
179.999989999999
 51
240.00000999999969
  0
ARC
  5
641F
  8
AM_0
 10
396.9082767691205
 20
255.8490516232045
 30
0.0
 40
2.00000007
 50
120.0000000000005
 51
180.00001000000091
  0
ARC
  5
6420
  8
AM_0
 10
597.18605331524998
 20
302.7789486232046
 30
0.0
 40
20.000000700000001
 50
121.736169999997
 51
174.01019000000019
  0
ARC
  5
6421
  8
AM_0
 10
691.86758631525004
 20
302.7789486232046
 30
0.0
 40
20.000000700000001
 50
5.9898155000032931
 51
58.263836000000381
  0
ARC
  5
6422
  8
AM_0
 10
599.45957931525038
 20
321.07222862320458
 30
0.0
 40
5.0000001000000003
 50
115.4175599999972
 51
205.06296999999751
  0
ARC
  5
6423
  8
AM_0
 10
644.52681231525003
 20
226.2358176232045
 30
0.0
 40
110.000004
 50
58.263836000000381
 51
121.736169999997
  0
ARC
  5
6424
  8
AM_0
 10
690.02827731524997
 20
315.76915862320448
 30
0.0
 40
3.0
 50
350.70566999999772
 51
47.99935899999911
  0
ARC
  5
6425
  8
AM_0
 10
581.18816331524977
 20
294.05314862320461
 30
0.0
 40
5.0000001000000003
 50
86.800639000002292
 51
174.01019000000019
  0
ARC
  5
6426
  8
AM_0
 10
344.90825676912038
 20
298.86055862320461
 30
0.0
 40
1.0000000199999981
 50
179.999989999999
 51
270.0
  0
ARC
  5
6427
  8
AM_0
 10
344.90825676912038
 20
295.86055862320461
 30
0.0
 40
2.00000007
 50
0.0
 51
90.00000299999769
  0
ARC
  5
6428
  8
AM_0
 10
344.90825676912038
 20
324.76258862320458
 30
0.0
 40
2.00000007
 50
270.0
 51
0.0
  0
ARC
  5
6429
  8
AM_0
 10
322.90832676911998
 20
314.90296862320457
 30
0.0
 40
2.00000007
 50
90.00000299999769
 51
180.00001000000091
  0
ARC
  5
642A
  8
AM_0
 10
323.90825676912038
 20
318.9029586232046
 30
0.0
 40
2.00000007
 50
270.0
 51
0.0
  0
ARC
  5
642B
  8
AM_0
 10
322.90832676911998
 20
310.73014862320463
 30
0.0
 40
2.00000007
 50
179.999989999999
 51
270.0
  0
ARC
  5
642C
  8
AM_0
 10
323.90825676912038
 20
306.7301586232046
 30
0.0
 40
2.00000007
 50
0.0
 51
90.00000299999769
  0
ARC
  5
642D
  8
AM_0
 10
318.90830676912037
 20
295.2638586232045
 30
0.0
 40
2.00000007
 50
270.0
 51
0.0
  0
ARC
  5
642E
  8
AM_0
 10
318.90830676912037
 20
214.02005762320459
 30
0.0
 40
2.00000007
 50
0.0
 51
90.00000299999769
  0
LINE
  5
642F
  8
AM_0
 10
400.9082467691199
 20
318.73580062320463
 30
0.0
 11
405.90824676911978
 21
313.73580062320468
 31
0.0
  0
LINE
  5
6430
  8
AM_0
 10
396.40824676912001
 20
318.73580062320463
 30
0.0
 11
400.9082467691199
 21
318.73580062320463
 31
0.0
  0
LINE
  5
6431
  8
AM_0
 10
395.90824676912001
 20
318.23580062320463
 30
0.0
 11
395.90824676911973
 21
252.23580062320511
 31
0.0
  0
LINE
  5
6432
  8
AM_0
 10
405.90824676911978
 20
313.73580062320468
 30
0.0
 11
405.90824676912001
 21
256.73580062320468
 31
0.0
  0
LINE
  5
6433
  8
AM_0
 10
396.40824676912001
 20
251.7358006232046
 30
0.0
 11
400.9082467691199
 21
251.7358006232046
 31
0.0
  0
LINE
  5
6434
  8
AM_0
 10
400.9082467691199
 20
251.7358006232046
 30
0.0
 11
405.90824676912001
 21
256.73580062320468
 31
0.0
  0
LINE
  5
6435
  8
AM_0
 10
396.40824676912001
 20
318.73580062320463
 30
0.0
 11
395.90824676912001
 21
318.23580062320463
 31
0.0
1001
GENIUS_GENFIL_13
1070
     0
1040
0.5
1040
0.5
1040
20.0
1040
0.0
1002
{
1002
}
1001
GENIUS_GENOBJ-N-CHA_13
1002
{
1000
OWNER
1000
GEN
1002
}
1001
GENIUS_GENODEF_13
1002
{
1000
HIER
1070
     0
1002
}
1002
{
1000
MANEDIT
1070
     0
1002
}
1002
{
1000
NOSEL
1070
     0
1002
}
1002
{
1000
BEHIND
1070
     0
1002
}
1002
{
1000
OTHER
1070
     0
1002
}
1002
{
1000
REACTOR
1002
}
  0
LINE
  5
6436
  8
AM_0
 10
395.90824676912001
 20
252.2358006232046
 30
0.0
 11
396.40824676912001
 21
251.7358006232046
 31
0.0
1001
GENIUS_GENFIL_13
1070
     0
1040
0.5
1040
0.5
1040
20.0
1040
0.0
1002
{
1002
}
1001
GENIUS_GENOBJ-N-CHA_13
1002
{
1000
OWNER
1000
GEN
1002
}
1001
GENIUS_GENODEF_13
1002
{
1000
HIER
1070
     0
1002
}
1002
{
1000
MANEDIT
1070
     0
1002
}
1002
{
1000
NOSEL
1070
     0
1002
}
1002
{
1000
BEHIND
1070
     0
1002
}
1002
{
1000
OTHER
1070
     0
1002
}
1002
{
1000
REACTOR
1002
}
  0
LINE
  5
6437
  8
AM_0
 10
400.9082467691199
 20
318.73580062320463
 30
0.0
 11
400.9082467691199
 21
251.7358006232046
 31
0.0
  0
CIRCLE
  5
6438
  8
AM_0
 10
644.52681231525003
 20
285.23580362320462
 30
0.0
 40
33.499999999999893
  0
CIRCLE
  5
6439
  8
AM_0
 10
644.52681231525003
 20
285.23580362320462
 30
0.0
 40
28.49999999999994
  0
LINE
  5
643A
  8
AM_0
 10
283.90829676912068
 20
227.01271862320439
 30
0.0
 11
286.90829676912051
 21
227.01271862320439
 31
0.0
  0
LINE
  5
643B
  8
AM_0
 10
283.90829676912051
 20
303.45881762320448
 30
0.0
 11
286.90829676912051
 21
303.45881762320448
 31
0.0
  0
LINE
  5
643C
  8
AM_0
 10
182.11472676912041
 20
208.95255062320459
 30
0.0
 11
279.03446676912051
 21
208.95255062320459
 31
0.0
  0
LINE
  5
643D
  8
AM_0
 10
180.5862267691204
 20
228.51271862320451
 30
0.0
 11
187.90829676912051
 21
228.51271862320451
 31
0.0
  0
LINE
  5
643E
  8
AM_0
 10
187.90829676912051
 20
231.23580062320451
 30
0.0
 11
181.27370676912039
 21
231.23580062320451
 31
0.0
  0
LINE
  5
643F
  8
AM_0
 10
187.90829676912051
 20
229.23580262320451
 30
0.0
 11
181.27370676912039
 21
229.23580262320451
 31
0.0
  0
LINE
  5
6440
  8
AM_0
 10
187.90829676912051
 20
301.23581762320453
 30
0.0
 11
181.27370676912039
 21
301.23581762320453
 31
0.0
  0
LINE
  5
6441
  8
AM_0
 10
187.90829676912051
 20
299.23580462320461
 30
0.0
 11
181.27370676912039
 21
299.23580462320461
 31
0.0
  0
LINE
  5
6442
  8
AM_0
 10
180.5855967691204
 20
301.9588176232046
 30
0.0
 11
187.90829676912051
 21
301.9588176232046
 31
0.0
  0
LINE
  5
6443
  8
AM_0
 10
182.11472676912041
 20
321.51905762320462
 30
0.0
 11
279.03446676912051
 21
321.51905762320462
 31
0.0
  0
ARC
  5
6444
  8
AM_0
 10
180.5855967691204
 20
300.2809086232046
 30
0.0
 40
1.6779127499999991
 50
90.00000299999769
 51
270.0
  0
ARC
  5
6445
  8
AM_0
 10
181.45766676912049
 20
300.23580362320462
 30
0.0
 40
1.0000000199999981
 50
90.00000299999769
 51
270.0
  0
LINE
  5
6446
  8
AM_0
 10
178.90829676912051
 20
318.23579762320458
 30
0.0
 11
178.90829676912051
 21
251.8358026232045
 31
0.0
  0
LINE
  5
6447
  8
AM_0
 10
178.90829676912051
 20
238.6358026232044
 30
0.0
 11
178.90829676912051
 21
215.79556862320459
 31
0.0
  0
LINE
  5
6448
  8
AM_0
 10
184.27376676912061
 20
228.5845266232046
 30
0.0
 11
178.9083567691203
 21
217.14005162320461
 31
0.0
  0
ARC
  5
6449
  8
AM_0
 10
215.90828676912039
 20
208.10616062320449
 30
0.0
 40
2.00000007
 50
270.0
 51
0.0
  0
ARC
  5
644A
  8
AM_0
 10
215.90828676912039
 20
205.34786162320449
 30
0.0
 40
2.00000007
 50
270.0
 51
0.0
  0
LINE
  5
644B
  8
AM_0
 10
217.90829676912051
 20
205.34786162320449
 30
0.0
 11
217.90829676912051
 21
208.95255062320459
 31
0.0
  0
ARC
  5
644C
  8
AM_0
 10
215.90828676912039
 20
206.25838262320451
 30
0.0
 40
2.00000007
 50
270.0
 51
0.0
  0
LINE
  5
644D
  8
AM_0
 10
178.90829676912051
 20
217.1400216232046
 30
0.0
 11
180.1495167691204
 21
210.5806656232044
 31
0.0
  0
LINE
  5
644E
  8
AM_0
 10
178.90829676912051
 20
215.79549362320441
 30
0.0
 11
180.1883967691204
 21
207.79032062320439
 31
0.0
  0
LINE
  5
644F
  8
AM_0
 10
178.90823676912029
 20
214.45096562320461
 30
0.0
 11
180.19931676912049
 21
205.95784562320461
 31
0.0
  0
ARC
  5
6450
  8
AM_0
 10
182.11472676912041
 20
210.9525366232044
 30
0.0
 40
2.00000007
 50
190.71568999999951
 51
270.0
  0
ARC
  5
6451
  8
AM_0
 10
182.16329676912059
 20
208.10616062320449
 30
0.0
 40
2.00000007
 50
189.08497000000031
 51
270.0
  0
LINE
  5
6452
  8
AM_0
 10
171.4083067691204
 20
212.2358166232045
 30
0.0
 11
178.90829676912051
 21
212.2358166232045
 31
0.0
  0
ARC
  5
6453
  8
AM_0
 10
182.19797676912049
 20
205.34786162320449
 30
0.0
 40
2.00000007
 50
187.94403999999901
 51
270.0
  0
LINE
  5
6454
  8
AM_0
 10
178.90823676912029
 20
214.45092062320461
 30
0.0
 11
180.21713676912049
 21
205.07147762320449
 31
0.0
  0
ARC
  5
6455
  8
AM_0
 10
182.1766767691206
 20
206.25838262320451
 30
0.0
 40
2.00000007
 50
188.6433899999989
 51
270.0
  0
LINE
  5
6456
  8
AM_0
 10
182.16329676912059
 20
206.1061776232045
 30
0.0
 11
215.90828676912039
 21
206.1061776232045
 31
0.0
  0
LINE
  5
6457
  8
AM_0
 10
182.1766767691206
 20
204.25838462320459
 30
0.0
 11
215.90828676912039
 21
204.25838462320459
 31
0.0
  0
LINE
  5
6458
  8
AM_0
 10
182.19797676912049
 20
203.34787562320449
 30
0.0
 11
215.90828676912039
 21
203.34787562320449
 31
0.0
  0
POLYLINE
  5
6459
  8
AM_0
 66
     1
 10
0.0
 20
0.0
 30
0.0
  0
VERTEX
  5
645A
  8
AM_0
 10
182.84213574312869
 20
292.23580262320462
 30
0.0
  0
VERTEX
  5
645B
  8
AM_0
 10
183.73100676912051
 20
298.60437362320459
 30
0.0
 42
-1.0
  0
SEQEND
  5
645C
  8
AM_0
  0
LINE
  5
645D
  8
AM_0
 10
180.5855967691204
 20
298.60299062320462
 30
0.0
 11
187.90829676912051
 21
298.60299062320462
 31
0.0
  0
POLYLINE
  5
645E
  8
AM_0
 66
     1
 10
0.0
 20
0.0
 30
0.0
  0
VERTEX
  5
645F
  8
AM_0
 10
183.05148801285611
 20
236.73580262320439
 30
0.0
  0
VERTEX
  5
6460
  8
AM_0
 10
183.73100676912051
 20
231.8672256232046
 30
0.0
 42
-1.0
  0
SEQEND
  5
6461
  8
AM_0
  0
ARC
  5
6462
  8
AM_0
 10
180.5862267691204
 20
230.1906366232044
 30
0.0
 40
1.6779175200000001
 50
90.00000299999769
 51
270.0
  0
ARC
  5
6463
  8
AM_0
 10
181.45766676912049
 20
230.2358166232045
 30
0.0
 40
1.0000000199999981
 50
90.00000299999769
 51
270.0
  0
LINE
  5
6464
  8
AM_0
 10
171.60641676912039
 20
222.04433462320449
 30
0.0
 11
177.8362167691206
 21
222.04433462320449
 31
0.0
  0
LINE
  5
6465
  8
AM_0
 10
180.5862267691204
 20
231.86856962320459
 30
0.0
 11
187.90829676912051
 21
231.86856962320459
 31
0.0
  0
ARC
  5
6466
  8
AM_0
 10
215.90828676912039
 20
322.3654476232046
 30
0.0
 40
2.00000007
 50
0.0
 51
90.00000299999769
  0
ARC
  5
6467
  8
AM_0
 10
215.90828676912039
 20
324.21314762320458
 30
0.0
 40
2.00000007
 50
0.0
 51
90.00000299999769
  0
ARC
  5
6468
  8
AM_0
 10
215.90828676912039
 20
325.12367762320463
 30
0.0
 40
2.00000007
 50
0.0
 51
90.00000299999769
  0
LINE
  5
6469
  8
AM_0
 10
217.90829676912051
 20
325.12367762320463
 30
0.0
 11
217.90829676912051
 21
321.51905762320462
 31
0.0
  0
ARC
  5
646A
  8
AM_0
 10
182.11472676912041
 20
319.51907762320462
 30
0.0
 40
2.00000007
 50
90.00000299999769
 51
169.2843100000004
  0
ARC
  5
646B
  8
AM_0
 10
182.16329676912059
 20
322.3654476232046
 30
0.0
 40
2.00000007
 50
90.00000299999769
 51
170.9150299999996
  0
ARC
  5
646C
  8
AM_0
 10
182.1766767691206
 20
324.21314762320458
 30
0.0
 40
2.00000007
 50
90.00000299999769
 51
171.35661000000101
  0
ARC
  5
646D
  8
AM_0
 10
182.19797676912049
 20
325.12367762320463
 30
0.0
 40
2.00000007
 50
90.00000299999769
 51
172.05596000000091
  0
LINE
  5
646E
  8
AM_0
 10
178.90829676912051
 20
314.6760576232046
 30
0.0
 11
180.1883367691205
 21
322.68119762320458
 31
0.0
  0
LINE
  5
646F
  8
AM_0
 10
178.90829676912051
 20
316.02065762320461
 30
0.0
 11
180.19931676912049
 21
324.51371762320463
 31
0.0
  0
LINE
  5
6470
  8
AM_0
 10
178.90829676912051
 20
316.02065762320461
 30
0.0
 11
180.21713676912049
 21
325.40006762320462
 31
0.0
  0
LINE
  5
6471
  8
AM_0
 10
178.90829676912051
 20
313.33151762320449
 30
0.0
 11
180.14957676912039
 21
319.8909276232045
 31
0.0
  0
LINE
  5
6472
  8
AM_0
 10
171.4083067691204
 20
318.23579762320458
 30
0.0
 11
178.90829676912051
 21
318.23579762320458
 31
0.0
  0
LINE
  5
6473
  8
AM_0
 10
171.60641676912039
 20
308.42720762320448
 30
0.0
 11
177.8362167691206
 21
308.42720762320448
 31
0.0
  0
LINE
  5
6474
  8
AM_0
 10
184.27370676912039
 20
301.88699762320448
 30
0.0
 11
178.90829676912051
 21
313.33148762320451
 31
0.0
  0
LINE
  5
6475
  8
AM_0
 10
182.16329676912059
 20
324.36545762320458
 30
0.0
 11
215.90828676912039
 21
324.36545762320458
 31
0.0
  0
LINE
  5
6476
  8
AM_0
 10
182.1766767691206
 20
326.21315762320461
 30
0.0
 11
215.90828676912039
 21
326.21315762320461
 31
0.0
  0
LINE
  5
6477
  8
AM_0
 10
182.19797676912049
 20
327.1236876232046
 30
0.0
 11
215.90828676912039
 21
327.1236876232046
 31
0.0
  0
ARC
  5
6478
  8
AM_0
 10
283.73039676912049
 20
300.2809086232046
 30
0.0
 40
1.6779127499999991
 50
276.08620038402319
 51
83.913799615976814
  0
LINE
  5
6479
  8
ﾁｭｳｼﾝｾﾝ
 10
235.90829676912051
 20
316.23580262320462
 30
0.0
 11
235.90829676912051
 21
214.23580262320451
 31
0.0
  0
LINE
  5
647A
  8
AM_0
 10
286.90829676912051
 20
321.23579762320458
 30
0.0
 11
286.90829676912051
 21
209.2358166232045
 31
0.0
  0
LINE
  5
647B
  8
AM_0
 10
171.4083067691204
 20
318.23579762320458
 30
0.0
 11
171.4083067691204
 21
292.23580262320462
 31
0.0
  0
LINE
  5
647C
  8
AM_0
 10
171.4083067691204
 20
268.23580262320468
 30
0.0
 11
171.4083067691204
 21
253.7358026232061
 31
0.0
  0
LINE
  5
647D
  8
AM_0
 10
171.4083067691204
 20
236.73580262320391
 30
0.0
 11
171.4083067691204
 21
212.2358166232045
 31
0.0
  0
LINE
  5
647E
  8
AM_0
 10
285.40829676912051
 20
227.01276362320439
 30
0.0
 11
280.96628676912042
 21
210.43489862320459
 31
0.0
  0
LINE
  5
647F
  8
AM_0
 10
286.90829676912051
 20
209.2358166232045
 30
0.0
 11
294.90830676912037
 21
209.2358166232045
 31
0.0
  0
LINE
  5
6480
  8
AM_0
 10
281.44883676912042
 20
212.2358166232045
 30
0.0
 11
286.90829676912051
 21
212.2358166232045
 31
0.0
  0
ARC
  5
6481
  8
AM_0
 10
279.03446676912051
 20
210.9525366232044
 30
0.0
 40
2.00000007
 50
270.0
 51
344.99999999999932
  0
LINE
  5
6482
  8
AM_0
 10
286.90829676912051
 20
297.17324162320449
 30
0.0
 11
294.90830676912037
 21
297.17324162320449
 31
0.0
  0
LINE
  5
6483
  8
AM_0
 10
286.90829676912051
 20
233.29836362320449
 30
0.0
 11
294.90830676912037
 21
233.29836362320449
 31
0.0
  0
LINE
  5
6484
  8
AM_0
 10
286.90829676912051
 20
219.23580062320451
 30
0.0
 11
294.90830676912037
 21
219.23580062320451
 31
0.0
  0
ARC
  5
6485
  8
AM_0
 10
283.73039676912049
 20
230.1906366232044
 30
0.0
 40
1.6779127499999991
 50
276.08620038402319
 51
83.913799615976814
  0
LINE
  5
6486
  8
AM_0
 10
286.90829676912051
 20
321.23579762320458
 30
0.0
 11
294.90830676912037
 21
321.23579762320458
 31
0.0
  0
LINE
  5
6487
  8
AM_0
 10
286.90829676912051
 20
311.23580762320449
 30
0.0
 11
294.90830676912037
 21
311.23580762320449
 31
0.0
  0
LINE
  5
6488
  8
AM_0
 10
281.44883676912042
 20
318.23579762320458
 30
0.0
 11
286.90829676912051
 21
318.23579762320458
 31
0.0
  0
ARC
  5
6489
  8
AM_0
 10
279.03446676912051
 20
319.51907762320462
 30
0.0
 40
2.00000007
 50
15.000000000000741
 51
90.00000299999769
  0
ARC
  5
648A
  8
AM_0
 10
286.55930676912061
 20
304.95881762320448
 30
0.0
 40
1.5000000299999989
 50
195.0000099999981
 51
270.0
  0
LINE
  5
648B
  8
AM_0
 10
285.1104567691205
 20
304.5706176232045
 30
0.0
 11
280.96628676912042
 21
320.03669762320447
 31
0.0
  0
LINE
  5
648C
  8
AM_0
 10
279.90829676912062
 20
219.23580262320451
 30
0.0
 11
191.90829676912051
 21
219.23580262320451
 31
0.0
  0
ARC
  5
648D
  8
AM_0
 10
209.9793645809859
 20
224.23580262320439
 30
0.0
 40
5.0
 50
225.0
 51
270.0
1001
GENIUS_GENOBJ-N-FIL_13
1002
{
1000
OWNER
1000
GEN
1002
}
1001
GENIUS_GENODEF_13
1002
{
1000
HIER
1070
     0
1002
}
1002
{
1000
MANEDIT
1070
     0
1002
}
1002
{
1000
NOSEL
1070
     0
1002
}
1002
{
1000
BEHIND
1070
     0
1002
}
1002
{
1000
OTHER
1070
     0
1002
}
1002
{
1000
REACTOR
1002
}
  0
LINE
  5
648E
  8
AM_0
 10
261.18037470776278
 20
224.23580262320439
 30
0.0
 11
210.63621883047821
 21
224.23580262320439
 31
0.0
  0
ARC
  5
648F
  8
AM_0
 10
261.18037470776278
 20
229.23580262320451
 30
0.0
 40
5.0
 50
270.0
 51
315.0
1001
GENIUS_GENOBJ-N-FIL_13
1002
{
1000
OWNER
1000
GEN
1002
}
1001
GENIUS_GENODEF_13
1002
{
1000
HIER
1070
     0
1002
}
1002
{
1000
MANEDIT
1070
     0
1002
}
1002
{
1000
NOSEL
1070
     0
1002
}
1002
{
1000
BEHIND
1070
     0
1002
}
1002
{
1000
OTHER
1070
     0
1002
}
1002
{
1000
REACTOR
1002
}
  0
ARC
  5
6490
  8
AM_0
 10
279.90829676912062
 20
223.23580262320451
 30
0.0
 40
4.0
 50
270.0
 51
0.0
1001
GENIUS_GENOBJ-N-FIL_13
1002
{
1000
OWNER
1000
GEN
1002
}
1001
GENIUS_GENODEF_13
1002
{
1000
HIER
1070
     0
1002
}
1002
{
1000
MANEDIT
1070
     0
1002
}
1002
{
1000
NOSEL
1070
     0
1002
}
1002
{
1000
BEHIND
1070
     0
1002
}
1002
{
1000
OTHER
1070
     0
1002
}
1002
{
1000
REACTOR
1002
}
  0
LINE
  5
6491
  8
AM_0
 10
279.90829676912051
 20
311.23580262320468
 30
0.0
 11
191.90829676912051
 21
311.23580262320462
 31
0.0
  0
ARC
  5
6492
  8
AM_0
 10
261.83722895725498
 20
306.23580262320468
 30
0.0
 40
5.0
 50
45.0
 51
90.0
1001
GENIUS_GENOBJ-N-FIL_13
1002
{
1000
OWNER
1000
GEN
1002
}
1001
GENIUS_GENODEF_13
1002
{
1000
HIER
1070
     0
1002
}
1002
{
1000
MANEDIT
1070
     0
1002
}
1002
{
1000
NOSEL
1070
     0
1002
}
1002
{
1000
BEHIND
1070
     0
1002
}
1002
{
1000
OTHER
1070
     0
1002
}
1002
{
1000
REACTOR
1002
}
  0
ARC
  5
6493
  8
AM_0
 10
209.97936458098621
 20
306.23580262320468
 30
0.0
 40
5.0
 50
90.0
 51
135.0
1001
GENIUS_GENODEF_13
1002
{
1000
HIER
1070
     0
1002
}
1002
{
1000
MANEDIT
1070
     0
1002
}
1002
{
1000
NOSEL
1070
     0
1002
}
1002
{
1000
BEHIND
1070
     0
1002
}
1002
{
1000
OTHER
1070
     0
1002
}
1002
{
1000
REACTOR
1002
}
1001
GENIUS_GENOBJ-N-FIL_13
1002
{
1000
OWNER
1000
GEN
1002
}
  0
LINE
  5
6494
  8
AM_0
 10
261.18037470776261
 20
306.23580262320462
 30
0.0
 11
210.63621883047841
 21
306.23580262320468
 31
0.0
  0
ARC
  5
6495
  8
AM_0
 10
210.63621883047841
 20
301.23580262320468
 30
0.0
 40
5.0
 50
90.0
 51
135.0
1001
GENIUS_GENODEF_13
1002
{
1000
HIER
1070
     0
1002
}
1002
{
1000
MANEDIT
1070
     0
1002
}
1002
{
1000
NOSEL
1070
     0
1002
}
1002
{
1000
BEHIND
1070
     0
1002
}
1002
{
1000
OTHER
1070
     0
1002
}
1002
{
1000
REACTOR
1002
}
1001
GENIUS_GENOBJ-N-FIL_13
1002
{
1000
OWNER
1000
GEN
1002
}
  0
ARC
  5
6496
  8
AM_0
 10
191.90829676912051
 20
307.23580262320462
 30
0.0
 40
4.0
 50
90.0
 51
180.0
1001
GENIUS_GENODEF_13
1002
{
1000
HIER
1070
     0
1002
}
1002
{
1000
MANEDIT
1070
     0
1002
}
1002
{
1000
NOSEL
1070
     0
1002
}
1002
{
1000
BEHIND
1070
     0
1002
}
1002
{
1000
OTHER
1070
     0
1002
}
1002
{
1000
REACTOR
1002
}
1001
GENIUS_GENOBJ-N-FIL_13
1002
{
1000
OWNER
1000
GEN
1002
}
  0
LINE
  5
6497
  8
AM_0
 10
187.90829676912051
 20
307.23580262320462
 30
0.0
 11
187.90829676912051
 21
223.23580262320451
 31
0.0
  0
ARC
  5
6498
  8
AM_0
 10
192.90829676912051
 20
241.30687043506981
 30
0.0
 40
5.0
 50
180.0
 51
225.0
1001
GENIUS_GENOBJ-N-FIL_13
1002
{
1000
OWNER
1000
GEN
1002
}
1001
GENIUS_GENODEF_13
1002
{
1000
HIER
1070
     0
1002
}
1002
{
1000
MANEDIT
1070
     0
1002
}
1002
{
1000
NOSEL
1070
     0
1002
}
1002
{
1000
BEHIND
1070
     0
1002
}
1002
{
1000
OTHER
1070
     0
1002
}
1002
{
1000
REACTOR
1002
}
  0
ARC
  5
6499
  8
AM_0
 10
192.90829676912051
 20
289.16473481133937
 30
0.0
 40
5.0
 50
135.0
 51
180.0
1001
GENIUS_GENOBJ-N-FIL_13
1002
{
1000
OWNER
1000
GEN
1002
}
1001
GENIUS_GENODEF_13
1002
{
1000
HIER
1070
     0
1002
}
1002
{
1000
MANEDIT
1070
     0
1002
}
1002
{
1000
NOSEL
1070
     0
1002
}
1002
{
1000
BEHIND
1070
     0
1002
}
1002
{
1000
OTHER
1070
     0
1002
}
1002
{
1000
REACTOR
1002
}
  0
LINE
  5
649A
  8
AM_0
 10
192.90829676912051
 20
288.50788056184678
 30
0.0
 11
192.9082967691204
 21
241.96372468456221
 31
0.0
  0
ARC
  5
649B
  8
AM_0
 10
197.9082967691204
 20
241.96372468456221
 30
0.0
 40
5.0
 50
180.0
 51
225.0
1001
GENIUS_GENOBJ-N-FIL_13
1002
{
1000
OWNER
1000
GEN
1002
}
1001
GENIUS_GENODEF_13
1002
{
1000
HIER
1070
     0
1002
}
1002
{
1000
MANEDIT
1070
     0
1002
}
1002
{
1000
NOSEL
1070
     0
1002
}
1002
{
1000
BEHIND
1070
     0
1002
}
1002
{
1000
OTHER
1070
     0
1002
}
1002
{
1000
REACTOR
1002
}
  0
ARC
  5
649C
  8
AM_0
 10
191.90829676912051
 20
223.23580262320451
 30
0.0
 40
4.0
 50
180.0
 51
270.0
1001
GENIUS_GENODEF_13
1002
{
1000
HIER
1070
     0
1002
}
1002
{
1000
MANEDIT
1070
     0
1002
}
1002
{
1000
NOSEL
1070
     0
1002
}
1002
{
1000
BEHIND
1070
     0
1002
}
1002
{
1000
OTHER
1070
     0
1002
}
1002
{
1000
REACTOR
1002
}
1001
GENIUS_GENOBJ-N-FIL_13
1002
{
1000
OWNER
1000
GEN
1002
}
  0
LINE
  5
649D
  8
AM_0
 10
283.90829676912051
 20
307.23580262320468
 30
0.0
 11
283.90829676912068
 21
223.23580262320451
 31
0.0
  0
ARC
  5
649E
  8
AM_0
 10
278.90829676912062
 20
289.1647348113392
 30
0.0
 40
5.0
 50
0.0
 51
45.0
1001
GENIUS_GENOBJ-N-FIL_13
1002
{
1000
OWNER
1000
GEN
1002
}
1001
GENIUS_GENODEF_13
1002
{
1000
HIER
1070
     0
1002
}
1002
{
1000
MANEDIT
1070
     0
1002
}
1002
{
1000
NOSEL
1070
     0
1002
}
1002
{
1000
BEHIND
1070
     0
1002
}
1002
{
1000
OTHER
1070
     0
1002
}
1002
{
1000
REACTOR
1002
}
  0
ARC
  5
649F
  8
AM_0
 10
278.90829676912062
 20
241.3068704350699
 30
0.0
 40
5.0
 50
315.0
 51
0.0
1001
GENIUS_GENOBJ-N-FIL_13
1002
{
1000
OWNER
1000
GEN
1002
}
1001
GENIUS_GENODEF_13
1002
{
1000
HIER
1070
     0
1002
}
1002
{
1000
MANEDIT
1070
     0
1002
}
1002
{
1000
NOSEL
1070
     0
1002
}
1002
{
1000
BEHIND
1070
     0
1002
}
1002
{
1000
OTHER
1070
     0
1002
}
1002
{
1000
REACTOR
1002
}
  0
LINE
  5
64A0
  8
AM_0
 10
265.37276286318769
 20
309.77133652913739
 30
0.0
 11
282.44383067505328
 21
292.70026871727191
 31
0.0
  0
LINE
  5
64A1
  8
AM_0
 10
264.71590861369532
 20
304.77133652913727
 30
0.0
 11
277.44383067505322
 21
292.04341446777971
 31
0.0
  0
ARC
  5
64A2
  8
AM_0
 10
261.18037470776261
 20
301.23580262320462
 30
0.0
 40
5.0
 50
45.0
 51
90.0
1001
GENIUS_GENOBJ-N-FIL_13
1002
{
1000
OWNER
1000
GEN
1002
}
1001
GENIUS_GENODEF_13
1002
{
1000
HIER
1070
     0
1002
}
1002
{
1000
MANEDIT
1070
     0
1002
}
1002
{
1000
NOSEL
1070
     0
1002
}
1002
{
1000
BEHIND
1070
     0
1002
}
1002
{
1000
OTHER
1070
     0
1002
}
1002
{
1000
REACTOR
1002
}
  0
LINE
  5
64A3
  8
AM_0
 10
278.9082967691204
 20
288.50788056184689
 30
0.0
 11
278.90829676912062
 21
241.96372468456221
 31
0.0
  0
ARC
  5
64A4
  8
AM_0
 10
273.9082967691204
 20
288.50788056184689
 30
0.0
 40
5.0
 50
0.0
 51
45.0
1001
GENIUS_GENODEF_13
1002
{
1000
HIER
1070
     0
1002
}
1002
{
1000
MANEDIT
1070
     0
1002
}
1002
{
1000
NOSEL
1070
     0
1002
}
1002
{
1000
BEHIND
1070
     0
1002
}
1002
{
1000
OTHER
1070
     0
1002
}
1002
{
1000
REACTOR
1002
}
1001
GENIUS_GENOBJ-N-FIL_13
1002
{
1000
OWNER
1000
GEN
1002
}
  0
ARC
  5
64A5
  8
AM_0
 10
279.90829676912051
 20
307.23580262320468
 30
0.0
 40
4.0
 50
0.0
 51
90.0
1001
GENIUS_GENODEF_13
1002
{
1000
HIER
1070
     0
1002
}
1002
{
1000
MANEDIT
1070
     0
1002
}
1002
{
1000
NOSEL
1070
     0
1002
}
1002
{
1000
BEHIND
1070
     0
1002
}
1002
{
1000
OTHER
1070
     0
1002
}
1002
{
1000
REACTOR
1002
}
1001
GENIUS_GENOBJ-N-FIL_13
1002
{
1000
OWNER
1000
GEN
1002
}
  0
LINE
  5
64A6
  8
ﾁｭｳｼﾝｾﾝ1
 10
278.90829676912199
 20
300.23580262320422
 30
0.0
 11
278.9082967691225
 21
312.23580262320422
 31
0.0
  0
LINE
  5
64A7
  8
ﾁｭｳｼﾝｾﾝ1
 10
284.90829676912222
 20
306.23580262320399
 30
0.0
 11
272.90829676912227
 21
306.23580262320462
 31
0.0
  0
LINE
  5
64A8
  8
AM_0
 10
184.40829676912051
 20
293.73580262320462
 30
0.0
 11
186.9082967691204
 21
293.73580262320479
 31
0.0
  0
LINE
  5
64A9
  8
AM_0
 10
186.90829676912051
 20
266.73580262320468
 30
0.0
 11
184.40829676912051
 21
266.73580262320462
 31
0.0
  0
LINE
  5
64AA
  8
AM_0
 10
173.5096256727744
 20
269.73580262320468
 30
0.0
 11
173.5096256727744
 21
290.73580262320462
 31
0.0
  0
LINE
  5
64AB
  8
AM_0
 10
158.5096256727744
 20
288.26742767721959
 30
0.0
 11
158.5096256727744
 21
272.20417756918869
 31
0.0
  0
LINE
  5
64AC
  8
AM_0
 10
171.5096256727744
 20
268.23580262320468
 30
0.0
 11
171.5096256727744
 21
292.23580262320462
 31
0.0
  0
LINE
  5
64AD
  8
AM_0
 10
162.0096256727744
 20
280.23580262320468
 30
0.0
 11
162.5096256727744
 21
279.73580262320468
 31
0.0
  0
LINE
  5
64AE
  8
AM_0
 10
169.0096256727744
 20
291.93580262320461
 30
0.0
 11
169.0096256727744
 21
268.53580262320457
 31
0.0
  0
LINE
  5
64AF
  8
AM_0
 10
178.90829676912051
 20
291.73580262320462
 30
0.0
 11
178.90829676912051
 21
268.73580262320462
 31
0.0
  0
LINE
  5
64B0
  8
AM_0
 10
173.0096256727744
 20
279.5358026232027
 30
0.0
 11
173.0096256727744
 21
280.93580262320557
 31
0.0
  0
LINE
  5
64B1
  8
AM_0
 10
175.10926139934551
 20
271.1358026232046
 30
0.0
 11
174.35926139934639
 21
289.3358026232047
 31
0.0
  0
LINE
  5
64B2
  8
AM_0
 10
174.15829676912051
 20
271.1358026232046
 30
0.0
 11
173.5096256727744
 21
286.87688789452068
 31
0.0
  0
LINE
  5
64B3
  8
AM_0
 10
174.9069893596924
 20
270.42014391084069
 30
0.0
 11
174.15972931628451
 21
290.04817438437158
 31
0.0
  0
LINE
  5
64B4
  8
AM_0
 10
174.35782885218239
 20
270.4234308620367
 30
0.0
 11
173.60926139934639
 21
290.0858026232047
 31
0.0
  0
LINE
  5
64B5
  8
AM_0
 10
171.5096256727744
 20
292.23580262320462
 30
0.0
 11
169.30962567277439
 21
292.23580262320462
 31
0.0
  0
ARC
  5
64B6
  8
AM_0
 10
183.4082967691206
 20
292.73580262320462
 30
0.0
 40
0.5
 50
269.99999999998693
 51
0.0
  0
ARC
  5
64B7
  8
AM_0
 10
184.4082967691206
 20
293.23580262320462
 30
0.0
 40
0.5
 50
90.0
 51
180.0
  0
LINE
  5
64B8
  8
AM_0
 10
183.90829676912051
 20
292.73580262320462
 30
0.0
 11
183.90829676912051
 21
293.23580262320462
 31
0.0
  0
LINE
  5
64B9
  8
AM_0
 10
174.90829676912051
 20
289.3358026232047
 30
0.0
 11
178.40829676912051
 21
289.33580262320459
 31
0.0
  0
LINE
  5
64BA
  8
AM_0
 10
183.90829676912051
 20
291.09187394461162
 30
0.0
 11
183.90829676912051
 21
281.37973130179671
 31
0.0
  0
LINE
  5
64BB
  8
AM_0
 10
179.40829676912051
 20
292.23580262320462
 30
0.0
 11
183.4082967691204
 21
292.23580262320462
 31
0.0
  0
LINE
  5
64BC
  8
AM_0
 10
183.40829676912051
 20
291.59187394461162
 30
0.0
 11
178.90829676912051
 21
291.59187394461162
 31
0.0
  0
ARC
  5
64BD
  8
AM_0
 10
183.4082967691206
 20
291.09187394461162
 30
0.0
 40
0.5
 50
0.0
 51
90.0
  0
ARC
  5
64BE
  8
AM_0
 10
178.40829676912051
 20
289.83580262320459
 30
0.0
 40
0.5
 50
270.0
 51
0.0
  0
ARC
  5
64BF
  8
AM_0
 10
179.40829676912051
 20
291.73580262320462
 30
0.0
 40
0.5
 50
90.0
 51
180.0
  0
LINE
  5
64C0
  8
AM_0
 10
183.40829676912051
 20
280.8797313017966
 30
0.0
 11
178.90829676912051
 21
280.8797313017966
 31
0.0
  0
ARC
  5
64C1
  8
AM_0
 10
183.40829676912051
 20
281.3797313017966
 30
0.0
 40
0.5
 50
270.0
 51
0.0
  0
LINE
  5
64C2
  8
AM_0
 10
173.0096256727744
 20
286.38097337549658
 30
0.0
 11
173.0096256727744
 21
285.2087301890636
 31
0.0
  0
LINE
  5
64C3
  8
AM_0
 10
174.4359938277714
 20
289.3358026232047
 30
0.0
 11
174.90829676912051
 21
289.3358026232047
 31
0.0
  0
LINE
  5
64C4
  8
AM_0
 10
174.33940133323219
 20
289.40992038994131
 30
0.0
 11
174.35926139934639
 21
289.3358026232047
 31
0.0
  0
ARC
  5
64C5
  8
AM_0
 10
174.43599382777151
 20
289.43580262320461
 30
0.0
 40
0.1000000000000346
 50
195.00019500644541
 51
270.0
  0
ARC
  5
64C6
  8
AM_0
 10
172.70962567277451
 20
289.52263560371262
 30
0.0
 40
0.3000000000000043
 50
270.0
 51
0.0
  0
LINE
  5
64C7
  8
AM_0
 10
171.5096256727744
 20
291.6358026232046
 30
0.0
 11
172.72958137593159
 21
291.5544722429936
 31
0.0
  0
LINE
  5
64C8
  8
AM_0
 10
171.5096256727744
 20
290.4795505873646
 30
0.0
 11
172.70962567277451
 21
290.4795505873646
 31
0.0
  0
LINE
  5
64C9
  8
AM_0
 10
173.0096256727744
 20
291.23580262320462
 30
0.0
 11
171.5096256727744
 21
291.23580262320462
 31
0.0
  0
ARC
  5
64CA
  8
AM_0
 10
173.0096256727744
 20
290.73580262320462
 30
0.0
 40
0.5
 50
0.0
 51
90.0
  0
LINE
  5
64CB
  8
AM_0
 10
173.0096256727744
 20
291.25513669563662
 30
0.0
 11
173.0096256727744
 21
291.23580262320462
 31
0.0
  0
ARC
  5
64CC
  8
AM_0
 10
172.70962567277451
 20
291.25513669563662
 30
0.0
 40
0.3000000000000007
 50
0.0
 51
86.185925165718416
  0
LINE
  5
64CD
  8
AM_0
 10
174.08156434069539
 20
290.0858026232047
 30
0.0
 11
174.15829676912151
 21
290.0858026232047
 31
0.0
  0
LINE
  5
64CE
  8
AM_0
 10
174.15829676912151
 20
290.0858026232047
 30
0.0
 11
174.1781568352346
 21
290.01168485646821
 31
0.0
  0
LINE
  5
64CF
  8
AM_0
 10
173.58940133323239
 20
290.01168485646821
 30
0.0
 11
173.60926139934639
 21
290.0858026232047
 31
0.0
  0
LINE
  5
64D0
  8
AM_0
 10
173.60926139934639
 20
290.0858026232047
 30
0.0
 11
173.6859938277714
 21
290.0858026232047
 31
0.0
  0
LINE
  5
64D1
  8
AM_0
 10
174.1781568352346
 20
290.01168485646821
 30
0.0
 11
174.33940133323219
 21
289.40992038994131
 31
0.0
  0
LINE
  5
64D2
  8
AM_0
 10
173.6859938277714
 20
290.0858026232047
 30
0.0
 11
174.08156434069539
 21
290.0858026232047
 31
0.0
  0
LINE
  5
64D3
  8
AM_0
 10
173.5096256727754
 20
289.71396209164368
 30
0.0
 11
173.58940133323239
 21
290.01168485646821
 31
0.0
  0
ARC
  5
64D4
  8
AM_0
 10
174.08156434069551
 20
289.98580262320462
 30
0.0
 40
0.0999999999999866
 50
15.000195006570261
 51
90.0
  0
ARC
  5
64D5
  8
AM_0
 10
173.68599382777151
 20
289.98580262320462
 30
0.0
 40
0.1000000000000014
 50
90.0
 51
164.99980499342971
  0
LINE
  5
64D6
  8
AM_0
 10
173.0096256727744
 20
290.17955058736459
 30
0.0
 11
173.0096256727744
 21
289.52263560371262
 31
0.0
  0
ARC
  5
64D7
  8
AM_0
 10
172.70962567277451
 20
290.17955058736459
 30
0.0
 40
0.3000000000000007
 50
0.0
 51
90.0
  0
LINE
  5
64D8
  8
AM_0
 10
171.5096256727744
 20
286.68097337549682
 30
0.0
 11
172.70962567277451
 21
286.68097337549682
 31
0.0
  0
LINE
  5
64D9
  8
AM_0
 10
172.70962567277451
 20
289.22263560371277
 30
0.0
 11
171.5096256727744
 21
289.22263560371277
 31
0.0
  0
LINE
  5
64DA
  8
AM_0
 10
174.35926139934639
 20
289.3358026232047
 30
0.0
 11
174.4359938277714
 21
289.3358026232047
 31
0.0
  0
ARC
  5
64DB
  8
AM_0
 10
172.70962567277451
 20
286.38097337549658
 30
0.0
 40
0.3000000000000007
 50
0.0
 51
90.0
  0
LINE
  5
64DC
  8
AM_0
 10
172.70962567277451
 20
284.9087301890637
 30
0.0
 11
171.5096256727744
 21
284.9087301890637
 31
0.0
  0
ARC
  5
64DD
  8
AM_0
 10
172.70962567277451
 20
285.2087301890636
 30
0.0
 40
0.3000000000000043
 50
270.0
 51
0.0
  0
LINE
  5
64DE
  8
AM_0
 10
172.70962567277451
 20
281.2358026232057
 30
0.0
 11
171.5096256727744
 21
281.2358026232057
 31
0.0
  0
ARC
  5
64DF
  8
AM_0
 10
172.70962567277451
 20
280.93580262320557
 30
0.0
 40
0.3000000000000007
 50
0.0
 51
90.0
  0
LINE
  5
64E0
  8
AM_0
 10
162.5096256727744
 20
290.36908245185163
 30
0.0
 11
169.0096256727744
 21
290.36908245185163
 31
0.0
  0
LINE
  5
64E1
  8
AM_0
 10
162.5096256727744
 20
290.86908245185163
 30
0.0
 11
169.0096256727744
 21
290.86908245185163
 31
0.0
  0
LINE
  5
64E2
  8
AM_0
 10
169.0096256727744
 20
280.73580262320468
 30
0.0
 11
162.5096256727744
 21
280.73580262320468
 31
0.0
  0
LINE
  5
64E3
  8
AM_0
 10
162.0096256727744
 20
281.23580262320468
 30
0.0
 11
169.0096256727744
 21
281.23580262320468
 31
0.0
  0
LINE
  5
64E4
  8
AM_0
 10
168.70962567277451
 20
291.23580262320462
 30
0.0
 11
161.8716756079564
 21
291.23580262320462
 31
0.0
  0
LINE
  5
64E5
  8
AM_0
 10
169.0096256727744
 20
281.58249069174559
 30
0.0
 11
162.5096256727744
 21
281.58249069174559
 31
0.0
  0
LINE
  5
64E6
  8
AM_0
 10
169.0096256727744
 20
289.88911455466371
 30
0.0
 11
162.5096256727744
 21
289.88911455466371
 31
0.0
  0
ARC
  5
64E7
  8
AM_0
 10
169.30962567277439
 20
291.93580262320461
 30
0.0
 40
0.2999999999999971
 50
90.0
 51
180.0
  0
ARC
  5
64E8
  8
AM_0
 10
168.70962567277451
 20
291.53580262320457
 30
0.0
 40
0.2999999999999971
 50
270.0
 51
0.0
  0
ARC
  5
64E9
  8
AM_0
 10
170.6346256727744
 20
285.73580262320462
 30
0.0
 40
9.124999999999984
 50
152.92493329272219
 51
207.07506670727781
  0
LINE
  5
64EA
  8
AM_0
 10
161.231491208292
 20
291.00402390280198
 30
0.0
 11
158.86944127310991
 21
289.03564895681711
 31
0.0
  0
LINE
  5
64EB
  8
AM_0
 10
162.0096256727744
 20
290.65737003969662
 30
0.0
 11
162.5096256727744
 21
291.23580262320462
 31
0.0
  0
ARC
  5
64EC
  8
AM_0
 10
161.8716756079564
 20
290.23580262320462
 30
0.0
 40
1.0
 50
90.0
 51
129.805571092256
  0
LINE
  5
64ED
  8
AM_0
 10
162.5096256727744
 20
290.86908245185163
 30
0.0
 11
162.0096256727744
 21
290.65737003969662
 31
0.0
  0
LINE
  5
64EE
  8
AM_0
 10
162.0096256727744
 20
290.19509476672562
 30
0.0
 11
162.5096256727744
 21
290.86908245185163
 31
0.0
  0
LINE
  5
64EF
  8
AM_0
 10
162.5096256727744
 20
290.36908245185163
 30
0.0
 11
162.0096256727744
 21
290.19509476672562
 31
0.0
  0
LINE
  5
64F0
  8
AM_0
 10
162.0096256727744
 20
289.65737003969662
 30
0.0
 11
162.5096256727744
 21
290.36908245185163
 31
0.0
  0
LINE
  5
64F1
  8
AM_0
 10
162.5096256727744
 20
289.88911455466371
 30
0.0
 11
162.0096256727744
 21
289.65737003969662
 31
0.0
  0
ARC
  5
64F2
  8
AM_0
 10
159.5096256727744
 20
288.26742767721959
 30
0.0
 40
1.0000000000000291
 50
129.80557109226311
 51
180.0
  0
LINE
  5
64F3
  8
AM_0
 10
162.5096256727744
 20
280.73580262320468
 30
0.0
 11
162.0096256727744
 21
280.23580262320468
 31
0.0
  0
LINE
  5
64F4
  8
AM_0
 10
162.0096256727744
 20
281.23580262320468
 30
0.0
 11
162.5096256727744
 21
280.73580262320468
 31
0.0
  0
LINE
  5
64F5
  8
AM_0
 10
162.5096256727744
 20
281.58249069174559
 30
0.0
 11
162.0096256727744
 21
281.23580262320468
 31
0.0
  0
LINE
  5
64F6
  8
AM_0
 10
169.30962567277439
 20
268.23580262320468
 30
0.0
 11
171.5096256727744
 21
268.23580262320468
 31
0.0
  0
ARC
  5
64F7
  8
AM_0
 10
183.40829676912051
 20
267.73580262320462
 30
0.0
 40
0.5
 50
0.0
 51
90.000000000006537
  0
LINE
  5
64F8
  8
AM_0
 10
178.40829676912051
 20
271.1358026232046
 30
0.0
 11
175.1859938277714
 21
271.1358026232046
 31
0.0
  0
LINE
  5
64F9
  8
AM_0
 10
183.90829676912051
 20
279.09187394461162
 30
0.0
 11
183.90829676912051
 21
269.3797313017966
 31
0.0
  0
LINE
  5
64FA
  8
AM_0
 10
178.90829676912051
 20
279.59187394461162
 30
0.0
 11
183.40829676912051
 21
279.59187394461162
 31
0.0
  0
ARC
  5
64FB
  8
AM_0
 10
183.40829676912051
 20
279.09187394461162
 30
0.0
 40
0.5
 50
0.0
 51
90.0
  0
LINE
  5
64FC
  8
AM_0
 10
178.90829676912051
 20
268.8797313017966
 30
0.0
 11
183.40829676912051
 21
268.8797313017966
 31
0.0
  0
LINE
  5
64FD
  8
AM_0
 10
183.4082967691204
 20
268.23580262320462
 30
0.0
 11
179.40829676912051
 21
268.23580262320462
 31
0.0
  0
ARC
  5
64FE
  8
AM_0
 10
183.40829676912051
 20
269.3797313017966
 30
0.0
 40
0.5
 50
270.0
 51
0.0
  0
ARC
  5
64FF
  8
AM_0
 10
178.40829676912051
 20
270.63580262320471
 30
0.0
 40
0.5
 50
0.0
 51
90.0
  0
ARC
  5
6500
  8
AM_0
 10
179.40829676912051
 20
268.73580262320462
 30
0.0
 40
0.5
 50
180.0
 51
270.0
  0
ARC
  5
6501
  8
AM_0
 10
172.70962567277451
 20
274.0906318709126
 30
0.0
 40
0.3000000000000114
 50
270.0
 51
0.0
  0
LINE
  5
6502
  8
AM_0
 10
171.5096256727744
 20
279.23580262320257
 30
0.0
 11
172.70962567277451
 21
279.23580262320257
 31
0.0
  0
ARC
  5
6503
  8
AM_0
 10
172.70962567277451
 20
279.53580262320253
 30
0.0
 40
0.2999999999999971
 50
270.0
 51
0.0
  0
LINE
  5
6504
  8
AM_0
 10
171.5096256727744
 20
275.56287505734559
 30
0.0
 11
172.70962567277451
 21
275.56287505734559
 31
0.0
  0
ARC
  5
6505
  8
AM_0
 10
172.70962567277451
 20
275.26287505734558
 30
0.0
 40
0.3000000000000007
 50
0.0
 51
90.0
  0
LINE
  5
6506
  8
AM_0
 10
173.0096256727744
 20
275.2628750573457
 30
0.0
 11
173.0096256727744
 21
274.09063187091272
 31
0.0
  0
LINE
  5
6507
  8
AM_0
 10
174.4359938277714
 20
270.38580262320471
 30
0.0
 11
174.83156434069539
 21
270.38580262320471
 31
0.0
  0
LINE
  5
6508
  8
AM_0
 10
174.4359938277714
 20
270.38580262320471
 30
0.0
 11
174.83156434069539
 21
270.38580262320471
 31
0.0
  0
LINE
  5
6509
  8
AM_0
 10
174.9281568352346
 20
270.4599203899412
 30
0.0
 11
175.08940133323239
 21
271.06168485646822
 31
0.0
  0
LINE
  5
650A
  8
AM_0
 10
174.9281568352346
 20
270.4599203899412
 30
0.0
 11
175.08940133323239
 21
271.06168485646822
 31
0.0
  0
ARC
  5
650B
  8
AM_0
 10
175.1859938277714
 20
271.03580262320469
 30
0.0
 40
0.0999999999999943
 50
90.0
 51
164.9998049934851
  0
ARC
  5
650C
  8
AM_0
 10
174.83156434069539
 20
270.48580262320462
 30
0.0
 40
0.0999999999999943
 50
270.0
 51
344.99980499349448
  0
LINE
  5
650D
  8
AM_0
 10
173.5087790842334
 20
270.76080262320443
 30
0.0
 11
173.58940133323239
 21
271.06168485646822
 31
0.0
  0
LINE
  5
650E
  8
AM_0
 10
174.16100742132639
 20
271.09653809010661
 30
0.0
 11
174.33940133323239
 21
270.4599203899412
 31
0.0
  0
LINE
  5
650F
  8
AM_0
 10
174.1781568352346
 20
271.06168485646822
 30
0.0
 11
174.33940133323239
 21
270.4599203899412
 31
0.0
  0
LINE
  5
6510
  8
AM_0
 10
173.0096256727744
 20
270.94896964269572
 30
0.0
 11
173.0096256727744
 21
270.2920546590446
 31
0.0
  0
LINE
  5
6511
  8
AM_0
 10
173.5096256727744
 20
270.76396209164261
 30
0.0
 11
173.58940133323239
 21
271.06168485646822
 31
0.0
  0
LINE
  5
6512
  8
AM_0
 10
171.5096256727744
 20
271.24896964269573
 30
0.0
 11
172.70962567277451
 21
271.24896964269573
 31
0.0
  0
LINE
  5
6513
  8
AM_0
 10
172.70962567277451
 20
273.79063187091248
 30
0.0
 11
171.5096256727744
 21
273.79063187091162
 31
0.0
  0
LINE
  5
6514
  8
AM_0
 10
174.1141966062105
 20
271.1358026232046
 30
0.0
 11
174.16100742132639
 21
271.09653809010661
 31
0.0
  0
LINE
  5
6515
  8
AM_0
 10
173.6859938277714
 20
271.1358026232046
 30
0.0
 11
174.1141966062105
 21
271.1358026232046
 31
0.0
  0
LINE
  5
6516
  8
AM_0
 10
173.6859938277714
 20
271.1358026232046
 30
0.0
 11
174.08156434069539
 21
271.1358026232046
 31
0.0
  0
ARC
  5
6517
  8
AM_0
 10
173.6859938277714
 20
271.03580262320469
 30
0.0
 40
0.0999999999999943
 50
90.0
 51
164.9998049934851
  0
ARC
  5
6518
  8
AM_0
 10
174.08156434069539
 20
271.03580262320469
 30
0.0
 40
0.0999999999999608
 50
15.000195006514859
 51
90.0
  0
ARC
  5
6519
  8
AM_0
 10
172.70962567277451
 20
270.9489696426956
 30
0.0
 40
0.3000000000000007
 50
0.0
 51
90.0
  0
LINE
  5
651A
  8
AM_0
 10
171.5096256727744
 20
269.23580262320468
 30
0.0
 11
173.0096256727744
 21
269.23580262320468
 31
0.0
  0
LINE
  5
651B
  8
AM_0
 10
172.70962567277451
 20
269.9920546590447
 30
0.0
 11
171.5096256727744
 21
269.9920546590447
 31
0.0
  0
LINE
  5
651C
  8
AM_0
 10
172.72958137593159
 20
268.91713300341462
 30
0.0
 11
171.5096256727744
 21
268.8358026232047
 31
0.0
  0
ARC
  5
651D
  8
AM_0
 10
173.0096256727744
 20
269.73580262320462
 30
0.0
 40
0.5
 50
270.0
 51
0.0
  0
ARC
  5
651E
  8
AM_0
 10
174.4359938277714
 20
270.48580262320462
 30
0.0
 40
0.0999999999999606
 50
195.00019500650541
 51
270.0
  0
ARC
  5
651F
  8
AM_0
 10
172.70962567277451
 20
270.2920546590446
 30
0.0
 40
0.2999999999999971
 50
270.0
 51
0.0
  0
LINE
  5
6520
  8
AM_0
 10
173.0096256727744
 20
269.23580262320468
 30
0.0
 11
173.0096256727744
 21
269.21646855077159
 31
0.0
  0
ARC
  5
6521
  8
AM_0
 10
172.70962567277451
 20
269.21646855077159
 30
0.0
 40
0.3000000000000043
 50
273.8140748342816
 51
0.0
  0
ARC
  5
6522
  8
AM_0
 10
184.40829676912051
 20
267.23580262320462
 30
0.0
 40
0.5
 50
180.0
 51
270.0
  0
LINE
  5
6523
  8
AM_0
 10
183.90829676912051
 20
267.23580262320462
 30
0.0
 11
183.90829676912051
 21
267.73580262320462
 31
0.0
  0
LINE
  5
6524
  8
AM_0
 10
162.5096256727744
 20
270.58249069174559
 30
0.0
 11
169.0096256727744
 21
270.58249069174559
 31
0.0
  0
LINE
  5
6525
  8
AM_0
 10
162.5096256727744
 20
278.88911455466371
 30
0.0
 11
169.0096256727744
 21
278.88911455466371
 31
0.0
  0
LINE
  5
6526
  8
AM_0
 10
161.8716756079564
 20
269.23580262320468
 30
0.0
 11
168.70962567277451
 21
269.23580262320468
 31
0.0
  0
LINE
  5
6527
  8
AM_0
 10
169.0096256727744
 20
279.23580262320468
 30
0.0
 11
162.0096256727744
 21
279.23580262320468
 31
0.0
  0
LINE
  5
6528
  8
AM_0
 10
162.5096256727744
 20
279.73580262320468
 30
0.0
 11
169.0096256727744
 21
279.73580262320468
 31
0.0
  0
LINE
  5
6529
  8
AM_0
 10
169.0096256727744
 20
269.60252279455659
 30
0.0
 11
162.5096256727744
 21
269.60252279455659
 31
0.0
  0
LINE
  5
652A
  8
AM_0
 10
169.0096256727744
 20
270.10252279455659
 30
0.0
 11
162.5096256727744
 21
270.10252279455659
 31
0.0
  0
ARC
  5
652B
  8
AM_0
 10
168.70962567277451
 20
268.93580262320461
 30
0.0
 40
0.3000000000000043
 50
0.0
 51
90.0
  0
ARC
  5
652C
  8
AM_0
 10
169.30962567277439
 20
268.53580262320457
 30
0.0
 40
0.2999999999999971
 50
180.0
 51
270.0
  0
ARC
  5
652D
  8
AM_0
 10
170.6346256727744
 20
274.73580262320462
 30
0.0
 40
9.124999999999984
 50
152.92493329272219
 51
207.07506670727781
  0
LINE
  5
652E
  8
AM_0
 10
162.0096256727744
 20
279.23580262320468
 30
0.0
 11
162.5096256727744
 21
278.88911455466371
 31
0.0
  0
LINE
  5
652F
  8
AM_0
 10
162.5096256727744
 20
279.73580262320468
 30
0.0
 11
162.0096256727744
 21
279.23580262320468
 31
0.0
  0
LINE
  5
6530
  8
AM_0
 10
158.86944127310991
 20
271.43595628959122
 30
0.0
 11
161.231491208292
 21
269.46758134360709
 31
0.0
  0
LINE
  5
6531
  8
AM_0
 10
162.5096256727744
 20
269.23580262320468
 30
0.0
 11
162.0096256727744
 21
269.81423520671171
 31
0.0
  0
ARC
  5
6532
  8
AM_0
 10
161.8716756079564
 20
270.23580262320462
 30
0.0
 40
1.0000000000000411
 50
230.19442890774391
 51
270.0
  0
LINE
  5
6533
  8
AM_0
 10
162.0096256727744
 20
270.81423520671171
 30
0.0
 11
162.5096256727744
 21
270.58249069174559
 31
0.0
  0
LINE
  5
6534
  8
AM_0
 10
162.5096256727744
 20
270.10252279455659
 30
0.0
 11
162.0096256727744
 21
270.81423520671171
 31
0.0
  0
LINE
  5
6535
  8
AM_0
 10
162.0096256727744
 20
270.27651047968368
 30
0.0
 11
162.5096256727744
 21
270.10252279455659
 31
0.0
  0
LINE
  5
6536
  8
AM_0
 10
162.5096256727744
 20
269.60252279455659
 30
0.0
 11
162.0096256727744
 21
270.27651047968368
 31
0.0
  0
LINE
  5
6537
  8
AM_0
 10
162.0096256727744
 20
269.81423520671171
 30
0.0
 11
162.5096256727744
 21
269.60252279455659
 31
0.0
  0
ARC
  5
6538
  8
AM_0
 10
159.5096256727744
 20
272.20417756918857
 30
0.0
 40
1.0
 50
180.0
 51
230.19442890773689
  0
CIRCLE
  5
6539
  8
AM_0
 10
192.90829676911881
 20
306.23580262320422
 30
0.0
 40
4.0
  0
LINE
  5
653A
  8
AM_0
 10
192.5967967691187
 20
303.95699421747992
 30
0.0
 11
193.2197967691188
 21
303.95699421747992
 31
0.0
  0
LINE
  5
653B
  8
AM_0
 10
192.5967967691187
 20
308.51461102892858
 30
0.0
 11
193.2197967691188
 21
308.51461102892858
 31
0.0
  0
LINE
  5
653C
  8
AM_0
 10
192.5967967691187
 20
303.95699421747992
 30
0.0
 11
192.5967967691187
 21
305.92430262320431
 31
0.0
  0
LINE
  5
653D
  8
AM_0
 10
192.5967967691187
 20
306.5473026232043
 30
0.0
 11
192.5967967691187
 21
308.51461102892858
 31
0.0
  0
LINE
  5
653E
  8
AM_0
 10
192.5967967691187
 20
306.5473026232043
 30
0.0
 11
190.62948836339439
 21
306.5473026232043
 31
0.0
  0
LINE
  5
653F
  8
AM_0
 10
192.5967967691187
 20
305.92430262320431
 30
0.0
 11
190.62948836339439
 21
305.92430262320431
 31
0.0
  0
LINE
  5
6540
  8
AM_0
 10
190.62948836339439
 20
306.5473026232043
 30
0.0
 11
190.62948836339439
 21
305.92430262320431
 31
0.0
  0
LINE
  5
6541
  8
AM_0
 10
193.2197967691188
 20
303.95699421747992
 30
0.0
 11
193.2197967691188
 21
305.92430262320431
 31
0.0
  0
LINE
  5
6542
  8
AM_0
 10
193.2197967691188
 20
306.5473026232043
 30
0.0
 11
193.2197967691188
 21
308.51461102892858
 31
0.0
  0
LINE
  5
6543
  8
AM_0
 10
195.18710517484311
 20
305.92430262320431
 30
0.0
 11
193.2197967691188
 21
305.92430262320431
 31
0.0
  0
LINE
  5
6544
  8
AM_0
 10
195.18710517484311
 20
306.5473026232043
 30
0.0
 11
193.2197967691188
 21
306.5473026232043
 31
0.0
  0
LINE
  5
6545
  8
AM_0
 10
195.18710517484311
 20
306.5473026232043
 30
0.0
 11
195.18710517484311
 21
305.92430262320431
 31
0.0
  0
CIRCLE
  5
6546
  8
AM_0
 10
278.90829676912227
 20
306.23580262320422
 30
0.0
 40
4.0
  0
LINE
  5
6547
  8
AM_0
 10
278.59679676912242
 20
303.95699421747992
 30
0.0
 11
279.2197967691223
 21
303.95699421747992
 31
0.0
  0
LINE
  5
6548
  8
AM_0
 10
278.59679676912242
 20
308.51461102892858
 30
0.0
 11
279.2197967691223
 21
308.51461102892858
 31
0.0
  0
LINE
  5
6549
  8
AM_0
 10
278.59679676912242
 20
303.95699421747992
 30
0.0
 11
278.59679676912242
 21
305.92430262320431
 31
0.0
  0
LINE
  5
654A
  8
AM_0
 10
278.59679676912242
 20
306.5473026232043
 30
0.0
 11
278.59679676912242
 21
308.51461102892858
 31
0.0
  0
LINE
  5
654B
  8
AM_0
 10
278.59679676912242
 20
306.5473026232043
 30
0.0
 11
276.62948836339802
 21
306.5473026232043
 31
0.0
  0
LINE
  5
654C
  8
AM_0
 10
278.59679676912242
 20
305.92430262320431
 30
0.0
 11
276.62948836339802
 21
305.92430262320431
 31
0.0
  0
LINE
  5
654D
  8
AM_0
 10
276.62948836339802
 20
306.5473026232043
 30
0.0
 11
276.62948836339802
 21
305.92430262320431
 31
0.0
  0
LINE
  5
654E
  8
AM_0
 10
279.2197967691223
 20
303.95699421747992
 30
0.0
 11
279.2197967691223
 21
305.92430262320431
 31
0.0
  0
LINE
  5
654F
  8
AM_0
 10
279.2197967691223
 20
306.5473026232043
 30
0.0
 11
279.2197967691223
 21
308.51461102892858
 31
0.0
  0
LINE
  5
6550
  8
AM_0
 10
281.18710517484669
 20
305.92430262320431
 30
0.0
 11
279.2197967691223
 21
305.92430262320431
 31
0.0
  0
LINE
  5
6551
  8
AM_0
 10
281.18710517484669
 20
306.5473026232043
 30
0.0
 11
279.2197967691223
 21
306.5473026232043
 31
0.0
  0
LINE
  5
6552
  8
AM_0
 10
281.18710517484669
 20
306.5473026232043
 30
0.0
 11
281.18710517484669
 21
305.92430262320431
 31
0.0
  0
LINE
  5
6553
  8
AM_0
 10
206.4438306750535
 20
309.7713365291375
 30
0.0
 11
189.37276286318769
 21
292.70026871727208
 31
0.0
  0
LINE
  5
6554
  8
AM_0
 10
207.1006849245457
 20
304.77133652913739
 30
0.0
 11
194.37276286318769
 21
292.04341446777948
 31
0.0
  0
ARC
  5
6555
  8
AM_0
 10
197.90829676912051
 20
288.50788056184678
 30
0.0
 40
5.0
 50
135.0
 51
180.0
1001
GENIUS_GENOBJ-N-FIL_13
1002
{
1000
OWNER
1000
GEN
1002
}
1001
GENIUS_GENODEF_13
1002
{
1000
HIER
1070
     0
1002
}
1002
{
1000
MANEDIT
1070
     0
1002
}
1002
{
1000
NOSEL
1070
     0
1002
}
1002
{
1000
BEHIND
1070
     0
1002
}
1002
{
1000
OTHER
1070
     0
1002
}
1002
{
1000
REACTOR
1002
}
  0
LINE
  5
6556
  8
AM_0
 10
265.3727628631878
 20
220.70026871727171
 30
0.0
 11
282.44383067505328
 21
237.77133652913719
 31
0.0
  0
ARC
  5
6557
  8
AM_0
 10
261.83722895725498
 20
224.23580262320439
 30
0.0
 40
5.0
 50
270.0
 51
315.0
1001
GENIUS_GENODEF_13
1002
{
1000
HIER
1070
     0
1002
}
1002
{
1000
MANEDIT
1070
     0
1002
}
1002
{
1000
NOSEL
1070
     0
1002
}
1002
{
1000
BEHIND
1070
     0
1002
}
1002
{
1000
OTHER
1070
     0
1002
}
1002
{
1000
REACTOR
1002
}
1001
GENIUS_GENOBJ-N-FIL_13
1002
{
1000
OWNER
1000
GEN
1002
}
  0
LINE
  5
6558
  8
AM_0
 10
264.71590861369538
 20
225.70026871727171
 30
0.0
 11
277.44383067505328
 21
238.42819077862941
 31
0.0
  0
ARC
  5
6559
  8
AM_0
 10
273.90829676912062
 20
241.96372468456221
 30
0.0
 40
5.0
 50
315.0
 51
0.0
1001
GENIUS_GENOBJ-N-FIL_13
1002
{
1000
OWNER
1000
GEN
1002
}
1001
GENIUS_GENODEF_13
1002
{
1000
HIER
1070
     0
1002
}
1002
{
1000
MANEDIT
1070
     0
1002
}
1002
{
1000
NOSEL
1070
     0
1002
}
1002
{
1000
BEHIND
1070
     0
1002
}
1002
{
1000
OTHER
1070
     0
1002
}
1002
{
1000
REACTOR
1002
}
  0
LINE
  5
655A
  8
AM_0
 10
206.44383067505331
 20
220.70026871727171
 30
0.0
 11
189.37276286318769
 21
237.77133652913699
 31
0.0
  0
LINE
  5
655B
  8
AM_0
 10
207.1006849245455
 20
225.7002687172718
 30
0.0
 11
194.37276286318769
 21
238.42819077862941
 31
0.0
  0
ARC
  5
655C
  8
AM_0
 10
210.63621883047821
 20
229.23580262320451
 30
0.0
 40
5.0
 50
225.0
 51
270.0
1001
GENIUS_GENOBJ-N-FIL_13
1002
{
1000
OWNER
1000
GEN
1002
}
1001
GENIUS_GENODEF_13
1002
{
1000
HIER
1070
     0
1002
}
1002
{
1000
MANEDIT
1070
     0
1002
}
1002
{
1000
NOSEL
1070
     0
1002
}
1002
{
1000
BEHIND
1070
     0
1002
}
1002
{
1000
OTHER
1070
     0
1002
}
1002
{
1000
REACTOR
1002
}
  0
CIRCLE
  5
655D
  8
AM_0
 10
192.90829676911869
 20
224.2358026232049
 30
0.0
 40
4.0
  0
LINE
  5
655E
  8
AM_0
 10
192.5967967691187
 20
226.51461102892929
 30
0.0
 11
193.21979676911869
 21
226.51461102892929
 31
0.0
  0
LINE
  5
655F
  8
AM_0
 10
192.5967967691187
 20
221.9569942174806
 30
0.0
 11
193.21979676911869
 21
221.9569942174806
 31
0.0
  0
LINE
  5
6560
  8
AM_0
 10
192.5967967691187
 20
226.51461102892929
 30
0.0
 11
192.5967967691187
 21
224.5473026232049
 31
0.0
  0
LINE
  5
6561
  8
AM_0
 10
192.5967967691187
 20
223.92430262320491
 30
0.0
 11
192.5967967691187
 21
221.9569942174806
 31
0.0
  0
LINE
  5
6562
  8
AM_0
 10
192.5967967691187
 20
223.92430262320491
 30
0.0
 11
190.6294883633943
 21
223.92430262320491
 31
0.0
  0
LINE
  5
6563
  8
AM_0
 10
192.5967967691187
 20
224.5473026232049
 30
0.0
 11
190.6294883633943
 21
224.5473026232049
 31
0.0
  0
LINE
  5
6564
  8
AM_0
 10
190.6294883633943
 20
223.92430262320491
 30
0.0
 11
190.6294883633943
 21
224.5473026232049
 31
0.0
  0
LINE
  5
6565
  8
AM_0
 10
193.21979676911869
 20
226.51461102892929
 30
0.0
 11
193.21979676911869
 21
224.5473026232049
 31
0.0
  0
LINE
  5
6566
  8
AM_0
 10
193.21979676911869
 20
223.92430262320491
 30
0.0
 11
193.21979676911869
 21
221.9569942174806
 31
0.0
  0
LINE
  5
6567
  8
AM_0
 10
195.187105174843
 20
224.5473026232049
 30
0.0
 11
193.21979676911869
 21
224.5473026232049
 31
0.0
  0
LINE
  5
6568
  8
AM_0
 10
195.187105174843
 20
223.92430262320491
 30
0.0
 11
193.21979676911869
 21
223.92430262320491
 31
0.0
  0
LINE
  5
6569
  8
AM_0
 10
195.187105174843
 20
223.92430262320491
 30
0.0
 11
195.187105174843
 21
224.5473026232049
 31
0.0
  0
CIRCLE
  5
656A
  8
AM_0
 10
278.90829676912222
 20
224.23580262320471
 30
0.0
 40
4.0
  0
LINE
  5
656B
  8
AM_0
 10
278.59679676912231
 20
226.5146110289291
 30
0.0
 11
279.21979676912218
 21
226.5146110289291
 31
0.0
  0
LINE
  5
656C
  8
AM_0
 10
278.59679676912231
 20
221.9569942174804
 30
0.0
 11
279.21979676912218
 21
221.9569942174804
 31
0.0
  0
LINE
  5
656D
  8
AM_0
 10
278.59679676912231
 20
226.5146110289291
 30
0.0
 11
278.59679676912231
 21
224.5473026232047
 31
0.0
  0
LINE
  5
656E
  8
AM_0
 10
278.59679676912231
 20
223.92430262320471
 30
0.0
 11
278.59679676912231
 21
221.9569942174804
 31
0.0
  0
LINE
  5
656F
  8
AM_0
 10
278.59679676912231
 20
223.92430262320471
 30
0.0
 11
276.62948836339791
 21
223.92430262320471
 31
0.0
  0
LINE
  5
6570
  8
AM_0
 10
278.59679676912231
 20
224.5473026232047
 30
0.0
 11
276.62948836339791
 21
224.5473026232047
 31
0.0
  0
LINE
  5
6571
  8
AM_0
 10
276.62948836339791
 20
223.92430262320471
 30
0.0
 11
276.62948836339791
 21
224.5473026232047
 31
0.0
  0
LINE
  5
6572
  8
AM_0
 10
279.21979676912218
 20
226.5146110289291
 30
0.0
 11
279.21979676912218
 21
224.5473026232047
 31
0.0
  0
LINE
  5
6573
  8
AM_0
 10
279.21979676912218
 20
223.92430262320471
 30
0.0
 11
279.21979676912218
 21
221.9569942174804
 31
0.0
  0
LINE
  5
6574
  8
AM_0
 10
281.18710517484658
 20
224.5473026232047
 30
0.0
 11
279.21979676912218
 21
224.5473026232047
 31
0.0
  0
LINE
  5
6575
  8
AM_0
 10
281.18710517484658
 20
223.92430262320471
 30
0.0
 11
279.21979676912218
 21
223.92430262320471
 31
0.0
  0
LINE
  5
6576
  8
AM_0
 10
281.18710517484658
 20
223.92430262320471
 30
0.0
 11
281.18710517484658
 21
224.5473026232047
 31
0.0
  0
LINE
  5
6577
  8
AM_0
 10
187.90829676912051
 20
234.23580262320459
 30
0.0
 11
186.90829676912051
 21
234.23580262320459
 31
0.0
  0
LINE
  5
6578
  8
AM_0
 10
187.90829676912051
 20
296.23580262320462
 30
0.0
 11
186.90829676912051
 21
296.23580262320451
 31
0.0
  0
LINE
  5
6579
  8
AM_0
 10
186.90829676912051
 20
234.23580262320459
 30
0.0
 11
186.90829676912051
 21
296.23580262320451
 31
0.0
  0
LINE
  5
657A
  8
ﾁｭｳｼﾝｾﾝ1
 10
192.90829676911841
 20
300.23580262320422
 30
0.0
 11
192.908296769119
 21
312.23580262320422
 31
0.0
  0
LINE
  5
657B
  8
ﾁｭｳｼﾝｾﾝ1
 10
198.90829676911881
 20
306.23580262320411
 30
0.0
 11
186.90829676911881
 21
306.23580262320468
 31
0.0
  0
LINE
  5
657C
  8
ﾁｭｳｼﾝｾﾝ1
 10
192.90829676911829
 20
218.2358026232049
 30
0.0
 11
192.908296769119
 21
230.2358026232049
 31
0.0
  0
LINE
  5
657D
  8
ﾁｭｳｼﾝｾﾝ1
 10
198.90829676911869
 20
224.23580262320471
 30
0.0
 11
186.90829676911869
 21
224.23580262320519
 31
0.0
  0
LINE
  5
657E
  8
ﾁｭｳｼﾝｾﾝ1
 10
278.90829676912188
 20
218.23580262320471
 30
0.0
 11
278.9082967691225
 21
230.23580262320471
 31
0.0
  0
LINE
  5
657F
  8
ﾁｭｳｼﾝｾﾝ1
 10
284.90829676912222
 20
224.23580262320439
 30
0.0
 11
272.90829676912222
 21
224.2358026232051
 31
0.0
  0
LINE
  5
6580
  8
AM_0
 10
150.8058445092382
 20
242.23580262320439
 30
0.0
 11
159.9082967691204
 21
242.23580262320439
 31
0.0
  0
ARC
  5
6581
  8
AM_0
 10
150.8058445092382
 20
232.23580262320439
 30
0.0
 40
10.0
 50
90.0
 51
149.9999999999994
1001
GENIUS_GENOBJ-N-FIL_13
1002
{
1000
OWNER
1000
GEN
1002
}
1001
GENIUS_GENODEF_13
1002
{
1000
HIER
1070
     0
1002
}
1002
{
1000
MANEDIT
1070
     0
1002
}
1002
{
1000
NOSEL
1070
     0
1002
}
1002
{
1000
BEHIND
1070
     0
1002
}
1002
{
1000
OTHER
1070
     0
1002
}
1002
{
1000
REACTOR
1002
}
  0
LINE
  5
6582
  8
AM_0
 10
153.11524558599669
 20
248.23580262320451
 30
0.0
 11
159.90829676912051
 21
248.23580262320439
 31
0.0
  0
ARC
  5
6583
  8
AM_0
 10
153.11524558599669
 20
228.23580262320439
 30
0.0
 40
20.0
 50
90.0
 51
149.9999999999994
1001
GENIUS_GENODEF_13
1002
{
1000
HIER
1070
     0
1002
}
1002
{
1000
MANEDIT
1070
     0
1002
}
1002
{
1000
NOSEL
1070
     0
1002
}
1002
{
1000
BEHIND
1070
     0
1002
}
1002
{
1000
OTHER
1070
     0
1002
}
1002
{
1000
REACTOR
1002
}
1001
GENIUS_GENOBJ-N-FIL_13
1002
{
1000
OWNER
1000
GEN
1002
}
  0
LINE
  5
6584
  8
AM_0
 10
176.78329676912151
 20
238.84574856708039
 30
0.0
 11
176.79400637366641
 21
238.6358026232044
 31
0.0
  0
LINE
  5
6585
  8
AM_0
 10
176.79400637366641
 20
238.6358026232044
 30
0.0
 11
176.8303117608674
 21
237.9240892493174
 31
0.0
  0
LINE
  5
6586
  8
AM_0
 10
176.78329676912151
 20
242.60308011472139
 30
0.0
 11
177.02932299180151
 21
238.6358026232044
 31
0.0
  0
LINE
  5
6587
  8
AM_0
 10
177.50162593315051
 20
238.6358026232044
 30
0.0
 11
177.10605542022651
 21
238.6358026232044
 31
0.0
  0
LINE
  5
6588
  8
AM_0
 10
177.00946292568739
 20
238.56168485646899
 30
0.0
 11
176.8482184276896
 21
237.95992038994089
 31
0.0
  0
LINE
  5
6589
  8
AM_0
 10
177.02932299180151
 20
238.6358026232044
 30
0.0
 11
177.00946292568739
 21
238.56168485646899
 31
0.0
  0
LINE
  5
658A
  8
AM_0
 10
175.28329676912151
 20
236.23580262320439
 30
0.0
 11
175.28329676912151
 21
236.53580262320551
 31
0.0
  0
LINE
  5
658B
  8
AM_0
 10
164.78329676912051
 20
239.73580262320451
 30
0.0
 11
164.78329676912051
 21
239.90338768234051
 31
0.0
  0
LINE
  5
658C
  8
AM_0
 10
164.78329676912051
 20
245.23580262320439
 30
0.0
 11
164.78329676912051
 21
239.91682759079541
 31
0.0
  0
LINE
  5
658D
  8
AM_0
 10
167.5174842421105
 20
236.73580262320249
 30
0.0
 11
167.2832967691175
 21
236.73580262320249
 31
0.0
  0
LINE
  5
658E
  8
AM_0
 10
167.13337360231139
 20
236.9157104233708
 30
0.0
 11
167.2832967691175
 21
236.73580262320249
 31
0.0
  0
LINE
  5
658F
  8
AM_0
 10
164.78329676912051
 20
239.73580262320451
 30
0.0
 11
164.89918612932161
 21
239.59673539096349
 31
0.0
  0
LINE
  5
6590
  8
AM_0
 10
175.28329676912151
 20
236.7358026232055
 30
0.0
 11
176.58329676912149
 21
236.7358026232055
 31
0.0
  0
LINE
  5
6591
  8
AM_0
 10
176.28329676912051
 20
236.70729889183951
 30
0.0
 11
176.28329676912151
 21
236.7358026232055
 31
0.0
  0
LINE
  5
6592
  8
AM_0
 10
167.28329676911841
 20
237.70361141506851
 30
0.0
 11
173.28329676912151
 21
237.70361141506851
 31
0.0
  0
LINE
  5
6593
  8
AM_0
 10
173.28329676912151
 20
237.20361141506851
 30
0.0
 11
167.2832967691175
 21
237.20361141506851
 31
0.0
  0
LINE
  5
6594
  8
AM_0
 10
167.2832967691175
 20
237.20361141506851
 30
0.0
 11
167.7832967691175
 21
236.73580262320439
 31
0.0
  0
LINE
  5
6595
  8
AM_0
 10
167.7832967691175
 20
237.20361141506851
 30
0.0
 11
167.28329676911841
 21
237.70361141506851
 31
0.0
  0
LINE
  5
6596
  8
AM_0
 10
167.28329676911841
 20
238.37458669103751
 30
0.0
 11
167.7832967691175
 21
237.70361141506851
 31
0.0
  0
LINE
  5
6597
  8
AM_0
 10
167.7832967691175
 20
238.4240649317145
 30
0.0
 11
167.28329676911841
 21
238.37458669103751
 31
0.0
  0
LINE
  5
6598
  8
AM_0
 10
173.28329676912151
 20
244.14560878814649
 30
0.0
 11
173.28329676912151
 21
245.23580262320439
 31
0.0
  0
LINE
  5
6599
  8
AM_0
 10
167.2832967691175
 20
244.23580262320451
 30
0.0
 11
173.28329676912151
 21
244.23580262320451
 31
0.0
  0
LINE
  5
659A
  8
AM_0
 10
167.7832967691175
 20
243.5475403146944
 30
0.0
 11
167.2832967691175
 21
244.23580262320451
 31
0.0
  0
LINE
  5
659B
  8
AM_0
 10
167.2832967691175
 20
244.23580262320451
 30
0.0
 11
167.78329676911861
 21
244.73580262320439
 31
0.0
  0
LINE
  5
659C
  8
AM_0
 10
167.28329676911841
 20
245.23580262320439
 30
0.0
 11
167.78329676911861
 21
244.73580262320439
 31
0.0
  0
LINE
  5
659D
  8
AM_0
 10
167.78329676911861
 20
244.73580262320439
 30
0.0
 11
173.28329676912151
 21
244.73580262320439
 31
0.0
  0
LINE
  5
659E
  8
AM_0
 10
167.7832967691175
 20
243.5475403146944
 30
0.0
 11
173.28329676912151
 21
243.5475403146944
 31
0.0
  0
LINE
  5
659F
  8
AM_0
 10
167.7832967691175
 20
238.4240649317145
 30
0.0
 11
173.28329676912151
 21
238.42406493171549
 31
0.0
  0
LINE
  5
65A0
  8
AM_0
 10
176.28329676912051
 20
244.78580262320551
 30
0.0
 11
176.28329676912151
 21
245.23580262320439
 31
0.0
  0
LINE
  5
65A1
  8
AM_0
 10
175.28329676912151
 20
236.53580262320551
 30
0.0
 11
175.28329676912151
 21
245.2358026232065
 31
0.0
  0
LINE
  5
65A2
  8
AM_0
 10
175.98329676912039
 20
238.2782979351725
 30
0.0
 11
175.28329676912151
 21
238.2782979351725
 31
0.0
  0
LINE
  5
65A3
  8
AM_0
 10
176.28329676912051
 20
237.57318707788249
 30
0.0
 11
176.28329676912051
 21
237.97829793517249
 31
0.0
  0
LINE
  5
65A4
  8
AM_0
 10
175.28329676912151
 20
237.2731870778824
 30
0.0
 11
175.98329676912039
 21
237.2731870778824
 31
0.0
  0
LINE
  5
65A5
  8
AM_0
 10
175.98329676912039
 20
241.65189812057349
 30
0.0
 11
175.28329676912151
 21
241.65189812057349
 31
0.0
  0
LINE
  5
65A6
  8
AM_0
 10
176.28329676912051
 20
240.55198185428151
 30
0.0
 11
176.28329676912051
 21
241.35189812057359
 31
0.0
  0
LINE
  5
65A7
  8
AM_0
 10
175.28329676912151
 20
240.2519818542815
 30
0.0
 11
175.98329676912039
 21
240.2519818542815
 31
0.0
  0
LINE
  5
65A8
  8
AM_0
 10
175.28329676912151
 20
244.48580262320439
 30
0.0
 11
175.98329676912039
 21
244.48580262320439
 31
0.0
  0
LINE
  5
65A9
  8
AM_0
 10
176.78329676912151
 20
245.23580262320439
 30
0.0
 11
176.78329676912151
 21
236.93580262320549
 31
0.0
  0
LINE
  5
65AA
  8
AM_0
 10
173.48329676912039
 20
236.23580262320439
 30
0.0
 11
175.28329676912151
 21
236.23580262320439
 31
0.0
  0
LINE
  5
65AB
  8
AM_0
 10
164.89918612932161
 20
239.59673539096349
 30
0.0
 11
167.13337360231139
 21
236.9157104233708
 31
0.0
  0
LINE
  5
65AC
  8
AM_0
 10
176.01314788482699
 20
236.4087877347765
 30
0.0
 11
175.28329676912151
 21
236.3358026232055
 31
0.0
  0
LINE
  5
65AD
  8
AM_0
 10
173.08329676912149
 20
236.73580262320439
 30
0.0
 11
167.5174842421105
 21
236.73580262320249
 31
0.0
  0
LINE
  5
65AE
  8
AM_0
 10
173.28329676912151
 20
244.14560878814649
 30
0.0
 11
173.28329676912151
 21
236.5358026232044
 31
0.0
  0
LINE
  5
65AF
  8
AM_0
 10
173.28329676912151
 20
236.5358026232044
 30
0.0
 11
173.28329676912051
 21
236.43580262320449
 31
0.0
  0
LINE
  5
65B0
  8
AM_0
 10
180.90829676912051
 20
236.93580262320469
 30
0.0
 11
180.90829676912051
 21
243.5475403146944
 31
0.0
  0
LINE
  5
65B1
  8
AM_0
 10
177.40829676912151
 20
245.23580262320439
 30
0.0
 11
177.78105062713149
 21
237.9196642756844
 31
0.0
  0
LINE
  5
65B2
  8
AM_0
 10
177.9573321388965
 20
245.23580262320439
 30
0.0
 11
178.3303117608674
 21
237.9240892493174
 31
0.0
  0
LINE
  5
65B3
  8
AM_0
 10
177.5982184276896
 20
238.56168485646799
 30
0.0
 11
177.57835836157651
 21
238.6358026232044
 31
0.0
  0
LINE
  5
65B4
  8
AM_0
 10
178.52932299180151
 20
238.6358026232044
 30
0.0
 11
178.50946292568739
 21
238.56168485646899
 31
0.0
  0
LINE
  5
65B5
  8
AM_0
 10
178.25162593315051
 20
237.8858026232044
 30
0.0
 11
177.85605542022651
 21
237.8858026232044
 31
0.0
  0
LINE
  5
65B6
  8
AM_0
 10
177.7594629256873
 20
237.959920389941
 30
0.0
 11
177.5982184276896
 21
238.56168485646799
 31
0.0
  0
LINE
  5
65B7
  8
AM_0
 10
178.50946292568739
 20
238.56168485646899
 30
0.0
 11
178.3482184276896
 21
237.95992038994089
 31
0.0
  0
LINE
  5
65B8
  8
AM_0
 10
177.1690668327735
 20
245.23580262320439
 30
0.0
 11
177.57835836157651
 21
238.6358026232044
 31
0.0
  0
LINE
  5
65B9
  8
AM_0
 10
178.1200314629985
 20
245.23580262320439
 30
0.0
 11
178.52932299180151
 21
238.6358026232044
 31
0.0
  0
LINE
  5
65BA
  8
AM_0
 10
178.60605542022651
 20
238.6358026232044
 30
0.0
 11
180.40829676912051
 21
238.6358026232044
 31
0.0
  0
LINE
  5
65BB
  8
AM_0
 10
180.90829676912051
 20
243.5475403146944
 30
0.0
 11
180.90829676912051
 21
245.2358026232055
 31
0.0
  0
LINE
  5
65BC
  8
AM_0
 10
181.1082967691205
 20
236.73580262320439
 30
0.0
 11
184.70829676912041
 21
236.73580262320439
 31
0.0
  0
LINE
  5
65BD
  8
AM_0
 10
184.70829676912049
 20
243.5475403146944
 30
0.0
 11
180.90829676912051
 21
243.5475403146944
 31
0.0
  0
LINE
  5
65BE
  8
AM_0
 10
180.90829676912051
 20
238.42406493171549
 30
0.0
 11
184.70829676912049
 21
238.42406493171549
 31
0.0
  0
LINE
  5
65BF
  8
AM_0
 10
159.90829676912051
 20
245.23580262320439
 30
0.0
 11
159.90829676912051
 21
240.98580262320439
 31
0.0
  0
LINE
  5
65C0
  8
AM_0
 10
164.78329676912051
 20
240.9346662595685
 30
0.0
 11
159.90829676912051
 21
240.98580262320439
 31
0.0
  0
LINE
  5
65C1
  8
AM_0
 10
159.9082967691206
 20
249.48580262320439
 30
0.0
 11
164.7832967691206
 21
249.53693898684151
 31
0.0
  0
LINE
  5
65C2
  8
AM_0
 10
159.9082967691206
 20
249.48580262320439
 30
0.0
 11
159.90829676912051
 21
245.23580262320439
 31
0.0
  0
LINE
  5
65C3
  8
AM_0
 10
184.70829676912049
 20
252.0475403146944
 30
0.0
 11
180.9082967691206
 21
252.0475403146944
 31
0.0
  0
LINE
  5
65C4
  8
AM_0
 10
180.90829676912051
 20
246.92406493171549
 30
0.0
 11
184.70829676912049
 21
246.92406493171549
 31
0.0
  0
LINE
  5
65C5
  8
AM_0
 10
184.70829676912049
 20
253.73580262320451
 30
0.0
 11
181.1082967691205
 21
253.73580262320451
 31
0.0
  0
LINE
  5
65C6
  8
AM_0
 10
180.90829676912051
 20
245.2358026232055
 30
0.0
 11
180.90829676912051
 21
246.92406493171549
 31
0.0
  0
LINE
  5
65C7
  8
AM_0
 10
180.4082967691206
 20
251.8358026232045
 30
0.0
 11
177.86002919754651
 21
251.8358026232045
 31
0.0
  0
LINE
  5
65C8
  8
AM_0
 10
177.7832967691206
 20
251.8358026232045
 30
0.0
 11
178.1200314629985
 21
245.23580262320439
 31
0.0
  0
LINE
  5
65C9
  8
AM_0
 10
176.83233213889551
 20
251.8358026232045
 30
0.0
 11
177.1690668327735
 21
245.23580262320439
 31
0.0
  0
LINE
  5
65CA
  8
AM_0
 10
177.6021922050096
 20
252.51168485646789
 30
0.0
 11
177.7634367030075
 21
251.90992038994091
 31
0.0
  0
LINE
  5
65CB
  8
AM_0
 10
176.85219220500969
 20
251.90992038994091
 30
0.0
 11
177.0134367030073
 21
252.51168485646789
 31
0.0
  0
LINE
  5
65CC
  8
AM_0
 10
177.11002919754651
 20
252.5858026232045
 30
0.0
 11
177.50559971047051
 21
252.5858026232045
 31
0.0
  0
LINE
  5
65CD
  8
AM_0
 10
177.7634367030075
 20
251.90992038994091
 30
0.0
 11
177.7832967691206
 21
251.8358026232045
 31
0.0
  0
LINE
  5
65CE
  8
AM_0
 10
176.83233213889551
 20
251.8358026232045
 30
0.0
 11
176.85219220500969
 21
251.90992038994091
 31
0.0
  0
LINE
  5
65CF
  8
AM_0
 10
177.58428553818749
 20
252.54751599709149
 30
0.0
 11
177.9573321388965
 21
245.23580262320439
 31
0.0
  0
LINE
  5
65D0
  8
AM_0
 10
177.0350244044516
 20
252.5519409707255
 30
0.0
 11
177.40829676912151
 21
245.23580262320439
 31
0.0
  0
LINE
  5
65D1
  8
AM_0
 10
180.90829676912051
 20
246.92406493171549
 30
0.0
 11
180.9082967691206
 21
253.5358026232052
 31
0.0
  0
LINE
  5
65D2
  8
AM_0
 10
173.2832967691206
 20
254.03580262320551
 30
0.0
 11
173.28329676912151
 21
253.9358026232056
 31
0.0
  0
LINE
  5
65D3
  8
AM_0
 10
173.28329676912151
 20
253.9358026232056
 30
0.0
 11
173.28329676912151
 21
246.3259964582634
 31
0.0
  0
LINE
  5
65D4
  8
AM_0
 10
167.5174842421105
 20
253.73580262320741
 30
0.0
 11
173.08329676912149
 21
253.7358026232055
 31
0.0
  0
LINE
  5
65D5
  8
AM_0
 10
175.28329676912151
 20
254.13580262320451
 30
0.0
 11
176.01314788482711
 21
254.06281751163351
 31
0.0
  0
LINE
  5
65D6
  8
AM_0
 10
167.13337360231139
 20
253.55589482303921
 30
0.0
 11
164.89918612932161
 21
250.87486985544649
 31
0.0
  0
LINE
  5
65D7
  8
AM_0
 10
175.28329676912151
 20
254.23580262320451
 30
0.0
 11
173.48329676912039
 21
254.23580262320451
 31
0.0
  0
LINE
  5
65D8
  8
AM_0
 10
176.78329676912151
 20
253.5358026232044
 30
0.0
 11
176.78329676912151
 21
245.23580262320439
 31
0.0
  0
LINE
  5
65D9
  8
AM_0
 10
175.98329676912039
 20
245.98580262320451
 30
0.0
 11
175.28329676912151
 21
245.98580262320451
 31
0.0
  0
LINE
  5
65DA
  8
AM_0
 10
175.98329676912039
 20
250.21962339212851
 30
0.0
 11
175.28329676912151
 21
250.21962339212851
 31
0.0
  0
LINE
  5
65DB
  8
AM_0
 10
176.2832967691206
 20
249.1197071258365
 30
0.0
 11
176.2832967691206
 21
249.9196233921285
 31
0.0
  0
LINE
  5
65DC
  8
AM_0
 10
175.28329676912151
 20
248.81970712583649
 30
0.0
 11
175.98329676912039
 21
248.81970712583649
 31
0.0
  0
LINE
  5
65DD
  8
AM_0
 10
175.98329676912039
 20
253.1984181685275
 30
0.0
 11
175.28329676912151
 21
253.1984181685275
 31
0.0
  0
LINE
  5
65DE
  8
AM_0
 10
176.2832967691206
 20
252.49330731123749
 30
0.0
 11
176.2832967691206
 21
252.89841816852751
 31
0.0
  0
LINE
  5
65DF
  8
AM_0
 10
175.28329676912151
 20
252.1933073112375
 30
0.0
 11
175.98329676912039
 21
252.1933073112375
 31
0.0
  0
LINE
  5
65E0
  8
AM_0
 10
175.28329676912151
 20
245.2358026232065
 30
0.0
 11
175.28329676912151
 21
253.93580262320441
 31
0.0
  0
LINE
  5
65E1
  8
AM_0
 10
176.28329676912151
 20
245.23580262320439
 30
0.0
 11
176.28329676912051
 21
245.68580262320441
 31
0.0
  0
LINE
  5
65E2
  8
AM_0
 10
173.28329676912151
 20
252.0475403146944
 30
0.0
 11
167.7832967691175
 21
252.0475403146944
 31
0.0
  0
LINE
  5
65E3
  8
AM_0
 10
173.28329676912151
 20
246.92406493171549
 30
0.0
 11
167.7832967691175
 21
246.9240649317145
 31
0.0
  0
LINE
  5
65E4
  8
AM_0
 10
173.28329676912151
 20
245.73580262320451
 30
0.0
 11
167.78329676911861
 21
245.73580262320451
 31
0.0
  0
LINE
  5
65E5
  8
AM_0
 10
167.78329676911861
 20
245.73580262320451
 30
0.0
 11
167.28329676911841
 21
245.23580262320439
 31
0.0
  0
LINE
  5
65E6
  8
AM_0
 10
167.78329676911861
 20
245.73580262320451
 30
0.0
 11
167.2832967691175
 21
246.23580262320451
 31
0.0
  0
LINE
  5
65E7
  8
AM_0
 10
167.2832967691175
 20
246.23580262320451
 30
0.0
 11
167.7832967691175
 21
246.9240649317145
 31
0.0
  0
LINE
  5
65E8
  8
AM_0
 10
173.28329676912151
 20
246.23580262320451
 30
0.0
 11
167.2832967691175
 21
246.23580262320451
 31
0.0
  0
LINE
  5
65E9
  8
AM_0
 10
173.28329676912151
 20
245.23580262320439
 30
0.0
 11
173.28329676912151
 21
246.3259964582634
 31
0.0
  0
LINE
  5
65EA
  8
AM_0
 10
167.28329676911841
 20
252.0970185553725
 30
0.0
 11
167.7832967691175
 21
252.0475403146944
 31
0.0
  0
LINE
  5
65EB
  8
AM_0
 10
167.7832967691175
 20
252.7679938313415
 30
0.0
 11
167.28329676911841
 21
252.0970185553725
 31
0.0
  0
LINE
  5
65EC
  8
AM_0
 10
167.28329676911841
 20
252.7679938313415
 30
0.0
 11
167.7832967691175
 21
253.2679938313415
 31
0.0
  0
LINE
  5
65ED
  8
AM_0
 10
167.7832967691175
 20
253.73580262320451
 30
0.0
 11
167.2832967691175
 21
253.2679938313415
 31
0.0
  0
LINE
  5
65EE
  8
AM_0
 10
167.2832967691175
 20
253.2679938313415
 30
0.0
 11
173.28329676912151
 21
253.2679938313415
 31
0.0
  0
LINE
  5
65EF
  8
AM_0
 10
173.28329676912151
 20
252.7679938313415
 30
0.0
 11
167.28329676911841
 21
252.7679938313415
 31
0.0
  0
LINE
  5
65F0
  8
AM_0
 10
176.28329676912151
 20
253.73580262320451
 30
0.0
 11
176.2832967691206
 21
253.76430635457049
 31
0.0
  0
LINE
  5
65F1
  8
AM_0
 10
176.58329676912149
 20
253.73580262320451
 30
0.0
 11
175.28329676912151
 21
253.73580262320451
 31
0.0
  0
LINE
  5
65F2
  8
AM_0
 10
164.89918612932161
 20
250.87486985544649
 30
0.0
 11
164.7832967691206
 21
250.73580262320439
 31
0.0
  0
LINE
  5
65F3
  8
AM_0
 10
167.2832967691175
 20
253.73580262320741
 30
0.0
 11
167.13337360231139
 21
253.55589482303921
 31
0.0
  0
LINE
  5
65F4
  8
AM_0
 10
167.2832967691175
 20
253.73580262320741
 30
0.0
 11
167.5174842421105
 21
253.73580262320741
 31
0.0
  0
LINE
  5
65F5
  8
AM_0
 10
164.7832967691206
 20
250.5547776556146
 30
0.0
 11
164.78329676912051
 21
245.23580262320439
 31
0.0
  0
LINE
  5
65F6
  8
AM_0
 10
164.7832967691206
 20
250.5682175640685
 30
0.0
 11
164.7832967691206
 21
250.73580262320439
 31
0.0
  0
LINE
  5
65F7
  8
AM_0
 10
175.28329676912151
 20
253.93580262320441
 30
0.0
 11
175.28329676912151
 21
254.23580262320451
 31
0.0
  0
ARC
  5
65F8
  8
AM_0
 10
177.50162593315051
 20
238.53580262320449
 30
0.0
 40
0.0999999999999643
 50
15.00019500651173
 51
90.0
  0
ARC
  5
65F9
  8
AM_0
 10
174.0957967691175
 20
240.98580262320439
 30
0.0
 40
6.8125000000000382
 50
157.91171016506041
 51
202.08828983493959
  0
ARC
  5
65FA
  8
AM_0
 10
184.70829676912041
 20
236.53580262320449
 30
0.0
 40
0.1999999999999993
 50
0.0
 51
90.0
  0
ARC
  5
65FB
  8
AM_0
 10
184.70829676912041
 20
253.93580262320441
 30
0.0
 40
0.2000000000000028
 50
270.0
 51
0.0
  0
ARC
  5
65FC
  8
AM_0
 10
174.0957967691175
 20
249.48580262320439
 30
0.0
 40
6.8125000000000382
 50
157.91171016506041
 51
202.08828983493959
  0
ARC
  5
65FD
  8
AM_0
 10
176.75162593315051
 20
237.98580262320451
 30
0.0
 40
0.1000000000000547
 50
288.46397675729747
 51
344.99980499348823
  0
ARC
  5
65FE
  8
AM_0
 10
177.10605542022651
 20
238.53580262320551
 30
0.0
 40
0.1000000000000014
 50
90.0
 51
164.9998049934851
  0
ARC
  5
65FF
  8
AM_0
 10
167.5174842421105
 20
237.23580262320249
 30
0.0
 40
0.499999999999975
 50
219.8055710921868
 51
270.0
  0
ARC
  5
6600
  8
AM_0
 10
165.28329676912051
 20
239.91682759079549
 30
0.0
 40
0.5
 50
180.00000000000981
 51
219.80557109222721
  0
ARC
  5
6601
  8
AM_0
 10
175.98329676912039
 20
237.97829793517249
 30
0.0
 40
0.3000000000000007
 50
0.0
 51
90.0
  0
ARC
  5
6602
  8
AM_0
 10
175.98329676912039
 20
237.57318707788249
 30
0.0
 40
0.3000000000000043
 50
270.0
 51
0.0
  0
ARC
  5
6603
  8
AM_0
 10
175.98329676912039
 20
241.35189812057359
 30
0.0
 40
0.3000000000000007
 50
0.0
 51
90.0
  0
ARC
  5
6604
  8
AM_0
 10
175.98329676912039
 20
240.55198185428151
 30
0.0
 40
0.2999999999999971
 50
270.0
 51
0.0
  0
ARC
  5
6605
  8
AM_0
 10
175.98329676912039
 20
244.78580262320551
 30
0.0
 40
0.2999999999999971
 50
270.0
 51
0.0
  0
ARC
  5
6606
  8
AM_0
 10
175.98329676912039
 20
236.70729889183951
 30
0.0
 40
0.3000000000000302
 50
275.7105931375562
 51
0.0
  0
ARC
  5
6607
  8
AM_0
 10
173.48329676912039
 20
236.43580262320449
 30
0.0
 40
0.1999999999999993
 50
180.0
 51
270.0
  0
ARC
  5
6608
  8
AM_0
 10
176.58329676912149
 20
236.93580262320549
 30
0.0
 40
0.1999999999999957
 50
270.0
 51
0.0
  0
ARC
  5
6609
  8
AM_0
 10
173.08329676912149
 20
236.53580262320449
 30
0.0
 40
0.1999999999999993
 50
359.99999999997061
 51
90.0
  0
ARC
  5
660A
  8
AM_0
 10
178.60605542022651
 20
238.5358026232054
 30
0.0
 40
0.1000000000000014
 50
90.0
 51
164.9998049934851
  0
ARC
  5
660B
  8
AM_0
 10
178.25162593315051
 20
237.98580262320451
 30
0.0
 40
0.1000000000000014
 50
270.0
 51
344.99980499348823
  0
ARC
  5
660C
  8
AM_0
 10
177.85605542022651
 20
237.98580262320451
 30
0.0
 40
0.1000000000000311
 50
195.00019500644541
 51
270.0
  0
ARC
  5
660D
  8
AM_0
 10
180.40829676912051
 20
238.1358026232044
 30
0.0
 40
0.5
 50
359.99999999997721
 51
90.0
  0
ARC
  5
660E
  8
AM_0
 10
184.70829676912041
 20
243.3475403146945
 30
0.0
 40
0.1999999999999993
 50
0.0
 51
90.0
  0
ARC
  5
660F
  8
AM_0
 10
184.70829676912041
 20
238.62406493171551
 30
0.0
 40
0.2000000000000028
 50
270.0
 51
0.0
  0
ARC
  5
6610
  8
AM_0
 10
181.1082967691205
 20
236.93580262320449
 30
0.0
 40
0.1999999999999993
 50
179.99999999994131
 51
270.0
  0
ARC
  5
6611
  8
AM_0
 10
181.1082967691205
 20
253.5358026232054
 30
0.0
 40
0.2000000000000028
 50
90.0
 51
180.00000000005531
  0
ARC
  5
6612
  8
AM_0
 10
184.70829676912041
 20
251.8475403146945
 30
0.0
 40
0.1999999999999993
 50
0.0
 51
90.0
  0
ARC
  5
6613
  8
AM_0
 10
184.70829676912041
 20
247.1240649317144
 30
0.0
 40
0.2000000000000028
 50
270.0
 51
0.0
  0
ARC
  5
6614
  8
AM_0
 10
180.40829676912051
 20
252.3358026232045
 30
0.0
 40
0.5
 50
270.0
 51
0.0000000000227982
  0
ARC
  5
6615
  8
AM_0
 10
177.11002919754651
 20
252.48580262320451
 30
0.0
 40
0.1000000000000014
 50
90.0
 51
164.99980499355451
  0
ARC
  5
6616
  8
AM_0
 10
177.50559971047051
 20
252.48580262320451
 30
0.0
 40
0.0999999999999608
 50
15.000195006514859
 51
90.0
  0
ARC
  5
6617
  8
AM_0
 10
177.86002919754651
 20
251.93580262320441
 30
0.0
 40
0.0999999999999608
 50
195.0001950065149
 51
270.0
  0
ARC
  5
6618
  8
AM_0
 10
176.75559971047051
 20
251.93580262320441
 30
0.0
 40
0.0999999999999803
 50
286.07948273872017
 51
344.99980499348521
  0
ARC
  5
6619
  8
AM_0
 10
173.08329676912149
 20
253.93580262320549
 30
0.0
 40
0.1999999999999957
 50
270.0
 51
0.000000000029312
  0
ARC
  5
661A
  8
AM_0
 10
176.58329676912149
 20
253.5358026232044
 30
0.0
 40
0.1999999999999993
 50
0.0
 51
90.0
  0
ARC
  5
661B
  8
AM_0
 10
173.48329676912039
 20
254.03580262320551
 30
0.0
 40
0.2000000000000028
 50
90.0
 51
180.0
  0
ARC
  5
661C
  8
AM_0
 10
175.98329676912039
 20
253.76430635457049
 30
0.0
 40
0.3000000000000007
 50
0.0
 51
84.289406862443784
  0
ARC
  5
661D
  8
AM_0
 10
175.98329676912039
 20
245.68580262320441
 30
0.0
 40
0.3000000000000007
 50
0.0
 51
90.0
  0
ARC
  5
661E
  8
AM_0
 10
175.98329676912039
 20
249.9196233921285
 30
0.0
 40
0.3000000000000007
 50
0.0
 51
90.0
  0
ARC
  5
661F
  8
AM_0
 10
175.98329676912039
 20
249.1197071258365
 30
0.0
 40
0.2999999999999971
 50
270.0
 51
0.0
  0
ARC
  5
6620
  8
AM_0
 10
175.98329676912039
 20
252.89841816852751
 30
0.0
 40
0.3000000000000007
 50
0.0
 51
90.0
  0
ARC
  5
6621
  8
AM_0
 10
175.98329676912039
 20
252.49330731123749
 30
0.0
 40
0.3000000000000043
 50
270.0
 51
0.0
  0
ARC
  5
6622
  8
AM_0
 10
165.28329676912051
 20
250.55477765561449
 30
0.0
 40
0.5000000000000059
 50
140.1944289077727
 51
179.99999999998701
  0
ARC
  5
6623
  8
AM_0
 10
167.5174842421105
 20
253.23580262320749
 30
0.0
 40
0.5
 50
90.0
 51
140.19442890781301
  0
LINE
  5
6624
  8
AM_0
 10
185.1082967691205
 20
236.23580262320439
 30
0.0
 11
186.90829676912051
 21
236.23580262320439
 31
0.0
  0
LINE
  5
6625
  8
AM_0
 10
184.9082967691204
 20
236.43580262320441
 30
0.0
 11
184.9082967691204
 21
254.0358026232054
 31
0.0
  0
LINE
  5
6626
  8
AM_0
 10
186.9082967691206
 20
254.23580262320451
 30
0.0
 11
185.1082967691205
 21
254.23580262320451
 31
0.0
  0
ARC
  5
6627
  8
AM_0
 10
185.1082967691205
 20
236.43580262320441
 30
0.0
 40
0.1999999999999993
 50
180.0
 51
270.0
  0
ARC
  5
6628
  8
AM_0
 10
185.1082967691205
 20
254.0358026232054
 30
0.0
 40
0.2000000000000028
 50
90.0
 51
180.0
  0
LINE
  5
6629
  8
ﾁｭｳｼﾝｾﾝ1
 10
156.90829676912051
 20
280.23580262320439
 30
0.0
 11
190.2062429076108
 21
280.23580262320439
 31
0.0
  0
POLYLINE
  5
662A
  8
AM_0
 66
     1
 10
0.0
 20
0.0
 30
0.0
  0
VERTEX
  5
662B
  8
AM_0
  6
CONTINUOUS
 10
181.27154251581331
 20
268.23580262320462
 30
0.0
  0
VERTEX
  5
662C
  8
AM_0
  6
CONTINUOUS
 10
181.2764667691205
 20
261.50332562320438
 30
0.0
 42
-1.0
  0
SEQEND
  5
662D
  8
AM_0
  0
LINE
  5
662E
  8
AM_0
 10
186.90829676912051
 20
261.2358036232045
 30
0.0
 11
181.27370676912039
 21
261.23580362320462
 31
0.0
  0
LINE
  5
662F
  8
AM_0
 10
186.90829676912051
 20
259.23580262320439
 30
0.0
 11
181.27370676912039
 21
259.23580262320462
 31
0.0
  0
ARC
  5
6630
  8
AM_0
 10
180.1772067691204
 20
260.23189562320448
 30
0.0
 40
1.26892095
 50
90.00000299999769
 51
270.0
  0
ARC
  5
6631
  8
AM_0
 10
181.45766676912049
 20
260.23580162320462
 30
0.0
 40
1.0000000199999981
 50
90.00000299999769
 51
270.0
  0
LINE
  5
6632
  8
AM_0
 10
180.1772067691204
 20
261.50081762320463
 30
0.0
 11
186.90829676912051
 21
261.50081762320463
 31
0.0
  0
LINE
  5
6633
  8
AM_0
 10
180.1772067691204
 20
258.9629736232045
 30
0.0
 11
186.90829676912051
 21
258.9629736232045
 31
0.0
  0
POLYLINE
  5
6634
  8
AM_0
 66
     1
 10
0.0
 20
0.0
 30
0.0
  0
VERTEX
  5
6635
  8
AM_0
 10
181.3170567691204
 20
258.9664716232046
 30
0.0
  0
VERTEX
  5
6636
  8
AM_0
 10
181.5278278140274
 20
253.73580262320451
 30
0.0
 42
-1.0
  0
SEQEND
  5
6637
  8
AM_0
  0
LINE
  5
6638
  8
AM_0
 10
163.40830676912131
 20
317.2972061319764
 30
0.0
 11
163.408306769121
 21
291.23580262320468
 31
0.0
  0
LINE
  5
6639
  8
AM_0
 10
154.4083067691204
 20
319.23580262320439
 30
0.0
 11
154.4083067691204
 21
248.23580262320439
 31
0.0
  0
LINE
  5
663A
  8
AM_0
 10
154.4083067691204
 20
242.23580262320439
 30
0.0
 11
154.4083067691204
 21
211.23580262320439
 31
0.0
  0
LINE
  5
663B
  8
AM_0
 10
154.4083067691204
 20
319.23580262320451
 30
0.0
 11
171.4083067691204
 21
318.23580262320451
 31
0.0
  0
LINE
  5
663C
  8
AM_0
 10
154.4083067691204
 20
211.23580262320439
 30
0.0
 11
171.4083067691204
 21
212.23580262320451
 31
0.0
  0
LINE
  5
663D
  8
AM_0
 10
163.40830676912111
 20
308.82970582129587
 30
0.0
 11
171.4083067691204
 21
308.82970582129587
 31
0.0
  0
LINE
  5
663E
  8
AM_0
 10
163.40830676912131
 20
317.2972061319764
 30
0.0
 11
171.4083067691204
 21
317.2972061319764
 31
0.0
  0
LINE
  5
663F
  8
AM_0
 10
159.9083067691212
 20
299.87667558846448
 30
0.0
 11
163.40830676912111
 21
299.87667558846448
 31
0.0
  0
LINE
  5
6640
  8
AM_0
 10
159.9083067691212
 20
308.37667558846448
 30
0.0
 11
163.40830676912131
 21
308.37667558846448
 31
0.0
  0
LINE
  5
6641
  8
AM_0
 10
159.40830676912111
 20
307.87667558846448
 30
0.0
 11
159.40830676912111
 21
300.37667558846448
 31
0.0
  0
ARC
  5
6642
  8
AM_0
 10
159.9083067691212
 20
307.87667558846448
 30
0.0
 40
0.5
 50
90.0
 51
180.0
  0
ARC
  5
6643
  8
AM_0
 10
159.9083067691212
 20
300.37667558846448
 30
0.0
 40
0.5
 50
180.0
 51
270.0
  0
LINE
  5
6644
  8
AM_0
 10
154.4083067691204
 20
307.50799711634471
 30
0.0
 11
159.40830676912111
 21
307.50799711634482
 31
0.0
  0
LINE
  5
6645
  8
AM_0
 10
154.4083067691204
 20
297.77291461804867
 30
0.0
 11
163.408306769121
 21
297.77291461804862
 31
0.0
  0
LINE
  5
6646
  8
AM_0
 10
163.40830676912131
 20
213.1743991144325
 30
0.0
 11
163.408306769121
 21
240.94908923159639
 31
0.0
  0
LINE
  5
6647
  8
AM_0
 10
163.40830676912111
 20
221.641899425113
 30
0.0
 11
171.4083067691204
 21
221.641899425113
 31
0.0
  0
LINE
  5
6648
  8
AM_0
 10
163.40830676912131
 20
213.1743991144325
 30
0.0
 11
171.4083067691204
 21
213.1743991144325
 31
0.0
  0
LINE
  5
6649
  8
AM_0
 10
159.9083067691212
 20
230.59492965794439
 30
0.0
 11
163.40830676912111
 21
230.59492965794439
 31
0.0
  0
LINE
  5
664A
  8
AM_0
 10
159.9083067691212
 20
222.09492965794439
 30
0.0
 11
163.40830676912131
 21
222.09492965794439
 31
0.0
  0
LINE
  5
664B
  8
AM_0
 10
159.40830676912111
 20
222.59492965794439
 30
0.0
 11
159.40830676912111
 21
230.09492965794439
 31
0.0
  0
ARC
  5
664C
  8
AM_0
 10
159.9083067691212
 20
222.59492965794439
 30
0.0
 40
0.5
 50
180.0
 51
270.0
  0
ARC
  5
664D
  8
AM_0
 10
159.9083067691212
 20
230.09492965794439
 30
0.0
 40
0.5
 50
90.0
 51
180.0
  0
LINE
  5
664E
  8
AM_0
 10
154.4083067691204
 20
222.9636081300643
 30
0.0
 11
159.40830676912111
 21
222.9636081300641
 31
0.0
  0
LINE
  5
664F
  8
AM_0
 10
154.4083067691204
 20
232.6986906283602
 30
0.0
 11
163.408306769121
 21
232.69869062836031
 31
0.0
  0
LINE
  5
6650
  8
AM_0
 10
119.4977220177848
 20
301.22621346813048
 30
0.0
 11
119.4977220177848
 21
294.71460856917167
 31
0.0
  0
LINE
  5
6651
  8
AM_0
 10
116.4083067691201
 20
254.23580262320451
 30
0.0
 11
116.4083067691201
 21
248.73580262320439
 31
0.0
  0
LINE
  5
6652
  8
AM_0
 10
121.9083067691201
 20
261.73580262320439
 30
0.0
 11
121.9083067691201
 21
268.73580262320428
 31
0.0
  0
LINE
  5
6653
  8
AM_0
 10
133.60830676912019
 20
248.73580262320439
 30
0.0
 11
116.4083067691201
 21
248.73580262320439
 31
0.0
  0
LINE
  5
6654
  8
AM_0
 10
148.40830676912009
 20
211.23580262320439
 30
0.0
 11
148.4083067691202
 21
241.94413990539189
 31
0.0
  0
LINE
  5
6655
  8
AM_0
 10
148.40830676912009
 20
247.6740311169273
 30
0.0
 11
148.40830676912009
 21
319.23580262320451
 31
0.0
  0
LINE
  5
6656
  8
AM_0
 10
116.4083067691201
 20
263.73580262320439
 30
0.0
 11
117.30830676912019
 21
263.73580262320439
 31
0.0
  0
LINE
  5
6657
  8
AM_0
 10
133.90830676912009
 20
256.73580262320451
 30
0.0
 11
133.90830676912009
 21
259.32031230780842
 31
0.0
  0
LINE
  5
6658
  8
AM_0
 10
114.2083067691199
 20
266.73580262320451
 30
0.0
 11
114.2083067691199
 21
263.73580262320439
 31
0.0
  0
LINE
  5
6659
  8
AM_0
 10
117.30830676912019
 20
263.4634508886208
 30
0.0
 11
117.30830676912019
 21
267.00815435778821
 31
0.0
  0
LINE
  5
665A
  8
AM_0
 10
113.9083067691201
 20
266.43580262320438
 30
0.0
 11
117.30830676912019
 21
266.43580262320438
 31
0.0
  0
LINE
  5
665B
  8
AM_0
 10
121.30830676912019
 20
262.85423276279732
 30
0.0
 11
121.30830676912019
 21
261.73580262320439
 31
0.0
  0
LINE
  5
665C
  8
AM_0
 10
121.30830676912019
 20
263.73580262320439
 30
0.0
 11
121.30830676912019
 21
263.63580262320443
 31
0.0
  0
LINE
  5
665D
  8
AM_0
 10
121.30830676912019
 20
263.63580262320443
 30
0.0
 11
121.30830676912019
 21
262.85423276279732
 31
0.0
  0
LINE
  5
665E
  8
AM_0
 10
116.4083067691201
 20
248.73580262320439
 30
0.0
 11
116.4083067691201
 21
240.4982686137821
 31
0.0
  0
LINE
  5
665F
  8
AM_0
 10
133.76186015971339
 20
259.67386569840181
 30
0.0
 11
133.40679303352519
 21
260.0289328245899
 31
0.0
  0
LINE
  5
6660
  8
AM_0
 10
116.4083067691201
 20
266.73580262320451
 30
0.0
 11
116.4083067691201
 21
289.97333663262668
 31
0.0
  0
LINE
  5
6661
  8
AM_0
 10
148.40830676912009
 20
310.23580262320462
 30
0.0
 11
124.6382980684875
 21
310.23580262320451
 31
0.0
  0
LINE
  5
6662
  8
AM_0
 10
116.4083067691201
 20
255.1622057989255
 30
0.0
 11
116.4083067691201
 21
263.73580262320439
 31
0.0
  0
LINE
  5
6663
  8
AM_0
 10
154.4083067691204
 20
319.23580262320451
 30
0.0
 11
148.40830676912009
 21
319.23580262320451
 31
0.0
  0
LINE
  5
6664
  8
AM_0
 10
148.40830676912009
 20
211.23580262320439
 30
0.0
 11
154.40830676912009
 21
211.23580262320439
 31
0.0
  0
LINE
  5
6665
  8
AM_0
 10
148.40830676912009
 20
220.23580262320439
 30
0.0
 11
138.90830676912009
 21
220.23580262320439
 31
0.0
  0
LINE
  5
6666
  8
AM_0
 10
116.4538835100836
 20
290.49428116562751
 30
0.0
 11
119.02332695774589
 21
305.06631907689109
 31
0.0
  0
LINE
  5
6667
  8
AM_0
 10
116.4083067691201
 20
255.1622057989255
 30
0.0
 11
116.4083067691201
 21
254.23580262320451
 31
0.0
  0
LINE
  5
6668
  8
AM_0
 10
138.90830676912009
 20
220.30442507359029
 30
0.0
 11
136.34551947022331
 21
220.30442507359029
 31
0.0
  0
LINE
  5
6669
  8
AM_0
 10
122.4521452768213
 20
220.23580262320439
 30
0.0
 11
123.4083067691201
 21
220.23580262320439
 31
0.0
  0
LINE
  5
666A
  8
AM_0
 10
116.4538835100836
 20
239.9773240807813
 30
0.0
 11
119.4977220177848
 21
222.71485809020359
 31
0.0
  0
LINE
  5
666B
  8
AM_0
 10
116.4083067691201
 20
240.23580262320439
 30
0.0
 11
116.4538835100836
 21
239.9773240807813
 31
0.0
  0
LINE
  5
666C
  8
AM_0
 10
116.4083067691201
 20
240.4982686137821
 30
0.0
 11
116.4083067691201
 21
240.23580262320439
 31
0.0
  0
LINE
  5
666D
  8
AM_0
 10
127.4583067691203
 20
236.2347462348323
 30
0.0
 11
132.35830676912019
 21
236.2347462348323
 31
0.0
  0
LINE
  5
666E
  8
AM_0
 10
127.4583067691203
 20
235.02172591639979
 30
0.0
 11
132.35830676912019
 21
235.02172591639979
 31
0.0
  0
LINE
  5
666F
  8
AM_0
 10
126.6583067691201
 20
235.4347462348324
 30
0.0
 11
126.6583067691201
 21
229.79361481438599
 31
0.0
  0
LINE
  5
6670
  8
AM_0
 10
126.6583067691201
 20
227.9622089454532
 30
0.0
 11
126.6583067691201
 21
229.79361481438599
 31
0.0
  0
LINE
  5
6671
  8
AM_0
 10
122.80830676912019
 20
221.2725122855303
 30
0.0
 11
122.80830676912019
 21
227.89507666365731
 31
0.0
  0
LINE
  5
6672
  8
AM_0
 10
133.15830676912009
 20
235.4347462348324
 30
0.0
 11
133.15830676912009
 21
233.6693706288309
 31
0.0
  0
LINE
  5
6673
  8
AM_0
 10
137.00830676912031
 20
227.89507666365731
 30
0.0
 11
137.00830676912031
 21
221.2725122855303
 31
0.0
  0
LINE
  5
6674
  8
AM_0
 10
128.5434713678938
 20
225.6762412453395
 30
0.0
 11
123.4083067691201
 21
223.88622599011501
 31
0.0
  0
LINE
  5
6675
  8
AM_0
 10
136.40830676912009
 20
223.88622599011501
 30
0.0
 11
134.76827054297431
 21
224.45790968349129
 31
0.0
  0
LINE
  5
6676
  8
AM_0
 10
127.3979333637472
 20
223.69211122015631
 30
0.0
 11
123.4083067691201
 21
222.3014075085874
 31
0.0
  0
LINE
  5
6677
  8
AM_0
 10
136.40830676912009
 20
222.3014075085874
 30
0.0
 11
134.00656955395081
 21
223.1386048703273
 31
0.0
  0
LINE
  5
6678
  8
AM_0
 10
136.40830676912009
 20
223.88622599011501
 30
0.0
 11
136.40830676912009
 21
221.0170848412703
 31
0.0
  0
LINE
  5
6679
  8
AM_0
 10
136.40830676912009
 20
221.0170848412703
 30
0.0
 11
136.40830676912009
 21
218.9978422231496
 31
0.0
  0
LINE
  5
667A
  8
AM_0
 10
129.90826450729401
 20
216.732058023934
 30
0.0
 11
136.40830676912009
 21
218.9978422231496
 31
0.0
  0
LINE
  5
667B
  8
AM_0
 10
123.4083067691201
 20
218.9978422231496
 30
0.0
 11
123.4083067691201
 21
221.0170848412703
 31
0.0
  0
LINE
  5
667C
  8
AM_0
 10
123.4083067691201
 20
218.9978422231496
 30
0.0
 11
129.90826450729401
 21
216.7320874871817
 31
0.0
  0
LINE
  5
667D
  8
AM_0
 10
123.4083067691201
 20
221.0170848412703
 30
0.0
 11
123.4083067691201
 21
223.88622599011501
 31
0.0
  0
LINE
  5
667E
  8
AM_0
 10
115.90826810111319
 20
318.73580262320439
 30
0.0
 11
115.9082456487147
 21
345.73580262320428
 31
0.0
  0
LINE
  5
667F
  8
AM_0
 10
115.9082456487147
 20
345.73580262320428
 30
0.0
 11
123.9082456487173
 21
345.73580262320428
 31
0.0
  0
LINE
  5
6680
  8
AM_0
 10
123.9082456487173
 20
345.73580262320428
 30
0.0
 11
125.4082409935381
 21
351.33386146119301
 31
0.0
  0
LINE
  5
6681
  8
AM_0
 10
125.4082409935381
 20
351.33386146119301
 30
0.0
 11
125.4082262301779
 21
369.08745374108321
 31
0.0
  0
LINE
  5
6682
  8
AM_0
 10
115.9082456487147
 20
345.73580262320428
 30
0.0
 11
114.4082409935056
 21
351.33389620803428
 31
0.0
  0
LINE
  5
6683
  8
AM_0
 10
114.4082409935056
 20
351.33389620803428
 30
0.0
 11
114.4082262301816
 21
369.08744459380978
 31
0.0
  0
LINE
  5
6684
  8
AM_0
 10
119.9082681011145
 20
369.08744459380978
 30
0.0
 11
119.9082681011145
 21
351.33389620803428
 31
0.0
  0
LINE
  5
6685
  8
AM_0
 10
123.9082456487173
 20
345.73580262320428
 30
0.0
 11
123.90826810111609
 21
318.73580262320439
 31
0.0
  0
LINE
  5
6686
  8
AM_0
 10
133.9083067691202
 20
294.71460856917167
 30
0.0
 11
133.90830676912009
 21
249.0358026232044
 31
0.0
  0
LINE
  5
6687
  8
AM_0
 10
121.9083067691201
 20
259.32031230780842
 30
0.0
 11
121.9083067691201
 21
256.73580262320451
 31
0.0
  0
LINE
  5
6688
  8
AM_0
 10
122.4098205047153
 20
260.0289328245899
 30
0.0
 11
122.054753378527
 21
259.67386569840181
 31
0.0
  0
LINE
  5
6689
  8
AM_0
 10
133.40830676912009
 20
256.23580262320451
 30
0.0
 11
122.4083067691201
 21
256.23580262320451
 31
0.0
  0
LINE
  5
668A
  8
AM_0
 10
113.40826893261929
 20
317.7357972179974
 30
0.0
 11
113.40829595865461
 21
312.73579721799717
 31
0.0
  0
LINE
  5
668B
  8
AM_0
 10
126.4082689327508
 20
317.73580802841138
 30
0.0
 11
126.40829486057051
 21
312.93898537504077
 31
0.0
  0
LINE
  5
668C
  8
AM_0
 10
117.0288100212011
 20
310.73580262320439
 30
0.0
 11
116.4572481198358
 21
311.39238644526472
 31
0.0
  0
LINE
  5
668D
  8
AM_0
 10
114.4082959586401
 20
311.73580262320439
 30
0.0
 11
125.40829486057051
 21
311.73580262320439
 31
0.0
  0
LINE
  5
668E
  8
AM_0
 10
126.40829486057051
 20
312.93898537504077
 30
0.0
 11
126.40829486057051
 21
312.73580262320439
 31
0.0
  0
LINE
  5
668F
  8
AM_0
 10
126.40829486057051
 20
312.93898537504077
 30
0.0
 11
126.4082959587863
 21
312.73580802841138
 31
0.0
  0
LINE
  5
6690
  8
AM_0
 10
114.4082689326046
 20
318.73580262320439
 30
0.0
 11
125.4082689327654
 21
318.73580262320439
 31
0.0
  0
LINE
  5
6691
  8
AM_0
 10
124.41574273128241
 20
310.76638969348983
 30
0.0
 11
131.53854246462791
 21
293.78515037474318
 31
0.0
  0
LINE
  5
6692
  8
AM_0
 10
117.0288100212011
 20
310.73580262320439
 30
0.0
 11
123.6055250965114
 21
292.04126199280222
 31
0.0
  0
LINE
  5
6693
  8
AM_0
 10
121.30830676912019
 20
263.73580262320439
 30
0.0
 11
121.30830676912019
 21
263.63580262320443
 31
0.0
  0
LINE
  5
6694
  8
AM_0
 10
121.30830676912019
 20
263.63580262320443
 30
0.0
 11
121.30830676912019
 21
262.85423276279732
 31
0.0
  0
LINE
  5
6695
  8
AM_0
 10
121.30830676912019
 20
261.73580262320439
 30
0.0
 11
121.9083067691201
 21
261.73580262320439
 31
0.0
  0
LINE
  5
6696
  8
AM_0
 10
118.6083067691202
 20
262.85423276279732
 30
0.0
 11
118.6083067691202
 21
267.61737248361158
 31
0.0
  0
LINE
  5
6697
  8
AM_0
 10
118.44726253986271
 20
262.5675411344543
 30
0.0
 11
117.5147094903554
 21
263.10595088862078
 31
0.0
  0
LINE
  5
6698
  8
AM_0
 10
121.30830676912019
 20
268.73580262320428
 30
0.0
 11
121.30830676912019
 21
263.73580262320439
 31
0.0
  0
LINE
  5
6699
  8
AM_0
 10
118.8807583611508
 20
262.06037614266148
 30
0.0
 11
121.0358551770896
 21
262.06037614266148
 31
0.0
  0
LINE
  5
669A
  8
AM_0
 10
118.8807583611508
 20
263.64808938293299
 30
0.0
 11
121.0358551770896
 21
263.64808938293311
 31
0.0
  0
LINE
  5
669B
  8
AM_0
 10
117.30830676912019
 20
266.73580262320451
 30
0.0
 11
114.2083067691199
 21
266.73580262320451
 31
0.0
  0
LINE
  5
669C
  8
AM_0
 10
114.2083067691199
 20
266.73580262320451
 30
0.0
 11
113.9083067691201
 21
266.43580262320438
 31
0.0
  0
LINE
  5
669D
  8
AM_0
 10
113.9083067691201
 20
266.43580262320438
 30
0.0
 11
113.9083067691201
 21
264.0358026232044
 31
0.0
  0
LINE
  5
669E
  8
AM_0
 10
114.2083067691199
 20
263.73580262320439
 30
0.0
 11
116.4083067691201
 21
263.73580262320439
 31
0.0
  0
LINE
  5
669F
  8
AM_0
 10
113.9083067691201
 20
264.0358026232044
 30
0.0
 11
114.2083067691199
 21
263.73580262320439
 31
0.0
  0
LINE
  5
66A0
  8
AM_0
 10
117.30830676912019
 20
264.0358026232044
 30
0.0
 11
113.9083067691201
 21
264.0358026232044
 31
0.0
  0
ARC
  5
66A1
  8
AM_0
 10
115.9083067691201
 20
265.23580262320439
 30
0.0
 40
18.000000000000082
 50
344.79096035988852
 51
15.20903964010826
  0
ARC
  5
66A2
  8
AM_0
 10
120.0155299530936
 20
262.85423276279732
 30
0.0
 40
1.292776816026465
 50
322.11555894630823
 51
0.0
  0
ARC
  5
66A3
  8
AM_0
 10
139.90830676912009
 20
265.23580262320439
 30
0.0
 40
17.999999999999918
 50
164.7909603598886
 51
195.2090396401114
  0
ARC
  5
66A4
  8
AM_0
 10
127.2121196201888
 20
221.98621471686991
 30
0.0
 40
6.001601094213977
 50
95.294644622328207
 51
137.2036378052704
  0
ARC
  5
66A5
  8
AM_0
 10
127.2121196201888
 20
223.8176205858027
 30
0.0
 40
6.0016010942139628
 50
95.294644622328207
 51
137.2036378052704
  0
ARC
  5
66A6
  8
AM_0
 10
123.6780384543174
 20
222.4831003739541
 30
0.0
 40
1.4906229315522701
 50
234.3051223779039
 51
259.5747650501786
  0
ARC
  5
66A7
  8
AM_0
 10
132.60449391805179
 20
223.8176205858027
 30
0.0
 40
6.0016010942138758
 50
42.796362194729539
 51
44.995924864879747
  0
ARC
  5
66A8
  8
AM_0
 10
132.60449391805179
 20
221.98621471686991
 30
0.0
 40
6.0016010942138758
 50
42.796362194729539
 51
53.897278316401717
  0
ARC
  5
66A9
  8
AM_0
 10
136.13857508392309
 20
222.4831003739541
 30
0.0
 40
1.490622931552253
 50
280.42523494982129
 51
305.6948776220961
  0
ARC
  5
66AA
  8
AM_0
 10
119.908233175161
 20
360.73580262320451
 30
0.0
 40
10.0
 50
56.63303467623421
 51
123.3670606147022
  0
ARC
  5
66AB
  8
AM_0
 10
117.15824716564811
 20
364.65479623420401
 30
0.0
 40
5.2164151124522951
 50
58.184480448432318
 51
121.8155195515677
  0
ARC
  5
66AC
  8
AM_0
 10
122.65825453928279
 20
364.65392134344393
 30
0.0
 40
5.217140387381062
 50
58.190058295970758
 51
121.8101322873589
  0
ARC
  5
66AD
  8
AM_0
 10
117.15825454731019
 20
352.70185022237717
 30
0.0
 40
3.0714610092699122
 50
206.44737672422039
 51
333.55262327577952
  0
ARC
  5
66AE
  8
AM_0
 10
122.65826317868139
 20
352.70011001768182
 30
0.0
 40
3.070669812974502
 50
206.41845794672841
 51
333.58081810520417
  0
ARC
  5
66AF
  8
AM_0
 10
123.3707366451799
 20
265.23580262320439
 30
0.0
 40
4.762429876059711
 50
160.52575999458611
 51
199.4742400054138
  0
ARC
  5
66B0
  8
AM_0
 10
119.90108358514679
 20
262.85423276279732
 30
0.0
 40
1.292776816026556
 50
142.11555894629771
 51
217.8844410536918
  0
ARC
  5
66B1
  8
AM_0
 10
116.54587689306069
 20
265.23580262320439
 30
0.0
 40
4.762429876059584
 50
340.52575999458628
 51
19.474240005410739
  0
ARC
  5
66B2
  8
AM_0
 10
120.0155299530936
 20
262.85423276279732
 30
0.0
 40
1.2927768160265021
 50
0.0
 51
37.884441053702282
  0
ARC
  5
66B3
  8
AM_0
 10
129.64085492641649
 20
230.31090779779109
 30
8206336.7530117426
 40
12.9134744604336
 50
271.18655406403423
 51
287.92670513354892
  0
LINE
  5
66B4
  8
AM_0
 10
133.61562385581499
 20
218.02436904197549
 30
8206336.7530117426
 11
134.02820462301631
 21
218.17761072736809
 31
8206336.7530117426
  0
LINE
  5
66B5
  8
AM_0
 10
134.02820462301631
 20
218.17761072736809
 30
8206336.7530117426
 11
134.4306963672729
 21
218.35658009007389
 31
8206336.7530117426
  0
ARC
  5
66B6
  8
AM_0
 10
131.92693472651689
 20
223.64138065379629
 30
8206336.7530117426
 40
5.8479004225482916
 50
295.35002817212552
 51
303.56705104006198
  0
LINE
  5
66B7
  8
AM_0
 10
135.16031180252679
 20
218.76867996153391
 30
8206336.7530117426
 11
135.4748546817782
 21
219.00095341670439
 31
8206336.7530117426
  0
LINE
  5
66B8
  8
AM_0
 10
135.4748546817782
 20
219.00095341670439
 30
8206336.7530117426
 11
135.76404382997549
 21
219.2638242927431
 31
8206336.7530117426
  0
ARC
  5
66B9
  8
AM_0
 10
133.88516086659729
 20
221.1295086829505
 30
8206336.7530117426
 40
2.647825416060579
 50
315.20195107610181
 51
327.6690874537353
  0
LINE
  5
66BA
  8
AM_0
 10
136.12250294644309
 20
219.7134296414815
 30
8206336.7530117426
 11
136.25141890272249
 21
219.95296140671769
 31
8206336.7530117426
  0
LINE
  5
66BB
  8
AM_0
 10
136.25141890272249
 20
219.95296140671769
 30
8206336.7530117426
 11
136.34551947022331
 21
220.20762039520201
 31
8206336.7530117426
  0
ARC
  5
66BC
  8
AM_0
 10
134.74669923127431
 20
220.66270905980531
 30
8206336.7530117426
 40
1.6623272388802151
 50
344.11151119415172
 51
352.55958186686132
  0
LINE
  5
66BD
  8
AM_0
 10
136.39502977360209
 20
220.44744579691061
 30
8206336.7530117426
 11
136.4049344380432
 21
220.5483115506313
 31
8206336.7530117426
  0
LINE
  5
66BE
  8
AM_0
 10
136.4049344380432
 20
220.5483115506313
 30
8206336.7530117426
 11
136.40830676912009
 21
220.6496102643701
 31
8206336.7530117426
  0
ARC
  5
66BF
  8
AM_0
 10
134.8132133504507
 20
220.64663411287191
 30
8206336.7530117426
 40
1.595096195143147
 50
0.1069032823798332
 51
11.47976002760999
  0
LINE
  5
66C0
  8
AM_0
 10
136.37639975950921
 20
220.96409296421359
 30
8206336.7530117426
 11
136.33576784932399
 21
221.12466683973801
 31
8206336.7530117426
  0
LINE
  5
66C1
  8
AM_0
 10
136.33576784932399
 20
221.12466683973801
 30
8206336.7530117426
 11
136.28012778479041
 21
221.2806351331607
 31
8206336.7530117426
  0
ARC
  5
66C2
  8
AM_0
 10
134.40465349113671
 20
220.50525235177571
 30
8206336.7530117426
 40
2.029438908620818
 50
22.461811304463112
 51
32.144289435792402
  0
LINE
  5
66C3
  8
AM_0
 10
136.12300153413341
 20
221.58502190448289
 30
8206336.7530117426
 11
136.0007127875989
 21
221.7623324972048
 31
8206336.7530117426
  0
LINE
  5
66C4
  8
AM_0
 10
136.0007127875989
 20
221.7623324972048
 30
8206336.7530117426
 11
135.86385918726069
 21
221.92871441959429
 31
8206336.7530117426
  0
ARC
  5
66C5
  8
AM_0
 10
133.3657012010768
 20
219.6857027337816
 30
8206336.7530117426
 40
3.357364255874967
 50
41.919595935553367
 51
50.918621528346122
  0
LINE
  5
66C6
  8
AM_0
 10
135.4822627060841
 20
222.2918612366642
 30
8206336.7530117426
 11
135.06312408868411
 21
222.59455771428989
 31
8206336.7530117426
  0
LINE
  5
66C7
  8
AM_0
 10
135.06312408868411
 20
222.59455771428989
 30
8206336.7530117426
 11
134.6139704087866
 21
222.8519094155445
 31
8206336.7530117426
  0
ARC
  5
66C8
  8
AM_0
 10
131.2827447257589
 20
216.324299121275
 30
8206336.7530117426
 40
7.3284896605723491
 50
62.963482965305559
 51
68.223671679106289
  0
ARC
  5
66C9
  8
AM_0
 10
130.1757586118394
 20
230.3109077978441
 30
8206336.7530117426
 40
12.91347446048893
 50
252.0732948664583
 51
268.8130708325474
  0
LINE
  5
66CA
  8
AM_0
 10
126.2009896824253
 20
218.02436904197549
 30
8206336.7530117426
 11
125.7884089152242
 21
218.17761072736809
 31
8206336.7530117426
  0
LINE
  5
66CB
  8
AM_0
 10
125.7884089152242
 20
218.17761072736809
 30
8206336.7530117426
 11
125.3859171709675
 21
218.35658009007389
 31
8206336.7530117426
  0
ARC
  5
66CC
  8
AM_0
 10
127.8896788117283
 20
223.6413806538049
 30
8206336.7530117426
 40
5.8479004225582418
 50
236.43294895995331
 51
244.64997182786729
  0
LINE
  5
66CD
  8
AM_0
 10
124.6563017357134
 20
218.76867996153391
 30
8206336.7530117426
 11
124.34175885646231
 21
219.00095341670439
 31
8206336.7530117426
  0
LINE
  5
66CE
  8
AM_0
 10
124.34175885646231
 20
219.00095341670439
 30
8206336.7530117426
 11
124.0525697082648
 21
219.2638242927431
 31
8206336.7530117426
  0
ARC
  5
66CF
  8
AM_0
 10
125.9314526716428
 20
221.1295086829499
 30
8206336.7530117426
 40
2.6478254160599781
 50
212.3309125462558
 51
224.79804892389021
  0
LINE
  5
66D0
  8
AM_0
 10
123.6941105917974
 20
219.7134296414815
 30
8206336.7530117426
 11
123.5651946355181
 21
219.95296140671769
 31
8206336.7530117426
  0
LINE
  5
66D1
  8
AM_0
 10
123.5651946355181
 20
219.95296140671769
 30
8206336.7530117426
 11
123.47109406801719
 21
220.20762039520201
 31
8206336.7530117426
  0
ARC
  5
66D2
  8
AM_0
 10
125.0699143069958
 20
220.66270905981179
 30
8206336.7530117426
 40
1.6623272389105701
 50
187.4404181332275
 51
195.8884888057899
  0
LINE
  5
66D3
  8
AM_0
 10
123.4215837646381
 20
220.44744579691061
 30
8206336.7530117426
 11
123.4116791001972
 21
220.5483115506313
 31
8206336.7530117426
  0
LINE
  5
66D4
  8
AM_0
 10
123.4116791001972
 20
220.5483115506313
 30
8206336.7530117426
 11
123.4083067691201
 21
220.6496102643701
 31
8206336.7530117426
  0
ARC
  5
66D5
  8
AM_0
 10
125.0034001877868
 20
220.64663411287191
 30
8206336.7530117426
 40
1.5950961951403351
 50
168.5202399723695
 51
179.8930967176201
  0
LINE
  5
66D6
  8
AM_0
 10
123.44021377873131
 20
220.96409296421359
 30
8206336.7530117426
 11
123.4808456889166
 21
221.12466683973801
 31
8206336.7530117426
  0
LINE
  5
66D7
  8
AM_0
 10
123.4808456889166
 20
221.12466683973801
 30
8206336.7530117426
 11
123.5364857534498
 21
221.2806351331607
 31
8206336.7530117426
  0
ARC
  5
66D8
  8
AM_0
 10
125.4119600471134
 20
220.50525235176991
 30
8206336.7530117426
 40
2.02943890863216
 50
147.8557105642179
 51
157.53818869548721
  0
LINE
  5
66D9
  8
AM_0
 10
123.6936120041071
 20
221.58502190448289
 30
8206336.7530117426
 11
123.8159007506416
 21
221.7623324972048
 31
8206336.7530117426
  0
LINE
  5
66DA
  8
AM_0
 10
123.8159007506416
 20
221.7623324972048
 30
8206336.7530117426
 11
123.9527543509798
 21
221.92871441959429
 31
8206336.7530117426
  0
ARC
  5
66DB
  8
AM_0
 10
126.4509123371724
 20
219.68570273377301
 30
8206336.7530117426
 40
3.3573642558870951
 50
129.0813784716793
 51
138.0804040644374
  0
LINE
  5
66DC
  8
AM_0
 10
124.3343508321561
 20
222.2918612366642
 30
8206336.7530117426
 11
124.7534894495563
 21
222.59455771428989
 31
8206336.7530117426
  0
LINE
  5
66DD
  8
AM_0
 10
124.7534894495563
 20
222.59455771428989
 30
8206336.7530117426
 11
125.202643129454
 21
222.8519094155445
 31
8206336.7530117426
  0
ARC
  5
66DE
  8
AM_0
 10
128.53386881248051
 20
216.3242991212789
 30
8206336.7530117426
 40
7.3284896605682359
 50
109.0382363849763
 51
117.0365170347017
  0
LINE
  5
66DF
  8
AM_0
 10
126.1433222677026
 20
223.251928436009
 30
8206336.7530117426
 11
126.81982016227001
 21
223.4588082856273
 31
8206336.7530117426
  0
LINE
  5
66E0
  8
AM_0
 10
126.81982016227001
 20
223.4588082856273
 30
8206336.7530117426
 11
127.3666095400053
 21
223.58390960717941
 31
8206336.7530117426
  0
ARC
  5
66E1
  8
AM_0
 10
133.60830676912019
 20
249.0358026232044
 30
0.0
 40
0.2999999999999972
 50
270.0
 51
0.0
  0
ARC
  5
66E2
  8
AM_0
 10
133.7603464241185
 20
260.38248621518329
 30
0.0
 40
0.4999999999998723
 50
164.79096035989971
 51
225.00000000001839
  0
ARC
  5
66E3
  8
AM_0
 10
119.4083067691201
 20
240.4982686137821
 30
0.0
 40
3.0
 50
180.0
 51
190.00000000000171
  0
ARC
  5
66E4
  8
AM_0
 10
119.4083067691201
 20
289.97333663262668
 30
0.0
 40
2.999999999999992
 50
169.9999999999981
 51
180.0
  0
ARC
  5
66E5
  8
AM_0
 10
122.4521452768213
 20
223.23580262320439
 30
0.0
 40
2.9999999999999631
 50
190.00000000000171
 51
270.0
  0
ARC
  5
66E6
  8
AM_0
 10
127.4583067691203
 20
235.4347462348324
 30
0.0
 40
0.7999999999998977
 50
90.0
 51
180.0
  0
ARC
  5
66E7
  8
AM_0
 10
127.4583067691203
 20
234.22172591639981
 30
0.0
 40
0.7999999999999972
 50
90.0
 51
180.0
  0
ARC
  5
66E8
  8
AM_0
 10
132.35830676912019
 20
235.4347462348324
 30
0.0
 40
0.8000000000000112
 50
0.0
 51
90.0
  0
ARC
  5
66E9
  8
AM_0
 10
132.35830676912019
 20
234.22172591639981
 30
0.0
 40
0.8000000000000112
 50
0.0
 51
90.0
  0
ARC
  5
66EA
  8
AM_0
 10
122.4083067691201
 20
256.73580262320451
 30
0.0
 40
0.5
 50
180.0
 51
270.0
  0
ARC
  5
66EB
  8
AM_0
 10
133.40830676912009
 20
256.73580262320451
 30
0.0
 40
0.5
 50
270.0
 51
0.0
  0
ARC
  5
66EC
  8
AM_0
 10
133.40830676912009
 20
259.32031230780842
 30
0.0
 40
0.5
 50
0.0
 51
45.0
  0
ARC
  5
66ED
  8
AM_0
 10
122.05626711412179
 20
260.38248621518329
 30
0.0
 40
0.5000000000001048
 50
314.99999999998278
 51
15.20903964010027
  0
ARC
  5
66EE
  8
AM_0
 10
122.4083067691201
 20
259.32031230780842
 30
0.0
 40
0.499999999999984
 50
134.99999999999079
 51
180.0
  0
ARC
  5
66EF
  8
AM_0
 10
114.4082689326046
 20
317.73580262320439
 30
0.0
 40
1.0
 50
90.0
 51
180.00030969555451
  0
ARC
  5
66F0
  8
AM_0
 10
125.4082689327654
 20
317.73580262320439
 30
0.0
 40
0.9999999999999992
 50
0.0003096955479991
 51
90.0
  0
ARC
  5
66F1
  8
AM_0
 10
114.4082959586401
 20
312.73580262320439
 30
0.0
 40
0.9999999999999992
 50
180.00030969555451
 51
270.0
  0
ARC
  5
66F2
  8
AM_0
 10
125.40829486057051
 20
312.73580262320439
 30
0.0
 40
1.0
 50
270.0
 51
0.0
  0
ARC
  5
66F3
  8
AM_0
 10
124.8885366476556
 20
311.13580262320443
 30
0.0
 40
0.5999999999999944
 50
90.0
 51
218.00194433773009
  0
ARC
  5
66F4
  8
AM_0
 10
115.70299505579921
 20
310.73580262320439
 30
0.0
 40
0.9999999999999468
 50
41.039853109576207
 51
90.0
  0
ARC
  5
66F5
  8
AM_0
 10
117.72111221159069
 20
263.4634508886208
 30
0.0
 40
0.4128054424705854
 50
180.0
 51
239.99999999999949
  0
ARC
  5
66F6
  8
AM_0
 10
118.03445709739211
 20
261.85254113445438
 30
0.0
 40
0.8256108849411369
 50
28.217424594178269
 51
59.999999999999439
  0
LINE
  5
66F7
  8
AM_0
 10
117.1980410987516
 20
294.71460856917167
 30
0.0
 11
122.6650452485205
 21
294.71460856917167
 31
0.0
  0
LINE
  5
66F8
  8
AM_0
 10
131.14868019043431
 20
294.71460856917167
 30
0.0
 11
133.90830676912009
 21
294.71460856917167
 31
0.0
  0
LINE
  5
66F9
  8
AM_0
 10
121.30830676912041
 20
268.73580262320428
 30
0.0
 11
121.9083067691205
 21
268.73580262320428
 31
0.0
  0
LINE
  5
66FA
  8
AM_0
 10
118.447262539863
 20
267.9040641119546
 30
0.0
 11
117.5147094903557
 21
267.36565435778817
 31
0.0
  0
LINE
  5
66FB
  8
AM_0
 10
118.880758361151
 20
268.41122910374747
 30
0.0
 11
121.0358551770898
 21
268.4112291037473
 31
0.0
  0
LINE
  5
66FC
  8
AM_0
 10
118.8807583611508
 20
266.82351586347602
 30
0.0
 11
121.0358551770898
 21
266.82351586347568
 31
0.0
  0
ARC
  5
66FD
  8
AM_0
 10
120.0155299530938
 20
267.61737248361158
 30
0.0
 40
1.292776816026465
 50
359.99999999999352
 51
37.88444105369058
  0
ARC
  5
66FE
  8
AM_0
 10
119.90108358514691
 20
267.61737248361158
 30
0.0
 40
1.292776816026556
 50
142.11555894629771
 51
217.8844410536918
  0
ARC
  5
66FF
  8
AM_0
 10
120.0155299530938
 20
267.61737248361158
 30
0.0
 40
1.2927768160265021
 50
322.11555894628992
 51
359.99999999999352
  0
ARC
  5
6700
  8
AM_0
 10
117.72111221159091
 20
267.00815435778821
 30
0.0
 40
0.4128054424705854
 50
119.9999999999924
 51
179.99999999999341
  0
ARC
  5
6701
  8
AM_0
 10
118.03445709739231
 20
268.61906411195469
 30
0.0
 40
0.8256108849411369
 50
299.99999999999972
 51
331.7825754058203
  0
LINE
  5
6702
  8
AM_0
 10
133.9083067691208
 20
273.73580262320388
 30
0.0
 11
133.9083067691206
 21
271.15129293859991
 31
0.0
  0
LINE
  5
6703
  8
AM_0
 10
133.7618601597139
 20
270.79773954800658
 30
0.0
 11
133.40679303352559
 21
270.44267242181837
 31
0.0
  0
LINE
  5
6704
  8
AM_0
 10
121.9083067691206
 20
271.1512929386007
 30
0.0
 11
121.9083067691208
 21
273.73580262320468
 31
0.0
  0
LINE
  5
6705
  8
AM_0
 10
122.4098205047155
 20
270.44267242181911
 30
0.0
 11
122.05475337852749
 21
270.79773954800731
 31
0.0
  0
LINE
  5
6706
  8
AM_0
 10
133.4083067691208
 20
274.23580262320388
 30
0.0
 11
132.9277288832734
 21
274.23580262320388
 31
0.0
  0
LINE
  5
6707
  8
AM_0
 10
122.888884654968
 20
274.23580262320462
 30
0.0
 11
122.4083067691208
 21
274.23580262320462
 31
0.0
  0
ARC
  5
6708
  8
AM_0
 10
133.76034642411881
 20
270.08911903122498
 30
0.0
 40
0.4999999999998723
 50
134.99999999997351
 51
195.20903964009699
  0
ARC
  5
6709
  8
AM_0
 10
122.4083067691208
 20
273.73580262320462
 30
0.0
 40
0.5
 50
89.999999999993477
 51
179.99999999999659
  0
ARC
  5
670A
  8
AM_0
 10
133.4083067691208
 20
273.73580262320388
 30
0.0
 40
0.5
 50
359.99999999999682
 51
89.999999999993477
  0
ARC
  5
670B
  8
AM_0
 10
133.4083067691206
 20
271.15129293859991
 30
0.0
 40
0.5
 50
314.99999999999193
 51
359.99999999999682
  0
ARC
  5
670C
  8
AM_0
 10
122.05626711412221
 20
270.08911903122572
 30
0.0
 40
0.5000000000001048
 50
344.79096035989659
 51
45.000000000009209
  0
ARC
  5
670D
  8
AM_0
 10
122.4083067691206
 20
271.1512929386007
 30
0.0
 40
0.499999999999984
 50
179.99999999999659
 51
225.0000000000081
  0
LINE
  5
670E
  8
AM_0
 10
123.88888465496819
 20
290.38195402102627
 30
0.0
 11
123.88888465496809
 21
275.23580262320462
 31
0.0
  0
ARC
  5
670F
  8
AM_0
 10
122.88888465496809
 20
275.23580262320462
 30
0.0
 40
1.0
 50
269.99999999999352
 51
0.0
1001
GENIUS_GENODEF_13
1002
{
1000
HIER
1070
     0
1002
}
1002
{
1000
MANEDIT
1070
     0
1002
}
1002
{
1000
NOSEL
1070
     0
1002
}
1002
{
1000
BEHIND
1070
     0
1002
}
1002
{
1000
OTHER
1070
     0
1002
}
1002
{
1000
REACTOR
1002
}
1001
GENIUS_GENOBJ-N-FIL_13
1002
{
1000
OWNER
1000
GEN
1002
}
  0
ARC
  5
6710
  8
AM_0
 10
118.88888465496819
 20
290.38195402102627
 30
0.0
 40
5.0
 50
0.0
 51
19.381805699022781
1001
GENIUS_GENOBJ-N-FIL_13
1002
{
1000
OWNER
1000
GEN
1002
}
1001
GENIUS_GENODEF_13
1002
{
1000
HIER
1070
     0
1002
}
1002
{
1000
MANEDIT
1070
     0
1002
}
1002
{
1000
NOSEL
1070
     0
1002
}
1002
{
1000
BEHIND
1070
     0
1002
}
1002
{
1000
OTHER
1070
     0
1002
}
1002
{
1000
REACTOR
1002
}
  0
LINE
  5
6711
  8
AM_0
 10
131.9277288832734
 20
291.85113948594301
 30
0.0
 11
131.9277288832734
 21
275.23580262320388
 31
0.0
  0
ARC
  5
6712
  8
AM_0
 10
132.9277288832734
 20
275.23580262320388
 30
0.0
 40
1.0
 50
180.0
 51
269.99999999999352
1001
GENIUS_GENOBJ-N-FIL_13
1002
{
1000
OWNER
1000
GEN
1002
}
1001
GENIUS_GENODEF_13
1002
{
1000
HIER
1070
     0
1002
}
1002
{
1000
MANEDIT
1070
     0
1002
}
1002
{
1000
NOSEL
1070
     0
1002
}
1002
{
1000
BEHIND
1070
     0
1002
}
1002
{
1000
OTHER
1070
     0
1002
}
1002
{
1000
REACTOR
1002
}
  0
ARC
  5
6713
  8
AM_0
 10
126.9277288832734
 20
291.85113948594301
 30
0.0
 40
5.0
 50
0.0
 51
22.755667319206839
1001
GENIUS_GENODEF_13
1002
{
1000
HIER
1070
     0
1002
}
1002
{
1000
MANEDIT
1070
     0
1002
}
1002
{
1000
NOSEL
1070
     0
1002
}
1002
{
1000
BEHIND
1070
     0
1002
}
1002
{
1000
OTHER
1070
     0
1002
}
1002
{
1000
REACTOR
1002
}
1001
GENIUS_GENOBJ-N-FIL_13
1002
{
1000
OWNER
1000
GEN
1002
}
  0
LINE
  5
6714
  8
AM_0
 10
122.6348456157783
 20
270.21764731075638
 30
0.0
 11
133.18176792246339
 21
270.21764731075638
 31
0.0
  0
LINE
  5
6715
  8
AM_0
 10
122.63484561577791
 20
260.25395793565269
 30
0.0
 11
133.18176792246251
 21
260.25395793565269
 31
0.0
  0
LINE
  5
6716
  8
AM_0
 10
119.4977220177848
 20
229.24539177827839
 30
0.0
 11
119.4977220177848
 21
248.73580262320439
 31
0.0
  0
LINE
  5
6717
  8
AM_0
 10
122.4521452768213
 20
220.23580262320439
 30
0.0
 11
122.4521452768213
 21
248.73580262320439
 31
0.0
  0
LINE
  5
6718
  8
AM_0
 10
132.7866048567293
 20
221.0255640312993
 30
0.0
 11
142.1455904713938
 21
237.23580262320451
 31
0.0
  0
LINE
  5
6719
  8
AM_0
 10
127.59045243402259
 20
224.0255640312993
 30
0.0
 11
135.79473751030781
 21
238.23580262320439
 31
0.0
  0
POLYLINE
  5
671A
  8
AM_0
 66
     1
 10
0.0
 20
0.0
 30
0.0
 70
     8
  0
VERTEX
  5
6ABC
  8
AM_0
 10
127.59
 20
224.02600000000001
 30
0.0
 70
    32
  0
VERTEX
  5
6ABD
  8
AM_0
 10
127.54600000000001
 20
223.947
 30
0.0
 70
    32
  0
VERTEX
  5
6ABE
  8
AM_0
 10
127.503
 20
223.86699999999999
 30
0.0
 70
    32
  0
VERTEX
  5
6ABF
  8
AM_0
 10
127.462
 20
223.786
 30
0.0
 70
    32
  0
VERTEX
  5
6AC0
  8
AM_0
 10
127.422
 20
223.70500000000001
 30
0.0
 70
    32
  0
VERTEX
  5
6AC1
  8
AM_0
 10
127.384
 20
223.62299999999999
 30
0.0
 70
    32
  0
VERTEX
  5
6AC2
  8
AM_0
 10
127.34699999999999
 20
223.53999999999999
 30
0.0
 70
    32
  0
VERTEX
  5
6AC3
  8
AM_0
 10
127.313
 20
223.45599999999999
 30
0.0
 70
    32
  0
VERTEX
  5
6AC4
  8
AM_0
 10
127.28
 20
223.37200000000001
 30
0.0
 70
    32
  0
VERTEX
  5
6AC5
  8
AM_0
 10
127.249
 20
223.28800000000001
 30
0.0
 70
    32
  0
VERTEX
  5
6AC6
  8
AM_0
 10
127.21899999999999
 20
223.203
 30
0.0
 70
    32
  0
VERTEX
  5
6AC7
  8
AM_0
 10
127.19199999999999
 20
223.11799999999999
 30
0.0
 70
    32
  0
VERTEX
  5
6AC8
  8
AM_0
 10
127.166
 20
223.03200000000001
 30
0.0
 70
    32
  0
VERTEX
  5
6AC9
  8
AM_0
 10
127.142
 20
222.946
 30
0.0
 70
    32
  0
VERTEX
  5
6ACA
  8
AM_0
 10
127.12
 20
222.86000000000001
 30
0.0
 70
    32
  0
VERTEX
  5
6ACB
  8
AM_0
 10
127.09999999999999
 20
222.773
 30
0.0
 70
    32
  0
VERTEX
  5
6ACC
  8
AM_0
 10
127.081
 20
222.68700000000001
 30
0.0
 70
    32
  0
VERTEX
  5
6ACD
  8
AM_0
 10
127.065
 20
222.59999999999999
 30
0.0
 70
    32
  0
VERTEX
  5
6ACE
  8
AM_0
 10
127.05
 20
222.51300000000001
 30
0.0
 70
    32
  0
VERTEX
  5
6ACF
  8
AM_0
 10
127.03700000000001
 20
222.42699999999999
 30
0.0
 70
    32
  0
VERTEX
  5
6AD0
  8
AM_0
 10
127.026
 20
222.34
 30
0.0
 70
    32
  0
VERTEX
  5
6AD1
  8
AM_0
 10
127.017
 20
222.25299999999999
 30
0.0
 70
    32
  0
VERTEX
  5
6AD2
  8
AM_0
 10
127.01000000000001
 20
222.167
 30
0.0
 70
    32
  0
VERTEX
  5
6AD3
  8
AM_0
 10
127.005
 20
222.08099999999999
 30
0.0
 70
    32
  0
VERTEX
  5
6AD4
  8
AM_0
 10
127.002
 20
221.995
 30
0.0
 70
    32
  0
VERTEX
  5
6AD5
  8
AM_0
 10
127.001
 20
221.90899999999999
 30
0.0
 70
    32
  0
VERTEX
  5
6AD6
  8
AM_0
 10
127.001
 20
221.82400000000001
 30
0.0
 70
    32
  0
VERTEX
  5
6AD7
  8
AM_0
 10
127.004
 20
221.739
 30
0.0
 70
    32
  0
VERTEX
  5
6AD8
  8
AM_0
 10
127.008
 20
221.655
 30
0.0
 70
    32
  0
VERTEX
  5
6AD9
  8
AM_0
 10
127.014
 20
221.571
 30
0.0
 70
    32
  0
VERTEX
  5
6ADA
  8
AM_0
 10
127.023
 20
221.488
 30
0.0
 70
    32
  0
VERTEX
  5
6ADB
  8
AM_0
 10
127.033
 20
221.405
 30
0.0
 70
    32
  0
VERTEX
  5
6ADC
  8
AM_0
 10
127.045
 20
221.32300000000001
 30
0.0
 70
    32
  0
VERTEX
  5
6ADD
  8
AM_0
 10
127.059
 20
221.24199999999999
 30
0.0
 70
    32
  0
VERTEX
  5
6ADE
  8
AM_0
 10
127.075
 20
221.16200000000001
 30
0.0
 70
    32
  0
VERTEX
  5
6ADF
  8
AM_0
 10
127.093
 20
221.08199999999999
 30
0.0
 70
    32
  0
VERTEX
  5
6AE0
  8
AM_0
 10
127.11199999999999
 20
221.00299999999999
 30
0.0
 70
    32
  0
VERTEX
  5
6AE1
  8
AM_0
 10
127.134
 20
220.92599999999999
 30
0.0
 70
    32
  0
VERTEX
  5
6AE2
  8
AM_0
 10
127.157
 20
220.84899999999999
 30
0.0
 70
    32
  0
VERTEX
  5
6AE3
  8
AM_0
 10
127.182
 20
220.773
 30
0.0
 70
    32
  0
VERTEX
  5
6AE4
  8
AM_0
 10
127.209
 20
220.69800000000001
 30
0.0
 70
    32
  0
VERTEX
  5
6AE5
  8
AM_0
 10
127.238
 20
220.624
 30
0.0
 70
    32
  0
VERTEX
  5
6AE6
  8
AM_0
 10
127.268
 20
220.55199999999999
 30
0.0
 70
    32
  0
VERTEX
  5
6AE7
  8
AM_0
 10
127.3
 20
220.48099999999999
 30
0.0
 70
    32
  0
VERTEX
  5
6AE8
  8
AM_0
 10
127.334
 20
220.41
 30
0.0
 70
    32
  0
VERTEX
  5
6AE9
  8
AM_0
 10
127.37
 20
220.34200000000001
 30
0.0
 70
    32
  0
VERTEX
  5
6AEA
  8
AM_0
 10
127.407
 20
220.274
 30
0.0
 70
    32
  0
VERTEX
  5
6AEB
  8
AM_0
 10
127.447
 20
220.208
 30
0.0
 70
    32
  0
VERTEX
  5
6AEC
  8
AM_0
 10
127.48699999999999
 20
220.143
 30
0.0
 70
    32
  0
VERTEX
  5
6AED
  8
AM_0
 10
127.53
 20
220.08000000000001
 30
0.0
 70
    32
  0
VERTEX
  5
6AEE
  8
AM_0
 10
127.574
 20
220.018
 30
0.0
 70
    32
  0
VERTEX
  5
6AEF
  8
AM_0
 10
127.619
 20
219.95699999999999
 30
0.0
 70
    32
  0
VERTEX
  5
6AF0
  8
AM_0
 10
127.666
 20
219.899
 30
0.0
 70
    32
  0
VERTEX
  5
6AF1
  8
AM_0
 10
127.715
 20
219.84100000000001
 30
0.0
 70
    32
  0
VERTEX
  5
6AF2
  8
AM_0
 10
127.765
 20
219.786
 30
0.0
 70
    32
  0
VERTEX
  5
6AF3
  8
AM_0
 10
127.81699999999999
 20
219.732
 30
0.0
 70
    32
  0
VERTEX
  5
6AF4
  8
AM_0
 10
127.87
 20
219.68000000000001
 30
0.0
 70
    32
  0
VERTEX
  5
6AF5
  8
AM_0
 10
127.92400000000001
 20
219.62899999999999
 30
0.0
 70
    32
  0
VERTEX
  5
6AF6
  8
AM_0
 10
127.98
 20
219.58000000000001
 30
0.0
 70
    32
  0
VERTEX
  5
6AF7
  8
AM_0
 10
128.03700000000001
 20
219.53299999999999
 30
0.0
 70
    32
  0
VERTEX
  5
6AF8
  8
AM_0
 10
128.095
 20
219.488
 30
0.0
 70
    32
  0
VERTEX
  5
6AF9
  8
AM_0
 10
128.155
 20
219.44399999999999
 30
0.0
 70
    32
  0
VERTEX
  5
6AFA
  8
AM_0
 10
128.21600000000001
 20
219.40299999999999
 30
0.0
 70
    32
  0
VERTEX
  5
6AFB
  8
AM_0
 10
128.27799999999999
 20
219.363
 30
0.0
 70
    32
  0
VERTEX
  5
6AFC
  8
AM_0
 10
128.34100000000001
 20
219.32499999999999
 30
0.0
 70
    32
  0
VERTEX
  5
6AFD
  8
AM_0
 10
128.405
 20
219.28999999999999
 30
0.0
 70
    32
  0
VERTEX
  5
6AFE
  8
AM_0
 10
128.471
 20
219.256
 30
0.0
 70
    32
  0
VERTEX
  5
6AFF
  8
AM_0
 10
128.53700000000001
 20
219.22399999999999
 30
0.0
 70
    32
  0
VERTEX
  5
6B00
  8
AM_0
 10
128.60400000000001
 20
219.19399999999999
 30
0.0
 70
    32
  0
VERTEX
  5
6B01
  8
AM_0
 10
128.673
 20
219.166
 30
0.0
 70
    32
  0
VERTEX
  5
6B02
  8
AM_0
 10
128.74199999999999
 20
219.13999999999999
 30
0.0
 70
    32
  0
VERTEX
  5
6B03
  8
AM_0
 10
128.81200000000001
 20
219.11600000000001
 30
0.0
 70
    32
  0
VERTEX
  5
6B04
  8
AM_0
 10
128.88300000000001
 20
219.09399999999999
 30
0.0
 70
    32
  0
VERTEX
  5
6B05
  8
AM_0
 10
128.95500000000001
 20
219.07499999999999
 30
0.0
 70
    32
  0
VERTEX
  5
6B06
  8
AM_0
 10
129.02799999999999
 20
219.05699999999999
 30
0.0
 70
    32
  0
VERTEX
  5
6B07
  8
AM_0
 10
129.101
 20
219.041
 30
0.0
 70
    32
  0
VERTEX
  5
6B08
  8
AM_0
 10
129.17500000000001
 20
219.02799999999999
 30
0.0
 70
    32
  0
VERTEX
  5
6B09
  8
AM_0
 10
129.249
 20
219.01599999999999
 30
0.0
 70
    32
  0
VERTEX
  5
6B0A
  8
AM_0
 10
129.32400000000001
 20
219.00700000000001
 30
0.0
 70
    32
  0
VERTEX
  5
6B0B
  8
AM_0
 10
129.40000000000001
 20
219.0
 30
0.0
 70
    32
  0
VERTEX
  5
6B0C
  8
AM_0
 10
129.476
 20
218.995
 30
0.0
 70
    32
  0
VERTEX
  5
6B0D
  8
AM_0
 10
129.55199999999999
 20
218.99199999999999
 30
0.0
 70
    32
  0
VERTEX
  5
6B0E
  8
AM_0
 10
129.62899999999999
 20
218.99100000000001
 30
0.0
 70
    32
  0
VERTEX
  5
6B0F
  8
AM_0
 10
129.70599999999999
 20
218.99299999999999
 30
0.0
 70
    32
  0
VERTEX
  5
6B10
  8
AM_0
 10
129.78399999999999
 20
218.99600000000001
 30
0.0
 70
    32
  0
VERTEX
  5
6B11
  8
AM_0
 10
129.86199999999999
 20
219.00200000000001
 30
0.0
 70
    32
  0
VERTEX
  5
6B12
  8
AM_0
 10
129.93899999999999
 20
219.00999999999999
 30
0.0
 70
    32
  0
VERTEX
  5
6B13
  8
AM_0
 10
130.018
 20
219.01900000000001
 30
0.0
 70
    32
  0
VERTEX
  5
6B14
  8
AM_0
 10
130.096
 20
219.03100000000001
 30
0.0
 70
    32
  0
VERTEX
  5
6B15
  8
AM_0
 10
130.17400000000001
 20
219.04499999999999
 30
0.0
 70
    32
  0
VERTEX
  5
6B16
  8
AM_0
 10
130.25200000000001
 20
219.06200000000001
 30
0.0
 70
    32
  0
VERTEX
  5
6B17
  8
AM_0
 10
130.33000000000001
 20
219.08000000000001
 30
0.0
 70
    32
  0
VERTEX
  5
6B18
  8
AM_0
 10
130.40899999999999
 20
219.09999999999999
 30
0.0
 70
    32
  0
VERTEX
  5
6B19
  8
AM_0
 10
130.48699999999999
 20
219.12299999999999
 30
0.0
 70
    32
  0
VERTEX
  5
6B1A
  8
AM_0
 10
130.56399999999999
 20
219.14699999999999
 30
0.0
 70
    32
  0
VERTEX
  5
6B1B
  8
AM_0
 10
130.642
 20
219.17400000000001
 30
0.0
 70
    32
  0
VERTEX
  5
6B1C
  8
AM_0
 10
130.71899999999999
 20
219.202
 30
0.0
 70
    32
  0
VERTEX
  5
6B1D
  8
AM_0
 10
130.79599999999999
 20
219.233
 30
0.0
 70
    32
  0
VERTEX
  5
6B1E
  8
AM_0
 10
130.87299999999999
 20
219.26499999999999
 30
0.0
 70
    32
  0
VERTEX
  5
6B1F
  8
AM_0
 10
130.94900000000001
 20
219.30000000000001
 30
0.0
 70
    32
  0
VERTEX
  5
6B20
  8
AM_0
 10
131.02500000000001
 20
219.33600000000001
 30
0.0
 70
    32
  0
VERTEX
  5
6B21
  8
AM_0
 10
131.09999999999999
 20
219.374
 30
0.0
 70
    32
  0
VERTEX
  5
6B22
  8
AM_0
 10
131.17500000000001
 20
219.41399999999999
 30
0.0
 70
    32
  0
VERTEX
  5
6B23
  8
AM_0
 10
131.249
 20
219.45699999999999
 30
0.0
 70
    32
  0
VERTEX
  5
6B24
  8
AM_0
 10
131.322
 20
219.5
 30
0.0
 70
    32
  0
VERTEX
  5
6B25
  8
AM_0
 10
131.39500000000001
 20
219.54599999999999
 30
0.0
 70
    32
  0
VERTEX
  5
6B26
  8
AM_0
 10
131.46700000000001
 20
219.59399999999999
 30
0.0
 70
    32
  0
VERTEX
  5
6B27
  8
AM_0
 10
131.5379999999999
 20
219.643
 30
0.0
 70
    32
  0
VERTEX
  5
6B28
  8
AM_0
 10
131.60900000000001
 20
219.69399999999999
 30
0.0
 70
    32
  0
VERTEX
  5
6B29
  8
AM_0
 10
131.678
 20
219.74700000000001
 30
0.0
 70
    32
  0
VERTEX
  5
6B2A
  8
AM_0
 10
131.74700000000001
 20
219.80099999999999
 30
0.0
 70
    32
  0
VERTEX
  5
6B2B
  8
AM_0
 10
131.815
 20
219.857
 30
0.0
 70
    32
  0
VERTEX
  5
6B2C
  8
AM_0
 10
131.88200000000001
 20
219.91499999999999
 30
0.0
 70
    32
  0
VERTEX
  5
6B2D
  8
AM_0
 10
131.94799999999989
 20
219.97399999999999
 30
0.0
 70
    32
  0
VERTEX
  5
6B2E
  8
AM_0
 10
132.012
 20
220.035
 30
0.0
 70
    32
  0
VERTEX
  5
6B2F
  8
AM_0
 10
132.07599999999999
 20
220.09700000000001
 30
0.0
 70
    32
  0
VERTEX
  5
6B30
  8
AM_0
 10
132.13800000000001
 20
220.161
 30
0.0
 70
    32
  0
VERTEX
  5
6B31
  8
AM_0
 10
132.19999999999999
 20
220.226
 30
0.0
 70
    32
  0
VERTEX
  5
6B32
  8
AM_0
 10
132.25999999999999
 20
220.29300000000001
 30
0.0
 70
    32
  0
VERTEX
  5
6B33
  8
AM_0
 10
132.31899999999999
 20
220.36099999999999
 30
0.0
 70
    32
  0
VERTEX
  5
6B34
  8
AM_0
 10
132.376
 20
220.43000000000001
 30
0.0
 70
    32
  0
VERTEX
  5
6B35
  8
AM_0
 10
132.43199999999999
 20
220.501
 30
0.0
 70
    32
  0
VERTEX
  5
6B36
  8
AM_0
 10
132.48699999999999
 20
220.572
 30
0.0
 70
    32
  0
VERTEX
  5
6B37
  8
AM_0
 10
132.541
 20
220.64500000000001
 30
0.0
 70
    32
  0
VERTEX
  5
6B38
  8
AM_0
 10
132.59299999999999
 20
220.71899999999999
 30
0.0
 70
    32
  0
VERTEX
  5
6B39
  8
AM_0
 10
132.64400000000001
 20
220.79400000000001
 30
0.0
 70
    32
  0
VERTEX
  5
6B3A
  8
AM_0
 10
132.69300000000001
 20
220.87
 30
0.0
 70
    32
  0
VERTEX
  5
6B3B
  8
AM_0
 10
132.74000000000001
 20
220.947
 30
0.0
 70
    32
  0
VERTEX
  5
6B3C
  8
AM_0
 10
132.78700000000001
 20
221.02600000000001
 30
0.0
 70
    32
  0
SEQEND
  5
6B3D
  8
AM_0
  0
LINE
  5
671B
  8
AM_0
 10
147.40830676912009
 20
319.03580262320452
 30
0.0
 11
147.40830676912009
 21
311.43580262320438
 31
0.0
1001
GENIUS_GENOREF_13
1005
0
  0
LINE
  5
671C
  8
AM_0
 10
147.40830676912009
 20
311.43580262320438
 30
0.0
 11
148.40830676912009
 21
311.43580262320438
 31
0.0
1001
GENIUS_GENOREF_13
1005
0
  0
LINE
  5
671D
  8
AM_0
 10
148.40830676912009
 20
315.03580262320452
 30
0.0
 11
147.40830676912009
 21
314.67183238893818
 31
0.0
1001
GENIUS_GENOREF_13
1005
0
  0
LINE
  5
671E
  8
AM_0
 10
148.40830676912009
 20
315.43580262320438
 30
0.0
 11
147.40830676912009
 21
315.07183238893828
 31
0.0
1001
GENIUS_GENOREF_13
1005
0
  0
LINE
  5
671F
  8
AM_0
 10
148.40830676912009
 20
319.03580262320452
 30
0.0
 11
147.40830676912009
 21
319.03580262320452
 31
0.0
1001
GENIUS_GENOREF_13
1005
0
  0
LINE
  5
6720
  8
AM_0N
 10
146.3493692569923
 20
311.32844765089789
 30
0.0
 11
147.40830676912009
 21
311.23580262320439
 31
0.0
  0
LINE
  5
6721
  8
AM_0N
 10
146.3493692569923
 20
319.1431575955109
 30
0.0
 11
147.40830676912009
 21
319.23580262320451
 31
0.0
  0
ARC
  5
6722
  8
AM_0N
 10
150.80830676912021
 20
315.23580262320439
 30
0.0
 40
6.5
 50
151.82726586813479
 51
208.1727341318651
  0
ARC
  5
6723
  8
AM_0N
 10
146.48881844538869
 20
317.54924607856412
 30
0.0
 40
1.6000000000000001
 50
94.99999999999973
 51
151.82726586813479
  0
ARC
  5
6724
  8
AM_0N
 10
146.48881844538869
 20
312.92235916784477
 30
0.0
 40
1.6000000000000001
 50
208.1727341318651
 51
265.00000000000028
  0
LINE
  5
6725
  8
AM_0N
 10
147.40830676912009
 20
319.23580262320451
 30
0.0
 11
147.40830676912009
 21
311.23580262320439
 31
0.0
  0
LINE
  5
6726
  8
AM_0
 10
147.4083067691202
 20
241.64094681691429
 30
0.0
 11
147.4083067691202
 21
236.17330262320451
 31
0.0
1001
GENIUS_GENOREF_13
1005
0
  0
LINE
  5
6727
  8
AM_0
 10
147.4083067691202
 20
236.37330262320449
 30
0.0
 11
148.4083067691202
 21
236.37330262320449
 31
0.0
1001
GENIUS_GENOREF_13
1005
0
  0
LINE
  5
6728
  8
AM_0
 10
148.4083067691202
 20
239.97330262320449
 30
0.0
 11
147.4083067691202
 21
239.60933238893841
 31
0.0
1001
GENIUS_GENOREF_13
1005
0
  0
LINE
  5
6729
  8
AM_0
 10
148.4083067691202
 20
240.37330262320449
 30
0.0
 11
147.4083067691202
 21
240.0093323889383
 31
0.0
1001
GENIUS_GENOREF_13
1005
0
  0
LINE
  5
672A
  8
AM_0N
 10
146.34936925699239
 20
236.26594765089811
 30
0.0
 11
147.4083067691202
 21
236.17330262320451
 31
0.0
  0
ARC
  5
672B
  8
AM_0N
 10
150.80830676912021
 20
240.17330262320451
 30
0.0
 40
6.5
 50
182.900769989091
 51
208.1727341318651
  0
ARC
  5
672C
  8
AM_0N
 10
146.48881844538869
 20
237.85985916784489
 30
0.0
 40
1.6000000000000001
 50
208.1727341318651
 51
265.00000000000028
  0
LINE
  5
672D
  8
AM_0
 10
647.72681231524973
 20
354.6927245613698
 30
0.0
 11
647.72681231524973
 21
368.419551708124
 31
0.0
  0
LINE
  5
672E
  8
AM_0
 10
641.32681231525009
 20
354.6927245613698
 30
0.0
 11
641.32681231525009
 21
368.419551708124
 31
0.0
  0
LINE
  5
672F
  8
AM_0
 10
640.52681231525003
 20
345.73580262320468
 30
0.0
 11
648.52681231525003
 21
345.73580262320468
 31
0.0
  0
LINE
  5
6730
  8
AM_0
 10
648.52681231525003
 20
336.16307029514201
 30
0.0
 11
648.52681231525003
 21
345.73580262320468
 31
0.0
  0
LINE
  5
6731
  8
AM_0
 10
648.52681231525003
 20
345.73580262320468
 30
0.0
 11
650.92681231525
 21
354.6927245613698
 31
0.0
  0
LINE
  5
6732
  8
AM_0
 10
650.92681231525
 20
354.6927245613698
 30
0.0
 11
650.92681231525
 21
368.419551708124
 31
0.0
  0
LINE
  5
6733
  8
AM_0
 10
638.12681231525005
 20
368.419551708124
 30
0.0
 11
638.12681231525005
 21
354.6927245613698
 31
0.0
  0
LINE
  5
6734
  8
AM_0
 10
638.12681231525005
 20
354.6927245613698
 30
0.0
 11
640.52681231525003
 21
345.73580262320468
 31
0.0
  0
LINE
  5
6735
  8
AM_0
 10
640.52681231525003
 20
345.73580262320468
 30
0.0
 11
640.52681231525003
 21
336.16307029514201
 31
0.0
  0
ARC
  5
6736
  8
AM_0
 10
644.52681231525003
 20
360.73580262320451
 30
0.0
 40
9.9999999999999964
 50
50.208180500443653
 51
90.0
  0
ARC
  5
6737
  8
AM_0
 10
639.72681231525007
 20
355.1314732556757
 30
0.0
 40
1.659066127903009
 50
195.33458427584509
 51
344.66541572415468
  0
ARC
  5
6738
  8
AM_0
 10
644.52681231525003
 20
358.28279115031432
 30
0.0
 40
4.8092180355079419
 50
228.28783710514421
 51
311.71216289485591
  0
ARC
  5
6739
  8
AM_0
 10
649.32681231525009
 20
355.13119538202972
 30
0.0
 40
1.6589926644111621
 50
195.32532916095269
 51
344.67467083904228
  0
ARC
  5
673A
  8
AM_0
 10
644.52681231525003
 20
358.20457081324099
 30
0.0
 40
10.704477319459491
 50
72.606031891266454
 51
107.3939681087335
  0
ARC
  5
673B
  8
AM_0
 10
639.72681231525007
 20
366.04978631164971
 30
0.0
 40
2.8593334947723461
 50
55.973867765119778
 51
124.02613223488019
  0
ARC
  5
673C
  8
AM_0
 10
649.32681231525009
 20
366.05285323305208
 30
0.0
 40
2.856792199637066
 50
55.939448481710848
 51
124.060551518289
  0
ARC
  5
673D
  8
AM_0
 10
644.52681231525003
 20
360.73580262320451
 30
0.0
 40
10.0
 50
90.0
 51
129.79181949955631
  0
LINE
  5
673E
  8
ﾁｭｳｼﾝｾﾝ
 10
107.11215585693461
 20
553.5272144778753
 30
0.0
 11
442.09939676912018
 21
553.5272144778753
 31
0.0
  0
LINE
  5
673F
  8
AM_0
 10
343.90829676912023
 20
503.45998447787508
 30
0.0
 11
343.90829676912023
 21
482.8152644778753
 31
0.0
  0
LINE
  5
6740
  8
AM_0
 10
344.9082967691204
 20
501.9892744778752
 30
0.0
 11
344.9082967691204
 21
488.44222447787507
 31
0.0
  0
LINE
  5
6741
  8
AM_0
 10
343.90829676912023
 20
488.44222447787507
 30
0.0
 11
344.9082967691204
 21
488.44222447787507
 31
0.0
  0
LINE
  5
6742
  8
AM_0
 10
343.90829676912023
 20
501.9892744778752
 30
0.0
 11
344.9082967691204
 21
501.9892744778752
 31
0.0
  0
LINE
  5
6743
  8
AM_0
 10
348.9082667691203
 20
490.44222447787519
 30
0.0
 11
348.9082667691203
 21
499.98924447787522
 31
0.0
  0
LINE
  5
6744
  8
AM_0
 10
344.9082967691204
 20
498.1024944778751
 30
0.0
 11
347.90829676912023
 21
498.1024944778751
 31
0.0
  0
LINE
  5
6745
  8
AM_0
 10
344.9082967691204
 20
492.32899447787509
 30
0.0
 11
347.90829676912023
 21
492.32899447787509
 31
0.0
  0
LINE
  5
6746
  8
AM_0
 10
344.9082967691204
 20
489.44222447787507
 30
0.0
 11
347.90829676912023
 21
489.44222447787507
 31
0.0
  0
LINE
  5
6747
  8
AM_0
 10
344.9082967691204
 20
500.98927447787509
 30
0.0
 11
347.90829676912023
 21
500.98927447787509
 31
0.0
  0
LINE
  5
6748
  8
AM_0
 10
439.90829676911989
 20
565.52721447787508
 30
0.0
 11
439.90829676911989
 21
541.5272144778753
 31
0.0
  0
LINE
  5
6749
  8
AM_0
 10
405.90824676911978
 20
565.52721447787508
 30
0.0
 11
439.90829676911989
 21
565.52721447787508
 31
0.0
  0
LINE
  5
674A
  8
AM_0
 10
405.90824676912001
 20
541.52721447787519
 30
0.0
 11
439.90829676911989
 21
541.5272144778753
 31
0.0
  0
LINE
  5
674B
  8
AM_0
 10
407.90829676911989
 20
557.52718447787515
 30
0.0
 11
407.90829676911989
 21
549.5272144778753
 31
0.0
  0
LINE
  5
674C
  8
AM_0
 10
303.90829676912023
 20
628.74095447787522
 30
0.0
 11
303.90829676912023
 21
609.76289447787519
 31
0.0
  0
LINE
  5
674D
  8
AM_0
 10
397.90829676912023
 20
627.95537447787535
 30
0.0
 11
397.90829676912023
 21
605.09904447787517
 31
0.0
  0
LINE
  5
674E
  8
AM_0
 10
335.90832676912032
 20
631.52721447787508
 30
0.0
 11
395.96065676912019
 21
629.95467447787507
 31
0.0
  0
LINE
  5
674F
  8
AM_0
 10
305.8559567691201
 20
630.74028447787521
 30
0.0
 11
335.90829676912028
 21
631.527244477875
 31
0.0
  0
LINE
  5
6750
  8
AM_0
 10
332.90829676912023
 20
624.52721447787519
 30
0.0
 11
332.90829676912023
 21
482.52721447787508
 31
0.0
  0
LINE
  5
6751
  8
AM_0
 10
394.90829676912023
 20
603.07216447787505
 30
0.0
 11
394.90829676912023
 21
503.98225447787519
 31
0.0
  0
LINE
  5
6752
  8
AM_0
 10
394.90832676912021
 20
603.07216447787505
 30
0.0
 11
395.96065676912019
 21
603.09972447787516
 31
0.0
  0
LINE
  5
6753
  8
AM_0
 10
397.90829676912023
 20
479.09904447787522
 30
0.0
 11
397.90829676912023
 21
501.9553744778753
 31
0.0
  0
LINE
  5
6754
  8
AM_0
 10
303.90829676912023
 20
478.31349447787522
 30
0.0
 11
303.90829676912023
 21
497.29152447787521
 31
0.0
  0
LINE
  5
6755
  8
AM_0
 10
335.90832676912032
 20
475.5272144778753
 30
0.0
 11
395.96065676912019
 21
477.09972447787521
 31
0.0
  0
LINE
  5
6756
  8
AM_0
 10
305.8559567691201
 20
476.31416447787541
 30
0.0
 11
335.90829676912028
 21
475.5272144778753
 31
0.0
  0
LINE
  5
6757
  8
AM_0
 10
335.90829676912028
 20
627.67125447787521
 30
0.0
 11
328.90829676912023
 21
631.34392447787525
 31
0.0
  0
LINE
  5
6758
  8
AM_0
 10
333.31130676912039
 20
624.51668447787517
 30
0.0
 11
328.90832676911998
 21
626.82677447787535
 31
0.0
  0
LINE
  5
6759
  8
AM_0
 10
328.90829676912023
 20
631.34389447787532
 30
0.0
 11
328.90829676912023
 21
626.82680447787504
 31
0.0
  0
LINE
  5
675A
  8
AM_0
 10
395.9606267691201
 20
503.95467447787519
 30
0.0
 11
394.90829676912023
 21
503.98222447787509
 31
0.0
  0
LINE
  5
675B
  8
AM_0
 10
407.90829676911989
 20
549.5272144778753
 30
0.0
 11
439.90829676911989
 21
549.5272144778753
 31
0.0
  0
LINE
  5
675C
  8
AM_0
 10
407.90829676911989
 20
557.52718447787515
 30
0.0
 11
439.90829676911989
 21
557.52718447787515
 31
0.0
  0
LINE
  5
675D
  8
AM_0
 10
381.90832676912021
 20
503.2762044778753
 30
0.0
 11
381.90832676912021
 21
603.77821447787505
 31
0.0
  0
LINE
  5
675E
  8
AM_0
 10
390.34408676912022
 20
601.92653447787518
 30
0.0
 11
385.64657676912032
 21
602.3375144778754
 31
0.0
  0
LINE
  5
675F
  8
AM_0
 10
390.34408676912022
 20
505.12791447787509
 30
0.0
 11
385.64657676912032
 21
504.71693447787538
 31
0.0
  0
LINE
  5
6760
  8
AM_0
 10
379.16979676912018
 20
500.2876144778752
 30
0.0
 11
373.47250676912017
 21
499.78917447787518
 31
0.0
  0
LINE
  5
6761
  8
AM_0
 10
368.90829676912023
 20
481.52400447787522
 30
0.0
 11
368.90829676912023
 21
494.80818447787522
 31
0.0
  0
LINE
  5
6762
  8
AM_0
 10
335.90829676912028
 20
624.44865447787515
 30
0.0
 11
335.90829676912028
 21
627.67122447787494
 31
0.0
  0
LINE
  5
6763
  8
AM_0
 10
328.90829676912023
 20
475.71053447787523
 30
0.0
 11
328.90829676912023
 21
480.22762447787511
 31
0.0
  0
LINE
  5
6764
  8
AM_0
 10
333.31130676912039
 20
482.53777447787519
 30
0.0
 11
328.90829676912023
 21
480.22765447787509
 31
0.0
  0
LINE
  5
6765
  8
AM_0
 10
335.90829676912028
 20
479.38319447787518
 30
0.0
 11
328.90829676912023
 21
475.71053447787523
 31
0.0
  0
LINE
  5
6766
  8
AM_0
 10
335.90829676912028
 20
482.60576447787508
 30
0.0
 11
335.90829676912028
 21
479.38319447787518
 31
0.0
  0
LINE
  5
6767
  8
AM_0
 10
345.64416676912032
 20
482.86070447787517
 30
0.0
 11
332.90832676911998
 21
482.52721447787508
 31
0.0
  0
LINE
  5
6768
  8
AM_0
 10
345.64413676912028
 20
624.19371447787512
 30
0.0
 11
332.90832676911998
 21
624.52721447787519
 31
0.0
  0
LINE
  5
6769
  8
AM_0
 10
343.90829676912023
 20
503.45998447787508
 30
0.0
 11
346.90829676912023
 21
503.45998447787508
 31
0.0
  0
LINE
  5
676A
  8
AM_0
 10
346.90832676912032
 20
503.45998447787508
 30
0.0
 11
346.90832676912032
 21
603.59444447787519
 31
0.0
  0
LINE
  5
676B
  8
AM_0
 10
346.90832676912032
 20
503.4599544778751
 30
0.0
 11
360.49029676912022
 21
506.01833447787521
 31
0.0
  0
LINE
  5
676C
  8
AM_0
 10
348.0047267691204
 20
483.52394447787509
 30
0.0
 11
358.64150676912038
 21
489.63716447787522
 31
0.0
  0
LINE
  5
676D
  8
AM_0
 10
368.90829676912023
 20
612.24620447787515
 30
0.0
 11
368.90829676912023
 21
625.53041447787518
 31
0.0
  0
LINE
  5
676E
  8
AM_0
 10
378.9868767691201
 20
506.50267447787519
 30
0.0
 11
360.49029676912022
 21
506.01833447787521
 31
0.0
  0
LINE
  5
676F
  8
AM_0
 10
365.98684676912018
 20
490.43092447787529
 30
0.0
 11
361.0021067691203
 21
490.30037447787521
 31
0.0
  0
LINE
  5
6770
  8
AM_0
 10
379.16979676912018
 20
606.76677447787506
 30
0.0
 11
373.47253676912021
 21
607.26524447787517
 31
0.0
  0
LINE
  5
6771
  8
AM_0
 10
348.0047267691204
 20
623.53044447787499
 30
0.0
 11
358.64147676912029
 21
617.41725447787519
 31
0.0
  0
LINE
  5
6772
  8
AM_0
 10
346.90832676912032
 20
603.59444447787519
 30
0.0
 11
360.49029676912022
 21
601.03606447787524
 31
0.0
  0
LINE
  5
6773
  8
AM_0
 10
378.9868767691201
 20
600.55171447787507
 30
0.0
 11
360.49026676912018
 21
601.03609447787539
 31
0.0
  0
LINE
  5
6774
  8
AM_0
 10
365.98681676912031
 20
616.62349447787506
 30
0.0
 11
361.00207676912021
 21
616.75401447787522
 31
0.0
  0
LINE
  5
6775
  8
AM_0
 10
344.9082967691204
 20
606.06517447787519
 30
0.0
 11
347.90829676912023
 21
606.06517447787519
 31
0.0
  0
LINE
  5
6776
  8
AM_0
 10
344.9082967691204
 20
617.61217447787521
 30
0.0
 11
347.90829676912023
 21
617.61217447787521
 31
0.0
  0
LINE
  5
6777
  8
AM_0
 10
344.9082967691204
 20
614.72542447787521
 30
0.0
 11
347.90829676912023
 21
614.72542447787521
 31
0.0
  0
LINE
  5
6778
  8
AM_0
 10
344.9082967691204
 20
608.9519244778752
 30
0.0
 11
347.90829676912023
 21
608.9519244778752
 31
0.0
  0
LINE
  5
6779
  8
AM_0
 10
348.9082667691203
 20
616.61220447787525
 30
0.0
 11
348.9082667691203
 21
607.06517447787519
 31
0.0
  0
LINE
  5
677A
  8
AM_0
 10
343.90829676912023
 20
605.06514447787515
 30
0.0
 11
344.9082967691204
 21
605.06514447787515
 31
0.0
  0
LINE
  5
677B
  8
AM_0
 10
343.90829676912023
 20
618.61220447787525
 30
0.0
 11
344.9082967691204
 21
618.61220447787525
 31
0.0
  0
LINE
  5
677C
  8
AM_0
 10
344.9082967691204
 20
605.06514447787515
 30
0.0
 11
344.9082967691204
 21
618.61220447787525
 31
0.0
  0
LINE
  5
677D
  8
AM_0
 10
343.90829676912023
 20
603.59444447787519
 30
0.0
 11
343.90829676912023
 21
624.23915447787522
 31
0.0
  0
LINE
  5
677E
  8
AM_0
 10
343.90829676912023
 20
603.59444447787519
 30
0.0
 11
346.90829676912023
 21
603.59444447787519
 31
0.0
  0
LINE
  5
677F
  8
AM_0
 10
332.90832676911998
 20
482.52721447787508
 30
0.0
 11
327.85595676912038
 21
482.6595044778752
 31
0.0
  0
LINE
  5
6780
  8
AM_0
 10
332.90829676912023
 20
624.52721447787519
 30
0.0
 11
327.85598676912019
 21
624.39488447787505
 31
0.0
  0
LINE
  5
6781
  8
AM_0
 10
325.90832676912032
 20
484.65883447787508
 30
0.0
 11
325.90832676912032
 21
622.3955844778751
 31
0.0
  0
LINE
  5
6782
  8
AM_0
 10
294.90832676912032
 20
497.52721447787519
 30
0.0
 11
294.90832676912032
 21
609.52721447787519
 31
0.0
  0
LINE
  5
6783
  8
AM_0
 10
320.90829676912023
 20
496.84639447787509
 30
0.0
 11
294.90835676912019
 21
497.52721447787519
 31
0.0
  0
LINE
  5
6784
  8
AM_0
 10
294.90832676912032
 20
507.52690447787529
 30
0.0
 11
325.90832676912032
 21
507.52690447787529
 31
0.0
  0
LINE
  5
6785
  8
AM_0
 10
322.90829676912023
 20
488.31593447787509
 30
0.0
 11
323.90832676912032
 21
488.31593447787509
 31
0.0
  0
LINE
  5
6786
  8
AM_0
 10
320.90829676912023
 20
490.31593447787509
 30
0.0
 11
320.90829676912023
 21
505.52690447787529
 31
0.0
  0
LINE
  5
6787
  8
AM_0
 10
320.90829676912023
 20
616.73851447787524
 30
0.0
 11
320.90829676912023
 21
601.52751447787534
 31
0.0
  0
LINE
  5
6788
  8
AM_0
 10
320.90832676912021
 20
610.20805447787507
 30
0.0
 11
294.90835676912019
 21
609.52721447787519
 31
0.0
  0
LINE
  5
6789
  8
AM_0
 10
294.90832676912032
 20
599.52751447787534
 30
0.0
 11
325.90832676912032
 21
599.52751447787534
 31
0.0
  0
LINE
  5
678A
  8
AM_0
 10
322.90829676912023
 20
618.73851447787524
 30
0.0
 11
323.90832676912032
 21
618.73851447787524
 31
0.0
  0
LINE
  5
678B
  8
AM_0
 10
294.90832676912032
 20
521.58727447787521
 30
0.0
 11
325.90832676912032
 21
521.58727447787521
 31
0.0
  0
LINE
  5
678C
  8
AM_0
 10
294.90832676912032
 20
585.46715447787506
 30
0.0
 11
325.90832676912032
 21
585.46715447787506
 31
0.0
  0
ARC
  5
678D
  8
AM_0
 10
347.90829676912023
 20
499.98924447787522
 30
0.0
 40
1.0
 50
0.0
 51
90.00000299999769
  0
ARC
  5
678E
  8
AM_0
 10
347.90829676912023
 20
497.10249447787521
 30
0.0
 40
1.0
 50
0.0
 51
90.00000299999769
  0
ARC
  5
678F
  8
AM_0
 10
347.90829676912023
 20
491.32899447787509
 30
0.0
 40
1.0
 50
0.0
 51
90.00000299999769
  0
ARC
  5
6790
  8
AM_0
 10
347.90829676912023
 20
490.44222447787519
 30
0.0
 40
1.0
 50
269.999989999999
 51
0.0000006832495047
  0
ARC
  5
6791
  8
AM_0
 10
347.90829676912023
 20
493.3289644778751
 30
0.0
 40
1.0
 50
269.999989999999
 51
0.0000006832495047
  0
ARC
  5
6792
  8
AM_0
 10
347.90829676912023
 20
499.10249447787521
 30
0.0
 40
1.0
 50
269.999989999999
 51
0.0000006832495047
  0
ARC
  5
6793
  8
AM_0
 10
395.90829676912023
 20
627.95537447787535
 30
0.0
 40
2.0
 50
0.0
 51
88.499997000000747
  0
ARC
  5
6794
  8
AM_0
 10
305.90829676912023
 20
628.74095447787522
 30
0.0
 40
2.0
 50
91.500001000001546
 51
180.00001000000091
  0
ARC
  5
6795
  8
AM_0
 10
395.90829676912023
 20
605.09904447787517
 30
0.0
 40
2.0
 50
271.49999999999608
 51
0.0
  0
ARC
  5
6796
  8
AM_0
 10
315.90829676912028
 20
618.52721447787508
 30
0.0
 40
6.0
 50
359.45747999999497
 51
326.44272000000041
  0
CIRCLE
  5
6797
  8
AM_0
 10
385.90829676912023
 20
618.52721447787508
 30
0.0
 40
6.0
  0
ARC
  5
6798
  8
AM_0
 10
395.90829676912023
 20
479.09904447787522
 30
0.0
 40
2.0
 50
271.49999999999608
 51
0.0
  0
ARC
  5
6799
  8
AM_0
 10
305.90829676912023
 20
478.31349447787522
 30
0.0
 40
2.0
 50
180.00001000000091
 51
268.50000000000381
  0
ARC
  5
679A
  8
AM_0
 10
395.90829676912023
 20
501.9553744778753
 30
0.0
 40
2.0
 50
0.0
 51
88.499997000000747
  0
ARC
  5
679B
  8
AM_0
 10
315.90829676912028
 20
488.52721447787519
 30
0.0
 40
6.0
 50
33.557299999995493
 51
0.5425182800043014
  0
CIRCLE
  5
679C
  8
AM_0
 10
385.90829676912023
 20
488.52721447787519
 30
0.0
 40
6.0
  0
ARC
  5
679D
  8
AM_0
 10
407.90829676911989
 20
553.52718447787538
 30
0.0
 40
3.9999962
 50
90.00000299999769
 51
120.0008584236235
  0
ARC
  5
679E
  8
AM_0
 10
407.90829676911989
 20
553.52718447787538
 30
0.0
 40
3.9999962
 50
239.99914157637639
 51
270.0
  0
ARC
  5
679F
  8
AM_0
 10
389.90829676912023
 20
596.94554447787505
 30
0.0
 40
5.0
 50
0.0
 51
85.000003999997801
  0
ARC
  5
67A0
  8
AM_0
 10
389.90829676912023
 20
510.10884447787521
 30
0.0
 40
5.0
 50
274.99999999999972
 51
0.0
  0
ARC
  5
67A1
  8
AM_0
 10
373.90829676912023
 20
494.80818447787522
 30
0.0
 40
5.0
 50
95.00000199999856
 51
180.00001000000091
  0
ARC
  5
67A2
  8
AM_0
 10
373.90829676912023
 20
612.24620447787515
 30
0.0
 40
5.0
 50
180.00001000000091
 51
265.00001000000071
  0
ARC
  5
67A3
  8
AM_0
 10
373.90829676912023
 20
481.52400447787522
 30
0.0
 40
5.0
 50
180.00001000000091
 51
271.49999999999608
  0
ARC
  5
67A4
  8
AM_0
 10
373.90829676912023
 20
625.53041447787518
 30
0.0
 40
5.0
 50
88.499997000000747
 51
180.00001000000091
  0
ARC
  5
67A5
  8
AM_0
 10
365.9082967691204
 20
493.42989447787522
 30
0.0
 40
3.0
 50
271.49999999999608
 51
0.0
  0
ARC
  5
67A6
  8
AM_0
 10
345.51327676912018
 20
487.85899447787511
 30
0.0
 40
5.0
 50
271.49999999999608
 51
299.88701999999472
  0
ARC
  5
67A7
  8
AM_0
 10
361.13296676912017
 20
485.30211447787508
 30
0.0
 40
5.0
 50
91.500001000001546
 51
119.88701999999461
  0
ARC
  5
67A8
  8
AM_0
 10
378.90832676911998
 20
509.50166447787552
 30
0.0
 40
3.0
 50
271.49999999999608
 51
0.0
  0
ARC
  5
67A9
  8
AM_0
 10
378.90832676911998
 20
503.2762044778753
 30
0.0
 40
3.0
 50
274.99999999999972
 51
0.0
  0
ARC
  5
67AA
  8
AM_0
 10
386.08233676912022
 20
499.73592447787519
 30
0.0
 40
5.0
 50
95.00000199999856
 51
153.73433000000409
  0
ARC
  5
67AB
  8
AM_0
 10
386.08233676912022
 20
607.31847447787516
 30
0.0
 40
5.0
 50
206.26566999999591
 51
265.00001000000071
  0
ARC
  5
67AC
  8
AM_0
 10
378.90832676911998
 20
597.5527544778754
 30
0.0
 40
3.0
 50
0.0
 51
88.499997000000747
  0
ARC
  5
67AD
  8
AM_0
 10
345.51327676912018
 20
619.19542447787524
 30
0.0
 40
5.0
 50
60.112980000005322
 51
88.499997000000747
  0
ARC
  5
67AE
  8
AM_0
 10
378.90832676911998
 20
603.77821447787505
 30
0.0
 40
3.0
 50
0.0
 51
85.000003999997801
  0
ARC
  5
67AF
  8
AM_0
 10
361.13296676912017
 20
621.75230447787521
 30
0.0
 40
5.0
 50
240.11298000000519
 51
268.50000000000381
  0
ARC
  5
67B0
  8
AM_0
 10
365.9082967691204
 20
613.62453447787505
 30
0.0
 40
3.0
 50
0.0
 51
88.499997000000747
  0
ARC
  5
67B1
  8
AM_0
 10
347.90829676912023
 20
607.9519244778752
 30
0.0
 40
1.0
 50
0.0
 51
90.00000299999769
  0
ARC
  5
67B2
  8
AM_0
 10
347.90829676912023
 20
613.72545447787525
 30
0.0
 40
1.0
 50
0.0
 51
90.00000299999769
  0
ARC
  5
67B3
  8
AM_0
 10
347.90829676912023
 20
616.61220447787525
 30
0.0
 40
1.0
 50
0.0
 51
90.00000299999769
  0
ARC
  5
67B4
  8
AM_0
 10
347.90829676912023
 20
615.72542447787509
 30
0.0
 40
1.0
 50
269.999989999999
 51
0.0000006832495047
  0
ARC
  5
67B5
  8
AM_0
 10
347.90829676912023
 20
609.95192447787508
 30
0.0
 40
1.0
 50
269.999989999999
 51
0.0000006832495047
  0
ARC
  5
67B6
  8
AM_0
 10
347.90829676912023
 20
607.06517447787519
 30
0.0
 40
1.0
 50
269.999989999999
 51
0.0000006832495047
  0
ARC
  5
67B7
  8
AM_0
 10
448.39703676912018
 20
553.5272144778753
 30
0.0
 40
101.4887199999999
 50
151.89333000000309
 51
208.1066699999968
  0
ARC
  5
67B8
  8
AM_0
 10
327.90832676912032
 20
484.65883447787508
 30
0.0
 40
2.0
 50
180.00001000000091
 51
268.50000000000381
  0
ARC
  5
67B9
  8
AM_0
 10
327.90832676912032
 20
622.3955844778751
 30
0.0
 40
2.0
 50
91.500001000001546
 51
180.00001000000091
  0
ARC
  5
67BA
  8
AM_0
 10
322.90829676912023
 20
490.31593447787509
 30
0.0
 40
2.0
 50
180.00001000000091
 51
270.0
  0
ARC
  5
67BB
  8
AM_0
 10
318.90829676912023
 20
505.52690447787529
 30
0.0
 40
2.0
 50
0.0
 51
90.00000299999769
  0
ARC
  5
67BC
  8
AM_0
 10
323.90832676912032
 20
486.31593447787509
 30
0.0
 40
2.0
 50
0.0
 51
90.00000299999769
  0
ARC
  5
67BD
  8
AM_0
 10
323.90832676912032
 20
620.73851447787524
 30
0.0
 40
2.0
 50
270.0
 51
0.0
  0
ARC
  5
67BE
  8
AM_0
 10
322.90829676912023
 20
616.73851447787524
 30
0.0
 40
2.0
 50
90.00000299999769
 51
180.00001000000091
  0
ARC
  5
67BF
  8
AM_0
 10
318.90829676912023
 20
601.52751447787534
 30
0.0
 40
2.0
 50
270.0
 51
0.0
  0
LINE
  5
67C0
  8
ﾁｭｳｼﾝｾﾝ1
 10
375.90829676912023
 20
618.52721447787508
 30
0.0
 11
395.90829676912023
 21
618.52721447787508
 31
0.0
  0
LINE
  5
67C1
  8
ﾁｭｳｼﾝｾﾝ1
 10
385.90829676912023
 20
628.52721447787508
 30
0.0
 11
385.90829676912023
 21
608.52721447787519
 31
0.0
  0
LINE
  5
67C3
  8
ﾁｭｳｼﾝｾﾝ1
 10
375.90829676912023
 20
488.52721447787519
 30
0.0
 11
395.90829676912023
 21
488.52721447787519
 31
0.0
  0
LINE
  5
67C4
  8
ﾁｭｳｼﾝｾﾝ1
 10
385.90829676912023
 20
498.5272144778753
 30
0.0
 11
385.90829676912023
 21
478.52721447787508
 31
0.0
  0
LINE
  5
67C5
  8
ﾁｭｳｼﾝｾﾝ1
 10
305.9082967691204
 20
488.52721447787519
 30
0.0
 11
325.90829676912028
 21
488.52721447787519
 31
0.0
  0
LINE
  5
67C6
  8
ﾁｭｳｼﾝｾﾝ1
 10
315.90829676912028
 20
498.5272144778753
 30
0.0
 11
315.90829676912028
 21
478.52721447787508
 31
0.0
  0
LINE
  5
67C7
  8
ﾁｭｳｼﾝｾﾝ1
 10
305.9082967691204
 20
618.52721447787508
 30
0.0
 11
325.90829676912028
 21
618.52721447787508
 31
0.0
  0
LINE
  5
67C8
  8
ﾁｭｳｼﾝｾﾝ1
 10
315.90829676912028
 20
628.52721447787508
 30
0.0
 11
315.90829676912028
 21
608.52721447787519
 31
0.0
  0
ARC
  5
67C9
  8
AM_0
 10
396.9082767691205
 20
582.91396947787518
 30
0.0
 40
2.00000007
 50
179.999989999999
 51
240.00000999999969
  0
ARC
  5
67CA
  8
AM_0
 10
396.9082767691205
 20
524.14046247787508
 30
0.0
 40
2.00000007
 50
120.0000000000005
 51
180.00001000000091
  0
LINE
  5
67CB
  8
AM_0
 10
400.9082467691199
 20
587.02721147787497
 30
0.0
 11
405.90824676911978
 21
582.0272114778752
 31
0.0
  0
LINE
  5
67CC
  8
AM_0
 10
396.40824676912001
 20
587.02721147787497
 30
0.0
 11
400.9082467691199
 21
587.02721147787497
 31
0.0
  0
LINE
  5
67CD
  8
AM_0
 10
395.90824676912001
 20
586.52721147787497
 30
0.0
 11
395.90824676911973
 21
520.52721147787565
 31
0.0
  0
LINE
  5
67CE
  8
AM_0
 10
405.90824676911978
 20
582.0272114778752
 30
0.0
 11
405.90824676912001
 21
525.02721147787531
 31
0.0
  0
LINE
  5
67CF
  8
AM_0
 10
396.40824676912001
 20
520.02721147787497
 30
0.0
 11
400.9082467691199
 21
520.02721147787497
 31
0.0
  0
LINE
  5
67D0
  8
AM_0
 10
400.9082467691199
 20
520.02721147787497
 30
0.0
 11
405.90824676912001
 21
525.02721147787531
 31
0.0
  0
LINE
  5
67D1
  8
AM_0
 10
396.40824676912001
 20
587.02721147787497
 30
0.0
 11
395.90824676912001
 21
586.52721147787497
 31
0.0
1001
GENIUS_GENFIL_13
1070
     0
1040
0.5
1040
0.5
1040
20.0
1040
0.0
1002
{
1002
}
1001
GENIUS_GENOBJ-N-CHA_13
1002
{
1000
OWNER
1000
GEN
1002
}
1001
GENIUS_GENODEF_13
1002
{
1000
HIER
1070
     0
1002
}
1002
{
1000
MANEDIT
1070
     0
1002
}
1002
{
1000
NOSEL
1070
     0
1002
}
1002
{
1000
BEHIND
1070
     0
1002
}
1002
{
1000
OTHER
1070
     0
1002
}
1002
{
1000
REACTOR
1002
}
  0
LINE
  5
67D2
  8
AM_0
 10
395.90824676912001
 20
520.52721147787497
 30
0.0
 11
396.40824676912001
 21
520.02721147787497
 31
0.0
1001
GENIUS_GENFIL_13
1070
     0
1040
0.5
1040
0.5
1040
20.0
1040
0.0
1002
{
1002
}
1001
GENIUS_GENOBJ-N-CHA_13
1002
{
1000
OWNER
1000
GEN
1002
}
1001
GENIUS_GENODEF_13
1002
{
1000
HIER
1070
     0
1002
}
1002
{
1000
MANEDIT
1070
     0
1002
}
1002
{
1000
NOSEL
1070
     0
1002
}
1002
{
1000
BEHIND
1070
     0
1002
}
1002
{
1000
OTHER
1070
     0
1002
}
1002
{
1000
REACTOR
1002
}
  0
LINE
  5
67D3
  8
AM_0
 10
400.9082467691199
 20
587.02721147787497
 30
0.0
 11
400.9082467691199
 21
520.02721147787497
 31
0.0
  0
LINE
  5
67D4
  8
AM_0
 10
265.93451661816073
 20
487.52721447787542
 30
0.0
 11
266.18906589218341
 21
497.24718447787518
 31
0.0
  0
LINE
  5
67D5
  8
AM_0
 10
205.88208462291999
 20
487.52721447787542
 30
0.0
 11
205.6276025817813
 21
497.24718447787518
 31
0.0
  0
LINE
  5
67D6
  8
AM_0
 10
202.40832676912009
 20
485.52721447787519
 30
0.0
 11
269.40832676912021
 21
485.52721447787519
 31
0.0
  0
LINE
  5
67D7
  8
AM_0
 10
202.40832676912009
 20
484.5272144778753
 30
0.0
 11
202.40832676912009
 21
485.52721447787519
 31
0.0
  0
LINE
  5
67D8
  8
AM_0
 10
269.40832676912021
 20
484.5272144778753
 30
0.0
 11
269.40832676912021
 21
485.52721447787519
 31
0.0
  0
LINE
  5
67D9
  8
AM_0
 10
187.90832676912009
 20
446.52721447787519
 30
0.0
 11
189.1679119053824
 21
482.59701347128021
 31
0.0
  0
LINE
  5
67DA
  8
AM_0
 10
191.16669355942071
 20
484.5272144778753
 30
0.0
 11
280.64995997881971
 21
484.5272144778753
 31
0.0
  0
ARC
  5
67DB
  8
AM_0
 10
191.16669355942071
 20
482.5272144778753
 30
0.0
 40
2.0
 50
90.0
 51
178.00000000000259
1001
GENIUS_GENODEF_13
1002
{
1000
HIER
1070
     0
1002
}
1002
{
1000
MANEDIT
1070
     0
1002
}
1002
{
1000
NOSEL
1070
     0
1002
}
1002
{
1000
BEHIND
1070
     0
1002
}
1002
{
1000
OTHER
1070
     0
1002
}
1002
{
1000
REACTOR
1002
}
1001
GENIUS_GENOBJ-N-FIL_13
1002
{
1000
OWNER
1000
GEN
1002
}
  0
LINE
  5
67DC
  8
AM_0
 10
282.64874163285788
 20
482.59701347128021
 30
0.0
 11
283.90832676912032
 21
446.52721447787542
 31
0.0
  0
ARC
  5
67DD
  8
AM_0
 10
280.64995997881982
 20
482.5272144778753
 30
0.0
 40
2.0
 50
1.9999999999972149
 51
90.0
1001
GENIUS_GENOBJ-N-FIL_13
1002
{
1000
OWNER
1000
GEN
1002
}
1001
GENIUS_GENODEF_13
1002
{
1000
HIER
1070
     0
1002
}
1002
{
1000
MANEDIT
1070
     0
1002
}
1002
{
1000
NOSEL
1070
     0
1002
}
1002
{
1000
BEHIND
1070
     0
1002
}
1002
{
1000
OTHER
1070
     0
1002
}
1002
{
1000
REACTOR
1002
}
  0
LINE
  5
67DE
  8
AM_0
 10
283.90832676912032
 20
446.52721447787542
 30
0.0
 11
187.90832676911981
 21
446.52721447787519
 31
0.0
  0
LINE
  5
67DF
  8
AM_0
 10
188.0130890775954
 20
449.52721447787508
 30
0.0
 11
186.90832676912009
 21
449.52721447787508
 31
0.0
  0
LINE
  5
67E0
  8
AM_0
 10
189.13055370133131
 20
481.52721447787508
 30
0.0
 11
186.90832676912009
 21
481.52721447787508
 31
0.0
  0
LINE
  5
67E1
  8
ﾁｭｳｼﾝｾﾝ1
 10
192.90832676912081
 20
436.2625069778752
 30
0.0
 11
192.90832676912081
 21
449.26250697787509
 31
0.0
  0
LINE
  5
67E2
  8
ﾁｭｳｼﾝｾﾝ
 10
235.90832676912021
 20
491.81924515110433
 30
0.0
 11
235.90832676912021
 21
434.07669183706582
 31
0.0
  0
LINE
  5
67E3
  8
AM_0
 10
184.40832676912009
 20
452.02721447787508
 30
0.0
 11
186.90832676912009
 21
452.02721447787491
 31
0.0
  0
LINE
  5
67E4
  8
AM_0
 10
186.90832676912009
 20
479.02721447787479
 30
0.0
 11
184.40832676912009
 21
479.02721447787508
 31
0.0
  0
LINE
  5
67E5
  8
AM_0
 10
173.50965567277419
 20
476.02721447787508
 30
0.0
 11
173.50965567277419
 21
455.02721447787508
 31
0.0
  0
LINE
  5
67E6
  8
AM_0
 10
158.50965567277419
 20
457.49558942385988
 30
0.0
 11
158.50965567277419
 21
473.5588395318909
 31
0.0
  0
LINE
  5
67E7
  8
AM_0
 10
171.50965567277419
 20
477.52721447787508
 30
0.0
 11
171.50965567277419
 21
453.52721447787508
 31
0.0
  0
LINE
  5
67E8
  8
AM_0
 10
162.00965567277419
 20
465.52721447787508
 30
0.0
 11
162.50965567277419
 21
466.02721447787508
 31
0.0
  0
LINE
  5
67E9
  8
AM_0
 10
169.00965567277419
 20
453.82721447787492
 30
0.0
 11
169.00965567277419
 21
477.2272144778749
 31
0.0
  0
LINE
  5
67EA
  8
AM_0
 10
178.90832676912009
 20
454.02721447787508
 30
0.0
 11
178.90832676912009
 21
477.02721447787508
 31
0.0
  0
LINE
  5
67EB
  8
AM_0
 10
173.00965567277419
 20
466.22721447787688
 30
0.0
 11
173.00965567277419
 21
464.82721447787378
 31
0.0
  0
LINE
  5
67EC
  8
AM_0
 10
175.10929139934501
 20
474.62721447787487
 30
0.0
 11
174.35929139934609
 21
456.42721447787483
 31
0.0
  0
LINE
  5
67ED
  8
AM_0
 10
174.15832676912009
 20
474.62721447787487
 30
0.0
 11
173.50965567277419
 21
458.88612920655902
 31
0.0
  0
LINE
  5
67EE
  8
AM_0
 10
174.90701935969221
 20
475.34287319023912
 30
0.0
 11
174.15975931628421
 21
455.71484271670812
 31
0.0
  0
LINE
  5
67EF
  8
AM_0
 10
174.35785885218201
 20
475.33958623904289
 30
0.0
 11
173.60929139934609
 21
455.677214477875
 31
0.0
  0
LINE
  5
67F0
  8
AM_0
 10
171.50965567277419
 20
453.52721447787508
 30
0.0
 11
169.3096556727742
 21
453.52721447787508
 31
0.0
  0
ARC
  5
67F1
  8
AM_0
 10
183.40832676912021
 20
453.02721447787508
 30
0.0
 40
0.5
 50
0.0
 51
90.000000000013017
  0
ARC
  5
67F2
  8
AM_0
 10
184.40832676912021
 20
452.52721447787508
 30
0.0
 40
0.5
 50
180.0
 51
270.0
  0
LINE
  5
67F3
  8
AM_0
 10
183.90832676912009
 20
453.02721447787508
 30
0.0
 11
183.90832676912009
 21
452.52721447787508
 31
0.0
  0
LINE
  5
67F4
  8
AM_0
 10
174.90832676912009
 20
456.42721447787483
 30
0.0
 11
178.40832676912009
 21
456.42721447787483
 31
0.0
  0
LINE
  5
67F5
  8
AM_0
 10
183.90832676912009
 20
454.67114315646802
 30
0.0
 11
183.90832676912009
 21
464.38328579928287
 31
0.0
  0
LINE
  5
67F6
  8
AM_0
 10
179.40832676912009
 20
453.52721447787508
 30
0.0
 11
183.40832676912009
 21
453.52721447787508
 31
0.0
  0
LINE
  5
67F7
  8
AM_0
 10
183.40832676912009
 20
454.17114315646819
 30
0.0
 11
178.90832676912009
 21
454.17114315646819
 31
0.0
  0
ARC
  5
67F8
  8
AM_0
 10
183.40832676912021
 20
454.67114315646802
 30
0.0
 40
0.5
 50
270.0
 51
0.0
  0
ARC
  5
67F9
  8
AM_0
 10
178.40832676912009
 20
455.92721447787522
 30
0.0
 40
0.5
 50
0.0
 51
90.0
  0
ARC
  5
67FA
  8
AM_0
 10
179.40832676912009
 20
454.02721447787508
 30
0.0
 40
0.5
 50
180.0
 51
270.0
  0
LINE
  5
67FB
  8
AM_0
 10
183.40832676912009
 20
464.88328579928287
 30
0.0
 11
178.90832676912009
 21
464.88328579928287
 31
0.0
  0
ARC
  5
67FC
  8
AM_0
 10
183.40832676912009
 20
464.38328579928321
 30
0.0
 40
0.5
 50
0.0
 51
90.0
  0
LINE
  5
67FD
  8
AM_0
 10
173.00965567277419
 20
459.38204372558278
 30
0.0
 11
173.00965567277419
 21
460.55428691201593
 31
0.0
  0
LINE
  5
67FE
  8
AM_0
 10
174.43602382777109
 20
456.42721447787483
 30
0.0
 11
174.90832676912009
 21
456.42721447787483
 31
0.0
  0
LINE
  5
67FF
  8
AM_0
 10
174.33943133323189
 20
456.35309671113828
 30
0.0
 11
174.35929139934609
 21
456.42721447787483
 31
0.0
  0
ARC
  5
6800
  8
AM_0
 10
174.43602382777109
 20
456.32721447787509
 30
0.0
 40
0.1000000000000346
 50
90.0
 51
164.99980499355451
  0
ARC
  5
6801
  8
AM_0
 10
172.70965567277409
 20
456.24038149736703
 30
0.0
 40
0.3000000000000043
 50
0.0
 51
90.0
  0
LINE
  5
6802
  8
AM_0
 10
171.50965567277419
 20
454.12721447787487
 30
0.0
 11
172.7296113759312
 21
454.2085448580861
 31
0.0
  0
LINE
  5
6803
  8
AM_0
 10
171.50965567277419
 20
455.28346651371493
 30
0.0
 11
172.70965567277401
 21
455.28346651371493
 31
0.0
  0
LINE
  5
6804
  8
AM_0
 10
173.00965567277419
 20
454.52721447787508
 30
0.0
 11
171.50965567277419
 21
454.52721447787508
 31
0.0
  0
ARC
  5
6805
  8
AM_0
 10
173.00965567277419
 20
455.02721447787508
 30
0.0
 40
0.5
 50
270.0
 51
0.0
  0
LINE
  5
6806
  8
AM_0
 10
173.00965567277419
 20
454.50788040544307
 30
0.0
 11
173.00965567277419
 21
454.52721447787508
 31
0.0
  0
LINE
  5
6807
  8
AM_0
 10
173.00965567277419
 20
454.22721447787518
 30
0.0
 11
173.00965567277419
 21
454.50788040544307
 31
0.0
  0
LINE
  5
6808
  8
AM_0
 10
172.7296113759312
 20
454.2085448580861
 30
0.0
 11
173.00965567277419
 21
454.22721447787518
 31
0.0
  0
ARC
  5
6809
  8
AM_0
 10
172.70965567277409
 20
454.50788040544307
 30
0.0
 40
0.3000000000000007
 50
273.8140748342816
 51
0.0
  0
LINE
  5
680A
  8
AM_0
 10
174.08159434069501
 20
455.677214477875
 30
0.0
 11
174.158326769121
 21
455.677214477875
 31
0.0
  0
LINE
  5
680B
  8
AM_0
 10
174.158326769121
 20
455.677214477875
 30
0.0
 11
174.1781868352341
 21
455.75133224461132
 31
0.0
  0
LINE
  5
680C
  8
AM_0
 10
173.58943133323189
 20
455.75133224461132
 30
0.0
 11
173.60929139934609
 21
455.677214477875
 31
0.0
  0
LINE
  5
680D
  8
AM_0
 10
173.60929139934609
 20
455.677214477875
 30
0.0
 11
173.68602382777109
 21
455.677214477875
 31
0.0
  0
LINE
  5
680E
  8
AM_0
 10
174.1781868352341
 20
455.75133224461132
 30
0.0
 11
174.33943133323189
 21
456.35309671113828
 31
0.0
  0
LINE
  5
680F
  8
AM_0
 10
173.68602382777109
 20
455.677214477875
 30
0.0
 11
174.08159434069501
 21
455.677214477875
 31
0.0
  0
LINE
  5
6810
  8
AM_0
 10
173.50965567277501
 20
456.0490550094359
 30
0.0
 11
173.58943133323189
 21
455.75133224461132
 31
0.0
  0
ARC
  5
6811
  8
AM_0
 10
174.08159434069501
 20
455.77721447787508
 30
0.0
 40
0.0999999999999866
 50
270.0
 51
344.99980499343462
  0
ARC
  5
6812
  8
AM_0
 10
173.68602382777109
 20
455.77721447787508
 30
0.0
 40
0.1000000000000014
 50
195.00019500656541
 51
270.0
  0
LINE
  5
6813
  8
AM_0
 10
173.00965567277419
 20
455.58346651371482
 30
0.0
 11
173.00965567277419
 21
456.24038149736703
 31
0.0
  0
ARC
  5
6814
  8
AM_0
 10
172.70965567277409
 20
455.58346651371522
 30
0.0
 40
0.3000000000000007
 50
270.0
 51
0.0
  0
LINE
  5
6815
  8
AM_0
 10
171.50965567277419
 20
459.08204372558282
 30
0.0
 11
172.70965567277401
 21
459.08204372558282
 31
0.0
  0
LINE
  5
6816
  8
AM_0
 10
172.70965567277401
 20
456.54038149736692
 30
0.0
 11
171.50965567277419
 21
456.54038149736692
 31
0.0
  0
LINE
  5
6817
  8
AM_0
 10
174.35929139934609
 20
456.42721447787483
 30
0.0
 11
174.43602382777109
 21
456.42721447787483
 31
0.0
  0
ARC
  5
6818
  8
AM_0
 10
172.70965567277409
 20
459.38204372558312
 30
0.0
 40
0.3000000000000007
 50
270.0
 51
0.0
  0
LINE
  5
6819
  8
AM_0
 10
172.70965567277401
 20
460.85428691201599
 30
0.0
 11
171.50965567277419
 21
460.85428691201599
 31
0.0
  0
ARC
  5
681A
  8
AM_0
 10
172.70965567277409
 20
460.5542869120161
 30
0.0
 40
0.3000000000000043
 50
0.0
 51
90.0
  0
LINE
  5
681B
  8
AM_0
 10
172.70965567277401
 20
464.527214477874
 30
0.0
 11
171.50965567277419
 21
464.527214477874
 31
0.0
  0
ARC
  5
681C
  8
AM_0
 10
172.70965567277409
 20
464.82721447787418
 30
0.0
 40
0.3000000000000007
 50
270.0
 51
0.0
  0
LINE
  5
681D
  8
AM_0
 10
162.50965567277419
 20
455.3939346492279
 30
0.0
 11
169.00965567277419
 21
455.3939346492279
 31
0.0
  0
LINE
  5
681E
  8
AM_0
 10
162.50965567277419
 20
454.89393464922802
 30
0.0
 11
169.00965567277419
 21
454.89393464922802
 31
0.0
  0
LINE
  5
681F
  8
AM_0
 10
169.00965567277419
 20
465.02721447787508
 30
0.0
 11
162.50965567277419
 21
465.02721447787508
 31
0.0
  0
LINE
  5
6820
  8
AM_0
 10
162.00965567277419
 20
464.52721447787508
 30
0.0
 11
169.00965567277419
 21
464.52721447787508
 31
0.0
  0
LINE
  5
6821
  8
AM_0
 10
168.70965567277401
 20
454.52721447787508
 30
0.0
 11
161.87170560795599
 21
454.52721447787508
 31
0.0
  0
LINE
  5
6822
  8
AM_0
 10
169.00965567277419
 20
464.18052640933382
 30
0.0
 11
162.50965567277419
 21
464.18052640933382
 31
0.0
  0
LINE
  5
6823
  8
AM_0
 10
169.00965567277419
 20
455.8739025464161
 30
0.0
 11
162.50965567277419
 21
455.8739025464161
 31
0.0
  0
ARC
  5
6824
  8
AM_0
 10
169.3096556727742
 20
453.82721447787492
 30
0.0
 40
0.2999999999999971
 50
180.0
 51
270.0
  0
ARC
  5
6825
  8
AM_0
 10
168.70965567277409
 20
454.22721447787518
 30
0.0
 40
0.2999999999999971
 50
0.0
 51
90.0
  0
ARC
  5
6826
  8
AM_0
 10
170.63465567277419
 20
460.02721447787508
 30
0.0
 40
9.124999999999984
 50
152.92493329271929
 51
207.07506670728071
  0
LINE
  5
6827
  8
AM_0
 10
161.2315212082917
 20
454.75899319827738
 30
0.0
 11
158.8694712731095
 21
456.72736814426253
 31
0.0
  0
LINE
  5
6828
  8
AM_0
 10
162.00965567277419
 20
455.10564706138302
 30
0.0
 11
162.50965567277419
 21
454.52721447787508
 31
0.0
  0
ARC
  5
6829
  8
AM_0
 10
161.87170560795599
 20
455.52721447787508
 30
0.0
 40
1.0
 50
230.19442890774391
 51
270.0
  0
LINE
  5
682A
  8
AM_0
 10
162.50965567277419
 20
454.89393464922802
 30
0.0
 11
162.00965567277419
 21
455.10564706138302
 31
0.0
  0
LINE
  5
682B
  8
AM_0
 10
162.00965567277419
 20
455.56792233435402
 30
0.0
 11
162.50965567277419
 21
454.89393464922802
 31
0.0
  0
LINE
  5
682C
  8
AM_0
 10
162.50965567277419
 20
455.3939346492279
 30
0.0
 11
162.00965567277419
 21
455.56792233435402
 31
0.0
  0
LINE
  5
682D
  8
AM_0
 10
162.00965567277419
 20
456.10564706138308
 30
0.0
 11
162.50965567277419
 21
455.3939346492279
 31
0.0
  0
LINE
  5
682E
  8
AM_0
 10
162.50965567277419
 20
455.8739025464161
 30
0.0
 11
162.00965567277419
 21
456.10564706138308
 31
0.0
  0
ARC
  5
682F
  8
AM_0
 10
159.50965567277419
 20
457.49558942386011
 30
0.0
 40
1.0000000000000291
 50
180.0
 51
230.19442890773581
  0
LINE
  5
6830
  8
AM_0
 10
162.50965567277419
 20
465.02721447787508
 30
0.0
 11
162.00965567277419
 21
465.52721447787508
 31
0.0
  0
LINE
  5
6831
  8
AM_0
 10
162.00965567277419
 20
464.52721447787508
 30
0.0
 11
162.50965567277419
 21
465.02721447787508
 31
0.0
  0
LINE
  5
6832
  8
AM_0
 10
162.50965567277419
 20
464.18052640933382
 30
0.0
 11
162.00965567277419
 21
464.52721447787508
 31
0.0
  0
LINE
  5
6833
  8
AM_0
 10
169.3096556727742
 20
477.52721447787508
 30
0.0
 11
171.50965567277419
 21
477.52721447787508
 31
0.0
  0
ARC
  5
6834
  8
AM_0
 10
183.40832676912009
 20
478.02721447787508
 30
0.0
 40
0.5
 50
269.99999999998693
 51
0.0
  0
LINE
  5
6835
  8
AM_0
 10
178.40832676912009
 20
474.62721447787487
 30
0.0
 11
175.18602382777109
 21
474.62721447787487
 31
0.0
  0
LINE
  5
6836
  8
AM_0
 10
183.90832676912009
 20
466.67114315646819
 30
0.0
 11
183.90832676912009
 21
476.38328579928321
 31
0.0
  0
LINE
  5
6837
  8
AM_0
 10
178.90832676912009
 20
466.17114315646819
 30
0.0
 11
183.40832676912009
 21
466.17114315646819
 31
0.0
  0
ARC
  5
6838
  8
AM_0
 10
183.40832676912009
 20
466.67114315646819
 30
0.0
 40
0.5
 50
270.0
 51
0.0
  0
LINE
  5
6839
  8
AM_0
 10
178.90832676912009
 20
476.88328579928321
 30
0.0
 11
183.40832676912009
 21
476.88328579928321
 31
0.0
  0
LINE
  5
683A
  8
AM_0
 10
183.40832676912009
 20
477.52721447787508
 30
0.0
 11
179.40832676912009
 21
477.52721447787508
 31
0.0
  0
ARC
  5
683B
  8
AM_0
 10
183.40832676912009
 20
476.38328579928321
 30
0.0
 40
0.5
 50
0.0
 51
90.0
  0
ARC
  5
683C
  8
AM_0
 10
178.40832676912009
 20
475.12721447787487
 30
0.0
 40
0.5
 50
270.0
 51
0.0
  0
ARC
  5
683D
  8
AM_0
 10
179.40832676912009
 20
477.02721447787508
 30
0.0
 40
0.5
 50
90.0
 51
180.0
  0
ARC
  5
683E
  8
AM_0
 10
172.70965567277409
 20
471.67238523016709
 30
0.0
 40
0.3000000000000114
 50
0.0
 51
90.0
  0
LINE
  5
683F
  8
AM_0
 10
171.50965567277419
 20
466.5272144778769
 30
0.0
 11
172.70965567277401
 21
466.5272144778769
 31
0.0
  0
ARC
  5
6840
  8
AM_0
 10
172.70965567277409
 20
466.22721447787711
 30
0.0
 40
0.2999999999999971
 50
0.0
 51
90.0
  0
LINE
  5
6841
  8
AM_0
 10
171.50965567277419
 20
470.20014204373382
 30
0.0
 11
172.70965567277401
 21
470.20014204373382
 31
0.0
  0
ARC
  5
6842
  8
AM_0
 10
172.70965567277409
 20
470.500142043734
 30
0.0
 40
0.3000000000000007
 50
270.0
 51
0.0
  0
LINE
  5
6843
  8
AM_0
 10
173.00965567277419
 20
470.500142043734
 30
0.0
 11
173.00965567277419
 21
471.67238523016709
 31
0.0
  0
LINE
  5
6844
  8
AM_0
 10
174.43602382777109
 20
475.37721447787487
 30
0.0
 11
174.83159434069501
 21
475.37721447787487
 31
0.0
  0
LINE
  5
6845
  8
AM_0
 10
174.43602382777109
 20
475.37721447787487
 30
0.0
 11
174.83159434069501
 21
475.37721447787487
 31
0.0
  0
LINE
  5
6846
  8
AM_0
 10
174.9281868352341
 20
475.30309671113849
 30
0.0
 11
175.08943133323189
 21
474.70133224461142
 31
0.0
  0
LINE
  5
6847
  8
AM_0
 10
174.9281868352341
 20
475.30309671113849
 30
0.0
 11
175.08943133323189
 21
474.70133224461142
 31
0.0
  0
ARC
  5
6848
  8
AM_0
 10
175.18602382777109
 20
474.72721447787518
 30
0.0
 40
0.0999999999999943
 50
195.00019500651959
 51
270.0
  0
ARC
  5
6849
  8
AM_0
 10
174.83159434069501
 20
475.27721447787508
 30
0.0
 40
0.0999999999999943
 50
15.000195006505431
 51
90.0
  0
LINE
  5
684A
  8
AM_0
 10
173.50880908423301
 20
475.00221447787521
 30
0.0
 11
173.58943133323189
 21
474.70133224461142
 31
0.0
  0
LINE
  5
684B
  8
AM_0
 10
174.161037421326
 20
474.66647901097298
 30
0.0
 11
174.33943133323189
 21
475.30309671113849
 31
0.0
  0
LINE
  5
684C
  8
AM_0
 10
174.1781868352341
 20
474.70133224461142
 30
0.0
 11
174.33943133323189
 21
475.30309671113849
 31
0.0
  0
LINE
  5
684D
  8
AM_0
 10
173.00965567277419
 20
474.81404745838398
 30
0.0
 11
173.00965567277419
 21
475.47096244203487
 31
0.0
  0
LINE
  5
684E
  8
AM_0
 10
173.50965567277419
 20
474.9990550094368
 30
0.0
 11
173.58943133323189
 21
474.70133224461142
 31
0.0
  0
LINE
  5
684F
  8
AM_0
 10
171.50965567277419
 20
474.51404745838403
 30
0.0
 11
172.70965567277401
 21
474.51404745838403
 31
0.0
  0
LINE
  5
6850
  8
AM_0
 10
172.70965567277401
 20
471.97238523016688
 30
0.0
 11
171.50965567277419
 21
471.97238523016802
 31
0.0
  0
LINE
  5
6851
  8
AM_0
 10
174.11422660621011
 20
474.62721447787487
 30
0.0
 11
174.161037421326
 21
474.66647901097298
 31
0.0
  0
LINE
  5
6852
  8
AM_0
 10
173.68602382777109
 20
474.62721447787487
 30
0.0
 11
174.11422660621011
 21
474.62721447787487
 31
0.0
  0
LINE
  5
6853
  8
AM_0
 10
173.68602382777109
 20
474.62721447787487
 30
0.0
 11
174.08159434069501
 21
474.62721447787487
 31
0.0
  0
ARC
  5
6854
  8
AM_0
 10
173.68602382777109
 20
474.72721447787518
 30
0.0
 40
0.0999999999999943
 50
195.00019500651959
 51
270.0
  0
ARC
  5
6855
  8
AM_0
 10
174.08159434069501
 20
474.72721447787518
 30
0.0
 40
0.0999999999999608
 50
270.0
 51
344.99980499348032
  0
ARC
  5
6856
  8
AM_0
 10
172.70965567277409
 20
474.81404745838398
 30
0.0
 40
0.3000000000000007
 50
270.0
 51
0.0
  0
LINE
  5
6857
  8
AM_0
 10
171.50965567277419
 20
476.52721447787508
 30
0.0
 11
173.00965567277419
 21
476.52721447787508
 31
0.0
  0
LINE
  5
6858
  8
AM_0
 10
172.70965567277401
 20
475.770962442035
 30
0.0
 11
171.50965567277419
 21
475.770962442035
 31
0.0
  0
LINE
  5
6859
  8
AM_0
 10
172.7296113759312
 20
476.84588409766491
 30
0.0
 11
171.50965567277419
 21
476.92721447787483
 31
0.0
  0
ARC
  5
685A
  8
AM_0
 10
173.00965567277419
 20
476.02721447787508
 30
0.0
 40
0.5
 50
0.0
 51
90.0
  0
ARC
  5
685B
  8
AM_0
 10
174.43602382777109
 20
475.27721447787508
 30
0.0
 40
0.0999999999999606
 50
90.0
 51
164.99980499349451
  0
ARC
  5
685C
  8
AM_0
 10
172.70965567277409
 20
475.47096244203487
 30
0.0
 40
0.2999999999999971
 50
0.0
 51
90.0
  0
LINE
  5
685D
  8
AM_0
 10
173.00965567277419
 20
476.52721447787508
 30
0.0
 11
173.00965567277419
 21
476.54654855030799
 31
0.0
  0
ARC
  5
685E
  8
AM_0
 10
172.70965567277409
 20
476.54654855030799
 30
0.0
 40
0.3000000000000043
 50
0.0
 51
86.185925165718416
  0
ARC
  5
685F
  8
AM_0
 10
184.40832676912009
 20
478.52721447787508
 30
0.0
 40
0.5
 50
90.0
 51
180.0
  0
LINE
  5
6860
  8
AM_0
 10
183.90832676912009
 20
478.52721447787508
 30
0.0
 11
183.90832676912009
 21
478.02721447787508
 31
0.0
  0
LINE
  5
6861
  8
AM_0
 10
162.50965567277419
 20
475.18052640933382
 30
0.0
 11
169.00965567277419
 21
475.18052640933382
 31
0.0
  0
LINE
  5
6862
  8
AM_0
 10
162.50965567277419
 20
466.87390254641599
 30
0.0
 11
169.00965567277419
 21
466.87390254641599
 31
0.0
  0
LINE
  5
6863
  8
AM_0
 10
161.87170560795599
 20
476.52721447787508
 30
0.0
 11
168.70965567277401
 21
476.52721447787508
 31
0.0
  0
LINE
  5
6864
  8
AM_0
 10
169.00965567277419
 20
466.52721447787508
 30
0.0
 11
162.00965567277419
 21
466.52721447787508
 31
0.0
  0
LINE
  5
6865
  8
AM_0
 10
162.50965567277419
 20
466.02721447787508
 30
0.0
 11
169.00965567277419
 21
466.02721447787508
 31
0.0
  0
LINE
  5
6866
  8
AM_0
 10
169.00965567277419
 20
476.16049430652282
 30
0.0
 11
162.50965567277419
 21
476.16049430652282
 31
0.0
  0
LINE
  5
6867
  8
AM_0
 10
169.00965567277419
 20
475.66049430652282
 30
0.0
 11
162.50965567277419
 21
475.66049430652282
 31
0.0
  0
ARC
  5
6868
  8
AM_0
 10
168.70965567277409
 20
476.82721447787509
 30
0.0
 40
0.3000000000000043
 50
270.0
 51
0.0
  0
ARC
  5
6869
  8
AM_0
 10
169.3096556727742
 20
477.22721447787512
 30
0.0
 40
0.2999999999999971
 50
90.0
 51
180.0
  0
ARC
  5
686A
  8
AM_0
 10
170.63465567277419
 20
471.02721447787508
 30
0.0
 40
9.124999999999984
 50
152.92493329271929
 51
207.07506670728071
  0
LINE
  5
686B
  8
AM_0
 10
162.00965567277419
 20
466.52721447787508
 30
0.0
 11
162.50965567277419
 21
466.87390254641599
 31
0.0
  0
LINE
  5
686C
  8
AM_0
 10
162.50965567277419
 20
466.02721447787508
 30
0.0
 11
162.00965567277419
 21
466.52721447787508
 31
0.0
  0
LINE
  5
686D
  8
AM_0
 10
158.8694712731095
 20
474.32706081148831
 30
0.0
 11
161.2315212082917
 21
476.29543575747249
 31
0.0
  0
LINE
  5
686E
  8
AM_0
 10
162.50965567277419
 20
476.52721447787508
 30
0.0
 11
162.00965567277419
 21
475.94878189436798
 31
0.0
  0
ARC
  5
686F
  8
AM_0
 10
161.87170560795599
 20
475.52721447787508
 30
0.0
 40
1.0000000000000411
 50
90.0
 51
129.805571092256
  0
LINE
  5
6870
  8
AM_0
 10
162.00965567277419
 20
474.9487818943681
 30
0.0
 11
162.50965567277419
 21
475.18052640933382
 31
0.0
  0
LINE
  5
6871
  8
AM_0
 10
162.50965567277419
 20
475.66049430652282
 30
0.0
 11
162.00965567277419
 21
474.9487818943681
 31
0.0
  0
LINE
  5
6872
  8
AM_0
 10
162.00965567277419
 20
475.48650662139602
 30
0.0
 11
162.50965567277419
 21
475.66049430652282
 31
0.0
  0
LINE
  5
6873
  8
AM_0
 10
162.50965567277419
 20
476.16049430652282
 30
0.0
 11
162.00965567277419
 21
475.48650662139602
 31
0.0
  0
LINE
  5
6874
  8
AM_0
 10
162.00965567277419
 20
475.94878189436798
 30
0.0
 11
162.50965567277419
 21
476.16049430652282
 31
0.0
  0
ARC
  5
6875
  8
AM_0
 10
159.50965567277419
 20
473.5588395318909
 30
0.0
 40
1.0
 50
129.8055710922641
 51
180.0
  0
LINE
  5
6876
  8
AM_0
 10
283.90832676912021
 20
442.5272144778753
 30
0.0
 11
263.09382186958788
 21
442.5272144778753
 31
0.0
  0
LINE
  5
6877
  8
AM_0
 10
208.7228316686525
 20
442.5272144778753
 30
0.0
 11
187.90832676912061
 21
442.5272144778753
 31
0.0
  0
LINE
  5
6878
  8
AM_0
 10
277.77254509995907
 20
438.5272144778753
 30
0.0
 11
194.04410843828089
 21
438.5272144778753
 31
0.0
  0
LINE
  5
6879
  8
AM_0
 10
196.8156817414272
 20
440.46827696574752
 30
0.0
 11
196.90832676912081
 21
441.5272144778753
 31
0.0
  0
LINE
  5
687A
  8
AM_0
 10
189.00097179681401
 20
440.46827696574752
 30
0.0
 11
188.90832676912061
 21
441.5272144778753
 31
0.0
  0
ARC
  5
687B
  8
AM_0
 10
192.90832676912081
 20
444.92721447787522
 30
0.0
 40
6.5
 50
241.82726586813479
 51
298.17273413186518
  0
ARC
  5
687C
  8
AM_0
 10
190.5948833137611
 20
440.60772615414368
 30
0.0
 40
1.6000000000000001
 50
185.0
 51
241.82726586813479
  0
LINE
  5
687D
  8
AM_0
 10
195.20832676912059
 20
438.84774081644707
 30
0.0
 11
192.90832676912081
 21
441.13730049524241
 31
0.0
  0
LINE
  5
687E
  8
AM_0
 10
193.2198267691208
 20
440.82721447787509
 30
0.0
 11
192.59682676912061
 21
440.82721447787509
 31
0.0
  0
LINE
  5
687F
  8
AM_0
 10
190.60832676912079
 20
438.84774081644707
 30
0.0
 11
192.90832676912081
 21
441.13730049524241
 31
0.0
  0
LINE
  5
6880
  8
AM_0
 10
193.2198267691208
 20
438.43468278754068
 30
0.0
 11
193.2198267691208
 21
440.82721447787509
 31
0.0
  0
LINE
  5
6881
  8
AM_0
 10
192.59682676912061
 20
438.43468278754068
 30
0.0
 11
192.59682676912061
 21
440.82721447787509
 31
0.0
  0
ARC
  5
6882
  8
AM_0
 10
195.22177022448039
 20
440.60772615414368
 30
0.0
 40
1.6000000000000001
 50
298.17273413186518
 51
354.99999999999977
  0
LINE
  5
6883
  8
AM_0
 10
283.90832676912032
 20
442.5272144778753
 30
0.0
 11
283.90832676912032
 21
446.52721447787542
 31
0.0
  0
LINE
  5
6884
  8
AM_0
 10
187.90832676911981
 20
446.52721447787519
 30
0.0
 11
187.908326769121
 21
442.5272144778753
 31
0.0
  0
LINE
  5
6885
  8
AM_0N
 10
196.7083267691207
 20
442.5272144778753
 30
0.0
 11
196.7083267691207
 21
441.5272144778753
 31
0.0
  0
LINE
  5
6886
  8
AM_0N
 10
193.10832676912079
 20
441.5272144778753
 30
0.0
 11
193.47229700338701
 21
442.5272144778753
 31
0.0
  0
LINE
  5
6887
  8
AM_0N
 10
192.7083267691207
 20
441.5272144778753
 30
0.0
 11
193.07229700338681
 21
442.5272144778753
 31
0.0
  0
LINE
  5
6888
  8
AM_0N
 10
188.90832676912061
 20
441.5272144778753
 30
0.0
 11
196.90832676912081
 21
441.5272144778753
 31
0.0
  0
LINE
  5
6889
  8
AM_0N
 10
189.10832676912079
 20
441.5272144778753
 30
0.0
 11
189.10832676912079
 21
442.5272144778753
 31
0.0
  0
LINE
  5
688A
  8
AM_0
 10
208.72283166865239
 20
438.5272144778753
 30
0.0
 11
208.72283166865239
 21
442.5272144778753
 31
0.0
  0
LINE
  5
688B
  8
AM_0
 10
207.06597741915991
 20
442.5272144778753
 30
0.0
 11
208.72283166865239
 21
438.5272144778753
 31
0.0
  0
LINE
  5
688C
  8
AM_0
 10
263.09382186958788
 20
438.5272144778753
 30
0.0
 11
263.09382186958788
 21
442.5272144778753
 31
0.0
  0
LINE
  5
688D
  8
AM_0
 10
264.75067611908031
 20
442.5272144778753
 30
0.0
 11
263.09382186958788
 21
438.5272144778753
 31
0.0
  0
LINE
  5
688E
  8
AM_0
 10
202.40832676912009
 20
487.52721447787542
 30
0.0
 11
269.40832676912021
 21
487.52721447787542
 31
0.0
  0
LINE
  5
688F
  8
AM_0
 10
202.40832676912009
 20
487.52721447787542
 30
0.0
 11
202.40832676912009
 21
485.52721447787519
 31
0.0
  0
LINE
  5
6890
  8
AM_0
 10
269.40832676912021
 20
487.52721447787542
 30
0.0
 11
269.40832676912021
 21
485.52721447787519
 31
0.0
  0
LINE
  5
6891
  8
ﾁｭｳｼﾝｾﾝ1
 10
278.90832676911958
 20
436.2625069778752
 30
0.0
 11
278.90832676911958
 21
449.26250697787509
 31
0.0
  0
LINE
  5
6892
  8
AM_0
 10
275.00097179681308
 20
440.46827696574752
 30
0.0
 11
274.90832676911958
 21
441.5272144778753
 31
0.0
  0
LINE
  5
6893
  8
AM_0
 10
282.81568174142598
 20
440.46827696574752
 30
0.0
 11
282.90832676911958
 21
441.5272144778753
 31
0.0
  0
ARC
  5
6894
  8
AM_0
 10
278.9083267691197
 20
444.92721447787522
 30
0.0
 40
6.5
 50
241.82726586813479
 51
298.17273413186518
  0
ARC
  5
6895
  8
AM_0
 10
281.22177022447943
 20
440.60772615414368
 30
0.0
 40
1.6000000000000001
 50
298.17273413186518
 51
354.99999999999977
  0
LINE
  5
6896
  8
AM_0
 10
276.60832676911963
 20
438.84774081644707
 30
0.0
 11
278.90832676911958
 21
441.13730049524241
 31
0.0
  0
LINE
  5
6897
  8
AM_0
 10
278.5968267691195
 20
440.82721447787509
 30
0.0
 11
279.21982676911961
 21
440.82721447787509
 31
0.0
  0
LINE
  5
6898
  8
AM_0
 10
281.20832676911948
 20
438.84774081644707
 30
0.0
 11
278.90832676911958
 21
441.13730049524241
 31
0.0
  0
LINE
  5
6899
  8
AM_0
 10
278.5968267691195
 20
438.43468278754068
 30
0.0
 11
278.5968267691195
 21
440.82721447787509
 31
0.0
  0
LINE
  5
689A
  8
AM_0
 10
279.21982676911961
 20
438.43468278754068
 30
0.0
 11
279.21982676911961
 21
440.82721447787509
 31
0.0
  0
ARC
  5
689B
  8
AM_0
 10
276.59488331376008
 20
440.60772615414368
 30
0.0
 40
1.6000000000000001
 50
185.0
 51
241.82726586813479
  0
LINE
  5
689C
  8
AM_0N
 10
275.10832676911951
 20
442.5272144778753
 30
0.0
 11
275.10832676911951
 21
441.5272144778753
 31
0.0
  0
LINE
  5
689D
  8
AM_0N
 10
278.70832676911948
 20
441.5272144778753
 30
0.0
 11
278.34435653485338
 21
442.5272144778753
 31
0.0
  0
LINE
  5
689E
  8
AM_0N
 10
279.10832676911951
 20
441.5272144778753
 30
0.0
 11
278.7443565348533
 21
442.5272144778753
 31
0.0
  0
LINE
  5
689F
  8
AM_0N
 10
282.90832676911958
 20
441.5272144778753
 30
0.0
 11
274.90832676911958
 21
441.5272144778753
 31
0.0
  0
LINE
  5
68A0
  8
AM_0N
 10
282.70832676911948
 20
441.5272144778753
 30
0.0
 11
282.70832676911948
 21
442.5272144778753
 31
0.0
  0
LINE
  5
68A1
  8
AM_0
 10
186.90832676912009
 20
449.52721447787508
 30
0.0
 11
186.90832676912009
 21
481.52721447787508
 31
0.0
  0
LINE
  5
68A2
  8
AM_0
 10
285.11407676912017
 20
598.45610447787521
 30
0.0
 11
280.96835676912031
 21
613.93721447787505
 31
0.0
  0
LINE
  5
68A3
  8
AM_0
 10
285.11404676912031
 20
597.54610447787536
 30
0.0
 11
280.96832676912032
 21
613.02721447787519
 31
0.0
  0
LINE
  5
68A4
  8
AM_0
 10
285.11404676912031
 20
595.6961244778754
 30
0.0
 11
280.96832676912032
 21
611.17726447787527
 31
0.0
  0
LINE
  5
68A5
  8
AM_0
 10
286.90832676912032
 20
609.52721447787519
 30
0.0
 11
286.90832676912032
 21
497.52721447787508
 31
0.0
  0
LINE
  5
68A6
  8
AM_0
 10
280.24835676912028
 20
589.52721447787508
 30
0.0
 11
181.2683167691203
 21
589.52721447787508
 31
0.0
  0
LINE
  5
68A7
  8
AM_0
 10
280.24835676912028
 20
587.52721447787519
 30
0.0
 11
181.2683167691203
 21
587.52721447787519
 31
0.0
  0
LINE
  5
68A8
  8
AM_0
 10
247.90832676912049
 20
579.52721447787519
 30
0.0
 11
181.2683167691203
 21
579.52721447787519
 31
0.0
  0
LINE
  5
68A9
  8
AM_0
 10
280.24115676912049
 20
577.52721447787508
 30
0.0
 11
181.2683167691203
 21
577.52721447787508
 31
0.0
  0
LINE
  5
68AA
  8
AM_0
 10
215.34704676912031
 20
569.52721447787508
 30
0.0
 11
181.2683167691203
 21
569.52721447787508
 31
0.0
  0
LINE
  5
68AB
  8
AM_0
 10
215.34704676912031
 20
567.52721447787519
 30
0.0
 11
181.2683167691203
 21
567.52721447787519
 31
0.0
  0
LINE
  5
68AC
  8
AM_0
 10
215.34704676912031
 20
559.5272144778753
 30
0.0
 11
181.2683167691203
 21
559.5272144778753
 31
0.0
  0
LINE
  5
68AD
  8
AM_0
 10
215.34704676912031
 20
557.5272144778753
 30
0.0
 11
181.2683167691203
 21
557.5272144778753
 31
0.0
  0
LINE
  5
68AE
  8
AM_0
 10
180.5883167691205
 20
590.24718447787518
 30
0.0
 11
283.72833676912029
 21
590.24718447787518
 31
0.0
  0
LINE
  5
68AF
  8
AM_0
 10
180.5883167691205
 20
586.89720447787522
 30
0.0
 11
247.9283467691204
 21
586.89720447787522
 31
0.0
  0
LINE
  5
68B0
  8
AM_0
 10
180.36834676912031
 20
580.01720447787523
 30
0.0
 11
247.90832676912049
 21
580.01720447787523
 31
0.0
  0
LINE
  5
68B1
  8
AM_0
 10
180.36834676912031
 20
577.08726447787524
 30
0.0
 11
283.94256676912028
 21
577.08726447787524
 31
0.0
  0
LINE
  5
68B2
  8
AM_0
 10
180.23834676912031
 20
569.86717447787521
 30
0.0
 11
216.56701676912041
 21
569.86717447787521
 31
0.0
  0
LINE
  5
68B3
  8
AM_0
 10
180.23834676912031
 20
567.20726447787524
 30
0.0
 11
216.56701676912041
 21
567.20726447787524
 31
0.0
  0
LINE
  5
68B4
  8
AM_0
 10
180.17834676912011
 20
559.79723447787524
 30
0.0
 11
216.6270167691203
 21
559.79723447787524
 31
0.0
  0
LINE
  5
68B5
  8
AM_0
 10
180.17834676912011
 20
557.26720447787534
 30
0.0
 11
216.6270167691203
 21
557.26720447787534
 31
0.0
  0
LINE
  5
68B6
  8
AM_0
 10
180.17834676912011
 20
549.79723447787524
 30
0.0
 11
216.6270167691203
 21
549.79723447787524
 31
0.0
  0
LINE
  5
68B7
  8
AM_0
 10
215.34704676912031
 20
549.5272144778753
 30
0.0
 11
181.2683167691203
 21
549.5272144778753
 31
0.0
  0
LINE
  5
68B8
  8
AM_0
 10
215.34704676912031
 20
547.52721447787519
 30
0.0
 11
181.2683167691203
 21
547.52721447787519
 31
0.0
  0
LINE
  5
68B9
  8
AM_0
 10
180.17834676912011
 20
547.25719447787537
 30
0.0
 11
216.6270167691203
 21
547.25719447787537
 31
0.0
  0
LINE
  5
68BA
  8
AM_0
 10
180.23834676912031
 20
539.84715447787539
 30
0.0
 11
216.56701676912041
 21
539.84715447787539
 31
0.0
  0
LINE
  5
68BB
  8
AM_0
 10
215.34704676912031
 20
539.52721447787508
 30
0.0
 11
181.2683167691203
 21
539.52721447787508
 31
0.0
  0
LINE
  5
68BC
  8
AM_0
 10
215.34704676912031
 20
537.5272144778753
 30
0.0
 11
181.2683167691203
 21
537.5272144778753
 31
0.0
  0
LINE
  5
68BD
  8
AM_0
 10
180.23834676912031
 20
537.1872444778752
 30
0.0
 11
216.5795967691202
 21
537.1872444778752
 31
0.0
  0
LINE
  5
68BE
  8
AM_0
 10
280.24115676912049
 20
529.5272144778753
 30
0.0
 11
181.2683167691203
 21
529.5272144778753
 31
0.0
  0
LINE
  5
68BF
  8
AM_0
 10
180.36834676912031
 20
529.96715447787506
 30
0.0
 11
283.94256676912028
 21
529.96715447787506
 31
0.0
  0
LINE
  5
68C0
  8
AM_0
 10
247.90832676912049
 20
527.52721447787508
 30
0.0
 11
181.2683167691203
 21
527.52721447787508
 31
0.0
  0
LINE
  5
68C1
  8
AM_0
 10
180.36834676912031
 20
527.03722447787516
 30
0.0
 11
247.90832676912049
 21
527.03722447787516
 31
0.0
  0
LINE
  5
68C2
  8
AM_0
 10
280.24835676912028
 20
519.52721447787508
 30
0.0
 11
235.90832676912029
 21
519.52721447787508
 31
0.0
  0
LINE
  5
68C3
  8
AM_0
 10
280.24835676912028
 20
517.52721447787519
 30
0.0
 11
235.90832676912029
 21
517.52721447787519
 31
0.0
  0
LINE
  5
68C4
  8
AM_0
 10
180.5883167691205
 20
516.8072444778752
 30
0.0
 11
235.90832676912029
 21
516.8072444778752
 31
0.0
  0
LINE
  5
68C5
  8
AM_0
 10
283.72833676912029
 20
520.1572144778753
 30
0.0
 11
265.8883667691203
 21
520.1572144778753
 31
0.0
  0
LINE
  5
68C6
  8
AM_0
 10
180.5883167691205
 20
520.1572144778753
 30
0.0
 11
247.9283467691204
 21
520.1572144778753
 31
0.0
  0
LINE
  5
68C7
  8
AM_0
 10
235.90832676912029
 20
519.52721447787508
 30
0.0
 11
181.2683167691203
 21
519.52721447787508
 31
0.0
  0
LINE
  5
68C8
  8
AM_0
 10
235.90832676912029
 20
517.52721447787519
 30
0.0
 11
181.2683167691203
 21
517.52721447787519
 31
0.0
  0
LINE
  5
68C9
  8
AM_0
 10
235.90832676912029
 20
516.8072444778752
 30
0.0
 11
283.72833676912029
 21
516.8072444778752
 31
0.0
  0
LINE
  5
68CA
  8
AM_0
 10
178.90832676912029
 20
606.52721447787508
 30
0.0
 11
178.90832676912029
 21
500.5272144778753
 31
0.0
  0
LINE
  5
68CB
  8
AM_0
 10
286.90832676912032
 20
599.52721447787519
 30
0.0
 11
294.90832676912032
 21
599.52721447787519
 31
0.0
  0
LINE
  5
68CC
  8
AM_0
 10
286.90832676912032
 20
585.46715447787506
 30
0.0
 11
294.90832676912032
 21
585.46715447787506
 31
0.0
  0
LINE
  5
68CD
  8
AM_0
 10
286.90832676912032
 20
609.52721447787519
 30
0.0
 11
294.90832676912032
 21
609.52721447787519
 31
0.0
  0
LINE
  5
68CE
  8
AM_0
 10
182.11834676912031
 20
609.80724447787532
 30
0.0
 11
279.03833676912029
 21
609.80724447787532
 31
0.0
  0
LINE
  5
68CF
  8
AM_0
 10
178.90832676912029
 20
601.62727447787518
 30
0.0
 11
180.1483167691203
 21
608.18727447787523
 31
0.0
  0
LINE
  5
68D0
  8
AM_0
 10
184.26837676912029
 20
590.17723447787523
 30
0.0
 11
178.90838676912031
 21
601.62721447787521
 31
0.0
  0
LINE
  5
68D1
  8
AM_0
 10
184.2683167691203
 20
516.87718447787518
 30
0.0
 11
178.90838676912031
 21
505.43727447787518
 31
0.0
  0
LINE
  5
68D2
  8
AM_0
 10
182.15832676912029
 20
612.65721447787519
 30
0.0
 11
279.03833676912029
 21
612.65721447787519
 31
0.0
  0
LINE
  5
68D3
  8
AM_0
 10
182.17834676912011
 20
614.50719447787515
 30
0.0
 11
279.03833676912029
 21
614.50719447787515
 31
0.0
  0
LINE
  5
68D4
  8
AM_0
 10
182.1983667691203
 20
615.41722447787515
 30
0.0
 11
279.03839676912042
 21
615.41722447787515
 31
0.0
  0
LINE
  5
68D5
  8
AM_0
 10
178.90838676912031
 20
602.96724447787517
 30
0.0
 11
180.1883567691203
 21
610.9771944778754
 31
0.0
  0
LINE
  5
68D6
  8
AM_0
 10
178.90838676912031
 20
604.31718447787512
 30
0.0
 11
180.19836676912041
 21
612.80727447787524
 31
0.0
  0
LINE
  5
68D7
  8
AM_0
 10
178.90832676912029
 20
604.31721447787515
 30
0.0
 11
180.21832676912021
 21
613.69725447787505
 31
0.0
  0
LINE
  5
68D8
  8
AM_0
 10
285.10839676912042
 20
592.86717447787521
 30
0.0
 11
280.96838676912012
 21
608.32719447787508
 31
0.0
  0
LINE
  5
68D9
  8
AM_0
 10
281.44836676912041
 20
606.52721447787508
 30
0.0
 11
286.90832676912032
 21
606.52721447787508
 31
0.0
  0
LINE
  5
68DA
  8
AM_0
 10
286.90832676912032
 20
507.52721447787508
 30
0.0
 11
294.90832676912032
 21
507.52721447787508
 31
0.0
  0
LINE
  5
68DB
  8
AM_0
 10
286.90832676912032
 20
497.52721447787508
 30
0.0
 11
294.90832676912032
 21
497.52721447787508
 31
0.0
  0
LINE
  5
68DC
  8
AM_0
 10
182.11834676912031
 20
497.24718447787518
 30
0.0
 11
279.03833676912029
 21
497.24718447787518
 31
0.0
  0
LINE
  5
68DD
  8
AM_0
 10
178.90832676912029
 20
505.43718447787518
 30
0.0
 11
180.14837676912029
 21
498.87718447787518
 31
0.0
  0
LINE
  5
68DE
  8
AM_0
 10
181.81457676912029
 20
494.39720447787522
 30
0.0
 11
204.3064567691203
 21
494.39720447787522
 31
0.0
  0
LINE
  5
68DF
  8
AM_0
 10
178.90832676912029
 20
504.08717447787518
 30
0.0
 11
180.1883567691203
 21
496.08726447787518
 31
0.0
  0
LINE
  5
68E0
  8
AM_0
 10
178.90832676912029
 20
502.74727447787518
 30
0.0
 11
179.91760676912031
 21
496.09709447787509
 31
0.0
  0
LINE
  5
68E1
  8
AM_0
 10
178.90838676912031
 20
502.74724447787509
 30
0.0
 11
179.83380676912029
 21
496.12065447787518
 31
0.0
  0
LINE
  5
68E2
  8
AM_0
 10
285.11404676912031
 20
514.20836447787508
 30
0.0
 11
280.96832676912032
 21
498.7272244778751
 31
0.0
  0
LINE
  5
68E3
  8
AM_0
 10
281.45037676912028
 20
500.5272144778753
 30
0.0
 11
286.90832676912032
 21
500.5272144778753
 31
0.0
  0
LINE
  5
68E4
  8
AM_0
 10
286.90832676912032
 20
521.58726447787524
 30
0.0
 11
294.90832676912032
 21
521.58726447787524
 31
0.0
  0
LINE
  5
68E5
  8
AM_0
 10
285.90832676912021
 20
500.5272144778753
 30
0.0
 11
280.18258676912029
 21
491.71031447787522
 31
0.0
  0
LINE
  5
68E6
  8
AM_0
 10
267.42193676912041
 20
491.02721447787508
 30
0.0
 11
278.92456676912042
 21
491.02721447787508
 31
0.0
  0
LINE
  5
68E7
  8
AM_0
 10
264.88836676912041
 20
581.02721447787508
 30
0.0
 11
264.88836676912041
 21
585.88719447787525
 31
0.0
  0
LINE
  5
68E8
  8
AM_0
 10
248.92834676912031
 20
581.02721447787508
 30
0.0
 11
248.92834676912031
 21
585.88719447787525
 31
0.0
  0
LINE
  5
68E9
  8
AM_0
 10
264.40832676912038
 20
581.02721447787508
 30
0.0
 11
264.40832676912038
 21
586.02721447787508
 31
0.0
  0
LINE
  5
68EA
  8
AM_0
 10
249.40832676912029
 20
581.02721447787508
 30
0.0
 11
249.40832676912029
 21
586.02721447787508
 31
0.0
  0
LINE
  5
68EB
  8
AM_0
 10
220.90832676912029
 20
566.52721447787519
 30
0.0
 11
283.90832676912032
 21
566.52721447787519
 31
0.0
  0
LINE
  5
68EC
  8
AM_0
 10
220.90832676912029
 20
533.0272144778753
 30
0.0
 11
283.90832676912032
 21
533.0272144778753
 31
0.0
  0
LINE
  5
68ED
  8
AM_0
 10
220.90832676912029
 20
574.02721447787508
 30
0.0
 11
283.90832676912032
 21
574.02721447787508
 31
0.0
  0
LINE
  5
68EE
  8
AM_0
 10
283.90832676912032
 20
574.02721447787508
 30
0.0
 11
283.90832676912032
 21
533.0272144778753
 31
0.0
  0
LINE
  5
68EF
  8
AM_0
 10
220.90832676912029
 20
574.02721447787508
 30
0.0
 11
220.90832676912029
 21
533.0272144778753
 31
0.0
  0
LINE
  5
68F0
  8
AM_0
 10
265.90832676912032
 20
580.01720447787523
 30
0.0
 11
283.95404676912028
 21
580.01720447787523
 31
0.0
  0
LINE
  5
68F1
  8
AM_0
 10
265.90832676912032
 20
527.04723447787524
 30
0.0
 11
283.94256676912028
 21
527.04723447787524
 31
0.0
  0
LINE
  5
68F2
  8
AM_0
 10
264.88836676912041
 20
526.02721447787519
 30
0.0
 11
264.88836676912041
 21
521.16722447787515
 31
0.0
  0
LINE
  5
68F3
  8
AM_0
 10
248.92834676912031
 20
526.02721447787519
 30
0.0
 11
248.92834676912031
 21
521.16722447787515
 31
0.0
  0
LINE
  5
68F4
  8
AM_0
 10
264.40832676912038
 20
526.02721447787519
 30
0.0
 11
264.40832676912038
 21
521.0272144778753
 31
0.0
  0
LINE
  5
68F5
  8
AM_0
 10
249.40832676912029
 20
526.02721447787519
 30
0.0
 11
249.40832676912029
 21
521.0272144778753
 31
0.0
  0
LINE
  5
68F6
  8
AM_0
 10
280.24115676912049
 20
527.52721447787508
 30
0.0
 11
265.90832676912032
 21
527.52721447787508
 31
0.0
  0
LINE
  5
68F7
  8
AM_0
 10
280.2554967691205
 20
579.52721447787519
 30
0.0
 11
265.90832676912032
 21
579.52721447787519
 31
0.0
  0
LINE
  5
68F8
  8
AM_0
 10
265.8883667691203
 20
586.88719447787525
 30
0.0
 11
283.72833676912029
 21
586.88719447787525
 31
0.0
  0
ARC
  5
68F9
  8
AM_0
 10
286.56152676912018
 20
598.8599744778752
 30
0.0
 40
1.502775999999999
 50
194.75642999999889
 51
269.87757999999872
  0
ARC
  5
68FA
  8
AM_0
 10
286.56152676912018
 20
597.94994447787519
 30
0.0
 40
1.502775999999999
 50
194.75642999999889
 51
269.87757999999872
  0
ARC
  5
68FB
  8
AM_0
 10
286.56152676912018
 20
596.09996447787535
 30
0.0
 40
1.502775999999999
 50
194.75642999999889
 51
269.87757999999872
  0
ARC
  5
68FC
  8
AM_0
 10
279.03350676912049
 20
613.41246447787512
 30
0.0
 40
2.0047290000000002
 50
15.173495999996319
 51
89.861678000000197
  0
ARC
  5
68FD
  8
AM_0
 10
279.03350676912049
 20
612.50243447787511
 30
0.0
 40
2.0047290000000002
 50
15.173495999996319
 51
89.861678000000197
  0
ARC
  5
68FE
  8
AM_0
 10
279.03350676912049
 20
610.65245447787527
 30
0.0
 40
2.0047290000000002
 50
15.173495999996319
 51
89.861678000000197
  0
ARC
  5
68FF
  8
AM_0
 10
286.56152676912018
 20
513.80443447787525
 30
0.0
 40
1.502775999999999
 50
90.122413000001615
 51
165.24357000000111
  0
ARC
  5
6900
  8
AM_0
 10
181.4529467691203
 20
518.52721447787508
 30
0.0
 40
1.000013899999999
 50
89.69165999999926
 51
270.30834000000078
  0
ARC
  5
6901
  8
AM_0
 10
283.72833676912029
 20
588.57225447787505
 30
0.0
 40
1.6750020000000001
 50
269.999989999999
 51
90.00000299999769
  0
ARC
  5
6902
  8
AM_0
 10
280.24835676912028
 20
588.52721447787519
 30
0.0
 40
1.0
 50
269.999989999999
 51
90.00000299999769
  0
ARC
  5
6903
  8
AM_0
 10
280.24835676912028
 20
518.52721447787508
 30
0.0
 40
1.0
 50
269.999989999999
 51
90.00000299999769
  0
ARC
  5
6904
  8
AM_0
 10
283.72833676912029
 20
518.48216447787524
 30
0.0
 40
1.6750020000000001
 50
269.999989999999
 51
90.00000299999769
  0
ARC
  5
6905
  8
AM_0
 10
180.58093676912051
 20
588.57225447787505
 30
0.0
 40
1.6750160000000001
 50
89.746145000004447
 51
270.25387000000092
  0
ARC
  5
6906
  8
AM_0
 10
181.4529467691203
 20
588.52721447787519
 30
0.0
 40
1.000013899999999
 50
89.69165999999926
 51
270.30834000000078
  0
ARC
  5
6907
  8
AM_0
 10
181.4529467691203
 20
578.52721447787508
 30
0.0
 40
1.000013899999999
 50
89.69165999999926
 51
270.30834000000078
  0
ARC
  5
6908
  8
AM_0
 10
181.4529467691203
 20
568.52721447787508
 30
0.0
 40
1.000013899999999
 50
89.69165999999926
 51
270.30834000000078
  0
ARC
  5
6909
  8
AM_0
 10
181.4529467691203
 20
558.5272144778753
 30
0.0
 40
1.000013899999999
 50
89.69165999999926
 51
270.30834000000078
  0
ARC
  5
690A
  8
AM_0
 10
181.4529467691203
 20
548.5272144778753
 30
0.0
 40
1.000013899999999
 50
89.69165999999926
 51
270.30834000000078
  0
ARC
  5
690B
  8
AM_0
 10
181.4529467691203
 20
538.5272144778753
 30
0.0
 40
1.000013899999999
 50
89.69165999999926
 51
270.30834000000078
  0
ARC
  5
690C
  8
AM_0
 10
181.4529467691203
 20
528.52721447787508
 30
0.0
 40
1.000013899999999
 50
89.69165999999926
 51
270.30834000000078
  0
ARC
  5
690D
  8
AM_0
 10
180.36834676912031
 20
578.55223447787523
 30
0.0
 40
1.465004
 50
90.00000299999769
 51
270.0
  0
ARC
  5
690E
  8
AM_0
 10
180.23834676912031
 20
568.53722447787516
 30
0.0
 40
1.3300049999999981
 50
90.00000299999769
 51
270.0
  0
ARC
  5
690F
  8
AM_0
 10
180.17248676912021
 20
558.53221447787519
 30
0.0
 40
1.2650129999999991
 50
89.735579000001735
 51
270.2644100000025
  0
ARC
  5
6910
  8
AM_0
 10
180.17248676912021
 20
548.5272144778753
 30
0.0
 40
1.2700129999999981
 50
89.736617000001587
 51
270.26336999999921
  0
ARC
  5
6911
  8
AM_0
 10
180.23834676912031
 20
538.51720447787534
 30
0.0
 40
1.3300049999999981
 50
90.00000299999769
 51
270.0
  0
ARC
  5
6912
  8
AM_0
 10
180.36834676912031
 20
528.50218447787518
 30
0.0
 40
1.465004
 50
90.00000299999769
 51
270.0
  0
ARC
  5
6913
  8
AM_0
 10
180.5814867691202
 20
518.48216447787524
 30
0.0
 40
1.675014
 50
89.766498999996756
 51
270.2335099999994
  0
ARC
  5
6914
  8
AM_0
 10
182.10705676912031
 20
607.8130944778751
 30
0.0
 40
1.994108999999999
 50
89.675548000002749
 51
169.18776999999841
  0
ARC
  5
6915
  8
AM_0
 10
182.15857676912009
 20
610.66197447787522
 30
0.0
 40
1.995282999999997
 50
90.006203999996856
 51
170.90835000000069
  0
ARC
  5
6916
  8
AM_0
 10
182.17291676912021
 20
612.51048447787525
 30
0.0
 40
1.9967330000000001
 50
89.843966999998912
 51
171.45387999999701
  0
ARC
  5
6917
  8
AM_0
 10
182.19482676912011
 20
613.4216144778751
 30
0.0
 40
1.995633
 50
89.899707999995783
 51
172.06112999999991
  0
ARC
  5
6918
  8
AM_0
 10
279.03845676912027
 20
607.80894447787534
 30
0.0
 40
1.9982919999999991
 50
15.032547999996
 51
90.002632000001341
  0
ARC
  5
6919
  8
AM_0
 10
286.56152676912018
 20
593.24998447787505
 30
0.0
 40
1.502775999999999
 50
194.75642999999889
 51
269.87757999999872
  0
ARC
  5
691A
  8
AM_0
 10
279.03350676912049
 20
499.25194447787521
 30
0.0
 40
2.0047290000000002
 50
270.13832000000423
 51
344.82650000000189
  0
ARC
  5
691B
  8
AM_0
 10
182.1132267691201
 20
499.24644447787517
 30
0.0
 40
1.9992490000000001
 50
190.643100000001
 51
270.14743000000129
  0
ARC
  5
691C
  8
AM_0
 10
182.1645567691204
 20
496.39757447787508
 30
0.0
 40
2.000420099999999
 50
188.92682000000181
 51
269.82270999999599
  0
ARC
  5
691D
  8
AM_0
 10
267.42193676912041
 20
489.52721447787508
 30
0.0
 40
1.5
 50
90.00000299999769
 51
178.50000000000389
  0
ARC
  5
691E
  8
AM_0
 10
278.92456676912042
 20
492.52721447787508
 30
0.0
 40
1.5
 50
269.999989999999
 51
326.99999999999892
  0
ARC
  5
691F
  8
AM_0
 10
181.89495676912031
 20
496.39720447787522
 30
0.0
 40
2.0
 50
188.62962000000439
 51
269.999989999999
  0
ARC
  5
6920
  8
AM_0
 10
181.81457676912029
 20
496.39720447787522
 30
0.0
 40
2.0
 50
187.9504400000034
 51
269.999989999999
  0
ARC
  5
6921
  8
AM_0
 10
204.3064567691203
 20
492.89720447787522
 30
0.0
 40
1.5
 50
1.5000027000022329
 51
90.00000299999769
  0
ARC
  5
6922
  8
AM_0
 10
215.34704676912031
 20
568.52721447787508
 30
0.0
 40
1.0000056999999991
 50
269.999989999999
 51
90.00000299999769
  0
ARC
  5
6923
  8
AM_0
 10
215.34704676912031
 20
558.5272144778753
 30
0.0
 40
1.0000056999999991
 50
269.999989999999
 51
90.00000299999769
  0
ARC
  5
6924
  8
AM_0
 10
215.34704676912031
 20
548.5272144778753
 30
0.0
 40
1.0000056999999991
 50
269.999989999999
 51
90.00000299999769
  0
ARC
  5
6925
  8
AM_0
 10
215.34704676912031
 20
538.5272144778753
 30
0.0
 40
1.0000056999999991
 50
269.999989999999
 51
90.00000299999769
  0
ARC
  5
6926
  8
AM_0
 10
265.90832676912032
 20
521.0272144778753
 30
0.0
 40
1.5
 50
179.999989999999
 51
270.0
  0
ARC
  5
6927
  8
AM_0
 10
247.90832676912049
 20
521.0272144778753
 30
0.0
 40
1.5
 50
269.999989999999
 51
0.0000006832495047
  0
ARC
  5
6928
  8
AM_0
 10
247.9283467691204
 20
521.16722447787515
 30
0.0
 40
1.0
 50
269.999989999999
 51
0.0000006832495047
  0
ARC
  5
6929
  8
AM_0
 10
265.8883667691203
 20
521.16722447787515
 30
0.0
 40
1.0
 50
179.999989999999
 51
270.0
  0
CIRCLE
  5
692A
  8
AM_0
 10
254.40832676912029
 20
582.02721447787508
 30
0.0
 40
1.1000000000000001
  0
CIRCLE
  5
692B
  8
AM_0
 10
254.40832676912029
 20
582.02721447787508
 30
0.0
 40
1.149999999999999
  0
CIRCLE
  5
692C
  8
AM_0
 10
259.40832676912032
 20
582.02721447787508
 30
0.0
 40
1.0
  0
ARC
  5
692D
  8
AM_0
 10
247.90832676912049
 20
581.02721447787508
 30
0.0
 40
1.02
 50
269.999989999999
 51
0.0000006832429909
  0
ARC
  5
692E
  8
AM_0
 10
265.90832676912032
 20
581.02721447787508
 30
0.0
 40
1.02
 50
179.999989999999
 51
270.0
  0
ARC
  5
692F
  8
AM_0
 10
247.90832676912049
 20
581.02721447787508
 30
0.0
 40
1.5
 50
269.999989999999
 51
0.0000006832495047
  0
ARC
  5
6930
  8
AM_0
 10
265.90832676912032
 20
581.02721447787508
 30
0.0
 40
1.5
 50
179.999989999999
 51
270.0
  0
CIRCLE
  5
6931
  8
AM_0
 10
259.40832676912032
 20
525.0272144778753
 30
0.0
 40
1.0
  0
CIRCLE
  5
6932
  8
AM_0
 10
254.40832676912029
 20
525.0272144778753
 30
0.0
 40
1.149999999999999
  0
CIRCLE
  5
6933
  8
AM_0
 10
254.40832676912029
 20
525.0272144778753
 30
0.0
 40
1.1000000000000001
  0
ARC
  5
6934
  8
AM_0
 10
247.90832676912049
 20
526.02721447787519
 30
0.0
 40
1.02
 50
0.0
 51
90.00000299999769
  0
ARC
  5
6935
  8
AM_0
 10
265.90832676912032
 20
526.02721447787519
 30
0.0
 40
1.02
 50
90.00000299999769
 51
180.00001000000091
  0
ARC
  5
6936
  8
AM_0
 10
247.90832676912049
 20
526.02721447787519
 30
0.0
 40
1.5
 50
0.0
 51
90.00000299999769
  0
ARC
  5
6937
  8
AM_0
 10
265.90832676912032
 20
526.02721447787519
 30
0.0
 40
1.5
 50
90.00000299999769
 51
180.00001000000091
  0
ARC
  5
6938
  8
AM_0
 10
216.57330676912031
 20
538.51720447787534
 30
0.0
 40
1.3300148000000001
 50
269.7294199999987
 51
90.270567000000995
  0
ARC
  5
6939
  8
AM_0
 10
216.6352567691201
 20
548.5272144778753
 30
0.0
 40
1.2700266
 50
269.62932000000001
 51
90.370669999998213
  0
ARC
  5
693A
  8
AM_0
 10
216.6352567691201
 20
558.53722447787516
 30
0.0
 40
1.2700266
 50
269.62932000000001
 51
90.370669999998213
  0
ARC
  5
693B
  8
AM_0
 10
216.57330676912031
 20
568.54222447787515
 30
0.0
 40
1.3350147999999991
 50
269.7304299999999
 51
90.269556000001344
  0
ARC
  5
693C
  8
AM_0
 10
280.24829676912037
 20
578.52721447787508
 30
0.0
 40
1.0000255999999981
 50
269.5894700000033
 51
90.410530999997775
  0
ARC
  5
693D
  8
AM_0
 10
283.94830676912028
 20
578.55724447787509
 30
0.0
 40
1.460011199999999
 50
269.77524999999667
 51
90.224750000003354
  0
ARC
  5
693E
  8
AM_0
 10
280.24829676912037
 20
528.52721447787508
 30
0.0
 40
1.0000255999999981
 50
269.5894700000033
 51
90.410530999997775
  0
ARC
  5
693F
  8
AM_0
 10
283.94830676912028
 20
528.49718447787507
 30
0.0
 40
1.460011199999999
 50
269.77524999999667
 51
90.224750000003354
  0
ARC
  5
6940
  8
AM_0
 10
265.8883667691203
 20
585.88719447787525
 30
0.0
 40
1.0
 50
90.00000299999769
 51
180.00001000000091
  0
ARC
  5
6941
  8
AM_0
 10
265.90832676912032
 20
586.02721447787508
 30
0.0
 40
1.5
 50
90.00000299999769
 51
180.00001000000091
  0
ARC
  5
6942
  8
AM_0
 10
247.90832676912049
 20
586.02721447787508
 30
0.0
 40
1.5
 50
0.0
 51
90.00000299999769
  0
ARC
  5
6943
  8
AM_0
 10
247.9283467691204
 20
585.88719447787525
 30
0.0
 40
1.0
 50
0.0
 51
90.00000299999769
  0
POLYLINE
  5
6944
  8
AM_0
 66
     1
 10
0.0
 20
0.0
 30
0.0
  0
VERTEX
  5
6945
  8
AM_0
 10
181.2683167691203
 20
553.5272144778753
 30
0.0
 42
0.00039106593
  0
VERTEX
  5
6946
  8
AM_0
 10
181.26595676912029
 20
553.21607447787505
 30
0.0
 42
0.00040574899
  0
VERTEX
  5
6947
  8
AM_0
 10
181.26408676912021
 20
552.90496447787507
 30
0.0
 42
0.0003534546
  0
VERTEX
  5
6948
  8
AM_0
 10
181.26269676912031
 20
552.59386447787517
 30
0.0
 42
0.00034407327
  0
VERTEX
  5
6949
  8
AM_0
 10
181.26171676912031
 20
552.28272447787515
 30
0.0
 42
0.00045699408
  0
VERTEX
  5
694A
  8
AM_0
 10
181.26125676912031
 20
551.97161447787539
 30
0.0
 42
0.00035571853
  0
VERTEX
  5
694B
  8
AM_0
 10
181.26129676912029
 20
551.66051447787515
 30
0.0
 42
0.00038547362
  0
VERTEX
  5
694C
  8
AM_0
 10
181.26178676912011
 20
551.34937447787524
 30
0.0
 42
0.00035501498
  0
VERTEX
  5
694D
  8
AM_0
 10
181.2627467691203
 20
551.03827447787523
 30
0.0
 42
0.00040118614
  0
VERTEX
  5
694E
  8
AM_0
 10
181.26416676912021
 20
550.72703447787524
 30
0.0
 42
0.00038319871
  0
VERTEX
  5
694F
  8
AM_0
 10
181.2660767691203
 20
550.41590447787507
 30
0.0
 42
0.00040742136
  0
VERTEX
  5
6950
  8
AM_0
 10
181.2684767691205
 20
550.10467447787516
 30
0.0
 42
0.0003578071
  0
VERTEX
  5
6951
  8
AM_0
 10
181.27136676912031
 20
549.79356447787518
 30
0.0
  0
SEQEND
  5
6952
  8
AM_0
  0
POLYLINE
  5
6953
  8
AM_0
 66
     1
 10
0.0
 20
0.0
 30
0.0
  0
VERTEX
  5
6954
  8
AM_0
 10
181.31237676912031
 20
547.2568244778754
 30
0.0
 42
0.00076695232
  0
VERTEX
  5
6955
  8
AM_0
 10
181.32717676912009
 20
546.63906447787508
 30
0.0
 42
0.00073263044
  0
VERTEX
  5
6956
  8
AM_0
 10
181.34381676912039
 20
546.02146447787516
 30
0.0
 42
0.0007652599
  0
VERTEX
  5
6957
  8
AM_0
 10
181.36230676912029
 20
545.40379447787507
 30
0.0
 42
0.00075144485
  0
VERTEX
  5
6958
  8
AM_0
 10
181.38267676912051
 20
544.78619447787526
 30
0.0
 42
0.00078594403
  0
VERTEX
  5
6959
  8
AM_0
 10
181.40492676912029
 20
544.16876447787524
 30
0.0
 42
0.00073349202
  0
VERTEX
  5
695A
  8
AM_0
 10
181.42907676912009
 20
543.5513844778751
 30
0.0
 42
0.0007358075
  0
VERTEX
  5
695B
  8
AM_0
 10
181.45501676912031
 20
542.93398447787524
 30
0.0
 42
0.00078592699
  0
VERTEX
  5
695C
  8
AM_0
 10
181.4828467691203
 20
542.31659447787524
 30
0.0
 42
0.00074823144
  0
VERTEX
  5
695D
  8
AM_0
 10
181.5125767691203
 20
541.69920447787536
 30
0.0
 42
0.00074896603
  0
VERTEX
  5
695E
  8
AM_0
 10
181.54413676912031
 20
541.08207447787515
 30
0.0
 42
0.00076039765
  0
VERTEX
  5
695F
  8
AM_0
 10
181.57755676912041
 20
540.46504447787515
 30
0.0
 42
0.00075616128
  0
VERTEX
  5
6960
  8
AM_0
 10
181.6128567691203
 20
539.84801447787515
 30
0.0
  0
SEQEND
  5
6961
  8
AM_0
  0
POLYLINE
  5
6962
  8
AM_0
 66
     1
 10
0.0
 20
0.0
 30
0.0
  0
VERTEX
  5
6963
  8
AM_0
 10
181.7865667691203
 20
537.18663447787515
 30
0.0
 42
0.00073721992
  0
VERTEX
  5
6964
  8
AM_0
 10
181.8307167691203
 20
536.5842244778753
 30
0.0
 42
0.00074398496
  0
VERTEX
  5
6965
  8
AM_0
 10
181.8766467691203
 20
535.98195447787498
 30
0.0
 42
0.00073322625
  0
VERTEX
  5
6966
  8
AM_0
 10
181.9243767691203
 20
535.37962447787515
 30
0.0
 42
0.00073594289
  0
VERTEX
  5
6967
  8
AM_0
 10
181.97385676912029
 20
534.77763447787515
 30
0.0
 42
0.00074742568
  0
VERTEX
  5
6968
  8
AM_0
 10
182.02512676912031
 20
534.17577447787505
 30
0.0
 42
0.00073216749
  0
VERTEX
  5
6969
  8
AM_0
 10
182.07818676912041
 20
533.57396447787505
 30
0.0
 42
0.00074184065
  0
VERTEX
  5
696A
  8
AM_0
 10
182.1330067691201
 20
532.97243447787525
 30
0.0
 42
0.00072077528
  0
VERTEX
  5
696B
  8
AM_0
 10
182.1895867691205
 20
532.37120447787515
 30
0.0
 42
0.00074978179
  0
VERTEX
  5
696C
  8
AM_0
 10
182.2479267691202
 20
531.7700044778752
 30
0.0
 42
0.00074288888
  0
VERTEX
  5
696D
  8
AM_0
 10
182.30807676912011
 20
531.16898447787526
 30
0.0
 42
0.00072503679
  0
VERTEX
  5
696E
  8
AM_0
 10
182.36998676912009
 20
530.56824447787506
 30
0.0
 42
0.00074640584
  0
VERTEX
  5
696F
  8
AM_0
 10
182.4336567691202
 20
529.9676444778753
 30
0.0
  0
SEQEND
  5
6970
  8
AM_0
  0
POLYLINE
  5
6971
  8
AM_0
 66
     1
 10
0.0
 20
0.0
 30
0.0
  0
VERTEX
  5
6972
  8
AM_0
 10
182.76922676912031
 20
527.04417447787534
 30
0.0
 42
0.0006890001
  0
VERTEX
  5
6973
  8
AM_0
 10
182.84010676912021
 20
526.46942447787524
 30
0.0
 42
0.00070644651
  0
VERTEX
  5
6974
  8
AM_0
 10
182.91260676912029
 20
525.89474447787507
 30
0.0
 42
0.0006924559
  0
VERTEX
  5
6975
  8
AM_0
 10
182.98669676912041
 20
525.32042447787524
 30
0.0
 42
0.00069587797
  0
VERTEX
  5
6976
  8
AM_0
 10
183.06237676912031
 20
524.74628447787507
 30
0.0
 42
0.00071687041
  0
VERTEX
  5
6977
  8
AM_0
 10
183.1396867691202
 20
524.17228447787511
 30
0.0
 42
0.00069759113
  0
VERTEX
  5
6978
  8
AM_0
 10
183.21862676912031
 20
523.59849447787519
 30
0.0
 42
0.00071003142
  0
VERTEX
  5
6979
  8
AM_0
 10
183.29916676912029
 20
523.02502447787504
 30
0.0
 42
0.00069954544
  0
VERTEX
  5
697A
  8
AM_0
 10
183.3813067691203
 20
522.45192447787508
 30
0.0
 42
0.0007188852
  0
VERTEX
  5
697B
  8
AM_0
 10
183.46508676912021
 20
521.87889447787518
 30
0.0
 42
0.00071266165
  0
VERTEX
  5
697C
  8
AM_0
 10
183.55051676912021
 20
521.30613447787505
 30
0.0
 42
0.00071614577
  0
VERTEX
  5
697D
  8
AM_0
 10
183.63754676912029
 20
520.73378447787525
 30
0.0
 42
0.00072290806
  0
VERTEX
  5
697E
  8
AM_0
 10
183.72625676912011
 20
520.16148447787521
 30
0.0
  0
SEQEND
  5
697F
  8
AM_0
  0
POLYLINE
  5
6980
  8
AM_0
 66
     1
 10
0.0
 20
0.0
 30
0.0
  0
VERTEX
  5
6981
  8
AM_0
 10
181.2683167691203
 20
553.5272144778753
 30
0.0
 42
-0.00039106653
  0
VERTEX
  5
6982
  8
AM_0
 10
181.26595676912029
 20
553.83834447787524
 30
0.0
 42
-0.00040574511
  0
VERTEX
  5
6983
  8
AM_0
 10
181.26408676912021
 20
554.14945447787534
 30
0.0
 42
-0.00035346331
  0
VERTEX
  5
6984
  8
AM_0
 10
181.26269676912031
 20
554.4605644778751
 30
0.0
 42
-0.00034406545
  0
VERTEX
  5
6985
  8
AM_0
 10
181.26171676912031
 20
554.77170447787535
 30
0.0
 42
-0.00045699059
  0
VERTEX
  5
6986
  8
AM_0
 10
181.26125676912031
 20
555.08280447787524
 30
0.0
 42
-0.00035573431
  0
VERTEX
  5
6987
  8
AM_0
 10
181.26129676912029
 20
555.39390447787525
 30
0.0
 42
-0.00038545888
  0
VERTEX
  5
6988
  8
AM_0
 10
181.26178676912011
 20
555.70504447787505
 30
0.0
 42
-0.00035501203
  0
VERTEX
  5
6989
  8
AM_0
 10
181.2627467691203
 20
556.01615447787515
 30
0.0
 42
-0.00040120778
  0
VERTEX
  5
698A
  8
AM_0
 10
181.26416676912021
 20
556.32738447787506
 30
0.0
 42
-0.00038317821
  0
VERTEX
  5
698B
  8
AM_0
 10
181.2660767691203
 20
556.63851447787522
 30
0.0
 42
-0.00040741862
  0
VERTEX
  5
698C
  8
AM_0
 10
181.2684767691205
 20
556.94974447787524
 30
0.0
 42
-0.00035783324
  0
VERTEX
  5
698D
  8
AM_0
 10
181.27136676912031
 20
557.26085447787534
 30
0.0
  0
SEQEND
  5
698E
  8
AM_0
  0
POLYLINE
  5
698F
  8
AM_0
 66
     1
 10
0.0
 20
0.0
 30
0.0
  0
VERTEX
  5
6990
  8
AM_0
 10
181.31237676912031
 20
559.79759447787524
 30
0.0
 42
-0.00076691987
  0
VERTEX
  5
6991
  8
AM_0
 10
181.32717676912009
 20
560.41535447787521
 30
0.0
 42
-0.00073262795
  0
VERTEX
  5
6992
  8
AM_0
 10
181.34381676912039
 20
561.03295447787525
 30
0.0
 42
-0.0007652954
  0
VERTEX
  5
6993
  8
AM_0
 10
181.36230676912029
 20
561.65062447787534
 30
0.0
 42
-0.00077334627
  0
VERTEX
  5
6994
  8
AM_0
 10
181.38271676912049
 20
562.26822447787526
 30
0.0
 42
-0.00073282897
  0
VERTEX
  5
6995
  8
AM_0
 10
181.40497676912011
 20
562.8856444778753
 30
0.0
 42
-0.0007571179
  0
VERTEX
  5
6996
  8
AM_0
 10
181.42907676912009
 20
563.50316447787509
 30
0.0
 42
-0.00073783152
  0
VERTEX
  5
6997
  8
AM_0
 10
181.45501676912031
 20
564.1205544778752
 30
0.0
 42
-0.0007835518
  0
VERTEX
  5
6998
  8
AM_0
 10
181.4828467691203
 20
564.73782447787539
 30
0.0
 42
-0.00074826133
  0
VERTEX
  5
6999
  8
AM_0
 10
181.5125767691203
 20
565.35521447787517
 30
0.0
 42
-0.00074893555
  0
VERTEX
  5
699A
  8
AM_0
 10
181.54413676912031
 20
565.97234447787525
 30
0.0
 42
-0.00076039841
  0
VERTEX
  5
699B
  8
AM_0
 10
181.57755676912041
 20
566.58937447787525
 30
0.0
 42
-0.00075618789
  0
VERTEX
  5
699C
  8
AM_0
 10
181.6128567691203
 20
567.20640447787525
 30
0.0
  0
SEQEND
  5
699D
  8
AM_0
  0
POLYLINE
  5
699E
  8
AM_0
 66
     1
 10
0.0
 20
0.0
 30
0.0
  0
VERTEX
  5
699F
  8
AM_0
 10
181.7865667691203
 20
569.86778447787515
 30
0.0
 42
-0.0007337051
  0
VERTEX
  5
69A0
  8
AM_0
 10
181.8307067691205
 20
570.47019447787522
 30
0.0
 42
-0.00075211323
  0
VERTEX
  5
69A1
  8
AM_0
 10
181.8766467691203
 20
571.07259447787521
 30
0.0
 42
-0.0007297491
  0
VERTEX
  5
69A2
  8
AM_0
 10
181.9243767691203
 20
571.67479447787525
 30
0.0
 42
-0.00073593041
  0
VERTEX
  5
69A3
  8
AM_0
 10
181.97385676912029
 20
572.27678447787525
 30
0.0
 42
-0.00074742739
  0
VERTEX
  5
69A4
  8
AM_0
 10
182.02512676912031
 20
572.87864447787524
 30
0.0
 42
-0.00073217363
  0
VERTEX
  5
69A5
  8
AM_0
 10
182.07818676912041
 20
573.48045447787536
 30
0.0
 42
-0.00073754168
  0
VERTEX
  5
69A6
  8
AM_0
 10
182.1330067691201
 20
574.08199447787524
 30
0.0
 42
-0.00073075073
  0
VERTEX
  5
69A7
  8
AM_0
 10
182.1895867691205
 20
574.68334447787527
 30
0.0
 42
-0.00074550816
  0
VERTEX
  5
69A8
  8
AM_0
 10
182.2479267691202
 20
575.2844144778752
 30
0.0
 42
-0.00074288416
  0
VERTEX
  5
69A9
  8
AM_0
 10
182.30807676912011
 20
575.88543447787515
 30
0.0
 42
-0.00072504001
  0
VERTEX
  5
69AA
  8
AM_0
 10
182.36998676912009
 20
576.48617447787524
 30
0.0
 42
-0.00074640667
  0
VERTEX
  5
69AB
  8
AM_0
 10
182.4336567691202
 20
577.08678447787497
 30
0.0
  0
SEQEND
  5
69AC
  8
AM_0
  0
POLYLINE
  5
69AD
  8
AM_0
 66
     1
 10
0.0
 20
0.0
 30
0.0
  0
VERTEX
  5
69AE
  8
AM_0
 10
182.76922676912031
 20
580.0102444778754
 30
0.0
 42
-0.00068898283
  0
VERTEX
  5
69AF
  8
AM_0
 10
182.84010676912021
 20
580.5849944778754
 30
0.0
 42
-0.00070644357
  0
VERTEX
  5
69B0
  8
AM_0
 10
182.91260676912029
 20
581.1596844778752
 30
0.0
 42
-0.00069248074
  0
VERTEX
  5
69B1
  8
AM_0
 10
182.98669676912041
 20
581.73399447787506
 30
0.0
 42
-0.0006958566
  0
VERTEX
  5
69B2
  8
AM_0
 10
183.06237676912031
 20
582.30813447787534
 30
0.0
 42
-0.00071687219
  0
VERTEX
  5
69B3
  8
AM_0
 10
183.1396867691202
 20
582.88213447787507
 30
0.0
 42
-0.00069760022
  0
VERTEX
  5
69B4
  8
AM_0
 10
183.21862676912031
 20
583.45592447787521
 30
0.0
 42
-0.00071002302
  0
VERTEX
  5
69B5
  8
AM_0
 10
183.29916676912029
 20
584.02939447787514
 30
0.0
 42
-0.00069954889
  0
VERTEX
  5
69B6
  8
AM_0
 10
183.3813067691203
 20
584.60249447787521
 30
0.0
 42
-0.00071887947
  0
VERTEX
  5
69B7
  8
AM_0
 10
183.46508676912021
 20
585.17552447787534
 30
0.0
 42
-0.00071266929
  0
VERTEX
  5
69B8
  8
AM_0
 10
183.55051676912021
 20
585.74829447787511
 30
0.0
 42
-0.00071614429
  0
VERTEX
  5
69B9
  8
AM_0
 10
183.63754676912029
 20
586.32063447787516
 30
0.0
 42
-0.00072288978
  0
VERTEX
  5
69BA
  8
AM_0
 10
183.72625676912011
 20
586.89293447787509
 30
0.0
  0
SEQEND
  5
69BB
  8
AM_0
  0
LINE
  5
69BC
  8
AM_0
 10
171.40832676912029
 20
606.52721447787542
 30
0.0
 11
171.40832676912009
 21
500.52721447787542
 31
0.0
  0
LINE
  5
69BD
  8
AM_0
 10
171.40832676912009
 20
500.52721447787542
 30
0.0
 11
178.90832676912029
 21
500.52721447787542
 31
0.0
  0
LINE
  5
69BE
  8
AM_0
 10
171.60833676912009
 20
510.33727447787533
 30
0.0
 11
177.83831676912021
 21
510.33727447787533
 31
0.0
  0
LINE
  5
69BF
  8
AM_0
 10
171.60833676912009
 20
596.7171544778754
 30
0.0
 11
177.83831676912021
 21
596.7171544778754
 31
0.0
  0
LINE
  5
69C0
  8
AM_0
 10
171.40832676912029
 20
606.52721447787542
 30
0.0
 11
178.90832676912029
 21
606.52721447787542
 31
0.0
  0
LINE
  5
69C1
  8
AM_0
 10
163.4083267691212
 20
501.4658109691033
 30
0.0
 11
163.40832676912081
 21
539.18809788386068
 31
0.0
  0
LINE
  5
69C2
  8
AM_0
 10
154.40832676912021
 20
499.52721447787542
 30
0.0
 11
154.40832676912021
 21
607.52721447787553
 31
0.0
  0
LINE
  5
69C3
  8
AM_0
 10
154.40832676912021
 20
499.5272144778753
 30
0.0
 11
171.40832676912029
 21
500.52721447787542
 31
0.0
  0
LINE
  5
69C4
  8
AM_0
 10
154.40832676912021
 20
607.52721447787542
 30
0.0
 11
171.40832676912029
 21
606.52721447787542
 31
0.0
  0
LINE
  5
69C5
  8
AM_0
 10
163.408326769121
 20
509.93331127978399
 30
0.0
 11
171.40832676912029
 21
509.93331127978399
 31
0.0
  0
LINE
  5
69C6
  8
AM_0
 10
163.4083267691212
 20
501.4658109691033
 30
0.0
 11
171.40832676912029
 21
501.4658109691033
 31
0.0
  0
LINE
  5
69C7
  8
AM_0
 10
159.908326769121
 20
518.88634151261533
 30
0.0
 11
163.408326769121
 21
518.88634151261533
 31
0.0
  0
LINE
  5
69C8
  8
AM_0
 10
159.908326769121
 20
510.38634151261522
 30
0.0
 11
163.4083267691212
 21
510.38634151261522
 31
0.0
  0
LINE
  5
69C9
  8
AM_0
 10
159.408326769121
 20
510.88634151261522
 30
0.0
 11
159.408326769121
 21
518.38634151261533
 31
0.0
  0
ARC
  5
69CA
  8
AM_0
 10
159.90832676912109
 20
510.88634151261522
 30
0.0
 40
0.5
 50
180.0
 51
270.0
  0
ARC
  5
69CB
  8
AM_0
 10
159.90832676912109
 20
518.38634151261533
 30
0.0
 40
0.5
 50
90.0
 51
180.0
  0
LINE
  5
69CC
  8
AM_0
 10
154.40832676912021
 20
511.25501998473521
 30
0.0
 11
159.408326769121
 21
511.2550199847351
 31
0.0
  0
LINE
  5
69CD
  8
AM_0
 10
154.40832676912021
 20
520.99010248303125
 30
0.0
 11
163.408326769121
 21
520.99010248303136
 31
0.0
  0
LINE
  5
69CE
  8
AM_0
 10
163.4083267691212
 20
605.58861798664759
 30
0.0
 11
163.40832676912081
 21
567.86633107189448
 31
0.0
  0
LINE
  5
69CF
  8
AM_0
 10
163.408326769121
 20
597.12111767596684
 30
0.0
 11
171.40832676912029
 21
597.12111767596684
 31
0.0
  0
LINE
  5
69D0
  8
AM_0
 10
163.4083267691212
 20
605.58861798664759
 30
0.0
 11
171.40832676912029
 21
605.58861798664759
 31
0.0
  0
LINE
  5
69D1
  8
AM_0
 10
159.908326769121
 20
588.16808744313562
 30
0.0
 11
163.408326769121
 21
588.16808744313562
 31
0.0
  0
LINE
  5
69D2
  8
AM_0
 10
159.908326769121
 20
596.66808744313551
 30
0.0
 11
163.4083267691212
 21
596.66808744313551
 31
0.0
  0
LINE
  5
69D3
  8
AM_0
 10
159.408326769121
 20
596.16808744313562
 30
0.0
 11
159.408326769121
 21
588.66808744313551
 31
0.0
  0
ARC
  5
69D4
  8
AM_0
 10
159.90832676912109
 20
596.16808744313551
 30
0.0
 40
0.5
 50
90.0
 51
180.0
  0
ARC
  5
69D5
  8
AM_0
 10
159.90832676912109
 20
588.66808744313551
 30
0.0
 40
0.5
 50
180.0
 51
270.0
  0
LINE
  5
69D6
  8
AM_0
 10
154.40832676912021
 20
595.79940897101551
 30
0.0
 11
159.408326769121
 21
595.79940897101551
 31
0.0
  0
LINE
  5
69D7
  8
AM_0
 10
154.40832676912021
 20
586.0643264727197
 30
0.0
 11
163.408326769121
 21
586.0643264727197
 31
0.0
  0
LINE
  5
69D8
  8
AM_0
 10
148.40832676912021
 20
607.52721447787565
 30
0.0
 11
148.40832676912021
 21
499.5272144778753
 31
0.0
  0
LINE
  5
69D9
  8
AM_0
 10
154.40832676912021
 20
499.5272144778753
 30
0.0
 11
148.40832676912021
 21
499.5272144778753
 31
0.0
  0
LINE
  5
69DA
  8
AM_0
 10
148.40832676912021
 20
607.52721447787565
 30
0.0
 11
154.40832676912009
 21
607.52721447787565
 31
0.0
  0
LINE
  5
69DB
  8
AM_0
 10
147.40832676912021
 20
549.72721447787535
 30
0.0
 11
147.40832676912021
 21
557.32721447787515
 31
0.0
  0
LINE
  5
69DC
  8
AM_0
 10
147.40832676912021
 20
557.32721447787515
 30
0.0
 11
148.40832676912021
 21
557.32721447787515
 31
0.0
  0
LINE
  5
69DD
  8
AM_0
 10
148.40832676912021
 20
553.72721447787535
 30
0.0
 11
147.40832676912021
 21
554.09118471214163
 31
0.0
  0
LINE
  5
69DE
  8
AM_0
 10
148.40832676912021
 20
553.32721447787515
 30
0.0
 11
147.40832676912021
 21
553.69118471214165
 31
0.0
  0
LINE
  5
69DF
  8
AM_0
 10
148.40832676912021
 20
549.72721447787535
 30
0.0
 11
147.40832676912021
 21
549.72721447787535
 31
0.0
  0
LINE
  5
69E0
  8
AM_0
 10
146.3493892569922
 20
557.43456945018204
 30
0.0
 11
147.40832676912021
 21
557.52721447787542
 31
0.0
  0
LINE
  5
69E1
  8
AM_0
 10
146.3493892569922
 20
549.6198595055688
 30
0.0
 11
147.40832676912021
 21
549.52721447787542
 31
0.0
  0
ARC
  5
69E2
  8
AM_0
 10
150.8083267691203
 20
553.52721447787542
 30
0.0
 40
6.5
 50
151.82726586813479
 51
208.1727341318651
  0
ARC
  5
69E3
  8
AM_0
 10
146.48883844538881
 20
551.21377102251574
 30
0.0
 40
1.6000000000000001
 50
208.1727341318651
 51
265.00000000000028
  0
ARC
  5
69E4
  8
AM_0
 10
146.48883844538881
 20
555.84065793323487
 30
0.0
 40
1.6000000000000001
 50
94.99999999999973
 51
151.82726586813479
  0
LINE
  5
69E5
  8
AM_0
 10
147.40832676912021
 20
549.52721447787542
 30
0.0
 11
147.40832676912021
 21
557.52721447787542
 31
0.0
  0
LINE
  5
69E6
  8
AM_0
 10
171.40832676912029
 20
539.18809788386068
 30
0.0
 11
163.408326769121
 21
539.18809788386068
 31
0.0
  0
LINE
  5
69E7
  8
AM_0
 10
171.40832676912009
 20
567.86633107189459
 30
0.0
 11
163.40832676912081
 21
567.86633107189459
 31
0.0
  0
LINE
  5
69E8
  8
AM_0
 10
133.9083267691199
 20
519.52721447787656
 30
0.0
 11
133.9083267691199
 21
508.52721447787542
 31
0.0
  0
LINE
  5
69E9
  8
AM_0
 10
148.4083267691199
 20
508.52721447787542
 30
0.0
 11
133.9083267691199
 21
508.52721447787548
 31
0.0
  0
LINE
  5
69EA
  8
AM_0
 10
121.90832676912029
 20
513.52721447787656
 30
0.0
 11
121.90832676912009
 21
510.5272144778765
 31
0.0
  0
LINE
  5
69EB
  8
AM_0
 10
121.90832676912009
 20
510.5272144778765
 30
0.0
 11
133.9083267691199
 21
510.5272144778765
 31
0.0
  0
LINE
  5
69EC
  8
AM_0
 10
121.9083267691198
 20
511.5272144778765
 30
0.0
 11
121.9083267691198
 21
513.70488288402316
 31
0.0
  0
LINE
  5
69ED
  8
AM_0
 10
116.4083267691198
 20
513.52721447787656
 30
0.0
 11
117.3083267691199
 21
513.52721447787656
 31
0.0
  0
LINE
  5
69EE
  8
AM_0
 10
116.20832676911959
 20
516.52721447787656
 30
0.0
 11
116.20832676911959
 21
513.52721447787656
 31
0.0
  0
LINE
  5
69EF
  8
AM_0
 10
117.3083267691199
 20
513.25486274329285
 30
0.0
 11
117.3083267691199
 21
516.79956621246015
 31
0.0
  0
LINE
  5
69F0
  8
AM_0
 10
115.9083267691198
 20
516.22721447787671
 30
0.0
 11
117.3083267691181
 21
516.22721447787671
 31
0.0
  0
LINE
  5
69F1
  8
AM_0
 10
121.3083267691199
 20
512.64564461746966
 30
0.0
 11
121.3083267691199
 21
511.5272144778765
 31
0.0
  0
LINE
  5
69F2
  8
AM_0
 10
121.3083267691199
 20
513.52721447787656
 30
0.0
 11
121.3083267691199
 21
513.42721447787665
 31
0.0
  0
LINE
  5
69F3
  8
AM_0
 10
121.3083267691199
 20
513.42721447787665
 30
0.0
 11
121.3083267691199
 21
512.64564461746966
 31
0.0
  0
LINE
  5
69F4
  8
AM_0
 10
121.3083267691199
 20
513.52721447787656
 30
0.0
 11
121.3083267691199
 21
513.42721447787665
 31
0.0
  0
LINE
  5
69F5
  8
AM_0
 10
121.3083267691199
 20
513.91097715420631
 30
0.0
 11
121.3083267691199
 21
512.64564461746966
 31
0.0
  0
LINE
  5
69F6
  8
AM_0
 10
121.3083267691199
 20
511.5272144778765
 30
0.0
 11
121.9083267691198
 21
511.5272144778765
 31
0.0
  0
LINE
  5
69F7
  8
AM_0
 10
118.6083267691201
 20
512.64564461746966
 30
0.0
 11
118.6083267691201
 21
516.0771758098698
 31
0.0
  0
LINE
  5
69F8
  8
AM_0
 10
118.4472825398625
 20
512.35895298912646
 30
0.0
 11
117.51472949035541
 21
512.89736274329312
 31
0.0
  0
LINE
  5
69F9
  8
AM_0
 10
118.8807783611505
 20
511.8517879973337
 30
0.0
 11
121.03587517708949
 21
511.8517879973337
 31
0.0
  0
LINE
  5
69FA
  8
AM_0
 10
118.8807783611505
 20
513.43950123760521
 30
0.0
 11
121.03587517708949
 21
513.43950123760533
 31
0.0
  0
LINE
  5
69FB
  8
AM_0
 10
117.30832676911859
 20
516.52721447787656
 30
0.0
 11
116.20832676911959
 21
516.52721447787656
 31
0.0
  0
LINE
  5
69FC
  8
AM_0
 10
116.20832676911959
 20
516.52721447787656
 30
0.0
 11
115.9083267691198
 21
516.22721447787671
 31
0.0
  0
LINE
  5
69FD
  8
AM_0
 10
115.9083267691198
 20
516.22721447787671
 30
0.0
 11
115.9083267691198
 21
513.82721447787662
 31
0.0
  0
LINE
  5
69FE
  8
AM_0
 10
116.20832676911959
 20
513.52721447787656
 30
0.0
 11
117.3083267691181
 21
513.52721447787656
 31
0.0
  0
LINE
  5
69FF
  8
AM_0
 10
115.9083267691198
 20
513.82721447787662
 30
0.0
 11
116.20832676911959
 21
513.52721447787656
 31
0.0
  0
LINE
  5
6A00
  8
AM_0
 10
117.3083267691181
 20
513.82721447787662
 30
0.0
 11
115.9083267691198
 21
513.82721447787662
 31
0.0
  0
ARC
  5
6A01
  8
AM_0
 10
120.0155499530933
 20
512.64564461746966
 30
0.0
 40
1.292776816026465
 50
322.11555894629771
 51
0.0
  0
ARC
  5
6A02
  8
AM_0
 10
123.3707566451796
 20
515.02721447787656
 30
0.0
 40
4.762429876059711
 50
168.45024695877001
 51
199.4742400054138
  0
ARC
  5
6A03
  8
AM_0
 10
119.9011035851465
 20
512.64564461746966
 30
0.0
 40
1.292776816026556
 50
142.11555894629771
 51
217.88444105370229
  0
ARC
  5
6A04
  8
AM_0
 10
116.5458968930604
 20
515.02721447787656
 30
0.0
 40
4.762429876059584
 50
340.52575999458628
 51
347.08714779821958
  0
ARC
  5
6A05
  8
AM_0
 10
120.0155499530933
 20
512.64564461746966
 30
0.0
 40
1.2927768160265021
 50
0.0
 51
37.884441053702282
  0
ARC
  5
6A06
  8
AM_0
 10
117.7211322115904
 20
513.25486274329307
 30
0.0
 40
0.4128054424705854
 50
180.0
 51
239.99999999999949
  0
ARC
  5
6A07
  8
AM_0
 10
118.034477097392
 20
511.64395298912638
 30
0.0
 40
0.8256108849411369
 50
28.217424594178269
 51
59.999999999999439
  0
LINE
  5
6A08
  8
AM_0
 10
117.5234193016431
 20
517.1620832773466
 30
0.0
 11
117.51472949035541
 21
517.15706621246045
 31
0.0
  0
ARC
  5
6A09
  8
AM_0
 10
117.7211322115906
 20
516.79956621246049
 30
0.0
 40
0.4128054424705854
 50
119.9999999999924
 51
179.99999999999341
  0
CIRCLE
  5
6A0A
  8
AM_0
 10
119.908288101114
 20
553.52721447787565
 30
0.0
 40
5.5
  0
LINE
  5
6A0B
  8
AM_0
 10
114.408288101114
 20
550.35178799733285
 30
0.0
 11
119.90828810111449
 21
547.17636151678971
 31
0.0
  0
LINE
  5
6A0C
  8
AM_0
 10
119.90828810111449
 20
547.17636151678971
 30
0.0
 11
125.408288101114
 21
550.35178799733285
 31
0.0
  0
LINE
  5
6A0D
  8
AM_0
 10
125.408288101114
 20
550.35178799733285
 30
0.0
 11
125.408288101114
 21
556.70264095841856
 31
0.0
  0
LINE
  5
6A0E
  8
AM_0
 10
125.408288101114
 20
556.70264095841856
 30
0.0
 11
119.908288101114
 21
559.87806743896158
 31
0.0
  0
LINE
  5
6A0F
  8
AM_0
 10
119.908288101114
 20
559.87806743896158
 30
0.0
 11
114.408288101114
 21
556.70264095841833
 31
0.0
  0
LINE
  5
6A10
  8
AM_0
 10
114.408288101114
 20
556.70264095841833
 30
0.0
 11
114.408288101114
 21
550.35178799733285
 31
0.0
  0
CIRCLE
  5
6A11
  8
AM_0
 10
119.908288101114
 20
553.52721447787565
 30
0.0
 40
6.4999856554771771
  0
LINE
  5
6A12
  8
AM_0
 10
130.97358033148521
 20
519.52721447787656
 30
0.0
 11
133.9083267691199
 21
519.52721447787656
 31
0.0
  0
LINE
  5
6A13
  8
AM_0
 10
131.9277488832731
 20
518.02721447787656
 30
0.0
 11
133.9083267691199
 21
518.02721447787656
 31
0.0
  0
LINE
  5
6A14
  8
AM_0
 10
123.2293559129789
 20
513.52721447787656
 30
0.0
 11
133.9083267691199
 21
513.52721447787656
 31
0.0
  0
ARC
  5
6A15
  8
AM_0
 10
123.2293559129787
 20
518.52721447787656
 30
0.0
 40
5.0
 50
225.0
 51
270.0
1001
GENIUS_GENODEF_13
1002
{
1000
HIER
1070
     0
1002
}
1002
{
1000
MANEDIT
1070
     0
1002
}
1002
{
1000
NOSEL
1070
     0
1002
}
1002
{
1000
BEHIND
1070
     0
1002
}
1002
{
1000
OTHER
1070
     0
1002
}
1002
{
1000
REACTOR
1002
}
1001
GENIUS_GENOBJ-N-FIL_13
1002
{
1000
OWNER
1000
GEN
1002
}
  0
LINE
  5
6A16
  8
AM_0
 10
131.9277488832729
 20
513.52721447787656
 30
0.0
 11
131.9277488832731
 21
518.02721447787656
 31
0.0
  0
LINE
  5
6A17
  8
AM_0
 10
118.4082881011141
 20
547.20267389998321
 30
0.0
 11
118.40828810111429
 21
526.31523962416713
 31
0.0
  0
LINE
  5
6A18
  8
AM_0
 10
121.408288101114
 20
547.20267389998321
 30
0.0
 11
121.408288101114
 21
526.31523962416713
 31
0.0
  0
LINE
  5
6A19
  8
AM_0
 10
116.158288101114
 20
548.21804189437375
 30
0.0
 11
116.158288101114
 21
520.59828228974118
 31
0.0
  0
ARC
  5
6A1A
  8
AM_0
 10
121.158288101114
 20
520.59828228974118
 30
0.0
 40
5.0
 50
180.0
 51
225.0
1001
GENIUS_GENOBJ-N-FIL_13
1002
{
1000
OWNER
1000
GEN
1002
}
1001
GENIUS_GENODEF_13
1002
{
1000
HIER
1070
     0
1002
}
1002
{
1000
MANEDIT
1070
     0
1002
}
1002
{
1000
NOSEL
1070
     0
1002
}
1002
{
1000
BEHIND
1070
     0
1002
}
1002
{
1000
OTHER
1070
     0
1002
}
1002
{
1000
REACTOR
1002
}
  0
LINE
  5
6A1B
  8
AM_0
 10
123.658288101114
 20
548.21804189437375
 30
0.0
 11
123.658288101114
 21
524.05813282112797
 31
0.0
  0
ARC
  5
6A1C
  8
AM_0
 10
128.65828810111401
 20
532.48273284720085
 30
0.0
 40
5.0
 50
180.0
 51
212.46094411514301
1001
GENIUS_GENODEF_13
1002
{
1000
HIER
1070
     0
1002
}
1002
{
1000
MANEDIT
1070
     0
1002
}
1002
{
1000
NOSEL
1070
     0
1002
}
1002
{
1000
BEHIND
1070
     0
1002
}
1002
{
1000
OTHER
1070
     0
1002
}
1002
{
1000
REACTOR
1002
}
1001
GENIUS_GENOBJ-N-FIL_13
1002
{
1000
OWNER
1000
GEN
1002
}
  0
ARC
  5
6A1D
  8
AM_0
 10
128.65828810111401
 20
524.05813282112797
 30
0.0
 40
5.0
 50
180.0
 51
224.2123722808945
1001
GENIUS_GENOBJ-N-FIL_13
1002
{
1000
OWNER
1000
GEN
1002
}
1001
GENIUS_GENODEF_13
1002
{
1000
HIER
1070
     0
1002
}
1002
{
1000
MANEDIT
1070
     0
1002
}
1002
{
1000
NOSEL
1070
     0
1002
}
1002
{
1000
BEHIND
1070
     0
1002
}
1002
{
1000
OTHER
1070
     0
1002
}
1002
{
1000
REACTOR
1002
}
  0
LINE
  5
6A1E
  8
AM_0
 10
131.9277488832729
 20
518.02721447787656
 30
0.0
 11
124.439500590347
 21
529.79910993423516
 31
0.0
  0
LINE
  5
6A1F
  8
AM_0
 10
131.9277488832729
 20
513.52721447787656
 30
0.0
 11
125.0744878652626
 21
520.57153335036685
 31
0.0
  0
LINE
  5
6A20
  8
AM_0
 10
117.6227541951814
 20
517.0627483838083
 30
0.0
 11
119.69382200704599
 21
514.99168057194368
 31
0.0
  0
ARC
  5
6A21
  8
AM_0
 10
119.908288101114
 20
526.31523962416713
 30
0.0
 40
1.5
 50
180.0
 51
0.0
  0
LINE
  5
6A22
  8
AM_0
 10
133.90832676912029
 20
587.52721447787485
 30
0.0
 11
133.90832676912081
 21
598.52721447787576
 31
0.0
  0
LINE
  5
6A23
  8
AM_0
 10
148.40832676912069
 20
598.52721447787553
 30
0.0
 11
133.90832676912081
 21
598.52721447787576
 31
0.0
  0
LINE
  5
6A24
  8
AM_0
 10
121.908326769121
 20
593.52721447787508
 30
0.0
 11
121.908326769121
 21
596.52721447787485
 31
0.0
  0
LINE
  5
6A25
  8
AM_0
 10
121.908326769121
 20
596.52721447787485
 30
0.0
 11
133.90832676912081
 21
596.52721447787485
 31
0.0
  0
LINE
  5
6A26
  8
AM_0
 10
121.90832676912081
 20
595.52721447787485
 30
0.0
 11
121.90832676912081
 21
593.34954607172835
 31
0.0
  0
LINE
  5
6A27
  8
AM_0
 10
116.40832676912081
 20
593.52721447787508
 30
0.0
 11
117.3083267691207
 21
593.52721447787508
 31
0.0
  0
LINE
  5
6A28
  8
AM_0
 10
116.2083267691205
 20
590.52721447787508
 30
0.0
 11
116.2083267691205
 21
593.52721447787508
 31
0.0
  0
LINE
  5
6A29
  8
AM_0
 10
117.3083267691207
 20
593.79956621245867
 30
0.0
 11
117.3083267691207
 21
590.25486274329126
 31
0.0
  0
LINE
  5
6A2A
  8
AM_0
 10
115.90832676912071
 20
590.82721447787515
 30
0.0
 11
117.3083267691206
 21
590.82721447787503
 31
0.0
  0
LINE
  5
6A2B
  8
AM_0
 10
121.3083267691208
 20
594.40878433828209
 30
0.0
 11
121.3083267691208
 21
595.52721447787485
 31
0.0
  0
LINE
  5
6A2C
  8
AM_0
 10
121.3083267691208
 20
593.52721447787508
 30
0.0
 11
121.3083267691208
 21
593.62721447787476
 31
0.0
  0
LINE
  5
6A2D
  8
AM_0
 10
121.3083267691208
 20
593.62721447787476
 30
0.0
 11
121.3083267691208
 21
594.40878433828209
 31
0.0
  0
LINE
  5
6A2E
  8
AM_0
 10
121.3083267691208
 20
593.52721447787508
 30
0.0
 11
121.3083267691208
 21
593.62721447787476
 31
0.0
  0
LINE
  5
6A2F
  8
AM_0
 10
121.3083267691208
 20
593.14345180154521
 30
0.0
 11
121.3083267691208
 21
594.40878433828209
 31
0.0
  0
LINE
  5
6A30
  8
AM_0
 10
121.3083267691208
 20
595.52721447787485
 30
0.0
 11
121.90832676912081
 21
595.52721447787485
 31
0.0
  0
LINE
  5
6A31
  8
AM_0
 10
118.60832676912101
 20
594.40878433828209
 30
0.0
 11
118.60832676912079
 21
590.97725314588172
 31
0.0
  0
LINE
  5
6A32
  8
AM_0
 10
118.44728253986339
 20
594.69547596662505
 30
0.0
 11
117.5147294903563
 21
594.1570662124584
 31
0.0
  0
LINE
  5
6A33
  8
AM_0
 10
118.8807783611514
 20
595.20264095841787
 30
0.0
 11
121.0358751770904
 21
595.20264095841787
 31
0.0
  0
LINE
  5
6A34
  8
AM_0
 10
118.8807783611514
 20
593.61492771814653
 30
0.0
 11
121.0358751770904
 21
593.6149277181463
 31
0.0
  0
LINE
  5
6A35
  8
AM_0
 10
117.3083267691207
 20
590.52721447787508
 30
0.0
 11
116.2083267691205
 21
590.52721447787508
 31
0.0
  0
LINE
  5
6A36
  8
AM_0
 10
116.2083267691205
 20
590.52721447787508
 30
0.0
 11
115.90832676912071
 21
590.82721447787515
 31
0.0
  0
LINE
  5
6A37
  8
AM_0
 10
115.90832676912071
 20
590.82721447787515
 30
0.0
 11
115.90832676912071
 21
593.22721447787524
 31
0.0
  0
LINE
  5
6A38
  8
AM_0
 10
116.2083267691205
 20
593.52721447787508
 30
0.0
 11
117.3083267691207
 21
593.52721447787508
 31
0.0
  0
LINE
  5
6A39
  8
AM_0
 10
115.90832676912071
 20
593.22721447787524
 30
0.0
 11
116.2083267691205
 21
593.52721447787508
 31
0.0
  0
LINE
  5
6A3A
  8
AM_0
 10
117.3083267691207
 20
593.22721447787501
 30
0.0
 11
115.90832676912071
 21
593.22721447787524
 31
0.0
  0
ARC
  5
6A3B
  8
AM_0
 10
120.01554995309419
 20
594.40878433828209
 30
0.0
 40
1.292776816026465
 50
0.0
 51
37.884441053702282
  0
ARC
  5
6A3C
  8
AM_0
 10
123.37075664518029
 20
592.02721447787485
 30
0.0
 40
4.762429876059711
 50
160.52575999458611
 51
191.54975304122991
  0
ARC
  5
6A3D
  8
AM_0
 10
119.9011035851474
 20
594.40878433828209
 30
0.0
 40
1.292776816026556
 50
142.11555894629771
 51
217.88444105370229
  0
ARC
  5
6A3E
  8
AM_0
 10
116.5458968930611
 20
592.02721447787485
 30
0.0
 40
4.762429876059584
 50
12.912852201780369
 51
19.474240005413812
  0
ARC
  5
6A3F
  8
AM_0
 10
120.01554995309419
 20
594.40878433828209
 30
0.0
 40
1.2927768160265021
 50
322.11555894629771
 51
0.0
  0
ARC
  5
6A40
  8
AM_0
 10
117.7211322115913
 20
593.79956621245867
 30
0.0
 40
0.4128054424705854
 50
120.0000000000005
 51
180.0
  0
ARC
  5
6A41
  8
AM_0
 10
118.0344770973927
 20
595.41047596662486
 30
0.0
 40
0.8256108849411369
 50
299.99999999999972
 51
331.78257540582172
  0
LINE
  5
6A42
  8
AM_0
 10
117.523419301644
 20
589.89234567840526
 30
0.0
 11
117.5147294903563
 21
589.8973627432913
 31
0.0
  0
ARC
  5
6A43
  8
AM_0
 10
117.7211322115913
 20
590.25486274329126
 30
0.0
 40
0.4128054424705854
 50
180.00000000000659
 51
240.00000000000759
  0
LINE
  5
6A44
  8
AM_0
 10
130.973580331486
 20
587.52721447787485
 30
0.0
 11
133.90832676912029
 21
587.52721447787485
 31
0.0
  0
LINE
  5
6A45
  8
AM_0
 10
131.92774888327381
 20
589.02721447787485
 30
0.0
 11
133.90832676912049
 21
589.02721447787485
 31
0.0
  0
LINE
  5
6A46
  8
AM_0
 10
123.2293559129798
 20
593.52721447787508
 30
0.0
 11
133.90832676912049
 21
593.52721447787485
 31
0.0
  0
ARC
  5
6A47
  8
AM_0
 10
123.2293559129793
 20
588.52721447787519
 30
0.0
 40
5.0
 50
90.0
 51
135.0
1001
GENIUS_GENODEF_13
1002
{
1000
HIER
1070
     0
1002
}
1002
{
1000
MANEDIT
1070
     0
1002
}
1002
{
1000
NOSEL
1070
     0
1002
}
1002
{
1000
BEHIND
1070
     0
1002
}
1002
{
1000
OTHER
1070
     0
1002
}
1002
{
1000
REACTOR
1002
}
1001
GENIUS_GENOBJ-N-FIL_13
1002
{
1000
OWNER
1000
GEN
1002
}
  0
LINE
  5
6A48
  8
AM_0
 10
131.92774888327381
 20
593.52721447787485
 30
0.0
 11
131.92774888327381
 21
589.02721447787485
 31
0.0
  0
LINE
  5
6A49
  8
AM_0
 10
118.40828810111449
 20
559.85175505576854
 30
0.0
 11
118.40828810111501
 21
580.73918933158461
 31
0.0
  0
LINE
  5
6A4A
  8
AM_0
 10
121.4082881011142
 20
559.85175505576831
 30
0.0
 11
121.40828810111491
 21
580.73918933158461
 31
0.0
  0
LINE
  5
6A4B
  8
AM_0
 10
116.15828810111449
 20
558.83638706137799
 30
0.0
 11
116.15828810111491
 21
586.45614666601045
 31
0.0
  0
ARC
  5
6A4C
  8
AM_0
 10
121.15828810111471
 20
586.45614666601045
 30
0.0
 40
5.0
 50
135.0
 51
180.0
1001
GENIUS_GENOBJ-N-FIL_13
1002
{
1000
OWNER
1000
GEN
1002
}
1001
GENIUS_GENODEF_13
1002
{
1000
HIER
1070
     0
1002
}
1002
{
1000
MANEDIT
1070
     0
1002
}
1002
{
1000
NOSEL
1070
     0
1002
}
1002
{
1000
BEHIND
1070
     0
1002
}
1002
{
1000
OTHER
1070
     0
1002
}
1002
{
1000
REACTOR
1002
}
  0
LINE
  5
6A4D
  8
AM_0
 10
123.65828810111439
 20
558.83638706137765
 30
0.0
 11
123.65828810111501
 21
582.99629613462355
 31
0.0
  0
ARC
  5
6A4E
  8
AM_0
 10
128.65828810111449
 20
574.57169610855033
 30
0.0
 40
5.0
 50
147.53905588485699
 51
180.0
1001
GENIUS_GENODEF_13
1002
{
1000
HIER
1070
     0
1002
}
1002
{
1000
MANEDIT
1070
     0
1002
}
1002
{
1000
NOSEL
1070
     0
1002
}
1002
{
1000
BEHIND
1070
     0
1002
}
1002
{
1000
OTHER
1070
     0
1002
}
1002
{
1000
REACTOR
1002
}
1001
GENIUS_GENOBJ-N-FIL_13
1002
{
1000
OWNER
1000
GEN
1002
}
  0
ARC
  5
6A4F
  8
AM_0
 10
128.65828810111469
 20
582.99629613462344
 30
0.0
 40
5.0
 50
135.7876277191055
 51
180.0
1001
GENIUS_GENOBJ-N-FIL_13
1002
{
1000
OWNER
1000
GEN
1002
}
1001
GENIUS_GENODEF_13
1002
{
1000
HIER
1070
     0
1002
}
1002
{
1000
MANEDIT
1070
     0
1002
}
1002
{
1000
NOSEL
1070
     0
1002
}
1002
{
1000
BEHIND
1070
     0
1002
}
1002
{
1000
OTHER
1070
     0
1002
}
1002
{
1000
REACTOR
1002
}
  0
LINE
  5
6A50
  8
AM_0
 10
131.92774888327361
 20
589.02721447787485
 30
0.0
 11
124.43950059034751
 21
577.25531902151613
 31
0.0
  0
LINE
  5
6A51
  8
AM_0
 10
131.92774888327381
 20
593.52721447787485
 30
0.0
 11
125.07448786526351
 21
586.48289560538456
 31
0.0
  0
LINE
  5
6A52
  8
AM_0
 10
117.6227541951821
 20
589.99168057194333
 30
0.0
 11
119.6938220070469
 21
592.06274838380784
 31
0.0
  0
ARC
  5
6A53
  8
AM_0
 10
119.90828810111471
 20
580.73918933158461
 30
0.0
 40
1.5
 50
0.0
 51
180.0
  0
ARC
  5
6A54
  8
AM_0
 10
165.3591249559754
 20
482.52721447787542
 30
0.0
 40
20.0
 50
209.07393874564249
 51
249.97235728825609
1001
GENIUS_GENODEF_13
1002
{
1000
HIER
1070
     0
1002
}
1002
{
1000
MANEDIT
1070
     0
1002
}
1002
{
1000
NOSEL
1070
     0
1002
}
1002
{
1000
BEHIND
1070
     0
1002
}
1002
{
1000
OTHER
1070
     0
1002
}
1002
{
1000
REACTOR
1002
}
1001
GENIUS_GENOBJ-N-FIL_13
1002
{
1000
OWNER
1000
GEN
1002
}
  0
ARC
  5
6A55
  8
AM_0
 10
165.9473011846211
 20
483.52721447787542
 30
0.0
 40
15.0
 50
209.07393874564249
 51
240.27464366407139
1001
GENIUS_GENODEF_13
1002
{
1000
HIER
1070
     0
1002
}
1002
{
1000
MANEDIT
1070
     0
1002
}
1002
{
1000
NOSEL
1070
     0
1002
}
1002
{
1000
BEHIND
1070
     0
1002
}
1002
{
1000
OTHER
1070
     0
1002
}
1002
{
1000
REACTOR
1002
}
1001
GENIUS_GENOBJ-N-FIL_13
1002
{
1000
OWNER
1000
GEN
1002
}
  0
LINE
  5
6A56
  8
AM_0
 10
147.87925806456059
 20
472.80845666329759
 30
0.0
 11
126.9077326780226
 21
510.5272144778765
 31
0.0
  0
LINE
  5
6A57
  8
AM_0
 10
152.83740101605991
 20
476.238146116942
 30
0.0
 11
134.88476800073721
 21
508.52721447787542
 31
0.0
  0
TEXT
  5
6CD6
  8
AM_0
 10
514.51309681620421
 20
564.18401383120215
 30
0.0
 40
10.0
  1
VX02-040BW~VX02-060BW
  0
ENDSEC
  0
EOF
