  0
SECTION
  2
HEADER
  9
$ACADVER
  1
AC1009
  9
$INSBASE
 10
0.0
 20
0.0
 30
0.0
  9
$EXTMIN
 10
93.742265890285125
 20
189.1482097044188
 30
-250.41841640509659
  9
$EXTMAX
 10
723.0318164105197
 20
635.02939865991539
 30
8206587.2096418813
  9
$LIMMIN
 10
0.0
 20
0.0
  9
$LIMMAX
 10
853.5
 20
555.00000000000011
  9
$ORTHOMODE
 70
     0
  9
$REGENMODE
 70
     1
  9
$FILLMODE
 70
     1
  9
$QTEXTMODE
 70
     0
  9
$MIRRTEXT
 70
     1
  9
$DRAGMODE
 70
     2
  9
$LTSCALE
 40
3.0
  9
$OSMODE
 70
   551
  9
$ATTMODE
 70
     1
  9
$TEXTSIZE
 40
2.5
  9
$TRACEWID
 40
1.0
  9
$TEXTSTYLE
  7
STANDARD
  9
$CLAYER
  8
AM_0
  9
$CELTYPE
  6
BYLAYER
  9
$CECOLOR
 62
   256
  9
$DIMSCALE
 40
3.0
  9
$DIMASZ
 40
2.5
  9
$DIMEXO
 40
1.0
  9
$DIMDLI
 40
8.0
  9
$DIMRND
 40
0.0
  9
$DIMDLE
 40
0.0
  9
$DIMEXE
 40
0.6
  9
$DIMTP
 40
0.1
  9
$DIMTM
 40
0.1
  9
$DIMTXT
 40
2.5
  9
$DIMCEN
 40
0.0
  9
$DIMTSZ
 40
0.0
  9
$DIMTOL
 70
     0
  9
$DIMLIM
 70
     0
  9
$DIMTIH
 70
     0
  9
$DIMTOH
 70
     0
  9
$DIMSE1
 70
     0
  9
$DIMSE2
 70
     0
  9
$DIMTAD
 70
     1
  9
$DIMZIN
 70
     8
  9
$DIMBLK
  1

  9
$DIMASO
 70
     1
  9
$DIMSHO
 70
     1
  9
$DIMPOST
  1

  9
$DIMAPOST
  1
"
  9
$DIMALT
 70
     0
  9
$DIMALTD
 70
     2
  9
$DIMALTF
 40
0.0393701
  9
$DIMLFAC
 40
1.0
  9
$DIMTOFL
 70
     1
  9
$DIMTVP
 40
0.0
  9
$DIMTIX
 70
     0
  9
$DIMSOXD
 70
     0
  9
$DIMSAH
 70
     0
  9
$DIMBLK1
  1

  9
$DIMBLK2
  1

  9
$DIMSTYLE
  2
AM_ISO
  9
$DIMCLRD
 70
   256
  9
$DIMCLRE
 70
   256
  9
$DIMCLRT
 70
     4
  9
$DIMTFAC
 40
0.71
  9
$DIMGAP
 40
0.8
  9
$LUNITS
 70
     2
  9
$LUPREC
 70
     2
  9
$SKETCHINC
 40
1.0
  9
$FILLETRAD
 40
15.0
  9
$AUNITS
 70
     0
  9
$AUPREC
 70
     0
  9
$MENU
  1
.
  9
$ELEVATION
 40
0.0
  9
$PELEVATION
 40
0.0
  9
$THICKNESS
 40
0.0
  9
$LIMCHECK
 70
     0
  9
$BLIPMODE
 70
     0
  9
$CHAMFERA
 40
6.0
  9
$CHAMFERB
 40
3.0
  9
$SKPOLY
 70
     0
  9
$TDCREATE
 40
2452065.6056192131
  9
$TDUPDATE
 40
2458541.608005567
  9
$TDINDWG
 40
0.4203041319
  9
$TDUSRTIMER
 40
0.4203039352
  9
$USRTIMER
 70
     1
  9
$ANGBASE
 50
0.0
  9
$ANGDIR
 70
     0
  9
$PDMODE
 70
     0
  9
$PDSIZE
 40
0.0
  9
$PLINEWID
 40
0.0
  9
$COORDS
 70
     1
  9
$SPLFRAME
 70
     0
  9
$SPLINETYPE
 70
     6
  9
$SPLINESEGS
 70
     8
  9
$ATTDIA
 70
     1
  9
$ATTREQ
 70
     1
  9
$HANDLING
 70
     1
  9
$HANDSEED
  5
65CD
  9
$SURFTAB1
 70
     6
  9
$SURFTAB2
 70
     6
  9
$SURFTYPE
 70
     6
  9
$SURFU
 70
     6
  9
$SURFV
 70
     6
  9
$UCSNAME
  2

  9
$UCSORG
 10
0.0
 20
0.0
 30
0.0
  9
$UCSXDIR
 10
1.0
 20
0.0
 30
0.0
  9
$UCSYDIR
 10
0.0
 20
1.0
 30
0.0
  9
$PUCSNAME
  2

  9
$PUCSORG
 10
0.0
 20
0.0
 30
0.0
  9
$PUCSXDIR
 10
1.0
 20
0.0
 30
0.0
  9
$PUCSYDIR
 10
0.0
 20
1.0
 30
0.0
  9
$USERI1
 70
     0
  9
$USERI2
 70
     0
  9
$USERI3
 70
     0
  9
$USERI4
 70
     0
  9
$USERI5
 70
     0
  9
$USERR1
 40
0.0
  9
$USERR2
 40
0.0
  9
$USERR3
 40
0.0
  9
$USERR4
 40
0.0
  9
$USERR5
 40
0.0
  9
$WORLDVIEW
 70
     1
  9
$SHADEDGE
 70
     3
  9
$SHADEDIF
 70
    70
  9
$TILEMODE
 70
     1
  9
$MAXACTVP
 70
    64
  9
$PLIMCHECK
 70
     0
  9
$PEXTMIN
 10
1.0000000000000000E+020
 20
1.0000000000000000E+020
 30
1.0000000000000000E+020
  9
$PEXTMAX
 10
-1.0000000000000000E+020
 20
-1.0000000000000000E+020
 30
-1.0000000000000000E+020
  9
$PLIMMIN
 10
0.0
 20
0.0
  9
$PLIMMAX
 10
420.0
 20
297.0
  9
$UNITMODE
 70
     0
  9
$VISRETAIN
 70
     1
  9
$PLINEGEN
 70
     0
  9
$PSLTSCALE
 70
     1
  0
ENDSEC
  0
SECTION
  2
TABLES
  0
TABLE
  2
VPORT
 70
     1
  0
VPORT
  2
*ACTIVE
 70
     0
 10
0.0
 20
0.0
 11
1.0
 21
1.0
 12
408.3870411504023
 22
412.08880418216711
 13
0.0
 23
0.0
 14
7.5
 24
7.5
 15
30.0
 25
30.0
 16
0.0
 26
0.0
 36
1.0
 17
0.0
 27
0.0
 37
0.0
 40
448.94215821606048
 41
1.7571592210767459
 42
50.0
 43
0.0
 44
0.0
 50
0.0
 51
0.0
 71
     0
 72
   100
 73
     1
 74
     3
 75
     0
 76
     0
 77
     0
 78
     0
  0
ENDTAB
  0
TABLE
  2
LTYPE
 70
    27
  0
LTYPE
  2
CONTINUOUS
 70
     0
  3
Solid line
 72
    65
 73
     0
 40
0.0
  0
LTYPE
  2
AM_ISO02W050
 70
     0
  3
__ __ __ __ __ __ __ __ __ __ __ __ __ __ __
 72
    65
 73
     2
 40
7.5
 49
6.0
 49
-1.5
  0
LTYPE
  2
AM_ISO08W050
 70
     0
  3
____ . ____ . ____ . ____ . ____ . ____ . ____
 72
    65
 73
     4
 40
18.0
 49
12.0
 49
-1.5
 49
3.0
 49
-1.5
  0
LTYPE
  2
AM_ISO09W050
 70
     0
  3
_____ . . _____ . . _____ . . ____ .. ____
 72
    65
 73
     6
 40
22.5
 49
12.0
 49
-1.5
 49
3.0
 49
-1.5
 49
3.0
 49
-1.5
  0
LTYPE
  2
AMCONSTR
 70
     0
  3
_______________________
 72
    65
 73
     2
 40
9999.0
 49
9999.0
 49
0.0
  0
LTYPE
  2
AM_ISO08W050X2
 70
     0
  3
__ . __ . __ . __ . __ . __
 72
    65
 73
     4
 40
9.0
 49
6.0
 49
-0.75
 49
1.5
 49
-0.75
  0
LTYPE
  2
AM_ISO02W050X2
 70
     0
  3
 _ _ _ _ _ _ _ _ _ _ _ _
 72
    65
 73
     2
 40
3.75
 49
3.0
 49
-0.75
  0
LTYPE
  2
AMZIGZAG
 70
     0
  3
/\/-/\/-/\/-/\/-/\/-/\/
 72
    65
 73
     2
 40
11.0001
 49
0.0001
 49
-11.0
  0
LTYPE
  2
ACISOWELD
 70
     0
  3
_ _ _ _ _
 72
    65
 73
     2
 40
2.0
 49
2.0
 49
-1.0
  0
LTYPE
  2
ACISOTGB
 70
     0
  3
__ . . __ . .
 72
    65
 73
     6
 40
9.0
 49
4.0
 49
-1.0
 49
1.0
 49
-1.0
 49
1.0
 49
-1.0
  0
LTYPE
  2
ACISOTGL
 70
     0
  3
_ _ _ _ _
 72
    65
 73
     2
 40
3.0
 49
2.0
 49
-1.0
  0
LTYPE
  2
CENTER
 70
     0
  3
__ . __
 72
    65
 73
     4
 40
7.0
 49
4.0
 49
-1.0
 49
1.0
 49
-1.0
  0
LTYPE
  2
HIDDEN
 70
     0
  3
Hidden __ __ __ __ __ __ __ __ __ __ __ __ __ _
 72
    65
 73
     2
 40
9.5249999999999986
 49
6.3499999999999979
 49
-3.174999999999998
  0
LTYPE
  2
PHANTOM2
 70
     0
  3
Phantom (.5x) ___ _ _ ___ _ _ ___ _ _ ___ _ _
 72
    65
 73
     6
 40
31.75
 49
15.875
 49
-3.174999999999998
 49
3.174999999999998
 49
-3.174999999999998
 49
3.174999999999998
 49
-3.174999999999998
  0
LTYPE
  2
ACANSTGBM
 70
     0
  3
__ . . __ . .
 72
    65
 73
     6
 40
9.0
 49
4.0
 49
-1.0
 49
1.0
 49
-1.0
 49
1.0
 49
-1.0
  0
LTYPE
  2
ACANSTGLM
 70
     0
  3
_ _ _ _ _
 72
    65
 73
     2
 40
3.0
 49
2.0
 49
-1.0
  0
LTYPE
  2
GEN3B
 70
     0
  3
 - - - - -
 72
    65
 73
     2
 40
1.0
 49
0.5
 49
-0.5
  0
LTYPE
  2
GEN7A
 70
     0
  3
__ . __ . __
 72
    65
 73
     4
 40
7.375
 49
4.75
 49
-0.875
 49
0.875
 49
-0.875
  0
LTYPE
  2
ACJISTGB
 70
     0
  3
__ . . __ . .
 72
    65
 73
     6
 40
9.0
 49
4.0
 49
-1.0
 49
1.0
 49
-1.0
 49
1.0
 49
-1.0
  0
LTYPE
  2
ACJISTGL
 70
     0
  3
_ _ _ _ _
 72
    65
 73
     2
 40
3.0
 49
2.0
 49
-1.0
  0
LTYPE
  2
GEN7
 70
     0
  3
____ . ____ . ____ . ____ . ____ . ____ . ____
 72
    65
 73
     4
 40
14.25
 49
9.75
 49
-1.5
 49
1.5
 49
-1.5
  0
LTYPE
  2
CENTER2
 70
     0
  3
Center (.5x) ___ _ ___ _ ___ _ ___ _ ___ _ ___
 72
    65
 73
     4
 40
1.125
 49
0.75
 49
-0.125
 49
0.125
 49
-0.125
  0
LTYPE
  2
HIDDEN2
 70
     0
  3
Hidden (.5x) _ _ _ _ _ _ _ _ _ _ _ _ _ _ _ _ _
 72
    65
 73
     2
 40
0.1875
 49
0.125
 49
-0.0625
  0
LTYPE
  2
AMZIGZAG2
 70
     0
  3
/\/-/\/-/\/-/\/-/\/-/\/
 72
    65
 73
     2
 40
0.4401
 49
0.0001
 49
-0.4400000000000001
  0
LTYPE
  2
ACANSTGB
 70
     0
  3
__ . . __ . .
 72
    65
 73
     6
 40
0.35433070866
 49
0.15748031496
 49
-0.03937007874
 49
0.03937007874
 49
-0.03937007874
 49
0.03937007874
 49
-0.03937007874
  0
LTYPE
  2
ACANSTGL
 70
     0
  3
_ _ _ _ _
 72
    65
 73
     2
 40
0.11811023622
 49
0.07874015748
 49
-0.03937007874
  0
ENDTAB
  0
TABLE
  2
LAYER
 70
     8
  0
LAYER
  2
0
 70
     0
 62
     7
  6
CONTINUOUS
  0
LAYER
  2
AM_0
 70
     0
 62
     7
  6
CONTINUOUS
  0
LAYER
  2
AM_5
 70
     0
 62
     2
  6
CONTINUOUS
  0
LAYER
  2
DEFPOINTS
 70
     0
 62
     7
  6
CONTINUOUS
  0
LAYER
  2
ｶｸﾚｾﾝ2
 70
     0
 62
     3
  6
GEN3B
  0
LAYER
  2
ﾁｭｳｼﾝｾﾝ1
 70
     0
 62
     1
  6
GEN7A
  0
LAYER
  2
AM_0N
 70
     0
 62
     7
  6
CONTINUOUS
  0
LAYER
  2
ﾁｭｳｼﾝｾﾝ
 70
     0
 62
     1
  6
GEN7
  0
ENDTAB
  0
TABLE
  2
STYLE
 70
    10
  0
STYLE
  2
STANDARD
 70
     0
 40
0.0
 41
0.8299999999999999
 50
0.0
 71
     0
 42
2.5
  3
txt.shx
  4
bigfont.shx
  0
STYLE
  2
ANNOTATIVE
 70
     0
 40
0.0
 41
1.0
 50
0.0
 71
     0
 42
0.2
  3
txt
  4

  0
STYLE
  2

 70
     1
 40
0.0
 41
1.0
 50
0.0
 71
     0
 42
2.5
  3
ltypeshp.shx
  4

  0
STYLE
  2
ACISOTS
 70
     0
 40
1.0
 41
1.0
 50
0.0
 71
     0
 42
2.5
  3
isocp.shx
  4
extfont.shx
  0
STYLE
  2
ACISOGDT
 70
     0
 40
0.0
 41
1.0
 50
0.0
 71
     0
 42
2.5
  3
amgdt.shx
  4

  0
STYLE
  2
ACANSTS
 70
     0
 40
1.0
 41
1.0
 50
0.0
 71
     0
 42
2.5
  3
romans.shx
  4
bigfont.shx
  0
STYLE
  2
ACANSGDT
 70
     0
 40
0.0
 41
1.0
 50
0.0
 71
     0
 42
2.5
  3
amgdt.shx
  4

  0
STYLE
  2
ACJISTS
 70
     0
 40
1.0
 41
1.0
 50
0.0
 71
     0
 42
2.5
  3
isocp.shx
  4
bigfont.shx
  0
STYLE
  2
ACJISGDT
 70
     0
 40
0.0
 41
1.0
 50
0.0
 71
     0
 42
2.5
  3
amgdt.shx
  4

  0
STYLE
  2

 70
     1
 40
0.0
 41
1.0
 50
0.0
 71
     0
 42
2.5
  3
genltshp.shx
  4

  0
ENDTAB
  0
TABLE
  2
VIEW
 70
     6
  0
VIEW
  2
AM_VIEW1
 70
     0
 40
277.50000000000011
 10
249.64779005524869
 20
416.25
 41
499.29558011049721
 11
0.0
 21
0.0
 31
1.0
 12
0.0
 22
0.0
 32
0.0
 42
50.0
 43
0.0
 44
0.0
 50
0.0
 71
     0
  0
VIEW
  2
AM_VIEW2
 70
     0
 40
277.50000000000011
 10
603.85220994475117
 20
416.25
 41
499.29558011049721
 11
0.0
 21
0.0
 31
1.0
 12
0.0
 22
0.0
 32
0.0
 42
50.0
 43
0.0
 44
0.0
 50
0.0
 71
     0
  0
VIEW
  2
AM_VIEW3
 70
     0
 40
277.50000000000011
 10
249.64779005524869
 20
138.75
 41
499.29558011049721
 11
0.0
 21
0.0
 31
1.0
 12
0.0
 22
0.0
 32
0.0
 42
50.0
 43
0.0
 44
0.0
 50
0.0
 71
     0
  0
VIEW
  2
AM_VIEW4
 70
     0
 40
277.50000000000011
 10
603.85220994475117
 20
138.75
 41
499.29558011049721
 11
0.0
 21
0.0
 31
1.0
 12
0.0
 22
0.0
 32
0.0
 42
50.0
 43
0.0
 44
0.0
 50
0.0
 71
     0
  0
VIEW
  2
AM_VIEW5
 70
     0
 40
277.50000000000011
 10
426.75
 20
277.50000000000011
 41
499.2955801104971
 11
0.0
 21
0.0
 31
1.0
 12
0.0
 22
0.0
 32
0.0
 42
50.0
 43
0.0
 44
0.0
 50
0.0
 71
     0
  0
VIEW
  2
AM_VIEW6
 70
     0
 40
554.99445000000014
 10
426.75
 20
277.5
 41
998.5811743093924
 11
0.0
 21
0.0
 31
1.0
 12
0.0
 22
0.0
 32
0.0
 42
50.0
 43
0.0
 44
0.0
 50
0.0
 71
     0
  0
ENDTAB
  0
TABLE
  2
UCS
 70
     0
  0
ENDTAB
  0
TABLE
  2
APPID
 70
   101
  0
APPID
  2
ACAD
 70
     0
  0
APPID
  2
ACADANNOTATIVE
 70
     0
  0
APPID
  2
MCAD_NO_VIS
 70
     0
  0
APPID
  2
ACAD_TEMP_GRAPHIC
 70
     0
  0
APPID
  2
ACATTRIBSERVICES
 70
     0
  0
APPID
  2
GENIUS_GENREC_14
 70
     0
  0
APPID
  2
GENIUS_GENOBJ-N-REC_13
 70
     0
  0
APPID
  2
GENIUS_GENODEF_13
 70
     0
  0
APPID
  2
GENIUS_GENOLIS_13
 70
     0
  0
APPID
  2
GENIUS_GENOBJ-N-TIT_13
 70
     0
  0
APPID
  2
GENIUS_GENOENT_13
 70
     0
  0
APPID
  2
GENIUS_GENTITLE_13
 70
     0
  0
APPID
  2
GENIUS_GENOREF_13
 70
     0
  0
APPID
  2
GENIUS_GENSCREG_15
 70
     0
  0
APPID
  2
GENIUS_GENOBJ-N-SDF_13
 70
     0
  0
APPID
  2
GENIUS_GENFIL_13
 70
     0
  0
APPID
  2
GENIUS_GENOBJ-N-CHA_13
 70
     0
  0
APPID
  2
GENIUS_GENDTOL_13
 70
     0
  0
APPID
  2
GENIUS_GENOBJ-N-FIL_13
 70
     0
  0
APPID
  2
AD_DRAW
 70
     0
  0
APPID
  2
DESIGNERASSEMBLIES
 70
     0
  0
APPID
  2
ASURF_PCURVE_APPNAME
 70
     0
  0
APPID
  2
GENIUS_GE3SECT_13
 70
     0
  0
APPID
  2
GENIUS_GENCFG_13
 70
     0
  0
APPID
  2
GENIUS_GE3CFG0_13
 70
     0
  0
APPID
  2
GENIUS_GENCFG0_13
 70
     0
  0
APPID
  2
GENIUS_GENCFG1_13
 70
     0
  0
APPID
  2
GENIUS_GENCFG2_13
 70
     0
  0
APPID
  2
GENIUS_GENCFG3_13
 70
     0
  0
APPID
  2
GENIUS_GENCFG4_13
 70
     0
  0
APPID
  2
GENIUS_GEVCFG0_13
 70
     0
  0
APPID
  2
GENIUS_GENHINW_13
 70
     0
  0
APPID
  2
GENIUS_FIRSTVISTXT_14
 70
     0
  0
APPID
  2
GENIUS_GENOBJ-N-LEADER_13
 70
     0
  0
APPID
  2
GEV_VCCNULL_SWITCH_OFF
 70
     0
  0
APPID
  2
GENIUS_GEFCFG0_13
 70
     0
  0
APPID
  2
GENIUS_GENZVEED_13
 70
     0
  0
APPID
  2
GENIUS_GENSCREG_13
 70
     0
  0
APPID
  2
GENIUS_DUMCFG0_13
 70
     0
  0
APPID
  2
GEVID936201362
 70
     0
  0
APPID
  2
GEVDC
 70
     0
  0
APPID
  2
GEVCON
 70
     0
  0
APPID
  2
VCC
 70
     0
  0
APPID
  2
GEVPT
 70
     0
  0
APPID
  2
GEVIT
 70
     0
  0
APPID
  2
GENBH
 70
     0
  0
APPID
  2
GEVMK
 70
     0
  0
APPID
  2
GENIUS_GENBH_13
 70
     0
  0
APPID
  2
GENIUS_GENOBJ-NBEHI-BHF_13
 70
     0
  0
APPID
  2
GENIUS_GENOBJ-NBEHI-BHB_13
 70
     0
  0
APPID
  2
GENIUS_GENOBJ-F-DESC_13
 70
     0
  0
APPID
  2
GENIUS_GEFDESC_14
 70
     0
  0
APPID
  2
GENIUS_GENOBJ-F-PART_13
 70
     0
  0
APPID
  2
GENIUS_GEFSTDP_13
 70
     0
  0
APPID
  2
GENIUS_GEFPARTINS_13
 70
     0
  0
APPID
  2
GENIUS_GENTRA_14
 70
     0
  0
APPID
  2
GENIUS_GENINF13_13
 70
     0
  0
APPID
  2
GENIUS_GENOBJ-N-INFOPT_13
 70
     0
  0
APPID
  2
GENIUS_GENOBJ-N-RSSYM_13
 70
     0
  0
APPID
  2
GENIUS_GENSYMENT_13
 70
     0
  0
APPID
  2
GENIUS_GENSCSYM_13
 70
     0
  0
APPID
  2
GENIUS_GEFINFNAM_13
 70
     0
  0
APPID
  2
GENIUS_GENOBJ-N-CEN_13
 70
     0
  0
APPID
  2
GENIUS_GENOBJ-N-CRS_13
 70
     0
  0
APPID
  2
GENIUS_GENOBJ-N-CRC_13
 70
     0
  0
APPID
  2
GENIUS_GENCRC_14
 70
     0
  0
APPID
  2
GEVID942827039
 70
     0
  0
APPID
  2
GEVID942827040
 70
     0
  0
APPID
  2
GEVID942827041
 70
     0
  0
APPID
  2
GENIUS_GENOBJ-F-SCPASSM_13
 70
     0
  0
APPID
  2
GENIUS_GENDIMSH_14
 70
     0
  0
APPID
  2
GEVID942827042
 70
     0
  0
APPID
  2
GEVID946020473
 70
     0
  0
APPID
  2
GEVID946020474
 70
     0
  0
APPID
  2
GEVID946020475
 70
     0
  0
APPID
  2
GENIUS_GENOBJ-N-HTC_13
 70
     0
  0
APPID
  2
GENIUS_GENHATCH_13
 70
     0
  0
APPID
  2
GEVID948854295
 70
     0
  0
APPID
  2
GEVID939402019
 70
     0
  0
APPID
  2
GEVID952919491
 70
     0
  0
APPID
  2
GEVID952919492
 70
     0
  0
APPID
  2
GENIUS_GEFWELD_13
 70
     0
  0
APPID
  2
GENIUS_GENOBJ-F-WELS_13
 70
     0
  0
APPID
  2
GEVID952919493
 70
     0
  0
APPID
  2
GENIUS_GENOBJ-N-RSBK_13
 70
     0
  0
APPID
  2
GENIUS_GENOBJ-N-LIB_13
 70
     0
  0
APPID
  2
GENIUS_GENSCALE_13
 70
     0
  0
APPID
  2
GEVID986376691
 70
     0
  0
APPID
  2
DCO15
 70
     0
  0
APPID
  2
GEVID988070561
 70
     0
  0
APPID
  2
GEVID988070562
 70
     0
  0
APPID
  2
GEVID988070563
 70
     0
  0
APPID
  2
ACADM_DIM_EDIT
 70
     0
  0
APPID
  2
AMDT_DM_ADJ
 70
     0
  0
APPID
  2
ACAD_PSEXT
 70
     0
  0
APPID
  2
ACAD_DSTYLE_DIMJAG
 70
     0
  0
APPID
  2
ACAD_DSTYLE_DIMBREAK
 70
     0
  0
APPID
  2
ACAD_NAV_VCDISPLAY
 70
     0
  0
APPID
  2
ACADANNOPO
 70
     0
  0
APPID
  2
ACAD_EXEMPT_FROM_CAD_STANDARDS
 70
     0
  0
APPID
  2
ACAD_MLEADERVER
 70
     0
  0
ENDTAB
  0
TABLE
  2
DIMSTYLE
 70
    23
  0
DIMSTYLE
  2
STANDARD
 70
     0
  3

  4

  5

  6

  7

 40
1.0
 41
0.18
 42
0.0625
 43
0.38
 44
0.18
 45
0.0
 46
0.0
 47
0.0
 48
0.0
140
0.18
141
0.09
142
0.0
143
25.399999999999999
144
1.0
145
0.0
146
1.0
147
0.09
 71
     0
 72
     0
 73
     1
 74
     1
 75
     0
 76
     0
 77
     0
 78
     0
170
     0
171
     2
172
     0
173
     0
174
     0
175
     0
176
     0
177
     0
178
     0
  0
DIMSTYLE
  2
ANNOTATIVE
 70
     0
  3

  4

  5

  6

  7

 40
1.0
 41
0.18
 42
0.0625
 43
0.38
 44
0.18
 45
0.0
 46
0.0
 47
0.0
 48
0.0
140
0.18
141
0.09
142
0.0
143
25.399999999999999
144
1.0
145
0.0
146
1.0
147
0.09
 71
     0
 72
     0
 73
     1
 74
     1
 75
     0
 76
     0
 77
     0
 78
     0
170
     0
171
     2
172
     0
173
     0
174
     0
175
     0
176
     0
177
     0
178
     0
  0
DIMSTYLE
  2
AM_ISO
 70
     0
  3

  4
"
  5

  6

  7

 40
1.0
 41
2.5
 42
1.0
 43
8.0
 44
0.6
 45
0.0
 46
0.0
 47
0.1
 48
0.1
140
2.5
141
0.0
142
0.0
143
0.0393701
144
1.0
145
0.0
146
0.71
147
0.8
 71
     0
 72
     0
 73
     0
 74
     0
 75
     0
 76
     0
 77
     1
 78
     8
170
     0
171
     2
172
     1
173
     0
174
     0
175
     0
176
   256
177
   256
178
     4
  0
DIMSTYLE
  2
AM_ISO$3
 70
     0
  3

  4
"
  5

  6

  7

 40
1.0
 41
2.5
 42
1.0
 43
8.0
 44
0.6
 45
0.0
 46
0.0
 47
0.1
 48
0.1
140
2.5
141
0.0
142
0.0
143
0.0393701
144
1.0
145
0.0
146
0.71
147
0.8
 71
     0
 72
     0
 73
     0
 74
     1
 75
     0
 76
     0
 77
     1
 78
     8
170
     0
171
     2
172
     0
173
     0
174
     0
175
     0
176
   256
177
   256
178
     4
  0
DIMSTYLE
  2
AM_ISO$4
 70
     0
  3

  4
"
  5

  6

  7

 40
1.0
 41
2.5
 42
1.0
 43
8.0
 44
0.6
 45
0.0
 46
0.0
 47
0.1
 48
0.1
140
2.5
141
0.0
142
0.0
143
0.0393701
144
1.0
145
0.0
146
0.71
147
0.8
 71
     0
 72
     0
 73
     0
 74
     1
 75
     0
 76
     0
 77
     1
 78
     8
170
     0
171
     2
172
     0
173
     0
174
     0
175
     0
176
   256
177
   256
178
     4
  0
DIMSTYLE
  2
AM_ISO$6
 70
     0
  3

  4
"
  5

  6

  7

 40
1.0
 41
2.5
 42
1.0
 43
8.0
 44
0.6
 45
0.0
 46
0.0
 47
0.1
 48
0.1
140
2.5
141
0.0
142
0.0
143
0.0393701
144
1.0
145
0.0
146
0.71
147
0.8
 71
     0
 72
     0
 73
     0
 74
     0
 75
     0
 76
     0
 77
     0
 78
     8
170
     0
171
     2
172
     1
173
     0
174
     0
175
     0
176
   256
177
   256
178
     4
  0
DIMSTYLE
  2
AM_ISO$7
 70
     0
  3

  4
"
  5

  6

  7

 40
1.0
 41
2.5
 42
1.0
 43
8.0
 44
0.6
 45
0.0
 46
0.0
 47
0.1
 48
0.1
140
2.5
141
0.0
142
0.0
143
0.0393701
144
1.0
145
0.0
146
0.71
147
0.8
 71
     0
 72
     0
 73
     0
 74
     0
 75
     0
 76
     0
 77
     1
 78
     8
170
     0
171
     2
172
     1
173
     0
174
     0
175
     0
176
   256
177
   256
178
     4
  0
DIMSTYLE
  2
AM_ISO$SF
 70
     0
  3

  4
"
  5

  6

  7

 40
1.0
 41
2.5
 42
1.0
 43
10.0
 44
1.0
 45
0.0
 46
0.0
 47
0.1
 48
0.1
140
3.5
141
0.0
142
0.0
143
0.0393701
144
1.0
145
0.0
146
0.71
147
1.5
 71
     0
 72
     0
 73
     0
 74
     0
 75
     1
 76
     1
 77
     1
 78
     8
170
     0
171
     2
172
     1
173
     0
174
     0
175
     0
176
   256
177
   256
178
     2
  0
DIMSTYLE
  2
AM_ISO$SH
 70
     0
  3

  4
"
  5

  6

  7

 40
1.0
 41
2.5
 42
1.0
 43
10.0
 44
1.0
 45
0.0
 46
0.0
 47
0.1
 48
0.1
140
3.5
141
0.0
142
0.0
143
0.0393701
144
2.0
145
0.0
146
0.71
147
1.5
 71
     0
 72
     0
 73
     0
 74
     0
 75
     1
 76
     1
 77
     1
 78
     8
170
     0
171
     2
172
     1
173
     1
174
     0
175
     0
176
   256
177
   256
178
     2
  0
DIMSTYLE
  2
AM_JIS
 70
     0
  3

  4
"
  5

  6

  7

 40
1.0
 41
2.5
 42
1.0
 43
7.0
 44
1.0
 45
0.0
 46
0.0
 47
0.1
 48
0.1000000001
140
2.5
141
0.0
142
0.0
143
0.0393701
144
1.0
145
0.0
146
0.71
147
1.0
 71
     0
 72
     0
 73
     0
 74
     0
 75
     0
 76
     0
 77
     3
 78
     8
170
     0
171
     2
172
     1
173
     0
174
     0
175
     0
176
   256
177
   256
178
     4
  0
DIMSTYLE
  2
AM_JIS$3
 70
     0
  3

  4
"
  5

  6

  7

 40
1.0
 41
2.5
 42
1.0
 43
7.0
 44
1.0
 45
0.0
 46
0.0
 47
0.1
 48
0.1000000001
140
2.5
141
0.0
142
0.0
143
0.0393701
144
1.0
145
0.0
146
0.71
147
1.0
 71
     0
 72
     0
 73
     0
 74
     1
 75
     0
 76
     0
 77
     3
 78
     8
170
     0
171
     2
172
     0
173
     0
174
     0
175
     0
176
   256
177
   256
178
     4
  0
DIMSTYLE
  2
AM_JIS$4
 70
     0
  3

  4
"
  5

  6

  7

 40
1.0
 41
2.5
 42
1.0
 43
7.0
 44
1.0
 45
0.0
 46
0.0
 47
0.1
 48
0.1000000001
140
2.5
141
0.0
142
0.0
143
0.0393701
144
1.0
145
0.0
146
0.71
147
1.0
 71
     0
 72
     0
 73
     0
 74
     0
 75
     0
 76
     0
 77
     3
 78
     8
170
     0
171
     2
172
     0
173
     0
174
     0
175
     0
176
   256
177
   256
178
     4
  0
DIMSTYLE
  2
AM_JIS$6
 70
     0
  3

  4
"
  5

  6

  7

 40
1.0
 41
2.5
 42
1.0
 43
7.0
 44
1.0
 45
0.0
 46
0.0
 47
0.1
 48
0.1000000001
140
2.5
141
0.0
142
0.0
143
0.0393701
144
1.0
145
0.0
146
0.71
147
1.0
 71
     0
 72
     0
 73
     0
 74
     0
 75
     0
 76
     0
 77
     0
 78
     8
170
     0
171
     2
172
     1
173
     0
174
     0
175
     0
176
   256
177
   256
178
     4
  0
DIMSTYLE
  2
AM_JIS$7
 70
     0
  3

  4
"
  5

  6

  7

 40
1.0
 41
2.5
 42
1.0
 43
7.0
 44
1.0
 45
0.0
 46
0.0
 47
0.1
 48
0.1000000001
140
2.5
141
0.0
142
0.0
143
0.0393701
144
1.0
145
0.0
146
0.71
147
1.0
 71
     0
 72
     0
 73
     0
 74
     0
 75
     0
 76
     0
 77
     3
 78
     8
170
     0
171
     2
172
     1
173
     0
174
     0
175
     0
176
   256
177
   256
178
     4
  0
DIMSTYLE
  2
AM_JIS$SF
 70
     0
  3

  4
"
  5

  6

  7

 40
1.0
 41
2.5
 42
1.0
 43
10.0
 44
1.0
 45
0.0
 46
0.0
 47
0.1
 48
0.1
140
3.5
141
0.0
142
0.0
143
0.0393701
144
1.0
145
0.0
146
0.71
147
1.5
 71
     0
 72
     0
 73
     0
 74
     0
 75
     1
 76
     1
 77
     3
 78
     8
170
     0
171
     2
172
     1
173
     0
174
     0
175
     0
176
   256
177
   256
178
     4
  0
DIMSTYLE
  2
AM_JIS$SH
 70
     0
  3

  4
"
  5

  6

  7

 40
1.0
 41
2.5
 42
1.0
 43
10.0
 44
1.0
 45
0.0
 46
0.0
 47
0.1
 48
0.1
140
3.5
141
0.0
142
0.0
143
0.0393701
144
1.0
145
0.0
146
0.71
147
1.5
 71
     0
 72
     0
 73
     0
 74
     0
 75
     1
 76
     0
 77
     3
 78
     8
170
     0
171
     2
172
     1
173
     1
174
     0
175
     0
176
   256
177
   256
178
     4
  0
DIMSTYLE
  2
AM_ISO$0
 70
     0
  3

  4
"
  5

  6

  7

 40
1.0
 41
2.5
 42
1.0
 43
8.0
 44
0.6
 45
0.0
 46
0.0
 47
0.1
 48
0.1
140
2.5
141
0.0
142
0.0
143
0.0393701
144
1.0
145
0.0
146
0.71
147
0.8
 71
     0
 72
     0
 73
     0
 74
     0
 75
     0
 76
     0
 77
     1
 78
     8
170
     0
171
     2
172
     1
173
     0
174
     0
175
     0
176
   256
177
   256
178
     4
  0
DIMSTYLE
  2
AM_ANSI
 70
     0
  3

  4
mm
  5

  6

  7

 40
1.0
 41
0.12
 42
0.05
 43
0.5
 44
0.1
 45
0.0
 46
0.0
 47
0.1
 48
0.1
140
0.12
141
0.0
142
0.0
143
25.399999999999999
144
1.0
145
0.0
146
0.71
147
0.06
 71
     0
 72
     0
 73
     1
 74
     1
 75
     0
 76
     0
 77
     0
 78
     7
170
     0
171
     2
172
     0
173
     0
174
     0
175
     0
176
   256
177
   256
178
     2
  0
DIMSTYLE
  2
AM_ANSI$3
 70
     0
  3

  4
mm
  5

  6

  7

 40
1.0
 41
0.12
 42
0.05
 43
0.5
 44
0.1
 45
0.0
 46
0.0
 47
0.1
 48
0.1
140
0.12
141
0.0
142
0.0
143
25.399999999999999
144
1.0
145
0.0
146
0.71
147
0.06
 71
     0
 72
     0
 73
     1
 74
     1
 75
     0
 76
     0
 77
     0
 78
     7
170
     0
171
     2
172
     0
173
     0
174
     0
175
     0
176
   256
177
   256
178
     2
  0
DIMSTYLE
  2
AM_ANSI$4
 70
     0
  3

  4
mm
  5

  6

  7

 40
1.0
 41
0.12
 42
0.05
 43
0.5
 44
0.1
 45
0.0
 46
0.0
 47
0.1
 48
0.1
140
0.12
141
0.0
142
0.0
143
25.399999999999999
144
1.0
145
0.0
146
0.71
147
0.06
 71
     0
 72
     0
 73
     1
 74
     1
 75
     0
 76
     0
 77
     0
 78
     7
170
     0
171
     2
172
     0
173
     0
174
     0
175
     0
176
   256
177
   256
178
     2
  0
DIMSTYLE
  2
AM_ANSI$7
 70
     0
  3

  4
mm
  5

  6

  7

 40
1.0
 41
0.12
 42
0.05
 43
0.5
 44
0.1
 45
0.0
 46
0.0
 47
0.1
 48
0.1
140
0.12
141
0.0
142
0.0
143
25.399999999999999
144
1.0
145
0.0
146
0.71
147
0.06
 71
     0
 72
     0
 73
     1
 74
     1
 75
     0
 76
     0
 77
     0
 78
     7
170
     0
171
     2
172
     0
173
     0
174
     0
175
     0
176
   256
177
   256
178
     2
  0
DIMSTYLE
  2
AM_ANSI$SF
 70
     0
  3

  4
mm
  5

  6

  7

 40
1.0
 41
0.12
 42
0.05
 43
0.5
 44
0.1
 45
0.0
 46
0.0
 47
0.1
 48
0.1
140
0.12
141
0.0
142
0.0
143
25.399999999999999
144
1.0
145
0.0
146
0.71
147
0.06
 71
     0
 72
     0
 73
     1
 74
     1
 75
     1
 76
     1
 77
     0
 78
     7
170
     0
171
     2
172
     0
173
     0
174
     0
175
     0
176
   256
177
   256
178
     2
  0
DIMSTYLE
  2
AM_ANSI$SH
 70
     0
  3

  4
mm
  5

  6
GENAXEH
  7

 40
1.0
 41
0.12
 42
0.05
 43
0.5
 44
0.1
 45
0.0
 46
0.0
 47
0.1
 48
0.1
140
0.12
141
0.0
142
0.0
143
25.399999999999999
144
1.0
145
0.0
146
0.71
147
0.06
 71
     0
 72
     0
 73
     1
 74
     1
 75
     1
 76
     1
 77
     0
 78
     7
170
     0
171
     2
172
     0
173
     1
174
     0
175
     0
176
   256
177
   256
178
     2
  0
ENDTAB
  0
ENDSEC
  0
SECTION
  2
BLOCKS
  0
BLOCK
  8
0
  2
$MODEL_SPACE
 70
     0
 10
0.0
 20
0.0
 30
0.0
  3
$MODEL_SPACE
  1

  0
ENDBLK
  5
6443
  8
0
  0
BLOCK
 67
     1
  8
0
  2
$PAPER_SPACE
 70
     0
 10
0.0
 20
0.0
 30
0.0
  3
$PAPER_SPACE
  1

  0
ENDBLK
  5
643F
 67
     1
  8
0
  0
BLOCK
  8
0
  2
GENAXEH
 70
     0
 10
0.0
 20
0.0
 30
0.0
  3
GENAXEH
  1

  0
LINE
  5
73
  8
0
 10
-1.0
 20
0.0
 30
0.0
 11
1.0
 21
0.0
 31
0.0
  0
ENDBLK
  5
75
  8
0
  0
BLOCK
  8
0
  2
_OPEN30
 70
     0
 10
0.0
 20
0.0
 30
0.0
  3
_OPEN30
  1

  0
LINE
  5
31A
  8
0
 62
     0
 10
-1.0
 20
0.26794919
 30
0.0
 11
0.0
 21
0.0
 31
0.0
  0
LINE
  5
31B
  8
0
 62
     0
 10
0.0
 20
0.0
 30
0.0
 11
-1.0
 21
-0.26794919
 31
0.0
  0
LINE
  5
31C
  8
0
 62
     0
 10
0.0
 20
0.0
 30
0.0
 11
-1.0
 21
0.0
 31
0.0
  0
ENDBLK
  5
31E
  8
0
  0
BLOCK
  8
0
  2
_NONE
 70
     0
 10
0.0
 20
0.0
 30
0.0
  3
_NONE
  1

  0
ENDBLK
  5
579
  8
0
  0
BLOCK
  8
0
  2
*U5
 70
     1
 10
0.0
 20
0.0
 30
0.0
  3
*U5
  1

  0
TEXT
  5
634E
  8
AM_0
 10
549.59418154633795
 20
550.59411162396236
 30
0.0
 40
10.0
  1
ＶＸ０２－０８０～１００ＢＷ
 41
0.8299999999999999
  0
ENDBLK
  5
6350
  8
0
  0
BLOCK
  8
0
  2
_ACMFILLEDHALF
 70
     0
 10
0.0
 20
0.0
 30
0.0
  3
_ACMFILLEDHALF
  1

  0
TRACE
  5
6547
  8
AM_0
 62
     0
 10
-0.8
 20
0.0
 30
0.0
 11
-1.0
 21
0.166666666
 31
0.0
 12
0.0
 22
0.0
 32
0.0
 13
0.0
 23
0.0
 33
0.0
  0
LINE
  5
6548
  8
AM_0
 62
     0
 10
-1.0
 20
0.0
 30
0.0
 11
-0.8
 21
0.0
 31
0.0
  0
ENDBLK
  5
6546
  8
0
  0
ENDSEC
  0
SECTION
  2
ENTITIES
  0
LINE
  5
253E
  8
AM_0
 10
566.71991483667534
 20
301.03820305572037
 30
0.0
 11
566.71991483667534
 21
302.23165977806298
 31
0.0
  0
LINE
  5
2541
  8
AM_0
 10
565.71991483667534
 20
302.23165977806298
 30
0.0
 11
566.71991483667534
 21
302.23165977806298
 31
0.0
  0
LINE
  5
25A1
  8
AM_0
 10
527.71991483667534
 20
222.73165977806309
 30
0.0
 11
558.61683232874486
 21
223.81060391180921
 31
0.0
  0
LINE
  5
25A2
  8
AM_0
 10
565.71991483667534
 20
291.5075585055335
 30
0.0
 11
565.71991483667534
 21
311.47329298776259
 31
0.0
  0
LINE
  5
25A4
  8
AM_0
 10
563.78971383008025
 20
313.47207464180087
 30
0.0
 11
527.71991483667534
 21
314.7316597780632
 31
0.0
  0
ARC
  5
25A5
  8
AM_0
 10
563.71991483667557
 20
311.47329298776259
 30
0.0
 40
2.0
 50
0.0
 51
87.999999999999659
1001
GENIUS_GENOBJ-N-FIL_13
1002
{
1000
OWNER
1000
GEN
1002
}
1001
GENIUS_GENODEF_13
1002
{
1000
HIER
1070
     0
1002
}
1002
{
1000
MANEDIT
1070
     0
1002
}
1002
{
1000
NOSEL
1070
     0
1002
}
1002
{
1000
BEHIND
1070
     0
1002
}
1002
{
1000
OTHER
1070
     0
1002
}
1002
{
1000
REACTOR
1002
}
  0
LINE
  5
25A6
  8
AM_0
 10
527.71991483667534
 20
314.7316597780632
 30
0.0
 11
527.71991483667534
 21
222.73165977806289
 31
0.0
  0
LINE
  5
25A7
  8
ﾁｭｳｼﾝｾﾝ1
 10
516.71991483667534
 20
227.7316597780638
 30
0.0
 11
532.54743784921209
 21
227.7316597780636
 31
0.0
  0
LINE
  5
25A9
  8
AM_0
 10
523.71991483667534
 20
314.7316597780632
 30
0.0
 11
523.71991483667534
 21
293.91715487853071
 31
0.0
  0
LINE
  5
25AA
  8
AM_0
 10
523.71991483667534
 20
243.5461646775955
 30
0.0
 11
523.71991483667534
 21
222.73165977806389
 31
0.0
  0
LINE
  5
25AB
  8
AM_0
 10
519.71991483667534
 20
308.59587810890253
 30
0.0
 11
519.71991483667534
 21
228.8674414472236
 31
0.0
  0
LINE
  5
25AC
  8
AM_0
 10
521.66097732454728
 20
231.63901475037011
 30
0.0
 11
522.71991483667534
 21
231.7316597780636
 31
0.0
  0
LINE
  5
25AD
  8
AM_0
 10
521.66097732454728
 20
223.82430480575729
 30
0.0
 11
522.71991483667534
 21
223.73165977806369
 31
0.0
  0
ARC
  5
25AE
  8
AM_0
 10
526.11991483667555
 20
227.7316597780636
 30
0.0
 40
6.5
 50
151.82726586813479
 51
208.1727341318651
  0
ARC
  5
25AF
  8
AM_0
 10
521.80042651294389
 20
225.41821632270401
 30
0.0
 40
1.6000000000000001
 50
208.1727341318651
 51
265.00000000000028
  0
LINE
  5
25B0
  8
AM_0
 10
520.04044117524711
 20
230.03165977806361
 30
0.0
 11
522.33000085404262
 21
227.7316597780636
 31
0.0
  0
LINE
  5
25B1
  8
AM_0
 10
522.01991483667507
 20
228.04315977806371
 30
0.0
 11
522.01991483667507
 21
227.42015977806361
 31
0.0
  0
LINE
  5
25B2
  8
AM_0
 10
520.04044117524711
 20
225.4316597780637
 30
0.0
 11
522.33000085404262
 21
227.7316597780636
 31
0.0
  0
LINE
  5
25B3
  8
AM_0
 10
519.62738314634066
 20
228.04315977806371
 30
0.0
 11
522.01991483667507
 21
228.04315977806371
 31
0.0
  0
LINE
  5
25B4
  8
AM_0
 10
519.62738314634066
 20
227.42015977806361
 30
0.0
 11
522.01991483667507
 21
227.42015977806361
 31
0.0
  0
ARC
  5
25B5
  8
AM_0
 10
521.80042651294389
 20
230.0451032334233
 30
0.0
 40
1.6000000000000001
 50
94.99999999999973
 51
151.82726586813479
  0
LINE
  5
25B6
  8
AM_0
 10
523.71991483667534
 20
314.7316597780632
 30
0.0
 11
527.71991483667534
 21
314.7316597780632
 31
0.0
  0
LINE
  5
25B7
  8
AM_0
 10
522.71991483667523
 20
313.73165977806292
 30
0.0
 11
523.71991483667534
 21
314.7316597780632
 31
0.0
  0
LINE
  5
25B8
  8
AM_0
 10
527.71991483667534
 20
222.73165977806289
 30
0.0
 11
523.71991483667534
 21
222.73165977806389
 31
0.0
  0
LINE
  5
25B9
  8
AM_0N
 10
523.71991483667534
 20
231.5316597780637
 30
0.0
 11
522.71991483667534
 21
231.5316597780637
 31
0.0
  0
LINE
  5
25BA
  8
AM_0N
 10
522.71991483667534
 20
227.9316597780637
 30
0.0
 11
523.71991483667534
 21
228.29563001232989
 31
0.0
  0
LINE
  5
25BB
  8
AM_0N
 10
522.71991483667534
 20
227.5316597780637
 30
0.0
 11
523.71991483667534
 21
227.89563001232989
 31
0.0
  0
LINE
  5
25BC
  8
AM_0N
 10
522.71991483667534
 20
223.73165977806369
 30
0.0
 11
522.71991483667534
 21
231.7316597780636
 31
0.0
  0
LINE
  5
25BD
  8
AM_0N
 10
522.71991483667534
 20
223.9316597780637
 30
0.0
 11
523.71991483667534
 21
223.9316597780637
 31
0.0
  0
LINE
  5
25BE
  8
AM_0
 10
519.71991483667534
 20
243.54616467759541
 30
0.0
 11
523.71991483667534
 21
243.5461646775955
 31
0.0
  0
LINE
  5
25BF
  8
AM_0
 10
523.71991483667534
 20
241.8893104281029
 30
0.0
 11
519.71991483667534
 21
243.54616467759541
 31
0.0
  0
LINE
  5
25C0
  8
AM_0
 10
519.71991483667534
 20
293.91715487853071
 30
0.0
 11
523.71991483667534
 21
293.91715487853071
 31
0.0
  0
LINE
  5
25C1
  8
AM_0
 10
523.71991483667534
 20
295.57400912802331
 30
0.0
 11
519.71991483667534
 21
293.91715487853071
 31
0.0
  0
LINE
  5
25C6
  8
ﾁｭｳｼﾝｾﾝ1
 10
516.71991483667534
 20
309.73165977806229
 30
0.0
 11
532.54743784921209
 21
309.73165977806252
 31
0.0
  0
LINE
  5
25C7
  8
AM_0
 10
521.66097732454728
 20
305.82430480575601
 30
0.0
 11
522.71991483667534
 21
305.73165977806252
 31
0.0
  0
LINE
  5
25C8
  8
AM_0
 10
521.66097732454728
 20
313.63901475036891
 30
0.0
 11
522.71991483667534
 21
313.73165977806252
 31
0.0
  0
ARC
  5
25C9
  8
AM_0
 10
526.11991483667555
 20
309.73165977806252
 30
0.0
 40
6.5
 50
151.82726586813479
 51
208.1727341318651
  0
ARC
  5
25CA
  8
AM_0
 10
521.80042651294389
 20
312.0451032334222
 30
0.0
 40
1.6000000000000001
 50
94.999999999999758
 51
151.82726586813479
  0
LINE
  5
25CB
  8
AM_0
 10
520.04044117524711
 20
307.43165977806262
 30
0.0
 11
522.33000085404262
 21
309.73165977806252
 31
0.0
  0
LINE
  5
25CC
  8
AM_0
 10
522.01991483667507
 20
309.4201597780625
 30
0.0
 11
522.01991483667507
 21
310.04315977806249
 31
0.0
  0
LINE
  5
25CD
  8
AM_0
 10
520.04044117524711
 20
312.03165977806248
 30
0.0
 11
522.33000085404262
 21
309.73165977806252
 31
0.0
  0
LINE
  5
25CE
  8
AM_0
 10
519.62738314634066
 20
309.4201597780625
 30
0.0
 11
522.01991483667507
 21
309.4201597780625
 31
0.0
  0
LINE
  5
25CF
  8
AM_0
 10
519.62738314634066
 20
310.04315977806249
 30
0.0
 11
522.01991483667507
 21
310.04315977806249
 31
0.0
  0
ARC
  5
25D0
  8
AM_0
 10
521.80042651294389
 20
307.4182163227029
 30
0.0
 40
1.6000000000000001
 50
208.1727341318651
 51
265.00000000000028
  0
LINE
  5
25D1
  8
AM_0N
 10
523.71991483667534
 20
305.9316597780624
 30
0.0
 11
522.71991483667534
 21
305.9316597780624
 31
0.0
  0
LINE
  5
25D2
  8
AM_0N
 10
522.71991483667534
 20
309.53165977806248
 30
0.0
 11
523.71991483667534
 21
309.16768954379631
 31
0.0
  0
LINE
  5
25D3
  8
AM_0N
 10
522.71991483667534
 20
309.9316597780624
 30
0.0
 11
523.71991483667534
 21
309.56768954379618
 31
0.0
  0
LINE
  5
25D4
  8
AM_0N
 10
522.71991483667534
 20
313.73165977806252
 30
0.0
 11
522.71991483667534
 21
305.73165977806252
 31
0.0
  0
LINE
  5
25D5
  8
AM_0N
 10
522.71991483667534
 20
313.53165977806248
 30
0.0
 11
523.71991483667534
 21
313.53165977806248
 31
0.0
  0
LINE
  5
3274
  8
ﾁｭｳｼﾝｾﾝ
 10
586.26421209337889
 20
288.73166077806309
 30
0.0
 11
683.17561757997214
 21
288.73166077806309
 31
0.0
  0
LINE
  5
327B
  8
ﾁｭｳｼﾝｾﾝ
 10
437.07728672716991
 20
288.73166077806309
 30
0.0
 11
306.200553661252
 21
288.73166077806309
 31
0.0
  0
LINE
  5
327C
  8
ﾁｭｳｼﾝｾﾝ
 10
634.71991483667546
 20
379.0391243650979
 30
0.0
 11
634.71991483667546
 21
189.497387778063
 31
0.0
  0
LINE
  5
327E
  8
AM_0
 10
577.16208583667537
 20
307.75155577806322
 30
0.0
 11
581.74248583667554
 21
311.26626577806297
 31
0.0
  0
LINE
  5
327F
  8
AM_0
 10
581.74248583667554
 20
311.26623577806288
 30
0.0
 11
580.98888583667531
 21
316.99035577806308
 31
0.0
  0
LINE
  5
3280
  8
AM_0
 10
580.98888583667531
 20
316.99032577806292
 30
0.0
 11
575.65488583667536
 21
319.19976577806312
 31
0.0
  0
LINE
  5
3281
  8
AM_0
 10
575.65491583667563
 20
319.19976577806312
 30
0.0
 11
571.07445583667527
 21
315.68508577806318
 31
0.0
  0
LINE
  5
3282
  8
AM_0
 10
571.07445583667527
 20
315.68508577806318
 30
0.0
 11
571.82802583667569
 21
309.96096577806293
 31
0.0
  0
LINE
  5
3283
  8
AM_0
 10
571.82802583667569
 20
309.96096577806293
 30
0.0
 11
577.16205583667556
 21
307.75152577806318
 31
0.0
  0
LINE
  5
3284
  8
AM_0
 10
687.69739183667559
 20
311.26614577806288
 30
0.0
 11
692.27782183667534
 21
307.75146577806311
 31
0.0
  0
LINE
  5
3285
  8
AM_0
 10
688.45096483667544
 20
316.99026577806308
 30
0.0
 11
687.69736183667555
 21
311.26614577806288
 31
0.0
  0
LINE
  5
3286
  8
AM_0
 10
693.78500983667527
 20
319.19970577806311
 30
0.0
 11
688.4509798366754
 21
316.99029577806311
 31
0.0
  0
LINE
  5
3287
  8
AM_0
 10
698.36543983667559
 20
315.68499577806318
 30
0.0
 11
693.78500983667527
 21
319.19967577806312
 31
0.0
  0
LINE
  5
3288
  8
AM_0
 10
692.27782183667534
 20
307.75149577806292
 30
0.0
 11
697.61185183667544
 21
309.96090577806302
 31
0.0
  0
LINE
  5
3289
  8
AM_0
 10
658.26674383667557
 20
204.34121677806311
 30
0.0
 11
657.51315883667553
 21
198.61710877806311
 31
0.0
  0
LINE
  5
328A
  8
AM_0
 10
657.51317383667549
 20
198.61709377806309
 30
0.0
 11
662.09360083667525
 21
195.102416778063
 31
0.0
  0
LINE
  5
328B
  8
AM_0
 10
663.6008038366756
 20
206.5506417780631
 30
0.0
 11
658.26677383667561
 21
204.34121677806311
 31
0.0
  0
LINE
  5
328C
  8
AM_0
 10
668.18121883667538
 20
203.03593177806309
 30
0.0
 11
663.60078883667563
 21
206.5506267780631
 31
0.0
  0
LINE
  5
328D
  8
AM_0
 10
662.09360083667525
 20
195.10243177806291
 30
0.0
 11
667.42763083667535
 21
197.31185677806309
 31
0.0
  0
LINE
  5
328E
  8
AM_0
 10
667.42760083667531
 20
197.3118417780631
 30
0.0
 11
668.18120383667554
 21
203.0359497780631
 31
0.0
  0
LINE
  5
328F
  8
AM_0
 10
611.92667083667561
 20
198.6171237780631
 30
0.0
 11
611.17306783667561
 21
204.3412317780631
 31
0.0
  0
LINE
  5
3290
  8
AM_0
 10
607.34622583667533
 20
195.10243177806291
 30
0.0
 11
611.92667083667561
 21
198.61710877806311
 31
0.0
  0
LINE
  5
3291
  8
AM_0
 10
611.17309783667554
 20
204.34120177806309
 30
0.0
 11
605.83908283667529
 21
206.5506267780631
 31
0.0
  0
LINE
  5
3292
  8
AM_0
 10
605.83905283667536
 20
206.5506417780631
 30
0.0
 11
601.25863783667535
 21
203.0359497780631
 31
0.0
  0
LINE
  5
3293
  8
AM_0
 10
602.01224083667535
 20
197.31182677806291
 30
0.0
 11
607.34625583667525
 21
195.10239877806291
 31
0.0
  0
LINE
  5
3294
  8
AM_0
 10
601.2586078366752
 20
203.035964778063
 30
0.0
 11
602.01221083667554
 21
197.31185677806309
 31
0.0
  0
LINE
  5
32A0
  8
AM_0
 10
335.10123969078342
 20
319.24917577806298
 30
0.0
 11
338.10123969078342
 21
319.24917577806298
 31
0.0
  0
LINE
  5
32A1
  8
AM_0
 10
335.10123969078342
 20
307.70214577806303
 30
0.0
 11
338.10123969078342
 21
307.70214577806303
 31
0.0
  0
LINE
  5
32A2
  8
AM_0
 10
335.10123969078342
 20
310.5888957780632
 30
0.0
 11
338.10123969078342
 21
310.5888957780632
 31
0.0
  0
LINE
  5
32A3
  8
AM_0
 10
335.10123969078342
 20
316.3623957780631
 30
0.0
 11
338.10123969078342
 21
316.3623957780631
 31
0.0
  0
LINE
  5
32A4
  8
AM_0
 10
339.10122969078321
 20
308.70210577806318
 30
0.0
 11
339.10122969078321
 21
318.24915577806303
 31
0.0
  0
LINE
  5
32A5
  8
AM_0
 10
335.10123969078342
 20
320.24916577806312
 30
0.0
 11
335.10123969078342
 21
306.70215577806312
 31
0.0
  0
LINE
  5
32A6
  8
AM_0
 10
698.36537683667541
 20
315.68505577806297
 30
0.0
 11
697.61179183667559
 21
309.96096577806293
 31
0.0
  0
LINE
  5
32A7
  8
AM_0
 10
334.10130969078318
 20
320.24916577806312
 30
0.0
 11
335.10123969078342
 21
320.24916577806312
 31
0.0
  0
LINE
  5
32A8
  8
AM_0
 10
334.10130969078318
 20
306.70215577806312
 30
0.0
 11
335.10123969078342
 21
306.70215577806312
 31
0.0
  0
LINE
  5
32A9
  8
AM_0
 10
311.10123969078342
 20
318.3988257780631
 30
0.0
 11
311.10123969078342
 21
298.75971577806303
 31
0.0
  0
LINE
  5
32AA
  8
ﾁｭｳｼﾝｾﾝ
 10
93.780640771227226
 20
268.73165977806309
 30
0.0
 11
320.52718942200602
 21
268.73165977806309
 31
0.0
  0
LINE
  5
32AB
  8
AM_0
 10
285.10122969078321
 20
324.73167577806311
 30
0.0
 11
311.23215969078331
 21
325.41591577806292
 31
0.0
  0
LINE
  5
32AC
  8
AM_0
 10
285.1012896907834
 20
212.73167377806311
 30
0.0
 11
308.17977969078322
 21
212.12733277806311
 31
0.0
  0
LINE
  5
32AD
  8
AM_0
 10
285.1012896907834
 20
212.73165877806301
 30
0.0
 11
285.1012896907834
 21
324.73167577806311
 31
0.0
  0
LINE
  5
32AE
  8
AM_0
 10
318.1012896907834
 20
339.73167577806311
 30
0.0
 11
323.1012396907833
 21
339.73167577806311
 31
0.0
  0
LINE
  5
32AF
  8
AM_0
 10
316.10130969078318
 20
337.73166577806307
 30
0.0
 11
316.10130969078318
 21
322.39881577806312
 31
0.0
  0
LINE
  5
32B1
  8
AM_0
 10
712.71991483667534
 20
205.73167177806309
 30
0.0
 11
701.95149883667546
 21
308.36184577806318
 31
0.0
  0
LINE
  5
32B2
  8
AM_0
 10
680.71992883667554
 20
196.731671778063
 30
0.0
 11
676.71991483667546
 21
196.731671778063
 31
0.0
  0
LINE
  5
32B3
  8
AM_0
 10
681.71991583667557
 20
194.7316887780631
 30
0.0
 11
587.71995583667535
 21
194.7316887780631
 31
0.0
  0
LINE
  5
32B4
  8
AM_0
 10
592.71991183667535
 20
196.731671778063
 30
0.0
 11
588.71991283667569
 21
196.731671778063
 31
0.0
  0
LINE
  5
32B5
  8
AM_0
 10
673.71991483667534
 20
205.73167177806309
 30
0.0
 11
673.71991483667534
 21
199.731671778063
 31
0.0
  0
LINE
  5
32B6
  8
AM_0
 10
682.71991483667534
 20
193.731671778063
 30
0.0
 11
682.71991483667534
 21
203.7316887780631
 31
0.0
  0
LINE
  5
32B7
  8
ﾁｭｳｼﾝｾﾝ1
 10
569.71992583667554
 20
210.27712777806309
 30
0.0
 11
569.71992583667554
 21
189.186215778063
 31
0.0
  0
LINE
  5
32B8
  8
ﾁｭｳｼﾝｾﾝ1
 10
699.71993083667553
 20
210.27712777806309
 30
0.0
 11
699.71993083667553
 21
189.186215778063
 31
0.0
  0
LINE
  5
32B9
  8
AM_0
 10
600.71991283667569
 20
210.73167277806311
 30
0.0
 11
668.71992883667554
 21
210.73167277806311
 31
0.0
  0
LINE
  5
32BA
  8
ﾁｭｳｼﾝｾﾝ1
 10
376.10127969078309
 20
210.27712777806309
 30
0.0
 11
376.10127969078309
 21
190.2987551318987
 31
0.0
  0
LINE
  5
32BB
  8
AM_0
 10
294.10128969078318
 20
193.731671778063
 30
0.0
 11
319.10130969078318
 21
193.731671778063
 31
0.0
  0
LINE
  5
32BC
  8
AM_0
 10
296.1012396907833
 20
205.73167177806309
 30
0.0
 11
315.0506496907833
 21
205.73167177806309
 31
0.0
  0
LINE
  5
32BD
  8
AM_0
 10
363.10125969078331
 20
193.731671778063
 30
0.0
 11
388.10127969078309
 21
193.731671778063
 31
0.0
  0
LINE
  5
32BE
  8
ﾁｭｳｼﾝｾﾝ1
 10
306.1012896907834
 20
210.277127778063
 30
0.0
 11
306.1012896907834
 21
190.2987551318987
 31
0.0
  0
LINE
  5
32BF
  8
AM_0
 10
323.1012396907833
 20
339.73167577806311
 30
0.0
 11
323.1012396907833
 21
224.58881977806311
 31
0.0
  0
LINE
  5
32C0
  8
AM_0
 10
323.10129969078321
 20
339.73167577806311
 30
0.0
 11
367.23216969078322
 21
338.57604577806308
 31
0.0
  0
LINE
  5
32C1
  8
AM_0
 10
376.66548969078332
 20
322.46970577806297
 30
0.0
 11
382.36275969078321
 21
321.97125577806321
 31
0.0
  0
LINE
  5
32C2
  8
AM_0
 10
385.1012796907832
 20
318.98265577806308
 30
0.0
 11
385.1012796907832
 21
209.47622677806299
 31
0.0
  0
LINE
  5
32C3
  8
AM_0
 10
294.10128969078318
 20
203.73165877806301
 30
0.0
 11
294.10128969078318
 21
193.731671778063
 31
0.0
  0
LINE
  5
32C4
  8
AM_0
 10
320.10123969078342
 20
194.73165877806301
 30
0.0
 11
362.10123969078342
 21
194.73165877806301
 31
0.0
  0
LINE
  5
32C5
  8
AM_0
 10
388.10127969078309
 20
203.73165877806301
 30
0.0
 11
388.10127969078309
 21
193.731671778063
 31
0.0
  0
LINE
  5
32C6
  8
AM_0
 10
326.10123969078342
 20
208.731671778063
 30
0.0
 11
326.10123969078342
 21
238.731674778063
 31
0.0
  0
LINE
  5
32C7
  8
ｶｸﾚｾﾝ2
 10
312.1012896907834
 20
205.73167177806309
 30
0.0
 11
312.1012896907834
 21
193.731671778063
 31
0.0
  0
LINE
  5
32C8
  8
ｶｸﾚｾﾝ2
 10
300.1012896907834
 20
205.73167177806309
 30
0.0
 11
300.1012896907834
 21
193.731671778063
 31
0.0
  0
LINE
  5
32C9
  8
ｶｸﾚｾﾝ2
 10
575.71995583667535
 20
205.73167177806309
 30
0.0
 11
575.71995583667535
 21
193.731671778063
 31
0.0
  0
LINE
  5
32CA
  8
ｶｸﾚｾﾝ2
 10
563.71995583667535
 20
205.73167177806309
 30
0.0
 11
563.71995583667535
 21
193.731671778063
 31
0.0
  0
LINE
  5
32CB
  8
AM_0
 10
556.71990583667525
 20
193.731671778063
 30
0.0
 11
556.71990583667525
 21
205.73167177806309
 31
0.0
  0
LINE
  5
32CC
  8
AM_0
 10
556.71990583667525
 20
193.731671778063
 30
0.0
 11
586.71990583667548
 21
193.731671778063
 31
0.0
  0
LINE
  5
32CD
  8
AM_0
 10
584.71995583667535
 20
205.73167177806309
 30
0.0
 11
558.71991583667534
 21
205.73167177806309
 31
0.0
  0
LINE
  5
32CE
  8
AM_0
 10
326.10123969078342
 20
275.94793777806302
 30
0.0
 11
326.10123969078342
 21
239.25613477806311
 31
0.0
  0
LINE
  5
32CF
  8
AM_0
 10
364.1012796907832
 20
205.73167177806309
 30
0.0
 11
386.10123969078342
 21
205.73167177806309
 31
0.0
  0
LINE
  5
32D0
  8
AM_0
 10
315.0506496907833
 20
205.73167177806309
 30
0.0
 11
323.1012396907833
 21
205.73167177806309
 31
0.0
  0
LINE
  5
32D1
  8
ｶｸﾚｾﾝ2
 10
382.10127969078309
 20
205.73167177806309
 30
0.0
 11
382.10127969078309
 21
193.731671778063
 31
0.0
  0
LINE
  5
32D2
  8
ｶｸﾚｾﾝ2
 10
693.71991583667545
 20
205.73167177806309
 30
0.0
 11
693.71991583667545
 21
193.731671778063
 31
0.0
  0
LINE
  5
32D3
  8
AM_0
 10
337.10130969078318
 20
320.25912577806309
 30
0.0
 11
372.10125969078342
 21
320.25912577806309
 31
0.0
  0
LINE
  5
32D4
  8
ｶｸﾚｾﾝ2
 10
370.1012796907832
 20
205.73167177806309
 30
0.0
 11
370.1012796907832
 21
193.731671778063
 31
0.0
  0
LINE
  5
32D5
  8
AM_0
 10
319.10130969078318
 20
193.731671778063
 30
0.0
 11
319.10130969078318
 21
193.731671778063
 31
0.0
  0
LINE
  5
32D6
  8
AM_0
 10
359.10123969078347
 20
298.52247577806321
 30
0.0
 11
359.10123969078347
 21
210.73167277806311
 31
0.0
  0
LINE
  5
32D7
  8
AM_0
 10
556.71990583667525
 20
205.73167177806309
 30
0.0
 11
567.48834583667519
 21
308.36184577806318
 31
0.0
  0
LINE
  5
32D8
  8
AM_0
 10
372.10125969078342
 20
333.57777577806303
 30
0.0
 11
372.10125969078342
 21
224.77247677806301
 31
0.0
  0
LINE
  5
32D9
  8
ｶｸﾚｾﾝ2
 10
705.71993083667553
 20
205.73167177806309
 30
0.0
 11
705.71993083667553
 21
193.731671778063
 31
0.0
  0
LINE
  5
32DA
  8
AM_0
 10
712.71991483667534
 20
193.731671778063
 30
0.0
 11
682.71991483667534
 21
193.731671778063
 31
0.0
  0
LINE
  5
32DB
  8
AM_0
 10
684.71991583667557
 20
205.73167177806309
 30
0.0
 11
710.71993183667553
 21
205.73167177806309
 31
0.0
  0
LINE
  5
32DC
  8
AM_0
 10
359.10123969078347
 20
220.772489778063
 30
0.0
 11
368.10123969078342
 21
220.772489778063
 31
0.0
  0
LINE
  5
32DD
  8
AM_0
 10
595.71991183667535
 20
205.73167177806309
 30
0.0
 11
595.71991183667535
 21
199.731671778063
 31
0.0
  0
LINE
  5
32DE
  8
AM_0
 10
586.71990583667548
 20
193.731671778063
 30
0.0
 11
586.71990583667548
 21
203.7316887780631
 31
0.0
  0
LINE
  5
32DF
  8
AM_0
 10
687.71991583667557
 20
303.98421577806312
 30
0.0
 11
687.71991583667557
 21
242.73165877806301
 31
0.0
  0
LINE
  5
32E0
  8
AM_0
 10
712.71991483667534
 20
193.731671778063
 30
0.0
 11
712.71991483667534
 21
205.73167177806309
 31
0.0
  0
LINE
  5
32E1
  8
AM_0
 10
367.10127969078309
 20
306.52245577806292
 30
0.0
 11
372.10125969078342
 21
306.52245577806292
 31
0.0
  0
LINE
  5
32E2
  8
AM_0
 10
581.71995583667547
 20
303.98421577806312
 30
0.0
 11
581.71995583667547
 21
242.73165877806301
 31
0.0
  0
LINE
  5
32E3
  8
AM_0
 10
586.71990583667548
 20
273.73166077806309
 30
0.0
 11
586.71990583667548
 21
210.73167277806311
 31
0.0
  0
LINE
  5
32E4
  8
AM_0
 10
682.71991483667534
 20
273.73166077806309
 30
0.0
 11
682.71991483667534
 21
210.73167277806311
 31
0.0
  0
LINE
  5
32E5
  8
AM_0
 10
363.10125969078331
 20
193.731671778063
 30
0.0
 11
363.10125969078331
 21
193.731671778063
 31
0.0
  0
LINE
  5
32E6
  8
AM_0
 10
319.94181969078312
 20
209.69415277806311
 30
0.0
 11
325.99239969078332
 21
238.21861177806301
 31
0.0
  0
LINE
  5
32E7
  8
AM_0
 10
334.10130969078318
 20
325.25844577806311
 30
0.0
 11
334.10130969078318
 21
302.35641577806319
 31
0.0
  0
LINE
  5
32EA
  8
AM_0
 10
337.10130969078318
 20
339.28650577806297
 30
0.0
 11
337.10130969078318
 21
320.25912577806309
 31
0.0
  0
LINE
  5
32EB
  8
AM_0
 10
337.10124969078322
 20
339.28650577806297
 30
0.0
 11
350.68320969078331
 21
320.25912577806309
 31
0.0
  0
LINE
  5
32EC
  8
AM_0
 10
337.10130969078318
 20
302.08038577806298
 30
0.0
 11
337.10130969078318
 21
275.94793777806302
 31
0.0
  0
LINE
  5
32ED
  8
AM_0
 10
349.93089969078341
 20
302.08038577806298
 30
0.0
 11
337.10124969078322
 21
275.94793777806302
 31
0.0
  0
LINE
  5
32EE
  8
AM_0
 10
326.10123969078342
 20
275.94793777806302
 30
0.0
 11
337.10130969078318
 21
275.94793777806302
 31
0.0
  0
LINE
  5
32EF
  8
AM_0
 10
337.10130969078318
 20
302.08038577806298
 30
0.0
 11
359.93598969078317
 21
302.08038577806298
 31
0.0
  0
LINE
  5
32F0
  8
AM_0
 10
313.10130969078318
 20
320.39880577806292
 30
0.0
 11
314.10123969078342
 21
320.39880577806292
 31
0.0
  0
LINE
  5
32F1
  8
AM_0
 10
311.10123969078342
 20
219.51593077806311
 30
0.0
 11
316.10130969078318
 21
219.51593077806311
 31
0.0
  0
LINE
  5
32F2
  8
AM_0
 10
311.10123969078342
 20
296.75970577806322
 30
0.0
 11
316.10130969078318
 21
296.75970577806322
 31
0.0
  0
LINE
  5
32F3
  8
AM_0
 10
313.10130969078318
 20
312.22602577806322
 30
0.0
 11
314.10123969078342
 21
312.22602577806322
 31
0.0
  0
LINE
  5
32F4
  8
AM_0
 10
316.10130969078318
 20
310.22601577806307
 30
0.0
 11
316.10130969078318
 21
205.86158677806301
 31
0.0
  0
LINE
  5
32F5
  8
AM_0
 10
311.10123969078342
 20
217.51591477806309
 30
0.0
 11
311.10123969078342
 21
205.73167177806309
 31
0.0
  0
LINE
  5
32F6
  8
AM_0
 10
285.1012896907834
 20
314.7316557780631
 30
0.0
 11
311.10123969078342
 21
314.7316557780631
 31
0.0
  0
LINE
  5
32F7
  8
AM_0
 10
285.1012896907834
 20
300.66867577806312
 30
0.0
 11
311.10123969078342
 21
300.66867577806312
 31
0.0
  0
LINE
  5
32F8
  8
AM_0
 10
285.1012896907834
 20
236.79464677806311
 30
0.0
 11
316.10130969078318
 21
236.79464677806311
 31
0.0
  0
LINE
  5
32F9
  8
AM_0
 10
285.1012896907834
 20
222.73167277806311
 30
0.0
 11
316.10130969078318
 21
222.73167277806311
 31
0.0
  0
LINE
  5
3314
  8
ﾁｭｳｼﾝｾﾝ
 10
708.89430493460463
 20
268.73165977806309
 30
0.0
 11
516.70517469332265
 21
268.73165977806309
 31
0.0
  0
CIRCLE
  5
33C9
  8
AM_0
 10
576.40845583667533
 20
313.4756457780631
 30
0.0
 40
4.9999998000000003
  0
CIRCLE
  5
33CA
  8
AM_0
 10
693.03139183667554
 20
313.47558577806319
 30
0.0
 40
4.9999998000000003
  0
CIRCLE
  5
33CB
  8
AM_0
 10
662.84715583667537
 20
200.82653677806309
 30
0.0
 40
4.9999998000000003
  0
CIRCLE
  5
33CC
  8
AM_0
 10
606.59262283667545
 20
200.82653677806309
 30
0.0
 40
4.9999998000000003
  0
ARC
  5
33CF
  8
AM_0
 10
338.10123969078342
 20
311.58885577806308
 30
0.0
 40
1.0000000199999981
 50
270.0
 51
0.0
  0
ARC
  5
33D0
  8
AM_0
 10
338.10123969078342
 20
315.36240577806319
 30
0.0
 40
1.0000000199999981
 50
0.0
 51
90.00000299999769
  0
ARC
  5
33D1
  8
AM_0
 10
338.10123969078342
 20
317.36238577806319
 30
0.0
 40
1.0000000199999981
 50
270.0
 51
0.0
  0
ARC
  5
33D2
  8
AM_0
 10
338.10123969078342
 20
309.58890577806312
 30
0.0
 40
1.0000000199999981
 50
0.0
 51
90.00000299999769
  0
ARC
  5
33D3
  8
AM_0
 10
338.10123969078342
 20
308.70210577806318
 30
0.0
 40
1.0000000199999981
 50
270.0
 51
0.0
  0
ARC
  5
33D4
  8
AM_0
 10
338.10123969078342
 20
318.24915577806303
 30
0.0
 40
1.0000000199999981
 50
0.0
 51
90.00000299999769
  0
ARC
  5
33D9
  8
AM_0
 10
311.10123969078342
 20
330.41421577806312
 30
0.0
 40
5.0000001000000003
 50
271.50000000000267
 51
0.0
  0
ARC
  5
33DA
  8
AM_0
 10
318.1012896907834
 20
337.73166577806307
 30
0.0
 40
2.00000007
 50
90.00000299999769
 51
180.00001000000091
  0
ARC
  5
33DB
  8
AM_0
 10
308.10123969078342
 20
209.128355778063
 30
0.0
 40
3.0
 50
0.0
 51
88.499997000000647
  0
ARC
  5
33DC
  8
AM_0
 10
695.30804983667554
 20
299.60364577806303
 30
0.0
 40
3.0
 50
27.00057300000061
 51
84.294261000001953
  0
ARC
  5
33DD
  8
AM_0
 10
382.10127969078309
 20
318.98265577806308
 30
0.0
 40
3.0
 50
0.0
 51
84.999996999998885
  0
ARC
  5
33DE
  8
AM_0
 10
377.1012396907833
 20
327.45066577806301
 30
0.0
 40
5.0000001000000003
 50
179.999989999999
 51
265.0
  0
ARC
  5
33DF
  8
AM_0
 10
574.13178583667548
 20
299.60364577806303
 30
0.0
 40
3.0
 50
95.705737999999187
 51
152.99941999999919
  0
ARC
  5
33E0
  8
AM_0
 10
581.71995583667547
 20
210.73167277806311
 30
0.0
 40
5.0000001000000003
 50
270.0
 51
0.0
  0
ARC
  5
33E1
  8
AM_0
 10
586.71990583667548
 20
303.98421577806312
 30
0.0
 40
5.0000001000000003
 50
138.71941000000029
 51
180.00001000000091
  0
ARC
  5
33E2
  8
AM_0
 10
589.21847683667545
 20
319.26501577806312
 30
0.0
 40
3.0
 50
132.0006499999993
 51
189.2943400000016
  0
ARC
  5
33E3
  8
AM_0
 10
682.71991483667534
 20
303.98421577806312
 30
0.0
 40
5.0000001000000003
 50
0.0
 51
41.280591000000221
  0
ARC
  5
33E4
  8
AM_0
 10
681.71991583667557
 20
193.731671778063
 30
0.0
 40
1.0000000199999981
 50
0.0
 51
90.00000299999769
  0
ARC
  5
33E5
  8
AM_0
 10
587.71995583667535
 20
193.731671778063
 30
0.0
 40
1.0000000199999981
 50
90.00000299999769
 51
180.00001000000091
  0
ARC
  5
33E6
  8
AM_0
 10
592.71991183667535
 20
199.731671778063
 30
0.0
 40
3.0
 50
270.0
 51
0.0
  0
ARC
  5
33E7
  8
AM_0
 10
588.71991283667569
 20
194.7316887780631
 30
0.0
 40
2.00000007
 50
90.00000299999769
 51
180.00001000000091
  0
ARC
  5
33E8
  8
AM_0
 10
679.78715983667553
 20
324.56808577806311
 30
0.0
 40
5.0000001000000003
 50
334.93703000000249
 51
64.582444000001288
  0
ARC
  5
33E9
  8
AM_0
 10
335.10123969078342
 20
325.25844577806311
 30
0.0
 40
1.0000000199999981
 50
90.00000299999769
 51
180.00001000000091
  0
ARC
  5
33EA
  8
AM_0
 10
362.10123969078342
 20
193.731671778063
 30
0.0
 40
1.0000000199999981
 50
0.0
 51
90.00000299999769
  0
ARC
  5
33EB
  8
AM_0
 10
321.10128969078318
 20
239.25613477806311
 30
0.0
 40
5.0000001000000003
 50
348.0238700000001
 51
0.0
  0
ARC
  5
33ED
  8
AM_0
 10
634.71991483667546
 20
268.73165977806309
 30
0.0
 40
71.000000999999983
 50
5.9898141999996781
 51
27.00057300000061
  0
ARC
  5
33EE
  8
AM_0
 10
558.71991583667534
 20
203.7316887780631
 30
0.0
 40
2.00000007
 50
90.00000299999769
 51
180.00001000000091
  0
ARC
  5
33EF
  8
AM_0
 10
323.1012396907833
 20
208.731671778063
 30
0.0
 40
3.0
 50
270.0
 51
0.0
  0
ARC
  5
33F0
  8
AM_0
 10
634.71991483667546
 20
273.73166077806309
 30
0.0
 40
48.0
 50
0.0
 51
77.663515021264985
  0
ARC
  5
33F1
  8
AM_0
 10
368.10123969078342
 20
224.77247677806301
 30
0.0
 40
4.0000001999999979
 50
270.0
 51
0.0
  0
ARC
  5
33F2
  8
AM_0
 10
572.44164583667555
 20
316.51941577806292
 30
0.0
 40
13.9999986
 50
266.80063999999879
 51
25.062969000000368
  0
ARC
  5
33F3
  8
AM_0
 10
687.71991583667557
 20
210.73167277806311
 30
0.0
 40
5.0000001000000003
 50
179.999989999999
 51
270.0
  0
ARC
  5
33F4
  8
AM_0
 10
676.71991483667546
 20
199.731671778063
 30
0.0
 40
3.0
 50
179.999989999999
 51
270.0
  0
ARC
  5
33F5
  8
AM_0
 10
367.10127969078309
 20
333.57777577806303
 30
0.0
 40
5.0000001000000003
 50
0.0
 51
88.499997000000647
  0
ARC
  5
33F6
  8
AM_0
 10
390.10125969078331
 20
209.47622677806299
 30
0.0
 40
5.0000001000000003
 50
179.999989999999
 51
235.15011000000041
  0
ARC
  5
33F7
  8
AM_0
 10
386.10123969078342
 20
203.73165877806301
 30
0.0
 40
2.00000007
 50
0.0
 51
90.00000299999769
  0
ARC
  5
33F8
  8
AM_0
 10
296.1012396907833
 20
203.73165877806301
 30
0.0
 40
2.00000007
 50
90.00000299999769
 51
180.00001000000091
  0
ARC
  5
33F9
  8
AM_0
 10
320.10123969078342
 20
193.731671778063
 30
0.0
 40
1.0000000199999981
 50
90.00000299999769
 51
180.00001000000091
  0
ARC
  5
33FA
  8
AM_0
 10
584.71995583667535
 20
203.7316887780631
 30
0.0
 40
2.00000007
 50
0.0
 51
90.00000299999769
  0
ARC
  5
33FB
  8
AM_0
 10
696.99818983667535
 20
316.51941577806292
 30
0.0
 40
13.9999986
 50
154.9370400000038
 51
273.19937000000078
  0
ARC
  5
33FC
  8
AM_0
 10
364.1012796907832
 20
210.73167277806311
 30
0.0
 40
5.0000001000000003
 50
180.00001000000091
 51
270.0
  0
ARC
  5
33FE
  8
AM_0
 10
710.71993183667553
 20
203.7316887780631
 30
0.0
 40
2.00000007
 50
0.0
 51
90.00000299999769
  0
ARC
  5
33FF
  8
AM_0
 10
600.71991283667569
 20
205.73167177806309
 30
0.0
 40
5.0000001000000003
 50
90.00000299999769
 51
180.00001000000091
  0
ARC
  5
3400
  8
AM_0
 10
634.71991483667546
 20
268.73165977806309
 30
0.0
 40
71.000000999999983
 50
47.999359000001277
 51
132.0006499999993
  0
ARC
  5
3401
  8
AM_0
 10
684.71991583667557
 20
203.7316887780631
 30
0.0
 40
2.00000007
 50
90.00000299999769
 51
180.00001000000091
  0
ARC
  5
3402
  8
AM_0
 10
668.71992883667554
 20
205.73167177806309
 30
0.0
 40
5.0000001000000003
 50
0.0
 51
90.00000299999769
  0
ARC
  5
3403
  8
AM_0
 10
634.71991483667546
 20
268.73165977806309
 30
0.0
 40
71.000000999999983
 50
152.99941999999919
 51
174.01019000000019
  0
ARC
  5
3404
  8
AM_0
 10
367.10127969078309
 20
298.52247577806321
 30
0.0
 40
8.0000000999999976
 50
90.00000299999769
 51
180.00001000000091
  0
ARC
  5
3405
  8
AM_0
 10
315.0506496907833
 20
210.73167277806311
 30
0.0
 40
5.0000001000000003
 50
270.0
 51
348.0238700000001
  0
ARC
  5
3406
  8
AM_0
 10
615.71991283667558
 20
242.73165877806301
 30
0.0
 40
34.000002000000002
 50
179.999989999999
 51
211.4669699999979
  0
ARC
  5
3407
  8
AM_0
 10
698.05858483667544
 20
297.54900577806319
 30
0.0
 40
5.0000001000000003
 50
5.9898155000032931
 51
93.199358999997614
  0
ARC
  5
3408
  8
AM_0
 10
680.71992883667554
 20
194.7316887780631
 30
0.0
 40
2.00000007
 50
0.0
 51
90.00000299999769
  0
ARC
  5
3409
  8
AM_0
 10
653.71992883667554
 20
242.73165877806301
 30
0.0
 40
34.000002000000002
 50
328.53301999999962
 51
0.0
  0
ARC
  5
340B
  8
AM_0
 10
387.10125969078342
 20
318.11841577806302
 30
0.0
 40
2.00000007
 50
179.999989999999
 51
240.00000999999969
  0
ARC
  5
340C
  8
AM_0
 10
387.10125969078342
 20
259.34490877806309
 30
0.0
 40
2.00000007
 50
120.0000000000005
 51
180.00001000000091
  0
ARC
  5
340E
  8
AM_0
 10
587.3791558366753
 20
306.27480577806318
 30
0.0
 40
20.000000700000001
 50
121.73616999999869
 51
174.01019000000019
  0
ARC
  5
340F
  8
AM_0
 10
682.06068883667535
 20
306.27480577806318
 30
0.0
 40
20.000000700000001
 50
5.9898155000032931
 51
58.263836000000381
  0
ARC
  5
3410
  8
AM_0
 10
589.6526818366757
 20
324.56808577806311
 30
0.0
 40
5.0000001000000003
 50
115.41755999999791
 51
205.06296999999751
  0
ARC
  5
3411
  8
AM_0
 10
634.71991483667546
 20
229.73167477806311
 30
0.0
 40
110.000004
 50
58.263836000000381
 51
121.73616999999869
  0
ARC
  5
3412
  8
AM_0
 10
680.22137983667528
 20
319.26501577806312
 30
0.0
 40
3.0
 50
350.70566999999772
 51
47.999359000001277
  0
ARC
  5
3413
  8
AM_0
 10
571.38126583667531
 20
297.54900577806319
 30
0.0
 40
5.0000001000000003
 50
86.800639000002093
 51
174.01019000000019
  0
ARC
  5
3414
  8
AM_0
 10
335.10123969078342
 20
302.35641577806319
 30
0.0
 40
1.0000000199999981
 50
179.999989999999
 51
270.0
  0
ARC
  5
3415
  8
AM_0
 10
335.10123969078342
 20
299.35641577806302
 30
0.0
 40
2.00000007
 50
0.0
 51
90.00000299999769
  0
ARC
  5
3416
  8
AM_0
 10
335.10123969078342
 20
328.25844577806311
 30
0.0
 40
2.00000007
 50
270.0
 51
0.0
  0
ARC
  5
3417
  8
AM_0
 10
313.10130969078318
 20
318.3988257780631
 30
0.0
 40
2.00000007
 50
90.00000299999769
 51
180.00001000000091
  0
ARC
  5
3418
  8
AM_0
 10
314.10123969078342
 20
322.39881577806312
 30
0.0
 40
2.00000007
 50
270.0
 51
0.0
  0
ARC
  5
3419
  8
AM_0
 10
313.10130969078318
 20
314.2260057780631
 30
0.0
 40
2.00000007
 50
179.999989999999
 51
270.0
  0
ARC
  5
341A
  8
AM_0
 10
314.10123969078342
 20
310.22601577806307
 30
0.0
 40
2.00000007
 50
0.0
 51
90.00000299999769
  0
ARC
  5
341B
  8
AM_0
 10
309.10128969078318
 20
298.75971577806303
 30
0.0
 40
2.00000007
 50
270.0
 51
0.0
  0
ARC
  5
341C
  8
AM_0
 10
309.10128969078318
 20
217.51591477806309
 30
0.0
 40
2.00000007
 50
0.0
 51
90.00000299999769
  0
LINE
  5
3917
  8
AM_0
 10
391.10122969078321
 20
322.2316577780631
 30
0.0
 11
396.10122969078287
 21
317.23165777806321
 31
0.0
  0
LINE
  5
3918
  8
AM_0
 10
386.60122969078321
 20
322.2316577780631
 30
0.0
 11
391.10122969078321
 21
322.2316577780631
 31
0.0
  0
LINE
  5
3919
  8
AM_0
 10
386.10122969078321
 20
321.73165777806321
 30
0.0
 11
386.10122969078247
 21
255.73165777806361
 31
0.0
  0
LINE
  5
391A
  8
AM_0
 10
396.10122969078287
 20
317.23165777806321
 30
0.0
 11
396.10122969078321
 21
260.23165777806321
 31
0.0
  0
LINE
  5
391B
  8
AM_0
 10
386.60122969078321
 20
255.2316577780631
 30
0.0
 11
391.10122969078321
 21
255.2316577780631
 31
0.0
  0
LINE
  5
391C
  8
AM_0
 10
391.10122969078321
 20
255.2316577780631
 30
0.0
 11
396.10122969078287
 21
260.23165777806321
 31
0.0
  0
LINE
  5
391D
  8
AM_0
 10
386.60122969078321
 20
322.2316577780631
 30
0.0
 11
386.10122969078321
 21
321.73165777806321
 31
0.0
1001
GENIUS_GENFIL_13
1070
     0
1040
0.5
1040
0.5
1040
20.0
1040
0.0
1002
{
1002
}
1001
GENIUS_GENOBJ-N-CHA_13
1002
{
1000
OWNER
1000
GEN
1002
}
1001
GENIUS_GENODEF_13
1002
{
1000
HIER
1070
     0
1002
}
1002
{
1000
MANEDIT
1070
     0
1002
}
1002
{
1000
NOSEL
1070
     0
1002
}
1002
{
1000
BEHIND
1070
     0
1002
}
1002
{
1000
OTHER
1070
     0
1002
}
1002
{
1000
REACTOR
1002
}
  0
LINE
  5
391E
  8
AM_0
 10
386.10122969078321
 20
255.7316577780631
 30
0.0
 11
386.60122969078321
 21
255.2316577780631
 31
0.0
1001
GENIUS_GENFIL_13
1070
     0
1040
0.5
1040
0.5
1040
20.0
1040
0.0
1002
{
1002
}
1001
GENIUS_GENOBJ-N-CHA_13
1002
{
1000
OWNER
1000
GEN
1002
}
1001
GENIUS_GENODEF_13
1002
{
1000
HIER
1070
     0
1002
}
1002
{
1000
MANEDIT
1070
     0
1002
}
1002
{
1000
NOSEL
1070
     0
1002
}
1002
{
1000
BEHIND
1070
     0
1002
}
1002
{
1000
OTHER
1070
     0
1002
}
1002
{
1000
REACTOR
1002
}
  0
LINE
  5
3927
  8
AM_0
 10
391.10122969078321
 20
322.2316577780631
 30
0.0
 11
391.10122969078321
 21
255.2316577780631
 31
0.0
  0
CIRCLE
  5
3928
  8
AM_0
 10
634.71991483667546
 20
288.73166077806309
 30
0.0
 40
33.499999999999893
  0
CIRCLE
  5
3929
  8
AM_0
 10
634.71991483667546
 20
288.73166077806309
 30
0.0
 40
28.49999999999994
  0
ARC
  5
392A
  8
AM_0
 10
634.71991483667546
 20
273.73166077806309
 30
0.0
 40
48.0
 50
102.336484978735
 51
180.00001000000091
  0
LINE
  5
459B
  8
AM_0
 10
398.10123969078307
 20
305.73170677806303
 30
0.0
 11
398.10123969078307
 21
302.73170677806303
 31
0.0
  0
LINE
  5
459C
  8
AM_0
 10
398.10123969078307
 20
305.73170677806303
 30
0.0
 11
430.10127969078309
 21
305.73170677806303
 31
0.0
  0
LINE
  5
459D
  8
AM_0
 10
396.10122969078287
 20
274.73168977806318
 30
0.0
 11
430.10127969078309
 21
274.73168977806318
 31
0.0
  0
LINE
  5
459F
  8
AM_0
 10
396.10122969078287
 20
302.73170677806303
 30
0.0
 11
430.10127969078309
 21
302.73170677806303
 31
0.0
  0
LINE
  5
45A0
  8
AM_0
 10
430.10127969078309
 20
305.73170677806303
 30
0.0
 11
430.10127969078309
 21
274.73168977806318
 31
0.0
  0
LINE
  5
45A2
  8
AM_0
 10
630.71991283667535
 20
305.73170677806303
 30
0.0
 11
638.71989883667538
 21
305.73170677806303
 31
0.0
  0
LINE
  5
45A3
  8
AM_0
 10
630.71991283667535
 20
298.73168677806302
 30
0.0
 11
638.71989883667538
 21
298.73168677806302
 31
0.0
  0
LINE
  5
45A4
  8
AM_0
 10
638.71989883667538
 20
298.73168677806302
 30
0.0
 11
638.71989883667538
 21
305.73170677806303
 31
0.0
  0
LINE
  5
45AB
  8
AM_0
 10
630.71991283667535
 20
298.73168677806302
 30
0.0
 11
630.71991283667535
 21
305.73170677806303
 31
0.0
  0
CIRCLE
  5
46CC
  8
AM_5
 10
634.71991483667546
 20
288.73166077806309
 30
0.0
 40
4.0000001999999979
  0
ARC
  5
46CD
  8
AM_0
 10
634.71991483667546
 20
288.73166077806309
 30
0.0
 40
14.000001299999999
 50
106.60154000000141
 51
73.398451999997818
  0
CIRCLE
  5
46CE
  8
AM_0
 10
634.71991483667546
 20
288.73166077806309
 30
0.0
 40
3.0
  0
LINE
  5
54DE
  8
AM_0
 10
274.10127969078371
 20
230.508575778063
 30
0.0
 11
277.10127969078349
 21
230.50857577806309
 31
0.0
  0
LINE
  5
54DF
  8
AM_0
 10
274.10127969078349
 20
306.95467477806312
 30
0.0
 11
277.10127969078349
 21
306.95467477806312
 31
0.0
  0
LINE
  5
54E0
  8
AM_0
 10
172.30770969078341
 20
212.44840777806311
 30
0.0
 11
269.22744969078349
 21
212.44840777806311
 31
0.0
  0
LINE
  5
54E1
  8
AM_0
 10
170.7792096907834
 20
232.00857577806309
 30
0.0
 11
178.10127969078351
 21
232.00857577806309
 31
0.0
  0
LINE
  5
54E2
  8
AM_0
 10
178.10127969078351
 20
234.73165777806301
 30
0.0
 11
171.4666896907834
 21
234.7316577780631
 31
0.0
  0
LINE
  5
54E3
  8
AM_0
 10
178.10127969078351
 20
232.731659778063
 30
0.0
 11
171.4666896907834
 21
232.731659778063
 31
0.0
  0
LINE
  5
54E4
  8
AM_0
 10
178.10127969078351
 20
304.73167477806311
 30
0.0
 11
171.4666896907834
 21
304.73167477806311
 31
0.0
  0
LINE
  5
54E5
  8
AM_0
 10
178.10127969078351
 20
302.73166177806303
 30
0.0
 11
171.4666896907834
 21
302.73166177806303
 31
0.0
  0
LINE
  5
54E6
  8
AM_0
 10
170.7785796907834
 20
305.45467477806301
 30
0.0
 11
178.10127969078351
 21
305.45467477806301
 31
0.0
  0
LINE
  5
54E7
  8
AM_0
 10
172.30770969078341
 20
325.01491477806297
 30
0.0
 11
269.22744969078349
 21
325.01491477806297
 31
0.0
  0
ARC
  5
54E8
  8
AM_0
 10
170.7785796907834
 20
303.77676577806301
 30
0.0
 40
1.6779127499999991
 50
90.000003000000945
 51
270.0
  0
ARC
  5
54E9
  8
AM_0
 10
171.65064969078341
 20
303.73166077806297
 30
0.0
 40
1.0000000199999981
 50
90.000003000000945
 51
270.0
  0
LINE
  5
54EA
  8
AM_0
 10
169.10127969078351
 20
321.7316547780631
 30
0.0
 11
169.10127969078351
 21
255.331659778063
 31
0.0
  0
LINE
  5
54EB
  8
AM_0
 10
169.10127969078351
 20
242.13165977806301
 30
0.0
 11
169.10127969078351
 21
219.29142577806309
 31
0.0
  0
LINE
  5
54EC
  8
AM_0
 10
174.4667496907835
 20
232.08038377806309
 30
0.0
 11
169.10133969078331
 21
220.63590877806311
 31
0.0
  0
ARC
  5
54ED
  8
AM_0
 10
206.1012696907834
 20
211.60201777806299
 30
0.0
 40
2.00000007
 50
270.0
 51
0.0
  0
ARC
  5
54EE
  8
AM_0
 10
206.1012696907834
 20
208.84371877806311
 30
0.0
 40
2.00000007
 50
270.0
 51
0.0
  0
LINE
  5
54EF
  8
AM_0
 10
208.1012796907836
 20
208.84371877806311
 30
0.0
 11
208.1012796907836
 21
212.44840777806311
 31
0.0
  0
ARC
  5
54F0
  8
AM_0
 10
206.1012696907834
 20
209.75423977806309
 30
0.0
 40
2.00000007
 50
270.0
 51
0.0
  0
LINE
  5
54F1
  8
AM_0
 10
169.10127969078351
 20
220.6358787780631
 30
0.0
 11
170.34249969078331
 21
214.07652277806309
 31
0.0
  0
LINE
  5
54F2
  8
AM_0
 10
169.10127969078351
 20
219.29135077806311
 30
0.0
 11
170.3813796907834
 21
211.28617777806309
 31
0.0
  0
LINE
  5
54F3
  8
AM_0
 10
169.1012196907833
 20
217.94682277806311
 30
0.0
 11
170.3922996907834
 21
209.4537027780631
 31
0.0
  0
ARC
  5
54F4
  8
AM_0
 10
172.30770969078341
 20
214.44839377806309
 30
0.0
 40
2.00000007
 50
190.71568999999951
 51
270.0
  0
ARC
  5
54F5
  8
AM_0
 10
172.35627969078351
 20
211.60201777806299
 30
0.0
 40
2.00000007
 50
189.08497000000031
 51
270.0
  0
LINE
  5
54F6
  8
AM_0
 10
161.6012896907832
 20
215.73167377806311
 30
0.0
 11
169.10127969078351
 21
215.73167377806311
 31
0.0
  0
ARC
  5
54F7
  8
AM_0
 10
172.3909596907834
 20
208.84371877806311
 30
0.0
 40
2.00000007
 50
187.94403999999901
 51
270.0
  0
LINE
  5
54F8
  8
AM_0
 10
169.1012196907833
 20
217.94677777806311
 30
0.0
 11
170.4101196907834
 21
208.5673347780631
 31
0.0
  0
ARC
  5
54F9
  8
AM_0
 10
172.36965969078341
 20
209.75423977806309
 30
0.0
 40
2.00000007
 50
188.6433899999989
 51
270.0
  0
LINE
  5
54FA
  8
AM_0
 10
172.35627969078351
 20
209.60203477806311
 30
0.0
 11
206.1012696907834
 21
209.60203477806311
 31
0.0
  0
LINE
  5
54FB
  8
AM_0
 10
172.36965969078341
 20
207.75424177806309
 30
0.0
 11
206.1012696907834
 21
207.75424177806309
 31
0.0
  0
LINE
  5
54FC
  8
AM_0
 10
172.3909596907834
 20
206.8437327780631
 30
0.0
 11
206.1012696907834
 21
206.8437327780631
 31
0.0
  0
POLYLINE
  5
54FD
  8
AM_0
 66
     1
 10
0.0
 20
0.0
 30
0.0
  0
VERTEX
  5
54FE
  8
AM_0
 10
173.03511866479161
 20
295.7316597780632
 30
0.0
  0
VERTEX
  5
54FF
  8
AM_0
 10
173.9239896907834
 20
302.10023077806301
 30
0.0
 42
-1.0
  0
SEQEND
  5
5500
  8
AM_0
  0
LINE
  5
5501
  8
AM_0
 10
170.7785796907834
 20
302.09884777806298
 30
0.0
 11
178.10127969078351
 21
302.09884777806298
 31
0.0
  0
POLYLINE
  5
5502
  8
AM_0
 66
     1
 10
0.0
 20
0.0
 30
0.0
  0
VERTEX
  5
5503
  8
AM_0
 10
173.24447093451909
 20
240.231659778063
 30
0.0
  0
VERTEX
  5
5504
  8
AM_0
 10
173.9239896907834
 20
235.3630827780631
 30
0.0
 42
-1.0
  0
SEQEND
  5
5505
  8
AM_0
  0
ARC
  5
5506
  8
AM_0
 10
170.7792096907834
 20
233.68649377806301
 30
0.0
 40
1.6779175200000001
 50
90.000003000000945
 51
270.0
  0
ARC
  5
5507
  8
AM_0
 10
171.65064969078341
 20
233.73167377806311
 30
0.0
 40
1.0000000199999981
 50
90.000003000000945
 51
270.0
  0
LINE
  5
5508
  8
AM_0
 10
161.79939969078339
 20
225.5401917780631
 30
0.0
 11
168.02919969078351
 21
225.5401917780631
 31
0.0
  0
LINE
  5
5509
  8
AM_0
 10
170.7792096907834
 20
235.36442677806309
 30
0.0
 11
178.10127969078351
 21
235.36442677806309
 31
0.0
  0
ARC
  5
550A
  8
AM_0
 10
206.1012696907834
 20
325.86130477806307
 30
0.0
 40
2.00000007
 50
0.0
 51
90.000003000000945
  0
ARC
  5
550B
  8
AM_0
 10
206.1012696907834
 20
327.7090047780631
 30
0.0
 40
2.00000007
 50
0.0
 51
90.000003000000945
  0
ARC
  5
550C
  8
AM_0
 10
206.1012696907834
 20
328.6195347780631
 30
0.0
 40
2.00000007
 50
0.0
 51
90.000003000000945
  0
LINE
  5
550D
  8
AM_0
 10
208.1012796907836
 20
328.6195347780631
 30
0.0
 11
208.1012796907836
 21
325.01491477806297
 31
0.0
  0
ARC
  5
550E
  8
AM_0
 10
172.30770969078341
 20
323.01493477806298
 30
0.0
 40
2.00000007
 50
90.000003000000945
 51
169.2843100000004
  0
ARC
  5
550F
  8
AM_0
 10
172.35627969078351
 20
325.86130477806307
 30
0.0
 40
2.00000007
 50
90.000003000000945
 51
170.9150299999996
  0
ARC
  5
5510
  8
AM_0
 10
172.36965969078341
 20
327.7090047780631
 30
0.0
 40
2.00000007
 50
90.000003000000945
 51
171.35661000000101
  0
ARC
  5
5511
  8
AM_0
 10
172.3909596907834
 20
328.6195347780631
 30
0.0
 40
2.00000007
 50
90.000003000000945
 51
172.05596000000091
  0
LINE
  5
5512
  8
AM_0
 10
169.10127969078351
 20
318.17191477806318
 30
0.0
 11
170.38131969078341
 21
326.17705477806311
 31
0.0
  0
LINE
  5
5513
  8
AM_0
 10
169.10127969078351
 20
319.51651477806303
 30
0.0
 11
170.3922996907834
 21
328.0095747780631
 31
0.0
  0
LINE
  5
5514
  8
AM_0
 10
169.10127969078351
 20
319.51651477806303
 30
0.0
 11
170.4101196907834
 21
328.89592477806298
 31
0.0
  0
LINE
  5
5515
  8
AM_0
 10
169.10127969078351
 20
316.82737477806307
 30
0.0
 11
170.3425596907835
 21
323.38678477806292
 31
0.0
  0
LINE
  5
5516
  8
AM_0
 10
161.6012896907832
 20
321.7316547780631
 30
0.0
 11
169.10127969078351
 21
321.7316547780631
 31
0.0
  0
LINE
  5
5517
  8
AM_0
 10
161.79939969078339
 20
311.92306477806312
 30
0.0
 11
168.02919969078351
 21
311.92306477806312
 31
0.0
  0
LINE
  5
5518
  8
AM_0
 10
174.4666896907834
 20
305.38285477806312
 30
0.0
 11
169.10127969078351
 21
316.82734477806298
 31
0.0
  0
LINE
  5
5519
  8
AM_0
 10
172.35627969078351
 20
327.8613147780631
 30
0.0
 11
206.1012696907834
 21
327.8613147780631
 31
0.0
  0
LINE
  5
551A
  8
AM_0
 10
172.36965969078341
 20
329.70901477806302
 30
0.0
 11
206.1012696907834
 21
329.70901477806302
 31
0.0
  0
LINE
  5
551B
  8
AM_0
 10
172.3909596907834
 20
330.61954477806307
 30
0.0
 11
206.1012696907834
 21
330.61954477806307
 31
0.0
  0
ARC
  5
551C
  8
AM_0
 10
273.92337969078352
 20
303.77676577806301
 30
0.0
 40
1.6779127499999991
 50
276.08620038402
 51
83.913799615980011
  0
LINE
  5
551D
  8
ﾁｭｳｼﾝｾﾝ
 10
226.1012796907834
 20
319.73165977806309
 30
0.0
 11
226.1012796907834
 21
217.731659778063
 31
0.0
  0
LINE
  5
551E
  8
AM_0
 10
277.10127969078349
 20
324.7316547780631
 30
0.0
 11
277.10127969078349
 21
212.73167377806311
 31
0.0
  0
LINE
  5
551F
  8
AM_0
 10
161.6012896907832
 20
321.7316547780631
 30
0.0
 11
161.6012896907832
 21
295.7316597780632
 31
0.0
  0
LINE
  5
5520
  8
AM_0
 10
161.6012896907832
 20
271.7316597780632
 30
0.0
 11
161.6012896907832
 21
257.23165977806462
 31
0.0
  0
LINE
  5
5521
  8
AM_0
 10
161.6012896907832
 20
240.23165977806249
 30
0.0
 11
161.6012896907832
 21
215.73167377806311
 31
0.0
  0
LINE
  5
5522
  8
AM_0
 10
275.60127969078349
 20
230.50862077806309
 30
0.0
 11
271.15926969078339
 21
213.93075577806309
 31
0.0
  0
LINE
  5
5523
  8
AM_0
 10
277.10127969078349
 20
212.73167377806311
 30
0.0
 11
285.1012896907834
 21
212.73167377806311
 31
0.0
  0
LINE
  5
5524
  8
AM_0
 10
271.64181969078339
 20
215.73167377806311
 30
0.0
 11
277.10127969078349
 21
215.73167377806311
 31
0.0
  0
ARC
  5
5525
  8
AM_0
 10
269.22744969078349
 20
214.44839377806309
 30
0.0
 40
2.00000007
 50
270.0
 51
344.99999999999841
  0
LINE
  5
5526
  8
AM_0
 10
277.10127969078349
 20
300.66909877806307
 30
0.0
 11
285.1012896907834
 21
300.66909877806307
 31
0.0
  0
LINE
  5
5527
  8
AM_0
 10
277.10127969078349
 20
236.79422077806319
 30
0.0
 11
285.1012896907834
 21
236.79422077806319
 31
0.0
  0
LINE
  5
5528
  8
AM_0
 10
277.10127969078349
 20
222.73165777806301
 30
0.0
 11
285.1012896907834
 21
222.73165777806301
 31
0.0
  0
ARC
  5
5529
  8
AM_0
 10
273.92337969078352
 20
233.68649377806301
 30
0.0
 40
1.6779127499999991
 50
276.08620038402319
 51
83.913799615976814
  0
LINE
  5
552A
  8
AM_0
 10
277.10127969078349
 20
324.7316547780631
 30
0.0
 11
285.1012896907834
 21
324.7316547780631
 31
0.0
  0
LINE
  5
552B
  8
AM_0
 10
277.10127969078349
 20
314.73166477806308
 30
0.0
 11
285.1012896907834
 21
314.73166477806308
 31
0.0
  0
LINE
  5
552C
  8
AM_0
 10
271.64181969078339
 20
321.7316547780631
 30
0.0
 11
277.10127969078349
 21
321.7316547780631
 31
0.0
  0
ARC
  5
552D
  8
AM_0
 10
269.22744969078349
 20
323.01493477806298
 30
0.0
 40
2.00000007
 50
15.000000000001579
 51
90.000003000000945
  0
ARC
  5
552E
  8
AM_0
 10
276.75228969078358
 20
308.45467477806312
 30
0.0
 40
1.5000000299999989
 50
195.00000999999889
 51
270.0
  0
LINE
  5
552F
  8
AM_0
 10
275.30343969078342
 20
308.06647477806303
 30
0.0
 11
271.15926969078339
 21
323.53255477806312
 31
0.0
  0
LINE
  5
5531
  8
AM_0
 10
270.1012796907836
 20
222.731659778063
 30
0.0
 11
182.10127969078351
 21
222.731659778063
 31
0.0
  0
ARC
  5
5532
  8
AM_0
 10
200.1723475026489
 20
227.731659778063
 30
0.0
 40
5.0
 50
225.0
 51
270.0
1001
GENIUS_GENOBJ-N-FIL_13
1002
{
1000
OWNER
1000
GEN
1002
}
1001
GENIUS_GENODEF_13
1002
{
1000
HIER
1070
     0
1002
}
1002
{
1000
MANEDIT
1070
     0
1002
}
1002
{
1000
NOSEL
1070
     0
1002
}
1002
{
1000
BEHIND
1070
     0
1002
}
1002
{
1000
OTHER
1070
     0
1002
}
1002
{
1000
REACTOR
1002
}
  0
LINE
  5
5533
  8
AM_0
 10
251.3733576294257
 20
227.731659778063
 30
0.0
 11
200.82920175214119
 21
227.731659778063
 31
0.0
  0
ARC
  5
5534
  8
AM_0
 10
251.3733576294257
 20
232.731659778063
 30
0.0
 40
5.0
 50
270.0
 51
315.0
1001
GENIUS_GENOBJ-N-FIL_13
1002
{
1000
OWNER
1000
GEN
1002
}
1001
GENIUS_GENODEF_13
1002
{
1000
HIER
1070
     0
1002
}
1002
{
1000
MANEDIT
1070
     0
1002
}
1002
{
1000
NOSEL
1070
     0
1002
}
1002
{
1000
BEHIND
1070
     0
1002
}
1002
{
1000
OTHER
1070
     0
1002
}
1002
{
1000
REACTOR
1002
}
  0
ARC
  5
5535
  8
AM_0
 10
270.1012796907836
 20
226.731659778063
 30
0.0
 40
4.0
 50
270.0
 51
0.0
1001
GENIUS_GENOBJ-N-FIL_13
1002
{
1000
OWNER
1000
GEN
1002
}
1001
GENIUS_GENODEF_13
1002
{
1000
HIER
1070
     0
1002
}
1002
{
1000
MANEDIT
1070
     0
1002
}
1002
{
1000
NOSEL
1070
     0
1002
}
1002
{
1000
BEHIND
1070
     0
1002
}
1002
{
1000
OTHER
1070
     0
1002
}
1002
{
1000
REACTOR
1002
}
  0
LINE
  5
5536
  8
AM_0
 10
270.10127969078337
 20
314.7316597780632
 30
0.0
 11
182.10127969078351
 21
314.7316597780632
 31
0.0
  0
ARC
  5
5537
  8
AM_0
 10
252.0302118789179
 20
309.7316597780632
 30
0.0
 40
5.0
 50
45.0
 51
90.0
1001
GENIUS_GENOBJ-N-FIL_13
1002
{
1000
OWNER
1000
GEN
1002
}
1001
GENIUS_GENODEF_13
1002
{
1000
HIER
1070
     0
1002
}
1002
{
1000
MANEDIT
1070
     0
1002
}
1002
{
1000
NOSEL
1070
     0
1002
}
1002
{
1000
BEHIND
1070
     0
1002
}
1002
{
1000
OTHER
1070
     0
1002
}
1002
{
1000
REACTOR
1002
}
  0
ARC
  5
5538
  8
AM_0
 10
200.1723475026491
 20
309.7316597780632
 30
0.0
 40
5.0
 50
90.0
 51
135.0
1001
GENIUS_GENODEF_13
1002
{
1000
HIER
1070
     0
1002
}
1002
{
1000
MANEDIT
1070
     0
1002
}
1002
{
1000
NOSEL
1070
     0
1002
}
1002
{
1000
BEHIND
1070
     0
1002
}
1002
{
1000
OTHER
1070
     0
1002
}
1002
{
1000
REACTOR
1002
}
1001
GENIUS_GENOBJ-N-FIL_13
1002
{
1000
OWNER
1000
GEN
1002
}
  0
LINE
  5
5539
  8
AM_0
 10
251.37335762942561
 20
309.73165977806298
 30
0.0
 11
200.82920175214139
 21
309.7316597780632
 31
0.0
  0
ARC
  5
553A
  8
AM_0
 10
200.82920175214139
 20
304.7316597780632
 30
0.0
 40
5.0
 50
90.0
 51
135.0
1001
GENIUS_GENODEF_13
1002
{
1000
HIER
1070
     0
1002
}
1002
{
1000
MANEDIT
1070
     0
1002
}
1002
{
1000
NOSEL
1070
     0
1002
}
1002
{
1000
BEHIND
1070
     0
1002
}
1002
{
1000
OTHER
1070
     0
1002
}
1002
{
1000
REACTOR
1002
}
1001
GENIUS_GENOBJ-N-FIL_13
1002
{
1000
OWNER
1000
GEN
1002
}
  0
ARC
  5
553B
  8
AM_0
 10
182.10127969078351
 20
310.7316597780632
 30
0.0
 40
4.0
 50
90.0
 51
180.0
1001
GENIUS_GENODEF_13
1002
{
1000
HIER
1070
     0
1002
}
1002
{
1000
MANEDIT
1070
     0
1002
}
1002
{
1000
NOSEL
1070
     0
1002
}
1002
{
1000
BEHIND
1070
     0
1002
}
1002
{
1000
OTHER
1070
     0
1002
}
1002
{
1000
REACTOR
1002
}
1001
GENIUS_GENOBJ-N-FIL_13
1002
{
1000
OWNER
1000
GEN
1002
}
  0
LINE
  5
553C
  8
AM_0
 10
178.10127969078351
 20
310.7316597780632
 30
0.0
 11
178.10127969078351
 21
226.731659778063
 31
0.0
  0
ARC
  5
553D
  8
AM_0
 10
183.10127969078351
 20
244.80272758992831
 30
0.0
 40
5.0
 50
180.0
 51
225.0
1001
GENIUS_GENOBJ-N-FIL_13
1002
{
1000
OWNER
1000
GEN
1002
}
1001
GENIUS_GENODEF_13
1002
{
1000
HIER
1070
     0
1002
}
1002
{
1000
MANEDIT
1070
     0
1002
}
1002
{
1000
NOSEL
1070
     0
1002
}
1002
{
1000
BEHIND
1070
     0
1002
}
1002
{
1000
OTHER
1070
     0
1002
}
1002
{
1000
REACTOR
1002
}
  0
ARC
  5
553E
  8
AM_0
 10
183.10127969078351
 20
292.6605919661979
 30
0.0
 40
5.0
 50
135.0
 51
180.0
1001
GENIUS_GENOBJ-N-FIL_13
1002
{
1000
OWNER
1000
GEN
1002
}
1001
GENIUS_GENODEF_13
1002
{
1000
HIER
1070
     0
1002
}
1002
{
1000
MANEDIT
1070
     0
1002
}
1002
{
1000
NOSEL
1070
     0
1002
}
1002
{
1000
BEHIND
1070
     0
1002
}
1002
{
1000
OTHER
1070
     0
1002
}
1002
{
1000
REACTOR
1002
}
  0
LINE
  5
553F
  8
AM_0
 10
183.10127969078351
 20
292.0037377167053
 30
0.0
 11
183.1012796907834
 21
245.45958183942071
 31
0.0
  0
ARC
  5
5540
  8
AM_0
 10
188.1012796907834
 20
245.45958183942071
 30
0.0
 40
5.0
 50
180.0
 51
225.0
1001
GENIUS_GENOBJ-N-FIL_13
1002
{
1000
OWNER
1000
GEN
1002
}
1001
GENIUS_GENODEF_13
1002
{
1000
HIER
1070
     0
1002
}
1002
{
1000
MANEDIT
1070
     0
1002
}
1002
{
1000
NOSEL
1070
     0
1002
}
1002
{
1000
BEHIND
1070
     0
1002
}
1002
{
1000
OTHER
1070
     0
1002
}
1002
{
1000
REACTOR
1002
}
  0
ARC
  5
5541
  8
AM_0
 10
182.10127969078351
 20
226.731659778063
 30
0.0
 40
4.0
 50
180.0
 51
270.0
1001
GENIUS_GENODEF_13
1002
{
1000
HIER
1070
     0
1002
}
1002
{
1000
MANEDIT
1070
     0
1002
}
1002
{
1000
NOSEL
1070
     0
1002
}
1002
{
1000
BEHIND
1070
     0
1002
}
1002
{
1000
OTHER
1070
     0
1002
}
1002
{
1000
REACTOR
1002
}
1001
GENIUS_GENOBJ-N-FIL_13
1002
{
1000
OWNER
1000
GEN
1002
}
  0
LINE
  5
5542
  8
AM_0
 10
274.10127969078349
 20
310.7316597780632
 30
0.0
 11
274.10127969078371
 21
226.731659778063
 31
0.0
  0
ARC
  5
5543
  8
AM_0
 10
269.10127969078349
 20
292.66059196619773
 30
0.0
 40
5.0
 50
0.0
 51
45.0
1001
GENIUS_GENOBJ-N-FIL_13
1002
{
1000
OWNER
1000
GEN
1002
}
1001
GENIUS_GENODEF_13
1002
{
1000
HIER
1070
     0
1002
}
1002
{
1000
MANEDIT
1070
     0
1002
}
1002
{
1000
NOSEL
1070
     0
1002
}
1002
{
1000
BEHIND
1070
     0
1002
}
1002
{
1000
OTHER
1070
     0
1002
}
1002
{
1000
REACTOR
1002
}
  0
ARC
  5
5544
  8
AM_0
 10
269.1012796907836
 20
244.80272758992839
 30
0.0
 40
5.0
 50
315.0
 51
0.0
1001
GENIUS_GENOBJ-N-FIL_13
1002
{
1000
OWNER
1000
GEN
1002
}
1001
GENIUS_GENODEF_13
1002
{
1000
HIER
1070
     0
1002
}
1002
{
1000
MANEDIT
1070
     0
1002
}
1002
{
1000
NOSEL
1070
     0
1002
}
1002
{
1000
BEHIND
1070
     0
1002
}
1002
{
1000
OTHER
1070
     0
1002
}
1002
{
1000
REACTOR
1002
}
  0
LINE
  5
5545
  8
AM_0
 10
255.56574578485069
 20
313.26719368399591
 30
0.0
 11
272.63681359671631
 21
296.19612587213038
 31
0.0
  0
LINE
  5
5546
  8
AM_0
 10
254.90889153535821
 20
308.2671936839958
 30
0.0
 11
267.63681359671608
 21
295.53927162263818
 31
0.0
  0
ARC
  5
5547
  8
AM_0
 10
251.37335762942561
 20
304.7316597780632
 30
0.0
 40
5.0
 50
45.0
 51
90.0
1001
GENIUS_GENOBJ-N-FIL_13
1002
{
1000
OWNER
1000
GEN
1002
}
1001
GENIUS_GENODEF_13
1002
{
1000
HIER
1070
     0
1002
}
1002
{
1000
MANEDIT
1070
     0
1002
}
1002
{
1000
NOSEL
1070
     0
1002
}
1002
{
1000
BEHIND
1070
     0
1002
}
1002
{
1000
OTHER
1070
     0
1002
}
1002
{
1000
REACTOR
1002
}
  0
LINE
  5
5548
  8
AM_0
 10
269.10127969078337
 20
292.00373771670547
 30
0.0
 11
269.1012796907836
 21
245.45958183942071
 31
0.0
  0
ARC
  5
5549
  8
AM_0
 10
264.10127969078337
 20
292.00373771670547
 30
0.0
 40
5.0
 50
0.0
 51
45.0
1001
GENIUS_GENODEF_13
1002
{
1000
HIER
1070
     0
1002
}
1002
{
1000
MANEDIT
1070
     0
1002
}
1002
{
1000
NOSEL
1070
     0
1002
}
1002
{
1000
BEHIND
1070
     0
1002
}
1002
{
1000
OTHER
1070
     0
1002
}
1002
{
1000
REACTOR
1002
}
1001
GENIUS_GENOBJ-N-FIL_13
1002
{
1000
OWNER
1000
GEN
1002
}
  0
ARC
  5
554A
  8
AM_0
 10
270.10127969078337
 20
310.7316597780632
 30
0.0
 40
4.0
 50
0.0
 51
90.0
1001
GENIUS_GENODEF_13
1002
{
1000
HIER
1070
     0
1002
}
1002
{
1000
MANEDIT
1070
     0
1002
}
1002
{
1000
NOSEL
1070
     0
1002
}
1002
{
1000
BEHIND
1070
     0
1002
}
1002
{
1000
OTHER
1070
     0
1002
}
1002
{
1000
REACTOR
1002
}
1001
GENIUS_GENOBJ-N-FIL_13
1002
{
1000
OWNER
1000
GEN
1002
}
  0
LINE
  5
554B
  8
ﾁｭｳｼﾝｾﾝ1
 10
269.10127969078502
 20
303.73165977806269
 30
0.0
 11
269.10127969078559
 21
315.73165977806269
 31
0.0
  0
LINE
  5
554C
  8
ﾁｭｳｼﾝｾﾝ1
 10
275.1012796907853
 20
309.73165977806252
 30
0.0
 11
263.1012796907853
 21
309.73165977806298
 31
0.0
  0
LINE
  5
554D
  8
AM_0
 10
174.60127969078351
 20
297.23165977806309
 30
0.0
 11
177.1012796907832
 21
297.23165977806332
 31
0.0
  0
LINE
  5
554E
  8
AM_0
 10
177.10127969078351
 20
270.23165977806332
 30
0.0
 11
174.60127969078351
 21
270.23165977806309
 31
0.0
  0
LINE
  5
554F
  8
AM_0
 10
163.70260859443741
 20
273.2316597780632
 30
0.0
 11
163.70260859443741
 21
294.2316597780632
 31
0.0
  0
LINE
  5
5550
  8
AM_0
 10
148.70260859443741
 20
291.76328483207823
 30
0.0
 11
148.70260859443741
 21
275.70003472404721
 31
0.0
  0
LINE
  5
5551
  8
AM_0
 10
161.70260859443741
 20
271.7316597780632
 30
0.0
 11
161.70260859443741
 21
295.7316597780632
 31
0.0
  0
LINE
  5
5552
  8
AM_0
 10
152.20260859443741
 20
283.7316597780632
 30
0.0
 11
152.70260859443741
 21
283.2316597780632
 31
0.0
  0
LINE
  5
5553
  8
AM_0
 10
159.20260859443741
 20
295.43165977806319
 30
0.0
 11
159.20260859443741
 21
272.03165977806322
 31
0.0
  0
LINE
  5
5554
  8
AM_0
 10
169.10127969078351
 20
295.23165977806298
 30
0.0
 11
169.10127969078351
 21
272.23165977806309
 31
0.0
  0
LINE
  5
5555
  8
AM_0
 10
163.20260859443741
 20
283.03165977806128
 30
0.0
 11
163.20260859443741
 21
284.4316597780641
 31
0.0
  0
LINE
  5
5556
  8
AM_0
 10
165.3022443210084
 20
274.63165977806318
 30
0.0
 11
164.5522443210094
 21
292.83165977806323
 31
0.0
  0
LINE
  5
5557
  8
AM_0
 10
164.35127969078351
 20
274.63165977806318
 30
0.0
 11
163.70260859443741
 21
290.3727450493792
 31
0.0
  0
LINE
  5
5558
  8
AM_0
 10
165.09997228135541
 20
273.91600106569922
 30
0.0
 11
164.3527122379474
 21
293.54403153923022
 31
0.0
  0
LINE
  5
5559
  8
AM_0
 10
164.5508117738454
 20
273.91928801689522
 30
0.0
 11
163.80224432100951
 21
293.58165977806323
 31
0.0
  0
LINE
  5
555A
  8
AM_0
 10
161.70260859443741
 20
295.7316597780632
 30
0.0
 11
159.50260859443739
 21
295.7316597780632
 31
0.0
  0
ARC
  5
555B
  8
AM_0
 10
173.60127969078351
 20
296.23165977806298
 30
0.0
 40
0.5
 50
269.99999999998693
 51
0.0
  0
ARC
  5
555C
  8
AM_0
 10
174.60127969078351
 20
296.7316597780632
 30
0.0
 40
0.5
 50
90.0
 51
180.0
  0
LINE
  5
555D
  8
AM_0
 10
174.10127969078351
 20
296.23165977806298
 30
0.0
 11
174.10127969078351
 21
296.7316597780632
 31
0.0
  0
LINE
  5
555E
  8
AM_0
 10
165.10127969078351
 20
292.83165977806323
 30
0.0
 11
168.60127969078351
 21
292.83165977806323
 31
0.0
  0
LINE
  5
555F
  8
AM_0
 10
174.10127969078351
 20
294.58773109947009
 30
0.0
 11
174.10127969078351
 21
284.87558845665518
 31
0.0
  0
LINE
  5
5560
  8
AM_0
 10
169.60127969078351
 20
295.7316597780632
 30
0.0
 11
173.6012796907834
 21
295.7316597780632
 31
0.0
  0
LINE
  5
5561
  8
AM_0
 10
173.60127969078351
 20
295.0877310994702
 30
0.0
 11
169.10127969078351
 21
295.0877310994702
 31
0.0
  0
ARC
  5
5562
  8
AM_0
 10
173.60127969078351
 20
294.58773109947009
 30
0.0
 40
0.5
 50
0.0
 51
90.0
  0
ARC
  5
5563
  8
AM_0
 10
168.60127969078351
 20
293.33165977806311
 30
0.0
 40
0.5
 50
270.0
 51
0.0
  0
ARC
  5
5564
  8
AM_0
 10
169.60127969078351
 20
295.23165977806298
 30
0.0
 40
0.5
 50
90.0
 51
180.0
  0
LINE
  5
5565
  8
AM_0
 10
173.60127969078351
 20
284.37558845665518
 30
0.0
 11
169.10127969078351
 21
284.37558845665518
 31
0.0
  0
ARC
  5
5566
  8
AM_0
 10
173.60127969078351
 20
284.87558845665512
 30
0.0
 40
0.5
 50
270.0
 51
0.0
  0
LINE
  5
5567
  8
AM_0
 10
163.20260859443741
 20
289.87683053035522
 30
0.0
 11
163.20260859443741
 21
288.70458734392219
 31
0.0
  0
LINE
  5
5568
  8
AM_0
 10
164.6289767494344
 20
292.83165977806323
 30
0.0
 11
165.10127969078351
 21
292.83165977806323
 31
0.0
  0
LINE
  5
5569
  8
AM_0
 10
164.53238425489519
 20
292.90577754479972
 30
0.0
 11
164.5522443210094
 21
292.83165977806323
 31
0.0
  0
ARC
  5
556A
  8
AM_0
 10
164.62897674943451
 20
292.93165977806302
 30
0.0
 40
0.1000000000000346
 50
195.00019500644461
 51
270.0
  0
ARC
  5
556B
  8
AM_0
 10
162.90260859443751
 20
293.01849275857103
 30
0.0
 40
0.3000000000000043
 50
270.0
 51
0.0
  0
LINE
  5
556C
  8
AM_0
 10
161.70260859443741
 20
295.13165977806318
 30
0.0
 11
162.92256429759459
 21
295.05032939785218
 31
0.0
  0
LINE
  5
556D
  8
AM_0
 10
161.70260859443741
 20
293.97540774222318
 30
0.0
 11
162.9026085944374
 21
293.97540774222318
 31
0.0
  0
LINE
  5
556E
  8
AM_0
 10
163.20260859443741
 20
294.73165977806309
 30
0.0
 11
161.70260859443741
 21
294.73165977806309
 31
0.0
  0
ARC
  5
556F
  8
AM_0
 10
163.20260859443741
 20
294.2316597780632
 30
0.0
 40
0.5
 50
0.0
 51
90.0
  0
LINE
  5
5570
  8
AM_0
 10
163.20260859443741
 20
294.75099385049521
 30
0.0
 11
163.20260859443741
 21
294.73165977806309
 31
0.0
  0
ARC
  5
5571
  8
AM_0
 10
162.90260859443751
 20
294.75099385049521
 30
0.0
 40
0.3000000000000007
 50
0.0
 51
86.185925165715304
  0
LINE
  5
5572
  8
AM_0
 10
164.2745472623584
 20
293.58165977806323
 30
0.0
 11
164.35127969078439
 21
293.58165977806323
 31
0.0
  0
LINE
  5
5573
  8
AM_0
 10
164.35127969078439
 20
293.58165977806323
 30
0.0
 11
164.37113975689741
 21
293.50754201132679
 31
0.0
  0
LINE
  5
5574
  8
AM_0
 10
163.78238425489539
 20
293.50754201132679
 30
0.0
 11
163.80224432100951
 21
293.58165977806323
 31
0.0
  0
LINE
  5
5575
  8
AM_0
 10
163.80224432100951
 20
293.58165977806323
 30
0.0
 11
163.8789767494344
 21
293.58165977806323
 31
0.0
  0
LINE
  5
5576
  8
AM_0
 10
164.37113975689741
 20
293.50754201132679
 30
0.0
 11
164.53238425489519
 21
292.90577754479972
 31
0.0
  0
LINE
  5
5577
  8
AM_0
 10
163.8789767494344
 20
293.58165977806323
 30
0.0
 11
164.2745472623584
 21
293.58165977806323
 31
0.0
  0
LINE
  5
5578
  8
AM_0
 10
163.7026085944384
 20
293.20981924650221
 30
0.0
 11
163.78238425489539
 21
293.50754201132679
 31
0.0
  0
ARC
  5
5579
  8
AM_0
 10
164.27454726235851
 20
293.48165977806298
 30
0.0
 40
0.0999999999999866
 50
15.00019500656942
 51
90.0
  0
ARC
  5
557A
  8
AM_0
 10
163.87897674943451
 20
293.48165977806298
 30
0.0
 40
0.1000000000000014
 50
90.0
 51
164.99980499343059
  0
LINE
  5
557B
  8
AM_0
 10
163.20260859443741
 20
293.67540774222317
 30
0.0
 11
163.20260859443741
 21
293.01849275857103
 31
0.0
  0
ARC
  5
557C
  8
AM_0
 10
162.90260859443751
 20
293.67540774222311
 30
0.0
 40
0.3000000000000007
 50
0.0
 51
90.0
  0
LINE
  5
557D
  8
AM_0
 10
161.70260859443741
 20
290.17683053035518
 30
0.0
 11
162.9026085944374
 21
290.17683053035518
 31
0.0
  0
LINE
  5
557E
  8
AM_0
 10
162.9026085944374
 20
292.71849275857119
 30
0.0
 11
161.70260859443741
 21
292.71849275857119
 31
0.0
  0
LINE
  5
557F
  8
AM_0
 10
164.5522443210094
 20
292.83165977806323
 30
0.0
 11
164.6289767494344
 21
292.83165977806323
 31
0.0
  0
ARC
  5
5580
  8
AM_0
 10
162.9026085944374
 20
289.87683053035522
 30
0.0
 40
0.3000000000000007
 50
0.0
 51
90.0
  0
LINE
  5
5581
  8
AM_0
 10
162.9026085944374
 20
288.40458734392217
 30
0.0
 11
161.70260859443741
 21
288.40458734392217
 31
0.0
  0
ARC
  5
5582
  8
AM_0
 10
162.9026085944374
 20
288.70458734392219
 30
0.0
 40
0.3000000000000043
 50
270.0
 51
0.0
  0
LINE
  5
5583
  8
AM_0
 10
162.9026085944374
 20
284.73165977806423
 30
0.0
 11
161.70260859443741
 21
284.73165977806423
 31
0.0
  0
ARC
  5
5584
  8
AM_0
 10
162.9026085944374
 20
284.4316597780641
 30
0.0
 40
0.3000000000000007
 50
0.0
 51
90.0
  0
LINE
  5
5585
  8
AM_0
 10
152.70260859443741
 20
293.86493960671021
 30
0.0
 11
159.20260859443741
 21
293.86493960671021
 31
0.0
  0
LINE
  5
5586
  8
AM_0
 10
152.70260859443741
 20
294.3649396067101
 30
0.0
 11
159.20260859443741
 21
294.3649396067101
 31
0.0
  0
LINE
  5
5587
  8
AM_0
 10
159.20260859443741
 20
284.2316597780632
 30
0.0
 11
152.70260859443741
 21
284.2316597780632
 31
0.0
  0
LINE
  5
5588
  8
AM_0
 10
152.20260859443741
 20
284.7316597780632
 30
0.0
 11
159.20260859443741
 21
284.7316597780632
 31
0.0
  0
LINE
  5
5589
  8
AM_0
 10
158.9026085944374
 20
294.73165977806309
 30
0.0
 11
152.06465852961941
 21
294.73165977806309
 31
0.0
  0
LINE
  5
558A
  8
AM_0
 10
159.20260859443741
 20
285.07834784660417
 30
0.0
 11
152.70260859443741
 21
285.07834784660417
 31
0.0
  0
LINE
  5
558B
  8
AM_0
 10
159.20260859443741
 20
293.38497170952218
 30
0.0
 11
152.70260859443741
 21
293.38497170952218
 31
0.0
  0
ARC
  5
558C
  8
AM_0
 10
159.50260859443739
 20
295.43165977806319
 30
0.0
 40
0.2999999999999971
 50
90.0
 51
180.0
  0
ARC
  5
558D
  8
AM_0
 10
158.90260859443751
 20
295.03165977806322
 30
0.0
 40
0.2999999999999971
 50
270.0
 51
0.0
  0
ARC
  5
558E
  8
AM_0
 10
160.82760859443749
 20
289.23165977806298
 30
0.0
 40
9.124999999999984
 50
152.92493329272219
 51
207.07506670727781
  0
LINE
  5
558F
  8
AM_0
 10
151.424474129955
 20
294.49988105766067
 30
0.0
 11
149.0624241947728
 21
292.53150611167558
 31
0.0
  0
LINE
  5
5590
  8
AM_0
 10
152.20260859443741
 20
294.15322719455509
 30
0.0
 11
152.70260859443741
 21
294.73165977806309
 31
0.0
  0
ARC
  5
5591
  8
AM_0
 10
152.06465852961941
 20
293.7316597780632
 30
0.0
 40
1.0
 50
90.0
 51
129.805571092256
  0
LINE
  5
5592
  8
AM_0
 10
152.70260859443741
 20
294.3649396067101
 30
0.0
 11
152.20260859443741
 21
294.15322719455509
 31
0.0
  0
LINE
  5
5593
  8
AM_0
 10
152.20260859443741
 20
293.69095192158397
 30
0.0
 11
152.70260859443741
 21
294.3649396067101
 31
0.0
  0
LINE
  5
5594
  8
AM_0
 10
152.70260859443741
 20
293.86493960671021
 30
0.0
 11
152.20260859443741
 21
293.69095192158397
 31
0.0
  0
LINE
  5
5595
  8
AM_0
 10
152.20260859443741
 20
293.1532271945552
 30
0.0
 11
152.70260859443741
 21
293.86493960671021
 31
0.0
  0
LINE
  5
5596
  8
AM_0
 10
152.70260859443741
 20
293.38497170952218
 30
0.0
 11
152.20260859443741
 21
293.1532271945552
 31
0.0
  0
ARC
  5
5597
  8
AM_0
 10
149.70260859443741
 20
291.76328483207823
 30
0.0
 40
1.0000000000000291
 50
129.80557109226311
 51
180.0
  0
LINE
  5
5598
  8
AM_0
 10
152.70260859443741
 20
284.2316597780632
 30
0.0
 11
152.20260859443741
 21
283.7316597780632
 31
0.0
  0
LINE
  5
5599
  8
AM_0
 10
152.20260859443741
 20
284.7316597780632
 30
0.0
 11
152.70260859443741
 21
284.2316597780632
 31
0.0
  0
LINE
  5
559A
  8
AM_0
 10
152.70260859443741
 20
285.07834784660417
 30
0.0
 11
152.20260859443741
 21
284.7316597780632
 31
0.0
  0
LINE
  5
559B
  8
AM_0
 10
159.50260859443739
 20
271.7316597780632
 30
0.0
 11
161.70260859443741
 21
271.7316597780632
 31
0.0
  0
ARC
  5
559C
  8
AM_0
 10
173.60127969078351
 20
271.2316597780632
 30
0.0
 40
0.5
 50
0.0
 51
90.000000000009777
  0
LINE
  5
559D
  8
AM_0
 10
168.60127969078351
 20
274.63165977806318
 30
0.0
 11
165.3789767494344
 21
274.63165977806318
 31
0.0
  0
LINE
  5
559E
  8
AM_0
 10
174.10127969078351
 20
282.5877310994702
 30
0.0
 11
174.10127969078351
 21
272.87558845665512
 31
0.0
  0
LINE
  5
559F
  8
AM_0
 10
169.10127969078351
 20
283.0877310994702
 30
0.0
 11
173.60127969078351
 21
283.0877310994702
 31
0.0
  0
ARC
  5
55A0
  8
AM_0
 10
173.60127969078351
 20
282.5877310994702
 30
0.0
 40
0.5
 50
0.0
 51
90.0
  0
LINE
  5
55A1
  8
AM_0
 10
169.10127969078351
 20
272.37558845665512
 30
0.0
 11
173.60127969078351
 21
272.37558845665512
 31
0.0
  0
LINE
  5
55A2
  8
AM_0
 10
173.6012796907834
 20
271.73165977806309
 30
0.0
 11
169.60127969078351
 21
271.73165977806309
 31
0.0
  0
ARC
  5
55A3
  8
AM_0
 10
173.60127969078351
 20
272.87558845665512
 30
0.0
 40
0.5
 50
270.0
 51
0.0
  0
ARC
  5
55A4
  8
AM_0
 10
168.60127969078351
 20
274.13165977806318
 30
0.0
 40
0.5
 50
0.0
 51
90.0
  0
ARC
  5
55A5
  8
AM_0
 10
169.60127969078351
 20
272.23165977806309
 30
0.0
 40
0.5
 50
180.0
 51
270.0
  0
ARC
  5
55A6
  8
AM_0
 10
162.9026085944374
 20
277.58648902577107
 30
0.0
 40
0.3000000000000114
 50
270.0
 51
0.0
  0
LINE
  5
55A7
  8
AM_0
 10
161.70260859443741
 20
282.73165977806121
 30
0.0
 11
162.9026085944374
 21
282.73165977806121
 31
0.0
  0
ARC
  5
55A8
  8
AM_0
 10
162.9026085944374
 20
283.03165977806123
 30
0.0
 40
0.2999999999999971
 50
270.0
 51
0.0
  0
LINE
  5
55A9
  8
AM_0
 10
161.70260859443741
 20
279.05873221220418
 30
0.0
 11
162.9026085944374
 21
279.05873221220418
 31
0.0
  0
ARC
  5
55AA
  8
AM_0
 10
162.9026085944374
 20
278.75873221220411
 30
0.0
 40
0.3000000000000007
 50
0.0
 51
90.0
  0
LINE
  5
55AB
  8
AM_0
 10
163.20260859443741
 20
278.75873221220422
 30
0.0
 11
163.20260859443741
 21
277.58648902577119
 31
0.0
  0
LINE
  5
55AC
  8
AM_0
 10
164.6289767494344
 20
273.88165977806318
 30
0.0
 11
165.0245472623584
 21
273.88165977806318
 31
0.0
  0
LINE
  5
55AD
  8
AM_0
 10
164.6289767494344
 20
273.88165977806318
 30
0.0
 11
165.0245472623584
 21
273.88165977806318
 31
0.0
  0
LINE
  5
55AE
  8
AM_0
 10
165.12113975689741
 20
273.95577754479967
 30
0.0
 11
165.28238425489531
 21
274.55754201132669
 31
0.0
  0
LINE
  5
55AF
  8
AM_0
 10
165.12113975689741
 20
273.95577754479967
 30
0.0
 11
165.28238425489531
 21
274.55754201132669
 31
0.0
  0
ARC
  5
55B0
  8
AM_0
 10
165.3789767494344
 20
274.5316597780631
 30
0.0
 40
0.0999999999999943
 50
90.0
 51
164.9998049934843
  0
ARC
  5
55B1
  8
AM_0
 10
165.0245472623584
 20
273.98165977806309
 30
0.0
 40
0.0999999999999943
 50
270.0
 51
344.99980499349448
  0
LINE
  5
55B2
  8
AM_0
 10
163.7017620058964
 20
274.2566597780629
 30
0.0
 11
163.78238425489539
 21
274.55754201132669
 31
0.0
  0
LINE
  5
55B3
  8
AM_0
 10
164.35399034298939
 20
274.59239524496508
 30
0.0
 11
164.53238425489531
 21
273.95577754479967
 31
0.0
  0
LINE
  5
55B4
  8
AM_0
 10
164.37113975689741
 20
274.55754201132669
 30
0.0
 11
164.53238425489531
 21
273.95577754479967
 31
0.0
  0
LINE
  5
55B5
  8
AM_0
 10
163.20260859443741
 20
274.44482679755419
 30
0.0
 11
163.20260859443741
 21
273.78791181390318
 31
0.0
  0
LINE
  5
55B6
  8
AM_0
 10
163.70260859443741
 20
274.25981924650119
 30
0.0
 11
163.78238425489539
 21
274.55754201132669
 31
0.0
  0
LINE
  5
55B7
  8
AM_0
 10
161.70260859443741
 20
274.7448267975542
 30
0.0
 11
162.9026085944374
 21
274.7448267975542
 31
0.0
  0
LINE
  5
55B8
  8
AM_0
 10
162.9026085944374
 20
277.28648902577117
 30
0.0
 11
161.70260859443741
 21
277.28648902577009
 31
0.0
  0
LINE
  5
55B9
  8
AM_0
 10
164.3071795278735
 20
274.63165977806318
 30
0.0
 11
164.35399034298939
 21
274.59239524496508
 31
0.0
  0
LINE
  5
55BA
  8
AM_0
 10
163.8789767494344
 20
274.63165977806318
 30
0.0
 11
164.3071795278735
 21
274.63165977806318
 31
0.0
  0
LINE
  5
55BB
  8
AM_0
 10
163.8789767494344
 20
274.63165977806318
 30
0.0
 11
164.2745472623584
 21
274.63165977806318
 31
0.0
  0
ARC
  5
55BC
  8
AM_0
 10
163.8789767494344
 20
274.5316597780631
 30
0.0
 40
0.0999999999999943
 50
90.0
 51
164.9998049934843
  0
ARC
  5
55BD
  8
AM_0
 10
164.2745472623584
 20
274.5316597780631
 30
0.0
 40
0.0999999999999608
 50
15.00019500651571
 51
90.0
  0
ARC
  5
55BE
  8
AM_0
 10
162.9026085944374
 20
274.44482679755407
 30
0.0
 40
0.3000000000000007
 50
0.0
 51
90.0
  0
LINE
  5
55BF
  8
AM_0
 10
161.70260859443741
 20
272.7316597780632
 30
0.0
 11
163.20260859443741
 21
272.7316597780632
 31
0.0
  0
LINE
  5
55C0
  8
AM_0
 10
162.9026085944374
 20
273.48791181390322
 30
0.0
 11
161.70260859443741
 21
273.48791181390322
 31
0.0
  0
LINE
  5
55C1
  8
AM_0
 10
162.92256429759459
 20
272.4129901582732
 30
0.0
 11
161.70260859443741
 21
272.33165977806323
 31
0.0
  0
ARC
  5
55C2
  8
AM_0
 10
163.20260859443741
 20
273.2316597780632
 30
0.0
 40
0.5
 50
270.0
 51
0.0
  0
ARC
  5
55C3
  8
AM_0
 10
164.6289767494344
 20
273.98165977806309
 30
0.0
 40
0.0999999999999606
 50
195.00019500650541
 51
270.0
  0
ARC
  5
55C4
  8
AM_0
 10
162.9026085944374
 20
273.78791181390318
 30
0.0
 40
0.2999999999999971
 50
270.0
 51
0.0
  0
LINE
  5
55C5
  8
AM_0
 10
163.20260859443741
 20
272.7316597780632
 30
0.0
 11
163.20260859443741
 21
272.71232570563018
 31
0.0
  0
ARC
  5
55C6
  8
AM_0
 10
162.9026085944374
 20
272.71232570563018
 30
0.0
 40
0.3000000000000043
 50
273.81407483428472
 51
0.0
  0
ARC
  5
55C7
  8
AM_0
 10
174.60127969078351
 20
270.7316597780632
 30
0.0
 40
0.5
 50
180.0
 51
270.0
  0
LINE
  5
55C8
  8
AM_0
 10
174.10127969078351
 20
270.7316597780632
 30
0.0
 11
174.10127969078351
 21
271.2316597780632
 31
0.0
  0
LINE
  5
55C9
  8
AM_0
 10
152.70260859443741
 20
274.07834784660417
 30
0.0
 11
159.20260859443741
 21
274.07834784660417
 31
0.0
  0
LINE
  5
55CA
  8
AM_0
 10
152.70260859443741
 20
282.38497170952218
 30
0.0
 11
159.20260859443741
 21
282.38497170952218
 31
0.0
  0
LINE
  5
55CB
  8
AM_0
 10
152.06465852961941
 20
272.7316597780632
 30
0.0
 11
158.9026085944374
 21
272.7316597780632
 31
0.0
  0
LINE
  5
55CC
  8
AM_0
 10
159.20260859443741
 20
282.7316597780632
 30
0.0
 11
152.20260859443741
 21
282.7316597780632
 31
0.0
  0
LINE
  5
55CD
  8
AM_0
 10
152.70260859443741
 20
283.2316597780632
 30
0.0
 11
159.20260859443741
 21
283.2316597780632
 31
0.0
  0
LINE
  5
55CE
  8
AM_0
 10
159.20260859443741
 20
273.09837994941518
 30
0.0
 11
152.70260859443741
 21
273.09837994941518
 31
0.0
  0
LINE
  5
55CF
  8
AM_0
 10
159.20260859443741
 20
273.59837994941518
 30
0.0
 11
152.70260859443741
 21
273.59837994941518
 31
0.0
  0
ARC
  5
55D0
  8
AM_0
 10
158.9026085944374
 20
272.43165977806319
 30
0.0
 40
0.3000000000000043
 50
0.0
 51
90.0
  0
ARC
  5
55D1
  8
AM_0
 10
159.50260859443739
 20
272.03165977806322
 30
0.0
 40
0.2999999999999971
 50
180.0
 51
270.0
  0
ARC
  5
55D2
  8
AM_0
 10
160.82760859443749
 20
278.23165977806309
 30
0.0
 40
9.124999999999984
 50
152.92493329272219
 51
207.07506670727781
  0
LINE
  5
55D3
  8
AM_0
 10
152.20260859443741
 20
282.7316597780632
 30
0.0
 11
152.70260859443741
 21
282.38497170952218
 31
0.0
  0
LINE
  5
55D4
  8
AM_0
 10
152.70260859443741
 20
283.2316597780632
 30
0.0
 11
152.20260859443741
 21
282.7316597780632
 31
0.0
  0
LINE
  5
55D5
  8
AM_0
 10
149.0624241947728
 20
274.93181344444969
 30
0.0
 11
151.424474129955
 21
272.96343849846568
 31
0.0
  0
LINE
  5
55D6
  8
AM_0
 10
152.70260859443741
 20
272.7316597780632
 30
0.0
 11
152.20260859443741
 21
273.31009236157018
 31
0.0
  0
ARC
  5
55D7
  8
AM_0
 10
152.06465852961941
 20
273.73165977806309
 30
0.0
 40
1.0000000000000411
 50
230.19442890774391
 51
270.0
  0
LINE
  5
55D8
  8
AM_0
 10
152.20260859443741
 20
274.3100923615703
 30
0.0
 11
152.70260859443741
 21
274.07834784660417
 31
0.0
  0
LINE
  5
55D9
  8
AM_0
 10
152.70260859443741
 20
273.59837994941518
 30
0.0
 11
152.20260859443741
 21
274.3100923615703
 31
0.0
  0
LINE
  5
55DA
  8
AM_0
 10
152.20260859443741
 20
273.77236763454221
 30
0.0
 11
152.70260859443741
 21
273.59837994941518
 31
0.0
  0
LINE
  5
55DB
  8
AM_0
 10
152.70260859443741
 20
273.09837994941518
 30
0.0
 11
152.20260859443741
 21
273.77236763454221
 31
0.0
  0
LINE
  5
55DC
  8
AM_0
 10
152.20260859443741
 20
273.31009236157018
 30
0.0
 11
152.70260859443741
 21
273.09837994941518
 31
0.0
  0
ARC
  5
55DD
  8
AM_0
 10
149.70260859443741
 20
275.70003472404721
 30
0.0
 40
1.0
 50
180.0
 51
230.19442890773689
  0
CIRCLE
  5
55DE
  8
AM_0
 10
183.10127969078181
 20
309.73165977806281
 30
0.0
 40
4.0
  0
LINE
  5
55DF
  8
AM_0
 10
182.78977969078181
 20
307.4528513723385
 30
0.0
 11
183.4127796907818
 21
307.4528513723385
 31
0.0
  0
LINE
  5
55E0
  8
AM_0
 10
182.78977969078181
 20
312.01046818378722
 30
0.0
 11
183.4127796907818
 21
312.01046818378722
 31
0.0
  0
LINE
  5
55E1
  8
AM_0
 10
182.78977969078181
 20
307.4528513723385
 30
0.0
 11
182.78977969078181
 21
309.42015977806278
 31
0.0
  0
LINE
  5
55E2
  8
AM_0
 10
182.78977969078181
 20
310.04315977806277
 30
0.0
 11
182.78977969078181
 21
312.01046818378722
 31
0.0
  0
LINE
  5
55E3
  8
AM_0
 10
182.78977969078181
 20
310.04315977806277
 30
0.0
 11
180.82247128505739
 21
310.04315977806277
 31
0.0
  0
LINE
  5
55E4
  8
AM_0
 10
182.78977969078181
 20
309.42015977806278
 30
0.0
 11
180.82247128505739
 21
309.42015977806278
 31
0.0
  0
LINE
  5
55E5
  8
AM_0
 10
180.82247128505739
 20
310.04315977806277
 30
0.0
 11
180.82247128505739
 21
309.42015977806278
 31
0.0
  0
LINE
  5
55E6
  8
AM_0
 10
183.4127796907818
 20
307.4528513723385
 30
0.0
 11
183.4127796907818
 21
309.42015977806278
 31
0.0
  0
LINE
  5
55E7
  8
AM_0
 10
183.4127796907818
 20
310.04315977806277
 30
0.0
 11
183.4127796907818
 21
312.01046818378722
 31
0.0
  0
LINE
  5
55E8
  8
AM_0
 10
185.380088096506
 20
309.42015977806278
 30
0.0
 11
183.4127796907818
 21
309.42015977806278
 31
0.0
  0
LINE
  5
55E9
  8
AM_0
 10
185.380088096506
 20
310.04315977806277
 30
0.0
 11
183.4127796907818
 21
310.04315977806277
 31
0.0
  0
LINE
  5
55EA
  8
AM_0
 10
185.380088096506
 20
310.04315977806277
 30
0.0
 11
185.380088096506
 21
309.42015977806278
 31
0.0
  0
CIRCLE
  5
55EB
  8
AM_0
 10
269.1012796907853
 20
309.73165977806269
 30
0.0
 40
4.0
  0
LINE
  5
55EC
  8
AM_0
 10
268.78977969078528
 20
307.45285137233839
 30
0.0
 11
269.41277969078533
 21
307.45285137233839
 31
0.0
  0
LINE
  5
55ED
  8
AM_0
 10
268.78977969078528
 20
312.01046818378711
 30
0.0
 11
269.41277969078533
 21
312.01046818378711
 31
0.0
  0
LINE
  5
55EE
  8
AM_0
 10
268.78977969078528
 20
307.45285137233839
 30
0.0
 11
268.78977969078528
 21
309.42015977806278
 31
0.0
  0
LINE
  5
55EF
  8
AM_0
 10
268.78977969078528
 20
310.04315977806277
 30
0.0
 11
268.78977969078528
 21
312.01046818378711
 31
0.0
  0
LINE
  5
55F0
  8
AM_0
 10
268.78977969078528
 20
310.04315977806277
 30
0.0
 11
266.822471285061
 21
310.04315977806277
 31
0.0
  0
LINE
  5
55F1
  8
AM_0
 10
268.78977969078528
 20
309.42015977806278
 30
0.0
 11
266.822471285061
 21
309.42015977806278
 31
0.0
  0
LINE
  5
55F2
  8
AM_0
 10
266.822471285061
 20
310.04315977806277
 30
0.0
 11
266.822471285061
 21
309.42015977806278
 31
0.0
  0
LINE
  5
55F3
  8
AM_0
 10
269.41277969078533
 20
307.45285137233839
 30
0.0
 11
269.41277969078533
 21
309.42015977806278
 31
0.0
  0
LINE
  5
55F4
  8
AM_0
 10
269.41277969078533
 20
310.04315977806277
 30
0.0
 11
269.41277969078533
 21
312.01046818378711
 31
0.0
  0
LINE
  5
55F5
  8
AM_0
 10
271.38008809650972
 20
309.42015977806278
 30
0.0
 11
269.41277969078533
 21
309.42015977806278
 31
0.0
  0
LINE
  5
55F6
  8
AM_0
 10
271.38008809650972
 20
310.04315977806277
 30
0.0
 11
269.41277969078533
 21
310.04315977806277
 31
0.0
  0
LINE
  5
55F7
  8
AM_0
 10
271.38008809650972
 20
310.04315977806277
 30
0.0
 11
271.38008809650972
 21
309.42015977806278
 31
0.0
  0
LINE
  5
55F8
  8
AM_0
 10
196.63681359671639
 20
313.26719368399603
 30
0.0
 11
179.5657457848508
 21
296.19612587213072
 31
0.0
  0
LINE
  5
55F9
  8
AM_0
 10
197.29366784620871
 20
308.26719368399591
 30
0.0
 11
184.56574578485069
 21
295.53927162263813
 31
0.0
  0
ARC
  5
55FA
  8
AM_0
 10
188.10127969078351
 20
292.0037377167053
 30
0.0
 40
5.0
 50
135.0
 51
180.0
1001
GENIUS_GENOBJ-N-FIL_13
1002
{
1000
OWNER
1000
GEN
1002
}
1001
GENIUS_GENODEF_13
1002
{
1000
HIER
1070
     0
1002
}
1002
{
1000
MANEDIT
1070
     0
1002
}
1002
{
1000
NOSEL
1070
     0
1002
}
1002
{
1000
BEHIND
1070
     0
1002
}
1002
{
1000
OTHER
1070
     0
1002
}
1002
{
1000
REACTOR
1002
}
  0
LINE
  5
55FB
  8
AM_0
 10
255.56574578485069
 20
224.1961258721303
 30
0.0
 11
272.63681359671631
 21
241.26719368399571
 31
0.0
  0
ARC
  5
55FC
  8
AM_0
 10
252.03021187891801
 20
227.731659778063
 30
0.0
 40
5.0
 50
270.0
 51
315.0
1001
GENIUS_GENODEF_13
1002
{
1000
HIER
1070
     0
1002
}
1002
{
1000
MANEDIT
1070
     0
1002
}
1002
{
1000
NOSEL
1070
     0
1002
}
1002
{
1000
BEHIND
1070
     0
1002
}
1002
{
1000
OTHER
1070
     0
1002
}
1002
{
1000
REACTOR
1002
}
1001
GENIUS_GENOBJ-N-FIL_13
1002
{
1000
OWNER
1000
GEN
1002
}
  0
LINE
  5
55FD
  8
AM_0
 10
254.90889153535849
 20
229.1961258721303
 30
0.0
 11
267.63681359671631
 21
241.924047933488
 31
0.0
  0
ARC
  5
55FE
  8
AM_0
 10
264.1012796907836
 20
245.45958183942071
 30
0.0
 40
5.0
 50
315.0
 51
0.0
1001
GENIUS_GENOBJ-N-FIL_13
1002
{
1000
OWNER
1000
GEN
1002
}
1001
GENIUS_GENODEF_13
1002
{
1000
HIER
1070
     0
1002
}
1002
{
1000
MANEDIT
1070
     0
1002
}
1002
{
1000
NOSEL
1070
     0
1002
}
1002
{
1000
BEHIND
1070
     0
1002
}
1002
{
1000
OTHER
1070
     0
1002
}
1002
{
1000
REACTOR
1002
}
  0
LINE
  5
55FF
  8
AM_0
 10
196.63681359671611
 20
224.1961258721303
 30
0.0
 11
179.5657457848508
 21
241.26719368399549
 31
0.0
  0
LINE
  5
5600
  8
AM_0
 10
197.29366784620839
 20
229.1961258721303
 30
0.0
 11
184.56574578485069
 21
241.924047933488
 31
0.0
  0
ARC
  5
5601
  8
AM_0
 10
200.82920175214119
 20
232.731659778063
 30
0.0
 40
5.0
 50
225.0
 51
270.0
1001
GENIUS_GENOBJ-N-FIL_13
1002
{
1000
OWNER
1000
GEN
1002
}
1001
GENIUS_GENODEF_13
1002
{
1000
HIER
1070
     0
1002
}
1002
{
1000
MANEDIT
1070
     0
1002
}
1002
{
1000
NOSEL
1070
     0
1002
}
1002
{
1000
BEHIND
1070
     0
1002
}
1002
{
1000
OTHER
1070
     0
1002
}
1002
{
1000
REACTOR
1002
}
  0
CIRCLE
  5
5602
  8
AM_0
 10
183.10127969078169
 20
227.7316597780634
 30
0.0
 40
4.0
  0
LINE
  5
5603
  8
AM_0
 10
182.78977969078159
 20
230.01046818378779
 30
0.0
 11
183.4127796907816
 21
230.01046818378779
 31
0.0
  0
LINE
  5
5604
  8
AM_0
 10
182.78977969078159
 20
225.4528513723391
 30
0.0
 11
183.4127796907816
 21
225.4528513723391
 31
0.0
  0
LINE
  5
5605
  8
AM_0
 10
182.78977969078159
 20
230.01046818378779
 30
0.0
 11
182.78977969078159
 21
228.0431597780634
 31
0.0
  0
LINE
  5
5606
  8
AM_0
 10
182.78977969078159
 20
227.42015977806341
 30
0.0
 11
182.78977969078159
 21
225.4528513723391
 31
0.0
  0
LINE
  5
5607
  8
AM_0
 10
182.78977969078159
 20
227.42015977806341
 30
0.0
 11
180.8224712850573
 21
227.42015977806341
 31
0.0
  0
LINE
  5
5608
  8
AM_0
 10
182.78977969078159
 20
228.0431597780634
 30
0.0
 11
180.8224712850573
 21
228.0431597780634
 31
0.0
  0
LINE
  5
5609
  8
AM_0
 10
180.8224712850573
 20
227.42015977806341
 30
0.0
 11
180.8224712850573
 21
228.0431597780634
 31
0.0
  0
LINE
  5
560A
  8
AM_0
 10
183.4127796907816
 20
230.01046818378779
 30
0.0
 11
183.4127796907816
 21
228.0431597780634
 31
0.0
  0
LINE
  5
560B
  8
AM_0
 10
183.4127796907816
 20
227.42015977806341
 30
0.0
 11
183.4127796907816
 21
225.4528513723391
 31
0.0
  0
LINE
  5
560C
  8
AM_0
 10
185.380088096506
 20
228.0431597780634
 30
0.0
 11
183.4127796907816
 21
228.0431597780634
 31
0.0
  0
LINE
  5
560D
  8
AM_0
 10
185.380088096506
 20
227.42015977806341
 30
0.0
 11
183.4127796907816
 21
227.42015977806341
 31
0.0
  0
LINE
  5
560E
  8
AM_0
 10
185.380088096506
 20
227.42015977806341
 30
0.0
 11
185.380088096506
 21
228.0431597780634
 31
0.0
  0
CIRCLE
  5
560F
  8
AM_0
 10
269.10127969078519
 20
227.7316597780632
 30
0.0
 40
4.0
  0
LINE
  5
5610
  8
AM_0
 10
268.78977969078522
 20
230.01046818378759
 30
0.0
 11
269.41277969078521
 21
230.01046818378759
 31
0.0
  0
LINE
  5
5611
  8
AM_0
 10
268.78977969078522
 20
225.4528513723389
 30
0.0
 11
269.41277969078521
 21
225.4528513723389
 31
0.0
  0
LINE
  5
5612
  8
AM_0
 10
268.78977969078522
 20
230.01046818378759
 30
0.0
 11
268.78977969078522
 21
228.0431597780632
 31
0.0
  0
LINE
  5
5613
  8
AM_0
 10
268.78977969078522
 20
227.42015977806321
 30
0.0
 11
268.78977969078522
 21
225.4528513723389
 31
0.0
  0
LINE
  5
5614
  8
AM_0
 10
268.78977969078522
 20
227.42015977806321
 30
0.0
 11
266.82247128506077
 21
227.42015977806321
 31
0.0
  0
LINE
  5
5615
  8
AM_0
 10
268.78977969078522
 20
228.0431597780632
 30
0.0
 11
266.82247128506077
 21
228.0431597780632
 31
0.0
  0
LINE
  5
5616
  8
AM_0
 10
266.82247128506077
 20
227.42015977806321
 30
0.0
 11
266.82247128506077
 21
228.0431597780632
 31
0.0
  0
LINE
  5
5617
  8
AM_0
 10
269.41277969078521
 20
230.01046818378759
 30
0.0
 11
269.41277969078521
 21
228.0431597780632
 31
0.0
  0
LINE
  5
5618
  8
AM_0
 10
269.41277969078521
 20
227.42015977806321
 30
0.0
 11
269.41277969078521
 21
225.4528513723389
 31
0.0
  0
LINE
  5
5619
  8
AM_0
 10
271.3800880965095
 20
228.0431597780632
 30
0.0
 11
269.41277969078521
 21
228.0431597780632
 31
0.0
  0
LINE
  5
561A
  8
AM_0
 10
271.3800880965095
 20
227.42015977806321
 30
0.0
 11
269.41277969078521
 21
227.42015977806321
 31
0.0
  0
LINE
  5
561B
  8
AM_0
 10
271.3800880965095
 20
227.42015977806321
 30
0.0
 11
271.3800880965095
 21
228.0431597780632
 31
0.0
  0
LINE
  5
561C
  8
AM_0
 10
178.10127969078351
 20
237.73165977806309
 30
0.0
 11
177.10127969078351
 21
237.73165977806309
 31
0.0
  0
LINE
  5
561D
  8
AM_0
 10
178.10127969078351
 20
299.7316597780632
 30
0.0
 11
177.10127969078351
 21
299.73165977806298
 31
0.0
  0
LINE
  5
561E
  8
AM_0
 10
177.10127969078351
 20
237.73165977806309
 30
0.0
 11
177.10127969078351
 21
299.73165977806298
 31
0.0
  0
LINE
  5
561F
  8
ﾁｭｳｼﾝｾﾝ1
 10
183.10127969078141
 20
303.73165977806281
 30
0.0
 11
183.10127969078201
 21
315.73165977806281
 31
0.0
  0
LINE
  5
5620
  8
ﾁｭｳｼﾝｾﾝ1
 10
189.10127969078181
 20
309.73165977806258
 30
0.0
 11
177.10127969078161
 21
309.7316597780632
 31
0.0
  0
LINE
  5
5621
  8
ﾁｭｳｼﾝｾﾝ1
 10
183.1012796907813
 20
221.7316597780634
 30
0.0
 11
183.10127969078181
 21
233.7316597780634
 31
0.0
  0
LINE
  5
5622
  8
ﾁｭｳｼﾝｾﾝ1
 10
189.10127969078161
 20
227.7316597780632
 30
0.0
 11
177.1012796907815
 21
227.7316597780638
 31
0.0
  0
LINE
  5
5623
  8
ﾁｭｳｼﾝｾﾝ1
 10
269.10127969078479
 20
221.73165977806329
 30
0.0
 11
269.10127969078547
 21
233.7316597780632
 31
0.0
  0
LINE
  5
5624
  8
ﾁｭｳｼﾝｾﾝ1
 10
275.10127969078519
 20
227.731659778063
 30
0.0
 11
263.10127969078519
 21
227.7316597780636
 31
0.0
  0
LINE
  5
5628
  8
AM_0
 10
140.9988274309012
 20
245.731659778063
 30
0.0
 11
150.1012796907834
 21
245.731659778063
 31
0.0
  0
ARC
  5
5629
  8
AM_0
 10
140.9988274309012
 20
235.731659778063
 30
0.0
 40
10.0
 50
90.0
 51
149.9999999999994
1001
GENIUS_GENOBJ-N-FIL_13
1002
{
1000
OWNER
1000
GEN
1002
}
1001
GENIUS_GENODEF_13
1002
{
1000
HIER
1070
     0
1002
}
1002
{
1000
MANEDIT
1070
     0
1002
}
1002
{
1000
NOSEL
1070
     0
1002
}
1002
{
1000
BEHIND
1070
     0
1002
}
1002
{
1000
OTHER
1070
     0
1002
}
1002
{
1000
REACTOR
1002
}
  0
LINE
  5
562A
  8
AM_0
 10
143.30822850765969
 20
251.731659778063
 30
0.0
 11
150.10127969078351
 21
251.73165977806289
 31
0.0
  0
ARC
  5
562B
  8
AM_0
 10
143.30822850765961
 20
231.731659778063
 30
0.0
 40
20.0
 50
90.0
 51
149.9999999999994
1001
GENIUS_GENODEF_13
1002
{
1000
HIER
1070
     0
1002
}
1002
{
1000
MANEDIT
1070
     0
1002
}
1002
{
1000
NOSEL
1070
     0
1002
}
1002
{
1000
BEHIND
1070
     0
1002
}
1002
{
1000
OTHER
1070
     0
1002
}
1002
{
1000
REACTOR
1002
}
1001
GENIUS_GENOBJ-N-FIL_13
1002
{
1000
OWNER
1000
GEN
1002
}
  0
LINE
  5
562C
  8
AM_0
 10
166.97627969078451
 20
242.341605721939
 30
0.0
 11
166.98698929532941
 21
242.1316597780629
 31
0.0
  0
LINE
  5
562D
  8
AM_0
 10
166.98698929532941
 20
242.1316597780629
 30
0.0
 11
167.02329468253041
 21
241.41994640417599
 31
0.0
  0
LINE
  5
562E
  8
AM_0
 10
166.97627969078451
 20
246.09893726958001
 30
0.0
 11
167.2223059134644
 21
242.1316597780629
 31
0.0
  0
LINE
  5
562F
  8
AM_0
 10
167.69460885481351
 20
242.1316597780629
 30
0.0
 11
167.29903834188951
 21
242.1316597780629
 31
0.0
  0
LINE
  5
5630
  8
AM_0
 10
167.20244584735039
 20
242.05754201132751
 30
0.0
 11
167.0412013493526
 21
241.45577754479939
 31
0.0
  0
LINE
  5
5631
  8
AM_0
 10
167.2223059134644
 20
242.1316597780629
 30
0.0
 11
167.20244584735039
 21
242.05754201132751
 31
0.0
  0
LINE
  5
5632
  8
AM_0
 10
165.47627969078451
 20
239.731659778063
 30
0.0
 11
165.47627969078451
 21
240.03165977806401
 31
0.0
  0
LINE
  5
5633
  8
AM_0
 10
154.97627969078351
 20
243.231659778063
 30
0.0
 11
154.97627969078351
 21
243.39924483719909
 31
0.0
  0
LINE
  5
5634
  8
AM_0
 10
154.97627969078351
 20
248.731659778063
 30
0.0
 11
154.97627969078351
 21
243.41268474565391
 31
0.0
  0
LINE
  5
5635
  8
AM_0
 10
157.7104671637735
 20
240.23165977806099
 30
0.0
 11
157.4762796907805
 21
240.23165977806099
 31
0.0
  0
LINE
  5
5636
  8
AM_0
 10
157.32635652397431
 20
240.4115675782293
 30
0.0
 11
157.4762796907805
 21
240.23165977806099
 31
0.0
  0
LINE
  5
5637
  8
AM_0
 10
154.97627969078351
 20
243.231659778063
 30
0.0
 11
155.0921690509845
 21
243.09259254582199
 31
0.0
  0
LINE
  5
5638
  8
AM_0
 10
165.47627969078451
 20
240.231659778064
 30
0.0
 11
166.77627969078441
 21
240.231659778064
 31
0.0
  0
LINE
  5
5639
  8
AM_0
 10
166.47627969078351
 20
240.20315604669801
 30
0.0
 11
166.47627969078451
 21
240.231659778064
 31
0.0
  0
LINE
  5
563A
  8
AM_0
 10
157.4762796907815
 20
241.19946856992701
 30
0.0
 11
163.47627969078451
 21
241.19946856992701
 31
0.0
  0
LINE
  5
563B
  8
AM_0
 10
163.47627969078451
 20
240.69946856992701
 30
0.0
 11
157.4762796907805
 21
240.69946856992701
 31
0.0
  0
LINE
  5
563C
  8
AM_0
 10
157.4762796907805
 20
240.69946856992701
 30
0.0
 11
157.9762796907805
 21
240.231659778063
 31
0.0
  0
LINE
  5
563D
  8
AM_0
 10
157.9762796907805
 20
240.69946856992701
 30
0.0
 11
157.4762796907815
 21
241.19946856992701
 31
0.0
  0
LINE
  5
563E
  8
AM_0
 10
157.4762796907815
 20
241.87044384589601
 30
0.0
 11
157.9762796907805
 21
241.19946856992701
 31
0.0
  0
LINE
  5
563F
  8
AM_0
 10
157.9762796907805
 20
241.919922086573
 30
0.0
 11
157.4762796907815
 21
241.87044384589601
 31
0.0
  0
LINE
  5
5640
  8
AM_0
 10
163.47627969078451
 20
247.64146594300499
 30
0.0
 11
163.47627969078451
 21
248.731659778063
 31
0.0
  0
LINE
  5
5641
  8
AM_0
 10
157.4762796907805
 20
247.731659778063
 30
0.0
 11
163.47627969078451
 21
247.731659778063
 31
0.0
  0
LINE
  5
5642
  8
AM_0
 10
157.9762796907805
 20
247.04339746955301
 30
0.0
 11
157.4762796907805
 21
247.731659778063
 31
0.0
  0
LINE
  5
5643
  8
AM_0
 10
157.4762796907805
 20
247.731659778063
 30
0.0
 11
157.9762796907815
 21
248.231659778063
 31
0.0
  0
LINE
  5
5644
  8
AM_0
 10
157.4762796907815
 20
248.731659778063
 30
0.0
 11
157.9762796907815
 21
248.231659778063
 31
0.0
  0
LINE
  5
5645
  8
AM_0
 10
157.9762796907815
 20
248.231659778063
 30
0.0
 11
163.47627969078451
 21
248.231659778063
 31
0.0
  0
LINE
  5
5646
  8
AM_0
 10
157.9762796907805
 20
247.04339746955301
 30
0.0
 11
163.47627969078451
 21
247.04339746955301
 31
0.0
  0
LINE
  5
5647
  8
AM_0
 10
157.9762796907805
 20
241.919922086573
 30
0.0
 11
163.47627969078451
 21
241.91992208657399
 31
0.0
  0
LINE
  5
5648
  8
AM_0
 10
166.47627969078351
 20
248.28165977806401
 30
0.0
 11
166.47627969078451
 21
248.731659778063
 31
0.0
  0
LINE
  5
5649
  8
AM_0
 10
165.47627969078451
 20
240.03165977806401
 30
0.0
 11
165.47627969078451
 21
248.73165977806499
 31
0.0
  0
LINE
  5
564A
  8
AM_0
 10
166.1762796907835
 20
241.774155090031
 30
0.0
 11
165.47627969078451
 21
241.774155090031
 31
0.0
  0
LINE
  5
564B
  8
AM_0
 10
166.47627969078351
 20
241.06904423274099
 30
0.0
 11
166.47627969078351
 21
241.47415509003099
 31
0.0
  0
LINE
  5
564C
  8
AM_0
 10
165.47627969078451
 20
240.76904423274101
 30
0.0
 11
166.1762796907835
 21
240.76904423274101
 31
0.0
  0
LINE
  5
564D
  8
AM_0
 10
166.1762796907835
 20
245.14775527543199
 30
0.0
 11
165.47627969078451
 21
245.14775527543199
 31
0.0
  0
LINE
  5
564E
  8
AM_0
 10
166.47627969078351
 20
244.04783900914001
 30
0.0
 11
166.47627969078351
 21
244.84775527543201
 31
0.0
  0
LINE
  5
564F
  8
AM_0
 10
165.47627969078451
 20
243.74783900913999
 30
0.0
 11
166.1762796907835
 21
243.74783900913999
 31
0.0
  0
LINE
  5
5650
  8
AM_0
 10
165.47627969078451
 20
247.981659778063
 30
0.0
 11
166.1762796907835
 21
247.981659778063
 31
0.0
  0
LINE
  5
5651
  8
AM_0
 10
166.97627969078451
 20
248.731659778063
 30
0.0
 11
166.97627969078451
 21
240.43165977806399
 31
0.0
  0
LINE
  5
5652
  8
AM_0
 10
163.6762796907835
 20
239.731659778063
 30
0.0
 11
165.47627969078451
 21
239.731659778063
 31
0.0
  0
LINE
  5
5653
  8
AM_0
 10
155.0921690509845
 20
243.09259254582199
 30
0.0
 11
157.32635652397431
 21
240.4115675782293
 31
0.0
  0
LINE
  5
5654
  8
AM_0
 10
166.20613080649011
 20
239.90464488963499
 30
0.0
 11
165.47627969078451
 21
239.83165977806399
 31
0.0
  0
LINE
  5
5655
  8
AM_0
 10
163.27627969078441
 20
240.231659778063
 30
0.0
 11
157.7104671637735
 21
240.23165977806099
 31
0.0
  0
LINE
  5
5656
  8
AM_0
 10
163.47627969078451
 20
247.64146594300499
 30
0.0
 11
163.47627969078451
 21
240.03165977806299
 31
0.0
  0
LINE
  5
5657
  8
AM_0
 10
163.47627969078451
 20
240.03165977806299
 30
0.0
 11
163.47627969078351
 21
239.93165977806299
 31
0.0
  0
LINE
  5
5658
  8
AM_0
 10
171.10127969078351
 20
240.43165977806319
 30
0.0
 11
171.10127969078351
 21
247.04339746955301
 31
0.0
  0
LINE
  5
5659
  8
AM_0
 10
167.60127969078451
 20
248.731659778063
 30
0.0
 11
167.97403354879441
 21
241.41552143054301
 31
0.0
  0
LINE
  5
565A
  8
AM_0
 10
168.15031506055951
 20
248.731659778063
 30
0.0
 11
168.52329468253041
 21
241.41994640417599
 31
0.0
  0
LINE
  5
565B
  8
AM_0
 10
167.79120134935249
 20
242.0575420113264
 30
0.0
 11
167.77134128323951
 21
242.1316597780629
 31
0.0
  0
LINE
  5
565C
  8
AM_0
 10
168.72230591346451
 20
242.1316597780629
 30
0.0
 11
168.70244584735039
 21
242.05754201132751
 31
0.0
  0
LINE
  5
565D
  8
AM_0
 10
168.44460885481351
 20
241.38165977806301
 30
0.0
 11
168.04903834188951
 21
241.38165977806301
 31
0.0
  0
LINE
  5
565E
  8
AM_0
 10
167.9524458473503
 20
241.4557775447995
 30
0.0
 11
167.79120134935249
 21
242.0575420113264
 31
0.0
  0
LINE
  5
565F
  8
AM_0
 10
168.70244584735039
 20
242.05754201132751
 30
0.0
 11
168.54120134935249
 21
241.45577754479939
 31
0.0
  0
LINE
  5
5660
  8
AM_0
 10
167.3620497544365
 20
248.731659778063
 30
0.0
 11
167.77134128323951
 21
242.1316597780629
 31
0.0
  0
LINE
  5
5661
  8
AM_0
 10
168.3130143846615
 20
248.731659778063
 30
0.0
 11
168.72230591346451
 21
242.1316597780629
 31
0.0
  0
LINE
  5
5662
  8
AM_0
 10
168.79903834188951
 20
242.1316597780629
 30
0.0
 11
170.60127969078351
 21
242.1316597780629
 31
0.0
  0
LINE
  5
5663
  8
AM_0
 10
171.10127969078351
 20
247.04339746955301
 30
0.0
 11
171.10127969078351
 21
248.731659778064
 31
0.0
  0
LINE
  5
5664
  8
AM_0
 10
171.3012796907835
 20
240.231659778063
 30
0.0
 11
174.90127969078341
 21
240.231659778063
 31
0.0
  0
LINE
  5
5665
  8
AM_0
 10
174.9012796907835
 20
247.04339746955301
 30
0.0
 11
171.10127969078351
 21
247.04339746955301
 31
0.0
  0
LINE
  5
5666
  8
AM_0
 10
171.10127969078351
 20
241.91992208657399
 30
0.0
 11
174.9012796907835
 21
241.91992208657399
 31
0.0
  0
LINE
  5
5667
  8
AM_0
 10
150.10127969078351
 20
248.731659778063
 30
0.0
 11
150.10127969078351
 21
244.481659778063
 31
0.0
  0
LINE
  5
5668
  8
AM_0
 10
154.97627969078351
 20
244.430523414427
 30
0.0
 11
150.10127969078351
 21
244.481659778063
 31
0.0
  0
LINE
  5
5669
  8
AM_0
 10
150.10127969078351
 20
252.981659778063
 30
0.0
 11
154.97627969078351
 21
253.0327961417
 31
0.0
  0
LINE
  5
566A
  8
AM_0
 10
150.10127969078351
 20
252.981659778063
 30
0.0
 11
150.10127969078351
 21
248.731659778063
 31
0.0
  0
LINE
  5
566B
  8
AM_0
 10
174.9012796907835
 20
255.54339746955301
 30
0.0
 11
171.10127969078351
 21
255.54339746955301
 31
0.0
  0
LINE
  5
566C
  8
AM_0
 10
171.10127969078351
 20
250.41992208657399
 30
0.0
 11
174.9012796907835
 21
250.41992208657399
 31
0.0
  0
LINE
  5
566D
  8
AM_0
 10
174.9012796907835
 20
257.23165977806298
 30
0.0
 11
171.3012796907835
 21
257.23165977806298
 31
0.0
  0
LINE
  5
566E
  8
AM_0
 10
171.10127969078351
 20
248.731659778064
 30
0.0
 11
171.10127969078351
 21
250.41992208657399
 31
0.0
  0
LINE
  5
566F
  8
AM_0
 10
170.60127969078351
 20
255.331659778063
 30
0.0
 11
168.05301211920951
 21
255.331659778063
 31
0.0
  0
LINE
  5
5670
  8
AM_0
 10
167.97627969078351
 20
255.331659778063
 30
0.0
 11
168.3130143846615
 21
248.731659778063
 31
0.0
  0
LINE
  5
5671
  8
AM_0
 10
167.02531506055851
 20
255.331659778063
 30
0.0
 11
167.3620497544365
 21
248.731659778063
 31
0.0
  0
LINE
  5
5672
  8
AM_0
 10
167.7951751266726
 20
256.00754201132639
 30
0.0
 11
167.95641962467039
 21
255.40577754479941
 31
0.0
  0
LINE
  5
5673
  8
AM_0
 10
167.0451751266726
 20
255.40577754479941
 30
0.0
 11
167.2064196246703
 21
256.00754201132639
 31
0.0
  0
LINE
  5
5674
  8
AM_0
 10
167.30301211920951
 20
256.081659778063
 30
0.0
 11
167.69858263213351
 21
256.081659778063
 31
0.0
  0
LINE
  5
5675
  8
AM_0
 10
167.95641962467039
 20
255.40577754479941
 30
0.0
 11
167.97627969078351
 21
255.331659778063
 31
0.0
  0
LINE
  5
5676
  8
AM_0
 10
167.02531506055851
 20
255.331659778063
 30
0.0
 11
167.0451751266726
 21
255.40577754479941
 31
0.0
  0
LINE
  5
5677
  8
AM_0
 10
167.7772684598504
 20
256.04337315194999
 30
0.0
 11
168.15031506055951
 21
248.731659778063
 31
0.0
  0
LINE
  5
5678
  8
AM_0
 10
167.22800732611441
 20
256.04779812558399
 30
0.0
 11
167.60127969078451
 21
248.731659778063
 31
0.0
  0
LINE
  5
5679
  8
AM_0
 10
171.10127969078351
 20
250.41992208657399
 30
0.0
 11
171.10127969078351
 21
257.03165977806373
 31
0.0
  0
LINE
  5
567A
  8
AM_0
 10
163.47627969078351
 20
257.53165977806401
 30
0.0
 11
163.47627969078451
 21
257.4316597780641
 31
0.0
  0
LINE
  5
567B
  8
AM_0
 10
163.47627969078451
 20
257.4316597780641
 30
0.0
 11
163.47627969078451
 21
249.82185361312199
 31
0.0
  0
LINE
  5
567C
  8
AM_0
 10
157.7104671637735
 20
257.23165977806599
 30
0.0
 11
163.27627969078441
 21
257.231659778064
 31
0.0
  0
LINE
  5
567D
  8
AM_0
 10
165.47627969078451
 20
257.63165977806301
 30
0.0
 11
166.20613080649011
 21
257.55867466649198
 31
0.0
  0
LINE
  5
567E
  8
AM_0
 10
157.3263565239744
 20
257.05175197789771
 30
0.0
 11
155.0921690509845
 21
254.37072701030499
 31
0.0
  0
LINE
  5
567F
  8
AM_0
 10
165.47627969078451
 20
257.73165977806298
 30
0.0
 11
163.6762796907835
 21
257.73165977806298
 31
0.0
  0
LINE
  5
5680
  8
AM_0
 10
166.97627969078451
 20
257.03165977806299
 30
0.0
 11
166.97627969078451
 21
248.731659778063
 31
0.0
  0
LINE
  5
5681
  8
AM_0
 10
166.1762796907835
 20
249.481659778063
 30
0.0
 11
165.47627969078451
 21
249.481659778063
 31
0.0
  0
LINE
  5
5682
  8
AM_0
 10
166.1762796907835
 20
253.71548054698701
 30
0.0
 11
165.47627969078451
 21
253.71548054698701
 31
0.0
  0
LINE
  5
5683
  8
AM_0
 10
166.47627969078351
 20
252.615564280695
 30
0.0
 11
166.47627969078351
 21
253.415480546987
 31
0.0
  0
LINE
  5
5684
  8
AM_0
 10
165.47627969078451
 20
252.31556428069501
 30
0.0
 11
166.1762796907835
 21
252.31556428069501
 31
0.0
  0
LINE
  5
5685
  8
AM_0
 10
166.1762796907835
 20
256.69427532338602
 30
0.0
 11
165.47627969078451
 21
256.69427532338602
 31
0.0
  0
LINE
  5
5686
  8
AM_0
 10
166.47627969078351
 20
255.98916446609601
 30
0.0
 11
166.47627969078351
 21
256.39427532338601
 31
0.0
  0
LINE
  5
5687
  8
AM_0
 10
165.47627969078451
 20
255.689164466096
 30
0.0
 11
166.1762796907835
 21
255.689164466096
 31
0.0
  0
LINE
  5
5688
  8
AM_0
 10
165.47627969078451
 20
248.73165977806499
 30
0.0
 11
165.47627969078451
 21
257.43165977806302
 31
0.0
  0
LINE
  5
5689
  8
AM_0
 10
166.47627969078451
 20
248.731659778063
 30
0.0
 11
166.47627969078351
 21
249.18165977806299
 31
0.0
  0
LINE
  5
568A
  8
AM_0
 10
163.47627969078451
 20
255.54339746955301
 30
0.0
 11
157.9762796907805
 21
255.54339746955301
 31
0.0
  0
LINE
  5
568B
  8
AM_0
 10
163.47627969078451
 20
250.41992208657399
 30
0.0
 11
157.9762796907805
 21
250.419922086573
 31
0.0
  0
LINE
  5
568C
  8
AM_0
 10
163.47627969078451
 20
249.231659778063
 30
0.0
 11
157.9762796907815
 21
249.231659778063
 31
0.0
  0
LINE
  5
568D
  8
AM_0
 10
157.9762796907815
 20
249.231659778063
 30
0.0
 11
157.4762796907815
 21
248.731659778063
 31
0.0
  0
LINE
  5
568E
  8
AM_0
 10
157.9762796907815
 20
249.231659778063
 30
0.0
 11
157.4762796907805
 21
249.731659778063
 31
0.0
  0
LINE
  5
568F
  8
AM_0
 10
157.4762796907805
 20
249.731659778063
 30
0.0
 11
157.9762796907805
 21
250.419922086573
 31
0.0
  0
LINE
  5
5690
  8
AM_0
 10
163.47627969078451
 20
249.731659778063
 30
0.0
 11
157.4762796907805
 21
249.731659778063
 31
0.0
  0
LINE
  5
5691
  8
AM_0
 10
163.47627969078451
 20
248.731659778063
 30
0.0
 11
163.47627969078451
 21
249.82185361312199
 31
0.0
  0
LINE
  5
5692
  8
AM_0
 10
157.4762796907815
 20
255.592875710231
 30
0.0
 11
157.9762796907805
 21
255.54339746955301
 31
0.0
  0
LINE
  5
5693
  8
AM_0
 10
157.9762796907805
 20
256.2638509862
 30
0.0
 11
157.4762796907815
 21
255.592875710231
 31
0.0
  0
LINE
  5
5694
  8
AM_0
 10
157.4762796907815
 20
256.2638509862
 30
0.0
 11
157.9762796907805
 21
256.7638509862
 31
0.0
  0
LINE
  5
5695
  8
AM_0
 10
157.9762796907805
 20
257.23165977806309
 30
0.0
 11
157.4762796907805
 21
256.7638509862
 31
0.0
  0
LINE
  5
5696
  8
AM_0
 10
157.4762796907805
 20
256.7638509862
 30
0.0
 11
163.47627969078451
 21
256.7638509862
 31
0.0
  0
LINE
  5
5697
  8
AM_0
 10
163.47627969078451
 20
256.2638509862
 30
0.0
 11
157.4762796907815
 21
256.2638509862
 31
0.0
  0
LINE
  5
5698
  8
AM_0
 10
166.47627969078451
 20
257.23165977806309
 30
0.0
 11
166.47627969078351
 21
257.26016350942899
 31
0.0
  0
LINE
  5
5699
  8
AM_0
 10
166.77627969078441
 20
257.23165977806298
 30
0.0
 11
165.47627969078451
 21
257.23165977806309
 31
0.0
  0
LINE
  5
569A
  8
AM_0
 10
155.0921690509845
 20
254.37072701030499
 30
0.0
 11
154.97627969078351
 21
254.231659778063
 31
0.0
  0
LINE
  5
569B
  8
AM_0
 10
157.4762796907805
 20
257.23165977806599
 30
0.0
 11
157.3263565239744
 21
257.05175197789771
 31
0.0
  0
LINE
  5
569C
  8
AM_0
 10
157.4762796907805
 20
257.23165977806599
 30
0.0
 11
157.7104671637735
 21
257.23165977806599
 31
0.0
  0
LINE
  5
569D
  8
AM_0
 10
154.97627969078351
 20
254.0506348104731
 30
0.0
 11
154.97627969078351
 21
248.731659778063
 31
0.0
  0
LINE
  5
569E
  8
AM_0
 10
154.97627969078351
 20
254.064074718927
 30
0.0
 11
154.97627969078351
 21
254.231659778063
 31
0.0
  0
LINE
  5
569F
  8
AM_0
 10
165.47627969078451
 20
257.43165977806302
 30
0.0
 11
165.47627969078451
 21
257.73165977806298
 31
0.0
  0
ARC
  5
56A0
  8
AM_0
 10
167.69460885481351
 20
242.03165977806299
 30
0.0
 40
0.0999999999999643
 50
15.00019500651257
 51
90.0
  0
ARC
  5
56A1
  8
AM_0
 10
164.2887796907805
 20
244.481659778063
 30
0.0
 40
6.8125000000000382
 50
157.91171016505771
 51
202.08828983494229
  0
ARC
  5
56A2
  8
AM_0
 10
174.90127969078341
 20
240.03165977806299
 30
0.0
 40
0.1999999999999993
 50
0.0
 51
90.0
  0
ARC
  5
56A3
  8
AM_0
 10
174.90127969078341
 20
257.43165977806291
 30
0.0
 40
0.2000000000000028
 50
270.0
 51
0.0
  0
ARC
  5
56A4
  8
AM_0
 10
164.2887796907805
 20
252.981659778063
 30
0.0
 40
6.8125000000000382
 50
157.91171016505771
 51
202.08828983494229
  0
ARC
  5
56A5
  8
AM_0
 10
166.94460885481351
 20
241.481659778063
 30
0.0
 40
0.1000000000000547
 50
288.4639767573006
 51
344.99980499348737
  0
ARC
  5
56A6
  8
AM_0
 10
167.29903834188951
 20
242.03165977806401
 30
0.0
 40
0.1000000000000014
 50
90.0
 51
164.9998049934843
  0
ARC
  5
56A7
  8
AM_0
 10
157.7104671637735
 20
240.7316597780611
 30
0.0
 40
0.499999999999975
 50
219.8055710921868
 51
270.0
  0
ARC
  5
56A8
  8
AM_0
 10
155.47627969078351
 20
243.41268474565399
 30
0.0
 40
0.5
 50
180.00000000000969
 51
219.80557109223059
  0
ARC
  5
56A9
  8
AM_0
 10
166.1762796907835
 20
241.47415509003099
 30
0.0
 40
0.3000000000000007
 50
0.0
 51
90.0
  0
ARC
  5
56AA
  8
AM_0
 10
166.1762796907835
 20
241.06904423274099
 30
0.0
 40
0.3000000000000043
 50
270.0
 51
0.0
  0
ARC
  5
56AB
  8
AM_0
 10
166.1762796907835
 20
244.84775527543201
 30
0.0
 40
0.3000000000000007
 50
0.0
 51
90.0
  0
ARC
  5
56AC
  8
AM_0
 10
166.1762796907835
 20
244.04783900914001
 30
0.0
 40
0.2999999999999971
 50
270.0
 51
0.0
  0
ARC
  5
56AD
  8
AM_0
 10
166.1762796907835
 20
248.28165977806401
 30
0.0
 40
0.2999999999999971
 50
270.0
 51
0.0
  0
ARC
  5
56AE
  8
AM_0
 10
166.1762796907835
 20
240.20315604669801
 30
0.0
 40
0.3000000000000302
 50
275.71059313755637
 51
0.0
  0
ARC
  5
56AF
  8
AM_0
 10
163.6762796907835
 20
239.93165977806299
 30
0.0
 40
0.1999999999999993
 50
180.0
 51
270.0
  0
ARC
  5
56B0
  8
AM_0
 10
166.77627969078441
 20
240.4316597780641
 30
0.0
 40
0.1999999999999957
 50
270.0
 51
0.0
  0
ARC
  5
56B1
  8
AM_0
 10
163.27627969078441
 20
240.03165977806299
 30
0.0
 40
0.1999999999999993
 50
359.99999999997061
 51
90.0
  0
ARC
  5
56B2
  8
AM_0
 10
168.79903834188951
 20
242.03165977806401
 30
0.0
 40
0.1000000000000014
 50
90.0
 51
164.9998049934843
  0
ARC
  5
56B3
  8
AM_0
 10
168.44460885481351
 20
241.481659778063
 30
0.0
 40
0.1000000000000014
 50
270.0
 51
344.99980499348737
  0
ARC
  5
56B4
  8
AM_0
 10
168.04903834188951
 20
241.481659778063
 30
0.0
 40
0.1000000000000311
 50
195.00019500644461
 51
270.0
  0
ARC
  5
56B5
  8
AM_0
 10
170.60127969078351
 20
241.63165977806301
 30
0.0
 40
0.5
 50
359.99999999997721
 51
90.0
  0
ARC
  5
56B6
  8
AM_0
 10
174.90127969078341
 20
246.843397469553
 30
0.0
 40
0.1999999999999993
 50
0.0
 51
90.0
  0
ARC
  5
56B7
  8
AM_0
 10
174.90127969078341
 20
242.11992208657401
 30
0.0
 40
0.2000000000000028
 50
270.0
 51
0.0
  0
ARC
  5
56B8
  8
AM_0
 10
171.3012796907835
 20
240.43165977806299
 30
0.0
 40
0.1999999999999993
 50
179.99999999994131
 51
270.0
  0
ARC
  5
56B9
  8
AM_0
 10
171.3012796907835
 20
257.03165977806401
 30
0.0
 40
0.2000000000000028
 50
90.0
 51
180.00000000005531
  0
ARC
  5
56BA
  8
AM_0
 10
174.90127969078341
 20
255.343397469553
 30
0.0
 40
0.1999999999999993
 50
0.0
 51
90.0
  0
ARC
  5
56BB
  8
AM_0
 10
174.90127969078341
 20
250.61992208657301
 30
0.0
 40
0.2000000000000028
 50
270.0
 51
0.0
  0
ARC
  5
56BC
  8
AM_0
 10
170.60127969078351
 20
255.831659778063
 30
0.0
 40
0.5
 50
270.0
 51
0.0000000000227982
  0
ARC
  5
56BD
  8
AM_0
 10
167.30301211920951
 20
255.981659778063
 30
0.0
 40
0.1000000000000014
 50
90.0
 51
164.99980499355539
  0
ARC
  5
56BE
  8
AM_0
 10
167.69858263213351
 20
255.981659778063
 30
0.0
 40
0.0999999999999608
 50
15.00019500651571
 51
90.0
  0
ARC
  5
56BF
  8
AM_0
 10
168.05301211920951
 20
255.43165977806299
 30
0.0
 40
0.0999999999999608
 50
195.00019500651561
 51
270.0
  0
ARC
  5
56C0
  8
AM_0
 10
166.94858263213339
 20
255.43165977806299
 30
0.0
 40
0.0999999999999803
 50
286.07948273872381
 51
344.99980499348419
  0
ARC
  5
56C1
  8
AM_0
 10
163.27627969078441
 20
257.4316597780641
 30
0.0
 40
0.1999999999999957
 50
270.0
 51
0.000000000029312
  0
ARC
  5
56C2
  8
AM_0
 10
166.77627969078441
 20
257.03165977806299
 30
0.0
 40
0.1999999999999993
 50
0.0
 51
90.0
  0
ARC
  5
56C3
  8
AM_0
 10
163.6762796907835
 20
257.53165977806401
 30
0.0
 40
0.2000000000000028
 50
90.0
 51
180.0
  0
ARC
  5
56C4
  8
AM_0
 10
166.1762796907835
 20
257.26016350942911
 30
0.0
 40
0.3000000000000007
 50
0.0
 51
84.289406862443656
  0
ARC
  5
56C5
  8
AM_0
 10
166.1762796907835
 20
249.18165977806299
 30
0.0
 40
0.3000000000000007
 50
0.0
 51
90.0
  0
ARC
  5
56C6
  8
AM_0
 10
166.1762796907835
 20
253.41548054698711
 30
0.0
 40
0.3000000000000007
 50
0.0
 51
90.0
  0
ARC
  5
56C7
  8
AM_0
 10
166.1762796907835
 20
252.615564280695
 30
0.0
 40
0.2999999999999971
 50
270.0
 51
0.0
  0
ARC
  5
56C8
  8
AM_0
 10
166.1762796907835
 20
256.39427532338601
 30
0.0
 40
0.3000000000000007
 50
0.0
 51
90.0
  0
ARC
  5
56C9
  8
AM_0
 10
166.1762796907835
 20
255.98916446609601
 30
0.0
 40
0.3000000000000043
 50
270.0
 51
0.0
  0
ARC
  5
56CA
  8
AM_0
 10
155.47627969078351
 20
254.05063481047301
 30
0.0
 40
0.5000000000000059
 50
140.19442890776941
 51
179.99999999998701
  0
ARC
  5
56CB
  8
AM_0
 10
157.7104671637735
 20
256.73165977806599
 30
0.0
 40
0.5
 50
90.0
 51
140.19442890781301
  0
LINE
  5
56CC
  8
AM_0
 10
175.3012796907835
 20
239.731659778063
 30
0.0
 11
177.10127969078351
 21
239.731659778063
 31
0.0
  0
LINE
  5
56CD
  8
AM_0
 10
175.10127969078351
 20
239.93165977806299
 30
0.0
 11
175.10127969078351
 21
257.53165977806401
 31
0.0
  0
LINE
  5
56CE
  8
AM_0
 10
177.10127969078351
 20
257.73165977806298
 30
0.0
 11
175.3012796907835
 21
257.73165977806298
 31
0.0
  0
ARC
  5
56CF
  8
AM_0
 10
175.3012796907835
 20
239.93165977806299
 30
0.0
 40
0.1999999999999993
 50
180.0
 51
270.0
  0
ARC
  5
56D0
  8
AM_0
 10
175.3012796907835
 20
257.53165977806401
 30
0.0
 40
0.2000000000000028
 50
90.0
 51
180.0
  0
LINE
  5
56D1
  8
ﾁｭｳｼﾝｾﾝ1
 10
147.1012796907834
 20
283.73165977806292
 30
0.0
 11
180.3992258292738
 21
283.73165977806292
 31
0.0
  0
POLYLINE
  5
56D2
  8
AM_0
 66
     1
 10
0.0
 20
0.0
 30
0.0
  0
VERTEX
  5
56D3
  8
AM_0
  6
CONTINUOUS
 10
171.4645254374762
 20
271.73165977806309
 30
0.0
  0
VERTEX
  5
56D4
  8
AM_0
  6
CONTINUOUS
 10
171.46944969078351
 20
264.99918277806307
 30
0.0
 42
-1.0
  0
SEQEND
  5
56D5
  8
AM_0
  0
LINE
  5
56D6
  8
AM_0
 10
177.10127969078351
 20
264.73166077806297
 30
0.0
 11
171.4666896907834
 21
264.73166077806309
 31
0.0
  0
LINE
  5
56D7
  8
AM_0
 10
177.10127969078351
 20
262.73165977806298
 30
0.0
 11
171.4666896907834
 21
262.73165977806309
 31
0.0
  0
ARC
  5
56D8
  8
AM_0
 10
170.37018969078341
 20
263.72775277806312
 30
0.0
 40
1.26892095
 50
90.000003000000945
 51
270.0
  0
ARC
  5
56D9
  8
AM_0
 10
171.65064969078341
 20
263.73165877806309
 30
0.0
 40
1.0000000199999981
 50
90.000003000000945
 51
270.0
  0
LINE
  5
56DA
  8
AM_0
 10
170.37018969078341
 20
264.9966747780631
 30
0.0
 11
177.10127969078351
 21
264.9966747780631
 31
0.0
  0
LINE
  5
56DB
  8
AM_0
 10
170.37018969078341
 20
262.45883077806309
 30
0.0
 11
177.10127969078351
 21
262.45883077806309
 31
0.0
  0
POLYLINE
  5
56DC
  8
AM_0
 66
     1
 10
0.0
 20
0.0
 30
0.0
  0
VERTEX
  5
56DD
  8
AM_0
 10
171.5100396907834
 20
262.46232877806312
 30
0.0
  0
VERTEX
  5
56DE
  8
AM_0
 10
171.72081073569041
 20
257.23165977806298
 30
0.0
 42
-1.0
  0
SEQEND
  5
56DF
  8
AM_0
  0
LINE
  5
56E0
  8
AM_0
 10
153.6012896907842
 20
320.79306328683492
 30
0.0
 11
153.601289690784
 21
294.7316597780632
 31
0.0
  0
LINE
  5
56E1
  8
AM_0
 10
144.6012896907834
 20
322.73165977806292
 30
0.0
 11
144.6012896907832
 21
251.73165977806289
 31
0.0
  0
LINE
  5
56E2
  8
AM_0
 10
144.6012896907834
 20
245.731659778063
 30
0.0
 11
144.6012896907834
 21
214.731659778063
 31
0.0
  0
LINE
  5
56E3
  8
AM_0
 10
144.6012896907834
 20
322.73165977806292
 30
0.0
 11
161.6012896907834
 21
321.73165977806292
 31
0.0
  0
LINE
  5
56E4
  8
AM_0
 10
144.6012896907834
 20
214.731659778063
 30
0.0
 11
161.6012896907834
 21
215.73165977806309
 31
0.0
  0
LINE
  5
56E5
  8
AM_0
 10
153.60128969078411
 20
312.32556297615452
 30
0.0
 11
161.6012896907832
 21
312.3255629761544
 31
0.0
  0
LINE
  5
56E6
  8
AM_0
 10
153.6012896907842
 20
320.79306328683492
 30
0.0
 11
161.6012896907834
 21
320.79306328683492
 31
0.0
  0
LINE
  5
56E7
  8
AM_0
 10
150.10128969078411
 20
303.37253274332312
 30
0.0
 11
153.60128969078411
 21
303.37253274332312
 31
0.0
  0
LINE
  5
56E8
  8
AM_0
 10
150.10128969078411
 20
311.87253274332312
 30
0.0
 11
153.6012896907842
 21
311.87253274332312
 31
0.0
  0
LINE
  5
56E9
  8
AM_0
 10
149.60128969078411
 20
311.37253274332312
 30
0.0
 11
149.60128969078411
 21
303.87253274332312
 31
0.0
  0
ARC
  5
56EA
  8
AM_0
 10
150.10128969078411
 20
311.37253274332312
 30
0.0
 40
0.5
 50
90.0
 51
180.0
  0
ARC
  5
56EB
  8
AM_0
 10
150.10128969078411
 20
303.87253274332312
 30
0.0
 40
0.5
 50
180.0
 51
270.0
  0
LINE
  5
56EC
  8
AM_0
 10
144.6012896907834
 20
311.00385427120312
 30
0.0
 11
149.60128969078411
 21
311.00385427120318
 31
0.0
  0
LINE
  5
56ED
  8
AM_0
 10
144.6012896907834
 20
301.2687717729072
 30
0.0
 11
153.601289690784
 21
301.26877177290709
 31
0.0
  0
LINE
  5
56EE
  8
AM_0
 10
153.6012896907842
 20
216.670256269291
 30
0.0
 11
153.601289690784
 21
244.44494638645489
 31
0.0
  0
LINE
  5
56EF
  8
AM_0
 10
153.60128969078411
 20
225.13775657997149
 30
0.0
 11
161.6012896907832
 21
225.13775657997161
 31
0.0
  0
LINE
  5
56F0
  8
AM_0
 10
153.6012896907842
 20
216.670256269291
 30
0.0
 11
161.6012896907834
 21
216.670256269291
 31
0.0
  0
LINE
  5
56F1
  8
AM_0
 10
150.10128969078411
 20
234.09078681280289
 30
0.0
 11
153.60128969078411
 21
234.09078681280289
 31
0.0
  0
LINE
  5
56F2
  8
AM_0
 10
150.10128969078411
 20
225.59078681280289
 30
0.0
 11
153.6012896907842
 21
225.59078681280289
 31
0.0
  0
LINE
  5
56F3
  8
AM_0
 10
149.60128969078411
 20
226.09078681280289
 30
0.0
 11
149.60128969078411
 21
233.59078681280289
 31
0.0
  0
ARC
  5
56F4
  8
AM_0
 10
150.10128969078411
 20
226.09078681280289
 30
0.0
 40
0.5
 50
180.0
 51
270.0
  0
ARC
  5
56F5
  8
AM_0
 10
150.10128969078411
 20
233.59078681280289
 30
0.0
 40
0.5
 50
90.0
 51
180.0
  0
LINE
  5
56F6
  8
AM_0
 10
144.6012896907834
 20
226.4594652849228
 30
0.0
 11
149.60128969078411
 21
226.4594652849228
 31
0.0
  0
LINE
  5
56F7
  8
AM_0
 10
144.6012896907834
 20
236.19454778321881
 30
0.0
 11
153.601289690784
 21
236.19454778321881
 31
0.0
  0
LINE
  5
56F8
  8
AM_0
 10
109.6907049394477
 20
304.72207062298912
 30
0.0
 11
109.6907049394477
 21
298.21046572403031
 31
0.0
  0
LINE
  5
56F9
  8
AM_0
 10
106.6012896907831
 20
257.73165977806298
 30
0.0
 11
106.6012896907831
 21
252.231659778063
 31
0.0
  0
LINE
  5
56FA
  8
AM_0
 10
112.1012896907831
 20
265.23165977806298
 30
0.0
 11
112.1012896907831
 21
272.23165977806281
 31
0.0
  0
LINE
  5
56FB
  8
AM_0
 10
123.80128969078319
 20
252.231659778063
 30
0.0
 11
106.6012896907831
 21
252.231659778063
 31
0.0
  0
LINE
  5
56FC
  8
AM_0
 10
138.6012896907832
 20
214.73165977806281
 30
0.0
 11
138.6012896907832
 21
245.43999706025039
 31
0.0
  0
LINE
  5
56FD
  8
AM_0
 10
138.6012896907832
 20
251.16988827178571
 30
0.0
 11
138.6012896907832
 21
322.73165977806292
 31
0.0
  0
LINE
  5
56FE
  8
AM_0
 10
106.6012896907831
 20
267.23165977806298
 30
0.0
 11
107.5012896907831
 21
267.23165977806298
 31
0.0
  0
LINE
  5
56FF
  8
AM_0
 10
124.1012896907832
 20
260.23165977806298
 30
0.0
 11
124.1012896907832
 21
262.81616946266689
 31
0.0
  0
LINE
  5
5700
  8
AM_0
 10
104.4012896907829
 20
270.23165977806298
 30
0.0
 11
104.4012896907829
 21
267.23165977806298
 31
0.0
  0
LINE
  5
5701
  8
AM_0
 10
107.5012896907831
 20
266.95930804347938
 30
0.0
 11
107.5012896907832
 21
270.50401151264668
 31
0.0
  0
LINE
  5
5702
  8
AM_0
 10
104.1012896907831
 20
269.93165977806291
 30
0.0
 11
107.5012896907832
 21
269.93165977806291
 31
0.0
  0
LINE
  5
5703
  8
AM_0
 10
111.5012896907831
 20
266.35008991765579
 30
0.0
 11
111.5012896907831
 21
265.23165977806298
 31
0.0
  0
LINE
  5
5704
  8
AM_0
 10
111.5012896907831
 20
267.23165977806298
 30
0.0
 11
111.5012896907831
 21
267.1316597780629
 31
0.0
  0
LINE
  5
5705
  8
AM_0
 10
111.5012896907831
 20
267.1316597780629
 30
0.0
 11
111.5012896907831
 21
266.35008991765579
 31
0.0
  0
LINE
  5
5706
  8
AM_0
 10
106.6012896907831
 20
252.231659778063
 30
0.0
 11
106.6012896907831
 21
243.9941257686406
 31
0.0
  0
LINE
  5
5707
  8
AM_0
 10
123.9548430813765
 20
263.16972285326028
 30
0.0
 11
123.59977595518821
 21
263.52478997944849
 31
0.0
  0
LINE
  5
5708
  8
AM_0
 10
106.6012896907831
 20
270.23165977806298
 30
0.0
 11
106.6012896907831
 21
293.46919378748521
 31
0.0
  0
LINE
  5
5709
  8
AM_0
 10
138.6012896907832
 20
313.73165977806298
 30
0.0
 11
114.8312809901505
 21
313.73165977806292
 31
0.0
  0
LINE
  5
570A
  8
AM_0
 10
106.6012896907831
 20
258.65806295378411
 30
0.0
 11
106.6012896907831
 21
267.23165977806298
 31
0.0
  0
LINE
  5
570B
  8
AM_0
 10
144.6012896907834
 20
322.73165977806292
 30
0.0
 11
138.6012896907832
 21
322.73165977806292
 31
0.0
  0
LINE
  5
570C
  8
AM_0
 10
138.6012896907832
 20
214.73165977806281
 30
0.0
 11
144.6012896907832
 21
214.73165977806281
 31
0.0
  0
LINE
  5
570D
  8
AM_0
 10
138.6012896907832
 20
223.73165977806289
 30
0.0
 11
129.1012896907832
 21
223.73165977806289
 31
0.0
  0
LINE
  5
570E
  8
AM_0
 10
106.6468664317465
 20
293.99013832048598
 30
0.0
 11
109.2163098794088
 21
308.56217623174967
 31
0.0
  0
LINE
  5
570F
  8
AM_0
 10
106.6012896907831
 20
258.65806295378411
 30
0.0
 11
106.6012896907831
 21
257.73165977806298
 31
0.0
  0
LINE
  5
5710
  8
AM_0
 10
129.1012896907832
 20
223.80028222844891
 30
0.0
 11
126.5385023918862
 21
223.80028222844891
 31
0.0
  0
LINE
  5
5711
  8
AM_0
 10
112.6451281984843
 20
223.73165977806289
 30
0.0
 11
113.6012896907832
 21
223.73165977806289
 31
0.0
  0
LINE
  5
5712
  8
AM_0
 10
106.6468664317465
 20
243.47318123563991
 30
0.0
 11
109.6907049394477
 21
226.21071524506209
 31
0.0
  0
LINE
  5
5713
  8
AM_0
 10
106.6012896907831
 20
243.731659778063
 30
0.0
 11
106.6468664317465
 21
243.47318123563991
 31
0.0
  0
LINE
  5
5714
  8
AM_0
 10
106.6012896907831
 20
243.9941257686406
 30
0.0
 11
106.6012896907831
 21
243.731659778063
 31
0.0
  0
LINE
  5
5715
  8
AM_0
 10
117.6512896907833
 20
239.7306033896908
 30
0.0
 11
122.55128969078319
 21
239.7306033896908
 31
0.0
  0
LINE
  5
5716
  8
AM_0
 10
117.6512896907833
 20
238.51758307125829
 30
0.0
 11
122.55128969078319
 21
238.51758307125829
 31
0.0
  0
LINE
  5
5717
  8
AM_0
 10
116.8512896907831
 20
238.9306033896909
 30
0.0
 11
116.8512896907831
 21
233.28947196924449
 31
0.0
  0
LINE
  5
5718
  8
AM_0
 10
116.8512896907831
 20
231.45806610031181
 30
0.0
 11
116.8512896907831
 21
233.28947196924449
 31
0.0
  0
LINE
  5
5719
  8
AM_0
 10
113.0012896907831
 20
224.7683694403888
 30
0.0
 11
113.0012896907831
 21
231.39093381851589
 31
0.0
  0
LINE
  5
571A
  8
AM_0
 10
123.3512896907831
 20
238.9306033896909
 30
0.0
 11
123.3512896907831
 21
237.1652277836894
 31
0.0
  0
LINE
  5
571B
  8
AM_0
 10
127.2012896907832
 20
231.39093381851589
 30
0.0
 11
127.2012896907832
 21
224.7683694403888
 31
0.0
  0
LINE
  5
571C
  8
AM_0
 10
118.7364542895569
 20
229.172098400198
 30
0.0
 11
113.6012896907832
 21
227.38208314497359
 31
0.0
  0
LINE
  5
571D
  8
AM_0
 10
126.6012896907831
 20
227.38208314497359
 30
0.0
 11
124.9612534646372
 21
227.95376683834991
 31
0.0
  0
LINE
  5
571E
  8
AM_0
 10
117.5909162854102
 20
227.18796837501489
 30
0.0
 11
113.6012896907832
 21
225.79726466344599
 31
0.0
  0
LINE
  5
571F
  8
AM_0
 10
126.6012896907831
 20
225.79726466344599
 30
0.0
 11
124.1995524756138
 21
226.6344620251858
 31
0.0
  0
LINE
  5
5720
  8
AM_0
 10
126.6012896907831
 20
227.38208314497359
 30
0.0
 11
126.6012896907831
 21
224.5129419961288
 31
0.0
  0
LINE
  5
5721
  8
AM_0
 10
126.6012896907831
 20
224.5129419961288
 30
0.0
 11
126.6012896907831
 21
222.49369937800819
 31
0.0
  0
LINE
  5
5722
  8
AM_0
 10
120.101247428957
 20
220.2279151787925
 30
0.0
 11
126.6012896907831
 21
222.49369937800819
 31
0.0
  0
LINE
  5
5723
  8
AM_0
 10
113.6012896907832
 20
222.49369937800819
 30
0.0
 11
113.6012896907832
 21
224.5129419961288
 31
0.0
  0
LINE
  5
5724
  8
AM_0
 10
113.6012896907832
 20
222.49369937800819
 30
0.0
 11
120.101247428957
 21
220.2279446420404
 31
0.0
  0
LINE
  5
5725
  8
AM_0
 10
113.6012896907832
 20
224.5129419961288
 30
0.0
 11
113.6012896907832
 21
227.38208314497359
 31
0.0
  0
LINE
  5
5726
  8
AM_0
 10
106.1012510227763
 20
322.23165977806292
 30
0.0
 11
106.1012285703776
 21
349.23165977806292
 31
0.0
  0
LINE
  5
5727
  8
AM_0
 10
106.1012285703776
 20
349.23165977806292
 30
0.0
 11
114.1012285703802
 21
349.23165977806292
 31
0.0
  0
LINE
  5
5728
  8
AM_0
 10
114.1012285703802
 20
349.23165977806292
 30
0.0
 11
115.6012239152011
 21
354.82971861605148
 31
0.0
  0
LINE
  5
5729
  8
AM_0
 10
115.6012239152011
 20
354.82971861605148
 30
0.0
 11
115.60120915184081
 21
372.58331089594179
 31
0.0
  0
LINE
  5
572A
  8
AM_0
 10
106.1012285703776
 20
349.23165977806292
 30
0.0
 11
104.6012239151686
 21
354.82975336289292
 31
0.0
  0
LINE
  5
572B
  8
AM_0
 10
104.6012239151686
 20
354.82975336289292
 30
0.0
 11
104.6012091518446
 21
372.58330174866842
 31
0.0
  0
LINE
  5
572C
  8
AM_0
 10
110.1012510227776
 20
372.58330174866842
 30
0.0
 11
110.1012510227776
 21
354.82975336289292
 31
0.0
  0
LINE
  5
572D
  8
AM_0
 10
114.1012285703802
 20
349.23165977806292
 30
0.0
 11
114.1012510227791
 21
322.23165977806292
 31
0.0
  0
LINE
  5
572E
  8
AM_0
 10
124.1012896907832
 20
298.21046572403031
 30
0.0
 11
124.1012896907832
 21
252.53165977806299
 31
0.0
  0
LINE
  5
572F
  8
AM_0
 10
112.1012896907831
 20
262.81616946266689
 30
0.0
 11
112.1012896907831
 21
260.23165977806298
 31
0.0
  0
LINE
  5
5730
  8
AM_0
 10
112.6028034263782
 20
263.52478997944849
 30
0.0
 11
112.24773630019
 21
263.16972285326028
 31
0.0
  0
LINE
  5
5731
  8
AM_0
 10
123.6012896907832
 20
259.73165977806298
 30
0.0
 11
112.6012896907832
 21
259.73165977806298
 31
0.0
  0
LINE
  5
5732
  8
AM_0
 10
103.6012518542823
 20
321.23165437285593
 30
0.0
 11
103.60127888031769
 21
316.23165437285593
 31
0.0
  0
LINE
  5
5733
  8
AM_0
 10
116.6012518544137
 20
321.23166518327002
 30
0.0
 11
116.6012777822334
 21
316.43484252989941
 31
0.0
  0
LINE
  5
5734
  8
AM_0
 10
107.2217929428641
 20
314.23165977806292
 30
0.0
 11
106.6502310414987
 21
314.88824360012319
 31
0.0
  0
LINE
  5
5735
  8
AM_0
 10
104.6012788803031
 20
315.23165977806292
 30
0.0
 11
115.6012777822335
 21
315.23165977806292
 31
0.0
  0
LINE
  5
5736
  8
AM_0
 10
116.6012777822334
 20
316.43484252989941
 30
0.0
 11
116.6012777822334
 21
316.23165977806292
 31
0.0
  0
LINE
  5
5737
  8
AM_0
 10
116.6012777822334
 20
316.43484252989941
 30
0.0
 11
116.6012788804492
 21
316.23166518327002
 31
0.0
  0
LINE
  5
5738
  8
AM_0
 10
104.6012518542676
 20
322.23165977806292
 30
0.0
 11
115.6012518544284
 21
322.23165977806292
 31
0.0
  0
LINE
  5
5739
  8
AM_0
 10
114.6087256529454
 20
314.26224684834841
 30
0.0
 11
121.7315253862908
 21
297.28100752960171
 31
0.0
  0
LINE
  5
573A
  8
AM_0
 10
107.2217929428641
 20
314.23165977806292
 30
0.0
 11
113.7985080181743
 21
295.53711914766069
 31
0.0
  0
LINE
  5
573B
  8
AM_0
 10
111.5012896907831
 20
267.23165977806298
 30
0.0
 11
111.5012896907831
 21
267.1316597780629
 31
0.0
  0
LINE
  5
573C
  8
AM_0
 10
111.5012896907831
 20
267.1316597780629
 30
0.0
 11
111.5012896907831
 21
266.35008991765579
 31
0.0
  0
LINE
  5
573D
  8
AM_0
 10
111.5012896907831
 20
265.23165977806298
 30
0.0
 11
112.1012896907831
 21
265.23165977806298
 31
0.0
  0
LINE
  5
573E
  8
AM_0
 10
108.80128969078319
 20
266.35008991765579
 30
0.0
 11
108.80128969078319
 21
271.11322963847027
 31
0.0
  0
LINE
  5
573F
  8
AM_0
 10
108.64024546152569
 20
266.06339828931277
 30
0.0
 11
107.7076924120185
 21
266.60180804347942
 31
0.0
  0
LINE
  5
5740
  8
AM_0
 10
111.5012896907831
 20
272.23165977806281
 30
0.0
 11
111.5012896907831
 21
267.23165977806298
 31
0.0
  0
LINE
  5
5741
  8
AM_0
 10
109.0737412828137
 20
265.55623329752001
 30
0.0
 11
111.2288380987526
 21
265.55623329752001
 31
0.0
  0
LINE
  5
5742
  8
AM_0
 10
109.0737412828137
 20
267.14394653779152
 30
0.0
 11
111.2288380987526
 21
267.14394653779158
 31
0.0
  0
LINE
  5
5743
  8
AM_0
 10
107.5012896907832
 20
270.23165977806298
 30
0.0
 11
104.4012896907829
 21
270.23165977806298
 31
0.0
  0
LINE
  5
5744
  8
AM_0
 10
104.4012896907829
 20
270.23165977806298
 30
0.0
 11
104.1012896907831
 21
269.93165977806291
 31
0.0
  0
LINE
  5
5745
  8
AM_0
 10
104.1012896907831
 20
269.93165977806291
 30
0.0
 11
104.10128969078301
 21
267.53165977806299
 31
0.0
  0
LINE
  5
5746
  8
AM_0
 10
104.4012896907829
 20
267.23165977806298
 30
0.0
 11
106.6012896907831
 21
267.23165977806298
 31
0.0
  0
LINE
  5
5747
  8
AM_0
 10
104.1012896907831
 20
267.53165977806299
 30
0.0
 11
104.4012896907829
 21
267.23165977806298
 31
0.0
  0
LINE
  5
5748
  8
AM_0
 10
107.5012896907831
 20
267.53165977806299
 30
0.0
 11
104.1012896907831
 21
267.53165977806299
 31
0.0
  0
ARC
  5
5749
  8
AM_0
 10
106.1012896907832
 20
268.73165977806298
 30
0.0
 40
18.000000000000082
 50
344.79096035988943
 51
15.209039640107409
  0
ARC
  5
574A
  8
AM_0
 10
110.20851287475659
 20
266.35008991765579
 30
0.0
 40
1.292776816026465
 50
322.11555894630482
 51
0.0
  0
ARC
  5
574B
  8
AM_0
 10
130.1012896907832
 20
268.73165977806298
 30
0.0
 40
17.999999999999918
 50
164.7909603598894
 51
195.20903964011049
  0
ARC
  5
574C
  8
AM_0
 10
117.4051025418517
 20
225.48207187172849
 30
0.0
 40
6.001601094213977
 50
95.294644622325137
 51
137.2036378052704
  0
ARC
  5
574D
  8
AM_0
 10
117.4051025418517
 20
227.3134777406612
 30
0.0
 40
6.0016010942139628
 50
95.294644622325137
 51
137.2036378052704
  0
ARC
  5
574E
  8
AM_0
 10
113.87102137598031
 20
225.9789575288126
 30
0.0
 40
1.4906229315522701
 50
234.30512237790029
 51
259.57476505017542
  0
ARC
  5
574F
  8
AM_0
 10
122.7974768397148
 20
227.3134777406612
 30
0.0
 40
6.0016010942138758
 50
42.796362194729539
 51
44.995924864879747
  0
ARC
  5
5750
  8
AM_0
 10
122.7974768397148
 20
225.48207187172849
 30
0.0
 40
6.0016010942138758
 50
42.796362194729539
 51
53.897278316401717
  0
ARC
  5
5751
  8
AM_0
 10
126.3315580055861
 20
225.9789575288126
 30
0.0
 40
1.490622931552253
 50
280.42523494982129
 51
305.69487762209508
  0
ARC
  5
5752
  8
AM_0
 10
110.1012160968241
 20
364.23165977806298
 30
0.0
 40
10.0
 50
56.63303467623782
 51
123.3670606147022
  0
ARC
  5
5753
  8
AM_0
 10
107.35123008731109
 20
368.1506533890626
 30
0.0
 40
5.2164151124522951
 50
58.18448044842868
 51
121.8155195515713
  0
ARC
  5
5754
  8
AM_0
 10
112.8512374609457
 20
368.14977849830251
 30
0.0
 40
5.217140387381062
 50
58.190058295973543
 51
121.81013228735971
  0
ARC
  5
5755
  8
AM_0
 10
107.3512374689731
 20
356.1977073772357
 30
0.0
 40
3.0714610092699122
 50
206.44737672421749
 51
333.55262327578248
  0
ARC
  5
5756
  8
AM_0
 10
112.8512461003443
 20
356.19596717254041
 30
0.0
 40
3.070669812974502
 50
206.41845794673139
 51
333.58081810520707
  0
ARC
  5
5757
  8
AM_0
 10
113.56371956684281
 20
268.73165977806298
 30
0.0
 40
4.762429876059711
 50
160.52575999458611
 51
199.4742400054138
  0
ARC
  5
5758
  8
AM_0
 10
110.0940665068097
 20
266.35008991765579
 30
0.0
 40
1.292776816026556
 50
142.11555894629771
 51
217.8844410536951
  0
ARC
  5
5759
  8
AM_0
 10
106.7388598147235
 20
268.73165977806298
 30
0.0
 40
4.762429876059584
 50
340.52575999458628
 51
19.474240005409651
  0
ARC
  5
575A
  8
AM_0
 10
110.20851287475659
 20
266.35008991765579
 30
0.0
 40
1.2927768160265021
 50
0.0
 51
37.884441053702282
  0
ARC
  5
575B
  8
AM_0
 10
119.8338378480795
 20
233.80676495264959
 30
8206336.7530117426
 40
12.9134744604336
 50
271.18655406403752
 51
287.92670513354841
  0
LINE
  5
575C
  8
AM_0
 10
123.8086067774781
 20
221.52022619683399
 30
8206336.7530117426
 11
124.2211875446793
 21
221.6734678822267
 31
8206336.7530117426
  0
LINE
  5
575D
  8
AM_0
 10
124.2211875446793
 20
221.6734678822267
 30
8206336.7530117426
 11
124.6236792889358
 21
221.8524372449325
 31
8206336.7530117426
  0
ARC
  5
575E
  8
AM_0
 10
122.11991764817989
 20
227.13723780865479
 30
8206336.7530117426
 40
5.8479004225482916
 50
295.35002817212489
 51
303.5670510400584
  0
LINE
  5
575F
  8
AM_0
 10
125.35329472418989
 20
222.2645371163924
 30
8206336.7530117426
 11
125.6678376034411
 21
222.496810571563
 31
8206336.7530117426
  0
LINE
  5
5760
  8
AM_0
 10
125.6678376034411
 20
222.496810571563
 30
8206336.7530117426
 11
125.95702675163849
 21
222.75968144760159
 31
8206336.7530117426
  0
ARC
  5
5761
  8
AM_0
 10
124.07814378826031
 20
224.625365837809
 30
8206336.7530117426
 40
2.647825416060579
 50
315.20195107610522
 51
327.6690874537353
  0
LINE
  5
5762
  8
AM_0
 10
126.31548586810609
 20
223.20928679634
 30
8206336.7530117426
 11
126.44440182438549
 21
223.44881856157619
 31
8206336.7530117426
  0
LINE
  5
5763
  8
AM_0
 10
126.44440182438549
 20
223.44881856157619
 30
8206336.7530117426
 11
126.5385023918862
 21
223.70347755006051
 31
8206336.7530117426
  0
ARC
  5
5764
  8
AM_0
 10
124.93968215293719
 20
224.15856621466381
 30
8206336.7530117426
 40
1.6623272388802151
 50
344.11151119415172
 51
352.55958186686092
  0
LINE
  5
5765
  8
AM_0
 10
126.58801269526511
 20
223.94330295176911
 30
8206336.7530117426
 11
126.5979173597062
 21
224.0441687054898
 31
8206336.7530117426
  0
LINE
  5
5766
  8
AM_0
 10
126.5979173597062
 20
224.0441687054898
 30
8206336.7530117426
 11
126.6012896907831
 21
224.14546741922859
 31
8206336.7530117426
  0
ARC
  5
5767
  8
AM_0
 10
125.0061962721137
 20
224.14249126773049
 30
8206336.7530117426
 40
1.595096195143147
 50
0.1069032823798393
 51
11.47976002760999
  0
LINE
  5
5768
  8
AM_0
 10
126.5693826811722
 20
224.459950119072
 30
8206336.7530117426
 11
126.528750770987
 21
224.62052399459651
 31
8206336.7530117426
  0
LINE
  5
5769
  8
AM_0
 10
126.528750770987
 20
224.62052399459651
 30
8206336.7530117426
 11
126.4731107064534
 21
224.7764922880192
 31
8206336.7530117426
  0
ARC
  5
576A
  8
AM_0
 10
124.5976364127996
 20
224.00110950663429
 30
8206336.7530117426
 40
2.029438908620818
 50
22.461811304460369
 51
32.14428943578929
  0
LINE
  5
576B
  8
AM_0
 10
126.3159844557963
 20
225.08087905934141
 30
8206336.7530117426
 11
126.1936957092618
 21
225.25818965206329
 31
8206336.7530117426
  0
LINE
  5
576C
  8
AM_0
 10
126.1936957092618
 20
225.25818965206329
 30
8206336.7530117426
 11
126.0568421089237
 21
225.42457157445281
 31
8206336.7530117426
  0
ARC
  5
576D
  8
AM_0
 10
123.55868412273981
 20
223.18155988864009
 30
8206336.7530117426
 40
3.357364255874967
 50
41.919595935556771
 51
50.918621528346122
  0
LINE
  5
576E
  8
AM_0
 10
125.6752456277472
 20
225.7877183915227
 30
8206336.7530117426
 11
125.25610701034709
 21
226.09041486914839
 31
8206336.7530117426
  0
LINE
  5
576F
  8
AM_0
 10
125.25610701034709
 20
226.09041486914839
 30
8206336.7530117426
 11
124.8069533304495
 21
226.347766570403
 31
8206336.7530117426
  0
ARC
  5
5770
  8
AM_0
 10
121.47572764742191
 20
219.8201562761335
 30
8206336.7530117426
 40
7.3284896605723491
 50
62.963482965306312
 51
68.223671679105692
  0
ARC
  5
5771
  8
AM_0
 10
120.3687415335025
 20
233.80676495270271
 30
8206336.7530117426
 40
12.91347446048893
 50
252.0732948664546
 51
268.81307083254751
  0
LINE
  5
5772
  8
AM_0
 10
116.3939726040883
 20
221.52022619683399
 30
8206336.7530117426
 11
115.9813918368871
 21
221.6734678822267
 31
8206336.7530117426
  0
LINE
  5
5773
  8
AM_0
 10
115.9813918368871
 20
221.6734678822267
 30
8206336.7530117426
 11
115.57890009263041
 21
221.8524372449325
 31
8206336.7530117426
  0
ARC
  5
5774
  8
AM_0
 10
118.0826617333913
 20
227.1372378086634
 30
8206336.7530117426
 40
5.8479004225582418
 50
236.43294895995061
 51
244.649971827868
  0
LINE
  5
5775
  8
AM_0
 10
114.8492846573764
 20
222.2645371163924
 30
8206336.7530117426
 11
114.53474177812529
 21
222.496810571563
 31
8206336.7530117426
  0
LINE
  5
5776
  8
AM_0
 10
114.53474177812529
 20
222.496810571563
 30
8206336.7530117426
 11
114.2455526299279
 21
222.75968144760159
 31
8206336.7530117426
  0
ARC
  5
5777
  8
AM_0
 10
116.1244355933058
 20
224.6253658378084
 30
8206336.7530117426
 40
2.6478254160599781
 50
212.3309125462558
 51
224.79804892389021
  0
LINE
  5
5778
  8
AM_0
 10
113.8870935134603
 20
223.20928679634
 30
8206336.7530117426
 11
113.758177557181
 21
223.44881856157619
 31
8206336.7530117426
  0
LINE
  5
5779
  8
AM_0
 10
113.758177557181
 20
223.44881856157619
 30
8206336.7530117426
 11
113.6640769896802
 21
223.70347755006051
 31
8206336.7530117426
  0
ARC
  5
577A
  8
AM_0
 10
115.2628972286588
 20
224.15856621467029
 30
8206336.7530117426
 40
1.6623272389105701
 50
187.4404181332275
 51
195.8884888057874
  0
LINE
  5
577B
  8
AM_0
 10
113.6145666863012
 20
223.94330295176911
 30
8206336.7530117426
 11
113.60466202186031
 21
224.0441687054898
 31
8206336.7530117426
  0
LINE
  5
577C
  8
AM_0
 10
113.60466202186031
 20
224.0441687054898
 30
8206336.7530117426
 11
113.6012896907832
 21
224.14546741922859
 31
8206336.7530117426
  0
ARC
  5
577D
  8
AM_0
 10
115.1963831094497
 20
224.14249126773049
 30
8206336.7530117426
 40
1.5950961951403351
 50
168.52023997237021
 51
179.8930967176201
  0
LINE
  5
577E
  8
AM_0
 10
113.63319670039419
 20
224.459950119072
 30
8206336.7530117426
 11
113.67382861057951
 21
224.62052399459651
 31
8206336.7530117426
  0
LINE
  5
577F
  8
AM_0
 10
113.67382861057951
 20
224.62052399459651
 30
8206336.7530117426
 11
113.7294686751128
 21
224.7764922880192
 31
8206336.7530117426
  0
ARC
  5
5780
  8
AM_0
 10
115.6049429687764
 20
224.00110950662841
 30
8206336.7530117426
 40
2.02943890863216
 50
147.8557105642179
 51
157.53818869548999
  0
LINE
  5
5781
  8
AM_0
 10
113.88659492577
 20
225.08087905934141
 30
8206336.7530117426
 11
114.00888367230461
 21
225.25818965206329
 31
8206336.7530117426
  0
LINE
  5
5782
  8
AM_0
 10
114.00888367230461
 20
225.25818965206329
 30
8206336.7530117426
 11
114.14573727264271
 21
225.42457157445281
 31
8206336.7530117426
  0
ARC
  5
5783
  8
AM_0
 10
116.6438952588353
 20
223.1815598886316
 30
8206336.7530117426
 40
3.3573642558870951
 50
129.0813784716793
 51
138.08040406443399
  0
LINE
  5
5784
  8
AM_0
 10
114.52733375381899
 20
225.7877183915227
 30
8206336.7530117426
 11
114.9464723712192
 21
226.09041486914839
 31
8206336.7530117426
  0
LINE
  5
5785
  8
AM_0
 10
114.9464723712192
 20
226.09041486914839
 30
8206336.7530117426
 11
115.39562605111701
 21
226.347766570403
 31
8206336.7530117426
  0
ARC
  5
5786
  8
AM_0
 10
118.72685173414339
 20
219.82015627613751
 30
8206336.7530117426
 40
7.3284896605682359
 50
109.0382363849769
 51
117.03651703470091
  0
LINE
  5
5787
  8
AM_0
 10
116.3363051893656
 20
226.74778559086749
 30
8206336.7530117426
 11
117.01280308393299
 21
226.95466544048591
 31
8206336.7530117426
  0
LINE
  5
5788
  8
AM_0
 10
117.01280308393299
 20
226.95466544048591
 30
8206336.7530117426
 11
117.5595924616682
 21
227.07976676203791
 31
8206336.7530117426
  0
ARC
  5
5789
  8
AM_0
 10
123.80128969078319
 20
252.53165977806299
 30
0.0
 40
0.2999999999999972
 50
270.0
 51
0.0
  0
ARC
  5
578A
  8
AM_0
 10
123.9533293457814
 20
263.87834337004188
 30
0.0
 40
0.4999999999998723
 50
164.7909603598988
 51
225.00000000001839
  0
ARC
  5
578B
  8
AM_0
 10
109.6012896907831
 20
243.9941257686406
 30
0.0
 40
3.0
 50
180.0
 51
190.00000000000171
  0
ARC
  5
578C
  8
AM_0
 10
109.6012896907831
 20
293.46919378748521
 30
0.0
 40
2.999999999999992
 50
169.9999999999981
 51
180.0
  0
ARC
  5
578D
  8
AM_0
 10
112.6451281984843
 20
226.73165977806289
 30
0.0
 40
2.9999999999999631
 50
190.00000000000171
 51
270.0
  0
ARC
  5
578E
  8
AM_0
 10
117.6512896907833
 20
238.9306033896909
 30
0.0
 40
0.7999999999998977
 50
90.0
 51
180.0
  0
ARC
  5
578F
  8
AM_0
 10
117.6512896907833
 20
237.7175830712583
 30
0.0
 40
0.7999999999999972
 50
90.0
 51
180.0
  0
ARC
  5
5790
  8
AM_0
 10
122.55128969078319
 20
238.9306033896909
 30
0.0
 40
0.8000000000000112
 50
0.0
 51
90.0
  0
ARC
  5
5791
  8
AM_0
 10
122.55128969078319
 20
237.7175830712583
 30
0.0
 40
0.8000000000000112
 50
0.0
 51
90.0
  0
ARC
  5
5792
  8
AM_0
 10
112.6012896907832
 20
260.23165977806298
 30
0.0
 40
0.5
 50
180.0
 51
270.0
  0
ARC
  5
5793
  8
AM_0
 10
123.6012896907832
 20
260.23165977806298
 30
0.0
 40
0.5
 50
270.0
 51
0.0
  0
ARC
  5
5794
  8
AM_0
 10
123.6012896907832
 20
262.81616946266689
 30
0.0
 40
0.5
 50
0.0
 51
45.0
  0
ARC
  5
5795
  8
AM_0
 10
112.2492500357848
 20
263.87834337004188
 30
0.0
 40
0.5000000000001048
 50
314.99999999998619
 51
15.209039640101111
  0
ARC
  5
5796
  8
AM_0
 10
112.6012896907832
 20
262.81616946266689
 30
0.0
 40
0.499999999999984
 50
134.99999999999079
 51
180.0
  0
ARC
  5
5797
  8
AM_0
 10
104.6012518542676
 20
321.23165977806281
 30
0.0
 40
1.0
 50
90.0
 51
180.00030969555451
  0
ARC
  5
5798
  8
AM_0
 10
115.6012518544284
 20
321.23165977806281
 30
0.0
 40
0.9999999999999992
 50
0.0003096955479991
 51
90.0
  0
ARC
  5
5799
  8
AM_0
 10
104.6012788803031
 20
316.23165977806292
 30
0.0
 40
0.9999999999999992
 50
180.00030969555451
 51
270.0
  0
ARC
  5
579A
  8
AM_0
 10
115.6012777822335
 20
316.23165977806292
 30
0.0
 40
1.0
 50
270.0
 51
0.0
  0
ARC
  5
579B
  8
AM_0
 10
115.0815195693187
 20
314.6316597780629
 30
0.0
 40
0.5999999999999944
 50
90.0
 51
218.00194433773009
  0
ARC
  5
579C
  8
AM_0
 10
105.89597797746219
 20
314.23165977806292
 30
0.0
 40
0.9999999999999468
 50
41.03985310957956
 51
90.0
  0
ARC
  5
579D
  8
AM_0
 10
107.9140951332537
 20
266.95930804347938
 30
0.0
 40
0.4128054424705854
 50
180.0
 51
239.99999999999949
  0
ARC
  5
579E
  8
AM_0
 10
108.22744001905509
 20
265.34839828931291
 30
0.0
 40
0.8256108849411369
 50
28.217424594175291
 51
59.999999999996653
  0
LINE
  5
579F
  8
AM_0
 10
107.3910240204147
 20
298.2104657240302
 30
0.0
 11
112.8580281701835
 21
298.2104657240302
 31
0.0
  0
LINE
  5
57A0
  8
AM_0
 10
121.34166311209729
 20
298.2104657240302
 30
0.0
 11
124.1012896907832
 21
298.2104657240302
 31
0.0
  0
LINE
  5
57A1
  8
AM_0
 10
111.50128969078349
 20
272.23165977806292
 30
0.0
 11
112.1012896907834
 21
272.23165977806281
 31
0.0
  0
LINE
  5
57A2
  8
AM_0
 10
108.64024546152589
 20
271.39992126681318
 30
0.0
 11
107.7076924120186
 21
270.8615115126467
 31
0.0
  0
LINE
  5
57A3
  8
AM_0
 10
109.073741282814
 20
271.907086258606
 30
0.0
 11
111.2288380987529
 21
271.90708625860577
 31
0.0
  0
LINE
  5
57A4
  8
AM_0
 10
109.0737412828138
 20
270.31937301833449
 30
0.0
 11
111.2288380987527
 21
270.31937301833432
 31
0.0
  0
ARC
  5
57A5
  8
AM_0
 10
110.20851287475691
 20
271.1132296384701
 30
0.0
 40
1.292776816026465
 50
359.99999999999352
 51
37.88444105369058
  0
ARC
  5
57A6
  8
AM_0
 10
110.0940665068099
 20
271.11322963847027
 30
0.0
 40
1.292776816026556
 50
142.11555894629771
 51
217.8844410536951
  0
ARC
  5
57A7
  8
AM_0
 10
110.20851287475691
 20
271.1132296384701
 30
0.0
 40
1.2927768160265021
 50
322.11555894629322
 51
359.99999999999352
  0
ARC
  5
57A8
  8
AM_0
 10
107.9140951332538
 20
270.50401151264668
 30
0.0
 40
0.4128054424705854
 50
119.99999999999331
 51
179.99999999999341
  0
ARC
  5
57A9
  8
AM_0
 10
108.22744001905529
 20
272.11492126681321
 30
0.0
 40
0.8256108849411369
 50
300.00000000000051
 51
331.7825754058203
  0
LINE
  5
57AA
  8
AM_0
 10
124.1012896907837
 20
277.23165977806241
 30
0.0
 11
124.1012896907836
 21
274.64715009345838
 31
0.0
  0
LINE
  5
57AB
  8
AM_0
 10
123.95484308137679
 20
274.2935967028651
 30
0.0
 11
123.5997759551886
 21
273.9385295766769
 31
0.0
  0
LINE
  5
57AC
  8
AM_0
 10
112.1012896907835
 20
274.64715009345929
 30
0.0
 11
112.1012896907837
 21
277.2316597780632
 31
0.0
  0
LINE
  5
57AD
  8
AM_0
 10
112.6028034263785
 20
273.93852957667758
 30
0.0
 11
112.2477363001904
 21
274.2935967028659
 31
0.0
  0
LINE
  5
57AE
  8
AM_0
 10
123.6012896907837
 20
277.73165977806241
 30
0.0
 11
123.12071180493631
 21
277.73165977806252
 31
0.0
  0
LINE
  5
57AF
  8
AM_0
 10
113.081867576631
 20
277.7316597780632
 30
0.0
 11
112.6012896907837
 21
277.7316597780632
 31
0.0
  0
ARC
  5
57B0
  8
AM_0
 10
123.9533293457818
 20
273.58497618608351
 30
0.0
 40
0.4999999999998723
 50
134.99999999997701
 51
195.20903964009699
  0
ARC
  5
57B1
  8
AM_0
 10
112.6012896907837
 20
277.2316597780632
 30
0.0
 40
0.5
 50
89.999999999996732
 51
179.99999999999659
  0
ARC
  5
57B2
  8
AM_0
 10
123.6012896907837
 20
277.23165977806241
 30
0.0
 40
0.5
 50
359.99999999999682
 51
89.999999999996732
  0
ARC
  5
57B3
  8
AM_0
 10
123.6012896907835
 20
274.64715009345849
 30
0.0
 40
0.5
 50
314.9999999999954
 51
359.99999999999682
  0
ARC
  5
57B4
  8
AM_0
 10
112.2492500357851
 20
273.58497618608419
 30
0.0
 40
0.5000000000001048
 50
344.79096035989579
 51
45.000000000009209
  0
ARC
  5
57B5
  8
AM_0
 10
112.6012896907836
 20
274.64715009345929
 30
0.0
 40
0.499999999999984
 50
179.99999999999659
 51
225.0000000000046
  0
LINE
  5
57B6
  8
AM_0
 10
114.0818675766311
 20
293.8778111758848
 30
0.0
 11
114.0818675766311
 21
278.73165977806309
 31
0.0
  0
ARC
  5
57B7
  8
AM_0
 10
113.0818675766311
 20
278.73165977806309
 30
0.0
 40
1.0
 50
269.99999999999682
 51
0.0
1001
GENIUS_GENODEF_13
1002
{
1000
HIER
1070
     0
1002
}
1002
{
1000
MANEDIT
1070
     0
1002
}
1002
{
1000
NOSEL
1070
     0
1002
}
1002
{
1000
BEHIND
1070
     0
1002
}
1002
{
1000
OTHER
1070
     0
1002
}
1002
{
1000
REACTOR
1002
}
1001
GENIUS_GENOBJ-N-FIL_13
1002
{
1000
OWNER
1000
GEN
1002
}
  0
ARC
  5
57B8
  8
AM_0
 10
109.081867576631
 20
293.8778111758848
 30
0.0
 40
5.0
 50
0.0
 51
19.381805699020159
1001
GENIUS_GENOBJ-N-FIL_13
1002
{
1000
OWNER
1000
GEN
1002
}
1001
GENIUS_GENODEF_13
1002
{
1000
HIER
1070
     0
1002
}
1002
{
1000
MANEDIT
1070
     0
1002
}
1002
{
1000
NOSEL
1070
     0
1002
}
1002
{
1000
BEHIND
1070
     0
1002
}
1002
{
1000
OTHER
1070
     0
1002
}
1002
{
1000
REACTOR
1002
}
  0
LINE
  5
57B9
  8
AM_0
 10
122.12071180493641
 20
295.34699664080148
 30
0.0
 11
122.12071180493641
 21
278.73165977806252
 31
0.0
  0
ARC
  5
57BA
  8
AM_0
 10
123.12071180493641
 20
278.73165977806252
 30
0.0
 40
1.0
 50
180.0
 51
269.99999999999352
1001
GENIUS_GENOBJ-N-FIL_13
1002
{
1000
OWNER
1000
GEN
1002
}
1001
GENIUS_GENODEF_13
1002
{
1000
HIER
1070
     0
1002
}
1002
{
1000
MANEDIT
1070
     0
1002
}
1002
{
1000
NOSEL
1070
     0
1002
}
1002
{
1000
BEHIND
1070
     0
1002
}
1002
{
1000
OTHER
1070
     0
1002
}
1002
{
1000
REACTOR
1002
}
  0
ARC
  5
57BB
  8
AM_0
 10
117.12071180493641
 20
295.34699664080148
 30
0.0
 40
5.0
 50
0.0
 51
22.755667319206839
1001
GENIUS_GENODEF_13
1002
{
1000
HIER
1070
     0
1002
}
1002
{
1000
MANEDIT
1070
     0
1002
}
1002
{
1000
NOSEL
1070
     0
1002
}
1002
{
1000
BEHIND
1070
     0
1002
}
1002
{
1000
OTHER
1070
     0
1002
}
1002
{
1000
REACTOR
1002
}
1001
GENIUS_GENOBJ-N-FIL_13
1002
{
1000
OWNER
1000
GEN
1002
}
  0
LINE
  5
57BC
  8
AM_0
 10
112.82782853744131
 20
273.7135044656149
 30
0.0
 11
123.3747508441265
 21
273.7135044656149
 31
0.0
  0
LINE
  5
57BD
  8
AM_0
 10
112.82782853744079
 20
263.74981509051122
 30
0.0
 11
123.3747508441254
 21
263.74981509051122
 31
0.0
  0
LINE
  5
57BE
  8
AM_0
 10
109.6907049394477
 20
232.74124893313689
 30
0.0
 11
109.6907049394477
 21
252.231659778063
 31
0.0
  0
LINE
  5
57BF
  8
AM_0
 10
112.6451281984843
 20
223.73165977806289
 30
0.0
 11
112.6451281984843
 21
252.231659778063
 31
0.0
  0
LINE
  5
57DA
  8
AM_0
 10
122.9795877783923
 20
224.5214211861578
 30
0.0
 11
132.33857339305669
 21
240.731659778063
 31
0.0
  0
LINE
  5
57DB
  8
AM_0
 10
117.7834353556856
 20
227.5214211861578
 30
0.0
 11
125.9877204319708
 21
241.731659778063
 31
0.0
  0
POLYLINE
  5
57DC
  8
AM_0
 66
     1
 10
0.0
 20
0.0
 30
0.0
 70
     8
  0
VERTEX
  5
6351
  8
AM_0
 10
117.783
 20
227.52099999999999
 30
0.0
 70
    32
  0
VERTEX
  5
6352
  8
AM_0
 10
117.739
 20
227.44200000000001
 30
0.0
 70
    32
  0
VERTEX
  5
6353
  8
AM_0
 10
117.696
 20
227.363
 30
0.0
 70
    32
  0
VERTEX
  5
6354
  8
AM_0
 10
117.655
 20
227.28200000000001
 30
0.0
 70
    32
  0
VERTEX
  5
6355
  8
AM_0
 10
117.61499999999999
 20
227.20099999999999
 30
0.0
 70
    32
  0
VERTEX
  5
6356
  8
AM_0
 10
117.577
 20
227.11799999999999
 30
0.0
 70
    32
  0
VERTEX
  5
6357
  8
AM_0
 10
117.54000000000001
 20
227.036
 30
0.0
 70
    32
  0
VERTEX
  5
6358
  8
AM_0
 10
117.506
 20
226.952
 30
0.0
 70
    32
  0
VERTEX
  5
6359
  8
AM_0
 10
117.473
 20
226.86799999999999
 30
0.0
 70
    32
  0
VERTEX
  5
635A
  8
AM_0
 10
117.44199999999999
 20
226.78399999999999
 30
0.0
 70
    32
  0
VERTEX
  5
635B
  8
AM_0
 10
117.41200000000001
 20
226.69900000000001
 30
0.0
 70
    32
  0
VERTEX
  5
635C
  8
AM_0
 10
117.38500000000001
 20
226.614
 30
0.0
 70
    32
  0
VERTEX
  5
635D
  8
AM_0
 10
117.35899999999999
 20
226.52799999999999
 30
0.0
 70
    32
  0
VERTEX
  5
635E
  8
AM_0
 10
117.33499999999999
 20
226.44200000000001
 30
0.0
 70
    32
  0
VERTEX
  5
635F
  8
AM_0
 10
117.313
 20
226.35599999999999
 30
0.0
 70
    32
  0
VERTEX
  5
6360
  8
AM_0
 10
117.29300000000001
 20
226.26900000000001
 30
0.0
 70
    32
  0
VERTEX
  5
6361
  8
AM_0
 10
117.274
 20
226.18299999999999
 30
0.0
 70
    32
  0
VERTEX
  5
6362
  8
AM_0
 10
117.258
 20
226.096
 30
0.0
 70
    32
  0
VERTEX
  5
6363
  8
AM_0
 10
117.24299999999999
 20
226.00899999999999
 30
0.0
 70
    32
  0
VERTEX
  5
6364
  8
AM_0
 10
117.23
 20
225.922
 30
0.0
 70
    32
  0
VERTEX
  5
6365
  8
AM_0
 10
117.21899999999999
 20
225.83600000000001
 30
0.0
 70
    32
  0
VERTEX
  5
6366
  8
AM_0
 10
117.20999999999999
 20
225.749
 30
0.0
 70
    32
  0
VERTEX
  5
6367
  8
AM_0
 10
117.203
 20
225.66300000000001
 30
0.0
 70
    32
  0
VERTEX
  5
6368
  8
AM_0
 10
117.19799999999999
 20
225.577
 30
0.0
 70
    32
  0
VERTEX
  5
6369
  8
AM_0
 10
117.19499999999999
 20
225.49100000000001
 30
0.0
 70
    32
  0
VERTEX
  5
636A
  8
AM_0
 10
117.194
 20
225.405
 30
0.0
 70
    32
  0
VERTEX
  5
636B
  8
AM_0
 10
117.194
 20
225.31999999999999
 30
0.0
 70
    32
  0
VERTEX
  5
636C
  8
AM_0
 10
117.197
 20
225.23500000000001
 30
0.0
 70
    32
  0
VERTEX
  5
636D
  8
AM_0
 10
117.20099999999999
 20
225.15100000000001
 30
0.0
 70
    32
  0
VERTEX
  5
636E
  8
AM_0
 10
117.20699999999999
 20
225.06700000000001
 30
0.0
 70
    32
  0
VERTEX
  5
636F
  8
AM_0
 10
117.21599999999999
 20
224.98400000000001
 30
0.0
 70
    32
  0
VERTEX
  5
6370
  8
AM_0
 10
117.226
 20
224.90100000000001
 30
0.0
 70
    32
  0
VERTEX
  5
6371
  8
AM_0
 10
117.238
 20
224.81899999999999
 30
0.0
 70
    32
  0
VERTEX
  5
6372
  8
AM_0
 10
117.252
 20
224.738
 30
0.0
 70
    32
  0
VERTEX
  5
6373
  8
AM_0
 10
117.268
 20
224.65799999999999
 30
0.0
 70
    32
  0
VERTEX
  5
6374
  8
AM_0
 10
117.285
 20
224.578
 30
0.0
 70
    32
  0
VERTEX
  5
6375
  8
AM_0
 10
117.30500000000001
 20
224.499
 30
0.0
 70
    32
  0
VERTEX
  5
6376
  8
AM_0
 10
117.327
 20
224.42099999999999
 30
0.0
 70
    32
  0
VERTEX
  5
6377
  8
AM_0
 10
117.34999999999999
 20
224.345
 30
0.0
 70
    32
  0
VERTEX
  5
6378
  8
AM_0
 10
117.375
 20
224.26900000000001
 30
0.0
 70
    32
  0
VERTEX
  5
6379
  8
AM_0
 10
117.402
 20
224.19399999999999
 30
0.0
 70
    32
  0
VERTEX
  5
637A
  8
AM_0
 10
117.431
 20
224.12
 30
0.0
 70
    32
  0
VERTEX
  5
637B
  8
AM_0
 10
117.461
 20
224.048
 30
0.0
 70
    32
  0
VERTEX
  5
637C
  8
AM_0
 10
117.49299999999999
 20
223.976
 30
0.0
 70
    32
  0
VERTEX
  5
637D
  8
AM_0
 10
117.527
 20
223.90600000000001
 30
0.0
 70
    32
  0
VERTEX
  5
637E
  8
AM_0
 10
117.563
 20
223.83699999999999
 30
0.0
 70
    32
  0
VERTEX
  5
637F
  8
AM_0
 10
117.59999999999999
 20
223.77000000000001
 30
0.0
 70
    32
  0
VERTEX
  5
6380
  8
AM_0
 10
117.64
 20
223.70400000000001
 30
0.0
 70
    32
  0
VERTEX
  5
6381
  8
AM_0
 10
117.68000000000001
 20
223.63900000000001
 30
0.0
 70
    32
  0
VERTEX
  5
6382
  8
AM_0
 10
117.723
 20
223.57599999999999
 30
0.0
 70
    32
  0
VERTEX
  5
6383
  8
AM_0
 10
117.767
 20
223.51400000000001
 30
0.0
 70
    32
  0
VERTEX
  5
6384
  8
AM_0
 10
117.812
 20
223.453
 30
0.0
 70
    32
  0
VERTEX
  5
6385
  8
AM_0
 10
117.85899999999999
 20
223.39500000000001
 30
0.0
 70
    32
  0
VERTEX
  5
6386
  8
AM_0
 10
117.908
 20
223.33699999999999
 30
0.0
 70
    32
  0
VERTEX
  5
6387
  8
AM_0
 10
117.958
 20
223.28200000000001
 30
0.0
 70
    32
  0
VERTEX
  5
6388
  8
AM_0
 10
118.01000000000001
 20
223.22800000000001
 30
0.0
 70
    32
  0
VERTEX
  5
6389
  8
AM_0
 10
118.063
 20
223.17500000000001
 30
0.0
 70
    32
  0
VERTEX
  5
638A
  8
AM_0
 10
118.117
 20
223.125
 30
0.0
 70
    32
  0
VERTEX
  5
638B
  8
AM_0
 10
118.173
 20
223.07599999999999
 30
0.0
 70
    32
  0
VERTEX
  5
638C
  8
AM_0
 10
118.23
 20
223.029
 30
0.0
 70
    32
  0
VERTEX
  5
638D
  8
AM_0
 10
118.288
 20
222.98400000000001
 30
0.0
 70
    32
  0
VERTEX
  5
638E
  8
AM_0
 10
118.348
 20
222.94
 30
0.0
 70
    32
  0
VERTEX
  5
638F
  8
AM_0
 10
118.40900000000001
 20
222.899
 30
0.0
 70
    32
  0
VERTEX
  5
6390
  8
AM_0
 10
118.471
 20
222.85900000000001
 30
0.0
 70
    32
  0
VERTEX
  5
6391
  8
AM_0
 10
118.53400000000001
 20
222.821
 30
0.0
 70
    32
  0
VERTEX
  5
6392
  8
AM_0
 10
118.598
 20
222.785
 30
0.0
 70
    32
  0
VERTEX
  5
6393
  8
AM_0
 10
118.664
 20
222.75200000000001
 30
0.0
 70
    32
  0
VERTEX
  5
6394
  8
AM_0
 10
118.73
 20
222.72
 30
0.0
 70
    32
  0
VERTEX
  5
6395
  8
AM_0
 10
118.797
 20
222.69
 30
0.0
 70
    32
  0
VERTEX
  5
6396
  8
AM_0
 10
118.866
 20
222.66200000000001
 30
0.0
 70
    32
  0
VERTEX
  5
6397
  8
AM_0
 10
118.935
 20
222.636
 30
0.0
 70
    32
  0
VERTEX
  5
6398
  8
AM_0
 10
119.005
 20
222.61199999999999
 30
0.0
 70
    32
  0
VERTEX
  5
6399
  8
AM_0
 10
119.07599999999999
 20
222.59
 30
0.0
 70
    32
  0
VERTEX
  5
639A
  8
AM_0
 10
119.148
 20
222.56999999999999
 30
0.0
 70
    32
  0
VERTEX
  5
639B
  8
AM_0
 10
119.221
 20
222.553
 30
0.0
 70
    32
  0
VERTEX
  5
639C
  8
AM_0
 10
119.294
 20
222.53700000000001
 30
0.0
 70
    32
  0
VERTEX
  5
639D
  8
AM_0
 10
119.36799999999999
 20
222.524
 30
0.0
 70
    32
  0
VERTEX
  5
639E
  8
AM_0
 10
119.44199999999999
 20
222.512
 30
0.0
 70
    32
  0
VERTEX
  5
639F
  8
AM_0
 10
119.517
 20
222.50299999999999
 30
0.0
 70
    32
  0
VERTEX
  5
63A0
  8
AM_0
 10
119.593
 20
222.49600000000001
 30
0.0
 70
    32
  0
VERTEX
  5
63A1
  8
AM_0
 10
119.669
 20
222.49100000000001
 30
0.0
 70
    32
  0
VERTEX
  5
63A2
  8
AM_0
 10
119.745
 20
222.488
 30
0.0
 70
    32
  0
VERTEX
  5
63A3
  8
AM_0
 10
119.822
 20
222.48699999999999
 30
0.0
 70
    32
  0
VERTEX
  5
63A4
  8
AM_0
 10
119.899
 20
222.489
 30
0.0
 70
    32
  0
VERTEX
  5
63A5
  8
AM_0
 10
119.977
 20
222.49199999999999
 30
0.0
 70
    32
  0
VERTEX
  5
63A6
  8
AM_0
 10
120.05500000000001
 20
222.49799999999999
 30
0.0
 70
    32
  0
VERTEX
  5
63A7
  8
AM_0
 10
120.13200000000001
 20
222.505
 30
0.0
 70
    32
  0
VERTEX
  5
63A8
  8
AM_0
 10
120.211
 20
222.51499999999999
 30
0.0
 70
    32
  0
VERTEX
  5
63A9
  8
AM_0
 10
120.289
 20
222.52699999999999
 30
0.0
 70
    32
  0
VERTEX
  5
63AA
  8
AM_0
 10
120.367
 20
222.541
 30
0.0
 70
    32
  0
VERTEX
  5
63AB
  8
AM_0
 10
120.44499999999999
 20
222.55699999999999
 30
0.0
 70
    32
  0
VERTEX
  5
63AC
  8
AM_0
 10
120.523
 20
222.57599999999999
 30
0.0
 70
    32
  0
VERTEX
  5
63AD
  8
AM_0
 10
120.601
 20
222.596
 30
0.0
 70
    32
  0
VERTEX
  5
63AE
  8
AM_0
 10
120.679
 20
222.61799999999999
 30
0.0
 70
    32
  0
VERTEX
  5
63AF
  8
AM_0
 10
120.75700000000001
 20
222.643
 30
0.0
 70
    32
  0
VERTEX
  5
63B0
  8
AM_0
 10
120.83499999999999
 20
222.66900000000001
 30
0.0
 70
    32
  0
VERTEX
  5
63B1
  8
AM_0
 10
120.91200000000001
 20
222.69800000000001
 30
0.0
 70
    32
  0
VERTEX
  5
63B2
  8
AM_0
 10
120.989
 20
222.72800000000001
 30
0.0
 70
    32
  0
VERTEX
  5
63B3
  8
AM_0
 10
121.066
 20
222.761
 30
0.0
 70
    32
  0
VERTEX
  5
63B4
  8
AM_0
 10
121.142
 20
222.79499999999999
 30
0.0
 70
    32
  0
VERTEX
  5
63B5
  8
AM_0
 10
121.218
 20
222.83199999999999
 30
0.0
 70
    32
  0
VERTEX
  5
63B6
  8
AM_0
 10
121.29300000000001
 20
222.87
 30
0.0
 70
    32
  0
VERTEX
  5
63B7
  8
AM_0
 10
121.36799999999999
 20
222.91
 30
0.0
 70
    32
  0
VERTEX
  5
63B8
  8
AM_0
 10
121.44199999999999
 20
222.952
 30
0.0
 70
    32
  0
VERTEX
  5
63B9
  8
AM_0
 10
121.515
 20
222.99600000000001
 30
0.0
 70
    32
  0
VERTEX
  5
63BA
  8
AM_0
 10
121.58799999999999
 20
223.042
 30
0.0
 70
    32
  0
VERTEX
  5
63BB
  8
AM_0
 10
121.66
 20
223.09
 30
0.0
 70
    32
  0
VERTEX
  5
63BC
  8
AM_0
 10
121.73099999999999
 20
223.13900000000001
 30
0.0
 70
    32
  0
VERTEX
  5
63BD
  8
AM_0
 10
121.80200000000001
 20
223.19
 30
0.0
 70
    32
  0
VERTEX
  5
63BE
  8
AM_0
 10
121.871
 20
223.24299999999999
 30
0.0
 70
    32
  0
VERTEX
  5
63BF
  8
AM_0
 10
121.94
 20
223.297
 30
0.0
 70
    32
  0
VERTEX
  5
63C0
  8
AM_0
 10
122.008
 20
223.35300000000001
 30
0.0
 70
    32
  0
VERTEX
  5
63C1
  8
AM_0
 10
122.075
 20
223.411
 30
0.0
 70
    32
  0
VERTEX
  5
63C2
  8
AM_0
 10
122.14100000000001
 20
223.47
 30
0.0
 70
    32
  0
VERTEX
  5
63C3
  8
AM_0
 10
122.205
 20
223.53100000000001
 30
0.0
 70
    32
  0
VERTEX
  5
63C4
  8
AM_0
 10
122.26900000000001
 20
223.59299999999999
 30
0.0
 70
    32
  0
VERTEX
  5
63C5
  8
AM_0
 10
122.331
 20
223.65700000000001
 30
0.0
 70
    32
  0
VERTEX
  5
63C6
  8
AM_0
 10
122.393
 20
223.72200000000001
 30
0.0
 70
    32
  0
VERTEX
  5
63C7
  8
AM_0
 10
122.453
 20
223.78899999999999
 30
0.0
 70
    32
  0
VERTEX
  5
63C8
  8
AM_0
 10
122.512
 20
223.857
 30
0.0
 70
    32
  0
VERTEX
  5
63C9
  8
AM_0
 10
122.569
 20
223.92599999999999
 30
0.0
 70
    32
  0
VERTEX
  5
63CA
  8
AM_0
 10
122.625
 20
223.99600000000001
 30
0.0
 70
    32
  0
VERTEX
  5
63CB
  8
AM_0
 10
122.68000000000001
 20
224.06800000000001
 30
0.0
 70
    32
  0
VERTEX
  5
63CC
  8
AM_0
 10
122.73399999999999
 20
224.14099999999999
 30
0.0
 70
    32
  0
VERTEX
  5
63CD
  8
AM_0
 10
122.786
 20
224.215
 30
0.0
 70
    32
  0
VERTEX
  5
63CE
  8
AM_0
 10
122.837
 20
224.28999999999999
 30
0.0
 70
    32
  0
VERTEX
  5
63CF
  8
AM_0
 10
122.886
 20
224.36600000000001
 30
0.0
 70
    32
  0
VERTEX
  5
63D0
  8
AM_0
 10
122.93300000000001
 20
224.44300000000001
 30
0.0
 70
    32
  0
VERTEX
  5
63D1
  8
AM_0
 10
122.98
 20
224.52099999999999
 30
0.0
 70
    32
  0
SEQEND
  5
63D2
  8
AM_0
  0
LINE
  5
57DD
  8
AM_0
 10
137.6012896907832
 20
322.53165977806287
 30
0.0
 11
137.6012896907832
 21
314.93165977806302
 31
0.0
1001
GENIUS_GENOREF_13
1005
0
  0
LINE
  5
57DE
  8
AM_0
 10
137.6012896907832
 20
314.93165977806302
 30
0.0
 11
138.6012896907832
 21
314.93165977806302
 31
0.0
1001
GENIUS_GENOREF_13
1005
0
  0
LINE
  5
57DF
  8
AM_0
 10
138.6012896907832
 20
318.53165977806287
 30
0.0
 11
137.6012896907832
 21
318.16768954379683
 31
0.0
1001
GENIUS_GENOREF_13
1005
0
  0
LINE
  5
57E0
  8
AM_0
 10
138.6012896907832
 20
318.93165977806302
 30
0.0
 11
137.6012896907832
 21
318.5676895437968
 31
0.0
1001
GENIUS_GENOREF_13
1005
0
  0
LINE
  5
57E1
  8
AM_0
 10
138.6012896907832
 20
322.53165977806287
 30
0.0
 11
137.6012896907832
 21
322.53165977806287
 31
0.0
1001
GENIUS_GENOREF_13
1005
0
  0
LINE
  5
57E2
  8
AM_0N
 10
136.54235217865531
 20
314.82430480575653
 30
0.0
 11
137.6012896907832
 21
314.73165977806292
 31
0.0
  0
LINE
  5
57E3
  8
AM_0N
 10
136.54235217865531
 20
322.63901475036948
 30
0.0
 11
137.6012896907832
 21
322.73165977806292
 31
0.0
  0
ARC
  5
57E4
  8
AM_0N
 10
141.00128969078321
 20
318.73165977806292
 30
0.0
 40
6.5
 50
151.82726586813479
 51
208.1727341318651
  0
ARC
  5
57E5
  8
AM_0N
 10
136.68180136705161
 20
321.04510323342282
 30
0.0
 40
1.6000000000000001
 50
94.99999999999973
 51
151.82726586813479
  0
ARC
  5
57E6
  8
AM_0N
 10
136.68180136705161
 20
316.4182163227033
 30
0.0
 40
1.6000000000000001
 50
208.1727341318651
 51
265.00000000000028
  0
LINE
  5
57E7
  8
AM_0N
 10
137.6012896907832
 20
322.73165977806292
 30
0.0
 11
137.6012896907832
 21
314.73165977806292
 31
0.0
  0
LINE
  5
57E8
  8
AM_0
 10
137.6012896907832
 20
245.13680397177279
 30
0.0
 11
137.6012896907832
 21
239.669159778063
 31
0.0
1001
GENIUS_GENOREF_13
1005
0
  0
LINE
  5
57E9
  8
AM_0
 10
137.6012896907832
 20
239.86915977806319
 30
0.0
 11
138.6012896907832
 21
239.86915977806319
 31
0.0
1001
GENIUS_GENOREF_13
1005
0
  0
LINE
  5
57EA
  8
AM_0
 10
138.6012896907832
 20
243.4691597780631
 30
0.0
 11
137.6012896907832
 21
243.10518954379691
 31
0.0
1001
GENIUS_GENOREF_13
1005
0
  0
LINE
  5
57EB
  8
AM_0
 10
138.6012896907832
 20
243.86915977806299
 30
0.0
 11
137.6012896907832
 21
243.50518954379689
 31
0.0
1001
GENIUS_GENOREF_13
1005
0
  0
LINE
  5
57EC
  8
AM_0N
 10
136.54235217865539
 20
239.76180480575661
 30
0.0
 11
137.6012896907832
 21
239.669159778063
 31
0.0
  0
ARC
  5
57ED
  8
AM_0N
 10
141.00128969078321
 20
243.66915977806309
 30
0.0
 40
6.5
 50
182.900769989091
 51
208.1727341318651
  0
ARC
  5
57EE
  8
AM_0N
 10
136.68180136705161
 20
241.35571632270339
 30
0.0
 40
1.6000000000000001
 50
208.1727341318651
 51
265.00000000000028
  0
LINE
  5
5956
  8
AM_0
 10
637.91991483667539
 20
358.18858171622838
 30
0.0
 11
637.91991483667539
 21
371.91540886298247
 31
0.0
  0
LINE
  5
5957
  8
AM_0
 10
631.51991483667553
 20
358.18858171622838
 30
0.0
 11
631.51991483667553
 21
371.91540886298247
 31
0.0
  0
LINE
  5
5958
  8
AM_0
 10
630.71991483667546
 20
349.23165977806298
 30
0.0
 11
638.71991483667534
 21
349.23165977806298
 31
0.0
  0
LINE
  5
5959
  8
AM_0
 10
638.71991483667534
 20
339.65892745000059
 30
0.0
 11
638.71991483667534
 21
349.23165977806298
 31
0.0
  0
LINE
  5
595A
  8
AM_0
 10
638.71991483667534
 20
349.23165977806298
 30
0.0
 11
641.11991483667532
 21
358.18858171622838
 31
0.0
  0
LINE
  5
595B
  8
AM_0
 10
641.11991483667532
 20
358.18858171622838
 30
0.0
 11
641.11991483667532
 21
371.91540886298247
 31
0.0
  0
LINE
  5
595C
  8
AM_0
 10
628.31991483667548
 20
371.91540886298247
 30
0.0
 11
628.31991483667548
 21
358.18858171622838
 31
0.0
  0
LINE
  5
595D
  8
AM_0
 10
628.31991483667548
 20
358.18858171622838
 30
0.0
 11
630.71991483667546
 21
349.23165977806298
 31
0.0
  0
LINE
  5
595E
  8
AM_0
 10
630.71991483667546
 20
349.23165977806298
 30
0.0
 11
630.71991483667546
 21
339.65892745000059
 31
0.0
  0
ARC
  5
595F
  8
AM_0
 10
634.71991483667546
 20
364.23165977806309
 30
0.0
 40
9.9999999999999964
 50
50.208180500442623
 51
90.0
  0
ARC
  5
5960
  8
AM_0
 10
629.91991483667539
 20
358.62733041053428
 30
0.0
 40
1.659066127903009
 50
195.33458427584509
 51
344.66541572415468
  0
ARC
  5
5961
  8
AM_0
 10
634.71991483667546
 20
361.77864830517291
 30
0.0
 40
4.8092180355079419
 50
228.2878371051452
 51
311.71216289485483
  0
ARC
  5
5962
  8
AM_0
 10
639.51991483667553
 20
358.62705253688807
 30
0.0
 40
1.6589926644111621
 50
195.32532916095269
 51
344.67467083904228
  0
ARC
  5
5963
  8
AM_0
 10
634.71991483667546
 20
361.70042796809958
 30
0.0
 40
10.704477319459491
 50
72.606031891266454
 51
107.3939681087335
  0
ARC
  5
5964
  8
AM_0
 10
629.91991483667539
 20
369.54564346650818
 30
0.0
 40
2.8593334947723461
 50
55.973867765119778
 51
124.02613223488019
  0
ARC
  5
5965
  8
AM_0
 10
639.51991483667553
 20
369.54871038791077
 30
0.0
 40
2.856792199637066
 50
55.939448481710848
 51
124.060551518289
  0
ARC
  5
5966
  8
AM_0
 10
634.71991483667546
 20
364.23165977806309
 30
0.0
 40
10.0
 50
90.0
 51
129.79181949955731
  0
LINE
  5
5F8A
  8
ﾁｭｳｼﾝｾﾝ
 10
97.305258378360008
 20
557.02307163273372
 30
0.0
 11
432.29249929054561
 21
557.02307163273372
 31
0.0
  0
LINE
  5
5F8B
  8
AM_0
 10
334.1013992905456
 20
506.95584163273361
 30
0.0
 11
334.1013992905456
 21
486.31112163273377
 31
0.0
  0
LINE
  5
5F8C
  8
AM_0
 10
335.10139929054583
 20
505.48513163273373
 30
0.0
 11
335.10139929054583
 21
491.93808163273371
 31
0.0
  0
LINE
  5
5F8D
  8
AM_0
 10
334.1013992905456
 20
491.93808163273371
 30
0.0
 11
335.10139929054583
 21
491.93808163273371
 31
0.0
  0
LINE
  5
5F8E
  8
AM_0
 10
334.1013992905456
 20
505.48513163273373
 30
0.0
 11
335.10139929054583
 21
505.48513163273373
 31
0.0
  0
LINE
  5
5F8F
  8
AM_0
 10
339.10136929054568
 20
493.93808163273383
 30
0.0
 11
339.10136929054568
 21
503.4851016327338
 31
0.0
  0
LINE
  5
5F90
  8
AM_0
 10
335.10139929054583
 20
501.59835163273362
 30
0.0
 11
338.1013992905456
 21
501.59835163273362
 31
0.0
  0
LINE
  5
5F91
  8
AM_0
 10
335.10139929054583
 20
495.82485163273361
 30
0.0
 11
338.1013992905456
 21
495.82485163273361
 31
0.0
  0
LINE
  5
5F92
  8
AM_0
 10
335.10139929054583
 20
492.93808163273371
 30
0.0
 11
338.1013992905456
 21
492.93808163273371
 31
0.0
  0
LINE
  5
5F93
  8
AM_0
 10
335.10139929054583
 20
504.48513163273373
 30
0.0
 11
338.1013992905456
 21
504.48513163273373
 31
0.0
  0
LINE
  5
5F94
  8
AM_0
 10
430.10139929054537
 20
571.02307163273372
 30
0.0
 11
430.10139929054537
 21
543.0230716327336
 31
0.0
  0
LINE
  5
5F95
  8
AM_0
 10
396.10134929054527
 20
571.0230716327336
 30
0.0
 11
430.10139929054537
 21
571.02307163273372
 31
0.0
  0
LINE
  5
5F96
  8
AM_0
 10
396.10134929054527
 20
543.0230716327336
 30
0.0
 11
430.10139929054537
 21
543.0230716327336
 31
0.0
  0
LINE
  5
5F97
  8
AM_0
 10
398.10139929054571
 20
561.02304163273391
 30
0.0
 11
398.10139929054571
 21
553.02307163273372
 31
0.0
  0
LINE
  5
5F98
  8
AM_0
 10
294.1013992905456
 20
632.23681163273375
 30
0.0
 11
294.1013992905456
 21
613.25875163273372
 31
0.0
  0
LINE
  5
5F99
  8
AM_0
 10
388.10139929054571
 20
631.45123163273388
 30
0.0
 11
388.10139929054571
 21
608.59490163273369
 31
0.0
  0
LINE
  5
5F9A
  8
AM_0
 10
326.1014292905457
 20
635.02307163273372
 30
0.0
 11
386.15375929054568
 21
633.45053163273349
 31
0.0
  0
LINE
  5
5F9B
  8
AM_0
 10
296.04905929054559
 20
634.23614163273385
 30
0.0
 11
326.10139929054583
 21
635.02310163273364
 31
0.0
  0
LINE
  5
5F9C
  8
AM_0
 10
323.1013992905456
 20
628.02307163273372
 30
0.0
 11
323.1013992905456
 21
486.0230716327336
 31
0.0
  0
LINE
  5
5F9D
  8
AM_0
 10
385.10139929054571
 20
606.56802163273358
 30
0.0
 11
385.10139929054571
 21
507.47811163273371
 31
0.0
  0
LINE
  5
5F9E
  8
AM_0
 10
385.1014292905457
 20
606.56802163273358
 30
0.0
 11
386.15375929054568
 21
606.59558163273357
 31
0.0
  0
LINE
  5
5F9F
  8
AM_0
 10
388.10139929054571
 20
482.59490163273369
 30
0.0
 11
388.10139929054571
 21
505.45123163273399
 31
0.0
  0
LINE
  5
5FA0
  8
AM_0
 10
294.1013992905456
 20
481.80935163273369
 30
0.0
 11
294.1013992905456
 21
500.78738163273391
 31
0.0
  0
LINE
  5
5FA1
  8
AM_0
 10
326.1014292905457
 20
479.02307163273377
 30
0.0
 11
386.15375929054568
 21
480.59558163273368
 31
0.0
  0
LINE
  5
5FA2
  8
AM_0
 10
296.04905929054559
 20
479.81002163273382
 30
0.0
 11
326.10139929054583
 21
479.02307163273377
 31
0.0
  0
LINE
  5
5FA3
  8
AM_0
 10
326.10139929054583
 20
631.16711163273374
 30
0.0
 11
319.1013992905456
 21
634.83978163273355
 31
0.0
  0
LINE
  5
5FA4
  8
AM_0
 10
323.50440929054582
 20
628.0125416327337
 30
0.0
 11
319.10142929054558
 21
630.32263163273376
 31
0.0
  0
LINE
  5
5FA5
  8
AM_0
 10
319.1013992905456
 20
634.83975163273385
 30
0.0
 11
319.1013992905456
 21
630.3226616327338
 31
0.0
  0
LINE
  5
5FA6
  8
AM_0
 10
386.15372929054558
 20
507.45053163273371
 30
0.0
 11
385.10139929054571
 21
507.47808163273368
 31
0.0
  0
LINE
  5
5FA7
  8
AM_0
 10
398.10139929054571
 20
553.02307163273372
 30
0.0
 11
430.10139929054537
 21
553.02307163273372
 31
0.0
  0
LINE
  5
5FA8
  8
AM_0
 10
398.10139929054571
 20
561.02304163273391
 30
0.0
 11
430.10139929054537
 21
561.02304163273391
 31
0.0
  0
LINE
  5
5FA9
  8
AM_0
 10
372.1014292905457
 20
506.77206163273382
 30
0.0
 11
372.1014292905457
 21
607.27407163273381
 31
0.0
  0
LINE
  5
5FAA
  8
AM_0
 10
380.53718929054571
 20
605.42239163273359
 30
0.0
 11
375.83967929054558
 21
605.83337163273382
 31
0.0
  0
LINE
  5
5FAB
  8
AM_0
 10
380.53718929054571
 20
508.62377163273362
 30
0.0
 11
375.83967929054558
 21
508.21279163273391
 31
0.0
  0
LINE
  5
5FAC
  8
AM_0
 10
369.36289929054573
 20
503.78347163273372
 30
0.0
 11
363.6656092905456
 21
503.28503163273382
 31
0.0
  0
LINE
  5
5FAD
  8
AM_0
 10
359.10139929054571
 20
485.01986163273392
 30
0.0
 11
359.10139929054571
 21
498.3040416327338
 31
0.0
  0
LINE
  5
5FAE
  8
AM_0
 10
326.10139929054583
 20
627.94451163273368
 30
0.0
 11
326.10139929054583
 21
631.16708163273347
 31
0.0
  0
LINE
  5
5FAF
  8
AM_0
 10
319.1013992905456
 20
479.2063916327337
 30
0.0
 11
319.1013992905456
 21
483.72348163273369
 31
0.0
  0
LINE
  5
5FB0
  8
AM_0
 10
323.50440929054582
 20
486.0336316327336
 30
0.0
 11
319.1013992905456
 21
483.7235116327335
 31
0.0
  0
LINE
  5
5FB1
  8
AM_0
 10
326.10139929054583
 20
482.87905163273371
 30
0.0
 11
319.1013992905456
 21
479.2063916327337
 31
0.0
  0
LINE
  5
5FB2
  8
AM_0
 10
326.10139929054583
 20
486.1016216327335
 30
0.0
 11
326.10139929054583
 21
482.87905163273371
 31
0.0
  0
LINE
  5
5FB3
  8
AM_0
 10
335.83726929054569
 20
486.3565616327337
 30
0.0
 11
323.10142929054558
 21
486.0230716327336
 31
0.0
  0
LINE
  5
5FB4
  8
AM_0
 10
335.8372392905456
 20
627.68957163273365
 30
0.0
 11
323.10142929054558
 21
628.02307163273372
 31
0.0
  0
LINE
  5
5FB5
  8
AM_0
 10
334.1013992905456
 20
506.95584163273361
 30
0.0
 11
337.1013992905456
 21
506.95584163273361
 31
0.0
  0
LINE
  5
5FB6
  8
AM_0
 10
337.1014292905457
 20
506.95584163273361
 30
0.0
 11
337.1014292905457
 21
607.0903016327336
 31
0.0
  0
LINE
  5
5FB7
  8
AM_0
 10
337.1014292905457
 20
506.95581163273363
 30
0.0
 11
350.68339929054559
 21
509.5141916327338
 31
0.0
  0
LINE
  5
5FB8
  8
AM_0
 10
338.19782929054583
 20
487.01980163273367
 30
0.0
 11
348.8346092905457
 21
493.13302163273369
 31
0.0
  0
LINE
  5
5FB9
  8
AM_0
 10
359.10139929054571
 20
615.74206163273345
 30
0.0
 11
359.10139929054571
 21
629.0262716327336
 31
0.0
  0
LINE
  5
5FBA
  8
AM_0
 10
369.17997929054559
 20
509.9985316327336
 30
0.0
 11
350.68339929054559
 21
509.5141916327338
 31
0.0
  0
LINE
  5
5FBB
  8
AM_0
 10
356.17994929054572
 20
493.92678163273382
 30
0.0
 11
351.19520929054568
 21
493.79623163273379
 31
0.0
  0
LINE
  5
5FBC
  8
AM_0
 10
369.36289929054573
 20
610.26263163273381
 30
0.0
 11
363.66563929054558
 21
610.76110163273381
 31
0.0
  0
LINE
  5
5FBD
  8
AM_0
 10
338.19782929054583
 20
627.02630163273363
 30
0.0
 11
348.83457929054572
 21
620.91311163273372
 31
0.0
  0
LINE
  5
5FBE
  8
AM_0
 10
337.1014292905457
 20
607.0903016327336
 30
0.0
 11
350.68339929054559
 21
604.53192163273366
 31
0.0
  0
LINE
  5
5FBF
  8
AM_0
 10
369.17997929054559
 20
604.04757163273382
 30
0.0
 11
350.68336929054573
 21
604.53195163273381
 31
0.0
  0
LINE
  5
5FC0
  8
AM_0
 10
356.17991929054563
 20
620.11935163273381
 30
0.0
 11
351.1951792905457
 21
620.24987163273374
 31
0.0
  0
LINE
  5
5FC1
  8
AM_0
 10
335.10139929054583
 20
609.5610316327336
 30
0.0
 11
338.1013992905456
 21
609.5610316327336
 31
0.0
  0
LINE
  5
5FC2
  8
AM_0
 10
335.10139929054583
 20
621.10803163273374
 30
0.0
 11
338.1013992905456
 21
621.10803163273374
 31
0.0
  0
LINE
  5
5FC3
  8
AM_0
 10
335.10139929054583
 20
618.22128163273385
 30
0.0
 11
338.1013992905456
 21
618.22128163273385
 31
0.0
  0
LINE
  5
5FC4
  8
AM_0
 10
335.10139929054583
 20
612.44778163273372
 30
0.0
 11
338.1013992905456
 21
612.44778163273372
 31
0.0
  0
LINE
  5
5FC5
  8
AM_0
 10
339.10136929054568
 20
620.10806163273367
 30
0.0
 11
339.10136929054568
 21
610.5610316327336
 31
0.0
  0
LINE
  5
5FC6
  8
AM_0
 10
334.1013992905456
 20
608.56100163273345
 30
0.0
 11
335.10139929054583
 21
608.56100163273345
 31
0.0
  0
LINE
  5
5FC7
  8
AM_0
 10
334.1013992905456
 20
622.10806163273378
 30
0.0
 11
335.10139929054583
 21
622.10806163273378
 31
0.0
  0
LINE
  5
5FC8
  8
AM_0
 10
335.10139929054583
 20
608.56100163273345
 30
0.0
 11
335.10139929054583
 21
622.10806163273378
 31
0.0
  0
LINE
  5
5FC9
  8
AM_0
 10
334.1013992905456
 20
607.0903016327336
 30
0.0
 11
334.1013992905456
 21
627.73501163273386
 31
0.0
  0
LINE
  5
5FCA
  8
AM_0
 10
334.1013992905456
 20
607.0903016327336
 30
0.0
 11
337.1013992905456
 21
607.0903016327336
 31
0.0
  0
LINE
  5
5FCB
  8
AM_0
 10
323.10142929054558
 20
486.0230716327336
 30
0.0
 11
318.0490592905457
 21
486.15536163273379
 31
0.0
  0
LINE
  5
5FCC
  8
AM_0
 10
323.1013992905456
 20
628.02307163273372
 30
0.0
 11
318.04908929054562
 21
627.89074163273347
 31
0.0
  0
LINE
  5
5FCD
  8
AM_0
 10
316.1014292905457
 20
488.1546916327336
 30
0.0
 11
316.1014292905457
 21
625.89144163273374
 31
0.0
  0
LINE
  5
5FCE
  8
AM_0
 10
285.1014292905457
 20
501.02307163273372
 30
0.0
 11
285.1014292905457
 21
613.02307163273372
 31
0.0
  0
LINE
  5
5FCF
  8
AM_0
 10
311.1013992905456
 20
500.34225163273362
 30
0.0
 11
285.10145929054562
 21
501.02307163273372
 31
0.0
  0
LINE
  5
5FD0
  8
AM_0
 10
285.1014292905457
 20
511.02276163273382
 30
0.0
 11
316.1014292905457
 21
511.02276163273382
 31
0.0
  0
LINE
  5
5FD1
  8
AM_0
 10
313.1013992905456
 20
491.81179163273367
 30
0.0
 11
314.1014292905457
 21
491.81179163273367
 31
0.0
  0
LINE
  5
5FD2
  8
AM_0
 10
311.1013992905456
 20
493.81179163273362
 30
0.0
 11
311.1013992905456
 21
509.02276163273382
 31
0.0
  0
LINE
  5
5FD3
  8
AM_0
 10
311.1013992905456
 20
620.23437163273366
 30
0.0
 11
311.1013992905456
 21
605.02337163273387
 31
0.0
  0
LINE
  5
5FD4
  8
AM_0
 10
311.10142929054558
 20
613.70391163273382
 30
0.0
 11
285.10145929054562
 21
613.02307163273372
 31
0.0
  0
LINE
  5
5FD5
  8
AM_0
 10
285.1014292905457
 20
603.02337163273376
 30
0.0
 11
316.1014292905457
 21
603.02337163273376
 31
0.0
  0
LINE
  5
5FD6
  8
AM_0
 10
313.1013992905456
 20
622.23437163273366
 30
0.0
 11
314.1014292905457
 21
622.23437163273366
 31
0.0
  0
LINE
  5
5FD7
  8
AM_0
 10
285.1014292905457
 20
525.08313163273385
 30
0.0
 11
316.1014292905457
 21
525.08313163273385
 31
0.0
  0
LINE
  5
5FD8
  8
AM_0
 10
285.1014292905457
 20
588.96301163273381
 30
0.0
 11
316.1014292905457
 21
588.96301163273381
 31
0.0
  0
ARC
  5
5FD9
  8
AM_0
 10
338.1013992905456
 20
503.4851016327338
 30
0.0
 40
1.0
 50
0.0
 51
90.00000299999769
  0
ARC
  5
5FDA
  8
AM_0
 10
338.1013992905456
 20
500.5983516327338
 30
0.0
 40
1.0
 50
0.0
 51
90.00000299999769
  0
ARC
  5
5FDB
  8
AM_0
 10
338.1013992905456
 20
494.82485163273373
 30
0.0
 40
1.0
 50
0.0
 51
90.00000299999769
  0
ARC
  5
5FDC
  8
AM_0
 10
338.1013992905456
 20
493.93808163273383
 30
0.0
 40
1.0
 50
269.999989999999
 51
0.0000006832495047
  0
ARC
  5
5FDD
  8
AM_0
 10
338.1013992905456
 20
496.82482163273369
 30
0.0
 40
1.0
 50
269.999989999999
 51
0.0000006832495047
  0
ARC
  5
5FDE
  8
AM_0
 10
338.1013992905456
 20
502.5983516327338
 30
0.0
 40
1.0
 50
269.999989999999
 51
0.0000006832495047
  0
ARC
  5
5FDF
  8
AM_0
 10
386.10139929054571
 20
631.45123163273388
 30
0.0
 40
2.0
 50
0.0
 51
88.499997000000747
  0
ARC
  5
5FE0
  8
AM_0
 10
296.1013992905456
 20
632.23681163273375
 30
0.0
 40
2.0
 50
91.500001000001546
 51
180.00001000000091
  0
ARC
  5
5FE1
  8
AM_0
 10
386.10139929054571
 20
608.59490163273369
 30
0.0
 40
2.0
 50
271.49999999999608
 51
0.0
  0
ARC
  5
5FE2
  8
AM_0
 10
306.10139929054583
 20
622.0230716327336
 30
0.0
 40
6.0
 50
359.45747999999497
 51
326.4427199999991
  0
CIRCLE
  5
5FE3
  8
AM_0
 10
376.10139929054571
 20
622.0230716327336
 30
0.0
 40
6.0
  0
ARC
  5
5FE4
  8
AM_0
 10
386.10139929054571
 20
482.59490163273369
 30
0.0
 40
2.0
 50
271.49999999999608
 51
0.0
  0
ARC
  5
5FE5
  8
AM_0
 10
296.1013992905456
 20
481.80935163273369
 30
0.0
 40
2.0
 50
180.00001000000091
 51
268.50000000000369
  0
ARC
  5
5FE6
  8
AM_0
 10
386.10139929054571
 20
505.45123163273399
 30
0.0
 40
2.0
 50
0.0
 51
88.499997000000747
  0
ARC
  5
5FE7
  8
AM_0
 10
306.10139929054583
 20
492.02307163273372
 30
0.0
 40
6.0
 50
33.557299999995493
 51
0.5425182800043014
  0
CIRCLE
  5
5FE8
  8
AM_0
 10
376.10139929054571
 20
492.02307163273372
 30
0.0
 40
6.0
  0
ARC
  5
5FE9
  8
AM_0
 10
398.10139929054571
 20
557.02304163273391
 30
0.0
 40
3.9999962
 50
90.00000299999769
 51
120.0008584236235
  0
ARC
  5
5FEA
  8
AM_0
 10
398.10139929054571
 20
557.02304163273391
 30
0.0
 40
3.9999962
 50
239.99914157637639
 51
270.0
  0
ARC
  5
5FEB
  8
AM_0
 10
380.10139929054571
 20
600.4414016327338
 30
0.0
 40
5.0
 50
0.0
 51
85.000003999997659
  0
ARC
  5
5FEC
  8
AM_0
 10
380.10139929054571
 20
513.60470163273374
 30
0.0
 40
5.0
 50
274.99999999999972
 51
0.0
  0
ARC
  5
5FED
  8
AM_0
 10
364.10139929054571
 20
498.3040416327338
 30
0.0
 40
5.0
 50
95.00000199999856
 51
180.00001000000091
  0
ARC
  5
5FEE
  8
AM_0
 10
364.10139929054571
 20
615.74206163273345
 30
0.0
 40
5.0
 50
180.00001000000091
 51
265.00001000000071
  0
ARC
  5
5FEF
  8
AM_0
 10
364.10139929054571
 20
485.01986163273392
 30
0.0
 40
5.0
 50
180.00001000000091
 51
271.49999999999608
  0
ARC
  5
5FF0
  8
AM_0
 10
364.10139929054571
 20
629.0262716327336
 30
0.0
 40
5.0
 50
88.499997000000747
 51
180.00001000000091
  0
ARC
  5
5FF1
  8
AM_0
 10
356.10139929054583
 20
496.92575163273381
 30
0.0
 40
3.0
 50
271.49999999999608
 51
0.0
  0
ARC
  5
5FF2
  8
AM_0
 10
335.70637929054578
 20
491.3548516327337
 30
0.0
 40
5.0
 50
271.49999999999608
 51
299.88701999999472
  0
ARC
  5
5FF3
  8
AM_0
 10
351.32606929054572
 20
488.79797163273361
 30
0.0
 40
5.0
 50
91.500001000001546
 51
119.88701999999461
  0
ARC
  5
5FF4
  8
AM_0
 10
369.10142929054558
 20
512.99752163273388
 30
0.0
 40
3.0
 50
271.49999999999608
 51
0.0
  0
ARC
  5
5FF5
  8
AM_0
 10
369.10142929054558
 20
506.77206163273382
 30
0.0
 40
3.0
 50
274.99999999999972
 51
0.0
  0
ARC
  5
5FF6
  8
AM_0
 10
376.27543929054571
 20
503.23178163273371
 30
0.0
 40
5.0
 50
95.00000199999856
 51
153.73433000000409
  0
ARC
  5
5FF7
  8
AM_0
 10
376.27543929054571
 20
610.81433163273346
 30
0.0
 40
5.0
 50
206.26566999999591
 51
265.00001000000071
  0
ARC
  5
5FF8
  8
AM_0
 10
369.10142929054558
 20
601.04861163273381
 30
0.0
 40
3.0
 50
0.0
 51
88.499997000000747
  0
ARC
  5
5FF9
  8
AM_0
 10
335.70637929054578
 20
622.69128163273365
 30
0.0
 40
5.0
 50
60.112980000005322
 51
88.499997000000747
  0
ARC
  5
5FFA
  8
AM_0
 10
369.10142929054558
 20
607.27407163273381
 30
0.0
 40
3.0
 50
0.0
 51
85.000003999997659
  0
ARC
  5
5FFB
  8
AM_0
 10
351.32606929054572
 20
625.24816163273385
 30
0.0
 40
5.0
 50
240.11298000000519
 51
268.50000000000369
  0
ARC
  5
5FFC
  8
AM_0
 10
356.10139929054583
 20
617.12039163273369
 30
0.0
 40
3.0
 50
0.0
 51
88.499997000000747
  0
ARC
  5
5FFD
  8
AM_0
 10
338.1013992905456
 20
611.44778163273372
 30
0.0
 40
1.0
 50
0.0
 51
90.00000299999769
  0
ARC
  5
5FFE
  8
AM_0
 10
338.1013992905456
 20
617.22131163273377
 30
0.0
 40
1.0
 50
0.0
 51
90.00000299999769
  0
ARC
  5
5FFF
  8
AM_0
 10
338.1013992905456
 20
620.10806163273367
 30
0.0
 40
1.0
 50
0.0
 51
90.00000299999769
  0
ARC
  5
6000
  8
AM_0
 10
338.1013992905456
 20
619.22128163273385
 30
0.0
 40
1.0
 50
269.999989999999
 51
0.0000006832495047
  0
ARC
  5
6001
  8
AM_0
 10
338.1013992905456
 20
613.44778163273372
 30
0.0
 40
1.0
 50
269.999989999999
 51
0.0000006832495047
  0
ARC
  5
6002
  8
AM_0
 10
338.1013992905456
 20
610.5610316327336
 30
0.0
 40
1.0
 50
269.999989999999
 51
0.0000006832495047
  0
ARC
  5
6003
  8
AM_0
 10
438.59013929054572
 20
557.02307163273372
 30
0.0
 40
101.4887199999999
 50
151.89333000000309
 51
208.1066699999968
  0
ARC
  5
6004
  8
AM_0
 10
318.1014292905457
 20
488.1546916327336
 30
0.0
 40
2.0
 50
180.00001000000091
 51
268.50000000000369
  0
ARC
  5
6005
  8
AM_0
 10
318.1014292905457
 20
625.89144163273374
 30
0.0
 40
2.0
 50
91.500001000001546
 51
180.00001000000091
  0
ARC
  5
6006
  8
AM_0
 10
313.1013992905456
 20
493.81179163273362
 30
0.0
 40
2.0
 50
180.00001000000091
 51
270.0
  0
ARC
  5
6007
  8
AM_0
 10
309.1013992905456
 20
509.02276163273382
 30
0.0
 40
2.0
 50
0.0
 51
90.00000299999769
  0
ARC
  5
6008
  8
AM_0
 10
314.1014292905457
 20
489.8117916327335
 30
0.0
 40
2.0
 50
0.0
 51
90.00000299999769
  0
ARC
  5
6009
  8
AM_0
 10
314.1014292905457
 20
624.23437163273366
 30
0.0
 40
2.0
 50
270.0
 51
0.0
  0
ARC
  5
600A
  8
AM_0
 10
313.1013992905456
 20
620.23437163273366
 30
0.0
 40
2.0
 50
90.00000299999769
 51
180.00001000000091
  0
ARC
  5
600B
  8
AM_0
 10
309.1013992905456
 20
605.02337163273387
 30
0.0
 40
2.0
 50
270.0
 51
0.0
  0
LINE
  5
600C
  8
ﾁｭｳｼﾝｾﾝ1
 10
366.10139929054571
 20
622.0230716327336
 30
0.0
 11
386.10139929054571
 21
622.0230716327336
 31
0.0
  0
LINE
  5
600D
  8
ﾁｭｳｼﾝｾﾝ1
 10
376.10139929054571
 20
632.02307163273372
 30
0.0
 11
376.10139929054571
 21
612.02307163273372
 31
0.0
  0
LINE
  5
600F
  8
ﾁｭｳｼﾝｾﾝ1
 10
366.10139929054571
 20
492.02307163273372
 30
0.0
 11
386.10139929054571
 21
492.02307163273372
 31
0.0
  0
LINE
  5
6010
  8
ﾁｭｳｼﾝｾﾝ1
 10
376.10139929054571
 20
502.02307163273372
 30
0.0
 11
376.10139929054571
 21
482.0230716327336
 31
0.0
  0
LINE
  5
6011
  8
ﾁｭｳｼﾝｾﾝ1
 10
296.10139929054583
 20
492.02307163273372
 30
0.0
 11
316.10139929054583
 21
492.02307163273372
 31
0.0
  0
LINE
  5
6012
  8
ﾁｭｳｼﾝｾﾝ1
 10
306.10139929054583
 20
502.02307163273372
 30
0.0
 11
306.10139929054583
 21
482.0230716327336
 31
0.0
  0
LINE
  5
6013
  8
ﾁｭｳｼﾝｾﾝ1
 10
296.10139929054583
 20
622.0230716327336
 30
0.0
 11
316.10139929054583
 21
622.0230716327336
 31
0.0
  0
LINE
  5
6014
  8
ﾁｭｳｼﾝｾﾝ1
 10
306.10139929054583
 20
632.02307163273372
 30
0.0
 11
306.10139929054583
 21
612.02307163273372
 31
0.0
  0
ARC
  5
6015
  8
AM_0
 10
387.10137929054582
 20
586.4098266327336
 30
0.0
 40
2.00000007
 50
179.999989999999
 51
240.00000999999969
  0
ARC
  5
6016
  8
AM_0
 10
387.10137929054582
 20
527.63631963273372
 30
0.0
 40
2.00000007
 50
120.0000000000005
 51
180.00001000000091
  0
LINE
  5
6017
  8
AM_0
 10
391.1013492905455
 20
590.5230686327335
 30
0.0
 11
396.10134929054527
 21
585.52306863273395
 31
0.0
  0
LINE
  5
6018
  8
AM_0
 10
386.60134929054573
 20
590.5230686327335
 30
0.0
 11
391.10134929054573
 21
590.5230686327335
 31
0.0
  0
LINE
  5
6019
  8
AM_0
 10
386.10134929054573
 20
590.0230686327335
 30
0.0
 11
386.1013492905451
 21
524.02306863273418
 31
0.0
  0
LINE
  5
601A
  8
AM_0
 10
396.10134929054527
 20
585.52306863273395
 30
0.0
 11
396.1013492905455
 21
528.52306863273395
 31
0.0
  0
LINE
  5
601B
  8
AM_0
 10
386.60134929054573
 20
523.52306863273373
 30
0.0
 11
391.1013492905455
 21
523.52306863273373
 31
0.0
  0
LINE
  5
601C
  8
AM_0
 10
391.1013492905455
 20
523.52306863273373
 30
0.0
 11
396.1013492905455
 21
528.52306863273395
 31
0.0
  0
LINE
  5
601D
  8
AM_0
 10
386.60134929054573
 20
590.5230686327335
 30
0.0
 11
386.10134929054573
 21
590.0230686327335
 31
0.0
1001
GENIUS_GENFIL_13
1070
     0
1040
0.5
1040
0.5
1040
20.0
1040
0.0
1002
{
1002
}
1001
GENIUS_GENOBJ-N-CHA_13
1002
{
1000
OWNER
1000
GEN
1002
}
1001
GENIUS_GENODEF_13
1002
{
1000
HIER
1070
     0
1002
}
1002
{
1000
MANEDIT
1070
     0
1002
}
1002
{
1000
NOSEL
1070
     0
1002
}
1002
{
1000
BEHIND
1070
     0
1002
}
1002
{
1000
OTHER
1070
     0
1002
}
1002
{
1000
REACTOR
1002
}
  0
LINE
  5
601E
  8
AM_0
 10
386.10134929054573
 20
524.02306863273373
 30
0.0
 11
386.60134929054573
 21
523.52306863273373
 31
0.0
1001
GENIUS_GENFIL_13
1070
     0
1040
0.5
1040
0.5
1040
20.0
1040
0.0
1002
{
1002
}
1001
GENIUS_GENOBJ-N-CHA_13
1002
{
1000
OWNER
1000
GEN
1002
}
1001
GENIUS_GENODEF_13
1002
{
1000
HIER
1070
     0
1002
}
1002
{
1000
MANEDIT
1070
     0
1002
}
1002
{
1000
NOSEL
1070
     0
1002
}
1002
{
1000
BEHIND
1070
     0
1002
}
1002
{
1000
OTHER
1070
     0
1002
}
1002
{
1000
REACTOR
1002
}
  0
LINE
  5
601F
  8
AM_0
 10
391.10134929054573
 20
590.5230686327335
 30
0.0
 11
391.1013492905455
 21
523.52306863273373
 31
0.0
  0
LINE
  5
6020
  8
AM_0
 10
256.1276191395861
 20
491.02307163273377
 30
0.0
 11
256.38216841360889
 21
500.74304163273371
 31
0.0
  0
LINE
  5
6021
  8
AM_0
 10
196.07518714434551
 20
491.02307163273377
 30
0.0
 11
195.82070510320671
 21
500.74304163273371
 31
0.0
  0
LINE
  5
6022
  8
AM_0
 10
192.6014292905455
 20
489.02307163273372
 30
0.0
 11
259.60142929054558
 21
489.02307163273372
 31
0.0
  0
LINE
  5
6023
  8
AM_0
 10
192.6014292905455
 20
488.02307163273372
 30
0.0
 11
192.6014292905455
 21
489.02307163273372
 31
0.0
  0
LINE
  5
6024
  8
AM_0
 10
259.60142929054558
 20
488.02307163273372
 30
0.0
 11
259.60142929054558
 21
489.02307163273372
 31
0.0
  0
LINE
  5
6025
  8
AM_0
 10
178.1014292905455
 20
450.02307163273377
 30
0.0
 11
179.3610144268078
 21
486.09287062613879
 31
0.0
  0
LINE
  5
6026
  8
AM_0
 10
181.35979608084611
 20
488.02307163273372
 30
0.0
 11
270.84306250024508
 21
488.02307163273372
 31
0.0
  0
ARC
  5
6027
  8
AM_0
 10
181.35979608084611
 20
486.02307163273377
 30
0.0
 40
2.0
 50
90.0
 51
178.00000000000259
1001
GENIUS_GENODEF_13
1002
{
1000
HIER
1070
     0
1002
}
1002
{
1000
MANEDIT
1070
     0
1002
}
1002
{
1000
NOSEL
1070
     0
1002
}
1002
{
1000
BEHIND
1070
     0
1002
}
1002
{
1000
OTHER
1070
     0
1002
}
1002
{
1000
REACTOR
1002
}
1001
GENIUS_GENOBJ-N-FIL_13
1002
{
1000
OWNER
1000
GEN
1002
}
  0
LINE
  5
6028
  8
AM_0
 10
272.84184415428342
 20
486.09287062613879
 30
0.0
 11
274.1014292905457
 21
450.02307163273377
 31
0.0
  0
ARC
  5
6029
  8
AM_0
 10
270.8430625002452
 20
486.02307163273377
 30
0.0
 40
2.0
 50
1.9999999999972149
 51
90.0
1001
GENIUS_GENOBJ-N-FIL_13
1002
{
1000
OWNER
1000
GEN
1002
}
1001
GENIUS_GENODEF_13
1002
{
1000
HIER
1070
     0
1002
}
1002
{
1000
MANEDIT
1070
     0
1002
}
1002
{
1000
NOSEL
1070
     0
1002
}
1002
{
1000
BEHIND
1070
     0
1002
}
1002
{
1000
OTHER
1070
     0
1002
}
1002
{
1000
REACTOR
1002
}
  0
LINE
  5
602A
  8
AM_0
 10
274.1014292905457
 20
450.02307163273377
 30
0.0
 11
178.1014292905453
 21
450.02307163273377
 31
0.0
  0
LINE
  5
602B
  8
AM_0
 10
178.2061915990208
 20
453.0230716327336
 30
0.0
 11
177.1014292905455
 21
453.0230716327336
 31
0.0
  0
LINE
  5
602C
  8
AM_0
 10
179.32365622275671
 20
485.02307163273349
 30
0.0
 11
177.1014292905455
 21
485.02307163273349
 31
0.0
  0
LINE
  5
602D
  8
ﾁｭｳｼﾝｾﾝ1
 10
183.10142929054621
 20
439.75836413273367
 30
0.0
 11
183.10142929054621
 21
452.75836413273367
 31
0.0
  0
LINE
  5
602E
  8
ﾁｭｳｼﾝｾﾝ
 10
226.10142929054561
 20
495.3151023059628
 30
0.0
 11
226.10142929054561
 21
437.57254899192452
 31
0.0
  0
LINE
  5
602F
  8
AM_0
 10
174.6014292905455
 20
455.5230716327336
 30
0.0
 11
177.1014292905455
 21
455.52307163273338
 31
0.0
  0
LINE
  5
6030
  8
AM_0
 10
177.1014292905455
 20
482.52307163273332
 30
0.0
 11
174.6014292905455
 21
482.5230716327336
 31
0.0
  0
LINE
  5
6031
  8
AM_0
 10
163.70275819419959
 20
479.52307163273372
 30
0.0
 11
163.70275819419959
 21
458.52307163273372
 31
0.0
  0
LINE
  5
6032
  8
AM_0
 10
148.70275819419959
 20
460.9914465787183
 30
0.0
 11
148.70275819419959
 21
477.05469668674942
 31
0.0
  0
LINE
  5
6033
  8
AM_0
 10
161.70275819419959
 20
481.02307163273349
 30
0.0
 11
161.70275819419959
 21
457.0230716327336
 31
0.0
  0
LINE
  5
6034
  8
AM_0
 10
152.20275819419959
 20
469.02307163273349
 30
0.0
 11
152.70275819419959
 21
469.5230716327336
 31
0.0
  0
LINE
  5
6035
  8
AM_0
 10
159.20275819419959
 20
457.32307163273362
 30
0.0
 11
159.20275819419959
 21
480.72307163273342
 31
0.0
  0
LINE
  5
6036
  8
AM_0
 10
169.1014292905455
 20
457.5230716327336
 30
0.0
 11
169.1014292905455
 21
480.5230716327336
 31
0.0
  0
LINE
  5
6037
  8
AM_0
 10
163.2027581941995
 20
469.72307163273553
 30
0.0
 11
163.2027581941995
 21
468.32307163273231
 31
0.0
  0
LINE
  5
6038
  8
AM_0
 10
165.30239392077041
 20
478.12307163273351
 30
0.0
 11
164.55239392077161
 21
459.92307163273352
 31
0.0
  0
LINE
  5
6039
  8
AM_0
 10
164.3514292905455
 20
478.12307163273351
 30
0.0
 11
163.70275819419959
 21
462.38198636141738
 31
0.0
  0
LINE
  5
603A
  8
AM_0
 10
165.10012188111759
 20
478.83873034509759
 30
0.0
 11
164.35286183770961
 21
459.21069987156648
 31
0.0
  0
LINE
  5
603B
  8
AM_0
 10
164.55096137360741
 20
478.83544339390158
 30
0.0
 11
163.80239392077161
 21
459.17307163273352
 31
0.0
  0
LINE
  5
603C
  8
AM_0
 10
161.70275819419959
 20
457.0230716327336
 30
0.0
 11
159.5027581941996
 21
457.0230716327336
 31
0.0
  0
ARC
  5
603D
  8
AM_0
 10
173.60142929054561
 20
456.52307163273349
 30
0.0
 40
0.5
 50
0.0
 51
90.000000000013017
  0
ARC
  5
603E
  8
AM_0
 10
174.60142929054561
 20
456.02307163273349
 30
0.0
 40
0.5
 50
180.0
 51
270.0
  0
LINE
  5
603F
  8
AM_0
 10
174.1014292905455
 20
456.52307163273349
 30
0.0
 11
174.1014292905455
 21
456.02307163273349
 31
0.0
  0
LINE
  5
6040
  8
AM_0
 10
165.1014292905455
 20
459.92307163273352
 30
0.0
 11
168.6014292905455
 21
459.92307163273352
 31
0.0
  0
LINE
  5
6041
  8
AM_0
 10
174.1014292905455
 20
458.16700031132649
 30
0.0
 11
174.1014292905455
 21
467.8791429541414
 31
0.0
  0
LINE
  5
6042
  8
AM_0
 10
169.6014292905455
 20
457.0230716327336
 30
0.0
 11
173.6014292905455
 21
457.0230716327336
 31
0.0
  0
LINE
  5
6043
  8
AM_0
 10
173.6014292905455
 20
457.6670003113266
 30
0.0
 11
169.1014292905455
 21
457.6670003113266
 31
0.0
  0
ARC
  5
6044
  8
AM_0
 10
173.60142929054561
 20
458.16700031132649
 30
0.0
 40
0.5
 50
270.0
 51
0.0
  0
ARC
  5
6045
  8
AM_0
 10
168.6014292905455
 20
459.42307163273369
 30
0.0
 40
0.5
 50
0.0
 51
90.0
  0
ARC
  5
6046
  8
AM_0
 10
169.6014292905455
 20
457.5230716327336
 30
0.0
 40
0.5
 50
180.0
 51
270.0
  0
LINE
  5
6047
  8
AM_0
 10
173.6014292905455
 20
468.3791429541414
 30
0.0
 11
169.1014292905455
 21
468.3791429541414
 31
0.0
  0
ARC
  5
6048
  8
AM_0
 10
173.6014292905455
 20
467.87914295414168
 30
0.0
 40
0.5
 50
0.0
 51
90.0
  0
LINE
  5
6049
  8
AM_0
 10
163.2027581941995
 20
462.8779008804413
 30
0.0
 11
163.2027581941995
 21
464.05014406687428
 31
0.0
  0
LINE
  5
604A
  8
AM_0
 10
164.6291263491965
 20
459.92307163273352
 30
0.0
 11
165.1014292905455
 21
459.92307163273352
 31
0.0
  0
LINE
  5
604B
  8
AM_0
 10
164.53253385465729
 20
459.8489538659968
 30
0.0
 11
164.55239392077161
 21
459.92307163273352
 31
0.0
  0
ARC
  5
604C
  8
AM_0
 10
164.6291263491965
 20
459.82307163273362
 30
0.0
 40
0.1000000000000346
 50
90.0
 51
164.99980499355451
  0
ARC
  5
604D
  8
AM_0
 10
162.90275819419941
 20
459.73623865222561
 30
0.0
 40
0.3000000000000043
 50
0.0
 51
90.0
  0
LINE
  5
604E
  8
AM_0
 10
161.70275819419959
 20
457.62307163273351
 30
0.0
 11
162.9227138973566
 21
457.70440201294463
 31
0.0
  0
LINE
  5
604F
  8
AM_0
 10
161.70275819419959
 20
458.77932366857351
 30
0.0
 11
162.90275819419941
 21
458.77932366857351
 31
0.0
  0
LINE
  5
6050
  8
AM_0
 10
163.2027581941995
 20
458.0230716327336
 30
0.0
 11
161.70275819419959
 21
458.0230716327336
 31
0.0
  0
ARC
  5
6051
  8
AM_0
 10
163.2027581941995
 20
458.52307163273372
 30
0.0
 40
0.5
 50
270.0
 51
0.0
  0
LINE
  5
6052
  8
AM_0
 10
163.2027581941995
 20
458.00373756030172
 30
0.0
 11
163.2027581941995
 21
458.0230716327336
 31
0.0
  0
LINE
  5
6053
  8
AM_0
 10
163.2027581941995
 20
457.72307163273371
 30
0.0
 11
163.2027581941995
 21
458.00373756030172
 31
0.0
  0
LINE
  5
6054
  8
AM_0
 10
162.9227138973566
 20
457.70440201294463
 30
0.0
 11
163.2027581941995
 21
457.72307163273371
 31
0.0
  0
ARC
  5
6055
  8
AM_0
 10
162.90275819419941
 20
458.00373756030172
 30
0.0
 40
0.3000000000000007
 50
273.81407483428148
 51
0.0
  0
LINE
  5
6056
  8
AM_0
 10
164.27469686212041
 20
459.17307163273352
 30
0.0
 11
164.35142929054641
 21
459.17307163273352
 31
0.0
  0
LINE
  5
6057
  8
AM_0
 10
164.35142929054641
 20
459.17307163273352
 30
0.0
 11
164.3712893566595
 21
459.2471893994699
 31
0.0
  0
LINE
  5
6058
  8
AM_0
 10
163.78253385465729
 20
459.2471893994699
 30
0.0
 11
163.80239392077161
 21
459.17307163273352
 31
0.0
  0
LINE
  5
6059
  8
AM_0
 10
163.80239392077161
 20
459.17307163273352
 30
0.0
 11
163.8791263491965
 21
459.17307163273352
 31
0.0
  0
LINE
  5
605A
  8
AM_0
 10
164.3712893566595
 20
459.2471893994699
 30
0.0
 11
164.53253385465729
 21
459.8489538659968
 31
0.0
  0
LINE
  5
605B
  8
AM_0
 10
163.8791263491965
 20
459.17307163273352
 30
0.0
 11
164.27469686212041
 21
459.17307163273352
 31
0.0
  0
LINE
  5
605C
  8
AM_0
 10
163.7027581942005
 20
459.54491216429437
 30
0.0
 11
163.78253385465729
 21
459.2471893994699
 31
0.0
  0
ARC
  5
605D
  8
AM_0
 10
164.27469686212041
 20
459.2730716327336
 30
0.0
 40
0.0999999999999866
 50
270.0
 51
344.99980499343462
  0
ARC
  5
605E
  8
AM_0
 10
163.8791263491965
 20
459.2730716327336
 30
0.0
 40
0.1000000000000014
 50
195.00019500656541
 51
270.0
  0
LINE
  5
605F
  8
AM_0
 10
163.2027581941995
 20
459.07932366857352
 30
0.0
 11
163.2027581941995
 21
459.73623865222561
 31
0.0
  0
ARC
  5
6060
  8
AM_0
 10
162.90275819419941
 20
459.07932366857369
 30
0.0
 40
0.3000000000000007
 50
270.0
 51
0.0
  0
LINE
  5
6061
  8
AM_0
 10
161.70275819419959
 20
462.57790088044152
 30
0.0
 11
162.90275819419941
 21
462.57790088044152
 31
0.0
  0
LINE
  5
6062
  8
AM_0
 10
162.90275819419941
 20
460.03623865222551
 30
0.0
 11
161.70275819419959
 21
460.03623865222551
 31
0.0
  0
LINE
  5
6063
  8
AM_0
 10
164.55239392077161
 20
459.92307163273352
 30
0.0
 11
164.6291263491965
 21
459.92307163273352
 31
0.0
  0
ARC
  5
6064
  8
AM_0
 10
162.90275819419941
 20
462.87790088044159
 30
0.0
 40
0.3000000000000007
 50
270.0
 51
0.0
  0
LINE
  5
6065
  8
AM_0
 10
162.90275819419941
 20
464.35014406687452
 30
0.0
 11
161.70275819419959
 21
464.35014406687452
 31
0.0
  0
ARC
  5
6066
  8
AM_0
 10
162.90275819419941
 20
464.05014406687462
 30
0.0
 40
0.3000000000000043
 50
0.0
 51
90.0
  0
LINE
  5
6067
  8
AM_0
 10
162.90275819419941
 20
468.02307163273241
 30
0.0
 11
161.70275819419959
 21
468.02307163273241
 31
0.0
  0
ARC
  5
6068
  8
AM_0
 10
162.90275819419941
 20
468.32307163273282
 30
0.0
 40
0.3000000000000007
 50
270.0
 51
0.0
  0
LINE
  5
6069
  8
AM_0
 10
152.70275819419959
 20
458.88979180408649
 30
0.0
 11
159.20275819419959
 21
458.88979180408649
 31
0.0
  0
LINE
  5
606A
  8
AM_0
 10
152.70275819419959
 20
458.38979180408649
 30
0.0
 11
159.20275819419959
 21
458.38979180408649
 31
0.0
  0
LINE
  5
606B
  8
AM_0
 10
159.20275819419959
 20
468.52307163273349
 30
0.0
 11
152.70275819419959
 21
468.52307163273349
 31
0.0
  0
LINE
  5
606C
  8
AM_0
 10
152.20275819419959
 20
468.0230716327336
 30
0.0
 11
159.20275819419959
 21
468.0230716327336
 31
0.0
  0
LINE
  5
606D
  8
AM_0
 10
158.90275819419941
 20
458.0230716327336
 30
0.0
 11
152.0648081293815
 21
458.0230716327336
 31
0.0
  0
LINE
  5
606E
  8
AM_0
 10
159.20275819419959
 20
467.67638356419229
 30
0.0
 11
152.70275819419959
 21
467.67638356419229
 31
0.0
  0
LINE
  5
606F
  8
AM_0
 10
159.20275819419959
 20
459.36975970127452
 30
0.0
 11
152.70275819419959
 21
459.36975970127452
 31
0.0
  0
ARC
  5
6070
  8
AM_0
 10
159.5027581941996
 20
457.32307163273362
 30
0.0
 40
0.2999999999999971
 50
180.0
 51
270.0
  0
ARC
  5
6071
  8
AM_0
 10
158.90275819419961
 20
457.72307163273371
 30
0.0
 40
0.2999999999999971
 50
0.0
 51
90.0
  0
ARC
  5
6072
  8
AM_0
 10
160.82775819419959
 20
463.5230716327336
 30
0.0
 40
9.124999999999984
 50
152.92493329271929
 51
207.07506670728071
  0
LINE
  5
6073
  8
AM_0
 10
151.4246237297171
 20
458.25485035313591
 30
0.0
 11
149.06257379453501
 21
460.223225299121
 31
0.0
  0
LINE
  5
6074
  8
AM_0
 10
152.20275819419959
 20
458.60150421624161
 30
0.0
 11
152.70275819419959
 21
458.0230716327336
 31
0.0
  0
ARC
  5
6075
  8
AM_0
 10
152.0648081293815
 20
459.02307163273372
 30
0.0
 40
1.0
 50
230.19442890774391
 51
270.0
  0
LINE
  5
6076
  8
AM_0
 10
152.70275819419959
 20
458.38979180408649
 30
0.0
 11
152.20275819419959
 21
458.60150421624161
 31
0.0
  0
LINE
  5
6077
  8
AM_0
 10
152.20275819419959
 20
459.06377948921261
 30
0.0
 11
152.70275819419959
 21
458.38979180408649
 31
0.0
  0
LINE
  5
6078
  8
AM_0
 10
152.70275819419959
 20
458.88979180408649
 30
0.0
 11
152.20275819419959
 21
459.06377948921261
 31
0.0
  0
LINE
  5
6079
  8
AM_0
 10
152.20275819419959
 20
459.60150421624161
 30
0.0
 11
152.70275819419959
 21
458.88979180408649
 31
0.0
  0
LINE
  5
607A
  8
AM_0
 10
152.70275819419959
 20
459.36975970127452
 30
0.0
 11
152.20275819419959
 21
459.60150421624161
 31
0.0
  0
ARC
  5
607B
  8
AM_0
 10
149.70275819419959
 20
460.99144657871858
 30
0.0
 40
1.0000000000000291
 50
180.0
 51
230.19442890773689
  0
LINE
  5
607C
  8
AM_0
 10
152.70275819419959
 20
468.52307163273349
 30
0.0
 11
152.20275819419959
 21
469.02307163273349
 31
0.0
  0
LINE
  5
607D
  8
AM_0
 10
152.20275819419959
 20
468.0230716327336
 30
0.0
 11
152.70275819419959
 21
468.52307163273349
 31
0.0
  0
LINE
  5
607E
  8
AM_0
 10
152.70275819419959
 20
467.67638356419229
 30
0.0
 11
152.20275819419959
 21
468.0230716327336
 31
0.0
  0
LINE
  5
607F
  8
AM_0
 10
159.5027581941996
 20
481.02307163273349
 30
0.0
 11
161.70275819419959
 21
481.02307163273349
 31
0.0
  0
ARC
  5
6080
  8
AM_0
 10
173.6014292905455
 20
481.52307163273349
 30
0.0
 40
0.5
 50
269.99999999998693
 51
0.0
  0
LINE
  5
6081
  8
AM_0
 10
168.6014292905455
 20
478.12307163273351
 30
0.0
 11
165.3791263491965
 21
478.12307163273351
 31
0.0
  0
LINE
  5
6082
  8
AM_0
 10
174.1014292905455
 20
470.1670003113266
 30
0.0
 11
174.1014292905455
 21
479.87914295414168
 31
0.0
  0
LINE
  5
6083
  8
AM_0
 10
169.1014292905455
 20
469.66700031132672
 30
0.0
 11
173.6014292905455
 21
469.66700031132672
 31
0.0
  0
ARC
  5
6084
  8
AM_0
 10
173.6014292905455
 20
470.1670003113266
 30
0.0
 40
0.5
 50
270.0
 51
0.0
  0
LINE
  5
6085
  8
AM_0
 10
169.1014292905455
 20
480.37914295414168
 30
0.0
 11
173.6014292905455
 21
480.37914295414168
 31
0.0
  0
LINE
  5
6086
  8
AM_0
 10
173.6014292905455
 20
481.02307163273349
 30
0.0
 11
169.6014292905455
 21
481.02307163273349
 31
0.0
  0
ARC
  5
6087
  8
AM_0
 10
173.6014292905455
 20
479.87914295414168
 30
0.0
 40
0.5
 50
0.0
 51
90.0
  0
ARC
  5
6088
  8
AM_0
 10
168.6014292905455
 20
478.6230716327334
 30
0.0
 40
0.5
 50
270.0
 51
0.0
  0
ARC
  5
6089
  8
AM_0
 10
169.6014292905455
 20
480.5230716327336
 30
0.0
 40
0.5
 50
90.0
 51
180.0
  0
ARC
  5
608A
  8
AM_0
 10
162.90275819419941
 20
475.16824238502551
 30
0.0
 40
0.3000000000000114
 50
0.0
 51
90.0
  0
LINE
  5
608B
  8
AM_0
 10
161.70275819419959
 20
470.02307163273542
 30
0.0
 11
162.90275819419941
 21
470.02307163273542
 31
0.0
  0
ARC
  5
608C
  8
AM_0
 10
162.90275819419941
 20
469.72307163273558
 30
0.0
 40
0.2999999999999971
 50
0.0
 51
90.0
  0
LINE
  5
608D
  8
AM_0
 10
161.70275819419959
 20
473.69599919859252
 30
0.0
 11
162.90275819419941
 21
473.69599919859252
 31
0.0
  0
ARC
  5
608E
  8
AM_0
 10
162.90275819419941
 20
473.99599919859247
 30
0.0
 40
0.3000000000000007
 50
270.0
 51
0.0
  0
LINE
  5
608F
  8
AM_0
 10
163.2027581941995
 20
473.99599919859247
 30
0.0
 11
163.2027581941995
 21
475.16824238502551
 31
0.0
  0
LINE
  5
6090
  8
AM_0
 10
164.6291263491965
 20
478.87307163273351
 30
0.0
 11
165.02469686212041
 21
478.87307163273351
 31
0.0
  0
LINE
  5
6091
  8
AM_0
 10
164.6291263491965
 20
478.87307163273351
 30
0.0
 11
165.02469686212041
 21
478.87307163273351
 31
0.0
  0
LINE
  5
6092
  8
AM_0
 10
165.1212893566595
 20
478.79895386599702
 30
0.0
 11
165.28253385465729
 21
478.19718939947001
 31
0.0
  0
LINE
  5
6093
  8
AM_0
 10
165.1212893566595
 20
478.79895386599702
 30
0.0
 11
165.28253385465729
 21
478.19718939947001
 31
0.0
  0
ARC
  5
6094
  8
AM_0
 10
165.3791263491965
 20
478.22307163273371
 30
0.0
 40
0.0999999999999943
 50
195.00019500651959
 51
270.0
  0
ARC
  5
6095
  8
AM_0
 10
165.02469686212041
 20
478.77307163273349
 30
0.0
 40
0.0999999999999943
 50
15.000195006505431
 51
90.0
  0
LINE
  5
6096
  8
AM_0
 10
163.70191160565841
 20
478.49807163273368
 30
0.0
 11
163.78253385465729
 21
478.19718939947001
 31
0.0
  0
LINE
  5
6097
  8
AM_0
 10
164.3541399427514
 20
478.16233616583162
 30
0.0
 11
164.53253385465729
 21
478.79895386599702
 31
0.0
  0
LINE
  5
6098
  8
AM_0
 10
164.3712893566595
 20
478.19718939947001
 30
0.0
 11
164.53253385465729
 21
478.79895386599702
 31
0.0
  0
LINE
  5
6099
  8
AM_0
 10
163.2027581941995
 20
478.30990461324251
 30
0.0
 11
163.2027581941995
 21
478.96681959689357
 31
0.0
  0
LINE
  5
609A
  8
AM_0
 10
163.70275819419959
 20
478.4949121642955
 30
0.0
 11
163.78253385465729
 21
478.19718939947001
 31
0.0
  0
LINE
  5
609B
  8
AM_0
 10
161.70275819419959
 20
478.0099046132425
 30
0.0
 11
162.90275819419941
 21
478.0099046132425
 31
0.0
  0
LINE
  5
609C
  8
AM_0
 10
162.90275819419941
 20
475.46824238502558
 30
0.0
 11
161.70275819419959
 21
475.46824238502637
 31
0.0
  0
LINE
  5
609D
  8
AM_0
 10
164.3073291276356
 20
478.12307163273351
 30
0.0
 11
164.3541399427514
 21
478.16233616583162
 31
0.0
  0
LINE
  5
609E
  8
AM_0
 10
163.8791263491965
 20
478.12307163273351
 30
0.0
 11
164.3073291276356
 21
478.12307163273351
 31
0.0
  0
LINE
  5
609F
  8
AM_0
 10
163.8791263491965
 20
478.12307163273351
 30
0.0
 11
164.27469686212041
 21
478.12307163273351
 31
0.0
  0
ARC
  5
60A0
  8
AM_0
 10
163.8791263491965
 20
478.22307163273371
 30
0.0
 40
0.0999999999999943
 50
195.00019500651959
 51
270.0
  0
ARC
  5
60A1
  8
AM_0
 10
164.27469686212041
 20
478.22307163273371
 30
0.0
 40
0.0999999999999608
 50
270.0
 51
344.99980499348032
  0
ARC
  5
60A2
  8
AM_0
 10
162.90275819419941
 20
478.30990461324251
 30
0.0
 40
0.3000000000000007
 50
270.0
 51
0.0
  0
LINE
  5
60A3
  8
AM_0
 10
161.70275819419959
 20
480.0230716327336
 30
0.0
 11
163.2027581941995
 21
480.0230716327336
 31
0.0
  0
LINE
  5
60A4
  8
AM_0
 10
162.90275819419941
 20
479.26681959689353
 30
0.0
 11
161.70275819419959
 21
479.26681959689353
 31
0.0
  0
LINE
  5
60A5
  8
AM_0
 10
162.9227138973566
 20
480.34174125252338
 30
0.0
 11
161.70275819419959
 21
480.42307163273352
 31
0.0
  0
ARC
  5
60A6
  8
AM_0
 10
163.2027581941995
 20
479.52307163273372
 30
0.0
 40
0.5
 50
0.0
 51
90.0
  0
ARC
  5
60A7
  8
AM_0
 10
164.6291263491965
 20
478.77307163273349
 30
0.0
 40
0.0999999999999606
 50
90.0
 51
164.99980499349451
  0
ARC
  5
60A8
  8
AM_0
 10
162.90275819419941
 20
478.96681959689357
 30
0.0
 40
0.2999999999999971
 50
0.0
 51
90.0
  0
LINE
  5
60A9
  8
AM_0
 10
163.2027581941995
 20
480.0230716327336
 30
0.0
 11
163.2027581941995
 21
480.04240570516657
 31
0.0
  0
ARC
  5
60AA
  8
AM_0
 10
162.90275819419941
 20
480.04240570516657
 30
0.0
 40
0.3000000000000043
 50
0.0
 51
86.18592516571853
  0
ARC
  5
60AB
  8
AM_0
 10
174.6014292905455
 20
482.0230716327336
 30
0.0
 40
0.5
 50
90.0
 51
180.0
  0
LINE
  5
60AC
  8
AM_0
 10
174.1014292905455
 20
482.0230716327336
 30
0.0
 11
174.1014292905455
 21
481.52307163273349
 31
0.0
  0
LINE
  5
60AD
  8
AM_0
 10
152.70275819419959
 20
478.67638356419252
 30
0.0
 11
159.20275819419959
 21
478.67638356419252
 31
0.0
  0
LINE
  5
60AE
  8
AM_0
 10
152.70275819419959
 20
470.36975970127452
 30
0.0
 11
159.20275819419959
 21
470.36975970127452
 31
0.0
  0
LINE
  5
60AF
  8
AM_0
 10
152.0648081293815
 20
480.0230716327336
 30
0.0
 11
158.90275819419941
 21
480.0230716327336
 31
0.0
  0
LINE
  5
60B0
  8
AM_0
 10
159.20275819419959
 20
470.0230716327336
 30
0.0
 11
152.20275819419959
 21
470.0230716327336
 31
0.0
  0
LINE
  5
60B1
  8
AM_0
 10
152.70275819419959
 20
469.5230716327336
 30
0.0
 11
159.20275819419959
 21
469.5230716327336
 31
0.0
  0
LINE
  5
60B2
  8
AM_0
 10
159.20275819419959
 20
479.6563514613814
 30
0.0
 11
152.70275819419959
 21
479.6563514613814
 31
0.0
  0
LINE
  5
60B3
  8
AM_0
 10
159.20275819419959
 20
479.15635146138129
 30
0.0
 11
152.70275819419959
 21
479.15635146138129
 31
0.0
  0
ARC
  5
60B4
  8
AM_0
 10
158.90275819419961
 20
480.32307163273362
 30
0.0
 40
0.3000000000000043
 50
270.0
 51
0.0
  0
ARC
  5
60B5
  8
AM_0
 10
159.5027581941996
 20
480.72307163273371
 30
0.0
 40
0.2999999999999971
 50
90.0
 51
180.0
  0
ARC
  5
60B6
  8
AM_0
 10
160.82775819419959
 20
474.5230716327336
 30
0.0
 40
9.124999999999984
 50
152.92493329271929
 51
207.07506670728071
  0
LINE
  5
60B7
  8
AM_0
 10
152.20275819419959
 20
470.0230716327336
 30
0.0
 11
152.70275819419959
 21
470.36975970127452
 31
0.0
  0
LINE
  5
60B8
  8
AM_0
 10
152.70275819419959
 20
469.5230716327336
 30
0.0
 11
152.20275819419959
 21
470.0230716327336
 31
0.0
  0
LINE
  5
60B9
  8
AM_0
 10
149.06257379453501
 20
477.82291796634678
 30
0.0
 11
151.4246237297171
 21
479.79129291233102
 31
0.0
  0
LINE
  5
60BA
  8
AM_0
 10
152.70275819419959
 20
480.0230716327336
 30
0.0
 11
152.20275819419959
 21
479.4446390492264
 31
0.0
  0
ARC
  5
60BB
  8
AM_0
 10
152.0648081293815
 20
479.0230716327336
 30
0.0
 40
1.0000000000000411
 50
90.0
 51
129.805571092256
  0
LINE
  5
60BC
  8
AM_0
 10
152.20275819419959
 20
478.44463904922651
 30
0.0
 11
152.70275819419959
 21
478.67638356419252
 31
0.0
  0
LINE
  5
60BD
  8
AM_0
 10
152.70275819419959
 20
479.15635146138129
 30
0.0
 11
152.20275819419959
 21
478.44463904922651
 31
0.0
  0
LINE
  5
60BE
  8
AM_0
 10
152.20275819419959
 20
478.9823637762546
 30
0.0
 11
152.70275819419959
 21
479.15635146138129
 31
0.0
  0
LINE
  5
60BF
  8
AM_0
 10
152.70275819419959
 20
479.6563514613814
 30
0.0
 11
152.20275819419959
 21
478.9823637762546
 31
0.0
  0
LINE
  5
60C0
  8
AM_0
 10
152.20275819419959
 20
479.4446390492264
 30
0.0
 11
152.70275819419959
 21
479.6563514613814
 31
0.0
  0
ARC
  5
60C1
  8
AM_0
 10
149.70275819419959
 20
477.05469668674942
 30
0.0
 40
1.0
 50
129.80557109226311
 51
180.0
  0
LINE
  5
60C2
  8
AM_0
 10
274.10142929054558
 20
446.02307163273377
 30
0.0
 11
253.2869243910132
 21
446.02307163273377
 31
0.0
  0
LINE
  5
60C3
  8
AM_0
 10
198.91593419007799
 20
446.02307163273377
 30
0.0
 11
178.10142929054609
 21
446.02307163273377
 31
0.0
  0
LINE
  5
60C4
  8
AM_0
 10
267.96564762138462
 20
442.02307163273372
 30
0.0
 11
184.2372109597064
 21
442.02307163273372
 31
0.0
  0
LINE
  5
60C5
  8
AM_0
 10
187.0087842628526
 20
443.96413412060588
 30
0.0
 11
187.10142929054621
 21
445.02307163273377
 31
0.0
  0
LINE
  5
60C6
  8
AM_0
 10
179.19407431823959
 20
443.96413412060588
 30
0.0
 11
179.10142929054621
 21
445.02307163273377
 31
0.0
  0
ARC
  5
60C7
  8
AM_0
 10
183.10142929054621
 20
448.42307163273381
 30
0.0
 40
6.5
 50
241.82726586813479
 51
298.17273413186518
  0
ARC
  5
60C8
  8
AM_0
 10
180.7879858351865
 20
444.10358330900232
 30
0.0
 40
1.6000000000000001
 50
185.0
 51
241.82726586813479
  0
LINE
  5
60C9
  8
AM_0
 10
185.4014292905461
 20
442.34359797130548
 30
0.0
 11
183.10142929054621
 21
444.633157650101
 31
0.0
  0
LINE
  5
60CA
  8
AM_0
 10
183.4129292905462
 20
444.32307163273367
 30
0.0
 11
182.78992929054621
 21
444.32307163273367
 31
0.0
  0
LINE
  5
60CB
  8
AM_0
 10
180.8014292905462
 20
442.34359797130548
 30
0.0
 11
183.10142929054621
 21
444.633157650101
 31
0.0
  0
LINE
  5
60CC
  8
AM_0
 10
183.4129292905462
 20
441.93053994239921
 30
0.0
 11
183.4129292905462
 21
444.32307163273367
 31
0.0
  0
LINE
  5
60CD
  8
AM_0
 10
182.78992929054621
 20
441.93053994239921
 30
0.0
 11
182.78992929054621
 21
444.32307163273367
 31
0.0
  0
ARC
  5
60CE
  8
AM_0
 10
185.41487274590591
 20
444.10358330900232
 30
0.0
 40
1.6000000000000001
 50
298.17273413186518
 51
354.99999999999977
  0
LINE
  5
60CF
  8
AM_0
 10
274.1014292905457
 20
446.02307163273377
 30
0.0
 11
274.1014292905457
 21
450.02307163273377
 31
0.0
  0
LINE
  5
60D0
  8
AM_0
 10
178.1014292905453
 20
450.02307163273377
 30
0.0
 11
178.10142929054641
 21
446.02307163273377
 31
0.0
  0
LINE
  5
60D1
  8
AM_0N
 10
186.9014292905461
 20
446.02307163273377
 30
0.0
 11
186.9014292905461
 21
445.02307163273377
 31
0.0
  0
LINE
  5
60D2
  8
AM_0N
 10
183.3014292905462
 20
445.02307163273377
 30
0.0
 11
183.66539952481239
 21
446.02307163273377
 31
0.0
  0
LINE
  5
60D3
  8
AM_0N
 10
182.9014292905461
 20
445.02307163273377
 30
0.0
 11
183.2653995248123
 21
446.02307163273377
 31
0.0
  0
LINE
  5
60D4
  8
AM_0N
 10
179.10142929054621
 20
445.02307163273377
 30
0.0
 11
187.10142929054621
 21
445.02307163273377
 31
0.0
  0
LINE
  5
60D5
  8
AM_0N
 10
179.3014292905462
 20
445.02307163273377
 30
0.0
 11
179.3014292905462
 21
446.02307163273377
 31
0.0
  0
LINE
  5
60D6
  8
AM_0
 10
198.91593419007771
 20
442.02307163273372
 30
0.0
 11
198.91593419007771
 21
446.02307163273377
 31
0.0
  0
LINE
  5
60D7
  8
AM_0
 10
197.25907994058531
 20
446.02307163273377
 30
0.0
 11
198.91593419007771
 21
442.02307163273372
 31
0.0
  0
LINE
  5
60D8
  8
AM_0
 10
253.2869243910132
 20
442.02307163273372
 30
0.0
 11
253.2869243910132
 21
446.02307163273377
 31
0.0
  0
LINE
  5
60D9
  8
AM_0
 10
254.94377864050571
 20
446.02307163273377
 30
0.0
 11
253.2869243910132
 21
442.02307163273372
 31
0.0
  0
LINE
  5
60DA
  8
AM_0
 10
192.6014292905455
 20
491.02307163273377
 30
0.0
 11
259.60142929054558
 21
491.02307163273377
 31
0.0
  0
LINE
  5
60DB
  8
AM_0
 10
192.6014292905455
 20
491.02307163273377
 30
0.0
 11
192.6014292905455
 21
489.02307163273372
 31
0.0
  0
LINE
  5
60DC
  8
AM_0
 10
259.60142929054558
 20
491.02307163273377
 30
0.0
 11
259.60142929054558
 21
489.02307163273372
 31
0.0
  0
LINE
  5
60DD
  8
ﾁｭｳｼﾝｾﾝ1
 10
269.1014292905449
 20
439.75836413273367
 30
0.0
 11
269.1014292905449
 21
452.75836413273367
 31
0.0
  0
LINE
  5
60DE
  8
AM_0
 10
265.19407431823851
 20
443.96413412060588
 30
0.0
 11
265.10142929054501
 21
445.02307163273377
 31
0.0
  0
LINE
  5
60DF
  8
AM_0
 10
273.00878426285152
 20
443.96413412060588
 30
0.0
 11
273.1014292905449
 21
445.02307163273377
 31
0.0
  0
ARC
  5
60E0
  8
AM_0
 10
269.10142929054518
 20
448.42307163273381
 30
0.0
 40
6.5
 50
241.82726586813479
 51
298.17273413186518
  0
ARC
  5
60E1
  8
AM_0
 10
271.41487274590492
 20
444.10358330900209
 30
0.0
 40
1.6000000000000001
 50
298.17273413186518
 51
354.99999999999977
  0
LINE
  5
60E2
  8
AM_0
 10
266.801429290545
 20
442.34359797130548
 30
0.0
 11
269.10142929054501
 21
444.633157650101
 31
0.0
  0
LINE
  5
60E3
  8
AM_0
 10
268.78992929054499
 20
444.32307163273367
 30
0.0
 11
269.41292929054498
 21
444.32307163273367
 31
0.0
  0
LINE
  5
60E4
  8
AM_0
 10
271.40142929054502
 20
442.34359797130548
 30
0.0
 11
269.10142929054501
 21
444.633157650101
 31
0.0
  0
LINE
  5
60E5
  8
AM_0
 10
268.78992929054499
 20
441.93053994239921
 30
0.0
 11
268.78992929054499
 21
444.32307163273367
 31
0.0
  0
LINE
  5
60E6
  8
AM_0
 10
269.41292929054498
 20
441.93053994239921
 30
0.0
 11
269.41292929054498
 21
444.32307163273367
 31
0.0
  0
ARC
  5
60E7
  8
AM_0
 10
266.78798583518562
 20
444.10358330900209
 30
0.0
 40
1.6000000000000001
 50
185.0
 51
241.82726586813479
  0
LINE
  5
60E8
  8
AM_0N
 10
265.30142929054489
 20
446.02307163273377
 30
0.0
 11
265.30142929054489
 21
445.02307163273377
 31
0.0
  0
LINE
  5
60E9
  8
AM_0N
 10
268.90142929054502
 20
445.02307163273377
 30
0.0
 11
268.53745905627881
 21
446.02307163273377
 31
0.0
  0
LINE
  5
60EA
  8
AM_0N
 10
269.30142929054489
 20
445.02307163273377
 30
0.0
 11
268.93745905627878
 21
446.02307163273377
 31
0.0
  0
LINE
  5
60EB
  8
AM_0N
 10
273.10142929054501
 20
445.02307163273377
 30
0.0
 11
265.10142929054501
 21
445.02307163273377
 31
0.0
  0
LINE
  5
60EC
  8
AM_0N
 10
272.90142929054502
 20
445.02307163273377
 30
0.0
 11
272.90142929054502
 21
446.02307163273377
 31
0.0
  0
LINE
  5
60ED
  8
AM_0
 10
177.1014292905455
 20
453.0230716327336
 30
0.0
 11
177.1014292905455
 21
485.02307163273349
 31
0.0
  0
LINE
  5
60EE
  8
AM_0
 10
275.30717929054572
 20
601.95196163273386
 30
0.0
 11
271.16145929054579
 21
617.43307163273346
 31
0.0
  0
LINE
  5
60EF
  8
AM_0
 10
275.30714929054579
 20
601.04196163273389
 30
0.0
 11
271.1614292905457
 21
616.52307163273372
 31
0.0
  0
LINE
  5
60F0
  8
AM_0
 10
275.30714929054579
 20
599.19198163273381
 30
0.0
 11
271.1614292905457
 21
614.6731216327338
 31
0.0
  0
LINE
  5
60F1
  8
AM_0
 10
277.1014292905457
 20
613.02307163273372
 30
0.0
 11
277.1014292905457
 21
501.0230716327336
 31
0.0
  0
LINE
  5
60F2
  8
AM_0
 10
270.44145929054571
 20
593.0230716327336
 30
0.0
 11
171.46141929054579
 21
593.0230716327336
 31
0.0
  0
LINE
  5
60F3
  8
AM_0
 10
270.44145929054571
 20
591.02307163273372
 30
0.0
 11
171.46141929054579
 21
591.02307163273372
 31
0.0
  0
LINE
  5
60F4
  8
AM_0
 10
238.10142929054589
 20
583.02307163273372
 30
0.0
 11
171.46141929054579
 21
583.02307163273372
 31
0.0
  0
LINE
  5
60F5
  8
AM_0
 10
270.43425929054592
 20
581.02307163273372
 30
0.0
 11
171.46141929054579
 21
581.02307163273372
 31
0.0
  0
LINE
  5
60F6
  8
AM_0
 10
205.5401492905458
 20
573.02307163273372
 30
0.0
 11
171.46141929054579
 21
573.02307163273372
 31
0.0
  0
LINE
  5
60F7
  8
AM_0
 10
205.5401492905458
 20
571.02307163273372
 30
0.0
 11
171.46141929054579
 21
571.02307163273372
 31
0.0
  0
LINE
  5
60F8
  8
AM_0
 10
205.5401492905458
 20
563.02307163273372
 30
0.0
 11
171.46141929054579
 21
563.02307163273372
 31
0.0
  0
LINE
  5
60F9
  8
AM_0
 10
205.5401492905458
 20
561.02307163273372
 30
0.0
 11
171.46141929054579
 21
561.02307163273372
 31
0.0
  0
LINE
  5
60FA
  8
AM_0
 10
170.7814192905459
 20
593.74304163273359
 30
0.0
 11
273.92143929054572
 21
593.74304163273359
 31
0.0
  0
LINE
  5
60FB
  8
AM_0
 10
170.7814192905459
 20
590.39306163273375
 30
0.0
 11
238.12144929054591
 21
590.39306163273375
 31
0.0
  0
LINE
  5
60FC
  8
AM_0
 10
170.56144929054571
 20
583.51306163273375
 30
0.0
 11
238.10142929054589
 21
583.51306163273375
 31
0.0
  0
LINE
  5
60FD
  8
AM_0
 10
170.56144929054571
 20
580.58312163273365
 30
0.0
 11
274.13566929054582
 21
580.58312163273365
 31
0.0
  0
LINE
  5
60FE
  8
AM_0
 10
170.43144929054569
 20
573.36303163273385
 30
0.0
 11
206.76011929054579
 21
573.36303163273385
 31
0.0
  0
LINE
  5
60FF
  8
AM_0
 10
170.43144929054569
 20
570.70312163273377
 30
0.0
 11
206.76011929054579
 21
570.70312163273377
 31
0.0
  0
LINE
  5
6100
  8
AM_0
 10
170.37144929054571
 20
563.29309163273365
 30
0.0
 11
206.82011929054579
 21
563.29309163273365
 31
0.0
  0
LINE
  5
6101
  8
AM_0
 10
170.37144929054571
 20
560.76306163273375
 30
0.0
 11
206.82011929054579
 21
560.76306163273375
 31
0.0
  0
LINE
  5
6102
  8
AM_0
 10
170.37144929054571
 20
553.29309163273365
 30
0.0
 11
206.82011929054579
 21
553.29309163273365
 31
0.0
  0
LINE
  5
6103
  8
AM_0
 10
205.5401492905458
 20
553.02307163273372
 30
0.0
 11
171.46141929054579
 21
553.02307163273372
 31
0.0
  0
LINE
  5
6104
  8
AM_0
 10
205.5401492905458
 20
551.0230716327336
 30
0.0
 11
171.46141929054579
 21
551.0230716327336
 31
0.0
  0
LINE
  5
6105
  8
AM_0
 10
170.37144929054571
 20
550.75305163273379
 30
0.0
 11
206.82011929054579
 21
550.75305163273379
 31
0.0
  0
LINE
  5
6106
  8
AM_0
 10
170.43144929054569
 20
543.34301163273392
 30
0.0
 11
206.76011929054579
 21
543.34301163273392
 31
0.0
  0
LINE
  5
6107
  8
AM_0
 10
205.5401492905458
 20
543.0230716327336
 30
0.0
 11
171.46141929054579
 21
543.0230716327336
 31
0.0
  0
LINE
  5
6108
  8
AM_0
 10
205.5401492905458
 20
541.02307163273372
 30
0.0
 11
171.46141929054579
 21
541.02307163273372
 31
0.0
  0
LINE
  5
6109
  8
AM_0
 10
170.43144929054569
 20
540.68310163273372
 30
0.0
 11
206.77269929054569
 21
540.68310163273372
 31
0.0
  0
LINE
  5
610A
  8
AM_0
 10
270.43425929054592
 20
533.02307163273372
 30
0.0
 11
171.46141929054579
 21
533.02307163273372
 31
0.0
  0
LINE
  5
610B
  8
AM_0
 10
170.56144929054571
 20
533.46301163273392
 30
0.0
 11
274.13566929054582
 21
533.46301163273392
 31
0.0
  0
LINE
  5
610C
  8
AM_0
 10
238.10142929054589
 20
531.02307163273372
 30
0.0
 11
171.46141929054579
 21
531.02307163273372
 31
0.0
  0
LINE
  5
610D
  8
AM_0
 10
170.56144929054571
 20
530.53308163273391
 30
0.0
 11
238.10142929054589
 21
530.53308163273391
 31
0.0
  0
LINE
  5
610E
  8
AM_0
 10
270.44145929054571
 20
523.02307163273372
 30
0.0
 11
226.1014292905457
 21
523.02307163273372
 31
0.0
  0
LINE
  5
610F
  8
AM_0
 10
270.44145929054571
 20
521.02307163273372
 30
0.0
 11
226.1014292905457
 21
521.02307163273372
 31
0.0
  0
LINE
  5
6110
  8
AM_0
 10
170.7814192905459
 20
520.30310163273361
 30
0.0
 11
226.1014292905457
 21
520.30310163273361
 31
0.0
  0
LINE
  5
6111
  8
AM_0
 10
273.92143929054572
 20
523.65307163273371
 30
0.0
 11
256.08146929054573
 21
523.65307163273371
 31
0.0
  0
LINE
  5
6112
  8
AM_0
 10
170.7814192905459
 20
523.65307163273371
 30
0.0
 11
238.12144929054591
 21
523.65307163273371
 31
0.0
  0
LINE
  5
6113
  8
AM_0
 10
226.1014292905457
 20
523.02307163273372
 30
0.0
 11
171.46141929054579
 21
523.02307163273372
 31
0.0
  0
LINE
  5
6114
  8
AM_0
 10
226.1014292905457
 20
521.02307163273372
 30
0.0
 11
171.46141929054579
 21
521.02307163273372
 31
0.0
  0
LINE
  5
6115
  8
AM_0
 10
226.1014292905457
 20
520.30310163273361
 30
0.0
 11
273.92143929054572
 21
520.30310163273361
 31
0.0
  0
LINE
  5
6116
  8
AM_0
 10
169.1014292905457
 20
610.02307163273372
 30
0.0
 11
169.1014292905457
 21
504.02307163273377
 31
0.0
  0
LINE
  5
6117
  8
AM_0
 10
277.1014292905457
 20
603.02307163273372
 30
0.0
 11
285.1014292905457
 21
603.02307163273372
 31
0.0
  0
LINE
  5
6118
  8
AM_0
 10
277.1014292905457
 20
588.96301163273381
 30
0.0
 11
285.1014292905457
 21
588.96301163273381
 31
0.0
  0
LINE
  5
6119
  8
AM_0
 10
277.1014292905457
 20
613.02307163273372
 30
0.0
 11
285.1014292905457
 21
613.02307163273372
 31
0.0
  0
LINE
  5
611A
  8
AM_0
 10
172.31144929054571
 20
613.30310163273396
 30
0.0
 11
269.23143929054572
 21
613.30310163273396
 31
0.0
  0
LINE
  5
611B
  8
AM_0
 10
169.1014292905457
 20
605.12313163273382
 30
0.0
 11
170.34141929054579
 21
611.68313163273376
 31
0.0
  0
LINE
  5
611C
  8
AM_0
 10
174.4614792905457
 20
593.67309163273364
 30
0.0
 11
169.10148929054569
 21
605.12307163273374
 31
0.0
  0
LINE
  5
611D
  8
AM_0
 10
174.46141929054579
 20
520.37304163273382
 30
0.0
 11
169.10148929054569
 21
508.93313163273382
 31
0.0
  0
LINE
  5
611E
  8
AM_0
 10
172.3514292905457
 20
616.1530716327336
 30
0.0
 11
269.23143929054572
 21
616.1530716327336
 31
0.0
  0
LINE
  5
611F
  8
AM_0
 10
172.37144929054571
 20
618.00305163273367
 30
0.0
 11
269.23143929054572
 21
618.00305163273367
 31
0.0
  0
LINE
  5
6120
  8
AM_0
 10
172.3914692905457
 20
618.91308163273368
 30
0.0
 11
269.2314992905458
 21
618.91308163273368
 31
0.0
  0
LINE
  5
6121
  8
AM_0
 10
169.10148929054569
 20
606.46310163273381
 30
0.0
 11
170.38145929054571
 21
614.47305163273381
 31
0.0
  0
LINE
  5
6122
  8
AM_0
 10
169.10148929054569
 20
607.81304163273364
 30
0.0
 11
170.39146929054581
 21
616.30313163273365
 31
0.0
  0
LINE
  5
6123
  8
AM_0
 10
169.1014292905457
 20
607.81307163273345
 30
0.0
 11
170.4114292905457
 21
617.19311163273358
 31
0.0
  0
LINE
  5
6124
  8
AM_0
 10
275.30149929054591
 20
596.36303163273385
 30
0.0
 11
271.16148929054572
 21
611.82305163273361
 31
0.0
  0
LINE
  5
6125
  8
AM_0
 10
271.64146929054579
 20
610.02307163273372
 30
0.0
 11
277.1014292905457
 21
610.02307163273372
 31
0.0
  0
LINE
  5
6126
  8
AM_0
 10
277.1014292905457
 20
511.02307163273349
 30
0.0
 11
285.1014292905457
 21
511.02307163273349
 31
0.0
  0
LINE
  5
6127
  8
AM_0
 10
277.1014292905457
 20
501.0230716327336
 30
0.0
 11
285.1014292905457
 21
501.0230716327336
 31
0.0
  0
LINE
  5
6128
  8
AM_0
 10
172.31144929054571
 20
500.74304163273371
 30
0.0
 11
269.23143929054572
 21
500.74304163273371
 31
0.0
  0
LINE
  5
6129
  8
AM_0
 10
169.1014292905457
 20
508.9330416327337
 30
0.0
 11
170.34147929054569
 21
502.3730416327337
 31
0.0
  0
LINE
  5
612A
  8
AM_0
 10
172.0076792905457
 20
497.8930616327338
 30
0.0
 11
194.49955929054559
 21
497.8930616327338
 31
0.0
  0
LINE
  5
612B
  8
AM_0
 10
169.1014292905457
 20
507.58303163273371
 30
0.0
 11
170.38145929054571
 21
499.58312163273382
 31
0.0
  0
LINE
  5
612C
  8
AM_0
 10
169.1014292905457
 20
506.24313163273359
 30
0.0
 11
170.11070929054571
 21
499.59295163273362
 31
0.0
  0
LINE
  5
612D
  8
AM_0
 10
169.10148929054569
 20
506.24310163273373
 30
0.0
 11
170.02690929054569
 21
499.6165116327337
 31
0.0
  0
LINE
  5
612E
  8
AM_0
 10
275.30714929054579
 20
517.70422163273372
 30
0.0
 11
271.1614292905457
 21
502.22308163273368
 31
0.0
  0
LINE
  5
612F
  8
AM_0
 10
271.64347929054571
 20
504.02307163273377
 30
0.0
 11
277.1014292905457
 21
504.02307163273377
 31
0.0
  0
LINE
  5
6130
  8
AM_0
 10
277.1014292905457
 20
525.08312163273376
 30
0.0
 11
285.1014292905457
 21
525.08312163273376
 31
0.0
  0
LINE
  5
6131
  8
AM_0
 10
276.1014292905457
 20
504.02307163273377
 30
0.0
 11
270.37568929054561
 21
495.2061716327338
 31
0.0
  0
LINE
  5
6132
  8
AM_0
 10
257.61503929054578
 20
494.5230716327336
 30
0.0
 11
269.11766929054579
 21
494.5230716327336
 31
0.0
  0
LINE
  5
6133
  8
AM_0
 10
255.0814692905457
 20
584.5230716327336
 30
0.0
 11
255.0814692905457
 21
589.38305163273355
 31
0.0
  0
LINE
  5
6134
  8
AM_0
 10
239.12144929054571
 20
584.5230716327336
 30
0.0
 11
239.12144929054571
 21
589.38305163273355
 31
0.0
  0
LINE
  5
6135
  8
AM_0
 10
254.60142929054581
 20
584.5230716327336
 30
0.0
 11
254.60142929054581
 21
589.52307163273372
 31
0.0
  0
LINE
  5
6136
  8
AM_0
 10
239.6014292905457
 20
584.5230716327336
 30
0.0
 11
239.6014292905457
 21
589.52307163273372
 31
0.0
  0
LINE
  5
6137
  8
AM_0
 10
211.10142929054581
 20
570.02307163273372
 30
0.0
 11
274.1014292905457
 21
570.02307163273372
 31
0.0
  0
LINE
  5
6138
  8
AM_0
 10
211.10142929054581
 20
536.52307163273372
 30
0.0
 11
274.1014292905457
 21
536.52307163273372
 31
0.0
  0
LINE
  5
6139
  8
AM_0
 10
211.10142929054581
 20
577.52307163273372
 30
0.0
 11
274.1014292905457
 21
577.52307163273372
 31
0.0
  0
LINE
  5
613A
  8
AM_0
 10
274.1014292905457
 20
577.52307163273372
 30
0.0
 11
274.1014292905457
 21
536.52307163273372
 31
0.0
  0
LINE
  5
613B
  8
AM_0
 10
211.10142929054581
 20
577.52307163273372
 30
0.0
 11
211.10142929054581
 21
536.52307163273372
 31
0.0
  0
LINE
  5
613C
  8
AM_0
 10
256.1014292905457
 20
583.51306163273375
 30
0.0
 11
274.14714929054571
 21
583.51306163273375
 31
0.0
  0
LINE
  5
613D
  8
AM_0
 10
256.1014292905457
 20
530.54309163273365
 30
0.0
 11
274.13566929054582
 21
530.54309163273365
 31
0.0
  0
LINE
  5
613E
  8
AM_0
 10
255.0814692905457
 20
529.52307163273372
 30
0.0
 11
255.0814692905457
 21
524.66308163273357
 31
0.0
  0
LINE
  5
613F
  8
AM_0
 10
239.12144929054571
 20
529.52307163273372
 30
0.0
 11
239.12144929054571
 21
524.66308163273357
 31
0.0
  0
LINE
  5
6140
  8
AM_0
 10
254.60142929054581
 20
529.52307163273372
 30
0.0
 11
254.60142929054581
 21
524.52307163273372
 31
0.0
  0
LINE
  5
6141
  8
AM_0
 10
239.6014292905457
 20
529.52307163273372
 30
0.0
 11
239.6014292905457
 21
524.52307163273372
 31
0.0
  0
LINE
  5
6142
  8
AM_0
 10
270.43425929054592
 20
531.02307163273372
 30
0.0
 11
256.1014292905457
 21
531.02307163273372
 31
0.0
  0
LINE
  5
6143
  8
AM_0
 10
270.44859929054599
 20
583.02307163273372
 30
0.0
 11
256.1014292905457
 21
583.02307163273372
 31
0.0
  0
LINE
  5
6144
  8
AM_0
 10
256.08146929054573
 20
590.38305163273378
 30
0.0
 11
273.92143929054572
 21
590.38305163273378
 31
0.0
  0
ARC
  5
6145
  8
AM_0
 10
276.75462929054572
 20
602.35583163273373
 30
0.0
 40
1.502775999999999
 50
194.75642999999889
 51
269.87757999999872
  0
ARC
  5
6146
  8
AM_0
 10
276.75462929054572
 20
601.44580163273372
 30
0.0
 40
1.502775999999999
 50
194.75642999999889
 51
269.87757999999872
  0
ARC
  5
6147
  8
AM_0
 10
276.75462929054572
 20
599.59582163273387
 30
0.0
 40
1.502775999999999
 50
194.75642999999889
 51
269.87757999999872
  0
ARC
  5
6148
  8
AM_0
 10
269.22660929054592
 20
616.90832163273365
 30
0.0
 40
2.0047290000000002
 50
15.173495999996319
 51
89.861678000000197
  0
ARC
  5
6149
  8
AM_0
 10
269.22660929054592
 20
615.99829163273364
 30
0.0
 40
2.0047290000000002
 50
15.173495999996319
 51
89.861678000000197
  0
ARC
  5
614A
  8
AM_0
 10
269.22660929054592
 20
614.14831163273379
 30
0.0
 40
2.0047290000000002
 50
15.173495999996319
 51
89.861678000000197
  0
ARC
  5
614B
  8
AM_0
 10
276.75462929054572
 20
517.30029163273355
 30
0.0
 40
1.502775999999999
 50
90.122413000001615
 51
165.24357000000111
  0
ARC
  5
614C
  8
AM_0
 10
171.6460492905457
 20
522.0230716327336
 30
0.0
 40
1.000013899999999
 50
89.691659999999231
 51
270.30834000000078
  0
ARC
  5
614D
  8
AM_0
 10
273.92143929054572
 20
592.06811163273358
 30
0.0
 40
1.6750020000000001
 50
269.999989999999
 51
90.00000299999769
  0
ARC
  5
614E
  8
AM_0
 10
270.44145929054571
 20
592.0230716327336
 30
0.0
 40
1.0
 50
269.999989999999
 51
90.00000299999769
  0
ARC
  5
614F
  8
AM_0
 10
270.44145929054571
 20
522.0230716327336
 30
0.0
 40
1.0
 50
269.999989999999
 51
90.00000299999769
  0
ARC
  5
6150
  8
AM_0
 10
273.92143929054572
 20
521.97802163273354
 30
0.0
 40
1.6750020000000001
 50
269.999989999999
 51
90.00000299999769
  0
ARC
  5
6151
  8
AM_0
 10
170.77403929054589
 20
592.06811163273358
 30
0.0
 40
1.6750160000000001
 50
89.746145000004447
 51
270.25387000000092
  0
ARC
  5
6152
  8
AM_0
 10
171.6460492905457
 20
592.0230716327336
 30
0.0
 40
1.000013899999999
 50
89.691659999999231
 51
270.30834000000078
  0
ARC
  5
6153
  8
AM_0
 10
171.6460492905457
 20
582.02307163273372
 30
0.0
 40
1.000013899999999
 50
89.691659999999231
 51
270.30834000000078
  0
ARC
  5
6154
  8
AM_0
 10
171.6460492905457
 20
572.0230716327336
 30
0.0
 40
1.000013899999999
 50
89.691659999999231
 51
270.30834000000078
  0
ARC
  5
6155
  8
AM_0
 10
171.6460492905457
 20
562.02307163273372
 30
0.0
 40
1.000013899999999
 50
89.691659999999231
 51
270.30834000000078
  0
ARC
  5
6156
  8
AM_0
 10
171.6460492905457
 20
552.02307163273372
 30
0.0
 40
1.000013899999999
 50
89.691659999999231
 51
270.30834000000078
  0
ARC
  5
6157
  8
AM_0
 10
171.6460492905457
 20
542.02307163273372
 30
0.0
 40
1.000013899999999
 50
89.691659999999231
 51
270.30834000000078
  0
ARC
  5
6158
  8
AM_0
 10
171.6460492905457
 20
532.02307163273372
 30
0.0
 40
1.000013899999999
 50
89.691659999999231
 51
270.30834000000078
  0
ARC
  5
6159
  8
AM_0
 10
170.56144929054571
 20
582.04809163273364
 30
0.0
 40
1.465004
 50
90.00000299999769
 51
270.0
  0
ARC
  5
615A
  8
AM_0
 10
170.43144929054569
 20
572.03308163273357
 30
0.0
 40
1.3300049999999981
 50
90.00000299999769
 51
270.0
  0
ARC
  5
615B
  8
AM_0
 10
170.3655892905457
 20
562.02807163273371
 30
0.0
 40
1.2650129999999991
 50
89.735579000001735
 51
270.2644100000025
  0
ARC
  5
615C
  8
AM_0
 10
170.3655892905457
 20
552.02307163273372
 30
0.0
 40
1.2700129999999981
 50
89.736617000001587
 51
270.26336999999921
  0
ARC
  5
615D
  8
AM_0
 10
170.43144929054569
 20
542.01306163273375
 30
0.0
 40
1.3300049999999981
 50
90.00000299999769
 51
270.0
  0
ARC
  5
615E
  8
AM_0
 10
170.56144929054571
 20
531.9980416327337
 30
0.0
 40
1.465004
 50
90.00000299999769
 51
270.0
  0
ARC
  5
615F
  8
AM_0
 10
170.77458929054569
 20
521.97802163273354
 30
0.0
 40
1.675014
 50
89.766498999996756
 51
270.2335099999994
  0
ARC
  5
6160
  8
AM_0
 10
172.30015929054571
 20
611.30895163273385
 30
0.0
 40
1.994108999999999
 50
89.675548000002749
 51
169.18776999999841
  0
ARC
  5
6161
  8
AM_0
 10
172.35167929054569
 20
614.15783163273375
 30
0.0
 40
1.995282999999997
 50
90.006203999996856
 51
170.90835000000069
  0
ARC
  5
6162
  8
AM_0
 10
172.36601929054569
 20
616.00634163273378
 30
0.0
 40
1.9967330000000001
 50
89.843966999998912
 51
171.45387999999701
  0
ARC
  5
6163
  8
AM_0
 10
172.38792929054571
 20
616.91747163273374
 30
0.0
 40
1.995633
 50
89.899707999995783
 51
172.06112999999991
  0
ARC
  5
6164
  8
AM_0
 10
269.2315592905457
 20
611.30480163273376
 30
0.0
 40
1.9982919999999991
 50
15.032547999996
 51
90.002632000001341
  0
ARC
  5
6165
  8
AM_0
 10
276.75462929054572
 20
596.74584163273346
 30
0.0
 40
1.502775999999999
 50
194.75642999999889
 51
269.87757999999872
  0
ARC
  5
6166
  8
AM_0
 10
269.22660929054592
 20
502.74780163273368
 30
0.0
 40
2.0047290000000002
 50
270.13832000000423
 51
344.82650000000189
  0
ARC
  5
6167
  8
AM_0
 10
172.3063292905457
 20
502.7423016327337
 30
0.0
 40
1.9992490000000001
 50
190.643100000001
 51
270.14743000000129
  0
ARC
  5
6168
  8
AM_0
 10
172.3576592905458
 20
499.89343163273361
 30
0.0
 40
2.000420099999999
 50
188.92682000000181
 51
269.82270999999599
  0
ARC
  5
6169
  8
AM_0
 10
257.61503929054578
 20
493.0230716327336
 30
0.0
 40
1.5
 50
90.00000299999769
 51
178.50000000000389
  0
ARC
  5
616A
  8
AM_0
 10
269.11766929054579
 20
496.02307163273372
 30
0.0
 40
1.5
 50
269.999989999999
 51
326.99999999999892
  0
ARC
  5
616B
  8
AM_0
 10
172.08805929054569
 20
499.89306163273392
 30
0.0
 40
2.0
 50
188.62962000000439
 51
269.999989999999
  0
ARC
  5
616C
  8
AM_0
 10
172.0076792905457
 20
499.89306163273392
 30
0.0
 40
2.0
 50
187.9504400000034
 51
269.999989999999
  0
ARC
  5
616D
  8
AM_0
 10
194.49955929054559
 20
496.3930616327338
 30
0.0
 40
1.5
 50
1.5000027000022329
 51
90.00000299999769
  0
ARC
  5
616E
  8
AM_0
 10
205.5401492905458
 20
572.0230716327336
 30
0.0
 40
1.0000056999999991
 50
269.999989999999
 51
90.00000299999769
  0
ARC
  5
616F
  8
AM_0
 10
205.5401492905458
 20
562.02307163273372
 30
0.0
 40
1.0000056999999991
 50
269.999989999999
 51
90.00000299999769
  0
ARC
  5
6170
  8
AM_0
 10
205.5401492905458
 20
552.02307163273372
 30
0.0
 40
1.0000056999999991
 50
269.999989999999
 51
90.00000299999769
  0
ARC
  5
6171
  8
AM_0
 10
205.5401492905458
 20
542.02307163273372
 30
0.0
 40
1.0000056999999991
 50
269.999989999999
 51
90.00000299999769
  0
ARC
  5
6172
  8
AM_0
 10
256.1014292905457
 20
524.52307163273372
 30
0.0
 40
1.5
 50
179.999989999999
 51
270.0
  0
ARC
  5
6173
  8
AM_0
 10
238.10142929054589
 20
524.52307163273372
 30
0.0
 40
1.5
 50
269.999989999999
 51
0.0000006832495047
  0
ARC
  5
6174
  8
AM_0
 10
238.12144929054591
 20
524.66308163273357
 30
0.0
 40
1.0
 50
269.999989999999
 51
0.0000006832495047
  0
ARC
  5
6175
  8
AM_0
 10
256.08146929054573
 20
524.66308163273357
 30
0.0
 40
1.0
 50
179.999989999999
 51
270.0
  0
CIRCLE
  5
6176
  8
AM_0
 10
244.6014292905457
 20
585.52307163273372
 30
0.0
 40
1.1000000000000001
  0
CIRCLE
  5
6177
  8
AM_0
 10
244.6014292905457
 20
585.52307163273372
 30
0.0
 40
1.149999999999999
  0
CIRCLE
  5
6178
  8
AM_0
 10
249.6014292905457
 20
585.52307163273372
 30
0.0
 40
1.0
  0
ARC
  5
6179
  8
AM_0
 10
238.10142929054589
 20
584.5230716327336
 30
0.0
 40
1.02
 50
269.999989999999
 51
0.0000006832429909
  0
ARC
  5
617A
  8
AM_0
 10
256.1014292905457
 20
584.5230716327336
 30
0.0
 40
1.02
 50
179.999989999999
 51
270.0
  0
ARC
  5
617B
  8
AM_0
 10
238.10142929054589
 20
584.5230716327336
 30
0.0
 40
1.5
 50
269.999989999999
 51
0.0000006832495047
  0
ARC
  5
617C
  8
AM_0
 10
256.1014292905457
 20
584.5230716327336
 30
0.0
 40
1.5
 50
179.999989999999
 51
270.0
  0
CIRCLE
  5
617D
  8
AM_0
 10
249.6014292905457
 20
528.52307163273372
 30
0.0
 40
1.0
  0
CIRCLE
  5
617E
  8
AM_0
 10
244.6014292905457
 20
528.52307163273372
 30
0.0
 40
1.149999999999999
  0
CIRCLE
  5
617F
  8
AM_0
 10
244.6014292905457
 20
528.52307163273372
 30
0.0
 40
1.1000000000000001
  0
ARC
  5
6180
  8
AM_0
 10
238.10142929054589
 20
529.52307163273372
 30
0.0
 40
1.02
 50
0.0
 51
90.00000299999769
  0
ARC
  5
6181
  8
AM_0
 10
256.1014292905457
 20
529.52307163273372
 30
0.0
 40
1.02
 50
90.00000299999769
 51
180.00001000000091
  0
ARC
  5
6182
  8
AM_0
 10
238.10142929054589
 20
529.52307163273372
 30
0.0
 40
1.5
 50
0.0
 51
90.00000299999769
  0
ARC
  5
6183
  8
AM_0
 10
256.1014292905457
 20
529.52307163273372
 30
0.0
 40
1.5
 50
90.00000299999769
 51
180.00001000000091
  0
ARC
  5
6184
  8
AM_0
 10
206.76640929054579
 20
542.01306163273375
 30
0.0
 40
1.3300148000000001
 50
269.7294199999987
 51
90.270567000000995
  0
ARC
  5
6185
  8
AM_0
 10
206.82835929054571
 20
552.02307163273372
 30
0.0
 40
1.2700266
 50
269.62932000000001
 51
90.370669999998185
  0
ARC
  5
6186
  8
AM_0
 10
206.82835929054571
 20
562.0330816327338
 30
0.0
 40
1.2700266
 50
269.62932000000001
 51
90.370669999998185
  0
ARC
  5
6187
  8
AM_0
 10
206.76640929054579
 20
572.03808163273368
 30
0.0
 40
1.3350147999999991
 50
269.7304299999999
 51
90.269556000001344
  0
ARC
  5
6188
  8
AM_0
 10
270.4413992905458
 20
582.02307163273372
 30
0.0
 40
1.0000255999999981
 50
269.5894700000033
 51
90.410530999997775
  0
ARC
  5
6189
  8
AM_0
 10
274.14140929054571
 20
582.05310163273373
 30
0.0
 40
1.460011199999999
 50
269.77524999999667
 51
90.224750000003354
  0
ARC
  5
618A
  8
AM_0
 10
270.4413992905458
 20
532.02307163273372
 30
0.0
 40
1.0000255999999981
 50
269.5894700000033
 51
90.410530999997775
  0
ARC
  5
618B
  8
AM_0
 10
274.14140929054571
 20
531.99304163273382
 30
0.0
 40
1.460011199999999
 50
269.77524999999667
 51
90.224750000003354
  0
ARC
  5
618C
  8
AM_0
 10
256.08146929054573
 20
589.38305163273355
 30
0.0
 40
1.0
 50
90.00000299999769
 51
180.00001000000091
  0
ARC
  5
618D
  8
AM_0
 10
256.1014292905457
 20
589.52307163273372
 30
0.0
 40
1.5
 50
90.00000299999769
 51
180.00001000000091
  0
ARC
  5
618E
  8
AM_0
 10
238.10142929054589
 20
589.52307163273372
 30
0.0
 40
1.5
 50
0.0
 51
90.00000299999769
  0
ARC
  5
618F
  8
AM_0
 10
238.12144929054591
 20
589.38305163273355
 30
0.0
 40
1.0
 50
0.0
 51
90.00000299999769
  0
POLYLINE
  5
6190
  8
AM_0
 66
     1
 10
0.0
 20
0.0
 30
0.0
  0
VERTEX
  5
6191
  8
AM_0
 10
171.46141929054579
 20
557.02307163273372
 30
0.0
 42
0.00039106593
  0
VERTEX
  5
6192
  8
AM_0
 10
171.4590592905457
 20
556.71193163273381
 30
0.0
 42
0.00040574899
  0
VERTEX
  5
6193
  8
AM_0
 10
171.45718929054561
 20
556.4008216327336
 30
0.0
 42
0.0003534546
  0
VERTEX
  5
6194
  8
AM_0
 10
171.45579929054571
 20
556.08972163273381
 30
0.0
 42
0.00034407327
  0
VERTEX
  5
6195
  8
AM_0
 10
171.45481929054569
 20
555.77858163273379
 30
0.0
 42
0.00045699408
  0
VERTEX
  5
6196
  8
AM_0
 10
171.45435929054571
 20
555.46747163273392
 30
0.0
 42
0.00035571853
  0
VERTEX
  5
6197
  8
AM_0
 10
171.45439929054581
 20
555.15637163273357
 30
0.0
 42
0.00038547362
  0
VERTEX
  5
6198
  8
AM_0
 10
171.45488929054571
 20
554.84523163273354
 30
0.0
 42
0.00035501498
  0
VERTEX
  5
6199
  8
AM_0
 10
171.4558492905457
 20
554.53413163273365
 30
0.0
 42
0.00040118614
  0
VERTEX
  5
619A
  8
AM_0
 10
171.4572692905457
 20
554.22289163273376
 30
0.0
 42
0.00038319871
  0
VERTEX
  5
619B
  8
AM_0
 10
171.45917929054571
 20
553.91176163273371
 30
0.0
 42
0.00040742136
  0
VERTEX
  5
619C
  8
AM_0
 10
171.4615792905459
 20
553.60053163273369
 30
0.0
 42
0.0003578071
  0
VERTEX
  5
619D
  8
AM_0
 10
171.46446929054571
 20
553.28942163273371
 30
0.0
  0
SEQEND
  5
619E
  8
AM_0
  0
POLYLINE
  5
619F
  8
AM_0
 66
     1
 10
0.0
 20
0.0
 30
0.0
  0
VERTEX
  5
61A0
  8
AM_0
 10
171.50547929054571
 20
550.75268163273392
 30
0.0
 42
0.00076695232
  0
VERTEX
  5
61A1
  8
AM_0
 10
171.5202792905456
 20
550.13492163273372
 30
0.0
 42
0.00073263044
  0
VERTEX
  5
61A2
  8
AM_0
 10
171.53691929054591
 20
549.51732163273357
 30
0.0
 42
0.0007652599
  0
VERTEX
  5
61A3
  8
AM_0
 10
171.5554092905457
 20
548.89965163273371
 30
0.0
 42
0.00075144485
  0
VERTEX
  5
61A4
  8
AM_0
 10
171.57577929054591
 20
548.28205163273356
 30
0.0
 42
0.00078594403
  0
VERTEX
  5
61A5
  8
AM_0
 10
171.5980292905457
 20
547.66462163273366
 30
0.0
 42
0.00073349202
  0
VERTEX
  5
61A6
  8
AM_0
 10
171.6221792905456
 20
547.04724163273363
 30
0.0
 42
0.0007358075
  0
VERTEX
  5
61A7
  8
AM_0
 10
171.64811929054571
 20
546.42984163273366
 30
0.0
 42
0.00078592699
  0
VERTEX
  5
61A8
  8
AM_0
 10
171.6759492905457
 20
545.81245163273366
 30
0.0
 42
0.00074823144
  0
VERTEX
  5
61A9
  8
AM_0
 10
171.7056792905457
 20
545.19506163273365
 30
0.0
 42
0.00074896603
  0
VERTEX
  5
61AA
  8
AM_0
 10
171.73723929054569
 20
544.57793163273379
 30
0.0
 42
0.00076039765
  0
VERTEX
  5
61AB
  8
AM_0
 10
171.77065929054589
 20
543.96090163273357
 30
0.0
 42
0.00075616128
  0
VERTEX
  5
61AC
  8
AM_0
 10
171.8059592905457
 20
543.34387163273357
 30
0.0
  0
SEQEND
  5
61AD
  8
AM_0
  0
POLYLINE
  5
61AE
  8
AM_0
 66
     1
 10
0.0
 20
0.0
 30
0.0
  0
VERTEX
  5
61AF
  8
AM_0
 10
171.9796692905457
 20
540.68249163273356
 30
0.0
 42
0.00073721992
  0
VERTEX
  5
61B0
  8
AM_0
 10
172.0238192905457
 20
540.08008163273371
 30
0.0
 42
0.00074398496
  0
VERTEX
  5
61B1
  8
AM_0
 10
172.0697492905457
 20
539.47781163273373
 30
0.0
 42
0.00073322625
  0
VERTEX
  5
61B2
  8
AM_0
 10
172.1174792905457
 20
538.87548163273357
 30
0.0
 42
0.00073594289
  0
VERTEX
  5
61B3
  8
AM_0
 10
172.16695929054569
 20
538.27349163273391
 30
0.0
 42
0.00074742568
  0
VERTEX
  5
61B4
  8
AM_0
 10
172.21822929054579
 20
537.67163163273392
 30
0.0
 42
0.00073216749
  0
VERTEX
  5
61B5
  8
AM_0
 10
172.27128929054581
 20
537.06982163273381
 30
0.0
 42
0.00074184065
  0
VERTEX
  5
61B6
  8
AM_0
 10
172.3261092905457
 20
536.46829163273367
 30
0.0
 42
0.00072077528
  0
VERTEX
  5
61B7
  8
AM_0
 10
172.3826892905459
 20
535.86706163273391
 30
0.0
 42
0.00074978179
  0
VERTEX
  5
61B8
  8
AM_0
 10
172.44102929054549
 20
535.26586163273373
 30
0.0
 42
0.00074288888
  0
VERTEX
  5
61B9
  8
AM_0
 10
172.50117929054571
 20
534.66484163273367
 30
0.0
 42
0.00072503679
  0
VERTEX
  5
61BA
  8
AM_0
 10
172.56308929054569
 20
534.06410163273347
 30
0.0
 42
0.00074640584
  0
VERTEX
  5
61BB
  8
AM_0
 10
172.62675929054569
 20
533.46350163273371
 30
0.0
  0
SEQEND
  5
61BC
  8
AM_0
  0
POLYLINE
  5
61BD
  8
AM_0
 66
     1
 10
0.0
 20
0.0
 30
0.0
  0
VERTEX
  5
61BE
  8
AM_0
 10
172.9623292905458
 20
530.54003163273387
 30
0.0
 42
0.0006890001
  0
VERTEX
  5
61BF
  8
AM_0
 10
173.03320929054561
 20
529.96528163273365
 30
0.0
 42
0.00070644651
  0
VERTEX
  5
61C0
  8
AM_0
 10
173.10570929054569
 20
529.39060163273371
 30
0.0
 42
0.0006924559
  0
VERTEX
  5
61C1
  8
AM_0
 10
173.17979929054579
 20
528.81628163273365
 30
0.0
 42
0.00069587797
  0
VERTEX
  5
61C2
  8
AM_0
 10
173.25547929054571
 20
528.24214163273382
 30
0.0
 42
0.00071687041
  0
VERTEX
  5
61C3
  8
AM_0
 10
173.33278929054561
 20
527.66814163273364
 30
0.0
 42
0.00069759113
  0
VERTEX
  5
61C4
  8
AM_0
 10
173.41172929054571
 20
527.09435163273372
 30
0.0
 42
0.00071003142
  0
VERTEX
  5
61C5
  8
AM_0
 10
173.49226929054569
 20
526.52088163273345
 30
0.0
 42
0.00069954544
  0
VERTEX
  5
61C6
  8
AM_0
 10
173.5744092905457
 20
525.94778163273372
 30
0.0
 42
0.0007188852
  0
VERTEX
  5
61C7
  8
AM_0
 10
173.65818929054569
 20
525.37475163273371
 30
0.0
 42
0.00071266165
  0
VERTEX
  5
61C8
  8
AM_0
 10
173.74361929054581
 20
524.80199163273346
 30
0.0
 42
0.00071614577
  0
VERTEX
  5
61C9
  8
AM_0
 10
173.83064929054569
 20
524.22964163273355
 30
0.0
 42
0.00072290806
  0
VERTEX
  5
61CA
  8
AM_0
 10
173.91935929054571
 20
523.65734163273385
 30
0.0
  0
SEQEND
  5
61CB
  8
AM_0
  0
POLYLINE
  5
61CC
  8
AM_0
 66
     1
 10
0.0
 20
0.0
 30
0.0
  0
VERTEX
  5
61CD
  8
AM_0
 10
171.46141929054579
 20
557.02307163273372
 30
0.0
 42
-0.00039106653
  0
VERTEX
  5
61CE
  8
AM_0
 10
171.4590592905457
 20
557.33420163273365
 30
0.0
 42
-0.00040574511
  0
VERTEX
  5
61CF
  8
AM_0
 10
171.45718929054561
 20
557.64531163273375
 30
0.0
 42
-0.00035346331
  0
VERTEX
  5
61D0
  8
AM_0
 10
171.45579929054571
 20
557.95642163273385
 30
0.0
 42
-0.00034406545
  0
VERTEX
  5
61D1
  8
AM_0
 10
171.45481929054569
 20
558.26756163273365
 30
0.0
 42
-0.00045699059
  0
VERTEX
  5
61D2
  8
AM_0
 10
171.45435929054571
 20
558.57866163273377
 30
0.0
 42
-0.00035573431
  0
VERTEX
  5
61D3
  8
AM_0
 10
171.45439929054581
 20
558.88976163273355
 30
0.0
 42
-0.00038545888
  0
VERTEX
  5
61D4
  8
AM_0
 10
171.45488929054571
 20
559.20090163273346
 30
0.0
 42
-0.00035501203
  0
VERTEX
  5
61D5
  8
AM_0
 10
171.4558492905457
 20
559.51201163273356
 30
0.0
 42
-0.00040120778
  0
VERTEX
  5
61D6
  8
AM_0
 10
171.4572692905457
 20
559.82324163273381
 30
0.0
 42
-0.00038317821
  0
VERTEX
  5
61D7
  8
AM_0
 10
171.45917929054571
 20
560.13437163273375
 30
0.0
 42
-0.00040741862
  0
VERTEX
  5
61D8
  8
AM_0
 10
171.4615792905459
 20
560.44560163273366
 30
0.0
 42
-0.00035783324
  0
VERTEX
  5
61D9
  8
AM_0
 10
171.46446929054571
 20
560.75671163273375
 30
0.0
  0
SEQEND
  5
61DA
  8
AM_0
  0
POLYLINE
  5
61DB
  8
AM_0
 66
     1
 10
0.0
 20
0.0
 30
0.0
  0
VERTEX
  5
61DC
  8
AM_0
 10
171.50547929054571
 20
563.29345163273365
 30
0.0
 42
-0.00076691987
  0
VERTEX
  5
61DD
  8
AM_0
 10
171.5202792905456
 20
563.91121163273385
 30
0.0
 42
-0.00073262795
  0
VERTEX
  5
61DE
  8
AM_0
 10
171.53691929054591
 20
564.52881163273355
 30
0.0
 42
-0.0007652954
  0
VERTEX
  5
61DF
  8
AM_0
 10
171.5554092905457
 20
565.14648163273375
 30
0.0
 42
-0.00077334627
  0
VERTEX
  5
61E0
  8
AM_0
 10
171.57581929054589
 20
565.76408163273356
 30
0.0
 42
-0.00073282897
  0
VERTEX
  5
61E1
  8
AM_0
 10
171.59807929054571
 20
566.38150163273372
 30
0.0
 42
-0.0007571179
  0
VERTEX
  5
61E2
  8
AM_0
 10
171.6221792905456
 20
566.99902163273373
 30
0.0
 42
-0.00073783152
  0
VERTEX
  5
61E3
  8
AM_0
 10
171.64811929054571
 20
567.61641163273362
 30
0.0
 42
-0.0007835518
  0
VERTEX
  5
61E4
  8
AM_0
 10
171.6759492905457
 20
568.23368163273381
 30
0.0
 42
-0.00074826133
  0
VERTEX
  5
61E5
  8
AM_0
 10
171.7056792905457
 20
568.85107163273358
 30
0.0
 42
-0.00074893555
  0
VERTEX
  5
61E6
  8
AM_0
 10
171.73723929054569
 20
569.46820163273367
 30
0.0
 42
-0.00076039841
  0
VERTEX
  5
61E7
  8
AM_0
 10
171.77065929054589
 20
570.08523163273367
 30
0.0
 42
-0.00075618789
  0
VERTEX
  5
61E8
  8
AM_0
 10
171.8059592905457
 20
570.70226163273355
 30
0.0
  0
SEQEND
  5
61E9
  8
AM_0
  0
POLYLINE
  5
61EA
  8
AM_0
 66
     1
 10
0.0
 20
0.0
 30
0.0
  0
VERTEX
  5
61EB
  8
AM_0
 10
171.9796692905457
 20
573.36364163273367
 30
0.0
 42
-0.0007337051
  0
VERTEX
  5
61EC
  8
AM_0
 10
172.0238092905459
 20
573.96605163273375
 30
0.0
 42
-0.00075211323
  0
VERTEX
  5
61ED
  8
AM_0
 10
172.0697492905457
 20
574.56845163273385
 30
0.0
 42
-0.0007297491
  0
VERTEX
  5
61EE
  8
AM_0
 10
172.1174792905457
 20
575.17065163273355
 30
0.0
 42
-0.00073593041
  0
VERTEX
  5
61EF
  8
AM_0
 10
172.16695929054569
 20
575.77264163273355
 30
0.0
 42
-0.00074742739
  0
VERTEX
  5
61F0
  8
AM_0
 10
172.21822929054579
 20
576.37450163273365
 30
0.0
 42
-0.00073217363
  0
VERTEX
  5
61F1
  8
AM_0
 10
172.27128929054581
 20
576.97631163273388
 30
0.0
 42
-0.00073754168
  0
VERTEX
  5
61F2
  8
AM_0
 10
172.3261092905457
 20
577.57785163273377
 30
0.0
 42
-0.00073075073
  0
VERTEX
  5
61F3
  8
AM_0
 10
172.3826892905459
 20
578.17920163273357
 30
0.0
 42
-0.00074550816
  0
VERTEX
  5
61F4
  8
AM_0
 10
172.44102929054549
 20
578.78027163273373
 30
0.0
 42
-0.00074288416
  0
VERTEX
  5
61F5
  8
AM_0
 10
172.50117929054571
 20
579.38129163273379
 30
0.0
 42
-0.00072504001
  0
VERTEX
  5
61F6
  8
AM_0
 10
172.56308929054569
 20
579.98203163273377
 30
0.0
 42
-0.00074640667
  0
VERTEX
  5
61F7
  8
AM_0
 10
172.62675929054569
 20
580.5826416327335
 30
0.0
  0
SEQEND
  5
61F8
  8
AM_0
  0
POLYLINE
  5
61F9
  8
AM_0
 66
     1
 10
0.0
 20
0.0
 30
0.0
  0
VERTEX
  5
61FA
  8
AM_0
 10
172.9623292905458
 20
583.50610163273382
 30
0.0
 42
-0.00068898283
  0
VERTEX
  5
61FB
  8
AM_0
 10
173.03320929054561
 20
584.08085163273381
 30
0.0
 42
-0.00070644357
  0
VERTEX
  5
61FC
  8
AM_0
 10
173.10570929054569
 20
584.65554163273373
 30
0.0
 42
-0.00069248074
  0
VERTEX
  5
61FD
  8
AM_0
 10
173.17979929054579
 20
585.22985163273381
 30
0.0
 42
-0.0006958566
  0
VERTEX
  5
61FE
  8
AM_0
 10
173.25547929054571
 20
585.80399163273387
 30
0.0
 42
-0.00071687219
  0
VERTEX
  5
61FF
  8
AM_0
 10
173.33278929054561
 20
586.37799163273371
 30
0.0
 42
-0.00069760022
  0
VERTEX
  5
6200
  8
AM_0
 10
173.41172929054571
 20
586.95178163273386
 30
0.0
 42
-0.00071002302
  0
VERTEX
  5
6201
  8
AM_0
 10
173.49226929054569
 20
587.52525163273344
 30
0.0
 42
-0.00069954889
  0
VERTEX
  5
6202
  8
AM_0
 10
173.5744092905457
 20
588.09835163273385
 30
0.0
 42
-0.00071887947
  0
VERTEX
  5
6203
  8
AM_0
 10
173.65818929054569
 20
588.67138163273376
 30
0.0
 42
-0.00071266929
  0
VERTEX
  5
6204
  8
AM_0
 10
173.74361929054581
 20
589.24415163273363
 30
0.0
 42
-0.00071614429
  0
VERTEX
  5
6205
  8
AM_0
 10
173.83064929054569
 20
589.81649163273357
 30
0.0
 42
-0.00072288978
  0
VERTEX
  5
6206
  8
AM_0
 10
173.91935929054571
 20
590.38879163273373
 30
0.0
  0
SEQEND
  5
6207
  8
AM_0
  0
LINE
  5
6208
  8
AM_0
 10
161.6014292905457
 20
610.02307163273395
 30
0.0
 11
161.6014292905455
 21
504.02307163273377
 31
0.0
  0
LINE
  5
6209
  8
AM_0
 10
161.6014292905455
 20
504.02307163273377
 30
0.0
 11
169.1014292905457
 21
504.02307163273377
 31
0.0
  0
LINE
  5
620A
  8
AM_0
 10
161.8014392905454
 20
513.83313163273385
 30
0.0
 11
168.03141929054561
 21
513.83313163273385
 31
0.0
  0
LINE
  5
620B
  8
AM_0
 10
161.8014392905454
 20
600.21301163273381
 30
0.0
 11
168.03141929054561
 21
600.21301163273381
 31
0.0
  0
LINE
  5
620C
  8
AM_0
 10
161.6014292905457
 20
610.02307163273395
 30
0.0
 11
169.1014292905457
 21
610.02307163273395
 31
0.0
  0
LINE
  5
620D
  8
AM_0
 10
153.6014292905466
 20
504.96166812396172
 30
0.0
 11
153.60142929054621
 21
542.6839550387192
 31
0.0
  0
LINE
  5
620E
  8
AM_0
 10
144.6014292905457
 20
503.023071632734
 30
0.0
 11
144.6014292905457
 21
611.02307163273406
 31
0.0
  0
LINE
  5
620F
  8
AM_0
 10
144.6014292905457
 20
503.02307163273377
 30
0.0
 11
161.6014292905457
 21
504.02307163273377
 31
0.0
  0
LINE
  5
6210
  8
AM_0
 10
144.6014292905457
 20
611.02307163273395
 30
0.0
 11
161.6014292905457
 21
610.02307163273395
 31
0.0
  0
LINE
  5
6211
  8
AM_0
 10
153.60142929054641
 20
513.42916843464252
 30
0.0
 11
161.6014292905457
 21
513.42916843464252
 31
0.0
  0
LINE
  5
6212
  8
AM_0
 10
153.6014292905466
 20
504.96166812396172
 30
0.0
 11
161.6014292905457
 21
504.96166812396172
 31
0.0
  0
LINE
  5
6213
  8
AM_0
 10
150.10142929054641
 20
522.38219866747374
 30
0.0
 11
153.60142929054641
 21
522.38219866747374
 31
0.0
  0
LINE
  5
6214
  8
AM_0
 10
150.10142929054641
 20
513.88219866747374
 30
0.0
 11
153.6014292905466
 21
513.88219866747374
 31
0.0
  0
LINE
  5
6215
  8
AM_0
 10
149.60142929054641
 20
514.38219866747374
 30
0.0
 11
149.60142929054641
 21
521.88219866747374
 31
0.0
  0
ARC
  5
6216
  8
AM_0
 10
150.10142929054641
 20
514.38219866747374
 30
0.0
 40
0.5
 50
180.0
 51
270.0
  0
ARC
  5
6217
  8
AM_0
 10
150.10142929054641
 20
521.88219866747374
 30
0.0
 40
0.5
 50
90.0
 51
180.0
  0
LINE
  5
6218
  8
AM_0
 10
144.6014292905457
 20
514.75087713959385
 30
0.0
 11
149.60142929054641
 21
514.75087713959374
 31
0.0
  0
LINE
  5
6219
  8
AM_0
 10
144.6014292905457
 20
524.48595963788978
 30
0.0
 11
153.60142929054641
 21
524.48595963788978
 31
0.0
  0
LINE
  5
621A
  8
AM_0
 10
153.6014292905466
 20
609.08447514150612
 30
0.0
 11
153.60142929054621
 21
571.36218822675323
 31
0.0
  0
LINE
  5
621B
  8
AM_0
 10
153.60142929054641
 20
600.61697483082548
 30
0.0
 11
161.6014292905457
 21
600.61697483082548
 31
0.0
  0
LINE
  5
621C
  8
AM_0
 10
153.6014292905466
 20
609.08447514150612
 30
0.0
 11
161.6014292905457
 21
609.08447514150612
 31
0.0
  0
LINE
  5
621D
  8
AM_0
 10
150.10142929054641
 20
591.66394459799415
 30
0.0
 11
153.60142929054641
 21
591.66394459799415
 31
0.0
  0
LINE
  5
621E
  8
AM_0
 10
150.10142929054641
 20
600.16394459799415
 30
0.0
 11
153.6014292905466
 21
600.16394459799415
 31
0.0
  0
LINE
  5
621F
  8
AM_0
 10
149.60142929054641
 20
599.66394459799415
 30
0.0
 11
149.60142929054641
 21
592.16394459799415
 31
0.0
  0
ARC
  5
6220
  8
AM_0
 10
150.10142929054641
 20
599.66394459799403
 30
0.0
 40
0.5
 50
90.0
 51
180.0
  0
ARC
  5
6221
  8
AM_0
 10
150.10142929054641
 20
592.16394459799403
 30
0.0
 40
0.5
 50
180.0
 51
270.0
  0
LINE
  5
6222
  8
AM_0
 10
144.6014292905457
 20
599.29526612587415
 30
0.0
 11
149.60142929054641
 21
599.29526612587415
 31
0.0
  0
LINE
  5
6223
  8
AM_0
 10
144.6014292905457
 20
589.56018362757823
 30
0.0
 11
153.60142929054641
 21
589.56018362757823
 31
0.0
  0
LINE
  5
6224
  8
AM_0
 10
138.6014292905457
 20
611.02307163273406
 30
0.0
 11
138.6014292905457
 21
503.02307163273377
 31
0.0
  0
LINE
  5
6225
  8
AM_0
 10
144.6014292905457
 20
503.02307163273377
 30
0.0
 11
138.6014292905457
 21
503.02307163273377
 31
0.0
  0
LINE
  5
6226
  8
AM_0
 10
138.6014292905457
 20
611.02307163273406
 30
0.0
 11
144.6014292905455
 21
611.02307163273406
 31
0.0
  0
LINE
  5
6227
  8
AM_0
 10
137.6014292905457
 20
553.22307163273376
 30
0.0
 11
137.6014292905457
 21
560.82307163273367
 31
0.0
  0
LINE
  5
6228
  8
AM_0
 10
137.6014292905457
 20
560.82307163273367
 30
0.0
 11
138.6014292905457
 21
560.82307163273367
 31
0.0
  0
LINE
  5
6229
  8
AM_0
 10
138.6014292905457
 20
557.22307163273388
 30
0.0
 11
137.6014292905457
 21
557.58704186700015
 31
0.0
  0
LINE
  5
622A
  8
AM_0
 10
138.6014292905457
 20
556.82307163273367
 30
0.0
 11
137.6014292905457
 21
557.18704186700029
 31
0.0
  0
LINE
  5
622B
  8
AM_0
 10
138.6014292905457
 20
553.22307163273376
 30
0.0
 11
137.6014292905457
 21
553.22307163273376
 31
0.0
  0
LINE
  5
622C
  8
AM_0
 10
136.54249177841771
 20
560.93042660504045
 30
0.0
 11
137.6014292905457
 21
561.02307163273395
 31
0.0
  0
LINE
  5
622D
  8
AM_0
 10
136.54249177841771
 20
553.11571666042755
 30
0.0
 11
137.6014292905457
 21
553.02307163273395
 31
0.0
  0
ARC
  5
622E
  8
AM_0
 10
141.0014292905457
 20
557.02307163273395
 30
0.0
 40
6.5
 50
151.82726586813479
 51
208.1727341318651
  0
ARC
  5
622F
  8
AM_0
 10
136.6819409668143
 20
554.70962817737416
 30
0.0
 40
1.6000000000000001
 50
208.1727341318651
 51
265.00000000000028
  0
ARC
  5
6230
  8
AM_0
 10
136.6819409668143
 20
559.33651508809362
 30
0.0
 40
1.6000000000000001
 50
94.99999999999973
 51
151.82726586813479
  0
LINE
  5
6231
  8
AM_0
 10
137.6014292905457
 20
553.02307163273395
 30
0.0
 11
137.6014292905457
 21
561.02307163273395
 31
0.0
  0
LINE
  5
6232
  8
AM_0
 10
161.6014292905457
 20
542.68395503871943
 30
0.0
 11
153.60142929054641
 21
542.68395503871943
 31
0.0
  0
LINE
  5
6233
  8
AM_0
 10
161.6014292905455
 20
571.36218822675335
 30
0.0
 11
153.60142929054621
 21
571.36218822675335
 31
0.0
  0
LINE
  5
6234
  8
AM_0
 10
124.1014292905453
 20
523.02307163273485
 30
0.0
 11
124.1014292905453
 21
512.02307163273395
 31
0.0
  0
LINE
  5
6235
  8
AM_0
 10
138.6014292905453
 20
512.02307163273395
 30
0.0
 11
124.1014292905453
 21
512.02307163273395
 31
0.0
  0
LINE
  5
6236
  8
AM_0
 10
112.1014292905457
 20
517.02307163273485
 30
0.0
 11
112.1014292905455
 21
514.02307163273508
 31
0.0
  0
LINE
  5
6237
  8
AM_0
 10
112.1014292905455
 20
514.02307163273508
 30
0.0
 11
124.1014292905453
 21
514.02307163273508
 31
0.0
  0
LINE
  5
6238
  8
AM_0
 10
112.1014292905453
 20
515.02307163273497
 30
0.0
 11
112.1014292905453
 21
517.20074003888169
 31
0.0
  0
LINE
  5
6239
  8
AM_0
 10
106.6014292905453
 20
517.0230716327352
 30
0.0
 11
107.5014292905454
 21
517.0230716327352
 31
0.0
  0
LINE
  5
623A
  8
AM_0
 10
106.401429290545
 20
520.0230716327352
 30
0.0
 11
106.401429290545
 21
517.0230716327352
 31
0.0
  0
LINE
  5
623B
  8
AM_0
 10
107.5014292905454
 20
516.75071989815149
 30
0.0
 11
107.5014292905454
 21
520.2954233673189
 31
0.0
  0
LINE
  5
623C
  8
AM_0
 10
106.1014292905453
 20
519.72307163273524
 30
0.0
 11
107.5014292905436
 21
519.72307163273524
 31
0.0
  0
LINE
  5
623D
  8
AM_0
 10
111.5014292905454
 20
516.14150177232796
 30
0.0
 11
111.5014292905454
 21
515.02307163273497
 31
0.0
  0
LINE
  5
623E
  8
AM_0
 10
111.5014292905454
 20
517.0230716327352
 30
0.0
 11
111.5014292905454
 21
516.92307163273506
 31
0.0
  0
LINE
  5
623F
  8
AM_0
 10
111.5014292905454
 20
516.92307163273506
 30
0.0
 11
111.5014292905454
 21
516.14150177232796
 31
0.0
  0
LINE
  5
6240
  8
AM_0
 10
111.5014292905454
 20
517.0230716327352
 30
0.0
 11
111.5014292905454
 21
516.92307163273506
 31
0.0
  0
LINE
  5
6241
  8
AM_0
 10
111.5014292905454
 20
517.40683430906483
 30
0.0
 11
111.5014292905454
 21
516.14150177232796
 31
0.0
  0
LINE
  5
6242
  8
AM_0
 10
111.5014292905454
 20
515.02307163273497
 30
0.0
 11
112.1014292905453
 21
515.02307163273497
 31
0.0
  0
LINE
  5
6243
  8
AM_0
 10
108.8014292905455
 20
516.14150177232796
 30
0.0
 11
108.8014292905455
 21
519.57303296472821
 31
0.0
  0
LINE
  5
6244
  8
AM_0
 10
108.6403850612879
 20
515.85481014398488
 30
0.0
 11
107.70783201178079
 21
516.39321989815176
 31
0.0
  0
LINE
  5
6245
  8
AM_0
 10
109.07388088257591
 20
515.34764515219229
 30
0.0
 11
111.228977698515
 21
515.34764515219229
 31
0.0
  0
LINE
  5
6246
  8
AM_0
 10
109.07388088257591
 20
516.93535839246374
 30
0.0
 11
111.228977698515
 21
516.93535839246385
 31
0.0
  0
LINE
  5
6247
  8
AM_0
 10
107.501429290544
 20
520.0230716327352
 30
0.0
 11
106.401429290545
 21
520.0230716327352
 31
0.0
  0
LINE
  5
6248
  8
AM_0
 10
106.401429290545
 20
520.0230716327352
 30
0.0
 11
106.1014292905453
 21
519.72307163273524
 31
0.0
  0
LINE
  5
6249
  8
AM_0
 10
106.1014292905453
 20
519.72307163273524
 30
0.0
 11
106.1014292905453
 21
517.32307163273515
 31
0.0
  0
LINE
  5
624A
  8
AM_0
 10
106.401429290545
 20
517.0230716327352
 30
0.0
 11
107.5014292905436
 21
517.0230716327352
 31
0.0
  0
LINE
  5
624B
  8
AM_0
 10
106.1014292905453
 20
517.32307163273515
 30
0.0
 11
106.401429290545
 21
517.0230716327352
 31
0.0
  0
LINE
  5
624C
  8
AM_0
 10
107.5014292905436
 20
517.32307163273515
 30
0.0
 11
106.1014292905453
 21
517.32307163273515
 31
0.0
  0
ARC
  5
624D
  8
AM_0
 10
110.2086524745187
 20
516.14150177232796
 30
0.0
 40
1.292776816026465
 50
322.11555894629771
 51
0.0
  0
ARC
  5
624E
  8
AM_0
 10
113.5638591666051
 20
518.52307163273497
 30
0.0
 40
4.762429876059711
 50
168.45024695877001
 51
199.4742400054138
  0
ARC
  5
624F
  8
AM_0
 10
110.0942061065719
 20
516.14150177232796
 30
0.0
 40
1.292776816026556
 50
142.11555894629771
 51
217.88444105370229
  0
ARC
  5
6250
  8
AM_0
 10
106.7389994144859
 20
518.52307163273497
 30
0.0
 40
4.762429876059584
 50
340.52575999458628
 51
347.08714779821958
  0
ARC
  5
6251
  8
AM_0
 10
110.2086524745187
 20
516.14150177232796
 30
0.0
 40
1.2927768160265021
 50
0.0
 51
37.884441053702282
  0
ARC
  5
6252
  8
AM_0
 10
107.9142347330158
 20
516.7507198981516
 30
0.0
 40
0.4128054424705854
 50
180.0
 51
239.99999999999949
  0
ARC
  5
6253
  8
AM_0
 10
108.2275796188174
 20
515.13981014398485
 30
0.0
 40
0.8256108849411369
 50
28.217424594179711
 51
59.999999999999439
  0
LINE
  5
6254
  8
AM_0
 10
107.7165218230685
 20
520.65794043220512
 30
0.0
 11
107.70783201178079
 21
520.65292336731875
 31
0.0
  0
ARC
  5
6255
  8
AM_0
 10
107.9142347330161
 20
520.29542336731902
 30
0.0
 40
0.4128054424705854
 50
119.99999999999331
 51
179.99999999999341
  0
CIRCLE
  5
6256
  8
AM_0
 10
110.1013906225395
 20
557.02307163273406
 30
0.0
 40
5.5
  0
LINE
  5
6257
  8
AM_0
 10
104.6013906225395
 20
553.84764515219115
 30
0.0
 11
110.1013906225399
 21
550.67221867164812
 31
0.0
  0
LINE
  5
6258
  8
AM_0
 10
110.1013906225399
 20
550.67221867164812
 30
0.0
 11
115.6013906225395
 21
553.84764515219149
 31
0.0
  0
LINE
  5
6259
  8
AM_0
 10
115.6013906225395
 20
553.84764515219149
 30
0.0
 11
115.6013906225395
 21
560.1984981132772
 31
0.0
  0
LINE
  5
625A
  8
AM_0
 10
115.6013906225395
 20
560.1984981132772
 30
0.0
 11
110.1013906225395
 21
563.37392459381999
 31
0.0
  0
LINE
  5
625B
  8
AM_0
 10
110.1013906225395
 20
563.37392459381999
 30
0.0
 11
104.6013906225395
 21
560.19849811327686
 31
0.0
  0
LINE
  5
625C
  8
AM_0
 10
104.6013906225395
 20
560.19849811327686
 30
0.0
 11
104.6013906225395
 21
553.84764515219115
 31
0.0
  0
CIRCLE
  5
625D
  8
AM_0
 10
110.1013906225395
 20
557.02307163273406
 30
0.0
 40
6.4999856554771771
  0
LINE
  5
625E
  8
AM_0
 10
121.1666828529106
 20
523.02307163273485
 30
0.0
 11
124.1014292905453
 21
523.02307163273485
 31
0.0
  0
LINE
  5
625F
  8
AM_0
 10
122.1208514046985
 20
521.52307163273485
 30
0.0
 11
124.1014292905453
 21
521.52307163273485
 31
0.0
  0
LINE
  5
6260
  8
AM_0
 10
113.42245843440431
 20
517.02307163273485
 30
0.0
 11
124.1014292905453
 21
517.02307163273485
 31
0.0
  0
ARC
  5
6261
  8
AM_0
 10
113.42245843440411
 20
522.02307163273485
 30
0.0
 40
5.0
 50
225.0
 51
270.0
1001
GENIUS_GENODEF_13
1002
{
1000
HIER
1070
     0
1002
}
1002
{
1000
MANEDIT
1070
     0
1002
}
1002
{
1000
NOSEL
1070
     0
1002
}
1002
{
1000
BEHIND
1070
     0
1002
}
1002
{
1000
OTHER
1070
     0
1002
}
1002
{
1000
REACTOR
1002
}
1001
GENIUS_GENOBJ-N-FIL_13
1002
{
1000
OWNER
1000
GEN
1002
}
  0
LINE
  5
6262
  8
AM_0
 10
122.1208514046983
 20
517.02307163273485
 30
0.0
 11
122.1208514046985
 21
521.52307163273485
 31
0.0
  0
LINE
  5
6263
  8
AM_0
 10
108.6013906225395
 20
550.69853105484174
 30
0.0
 11
108.6013906225397
 21
529.81109677902566
 31
0.0
  0
LINE
  5
6264
  8
AM_0
 10
111.6013906225395
 20
550.69853105484174
 30
0.0
 11
111.6013906225395
 21
529.81109677902566
 31
0.0
  0
LINE
  5
6265
  8
AM_0
 10
106.3513906225395
 20
551.71389904923217
 30
0.0
 11
106.3513906225395
 21
524.0941394445997
 31
0.0
  0
ARC
  5
6266
  8
AM_0
 10
111.3513906225395
 20
524.0941394445997
 30
0.0
 40
5.0
 50
180.0
 51
225.0
1001
GENIUS_GENOBJ-N-FIL_13
1002
{
1000
OWNER
1000
GEN
1002
}
1001
GENIUS_GENODEF_13
1002
{
1000
HIER
1070
     0
1002
}
1002
{
1000
MANEDIT
1070
     0
1002
}
1002
{
1000
NOSEL
1070
     0
1002
}
1002
{
1000
BEHIND
1070
     0
1002
}
1002
{
1000
OTHER
1070
     0
1002
}
1002
{
1000
REACTOR
1002
}
  0
LINE
  5
6267
  8
AM_0
 10
113.8513906225395
 20
551.71389904923217
 30
0.0
 11
113.8513906225395
 21
527.5539899759865
 31
0.0
  0
ARC
  5
6268
  8
AM_0
 10
118.8513906225395
 20
535.9785900020596
 30
0.0
 40
5.0
 50
180.0
 51
212.46094411514159
1001
GENIUS_GENODEF_13
1002
{
1000
HIER
1070
     0
1002
}
1002
{
1000
MANEDIT
1070
     0
1002
}
1002
{
1000
NOSEL
1070
     0
1002
}
1002
{
1000
BEHIND
1070
     0
1002
}
1002
{
1000
OTHER
1070
     0
1002
}
1002
{
1000
REACTOR
1002
}
1001
GENIUS_GENOBJ-N-FIL_13
1002
{
1000
OWNER
1000
GEN
1002
}
  0
ARC
  5
6269
  8
AM_0
 10
118.8513906225395
 20
527.5539899759865
 30
0.0
 40
5.0
 50
180.0
 51
224.2123722808945
1001
GENIUS_GENOBJ-N-FIL_13
1002
{
1000
OWNER
1000
GEN
1002
}
1001
GENIUS_GENODEF_13
1002
{
1000
HIER
1070
     0
1002
}
1002
{
1000
MANEDIT
1070
     0
1002
}
1002
{
1000
NOSEL
1070
     0
1002
}
1002
{
1000
BEHIND
1070
     0
1002
}
1002
{
1000
OTHER
1070
     0
1002
}
1002
{
1000
REACTOR
1002
}
  0
LINE
  5
626A
  8
AM_0
 10
122.1208514046983
 20
521.52307163273485
 30
0.0
 11
114.6326031117725
 21
533.29496708909392
 31
0.0
  0
LINE
  5
626B
  8
AM_0
 10
122.1208514046983
 20
517.02307163273485
 30
0.0
 11
115.2675903866881
 21
524.0673905052256
 31
0.0
  0
LINE
  5
626C
  8
AM_0
 10
107.8158567166068
 20
520.55860553866671
 30
0.0
 11
109.8869245284714
 21
518.4875377268022
 31
0.0
  0
ARC
  5
626D
  8
AM_0
 10
110.1013906225395
 20
529.81109677902566
 30
0.0
 40
1.5
 50
180.0
 51
0.0
  0
LINE
  5
626E
  8
AM_0
 10
124.1014292905457
 20
591.02307163273315
 30
0.0
 11
124.10142929054621
 21
602.02307163273417
 31
0.0
  0
LINE
  5
626F
  8
AM_0
 10
138.60142929054621
 20
602.02307163273395
 30
0.0
 11
124.10142929054621
 21
602.02307163273417
 31
0.0
  0
LINE
  5
6270
  8
AM_0
 10
112.10142929054641
 20
597.0230716327336
 30
0.0
 11
112.10142929054641
 21
600.0230716327336
 31
0.0
  0
LINE
  5
6271
  8
AM_0
 10
112.10142929054641
 20
600.0230716327336
 30
0.0
 11
124.10142929054621
 21
600.02307163273315
 31
0.0
  0
LINE
  5
6272
  8
AM_0
 10
112.10142929054621
 20
599.02307163273326
 30
0.0
 11
112.10142929054621
 21
596.845403226587
 31
0.0
  0
LINE
  5
6273
  8
AM_0
 10
106.60142929054621
 20
597.0230716327336
 30
0.0
 11
107.5014292905463
 21
597.0230716327336
 31
0.0
  0
LINE
  5
6274
  8
AM_0
 10
106.40142929054591
 20
594.02307163273349
 30
0.0
 11
106.40142929054591
 21
597.0230716327336
 31
0.0
  0
LINE
  5
6275
  8
AM_0
 10
107.5014292905463
 20
597.2954233673172
 30
0.0
 11
107.5014292905463
 21
593.75071989814967
 31
0.0
  0
LINE
  5
6276
  8
AM_0
 10
106.10142929054621
 20
594.32307163273344
 30
0.0
 11
107.501429290546
 21
594.32307163273344
 31
0.0
  0
LINE
  5
6277
  8
AM_0
 10
111.5014292905463
 20
597.90464149314073
 30
0.0
 11
111.5014292905463
 21
599.0230716327336
 31
0.0
  0
LINE
  5
6278
  8
AM_0
 10
111.5014292905463
 20
597.0230716327336
 30
0.0
 11
111.5014292905463
 21
597.12307163273351
 31
0.0
  0
LINE
  5
6279
  8
AM_0
 10
111.5014292905463
 20
597.12307163273351
 30
0.0
 11
111.5014292905463
 21
597.90464149314073
 31
0.0
  0
LINE
  5
627A
  8
AM_0
 10
111.5014292905463
 20
597.0230716327336
 30
0.0
 11
111.5014292905463
 21
597.12307163273351
 31
0.0
  0
LINE
  5
627B
  8
AM_0
 10
111.5014292905463
 20
596.63930895640385
 30
0.0
 11
111.5014292905463
 21
597.90464149314073
 31
0.0
  0
LINE
  5
627C
  8
AM_0
 10
111.5014292905463
 20
599.0230716327336
 30
0.0
 11
112.10142929054621
 21
599.02307163273326
 31
0.0
  0
LINE
  5
627D
  8
AM_0
 10
108.80142929054649
 20
597.90464149314073
 30
0.0
 11
108.8014292905462
 21
594.47311030074025
 31
0.0
  0
LINE
  5
627E
  8
AM_0
 10
108.6403850612888
 20
598.19133312148381
 30
0.0
 11
107.7078320117817
 21
597.65292336731693
 31
0.0
  0
LINE
  5
627F
  8
AM_0
 10
109.0738808825769
 20
598.6984981132764
 30
0.0
 11
111.22897769851591
 21
598.6984981132764
 31
0.0
  0
LINE
  5
6280
  8
AM_0
 10
109.0738808825769
 20
597.11078487300495
 30
0.0
 11
111.22897769851591
 21
597.11078487300495
 31
0.0
  0
LINE
  5
6281
  8
AM_0
 10
107.5014292905463
 20
594.02307163273349
 30
0.0
 11
106.40142929054591
 21
594.02307163273349
 31
0.0
  0
LINE
  5
6282
  8
AM_0
 10
106.40142929054591
 20
594.02307163273349
 30
0.0
 11
106.10142929054621
 21
594.32307163273344
 31
0.0
  0
LINE
  5
6283
  8
AM_0
 10
106.10142929054621
 20
594.32307163273344
 30
0.0
 11
106.10142929054621
 21
596.72307163273365
 31
0.0
  0
LINE
  5
6284
  8
AM_0
 10
106.40142929054591
 20
597.0230716327336
 30
0.0
 11
107.5014292905463
 21
597.0230716327336
 31
0.0
  0
LINE
  5
6285
  8
AM_0
 10
106.10142929054621
 20
596.72307163273365
 30
0.0
 11
106.40142929054591
 21
597.0230716327336
 31
0.0
  0
LINE
  5
6286
  8
AM_0
 10
107.5014292905463
 20
596.72307163273365
 30
0.0
 11
106.10142929054621
 21
596.72307163273365
 31
0.0
  0
ARC
  5
6287
  8
AM_0
 10
110.2086524745196
 20
597.90464149314073
 30
0.0
 40
1.292776816026465
 50
0.0
 51
37.884441053702282
  0
ARC
  5
6288
  8
AM_0
 10
113.5638591666057
 20
595.52307163273326
 30
0.0
 40
4.762429876059711
 50
160.52575999458611
 51
191.54975304122991
  0
ARC
  5
6289
  8
AM_0
 10
110.0942061065729
 20
597.90464149314073
 30
0.0
 40
1.292776816026556
 50
142.11555894629771
 51
217.88444105370229
  0
ARC
  5
628A
  8
AM_0
 10
106.7389994144865
 20
595.5230716327336
 30
0.0
 40
4.762429876059584
 50
12.912852201780369
 51
19.474240005413812
  0
ARC
  5
628B
  8
AM_0
 10
110.2086524745196
 20
597.90464149314073
 30
0.0
 40
1.2927768160265021
 50
322.11555894629771
 51
0.0
  0
ARC
  5
628C
  8
AM_0
 10
107.9142347330168
 20
597.2954233673172
 30
0.0
 40
0.4128054424705854
 50
120.0000000000005
 51
180.0
  0
ARC
  5
628D
  8
AM_0
 10
108.2275796188181
 20
598.90633312148361
 30
0.0
 40
0.8256108849411369
 50
300.00000000000051
 51
331.7825754058203
  0
LINE
  5
628E
  8
AM_0
 10
107.7165218230694
 20
593.38820283326368
 30
0.0
 11
107.7078320117817
 21
593.39321989814971
 31
0.0
  0
ARC
  5
628F
  8
AM_0
 10
107.9142347330168
 20
593.75071989814967
 30
0.0
 40
0.4128054424705854
 50
180.00000000000659
 51
240.00000000000679
  0
LINE
  5
6290
  8
AM_0
 10
121.16668285291151
 20
591.02307163273326
 30
0.0
 11
124.1014292905457
 21
591.02307163273315
 31
0.0
  0
LINE
  5
6291
  8
AM_0
 10
122.1208514046992
 20
592.52307163273349
 30
0.0
 11
124.10142929054589
 21
592.52307163273315
 31
0.0
  0
LINE
  5
6292
  8
AM_0
 10
113.4224584344052
 20
597.0230716327336
 30
0.0
 11
124.10142929054589
 21
597.02307163273338
 31
0.0
  0
ARC
  5
6293
  8
AM_0
 10
113.4224584344048
 20
592.0230716327336
 30
0.0
 40
5.0
 50
90.0
 51
135.0
1001
GENIUS_GENODEF_13
1002
{
1000
HIER
1070
     0
1002
}
1002
{
1000
MANEDIT
1070
     0
1002
}
1002
{
1000
NOSEL
1070
     0
1002
}
1002
{
1000
BEHIND
1070
     0
1002
}
1002
{
1000
OTHER
1070
     0
1002
}
1002
{
1000
REACTOR
1002
}
1001
GENIUS_GENOBJ-N-FIL_13
1002
{
1000
OWNER
1000
GEN
1002
}
  0
LINE
  5
6294
  8
AM_0
 10
122.1208514046992
 20
597.02307163273349
 30
0.0
 11
122.1208514046992
 21
592.52307163273349
 31
0.0
  0
LINE
  5
6295
  8
AM_0
 10
108.6013906225399
 20
563.34761221062695
 30
0.0
 11
108.60139062254041
 21
584.23504648644325
 31
0.0
  0
LINE
  5
6296
  8
AM_0
 10
111.6013906225397
 20
563.34761221062695
 30
0.0
 11
111.60139062254041
 21
584.23504648644325
 31
0.0
  0
LINE
  5
6297
  8
AM_0
 10
106.3513906225399
 20
562.33224421623652
 30
0.0
 11
106.35139062254041
 21
589.95200382086898
 31
0.0
  0
ARC
  5
6298
  8
AM_0
 10
111.35139062254019
 20
589.95200382086898
 30
0.0
 40
5.0
 50
135.0
 51
180.0
1001
GENIUS_GENOBJ-N-FIL_13
1002
{
1000
OWNER
1000
GEN
1002
}
1001
GENIUS_GENODEF_13
1002
{
1000
HIER
1070
     0
1002
}
1002
{
1000
MANEDIT
1070
     0
1002
}
1002
{
1000
NOSEL
1070
     0
1002
}
1002
{
1000
BEHIND
1070
     0
1002
}
1002
{
1000
OTHER
1070
     0
1002
}
1002
{
1000
REACTOR
1002
}
  0
LINE
  5
6299
  8
AM_0
 10
113.8513906225399
 20
562.33224421623606
 30
0.0
 11
113.85139062254041
 21
586.49215328948185
 31
0.0
  0
ARC
  5
629A
  8
AM_0
 10
118.8513906225399
 20
578.06755326340897
 30
0.0
 40
5.0
 50
147.53905588485841
 51
180.0
1001
GENIUS_GENODEF_13
1002
{
1000
HIER
1070
     0
1002
}
1002
{
1000
MANEDIT
1070
     0
1002
}
1002
{
1000
NOSEL
1070
     0
1002
}
1002
{
1000
BEHIND
1070
     0
1002
}
1002
{
1000
OTHER
1070
     0
1002
}
1002
{
1000
REACTOR
1002
}
1001
GENIUS_GENOBJ-N-FIL_13
1002
{
1000
OWNER
1000
GEN
1002
}
  0
ARC
  5
629B
  8
AM_0
 10
118.85139062254009
 20
586.49215328948185
 30
0.0
 40
5.0
 50
135.7876277191055
 51
180.0
1001
GENIUS_GENOBJ-N-FIL_13
1002
{
1000
OWNER
1000
GEN
1002
}
1001
GENIUS_GENODEF_13
1002
{
1000
HIER
1070
     0
1002
}
1002
{
1000
MANEDIT
1070
     0
1002
}
1002
{
1000
NOSEL
1070
     0
1002
}
1002
{
1000
BEHIND
1070
     0
1002
}
1002
{
1000
OTHER
1070
     0
1002
}
1002
{
1000
REACTOR
1002
}
  0
LINE
  5
629C
  8
AM_0
 10
122.120851404699
 20
592.52307163273349
 30
0.0
 11
114.63260311177289
 21
580.75117617637454
 31
0.0
  0
LINE
  5
629D
  8
AM_0
 10
122.1208514046992
 20
597.02307163273349
 30
0.0
 11
115.26759038668899
 21
589.97875276024297
 31
0.0
  0
LINE
  5
629E
  8
AM_0
 10
107.8158567166075
 20
593.48753772680175
 30
0.0
 11
109.88692452847231
 21
595.55860553866648
 31
0.0
  0
ARC
  5
629F
  8
AM_0
 10
110.10139062254019
 20
584.23504648644325
 30
0.0
 40
1.5
 50
0.0
 51
180.0
  0
ARC
  5
62A0
  8
AM_0
 10
155.55222747740081
 20
486.023071632734
 30
0.0
 40
20.0
 50
209.07393874564249
 51
249.97235728825609
1001
GENIUS_GENODEF_13
1002
{
1000
HIER
1070
     0
1002
}
1002
{
1000
MANEDIT
1070
     0
1002
}
1002
{
1000
NOSEL
1070
     0
1002
}
1002
{
1000
BEHIND
1070
     0
1002
}
1002
{
1000
OTHER
1070
     0
1002
}
1002
{
1000
REACTOR
1002
}
1001
GENIUS_GENOBJ-N-FIL_13
1002
{
1000
OWNER
1000
GEN
1002
}
  0
ARC
  5
62A1
  8
AM_0
 10
156.1404037060465
 20
487.02307163273377
 30
0.0
 40
15.0
 50
209.07393874564249
 51
240.27464366407139
1001
GENIUS_GENODEF_13
1002
{
1000
HIER
1070
     0
1002
}
1002
{
1000
MANEDIT
1070
     0
1002
}
1002
{
1000
NOSEL
1070
     0
1002
}
1002
{
1000
BEHIND
1070
     0
1002
}
1002
{
1000
OTHER
1070
     0
1002
}
1002
{
1000
REACTOR
1002
}
1001
GENIUS_GENOBJ-N-FIL_13
1002
{
1000
OWNER
1000
GEN
1002
}
  0
LINE
  5
62A2
  8
AM_0
 10
138.0723605859861
 20
476.30431381815589
 30
0.0
 11
117.100835199448
 21
514.02307163273508
 31
0.0
  0
LINE
  5
62A3
  8
AM_0
 10
143.0305035374854
 20
479.73400327180047
 30
0.0
 11
125.0778705221627
 21
512.02307163273395
 31
0.0
  0
TEXT
  5
656C
  8
AM_0
 10
516.34960392755124
 20
572.34879244709055
 30
0.0
 40
10.0
  1
VX02-080BW~VX02-100BW
  0
ENDSEC
  0
EOF
