  0
SECTION
  2
HEADER
  9
$ACADVER
  1
AC1009
  9
$INSBASE
 10
0.0
 20
0.0
 30
0.0
  9
$EXTMIN
 10
93.612032125485015
 20
188.15326947621091
 30
-250.41841640509659
  9
$EXTMAX
 10
727.85046570812165
 20
620.13491367226652
 30
8206587.2096418813
  9
$LIMMIN
 10
0.0
 20
0.0
  9
$LIMMAX
 10
853.5
 20
555.00000000000011
  9
$ORTHOMODE
 70
     0
  9
$REGENMODE
 70
     1
  9
$FILLMODE
 70
     1
  9
$QTEXTMODE
 70
     0
  9
$MIRRTEXT
 70
     1
  9
$DRAGMODE
 70
     2
  9
$LTSCALE
 40
3.0
  9
$OSMODE
 70
   551
  9
$ATTMODE
 70
     1
  9
$TEXTSIZE
 40
2.5
  9
$TRACEWID
 40
1.0
  9
$TEXTSTYLE
  7
STANDARD
  9
$CLAYER
  8
AM_0
  9
$CELTYPE
  6
BYLAYER
  9
$CECOLOR
 62
   256
  9
$DIMSCALE
 40
1.0
  9
$DIMASZ
 40
2.5
  9
$DIMEXO
 40
1.0
  9
$DIMDLI
 40
8.0
  9
$DIMRND
 40
0.0
  9
$DIMDLE
 40
0.0
  9
$DIMEXE
 40
0.6
  9
$DIMTP
 40
0.1
  9
$DIMTM
 40
0.1
  9
$DIMTXT
 40
2.5
  9
$DIMCEN
 40
0.0
  9
$DIMTSZ
 40
0.0
  9
$DIMTOL
 70
     0
  9
$DIMLIM
 70
     0
  9
$DIMTIH
 70
     0
  9
$DIMTOH
 70
     0
  9
$DIMSE1
 70
     0
  9
$DIMSE2
 70
     0
  9
$DIMTAD
 70
     1
  9
$DIMZIN
 70
     8
  9
$DIMBLK
  1

  9
$DIMASO
 70
     1
  9
$DIMSHO
 70
     1
  9
$DIMPOST
  1

  9
$DIMAPOST
  1
"
  9
$DIMALT
 70
     0
  9
$DIMALTD
 70
     2
  9
$DIMALTF
 40
0.0393701
  9
$DIMLFAC
 40
1.0
  9
$DIMTOFL
 70
     1
  9
$DIMTVP
 40
0.0
  9
$DIMTIX
 70
     0
  9
$DIMSOXD
 70
     0
  9
$DIMSAH
 70
     0
  9
$DIMBLK1
  1

  9
$DIMBLK2
  1

  9
$DIMSTYLE
  2
AM_ISO
  9
$DIMCLRD
 70
   256
  9
$DIMCLRE
 70
   256
  9
$DIMCLRT
 70
     4
  9
$DIMTFAC
 40
0.71
  9
$DIMGAP
 40
0.8
  9
$LUNITS
 70
     2
  9
$LUPREC
 70
     2
  9
$SKETCHINC
 40
1.0
  9
$FILLETRAD
 40
56.0
  9
$AUNITS
 70
     0
  9
$AUPREC
 70
     0
  9
$MENU
  1
.
  9
$ELEVATION
 40
0.0
  9
$PELEVATION
 40
0.0
  9
$THICKNESS
 40
0.0
  9
$LIMCHECK
 70
     0
  9
$BLIPMODE
 70
     0
  9
$CHAMFERA
 40
6.0
  9
$CHAMFERB
 40
3.0
  9
$SKPOLY
 70
     0
  9
$TDCREATE
 40
2452065.7887456599
  9
$TDUPDATE
 40
2458541.6083240388
  9
$TDINDWG
 40
0.1413196296
  9
$TDUSRTIMER
 40
0.1413196065
  9
$USRTIMER
 70
     1
  9
$ANGBASE
 50
0.0
  9
$ANGDIR
 70
     0
  9
$PDMODE
 70
     0
  9
$PDSIZE
 40
0.0
  9
$PLINEWID
 40
0.0
  9
$COORDS
 70
     1
  9
$SPLFRAME
 70
     0
  9
$SPLINETYPE
 70
     6
  9
$SPLINESEGS
 70
     8
  9
$ATTDIA
 70
     1
  9
$ATTREQ
 70
     1
  9
$HANDLING
 70
     1
  9
$HANDSEED
  5
5A3A
  9
$SURFTAB1
 70
     6
  9
$SURFTAB2
 70
     6
  9
$SURFTYPE
 70
     6
  9
$SURFU
 70
     6
  9
$SURFV
 70
     6
  9
$UCSNAME
  2

  9
$UCSORG
 10
0.0
 20
0.0
 30
0.0
  9
$UCSXDIR
 10
1.0
 20
0.0
 30
0.0
  9
$UCSYDIR
 10
0.0
 20
1.0
 30
0.0
  9
$PUCSNAME
  2

  9
$PUCSORG
 10
0.0
 20
0.0
 30
0.0
  9
$PUCSXDIR
 10
1.0
 20
0.0
 30
0.0
  9
$PUCSYDIR
 10
0.0
 20
1.0
 30
0.0
  9
$USERI1
 70
     0
  9
$USERI2
 70
     0
  9
$USERI3
 70
     0
  9
$USERI4
 70
     0
  9
$USERI5
 70
     0
  9
$USERR1
 40
0.0
  9
$USERR2
 40
0.0
  9
$USERR3
 40
0.0
  9
$USERR4
 40
0.0
  9
$USERR5
 40
0.0
  9
$WORLDVIEW
 70
     1
  9
$SHADEDGE
 70
     3
  9
$SHADEDIF
 70
    70
  9
$TILEMODE
 70
     1
  9
$MAXACTVP
 70
    64
  9
$PLIMCHECK
 70
     0
  9
$PEXTMIN
 10
1.0000000000000000E+020
 20
1.0000000000000000E+020
 30
1.0000000000000000E+020
  9
$PEXTMAX
 10
-1.0000000000000000E+020
 20
-1.0000000000000000E+020
 30
-1.0000000000000000E+020
  9
$PLIMMIN
 10
0.0
 20
0.0
  9
$PLIMMAX
 10
420.0
 20
297.0
  9
$UNITMODE
 70
     0
  9
$VISRETAIN
 70
     1
  9
$PLINEGEN
 70
     0
  9
$PSLTSCALE
 70
     1
  0
ENDSEC
  0
SECTION
  2
TABLES
  0
TABLE
  2
VPORT
 70
     1
  0
VPORT
  2
*ACTIVE
 70
     0
 10
0.0
 20
0.0
 11
1.0
 21
1.0
 12
410.73124891680339
 22
404.1440915742387
 13
0.0
 23
0.0
 14
7.5
 24
7.5
 15
30.0
 25
30.0
 16
0.0
 26
0.0
 36
1.0
 17
0.0
 27
0.0
 37
0.0
 40
434.94719324087981
 41
1.7571592210767459
 42
50.0
 43
0.0
 44
0.0
 50
0.0
 51
0.0
 71
     0
 72
   100
 73
     1
 74
     3
 75
     0
 76
     0
 77
     0
 78
     0
  0
ENDTAB
  0
TABLE
  2
LTYPE
 70
    27
  0
LTYPE
  2
CONTINUOUS
 70
     0
  3
Solid line
 72
    65
 73
     0
 40
0.0
  0
LTYPE
  2
AM_ISO02W050
 70
     0
  3
__ __ __ __ __ __ __ __ __ __ __ __ __ __ __
 72
    65
 73
     2
 40
7.5
 49
6.0
 49
-1.5
  0
LTYPE
  2
AM_ISO08W050
 70
     0
  3
____ . ____ . ____ . ____ . ____ . ____ . ____
 72
    65
 73
     4
 40
18.0
 49
12.0
 49
-1.5
 49
3.0
 49
-1.5
  0
LTYPE
  2
AM_ISO09W050
 70
     0
  3
_____ . . _____ . . _____ . . ____ .. ____
 72
    65
 73
     6
 40
22.5
 49
12.0
 49
-1.5
 49
3.0
 49
-1.5
 49
3.0
 49
-1.5
  0
LTYPE
  2
AMCONSTR
 70
     0
  3
_______________________
 72
    65
 73
     2
 40
9999.0
 49
9999.0
 49
0.0
  0
LTYPE
  2
AM_ISO08W050X2
 70
     0
  3
__ . __ . __ . __ . __ . __
 72
    65
 73
     4
 40
9.0
 49
6.0
 49
-0.75
 49
1.5
 49
-0.75
  0
LTYPE
  2
AM_ISO02W050X2
 70
     0
  3
 _ _ _ _ _ _ _ _ _ _ _ _
 72
    65
 73
     2
 40
3.75
 49
3.0
 49
-0.75
  0
LTYPE
  2
AMZIGZAG
 70
     0
  3
/\/-/\/-/\/-/\/-/\/-/\/
 72
    65
 73
     2
 40
11.0001
 49
0.0001
 49
-11.0
  0
LTYPE
  2
ACISOWELD
 70
     0
  3
_ _ _ _ _
 72
    65
 73
     2
 40
2.0
 49
2.0
 49
-1.0
  0
LTYPE
  2
ACISOTGB
 70
     0
  3
__ . . __ . .
 72
    65
 73
     6
 40
9.0
 49
4.0
 49
-1.0
 49
1.0
 49
-1.0
 49
1.0
 49
-1.0
  0
LTYPE
  2
ACISOTGL
 70
     0
  3
_ _ _ _ _
 72
    65
 73
     2
 40
3.0
 49
2.0
 49
-1.0
  0
LTYPE
  2
CENTER
 70
     0
  3
__ . __
 72
    65
 73
     4
 40
7.0
 49
4.0
 49
-1.0
 49
1.0
 49
-1.0
  0
LTYPE
  2
HIDDEN
 70
     0
  3
Hidden __ __ __ __ __ __ __ __ __ __ __ __ __ _
 72
    65
 73
     2
 40
9.5249999999999986
 49
6.3499999999999979
 49
-3.174999999999998
  0
LTYPE
  2
PHANTOM2
 70
     0
  3
Phantom (.5x) ___ _ _ ___ _ _ ___ _ _ ___ _ _
 72
    65
 73
     6
 40
31.75
 49
15.875
 49
-3.174999999999998
 49
3.174999999999998
 49
-3.174999999999998
 49
3.174999999999998
 49
-3.174999999999998
  0
LTYPE
  2
ACANSTGBM
 70
     0
  3
__ . . __ . .
 72
    65
 73
     6
 40
9.0
 49
4.0
 49
-1.0
 49
1.0
 49
-1.0
 49
1.0
 49
-1.0
  0
LTYPE
  2
ACANSTGLM
 70
     0
  3
_ _ _ _ _
 72
    65
 73
     2
 40
3.0
 49
2.0
 49
-1.0
  0
LTYPE
  2
GEN7
 70
     0
  3
____ . ____ . ____ . ____ . ____ . ____ . ____
 72
    65
 73
     4
 40
14.25
 49
9.75
 49
-1.5
 49
1.5
 49
-1.5
  0
LTYPE
  2
GEN3B
 70
     0
  3
 - - - - -
 72
    65
 73
     2
 40
1.0
 49
0.5
 49
-0.5
  0
LTYPE
  2
GEN7A
 70
     0
  3
__ . __ . __
 72
    65
 73
     4
 40
7.375
 49
4.75
 49
-0.875
 49
0.875
 49
-0.875
  0
LTYPE
  2
ACJISTGB
 70
     0
  3
__ . . __ . .
 72
    65
 73
     6
 40
9.0
 49
4.0
 49
-1.0
 49
1.0
 49
-1.0
 49
1.0
 49
-1.0
  0
LTYPE
  2
ACJISTGL
 70
     0
  3
_ _ _ _ _
 72
    65
 73
     2
 40
3.0
 49
2.0
 49
-1.0
  0
LTYPE
  2
CENTER2
 70
     0
  3
Center (.5x) ___ _ ___ _ ___ _ ___ _ ___ _ ___
 72
    65
 73
     4
 40
1.125
 49
0.75
 49
-0.125
 49
0.125
 49
-0.125
  0
LTYPE
  2
HIDDEN2
 70
     0
  3
Hidden (.5x) _ _ _ _ _ _ _ _ _ _ _ _ _ _ _ _ _
 72
    65
 73
     2
 40
0.1875
 49
0.125
 49
-0.0625
  0
LTYPE
  2
AMZIGZAG2
 70
     0
  3
/\/-/\/-/\/-/\/-/\/-/\/
 72
    65
 73
     2
 40
0.4401
 49
0.0001
 49
-0.4400000000000001
  0
LTYPE
  2
ACANSTGB
 70
     0
  3
__ . . __ . .
 72
    65
 73
     6
 40
0.35433070866
 49
0.15748031496
 49
-0.03937007874
 49
0.03937007874
 49
-0.03937007874
 49
0.03937007874
 49
-0.03937007874
  0
LTYPE
  2
ACANSTGL
 70
     0
  3
_ _ _ _ _
 72
    65
 73
     2
 40
0.11811023622
 49
0.07874015748
 49
-0.03937007874
  0
ENDTAB
  0
TABLE
  2
LAYER
 70
     8
  0
LAYER
  2
0
 70
     0
 62
     7
  6
CONTINUOUS
  0
LAYER
  2
AM_0
 70
     0
 62
     7
  6
CONTINUOUS
  0
LAYER
  2
AM_5
 70
     0
 62
     2
  6
CONTINUOUS
  0
LAYER
  2
DEFPOINTS
 70
     0
 62
     7
  6
CONTINUOUS
  0
LAYER
  2
ｶｸﾚｾﾝ2
 70
     0
 62
     3
  6
GEN3B
  0
LAYER
  2
ﾁｭｳｼﾝｾﾝ
 70
     0
 62
     1
  6
GEN7
  0
LAYER
  2
ﾁｭｳｼﾝｾﾝ1
 70
     0
 62
     1
  6
GEN7A
  0
LAYER
  2
AM_0N
 70
     0
 62
     7
  6
CONTINUOUS
  0
ENDTAB
  0
TABLE
  2
STYLE
 70
    10
  0
STYLE
  2
STANDARD
 70
     0
 40
0.0
 41
0.8299999999999999
 50
0.0
 71
     0
 42
2.5
  3
txt.shx
  4
bigfont.shx
  0
STYLE
  2
ANNOTATIVE
 70
     0
 40
0.0
 41
1.0
 50
0.0
 71
     0
 42
0.2
  3
txt
  4

  0
STYLE
  2

 70
     1
 40
0.0
 41
1.0
 50
0.0
 71
     0
 42
2.5
  3
ltypeshp.shx
  4

  0
STYLE
  2
ACISOTS
 70
     0
 40
1.0
 41
1.0
 50
0.0
 71
     0
 42
2.5
  3
isocp.shx
  4
extfont.shx
  0
STYLE
  2
ACISOGDT
 70
     0
 40
0.0
 41
1.0
 50
0.0
 71
     0
 42
2.5
  3
amgdt.shx
  4

  0
STYLE
  2
ACANSTS
 70
     0
 40
1.0
 41
1.0
 50
0.0
 71
     0
 42
2.5
  3
romans.shx
  4
bigfont.shx
  0
STYLE
  2
ACANSGDT
 70
     0
 40
0.0
 41
1.0
 50
0.0
 71
     0
 42
2.5
  3
amgdt.shx
  4

  0
STYLE
  2
ACJISTS
 70
     0
 40
1.0
 41
1.0
 50
0.0
 71
     0
 42
2.5
  3
isocp.shx
  4
bigfont.shx
  0
STYLE
  2
ACJISGDT
 70
     0
 40
0.0
 41
1.0
 50
0.0
 71
     0
 42
2.5
  3
amgdt.shx
  4

  0
STYLE
  2

 70
     1
 40
0.0
 41
1.0
 50
0.0
 71
     0
 42
2.5
  3
genltshp.shx
  4

  0
ENDTAB
  0
TABLE
  2
VIEW
 70
     6
  0
VIEW
  2
AM_VIEW1
 70
     0
 40
277.50000000000011
 10
249.64779005524869
 20
416.25
 41
499.29558011049721
 11
0.0
 21
0.0
 31
1.0
 12
0.0
 22
0.0
 32
0.0
 42
50.0
 43
0.0
 44
0.0
 50
0.0
 71
     0
  0
VIEW
  2
AM_VIEW2
 70
     0
 40
277.50000000000011
 10
603.85220994475117
 20
416.25
 41
499.29558011049721
 11
0.0
 21
0.0
 31
1.0
 12
0.0
 22
0.0
 32
0.0
 42
50.0
 43
0.0
 44
0.0
 50
0.0
 71
     0
  0
VIEW
  2
AM_VIEW3
 70
     0
 40
277.50000000000011
 10
249.64779005524869
 20
138.75
 41
499.29558011049721
 11
0.0
 21
0.0
 31
1.0
 12
0.0
 22
0.0
 32
0.0
 42
50.0
 43
0.0
 44
0.0
 50
0.0
 71
     0
  0
VIEW
  2
AM_VIEW4
 70
     0
 40
277.50000000000011
 10
603.85220994475117
 20
138.75
 41
499.29558011049721
 11
0.0
 21
0.0
 31
1.0
 12
0.0
 22
0.0
 32
0.0
 42
50.0
 43
0.0
 44
0.0
 50
0.0
 71
     0
  0
VIEW
  2
AM_VIEW5
 70
     0
 40
277.50000000000011
 10
426.75
 20
277.50000000000011
 41
499.2955801104971
 11
0.0
 21
0.0
 31
1.0
 12
0.0
 22
0.0
 32
0.0
 42
50.0
 43
0.0
 44
0.0
 50
0.0
 71
     0
  0
VIEW
  2
AM_VIEW6
 70
     0
 40
554.99445000000014
 10
426.75
 20
277.5
 41
998.5811743093924
 11
0.0
 21
0.0
 31
1.0
 12
0.0
 22
0.0
 32
0.0
 42
50.0
 43
0.0
 44
0.0
 50
0.0
 71
     0
  0
ENDTAB
  0
TABLE
  2
UCS
 70
     0
  0
ENDTAB
  0
TABLE
  2
APPID
 70
    98
  0
APPID
  2
ACAD
 70
     0
  0
APPID
  2
ACADANNOTATIVE
 70
     0
  0
APPID
  2
MCAD_NO_VIS
 70
     0
  0
APPID
  2
ACAD_TEMP_GRAPHIC
 70
     0
  0
APPID
  2
ACATTRIBSERVICES
 70
     0
  0
APPID
  2
GENIUS_GENREC_14
 70
     0
  0
APPID
  2
GENIUS_GENOBJ-N-REC_13
 70
     0
  0
APPID
  2
GENIUS_GENODEF_13
 70
     0
  0
APPID
  2
GENIUS_GENOLIS_13
 70
     0
  0
APPID
  2
GENIUS_GENOBJ-N-TIT_13
 70
     0
  0
APPID
  2
GENIUS_GENOENT_13
 70
     0
  0
APPID
  2
GENIUS_GENTITLE_13
 70
     0
  0
APPID
  2
GENIUS_GENOREF_13
 70
     0
  0
APPID
  2
GENIUS_GENSCREG_15
 70
     0
  0
APPID
  2
GENIUS_GENOBJ-N-SDF_13
 70
     0
  0
APPID
  2
GENIUS_GENFIL_13
 70
     0
  0
APPID
  2
GENIUS_GENOBJ-N-CHA_13
 70
     0
  0
APPID
  2
GENIUS_GENDTOL_13
 70
     0
  0
APPID
  2
GENIUS_GENOBJ-N-FIL_13
 70
     0
  0
APPID
  2
AD_DRAW
 70
     0
  0
APPID
  2
DESIGNERASSEMBLIES
 70
     0
  0
APPID
  2
ASURF_PCURVE_APPNAME
 70
     0
  0
APPID
  2
GENIUS_GE3SECT_13
 70
     0
  0
APPID
  2
GENIUS_GENCFG_13
 70
     0
  0
APPID
  2
GENIUS_GE3CFG0_13
 70
     0
  0
APPID
  2
GENIUS_GENCFG0_13
 70
     0
  0
APPID
  2
GENIUS_GENCFG1_13
 70
     0
  0
APPID
  2
GENIUS_GENCFG2_13
 70
     0
  0
APPID
  2
GENIUS_GENCFG3_13
 70
     0
  0
APPID
  2
GENIUS_GENCFG4_13
 70
     0
  0
APPID
  2
GENIUS_GEVCFG0_13
 70
     0
  0
APPID
  2
GENIUS_GENHINW_13
 70
     0
  0
APPID
  2
GENIUS_FIRSTVISTXT_14
 70
     0
  0
APPID
  2
GENIUS_GENOBJ-N-LEADER_13
 70
     0
  0
APPID
  2
GEV_VCCNULL_SWITCH_OFF
 70
     0
  0
APPID
  2
GENIUS_GEFCFG0_13
 70
     0
  0
APPID
  2
GENIUS_GENZVEED_13
 70
     0
  0
APPID
  2
GENIUS_GENSCREG_13
 70
     0
  0
APPID
  2
GENIUS_DUMCFG0_13
 70
     0
  0
APPID
  2
GEVID936201362
 70
     0
  0
APPID
  2
GEVDC
 70
     0
  0
APPID
  2
GEVCON
 70
     0
  0
APPID
  2
VCC
 70
     0
  0
APPID
  2
GEVPT
 70
     0
  0
APPID
  2
GEVIT
 70
     0
  0
APPID
  2
GENBH
 70
     0
  0
APPID
  2
GEVMK
 70
     0
  0
APPID
  2
GENIUS_GENBH_13
 70
     0
  0
APPID
  2
GENIUS_GENOBJ-NBEHI-BHF_13
 70
     0
  0
APPID
  2
GENIUS_GENOBJ-NBEHI-BHB_13
 70
     0
  0
APPID
  2
GENIUS_GENOBJ-F-DESC_13
 70
     0
  0
APPID
  2
GENIUS_GEFDESC_14
 70
     0
  0
APPID
  2
GENIUS_GENOBJ-F-PART_13
 70
     0
  0
APPID
  2
GENIUS_GEFSTDP_13
 70
     0
  0
APPID
  2
GENIUS_GEFPARTINS_13
 70
     0
  0
APPID
  2
GENIUS_GENTRA_14
 70
     0
  0
APPID
  2
GENIUS_GENINF13_13
 70
     0
  0
APPID
  2
GENIUS_GENOBJ-N-INFOPT_13
 70
     0
  0
APPID
  2
GENIUS_GENOBJ-N-RSSYM_13
 70
     0
  0
APPID
  2
GENIUS_GENSYMENT_13
 70
     0
  0
APPID
  2
GENIUS_GENSCSYM_13
 70
     0
  0
APPID
  2
GENIUS_GEFINFNAM_13
 70
     0
  0
APPID
  2
GENIUS_GENOBJ-N-CEN_13
 70
     0
  0
APPID
  2
GENIUS_GENOBJ-N-CRS_13
 70
     0
  0
APPID
  2
GENIUS_GENOBJ-N-CRC_13
 70
     0
  0
APPID
  2
GENIUS_GENCRC_14
 70
     0
  0
APPID
  2
GEVID942827039
 70
     0
  0
APPID
  2
GEVID942827040
 70
     0
  0
APPID
  2
GEVID942827041
 70
     0
  0
APPID
  2
GENIUS_GENOBJ-F-SCPASSM_13
 70
     0
  0
APPID
  2
GENIUS_GENDIMSH_14
 70
     0
  0
APPID
  2
GEVID942827042
 70
     0
  0
APPID
  2
GEVID946020473
 70
     0
  0
APPID
  2
GEVID946020474
 70
     0
  0
APPID
  2
GEVID946020475
 70
     0
  0
APPID
  2
GENIUS_GENOBJ-N-HTC_13
 70
     0
  0
APPID
  2
GENIUS_GENHATCH_13
 70
     0
  0
APPID
  2
GEVID948854295
 70
     0
  0
APPID
  2
GEVID939402019
 70
     0
  0
APPID
  2
GEVID952919491
 70
     0
  0
APPID
  2
GEVID952919492
 70
     0
  0
APPID
  2
GENIUS_GEFWELD_13
 70
     0
  0
APPID
  2
GENIUS_GENOBJ-F-WELS_13
 70
     0
  0
APPID
  2
GEVID952919493
 70
     0
  0
APPID
  2
GENIUS_GENOBJ-N-RSBK_13
 70
     0
  0
APPID
  2
GENIUS_GENOBJ-N-LIB_13
 70
     0
  0
APPID
  2
GENIUS_GENSCALE_13
 70
     0
  0
APPID
  2
GEVID986376691
 70
     0
  0
APPID
  2
DCO15
 70
     0
  0
APPID
  2
ACADM_DIM_EDIT
 70
     0
  0
APPID
  2
AMDT_DM_ADJ
 70
     0
  0
APPID
  2
ACAD_PSEXT
 70
     0
  0
APPID
  2
ACAD_DSTYLE_DIMJAG
 70
     0
  0
APPID
  2
ACAD_DSTYLE_DIMBREAK
 70
     0
  0
APPID
  2
ACAD_NAV_VCDISPLAY
 70
     0
  0
APPID
  2
ACADANNOPO
 70
     0
  0
APPID
  2
ACAD_EXEMPT_FROM_CAD_STANDARDS
 70
     0
  0
APPID
  2
ACAD_MLEADERVER
 70
     0
  0
ENDTAB
  0
TABLE
  2
DIMSTYLE
 70
    22
  0
DIMSTYLE
  2
STANDARD
 70
     0
  3

  4

  5

  6

  7

 40
1.0
 41
0.18
 42
0.0625
 43
0.38
 44
0.18
 45
0.0
 46
0.0
 47
0.0
 48
0.0
140
0.18
141
0.09
142
0.0
143
25.399999999999999
144
1.0
145
0.0
146
1.0
147
0.09
 71
     0
 72
     0
 73
     1
 74
     1
 75
     0
 76
     0
 77
     0
 78
     0
170
     0
171
     2
172
     0
173
     0
174
     0
175
     0
176
     0
177
     0
178
     0
  0
DIMSTYLE
  2
ANNOTATIVE
 70
     0
  3

  4

  5

  6

  7

 40
1.0
 41
0.18
 42
0.0625
 43
0.38
 44
0.18
 45
0.0
 46
0.0
 47
0.0
 48
0.0
140
0.18
141
0.09
142
0.0
143
25.399999999999999
144
1.0
145
0.0
146
1.0
147
0.09
 71
     0
 72
     0
 73
     1
 74
     1
 75
     0
 76
     0
 77
     0
 78
     0
170
     0
171
     2
172
     0
173
     0
174
     0
175
     0
176
     0
177
     0
178
     0
  0
DIMSTYLE
  2
AM_ISO
 70
     0
  3

  4
"
  5

  6

  7

 40
1.0
 41
2.5
 42
1.0
 43
8.0
 44
0.6
 45
0.0
 46
0.0
 47
0.1
 48
0.1
140
2.5
141
0.0
142
0.0
143
0.0393701
144
1.0
145
0.0
146
0.71
147
0.8
 71
     0
 72
     0
 73
     0
 74
     0
 75
     0
 76
     0
 77
     1
 78
     8
170
     0
171
     2
172
     1
173
     0
174
     0
175
     0
176
   256
177
   256
178
     4
  0
DIMSTYLE
  2
AM_ISO$3
 70
     0
  3

  4
"
  5

  6

  7

 40
1.0
 41
2.5
 42
1.0
 43
8.0
 44
0.6
 45
0.0
 46
0.0
 47
0.1
 48
0.1
140
2.5
141
0.0
142
0.0
143
0.0393701
144
1.0
145
0.0
146
0.71
147
0.8
 71
     0
 72
     0
 73
     0
 74
     1
 75
     0
 76
     0
 77
     1
 78
     8
170
     0
171
     2
172
     0
173
     0
174
     0
175
     0
176
   256
177
   256
178
     4
  0
DIMSTYLE
  2
AM_ISO$4
 70
     0
  3

  4
"
  5

  6

  7

 40
1.0
 41
2.5
 42
1.0
 43
8.0
 44
0.6
 45
0.0
 46
0.0
 47
0.1
 48
0.1
140
2.5
141
0.0
142
0.0
143
0.0393701
144
1.0
145
0.0
146
0.71
147
0.8
 71
     0
 72
     0
 73
     0
 74
     1
 75
     0
 76
     0
 77
     1
 78
     8
170
     0
171
     2
172
     0
173
     0
174
     0
175
     0
176
   256
177
   256
178
     4
  0
DIMSTYLE
  2
AM_ISO$6
 70
     0
  3

  4
"
  5

  6

  7

 40
1.0
 41
2.5
 42
1.0
 43
8.0
 44
0.6
 45
0.0
 46
0.0
 47
0.1
 48
0.1
140
2.5
141
0.0
142
0.0
143
0.0393701
144
1.0
145
0.0
146
0.71
147
0.8
 71
     0
 72
     0
 73
     0
 74
     0
 75
     0
 76
     0
 77
     0
 78
     8
170
     0
171
     2
172
     1
173
     0
174
     0
175
     0
176
   256
177
   256
178
     4
  0
DIMSTYLE
  2
AM_ISO$7
 70
     0
  3

  4
"
  5

  6

  7

 40
1.0
 41
2.5
 42
1.0
 43
8.0
 44
0.6
 45
0.0
 46
0.0
 47
0.1
 48
0.1
140
2.5
141
0.0
142
0.0
143
0.0393701
144
1.0
145
0.0
146
0.71
147
0.8
 71
     0
 72
     0
 73
     0
 74
     0
 75
     0
 76
     0
 77
     1
 78
     8
170
     0
171
     2
172
     1
173
     0
174
     0
175
     0
176
   256
177
   256
178
     4
  0
DIMSTYLE
  2
AM_ISO$SF
 70
     0
  3

  4
"
  5

  6

  7

 40
1.0
 41
2.5
 42
1.0
 43
10.0
 44
1.0
 45
0.0
 46
0.0
 47
0.1
 48
0.1
140
3.5
141
0.0
142
0.0
143
0.0393701
144
1.0
145
0.0
146
0.71
147
1.5
 71
     0
 72
     0
 73
     0
 74
     0
 75
     1
 76
     1
 77
     1
 78
     8
170
     0
171
     2
172
     1
173
     0
174
     0
175
     0
176
   256
177
   256
178
     2
  0
DIMSTYLE
  2
AM_ISO$SH
 70
     0
  3

  4
"
  5

  6

  7

 40
1.0
 41
2.5
 42
1.0
 43
10.0
 44
1.0
 45
0.0
 46
0.0
 47
0.1
 48
0.1
140
3.5
141
0.0
142
0.0
143
0.0393701
144
2.0
145
0.0
146
0.71
147
1.5
 71
     0
 72
     0
 73
     0
 74
     0
 75
     1
 76
     1
 77
     1
 78
     8
170
     0
171
     2
172
     1
173
     1
174
     0
175
     0
176
   256
177
   256
178
     2
  0
DIMSTYLE
  2
AM_JIS
 70
     0
  3

  4
"
  5

  6

  7

 40
1.0
 41
2.5
 42
1.0
 43
7.0
 44
1.0
 45
0.0
 46
0.0
 47
0.1
 48
0.1000000001
140
2.5
141
0.0
142
0.0
143
0.0393701
144
1.0
145
0.0
146
0.71
147
1.0
 71
     0
 72
     0
 73
     0
 74
     0
 75
     0
 76
     0
 77
     3
 78
     8
170
     0
171
     2
172
     1
173
     0
174
     0
175
     0
176
   256
177
   256
178
     4
  0
DIMSTYLE
  2
AM_JIS$3
 70
     0
  3

  4
"
  5

  6

  7

 40
1.0
 41
2.5
 42
1.0
 43
7.0
 44
1.0
 45
0.0
 46
0.0
 47
0.1
 48
0.1000000001
140
2.5
141
0.0
142
0.0
143
0.0393701
144
1.0
145
0.0
146
0.71
147
1.0
 71
     0
 72
     0
 73
     0
 74
     1
 75
     0
 76
     0
 77
     3
 78
     8
170
     0
171
     2
172
     0
173
     0
174
     0
175
     0
176
   256
177
   256
178
     4
  0
DIMSTYLE
  2
AM_JIS$4
 70
     0
  3

  4
"
  5

  6

  7

 40
1.0
 41
2.5
 42
1.0
 43
7.0
 44
1.0
 45
0.0
 46
0.0
 47
0.1
 48
0.1000000001
140
2.5
141
0.0
142
0.0
143
0.0393701
144
1.0
145
0.0
146
0.71
147
1.0
 71
     0
 72
     0
 73
     0
 74
     0
 75
     0
 76
     0
 77
     3
 78
     8
170
     0
171
     2
172
     0
173
     0
174
     0
175
     0
176
   256
177
   256
178
     4
  0
DIMSTYLE
  2
AM_JIS$6
 70
     0
  3

  4
"
  5

  6

  7

 40
1.0
 41
2.5
 42
1.0
 43
7.0
 44
1.0
 45
0.0
 46
0.0
 47
0.1
 48
0.1000000001
140
2.5
141
0.0
142
0.0
143
0.0393701
144
1.0
145
0.0
146
0.71
147
1.0
 71
     0
 72
     0
 73
     0
 74
     0
 75
     0
 76
     0
 77
     0
 78
     8
170
     0
171
     2
172
     1
173
     0
174
     0
175
     0
176
   256
177
   256
178
     4
  0
DIMSTYLE
  2
AM_JIS$7
 70
     0
  3

  4
"
  5

  6

  7

 40
1.0
 41
2.5
 42
1.0
 43
7.0
 44
1.0
 45
0.0
 46
0.0
 47
0.1
 48
0.1000000001
140
2.5
141
0.0
142
0.0
143
0.0393701
144
1.0
145
0.0
146
0.71
147
1.0
 71
     0
 72
     0
 73
     0
 74
     0
 75
     0
 76
     0
 77
     3
 78
     8
170
     0
171
     2
172
     1
173
     0
174
     0
175
     0
176
   256
177
   256
178
     4
  0
DIMSTYLE
  2
AM_JIS$SF
 70
     0
  3

  4
"
  5

  6

  7

 40
1.0
 41
2.5
 42
1.0
 43
10.0
 44
1.0
 45
0.0
 46
0.0
 47
0.1
 48
0.1
140
3.5
141
0.0
142
0.0
143
0.0393701
144
1.0
145
0.0
146
0.71
147
1.5
 71
     0
 72
     0
 73
     0
 74
     0
 75
     1
 76
     1
 77
     3
 78
     8
170
     0
171
     2
172
     1
173
     0
174
     0
175
     0
176
   256
177
   256
178
     4
  0
DIMSTYLE
  2
AM_JIS$SH
 70
     0
  3

  4
"
  5

  6

  7

 40
1.0
 41
2.5
 42
1.0
 43
10.0
 44
1.0
 45
0.0
 46
0.0
 47
0.1
 48
0.1
140
3.5
141
0.0
142
0.0
143
0.0393701
144
1.0
145
0.0
146
0.71
147
1.5
 71
     0
 72
     0
 73
     0
 74
     0
 75
     1
 76
     0
 77
     3
 78
     8
170
     0
171
     2
172
     1
173
     1
174
     0
175
     0
176
   256
177
   256
178
     4
  0
DIMSTYLE
  2
AM_ANSI
 70
     0
  3

  4
mm
  5

  6

  7

 40
1.0
 41
0.12
 42
0.05
 43
0.5
 44
0.1
 45
0.0
 46
0.0
 47
0.1
 48
0.1
140
0.12
141
0.0
142
0.0
143
25.399999999999999
144
1.0
145
0.0
146
0.71
147
0.06
 71
     0
 72
     0
 73
     1
 74
     1
 75
     0
 76
     0
 77
     0
 78
     7
170
     0
171
     2
172
     0
173
     0
174
     0
175
     0
176
   256
177
   256
178
     2
  0
DIMSTYLE
  2
AM_ANSI$3
 70
     0
  3

  4
mm
  5

  6

  7

 40
1.0
 41
0.12
 42
0.05
 43
0.5
 44
0.1
 45
0.0
 46
0.0
 47
0.1
 48
0.1
140
0.12
141
0.0
142
0.0
143
25.399999999999999
144
1.0
145
0.0
146
0.71
147
0.06
 71
     0
 72
     0
 73
     1
 74
     1
 75
     0
 76
     0
 77
     0
 78
     7
170
     0
171
     2
172
     0
173
     0
174
     0
175
     0
176
   256
177
   256
178
     2
  0
DIMSTYLE
  2
AM_ANSI$4
 70
     0
  3

  4
mm
  5

  6

  7

 40
1.0
 41
0.12
 42
0.05
 43
0.5
 44
0.1
 45
0.0
 46
0.0
 47
0.1
 48
0.1
140
0.12
141
0.0
142
0.0
143
25.399999999999999
144
1.0
145
0.0
146
0.71
147
0.06
 71
     0
 72
     0
 73
     1
 74
     1
 75
     0
 76
     0
 77
     0
 78
     7
170
     0
171
     2
172
     0
173
     0
174
     0
175
     0
176
   256
177
   256
178
     2
  0
DIMSTYLE
  2
AM_ANSI$7
 70
     0
  3

  4
mm
  5

  6

  7

 40
1.0
 41
0.12
 42
0.05
 43
0.5
 44
0.1
 45
0.0
 46
0.0
 47
0.1
 48
0.1
140
0.12
141
0.0
142
0.0
143
25.399999999999999
144
1.0
145
0.0
146
0.71
147
0.06
 71
     0
 72
     0
 73
     1
 74
     1
 75
     0
 76
     0
 77
     0
 78
     7
170
     0
171
     2
172
     0
173
     0
174
     0
175
     0
176
   256
177
   256
178
     2
  0
DIMSTYLE
  2
AM_ANSI$SF
 70
     0
  3

  4
mm
  5

  6

  7

 40
1.0
 41
0.12
 42
0.05
 43
0.5
 44
0.1
 45
0.0
 46
0.0
 47
0.1
 48
0.1
140
0.12
141
0.0
142
0.0
143
25.399999999999999
144
1.0
145
0.0
146
0.71
147
0.06
 71
     0
 72
     0
 73
     1
 74
     1
 75
     1
 76
     1
 77
     0
 78
     7
170
     0
171
     2
172
     0
173
     0
174
     0
175
     0
176
   256
177
   256
178
     2
  0
DIMSTYLE
  2
AM_ANSI$SH
 70
     0
  3

  4
mm
  5

  6
GENAXEH
  7

 40
1.0
 41
0.12
 42
0.05
 43
0.5
 44
0.1
 45
0.0
 46
0.0
 47
0.1
 48
0.1
140
0.12
141
0.0
142
0.0
143
25.399999999999999
144
1.0
145
0.0
146
0.71
147
0.06
 71
     0
 72
     0
 73
     1
 74
     1
 75
     1
 76
     1
 77
     0
 78
     7
170
     0
171
     2
172
     0
173
     1
174
     0
175
     0
176
   256
177
   256
178
     2
  0
ENDTAB
  0
ENDSEC
  0
SECTION
  2
BLOCKS
  0
BLOCK
  8
0
  2
$MODEL_SPACE
 70
     0
 10
0.0
 20
0.0
 30
0.0
  3
$MODEL_SPACE
  1

  0
ENDBLK
  5
58B4
  8
0
  0
BLOCK
 67
     1
  8
0
  2
$PAPER_SPACE
 70
     0
 10
0.0
 20
0.0
 30
0.0
  3
$PAPER_SPACE
  1

  0
ENDBLK
  5
58B0
 67
     1
  8
0
  0
BLOCK
  8
0
  2
GENAXEH
 70
     0
 10
0.0
 20
0.0
 30
0.0
  3
GENAXEH
  1

  0
LINE
  5
73
  8
0
 10
-1.0
 20
0.0
 30
0.0
 11
1.0
 21
0.0
 31
0.0
  0
ENDBLK
  5
75
  8
0
  0
BLOCK
  8
0
  2
_OPEN30
 70
     0
 10
0.0
 20
0.0
 30
0.0
  3
_OPEN30
  1

  0
LINE
  5
31A
  8
0
 62
     0
 10
-1.0
 20
0.26794919
 30
0.0
 11
0.0
 21
0.0
 31
0.0
  0
LINE
  5
31B
  8
0
 62
     0
 10
0.0
 20
0.0
 30
0.0
 11
-1.0
 21
-0.26794919
 31
0.0
  0
LINE
  5
31C
  8
0
 62
     0
 10
0.0
 20
0.0
 30
0.0
 11
-1.0
 21
0.0
 31
0.0
  0
ENDBLK
  5
31E
  8
0
  0
BLOCK
  8
0
  2
_NONE
 70
     0
 10
0.0
 20
0.0
 30
0.0
  3
_NONE
  1

  0
ENDBLK
  5
579
  8
0
  0
BLOCK
  8
0
  2
*U5
 70
     1
 10
0.0
 20
0.0
 30
0.0
  3
*U5
  1

  0
TEXT
  5
57BF
  8
AM_0
 10
565.33314332952102
 20
543.69286533994978
 30
0.0
 40
10.0
  1
ＶＸ０４－００５～０１０ＢＷ
 41
0.8299999999999999
  0
ENDBLK
  5
57C1
  8
0
  0
BLOCK
  8
0
  2
_ACMFILLEDHALF
 70
     0
 10
0.0
 20
0.0
 30
0.0
  3
_ACMFILLEDHALF
  1

  0
TRACE
  5
59B4
  8
AM_0
 62
     0
 10
-0.8
 20
0.0
 30
0.0
 11
-1.0
 21
0.166666666
 31
0.0
 12
0.0
 22
0.0
 32
0.0
 13
0.0
 23
0.0
 33
0.0
  0
LINE
  5
59B5
  8
AM_0
 62
     0
 10
-1.0
 20
0.0
 30
0.0
 11
-0.8
 21
0.0
 31
0.0
  0
ENDBLK
  5
59B3
  8
0
  0
ENDSEC
  0
SECTION
  2
ENTITIES
  0
LINE
  5
1918
  8
AM_0
 10
417.90927507041562
 20
290.19634560798289
 30
0.0
 11
439.9093250704156
 21
290.19634560798289
 31
0.0
  0
LINE
  5
191C
  8
ﾁｭｳｼﾝｾﾝ
 10
712.55149606788655
 20
261.19634560798301
 30
0.0
 11
520.53647913489613
 21
261.19634560798301
 31
0.0
  0
LINE
  5
191D
  8
ﾁｭｳｼﾝｾﾝ
 10
600.80191419498908
 20
278.19634660798289
 30
0.0
 11
691.92096505578365
 21
278.19634660798289
 31
0.0
  0
LINE
  5
191E
  8
ﾁｭｳｼﾝｾﾝ
 10
646.36143962538654
 20
189.92884060798281
 30
0.0
 11
646.36143962538654
 21
370.76441720399731
 31
0.0
  0
LINE
  5
191F
  8
ﾁｭｳｼﾝｾﾝ
 10
93.640202598546693
 20
261.19634560798301
 30
0.0
 11
343.03086608859661
 21
261.19634560798301
 31
0.0
  0
LINE
  5
1923
  8
ﾁｭｳｼﾝｾﾝ
 10
338.5599050704156
 20
278.19634660798289
 30
0.0
 11
445.0966843203604
 21
278.19634660798289
 31
0.0
  0
LINE
  5
1924
  8
AM_0
 10
439.9093250704156
 20
268.69634560798289
 30
0.0
 11
439.9093250704156
 21
290.19634560798289
 31
0.0
  0
LINE
  5
1925
  8
AM_0
 10
415.90930507041622
 20
268.69634560798289
 30
0.0
 11
439.9093250704156
 21
268.69634560798289
 31
0.0
  0
LINE
  5
1926
  8
AM_0
 10
415.90930507041583
 20
287.69634460798289
 30
0.0
 11
439.9093250704156
 21
287.69634460798289
 31
0.0
  0
LINE
  5
1927
  8
AM_0
 10
649.36143962538654
 20
290.19634660798289
 30
0.0
 11
643.36143962538654
 21
290.19634660798289
 31
0.0
  0
LINE
  5
1928
  8
AM_0
 10
649.36143962538654
 20
284.19634660798289
 30
0.0
 11
649.36143962538654
 21
290.19634660798289
 31
0.0
  0
LINE
  5
1929
  8
AM_0
 10
643.36143962538654
 20
284.19634660798289
 30
0.0
 11
649.36143962538654
 21
284.19634660798289
 31
0.0
  0
LINE
  5
192A
  8
AM_0
 10
643.36143962538654
 20
290.19634660798289
 30
0.0
 11
643.36143962538654
 21
284.19634660798289
 31
0.0
  0
LINE
  5
192B
  8
AM_0
 10
349.90932507041572
 20
321.19636060798308
 30
0.0
 11
349.90932507041572
 21
211.1963596079828
 31
0.0
  0
LINE
  5
192C
  8
AM_0
 10
361.90932507041572
 20
305.82181060798291
 30
0.0
 11
361.90932507041572
 21
293.27480560798278
 31
0.0
  0
LINE
  5
1933
  8
AM_0
 10
701.34270362538655
 20
296.66155660798279
 30
0.0
 11
701.34270362538655
 21
302.43505360798292
 31
0.0
  0
LINE
  5
1934
  8
AM_0
 10
696.34272062538639
 20
293.77480660798278
 30
0.0
 11
701.3427186253864
 21
296.66158660798288
 31
0.0
  0
LINE
  5
1935
  8
AM_0
 10
622.25238662538652
 20
197.2184386079829
 30
0.0
 11
627.25238462538653
 21
200.10518560798289
 31
0.0
  0
LINE
  5
1936
  8
AM_0
 10
627.25236962538645
 20
200.1051706079829
 30
0.0
 11
627.25236962538645
 21
205.87870060798289
 31
0.0
  0
LINE
  5
1937
  8
AM_0
 10
627.25238462538653
 20
205.8786856079829
 30
0.0
 11
622.25238662538652
 21
208.76543560798279
 31
0.0
  0
LINE
  5
1938
  8
AM_0
 10
622.25240162538637
 20
208.76543560798279
 30
0.0
 11
617.25240062538649
 21
205.8786856079829
 31
0.0
  0
LINE
  5
1939
  8
AM_0
 10
665.47049462538655
 20
200.10518560798289
 30
0.0
 11
670.47049562538655
 21
197.2184386079829
 31
0.0
  0
LINE
  5
193A
  8
AM_0
 10
670.4705106253864
 20
197.2184386079829
 30
0.0
 11
675.47051162538651
 21
200.10518560798289
 31
0.0
  0
LINE
  5
193B
  8
AM_0
 10
691.34270462538655
 20
302.43505360798292
 30
0.0
 11
691.34270462538655
 21
296.66155660798279
 31
0.0
  0
LINE
  5
193C
  8
AM_0
 10
691.34270462538655
 20
296.66155660798279
 30
0.0
 11
696.34268762538647
 21
293.77480660798278
 31
0.0
  0
LINE
  5
193D
  8
AM_0
 10
665.47049462538655
 20
205.87870060798289
 30
0.0
 11
665.47049462538655
 21
200.1051706079829
 31
0.0
  0
LINE
  5
193E
  8
AM_0
 10
675.47049662538655
 20
200.1051706079829
 30
0.0
 11
675.47049662538655
 21
205.87870060798289
 31
0.0
  0
LINE
  5
193F
  8
AM_0
 10
696.34272062538639
 20
305.32183060798292
 30
0.0
 11
691.34271962538651
 21
302.4350836079829
 31
0.0
  0
LINE
  5
1940
  8
AM_0
 10
591.3801906253866
 20
296.66155660798279
 30
0.0
 11
596.38019162538637
 21
293.77480660798278
 31
0.0
  0
LINE
  5
1941
  8
AM_0
 10
591.3801906253866
 20
302.43505360798292
 30
0.0
 11
591.3801906253866
 21
296.66155660798279
 31
0.0
  0
LINE
  5
1942
  8
AM_0
 10
596.38019162538637
 20
305.32183060798292
 30
0.0
 11
591.3801906253866
 21
302.4350836079829
 31
0.0
  0
LINE
  5
1943
  8
AM_0
 10
601.38019262538671
 20
302.43505360798292
 30
0.0
 11
596.38019162538637
 21
305.32180060798288
 31
0.0
  0
LINE
  5
1944
  8
AM_0
 10
601.38019262538671
 20
296.66155660798279
 30
0.0
 11
601.38019262538671
 21
302.43505360798292
 31
0.0
  0
LINE
  5
1945
  8
AM_0
 10
670.4705106253864
 20
208.7654506079829
 30
0.0
 11
665.47050962538651
 21
205.87870060798289
 31
0.0
  0
LINE
  5
1946
  8
AM_0
 10
596.38019162538637
 20
293.77483660798288
 30
0.0
 11
601.38019262538671
 21
296.66158660798288
 31
0.0
  0
LINE
  5
1947
  8
AM_0
 10
675.47049662538655
 20
205.8786856079829
 30
0.0
 11
670.47049562538655
 21
208.76543560798279
 31
0.0
  0
LINE
  5
1948
  8
AM_0
 10
617.25238562538652
 20
200.10518560798289
 30
0.0
 11
622.25238662538652
 21
197.2184386079829
 31
0.0
  0
LINE
  5
1949
  8
AM_0
 10
701.34270362538655
 20
302.4350836079829
 30
0.0
 11
696.34270262538655
 21
305.32183060798292
 31
0.0
  0
LINE
  5
194A
  8
AM_0
 10
617.25238562538652
 20
205.87870060798289
 30
0.0
 11
617.25238562538652
 21
200.1051706079829
 31
0.0
  0
LINE
  5
194F
  8
AM_0
 10
361.90932507041572
 20
305.32180060798288
 30
0.0
 11
364.90932507041572
 21
305.32180060798288
 31
0.0
  0
LINE
  5
1950
  8
AM_0
 10
361.90932507041572
 20
293.77477660798291
 30
0.0
 11
364.90932507041572
 21
293.77477660798291
 31
0.0
  0
LINE
  5
1951
  8
AM_0
 10
361.90932507041572
 20
296.66152660798292
 30
0.0
 11
364.90932507041572
 21
296.66152660798292
 31
0.0
  0
LINE
  5
1952
  8
AM_0
 10
361.90932507041572
 20
302.43505360798292
 30
0.0
 11
364.90932507041572
 21
302.43505360798292
 31
0.0
  0
LINE
  5
1953
  8
AM_0
 10
365.9093150704158
 20
294.7748056079829
 30
0.0
 11
365.9093150704158
 21
304.32184060798289
 31
0.0
  0
LINE
  5
1954
  8
AM_0
 10
417.90927507041562
 20
287.69634460798289
 30
0.0
 11
417.90927507041567
 21
290.19634560798301
 31
0.0
  0
LINE
  5
1955
  8
AM_0
 10
360.90933507041558
 20
305.82181060798291
 30
0.0
 11
361.90932507041572
 21
305.82181060798291
 31
0.0
  0
LINE
  5
1956
  8
AM_0
 10
360.90933507041558
 20
293.27480560798278
 30
0.0
 11
361.90932507041572
 21
293.27480560798278
 31
0.0
  0
LINE
  5
1957
  8
AM_0
 10
402.90933507041558
 20
308.19634060798279
 30
0.0
 11
405.90933507041558
 21
308.19634060798279
 31
0.0
  0
LINE
  5
1958
  8
AM_0
 10
362.9093150704158
 20
289.82720560798288
 30
0.0
 11
386.56113507041567
 21
289.82720560798288
 31
0.0
  0
LINE
  5
1959
  8
AM_0
 10
397.90932507041572
 20
291.11376460798289
 30
0.0
 11
389.9093150704158
 21
291.11376460798289
 31
0.0
  0
LINE
  5
195A
  8
AM_0
 10
365.9093150704158
 20
304.71775060798291
 30
0.0
 11
392.9093150704158
 21
304.71775060798291
 31
0.0
  0
LINE
  5
195C
  8
AM_0
 10
408.4093250704156
 20
203.1963436079829
 30
0.0
 11
389.9093150704158
 21
203.1963436079829
 31
0.0
  0
LINE
  5
195E
  8
AM_0
 10
326.9093150704158
 20
193.19634160798279
 30
0.0
 11
326.9093150704158
 21
201.6963436079829
 31
0.0
  0
LINE
  5
195F
  8
AM_0
 10
409.9093250704156
 20
193.19634160798279
 30
0.0
 11
409.9093250704156
 21
201.6963436079829
 31
0.0
  0
LINE
  5
1960
  8
AM_0
 10
326.9093150704158
 20
193.19634160798279
 30
0.0
 11
346.9093250704156
 21
193.19634160798279
 31
0.0
  0
LINE
  5
1961
  8
AM_0
 10
349.90929507041568
 20
321.19636060798308
 30
0.0
 11
393.04014507041558
 21
320.06692060798292
 31
0.0
  0
LINE
  5
1966
  8
AM_0
 10
407.90931507041557
 20
306.1963606079828
 30
0.0
 11
407.90931507041557
 21
206.3867416079828
 31
0.0
  0
LINE
  5
1967
  8
AM_0
 10
346.24158507041562
 20
203.1963436079829
 30
0.0
 11
328.4093150704158
 21
203.1963436079829
 31
0.0
  0
LINE
  5
1968
  8
AM_0
 10
389.9093150704158
 20
193.19634160798279
 30
0.0
 11
409.9093250704156
 21
193.19634160798279
 31
0.0
  0
LINE
  5
1969
  8
AM_0
 10
346.9093250704156
 20
193.19634160798279
 30
0.0
 11
346.9093250704156
 21
193.19634160798279
 31
0.0
  0
LINE
  5
196A
  8
AM_0
 10
347.9093150704158
 20
194.1963436079829
 30
0.0
 11
388.90932507041572
 21
194.1963436079829
 31
0.0
  0
LINE
  5
196B
  8
AM_0
 10
389.9093150704158
 20
193.19634160798279
 30
0.0
 11
389.9093150704158
 21
193.19634160798279
 31
0.0
  0
LINE
  5
196C
  8
AM_0
 10
392.9093150704158
 20
224.9637526079828
 30
0.0
 11
384.90933507041581
 21
224.9637526079828
 31
0.0
  0
LINE
  5
196D
  8
AM_0
 10
397.90932507041572
 20
315.06865060798287
 30
0.0
 11
397.90932507041572
 21
229.9637686079829
 31
0.0
  0
LINE
  5
196E
  8
AM_0
 10
352.90932507041572
 20
265.94716960798291
 30
0.0
 11
352.90932507041572
 21
237.3722026079829
 31
0.0
  0
LINE
  5
196F
  8
AM_0
 10
384.90933507041581
 20
208.1963266079828
 30
0.0
 11
384.90933507041581
 21
286.11376360798289
 31
0.0
  0
LINE
  5
1970
  8
AM_0
 10
360.90933507041558
 20
309.41830060798293
 30
0.0
 11
360.90933507041558
 21
290.0345716079828
 31
0.0
  0
LINE
  5
1971
  8
AM_0
 10
352.88874507041572
 20
237.0216916079828
 30
0.0
 11
349.2210050704158
 21
205.84581760798289
 31
0.0
  0
LINE
  5
1973
  8
AM_0
 10
321.86169507041598
 20
303.80320060798289
 30
0.0
 11
360.90933507041558
 21
303.80320060798289
 31
0.0
  0
LINE
  5
1974
  8
AM_0
 10
698.3614566253865
 20
285.43175860798289
 30
0.0
 11
698.3614566253865
 21
243.19634560798289
 31
0.0
  0
LINE
  5
1975
  8
AM_0
 10
576.36145262538639
 20
203.19632860798291
 30
0.0
 11
587.10913562538667
 21
270.63884860798288
 31
0.0
  0
LINE
  5
1976
  8
AM_0
 10
688.86144062538665
 20
265.69634560798301
 30
0.0
 11
688.86144062538665
 21
206.1963436079829
 31
0.0
  0
LINE
  5
1977
  8
AM_0
 10
716.3614566253865
 20
203.1963436079829
 30
0.0
 11
716.3614566253865
 21
193.19634160798279
 31
0.0
  0
LINE
  5
1978
  8
AM_0
 10
576.36145262538639
 20
203.1963436079829
 30
0.0
 11
576.36145262538639
 21
193.19634160798279
 31
0.0
  0
LINE
  5
1979
  8
AM_0
 10
703.86144362538653
 20
203.1963436079829
 30
0.0
 11
688.36144262538653
 21
203.1963436079829
 31
0.0
  0
LINE
  5
197A
  8
AM_0
 10
676.36144262538653
 20
212.69632660798291
 30
0.0
 11
616.36143962538654
 21
212.69632660798291
 31
0.0
  0
LINE
  5
197B
  8
AM_0
 10
588.86145362538639
 20
203.1963436079829
 30
0.0
 11
604.3614546253865
 21
203.1963436079829
 31
0.0
  0
LINE
  5
197C
  8
AM_0
 10
685.36144262538653
 20
194.1963436079829
 30
0.0
 11
646.36143962538654
 21
194.1963436079829
 31
0.0
  0
LINE
  5
197D
  8
AM_0
 10
716.3614566253865
 20
193.19634160798279
 30
0.0
 11
686.3614566253865
 21
193.19634160798279
 31
0.0
  0
LINE
  5
197E
  8
AM_0
 10
607.3614546253865
 20
194.1963436079829
 30
0.0
 11
646.36143962538654
 21
194.1963436079829
 31
0.0
  0
LINE
  5
197F
  8
AM_0
 10
714.8614566253865
 20
203.1963436079829
 30
0.0
 11
703.86144362538653
 21
203.1963436079829
 31
0.0
  0
LINE
  5
1980
  8
AM_0
 10
577.86145262538651
 20
203.1963436079829
 30
0.0
 11
588.86145362538639
 21
203.1963436079829
 31
0.0
  0
LINE
  5
1981
  8
AM_0
 10
576.36145262538639
 20
193.19634160798279
 30
0.0
 11
606.3614556253865
 21
193.19634160798279
 31
0.0
  0
LINE
  5
1982
  8
AM_0
 10
606.3614556253865
 20
201.1963426079829
 30
0.0
 11
606.3614556253865
 21
193.19634160798279
 31
0.0
  0
LINE
  5
1983
  8
AM_0
 10
603.8614536253865
 20
265.69634560798301
 30
0.0
 11
603.8614536253865
 21
206.1963436079829
 31
0.0
  0
LINE
  5
1984
  8
AM_0
 10
681.36144062538665
 20
207.6963436079829
 30
0.0
 11
681.36144062538665
 21
198.6963436079829
 31
0.0
  0
LINE
  5
1985
  8
AM_0
 10
611.3614536253865
 20
207.6963436079829
 30
0.0
 11
611.3614536253865
 21
198.6963436079829
 31
0.0
  0
LINE
  5
1986
  8
AM_0
 10
716.36144162538653
 20
203.19632860798291
 30
0.0
 11
705.61379162538651
 21
270.6388186079829
 31
0.0
  0
LINE
  5
1987
  8
AM_0
 10
686.3614566253865
 20
193.19634160798279
 30
0.0
 11
686.3614566253865
 21
201.1963426079829
 31
0.0
  0
LINE
  5
1988
  8
AM_0
 10
594.3614556253865
 20
285.43175860798289
 30
0.0
 11
594.3614556253865
 21
243.19634560798289
 31
0.0
  0
LINE
  5
1989
  8
AM_0
 10
607.3614546253865
 20
195.69634360798281
 30
0.0
 11
608.3614536253865
 21
195.69634360798281
 31
0.0
  0
LINE
  5
198A
  8
AM_0
 10
685.36144262538653
 20
195.69634360798281
 30
0.0
 11
684.36144062538665
 21
195.69634360798281
 31
0.0
  0
LINE
  5
1991
  8
AM_0
 10
312.4092650704157
 20
324.69634060798279
 30
0.0
 11
316.43544507041582
 21
324.59095060798279
 31
0.0
  0
LINE
  5
1992
  8
AM_0
 10
320.40936507041579
 20
211.6963426079829
 30
0.0
 11
320.40936507041579
 21
221.20005160798291
 31
0.0
  0
LINE
  5
1993
  8
AM_0
 10
318.38313507041568
 20
200.3708116079828
 30
0.0
 11
322.35693507041577
 21
200.47487560798291
 31
0.0
  0
LINE
  5
1994
  8
AM_0
 10
317.40936507041579
 20
198.8014456079828
 30
0.0
 11
317.40936507041579
 21
209.696359607983
 31
0.0
  0
LINE
  5
1995
  8
AM_0
 10
312.40932507041572
 20
197.6963746079829
 30
0.0
 11
316.43550507041567
 21
197.80179760798291
 31
0.0
  0
LINE
  5
1996
  8
AM_0
 10
318.38313507041568
 20
322.02190060798279
 30
0.0
 11
349.90929507041568
 21
321.19639060798289
 31
0.0
  0
LINE
  5
1997
  8
AM_0
 10
322.35693507041577
 20
200.47487560798291
 30
0.0
 11
326.9093150704158
 21
200.59407760798291
 31
0.0
  0
LINE
  5
1998
  8
AM_0
 10
312.40932507041572
 20
209.696359607983
 30
0.0
 11
318.40932507041572
 21
209.696359607983
 31
0.0
  0
LINE
  5
1999
  8
AM_0
 10
312.40932507041572
 20
312.69634060798279
 30
0.0
 11
318.40932507041572
 21
312.69634060798279
 31
0.0
  0
LINE
  5
199A
  8
AM_0
 10
312.40932507041572
 20
299.19265360798289
 30
0.0
 11
318.40932507041572
 21
299.19265360798289
 31
0.0
  0
LINE
  5
199B
  8
AM_0
 10
312.40932507041572
 20
223.20003760798289
 30
0.0
 11
318.40932507041572
 21
223.20003760798289
 31
0.0
  0
LINE
  5
199C
  8
AM_0
 10
320.40936507041579
 20
301.19265460798289
 30
0.0
 11
320.40936507041579
 21
310.6963606079828
 31
0.0
  0
LINE
  5
199D
  8
AM_0
 10
317.40936507041579
 20
223.20003760798289
 30
0.0
 11
317.40936507041579
 21
299.19265360798289
 31
0.0
  0
LINE
  5
199E
  8
AM_0
 10
317.40936507041579
 20
312.69634060798279
 30
0.0
 11
317.40936507041579
 21
323.59123060798282
 31
0.0
  0
LINE
  5
199F
  8
AM_0
 10
636.3614556253865
 20
320.71906060798301
 30
0.0
 11
636.3614556253865
 21
327.19633060798287
 31
0.0
  0
LINE
  5
19A0
  8
AM_0
 10
626.36145362538639
 20
319.2739906079828
 30
0.0
 11
626.36145362538639
 21
325.83334060798279
 31
0.0
  0
LINE
  5
19A1
  8
AM_0
 10
616.36143962538654
 20
316.81939060798288
 30
0.0
 11
616.36143962538654
 21
324.11335060798291
 31
0.0
  0
LINE
  5
19A2
  8
AM_0
 10
587.2704516253865
 20
306.19630060798289
 30
0.0
 11
593.13266462538638
 21
306.19630060798289
 31
0.0
  0
LINE
  5
19A3
  8
AM_0
 10
707.04802562538646
 20
286.1963146079828
 30
0.0
 11
710.26344962538656
 21
286.1963146079828
 31
0.0
  0
LINE
  5
19A4
  8
AM_0
 10
656.3614566253865
 20
320.71906060798301
 30
0.0
 11
656.3614566253865
 21
327.19633060798287
 31
0.0
  0
LINE
  5
19A5
  8
AM_0
 10
705.45246062538638
 20
306.19630060798289
 30
0.0
 11
699.59023262538665
 21
306.19630060798289
 31
0.0
  0
LINE
  5
19A6
  8
AM_0
 10
666.3614556253865
 20
319.27396060798287
 30
0.0
 11
666.3614556253865
 21
325.83334060798279
 31
0.0
  0
LINE
  5
19A7
  8
AM_0
 10
676.36144262538653
 20
316.81939060798288
 30
0.0
 11
676.36144262538653
 21
324.11335060798291
 31
0.0
  0
LINE
  5
19A8
  8
AM_0
 10
709.29221462538635
 20
266.19634360798278
 30
0.0
 11
711.48102662538668
 21
266.19634360798278
 31
0.0
  0
LINE
  5
19A9
  8
AM_0
 10
709.8614586253866
 20
296.19631660798279
 30
0.0
 11
705.72637262538638
 21
296.19631660798279
 31
0.0
  0
LINE
  5
19AA
  8
AM_0
 10
708.17011262538654
 20
276.19634560798289
 30
0.0
 11
711.48102662538668
 21
276.19634560798289
 31
0.0
  0
LINE
  5
19AB
  8
AM_0
 10
312.40932507041572
 20
324.69634060798279
 30
0.0
 11
312.40932507041572
 21
197.6962816079828
 31
0.0
  0
LINE
  5
19AC
  8
AM_0
 10
576.36145262538639
 20
203.1963436079829
 30
0.0
 11
586.4861796253864
 21
293.42656960798291
 31
0.0
  0
LINE
  5
19AD
  8
AM_0
 10
716.36144162538653
 20
203.1963436079829
 30
0.0
 11
706.23670262538656
 21
293.42656960798291
 31
0.0
  0
LINE
  5
19AE
  8
AM_0
 10
362.9093150704158
 20
289.82720560798288
 30
0.0
 11
362.9093150704158
 21
203.1963436079829
 31
0.0
  0
LINE
  5
19AF
  8
AM_0
 10
362.9093150704158
 20
320.75119060798289
 30
0.0
 11
362.9093150704158
 21
305.32180060798288
 31
0.0
  0
LINE
  5
19B0
  8
AM_0
 10
374.69502507041562
 20
285.53566960798292
 30
0.0
 11
362.9093150704158
 21
203.1963436079829
 31
0.0
  0
LINE
  5
19B1
  8
AM_0
 10
374.6189450704158
 20
305.6162806079829
 30
0.0
 11
362.9093150704158
 21
320.85595060798278
 31
0.0
  0
CIRCLE
  5
1A9C
  8
AM_0
 10
646.36143962538654
 20
278.19634660798289
 30
0.0
 40
2.4999998400000001
  0
CIRCLE
  5
1A9D
  8
AM_5
 10
646.36143962538654
 20
278.19634660798289
 30
0.0
 40
3.0
  0
ARC
  5
1A9E
  8
AM_0
 10
646.36143962538654
 20
278.19634660798289
 30
0.0
 40
9.5000003999999993
 50
108.40848
 51
71.591511999999994
  0
CIRCLE
  5
1AA2
  8
AM_0
 10
696.34268762538647
 20
299.54830360798292
 30
0.0
 40
4.9999998000000003
  0
CIRCLE
  5
1AA3
  8
AM_0
 10
622.25238662538652
 20
202.99195060798289
 30
0.0
 40
4.9999998000000003
  0
CIRCLE
  5
1AA4
  8
AM_0
 10
596.38019162538637
 20
299.54830360798292
 30
0.0
 40
4.9999998000000003
  0
CIRCLE
  5
1AA5
  8
AM_0
 10
670.4705106253864
 20
202.99195060798289
 30
0.0
 40
4.9999998000000003
  0
ARC
  5
1AAA
  8
AM_0
 10
364.90932507041572
 20
303.43504060798278
 30
0.0
 40
1.0000000199999981
 50
270.0
 51
0.0
  0
ARC
  5
1AAB
  8
AM_0
 10
364.90932507041572
 20
297.6615556079829
 30
0.0
 40
1.0000000199999981
 50
270.0
 51
0.0
  0
ARC
  5
1AAC
  8
AM_0
 10
364.90932507041572
 20
294.7748056079829
 30
0.0
 40
1.0000000199999981
 50
270.0
 51
0.0
  0
ARC
  5
1AAD
  8
AM_0
 10
364.90932507041572
 20
295.66155460798291
 30
0.0
 40
1.0000000199999981
 50
0.0
 51
90.000003000000007
  0
ARC
  5
1AAE
  8
AM_0
 10
364.90932507041572
 20
301.43505460798292
 30
0.0
 40
1.0000000199999981
 50
0.0
 51
90.000003000000007
  0
ARC
  5
1AAF
  8
AM_0
 10
364.90932507041572
 20
304.32184060798289
 30
0.0
 40
1.0000000199999981
 50
0.0
 51
90.000003000000007
  0
ARC
  5
1AB1
  8
AM_0
 10
328.4093150704158
 20
201.6963436079829
 30
0.0
 40
1.5000000299999989
 50
90.000003000000007
 51
180.00001
  0
ARC
  5
1AB2
  8
AM_0
 10
408.4093250704156
 20
201.6963436079829
 30
0.0
 40
1.5000000299999989
 50
0.0
 51
90.000003000000007
  0
ARC
  5
1AB4
  8
AM_0
 10
412.90932507041572
 20
206.3867416079828
 30
0.0
 40
5.0000001000000003
 50
179.99999
 51
226.18692999999999
  0
ARC
  5
1AB5
  8
AM_0
 10
389.9093150704158
 20
286.11376360798289
 30
0.0
 40
5.0000001000000003
 50
90.000003000000007
 51
180.00001
  0
ARC
  5
1AB7
  8
AM_0
 10
402.90933507041558
 20
313.1963206079829
 30
0.0
 40
5.0000001000000003
 50
180.00001
 51
270.0
  0
ARC
  5
1AB8
  8
AM_0
 10
405.90933507041558
 20
306.1963606079828
 30
0.0
 40
2.00000007
 50
0.0
 51
90.000003000000007
  0
ARC
  5
1AB9
  8
AM_0
 10
392.9093150704158
 20
299.71773760798288
 30
0.0
 40
5.0000001000000003
 50
0.0
 51
90.000003000000007
  0
ARC
  5
1ABA
  8
AM_0
 10
392.9093150704158
 20
315.06865060798287
 30
0.0
 40
5.0000001000000003
 50
0.0
 51
88.499996999999965
  0
ARC
  5
1ABB
  8
AM_0
 10
389.9093150704158
 20
208.1963266079828
 30
0.0
 40
5.0000001000000003
 50
180.00001
 51
270.0
  0
ARC
  5
1ABC
  8
AM_0
 10
392.9093150704158
 20
229.9637686079829
 30
0.0
 40
5.0000001000000003
 50
270.0
 51
0.0
  0
ARC
  5
1ABD
  8
AM_0
 10
388.90932507041572
 20
193.19634160798279
 30
0.0
 40
1.0000000199999981
 50
0.0
 51
90.000003000000007
  0
ARC
  5
1ABE
  8
AM_0
 10
347.9093150704158
 20
193.19634160798279
 30
0.0
 40
1.0000000199999981
 50
90.000003000000007
 51
180.00001
  0
ARC
  5
1ABF
  8
AM_0
 10
349.90932507041572
 20
237.3722026079829
 30
0.0
 40
3.0
 50
353.29016000000001
 51
0.0
  0
ARC
  5
1AC0
  8
AM_0
 10
346.24158507041562
 20
206.1963436079829
 30
0.0
 40
3.0
 50
270.0
 51
353.29016000000001
  0
ARC
  5
1AC2
  8
AM_0
 10
361.90932507041572
 20
309.41830060798293
 30
0.0
 40
1.0000000199999981
 50
90.000003000000007
 51
180.00001
  0
ARC
  5
1AC3
  8
AM_0
 10
361.90932507041572
 20
290.0345716079828
 30
0.0
 40
1.0000000199999981
 50
179.99999
 51
270.0
  0
ARC
  5
1AC4
  8
AM_0
 10
676.36144262538653
 20
207.6963436079829
 30
0.0
 40
5.0000001000000003
 50
0.0
 51
90.000003000000007
  0
ARC
  5
1AC5
  8
AM_0
 10
688.36144262538653
 20
201.1963426079829
 30
0.0
 40
2.00000007
 50
90.000003000000007
 51
180.00001
  0
ARC
  5
1AC6
  8
AM_0
 10
697.29740162538656
 20
286.78008460798287
 30
0.0
 40
3.0
 50
26.669156999999998
 51
87.412548999999984
  0
ARC
  5
1AC7
  8
AM_0
 10
697.92942062538646
 20
300.76583560798292
 30
0.0
 40
11.000000399999999
 50
149.84220999999999
 51
285.16365000000002
  0
ARC
  5
1AC8
  8
AM_0
 10
637.37534162538645
 20
209.6963266079828
 30
0.0
 40
3.0
 50
356.81526000000002
 51
90.000003000000007
  0
ARC
  5
1AC9
  8
AM_0
 10
646.36143962538654
 20
261.19634560798301
 30
0.0
 40
60.000002999999992
 50
48.330844999999989
 51
131.66915
  0
ARC
  5
1ACA
  8
AM_0
 10
646.36143962538654
 20
261.19634560798301
 30
0.0
 40
60.000002999999992
 50
9.0545419000000003
 51
26.669156999999998
  0
ARC
  5
1ACB
  8
AM_0
 10
646.36143962538654
 20
261.19634560798301
 30
0.0
 40
60.000002999999992
 50
171.12478999999999
 51
172.44926000000001
  0
ARC
  5
1ACC
  8
AM_0
 10
595.42548062538651
 20
286.78008460798287
 30
0.0
 40
3.0
 50
92.587449000000007
 51
153.33085
  0
ARC
  5
1ACE
  8
AM_0
 10
646.36143962538654
 20
265.69634560798301
 30
0.0
 40
42.500000999999997
 50
0.0
 51
180.00001
  0
ARC
  5
1ACF
  8
AM_0
 10
594.79349162538665
 20
300.76583560798292
 30
0.0
 40
11.000000399999999
 50
254.83636000000001
 51
30.157795000000011
  0
ARC
  5
1AD0
  8
AM_0
 10
714.8614566253865
 20
201.6963436079829
 30
0.0
 40
1.5000000299999989
 50
0.0
 51
90.000003000000007
  0
ARC
  5
1AD1
  8
AM_0
 10
604.3614546253865
 20
201.1963426079829
 30
0.0
 40
2.00000007
 50
0.0
 51
90.000003000000007
  0
ARC
  5
1AD2
  8
AM_0
 10
608.3614536253865
 20
198.6963436079829
 30
0.0
 40
3.0
 50
270.0
 51
0.0
  0
ARC
  5
1AD3
  8
AM_0
 10
684.25665962538665
 20
303.77512060798279
 30
0.0
 40
3.0
 50
347.58744999999999
 51
48.330844999999989
  0
ARC
  5
1AD4
  8
AM_0
 10
646.36143962538654
 20
209.1963436079829
 30
0.0
 40
6.0000002999999991
 50
176.81527
 51
3.184736
  0
ARC
  5
1AD5
  8
AM_0
 10
577.86145262538651
 20
201.6963436079829
 30
0.0
 40
1.5000000299999989
 50
90.000003000000007
 51
180.00001
  0
ARC
  5
1AD6
  8
AM_0
 10
608.46625262538646
 20
303.77512060798279
 30
0.0
 40
3.0
 50
131.66915
 51
192.41255000000001
  0
ARC
  5
1AD7
  8
AM_0
 10
646.36143962538654
 20
261.19634560798301
 30
0.0
 40
60.000002999999992
 50
153.33085
 51
170.94546
  0
ARC
  5
1AD9
  8
AM_0
 10
691.86144062538665
 20
206.1963436079829
 30
0.0
 40
3.0
 50
179.99999
 51
270.0
  0
ARC
  5
1ADA
  8
AM_0
 10
600.86145362538639
 20
206.1963436079829
 30
0.0
 40
3.0
 50
270.0
 51
0.0
  0
ARC
  5
1ADB
  8
AM_0
 10
686.3614566253865
 20
291.19634560798289
 30
0.0
 40
20.000000700000001
 50
6.4023798000000003
 51
61.927514999999993
  0
ARC
  5
1ADC
  8
AM_0
 10
616.36143962538654
 20
207.6963436079829
 30
0.0
 40
5.0000001000000003
 50
90.000003000000007
 51
180.00001
  0
ARC
  5
1ADD
  8
AM_0
 10
693.36144062538665
 20
285.43175860798289
 30
0.0
 40
5.0000001000000003
 50
0.0
 51
73.411384999999981
  0
ARC
  5
1ADE
  8
AM_0
 10
684.36144062538665
 20
198.6963436079829
 30
0.0
 40
3.0
 50
179.99999
 51
270.0
  0
ARC
  5
1ADF
  8
AM_0
 10
685.36144262538653
 20
193.19634160798279
 30
0.0
 40
1.0000000199999981
 50
0.0
 51
90.000003000000007
  0
ARC
  5
1AE0
  8
AM_0
 10
607.3614546253865
 20
193.19634160798279
 30
0.0
 40
1.0000000199999981
 50
90.000003000000007
 51
180.00001
  0
ARC
  5
1AE1
  8
AM_0
 10
684.09508562538667
 20
308.80399060798283
 30
0.0
 40
5.0000001000000003
 50
329.84219999999999
 51
67.831203000000002
  0
ARC
  5
1AE2
  8
AM_0
 10
666.36144062538665
 20
243.19634560798289
 30
0.0
 40
32.000000999999997
 50
314.67826000000002
 51
0.0
  0
ARC
  5
1AE3
  8
AM_0
 10
599.3614536253865
 20
285.43175860798289
 30
0.0
 40
5.0000001000000003
 50
106.58861
 51
180.00001
  0
ARC
  5
1AE4
  8
AM_0
 10
626.36145362538639
 20
243.19634560798289
 30
0.0
 40
32.000000999999997
 50
179.99999
 51
225.32174000000001
  0
ARC
  5
1AE5
  8
AM_0
 10
608.62781162538647
 20
308.80399060798283
 30
0.0
 40
5.0000001000000003
 50
112.1688
 51
210.15779000000001
  0
ARC
  5
1AE6
  8
AM_0
 10
606.3614556253865
 20
291.19634560798289
 30
0.0
 40
20.000000700000001
 50
118.07248
 51
173.59762000000001
  0
ARC
  5
1AE7
  8
AM_0
 10
646.36143962538654
 20
216.1963426079829
 30
0.0
 40
105.00000300000001
 50
61.927514999999993
 51
118.07248
  0
ARC
  5
1AE8
  8
AM_0
 10
685.36144262538653
 20
194.69634160798279
 30
0.0
 40
1.0000000199999981
 50
0.0
 51
90.000003000000007
  0
ARC
  5
1AE9
  8
AM_0
 10
607.3614546253865
 20
194.69634160798279
 30
0.0
 40
1.0000000199999981
 50
90.000003000000007
 51
180.00001
  0
ARC
  5
1AEA
  8
AM_0
 10
655.34755562538635
 20
209.6963266079828
 30
0.0
 40
3.0
 50
90.000003000000007
 51
183.18473999999989
  0
ARC
  5
1AEB
  8
AM_0
 10
318.40932507041572
 20
323.02156060798279
 30
0.0
 40
1.0000000199999981
 50
179.99999
 51
268.50000999999997
  0
ARC
  5
1AEC
  8
AM_0
 10
316.4093150704158
 20
323.59123060798282
 30
0.0
 40
1.0000000199999981
 50
0.0
 51
88.499996999999965
  0
ARC
  5
1AED
  8
AM_0
 10
316.4093150704158
 20
198.8014456079828
 30
0.0
 40
1.0000000199999981
 50
271.5
 51
0.0
  0
ARC
  5
1AEE
  8
AM_0
 10
318.40932507041572
 20
199.3711336079829
 30
0.0
 40
1.0000000199999981
 50
91.500000999999969
 51
180.00001
  0
ARC
  5
1AEF
  8
AM_0
 10
318.40932507041572
 20
221.20005160798291
 30
0.0
 40
2.00000007
 50
0.0
 51
90.000003000000007
  0
ARC
  5
1AF0
  8
AM_0
 10
318.40932507041572
 20
211.6963426079829
 30
0.0
 40
2.00000007
 50
270.0
 51
0.0
  0
ARC
  5
1AF1
  8
AM_0
 10
318.40932507041572
 20
301.19265460798289
 30
0.0
 40
2.00000007
 50
270.0
 51
0.0
  0
ARC
  5
1AF2
  8
AM_0
 10
318.40932507041572
 20
310.6963606079828
 30
0.0
 40
2.00000007
 50
0.0
 51
90.000003000000007
  0
ARC
  5
1AF3
  8
AM_0
 10
590.60824862538652
 20
285.32290060798289
 30
0.0
 40
5.0000001000000003
 50
74.836354
 51
173.59762000000001
  0
ARC
  5
1AF4
  8
AM_0
 10
702.11463062538655
 20
285.32290060798289
 30
0.0
 40
5.0000001000000003
 50
6.4023798000000003
 51
105.16364
  0
ARC
  5
1AF5
  8
AM_0
 10
361.90932507041572
 20
288.03457060798291
 30
0.0
 40
1.0000000199999981
 50
0.0
 51
90.000003000000007
  0
ARC
  5
1AF6
  8
AM_0
 10
361.90932507041572
 20
311.41834060798288
 30
0.0
 40
1.0000000199999981
 50
270.0
 51
0.0
  0
ARC
  5
1AF7
  8
AM_0
 10
379.64460507041582
 20
284.82720460798288
 30
0.0
 40
5.0000001000000003
 50
90.000003000000007
 51
171.85424
  0
ARC
  5
25F6
  8
AM_0
 10
408.90933507041598
 20
257.16979360798291
 30
0.0
 40
1.0000000199999981
 50
90.001718873355244
 51
180.00001000000091
  0
ARC
  5
2617
  8
AM_0
 10
408.90933507041598
 20
299.2228606079828
 30
0.0
 40
1.0000000199999981
 50
179.999989999999
 51
269.99828112664488
  0
LINE
  5
263D
  8
ｶｸﾚｾﾝ2
 10
593.86143662538632
 20
203.19634360798301
 30
0.0
 11
593.86143662538632
 21
193.19632960798279
 31
0.0
  0
LINE
  5
263F
  8
ｶｸﾚｾﾝ2
 10
583.86144062538654
 20
203.19634360798301
 30
0.0
 11
583.86144062538654
 21
193.19632960798279
 31
0.0
  0
LINE
  5
266E
  8
ﾁｭｳｼﾝｾﾝ1
 10
703.86142562538635
 20
208.19634360798301
 30
0.0
 11
703.86142562538635
 21
188.19632960798279
 31
0.0
  0
LINE
  5
266F
  8
ｶｸﾚｾﾝ2
 10
698.86143962538631
 20
203.19634360798301
 30
0.0
 11
698.86143962538631
 21
193.19632960798279
 31
0.0
  0
LINE
  5
2670
  8
ｶｸﾚｾﾝ2
 10
708.86144162538631
 20
203.19634360798301
 30
0.0
 11
708.86144162538631
 21
193.19632960798279
 31
0.0
  0
LINE
  5
27A7
  8
AM_0
 10
570.36143962538654
 20
227.69447618039541
 30
0.0
 11
570.36143962538654
 21
294.69447618039538
 31
0.0
  0
LINE
  5
27A9
  8
AM_0
 10
569.36143962538654
 20
294.69447618039538
 30
0.0
 11
572.36143962538654
 21
294.69447618039538
 31
0.0
  0
LINE
  5
27AA
  8
AM_0
 10
531.3614396253862
 20
215.19447618039541
 30
0.0
 11
567.43123861879133
 21
216.4540613166578
 31
0.0
  0
LINE
  5
27AB
  8
AM_0
 10
569.36143962538654
 20
218.452842970696
 30
0.0
 11
569.36143962538654
 21
303.936109390095
 31
0.0
  0
ARC
  5
27AC
  8
AM_0
 10
567.36143962538654
 20
218.452842970696
 30
0.0
 40
2.0
 50
271.99999999999721
 51
0.0
1001
GENIUS_GENODEF_13
1002
{
1000
HIER
1070
     0
1002
}
1002
{
1000
MANEDIT
1070
     0
1002
}
1002
{
1000
NOSEL
1070
     0
1002
}
1002
{
1000
BEHIND
1070
     0
1002
}
1002
{
1000
OTHER
1070
     0
1002
}
1002
{
1000
REACTOR
1002
}
1001
GENIUS_GENOBJ-N-FIL_13
1002
{
1000
OWNER
1000
GEN
1002
}
  0
LINE
  5
27AD
  8
AM_0
 10
567.43123861879133
 20
305.93489104413322
 30
0.0
 11
531.36143962538654
 21
307.19447618039561
 31
0.0
  0
ARC
  5
27AE
  8
AM_0
 10
567.36143962538665
 20
303.936109390095
 30
0.0
 40
2.0
 50
0.0
 51
88.000000000002785
1001
GENIUS_GENOBJ-N-FIL_13
1002
{
1000
OWNER
1000
GEN
1002
}
1001
GENIUS_GENODEF_13
1002
{
1000
HIER
1070
     0
1002
}
1002
{
1000
MANEDIT
1070
     0
1002
}
1002
{
1000
NOSEL
1070
     0
1002
}
1002
{
1000
BEHIND
1070
     0
1002
}
1002
{
1000
OTHER
1070
     0
1002
}
1002
{
1000
REACTOR
1002
}
  0
LINE
  5
27AF
  8
AM_0
 10
531.36143962538654
 20
307.19447618039561
 30
0.0
 11
531.3614396253862
 21
215.19447618039521
 31
0.0
  0
LINE
  5
27B0
  8
ﾁｭｳｼﾝｾﾝ1
 10
520.36143962538631
 20
220.19447618039609
 30
0.0
 11
536.18896263792305
 21
220.19447618039601
 31
0.0
  0
LINE
  5
27B1
  8
AM_0
 10
527.36143962538654
 20
307.19447618039561
 30
0.0
 11
527.36143962538654
 21
286.379971280863
 31
0.0
  0
LINE
  5
27B2
  8
AM_0
 10
527.3614396253862
 20
236.00898107992771
 30
0.0
 11
527.3614396253862
 21
215.19447618039621
 31
0.0
  0
LINE
  5
27B3
  8
AM_0
 10
523.36143962538654
 20
301.05869451123488
 30
0.0
 11
523.3614396253862
 21
221.33025784955601
 31
0.0
  0
LINE
  5
27B4
  8
AM_0
 10
525.30250211325836
 20
224.10183115270249
 30
0.0
 11
526.36143962538631
 21
224.19447618039601
 31
0.0
  0
LINE
  5
27B5
  8
AM_0
 10
525.30250211325836
 20
216.28712120808959
 30
0.0
 11
526.36143962538631
 21
216.19447618039601
 31
0.0
  0
ARC
  5
27B6
  8
AM_0
 10
529.76143962538663
 20
220.19447618039601
 30
0.0
 40
6.5
 50
151.82726586813479
 51
208.1727341318651
  0
ARC
  5
27B7
  8
AM_0
 10
525.44195130165485
 20
217.88103272503639
 30
0.0
 40
1.6000000000000001
 50
208.1727341318651
 51
265.0
  0
LINE
  5
27B8
  8
AM_0
 10
523.68196596395796
 20
222.49447618039599
 30
0.0
 11
525.97152564275359
 21
220.19447618039601
 31
0.0
  0
LINE
  5
27B9
  8
AM_0
 10
525.66143962538638
 20
220.505976180396
 30
0.0
 11
525.66143962538638
 21
219.88297618039601
 31
0.0
  0
LINE
  5
27BA
  8
AM_0
 10
523.68196596395796
 20
217.89447618039611
 30
0.0
 11
525.97152564275359
 21
220.19447618039601
 31
0.0
  0
LINE
  5
27BB
  8
AM_0
 10
523.26890793505163
 20
220.505976180396
 30
0.0
 11
525.66143962538638
 21
220.505976180396
 31
0.0
  0
LINE
  5
27BC
  8
AM_0
 10
523.26890793505163
 20
219.88297618039601
 30
0.0
 11
525.66143962538638
 21
219.88297618039601
 31
0.0
  0
ARC
  5
27BD
  8
AM_0
 10
525.44195130165485
 20
222.50791963575571
 30
0.0
 40
1.6000000000000001
 50
95.0
 51
151.82726586813479
  0
LINE
  5
27BE
  8
AM_0
 10
527.36143962538654
 20
307.19447618039561
 30
0.0
 11
531.36143962538654
 21
307.19447618039561
 31
0.0
  0
LINE
  5
27BF
  8
AM_0
 10
526.36143962538631
 20
306.19447618039533
 30
0.0
 11
527.36143962538665
 21
307.19447618039561
 31
0.0
  0
LINE
  5
27C0
  8
AM_0
 10
531.3614396253862
 20
215.19447618039521
 30
0.0
 11
527.3614396253862
 21
215.19447618039621
 31
0.0
  0
LINE
  5
27C1
  8
AM_0N
 10
527.3614396253862
 20
223.99447618039611
 30
0.0
 11
526.36143962538631
 21
223.99447618039611
 31
0.0
  0
LINE
  5
27C2
  8
AM_0N
 10
526.36143962538631
 20
220.39447618039611
 30
0.0
 11
527.3614396253862
 21
220.75844641466219
 31
0.0
  0
LINE
  5
27C3
  8
AM_0N
 10
526.36143962538631
 20
219.99447618039611
 30
0.0
 11
527.3614396253862
 21
220.35844641466221
 31
0.0
  0
LINE
  5
27C4
  8
AM_0N
 10
526.36143962538631
 20
216.19447618039601
 30
0.0
 11
526.36143962538631
 21
224.19447618039601
 31
0.0
  0
LINE
  5
27C5
  8
AM_0N
 10
526.36143962538631
 20
216.39447618039611
 30
0.0
 11
527.3614396253862
 21
216.39447618039611
 31
0.0
  0
LINE
  5
27C6
  8
AM_0
 10
523.3614396253862
 20
236.00898107992771
 30
0.0
 11
527.3614396253862
 21
236.00898107992771
 31
0.0
  0
LINE
  5
27C7
  8
AM_0
 10
527.3614396253862
 20
234.35212683043531
 30
0.0
 11
523.3614396253862
 21
236.00898107992771
 31
0.0
  0
LINE
  5
27C8
  8
AM_0
 10
523.36143962538654
 20
286.379971280863
 30
0.0
 11
527.36143962538654
 21
286.379971280863
 31
0.0
  0
LINE
  5
27C9
  8
AM_0
 10
527.36143962538654
 20
288.0368255303556
 30
0.0
 11
523.36143962538654
 21
286.379971280863
 31
0.0
  0
LINE
  5
27CA
  8
ﾁｭｳｼﾝｾﾝ1
 10
520.36143962538654
 20
302.19447618039459
 30
0.0
 11
536.18896263792305
 21
302.19447618039487
 31
0.0
  0
LINE
  5
27CB
  8
AM_0
 10
525.30250211325836
 20
298.28712120808842
 30
0.0
 11
526.36143962538631
 21
298.19447618039487
 31
0.0
  0
LINE
  5
27CC
  8
AM_0
 10
525.30250211325836
 20
306.10183115270132
 30
0.0
 11
526.36143962538631
 21
306.19447618039487
 31
0.0
  0
ARC
  5
27CD
  8
AM_0
 10
529.76143962538663
 20
302.19447618039487
 30
0.0
 40
6.5
 50
151.82726586813479
 51
208.1727341318651
  0
ARC
  5
27CE
  8
AM_0
 10
525.44195130165485
 20
304.5079196357546
 30
0.0
 40
1.6000000000000001
 50
95.0
 51
151.82726586813479
  0
LINE
  5
27CF
  8
AM_0
 10
523.68196596395796
 20
299.89447618039492
 30
0.0
 11
525.97152564275359
 21
302.19447618039487
 31
0.0
  0
LINE
  5
27D0
  8
AM_0
 10
525.66143962538638
 20
301.88297618039491
 30
0.0
 11
525.66143962538638
 21
302.50597618039478
 31
0.0
  0
LINE
  5
27D1
  8
AM_0
 10
523.68196596395796
 20
304.49447618039483
 30
0.0
 11
525.97152564275359
 21
302.19447618039487
 31
0.0
  0
LINE
  5
27D2
  8
AM_0
 10
523.26890793505163
 20
301.88297618039491
 30
0.0
 11
525.66143962538638
 21
301.88297618039491
 31
0.0
  0
LINE
  5
27D3
  8
AM_0
 10
523.26890793505163
 20
302.50597618039478
 30
0.0
 11
525.66143962538638
 21
302.50597618039478
 31
0.0
  0
ARC
  5
27D4
  8
AM_0
 10
525.44195130165485
 20
299.8810327250352
 30
0.0
 40
1.6000000000000001
 50
208.1727341318651
 51
265.0
  0
LINE
  5
27D5
  8
AM_0N
 10
527.3614396253862
 20
298.3944761803948
 30
0.0
 11
526.36143962538631
 21
298.3944761803948
 31
0.0
  0
LINE
  5
27D6
  8
AM_0N
 10
526.36143962538631
 20
301.99447618039483
 30
0.0
 11
527.3614396253862
 21
301.63050594612878
 31
0.0
  0
LINE
  5
27D7
  8
AM_0N
 10
526.36143962538631
 20
302.3944761803948
 30
0.0
 11
527.3614396253862
 21
302.0305059461287
 31
0.0
  0
LINE
  5
27D8
  8
AM_0N
 10
526.36143962538631
 20
306.19447618039487
 30
0.0
 11
526.36143962538631
 21
298.19447618039487
 31
0.0
  0
LINE
  5
27D9
  8
AM_0N
 10
526.36143962538631
 20
305.99447618039483
 30
0.0
 11
527.3614396253862
 21
305.99447618039483
 31
0.0
  0
LINE
  5
27DB
  8
ﾁｭｳｼﾝｾﾝ1
 10
588.8614506253864
 20
208.19634360798301
 30
0.0
 11
588.8614506253864
 21
188.19632960798279
 31
0.0
  0
LINE
  5
27DF
  8
AM_0
 10
411.90930507041583
 20
302.69634660798289
 30
0.0
 11
415.9093050704156
 21
298.69634660798312
 31
0.0
  0
LINE
  5
27E0
  8
AM_0
 10
409.40930507041583
 20
302.69634660798289
 30
0.0
 11
411.90930507041583
 21
302.69634660798289
 31
0.0
  0
LINE
  5
27E1
  8
AM_0
 10
408.90930507041583
 20
302.19634660798289
 30
0.0
 11
408.90930507041583
 21
254.1963466079828
 31
0.0
  0
LINE
  5
27E2
  8
AM_0
 10
415.9093050704156
 20
298.69634660798312
 30
0.0
 11
415.90930507041628
 21
257.69634660798289
 31
0.0
  0
LINE
  5
27E3
  8
AM_0
 10
411.90930507041583
 20
253.69634660798289
 30
0.0
 11
415.9093050704156
 21
257.69634660798289
 31
0.0
  0
LINE
  5
27E4
  8
AM_0
 10
409.40930507041583
 20
253.69634660798289
 30
0.0
 11
411.90930507041583
 21
253.696346607983
 31
0.0
  0
LINE
  5
27E5
  8
AM_0
 10
408.90930507041583
 20
302.19634660798289
 30
0.0
 11
409.40930507041583
 21
302.69634660798289
 31
0.0
1001
GENIUS_GENFIL_13
1070
     0
1040
0.5
1040
0.5
1040
20.0
1040
0.0
1002
{
1002
}
1001
GENIUS_GENOBJ-N-CHA_13
1002
{
1000
OWNER
1000
GEN
1002
}
1001
GENIUS_GENODEF_13
1002
{
1000
HIER
1070
     0
1002
}
1002
{
1000
MANEDIT
1070
     0
1002
}
1002
{
1000
NOSEL
1070
     0
1002
}
1002
{
1000
BEHIND
1070
     0
1002
}
1002
{
1000
OTHER
1070
     0
1002
}
1002
{
1000
REACTOR
1002
}
  0
LINE
  5
27E6
  8
AM_0
 10
408.90930507041583
 20
254.1963466079828
 30
0.0
 11
409.40930507041583
 21
253.69634660798289
 31
0.0
1001
GENIUS_GENFIL_13
1070
     0
1040
0.5
1040
0.5
1040
20.0
1040
0.0
1002
{
1002
}
1001
GENIUS_GENODEF_13
1002
{
1000
HIER
1070
     0
1002
}
1002
{
1000
MANEDIT
1070
     0
1002
}
1002
{
1000
NOSEL
1070
     0
1002
}
1002
{
1000
BEHIND
1070
     0
1002
}
1002
{
1000
OTHER
1070
     0
1002
}
1002
{
1000
REACTOR
1002
}
1001
GENIUS_GENOBJ-N-CHA_13
1002
{
1000
OWNER
1000
GEN
1002
}
  0
CIRCLE
  5
27E7
  8
AM_0
 10
646.36143962538654
 20
278.19634660798289
 30
0.0
 40
24.49999999999989
  0
CIRCLE
  5
27E8
  8
AM_0
 10
646.36143962538654
 20
278.19634660798289
 30
0.0
 40
20.50000000000011
  0
LINE
  5
27E9
  8
AM_0
 10
411.90930507041583
 20
302.69634660798289
 30
0.0
 11
411.90930507041583
 21
253.696346607983
 31
0.0
  0
LINE
  5
29FD
  8
AM_0
 10
586.27308068302943
 20
291.52746005873342
 30
0.0
 11
572.36143962538654
 21
291.15529130778782
 31
0.0
  0
LINE
  5
29FE
  8
AM_0
 10
579.48714599645359
 20
231.05210893163849
 30
0.0
 11
572.36142962538645
 21
231.23366130778791
 31
0.0
  0
LINE
  5
29FF
  8
AM_0
 10
572.36143962538631
 20
227.69447618039561
 30
0.0
 11
572.36143962538654
 21
294.69447618039538
 31
0.0
  0
LINE
  5
2A32
  8
AM_0
 10
569.36143962538654
 20
227.69447618039561
 30
0.0
 11
572.36143962538631
 21
227.69447618039561
 31
0.0
  0
LINE
  5
2B88
  8
ｶｸﾚｾﾝ2
 10
404.90925807041532
 20
203.19634360798301
 30
0.0
 11
404.90925807041532
 21
193.19632960798279
 31
0.0
  0
LINE
  5
2B89
  8
ｶｸﾚｾﾝ2
 10
394.90926207041571
 20
203.19634360798301
 30
0.0
 11
394.90926207041571
 21
193.19632960798279
 31
0.0
  0
LINE
  5
2B8A
  8
ﾁｭｳｼﾝｾﾝ1
 10
399.90927207041562
 20
208.19634360798301
 30
0.0
 11
399.90927207041562
 21
188.19632960798279
 31
0.0
  0
LINE
  5
2B8B
  8
ｶｸﾚｾﾝ2
 10
341.90928807041541
 20
203.19634360798301
 30
0.0
 11
341.90928807041541
 21
193.19632960798279
 31
0.0
  0
LINE
  5
2B8C
  8
ｶｸﾚｾﾝ2
 10
331.90929207041557
 20
203.19634360798301
 30
0.0
 11
331.90929207041557
 21
193.19632960798279
 31
0.0
  0
LINE
  5
2B8D
  8
ﾁｭｳｼﾝｾﾝ1
 10
336.90930207041549
 20
208.19634360798301
 30
0.0
 11
336.90930207041549
 21
188.19632960798279
 31
0.0
  0
LINE
  5
3725
  8
AM_0
 10
649.56143962538647
 20
350.65326754614819
 30
0.0
 11
649.56143962538647
 21
364.38009469290239
 31
0.0
  0
LINE
  5
3726
  8
AM_0
 10
643.16143962538638
 20
350.65326754614819
 30
0.0
 11
643.16143962538638
 21
364.38009469290239
 31
0.0
  0
LINE
  5
3727
  8
AM_0
 10
642.36143962538654
 20
341.69634560798289
 30
0.0
 11
650.36143962538654
 21
341.69634560798289
 31
0.0
  0
LINE
  5
3728
  8
AM_0
 10
650.36143962538654
 20
321.12012747109202
 30
0.0
 11
650.36143962538654
 21
341.69634560798289
 31
0.0
  0
LINE
  5
3729
  8
AM_0
 10
650.36143962538654
 20
341.69634560798289
 30
0.0
 11
652.76143962538652
 21
350.65326754614819
 31
0.0
  0
LINE
  5
372A
  8
AM_0
 10
652.76143962538652
 20
350.65326754614819
 30
0.0
 11
652.76143962538652
 21
364.38009469290239
 31
0.0
  0
LINE
  5
372B
  8
AM_0
 10
639.96143962538645
 20
364.38009469290239
 30
0.0
 11
639.96143962538645
 21
350.65326754614819
 31
0.0
  0
LINE
  5
372C
  8
AM_0
 10
639.96143962538645
 20
350.65326754614819
 30
0.0
 11
642.36143962538654
 21
341.69634560798289
 31
0.0
  0
LINE
  5
372D
  8
AM_0
 10
642.36143962538654
 20
341.69634560798289
 30
0.0
 11
642.36143962538654
 21
321.12012747109202
 31
0.0
  0
ARC
  5
372E
  8
AM_0
 10
646.36143962538654
 20
356.69634560798289
 30
0.0
 40
9.9999999999999964
 50
50.208180500442623
 51
90.0
  0
ARC
  5
372F
  8
AM_0
 10
641.56143962538636
 20
351.09201624045397
 30
0.0
 40
1.659066127903009
 50
195.33458427584509
 51
344.66541572415468
  0
ARC
  5
3730
  8
AM_0
 10
646.36143962538654
 20
354.24333413509282
 30
0.0
 40
4.8092180355079419
 50
228.2878371051452
 51
311.71216289485483
  0
ARC
  5
3731
  8
AM_0
 10
651.16143962538649
 20
351.09173836680799
 30
0.0
 40
1.6589926644111621
 50
195.32532916095269
 51
344.67467083904228
  0
ARC
  5
3732
  8
AM_0
 10
646.36143962538654
 20
354.16511379801938
 30
0.0
 40
10.704477319459491
 50
72.606031891266454
 51
107.3939681087335
  0
ARC
  5
3733
  8
AM_0
 10
641.56143962538636
 20
362.01032929642821
 30
0.0
 40
2.8593334947723461
 50
55.973867765119778
 51
124.02613223488019
  0
ARC
  5
3734
  8
AM_0
 10
651.16143962538649
 20
362.01339621783052
 30
0.0
 40
2.856792199637066
 50
55.939448481710848
 51
124.060551518289
  0
ARC
  5
3735
  8
AM_0
 10
646.36143962538654
 20
356.69634560798289
 30
0.0
 40
10.0
 50
90.0
 51
129.79181949955731
  0
LINE
  5
3AAE
  8
ﾁｭｳｼﾝｾﾝ1
 10
172.42582790484011
 20
276.19630510798288
 30
0.0
 11
210.4093150704158
 21
276.19630510798288
 31
0.0
  0
LINE
  5
3AAF
  8
AM_0
 10
157.9093250704156
 20
318.63875141979128
 30
0.0
 11
157.9093250704156
 21
242.9148062005641
 31
0.0
  0
LINE
  5
3AB0
  8
AM_0
 10
157.9093250704156
 20
236.7567291869191
 30
0.0
 11
157.9093250704156
 21
203.75389609377009
 31
0.0
  0
LINE
  5
3AB1
  8
AM_0
 10
202.4093150704158
 20
214.84631110798281
 30
0.0
 11
167.40930507041571
 21
216.8763121079829
 31
0.0
  0
LINE
  5
3AB2
  8
AM_0
 10
202.4093150704158
 20
307.54632010798281
 30
0.0
 11
167.40930507041571
 21
305.51631010798292
 31
0.0
  0
LINE
  5
3AB3
  8
AM_0
 10
157.9093250704156
 20
203.75389609377009
 30
0.0
 11
160.22931507041571
 21
203.6963011079828
 31
0.0
  0
LINE
  5
3AB4
  8
AM_0
 10
305.40936507041579
 20
197.6963161079828
 30
0.0
 11
312.40932507041572
 21
197.6963161079828
 31
0.0
  0
LINE
  5
3AB5
  8
AM_0
 10
305.40936507041579
 20
209.15631010798279
 30
0.0
 11
312.40932507041572
 21
209.15631010798279
 31
0.0
  0
LINE
  5
3AB6
  8
AM_0
 10
202.4093150704158
 20
214.84631110798281
 30
0.0
 11
304.4093150704158
 21
214.84631110798281
 31
0.0
  0
LINE
  5
3AB7
  8
AM_0
 10
304.11933507041579
 20
210.16630510798291
 30
0.0
 11
301.70937507041572
 21
210.16630510798291
 31
0.0
  0
LINE
  5
3AB8
  8
AM_0
 10
301.20930507041572
 20
202.27630510798281
 30
0.0
 11
302.64930507041572
 21
208.97630110798281
 31
0.0
  0
LINE
  5
3AB9
  8
AM_0
 10
299.1193250704157
 20
200.6963191079829
 30
0.0
 11
304.4093150704158
 21
200.6963191079829
 31
0.0
  0
LINE
  5
3ABA
  8
AM_0
 10
162.08931507041569
 20
227.82629410798279
 30
0.0
 11
205.4093150704158
 21
227.82629410798279
 31
0.0
  0
LINE
  5
3ABB
  8
AM_0
 10
205.4093150704158
 20
225.1963021079828
 30
0.0
 11
162.95937507041569
 21
225.1963021079828
 31
0.0
  0
LINE
  5
3ABC
  8
AM_0
 10
162.08931507041569
 20
224.47631710798279
 30
0.0
 11
205.4093150704158
 21
224.47631710798279
 31
0.0
  0
LINE
  5
3ABD
  8
AM_0
 10
157.9093250704156
 20
226.8963001079828
 30
0.0
 11
160.5793550704158
 21
226.8963001079828
 31
0.0
  0
LINE
  5
3ABE
  8
AM_0
 10
163.57935507041569
 20
202.93630810798291
 30
0.0
 11
176.9093150704158
 21
202.93630810798291
 31
0.0
  0
LINE
  5
3ABF
  8
AM_0
 10
180.4093250704156
 20
199.33630210798279
 30
0.0
 11
297.21930507041583
 21
199.33630210798279
 31
0.0
  0
LINE
  5
3AC0
  8
AM_0
 10
163.51929507041569
 20
197.89631410798279
 30
0.0
 11
177.01929507041569
 21
197.89631410798279
 31
0.0
  0
LINE
  5
3AC1
  8
AM_0
 10
163.63935507041569
 20
208.21629310798281
 30
0.0
 11
176.9093150704158
 21
208.21629310798281
 31
0.0
  0
LINE
  5
3AC2
  8
AM_0
 10
161.12928507041579
 20
212.84631310798281
 30
0.0
 11
161.66931507041579
 21
209.85630610798279
 31
0.0
  0
LINE
  5
3AC3
  8
AM_0
 10
157.9093250704156
 20
212.84629810798279
 30
0.0
 11
167.40936507041579
 21
212.84629810798279
 31
0.0
  0
LINE
  5
3AC4
  8
AM_0
 10
167.40936507041579
 20
212.84629810798279
 30
0.0
 11
167.40936507041579
 21
226.8963001079828
 31
0.0
  0
LINE
  5
3AC5
  8
AM_0
 10
299.1492950704158
 20
200.81631310798281
 30
0.0
 11
302.60931507041568
 21
213.7363111079828
 31
0.0
  0
LINE
  5
3AC6
  8
AM_0
 10
161.57928507041581
 20
199.40631010798279
 30
0.0
 11
160.6892750704157
 21
202.9463011079828
 31
0.0
  0
LINE
  5
3AC7
  8
AM_0
 10
161.59932507041569
 20
201.06631210798281
 30
0.0
 11
160.67928507041569
 21
204.94631710798279
 31
0.0
  0
LINE
  5
3AC8
  8
AM_0
 10
235.4093150704158
 20
197.28630010798281
 30
0.0
 11
235.4093150704158
 21
199.33630210798279
 31
0.0
  0
LINE
  5
3AC9
  8
AM_0
 10
178.4093150704158
 20
199.30631710798281
 30
0.0
 11
178.4093150704158
 21
206.71629010798279
 31
0.0
  0
LINE
  5
3ACA
  8
AM_0
 10
159.23931507041581
 20
204.07630810798281
 30
0.0
 11
160.8893450704156
 21
204.07630810798281
 31
0.0
  0
LINE
  5
3ACB
  8
AM_0
 10
202.4093150704158
 20
307.54629010798283
 30
0.0
 11
304.4093150704158
 21
307.54629010798283
 31
0.0
  0
LINE
  5
3ACC
  8
AM_0
 10
304.4093150704158
 20
323.69631010798281
 30
0.0
 11
304.4093150704158
 21
198.6963031079828
 31
0.0
  0
LINE
  5
3ACD
  8
AM_0
 10
305.40936507041579
 20
324.69630010798278
 30
0.0
 11
312.40932507041572
 21
324.69630010798278
 31
0.0
  0
LINE
  5
3ACE
  8
AM_0
 10
304.4093150704158
 20
298.34629810798282
 30
0.0
 11
312.40932507041572
 21
298.34629810798282
 31
0.0
  0
LINE
  5
3ACF
  8
AM_0
 10
305.40936507041579
 20
313.23627010798282
 30
0.0
 11
312.40932507041572
 21
313.23627010798282
 31
0.0
  0
LINE
  5
3AD0
  8
AM_0
 10
304.4093150704158
 20
224.04630910798281
 30
0.0
 11
312.40932507041572
 21
224.04630910798281
 31
0.0
  0
LINE
  5
3AD1
  8
AM_0
 10
157.9093250704156
 20
318.63875141979128
 30
0.0
 11
160.2292550704158
 21
318.69633010798282
 31
0.0
  0
LINE
  5
3AD2
  8
AM_0
 10
167.40936507041579
 20
309.54630010798292
 30
0.0
 11
167.40936507041579
 21
295.50630310798272
 31
0.0
  0
LINE
  5
3AD3
  8
AM_0
 10
157.9093250704156
 20
295.50630310798272
 30
0.0
 11
167.40936507041579
 21
295.50630310798272
 31
0.0
  0
LINE
  5
3AD4
  8
AM_0
 10
157.9093250704156
 20
303.88632010798278
 30
0.0
 11
167.40936507041579
 21
303.88632010798278
 31
0.0
  0
LINE
  5
3AD5
  8
AM_0
 10
157.9093250704156
 20
309.54630010798292
 30
0.0
 11
167.40936507041579
 21
309.54630010798292
 31
0.0
  0
LINE
  5
3AD6
  8
AM_0
 10
182.7009934037479
 20
247.19631910798279
 30
0.0
 11
162.95937507041569
 21
247.19631910798279
 31
0.0
  0
LINE
  5
3AD7
  8
AM_0
 10
180.4093250704156
 20
323.0563201079828
 30
0.0
 11
297.21930507041583
 21
323.0563201079828
 31
0.0
  0
LINE
  5
3AD8
  8
AM_0
 10
163.63935507041569
 20
314.1763201079828
 30
0.0
 11
176.9093150704158
 21
314.1763201079828
 31
0.0
  0
LINE
  5
3AD9
  8
AM_0
 10
161.1293450704157
 20
309.54633010798278
 30
0.0
 11
161.66931507041579
 21
312.53634010798282
 31
0.0
  0
LINE
  5
3ADA
  8
AM_0
 10
163.57935507041569
 20
319.46628010798293
 30
0.0
 11
176.9093150704158
 21
319.46628010798293
 31
0.0
  0
LINE
  5
3ADB
  8
AM_0
 10
163.54932507041579
 20
322.86630010798291
 30
0.0
 11
176.9093150704158
 21
322.86630010798291
 31
0.0
  0
LINE
  5
3ADC
  8
AM_0
 10
163.51929507041569
 20
324.49629010798282
 30
0.0
 11
177.01929507041569
 21
324.49629010798282
 31
0.0
  0
LINE
  5
3ADD
  8
AM_0
 10
180.4093250704156
 20
327.11631010798283
 30
0.0
 11
233.40936507041579
 21
327.11631010798283
 31
0.0
  0
LINE
  5
3ADE
  8
AM_0
 10
180.4093250704156
 20
326.4363001079829
 30
0.0
 11
233.40936507041579
 21
326.4363001079829
 31
0.0
  0
LINE
  5
3ADF
  8
AM_0
 10
180.4093250704156
 20
325.0863301079828
 30
0.0
 11
233.40936507041579
 21
325.0863301079828
 31
0.0
  0
LINE
  5
3AE0
  8
AM_0
 10
159.1992950704157
 20
312.23631010798277
 30
0.0
 11
161.60931507041559
 21
312.23631010798277
 31
0.0
  0
LINE
  5
3AE1
  8
AM_0
 10
161.61927507041571
 20
317.88633010798281
 30
0.0
 11
160.65924507041569
 21
313.4163301079829
 31
0.0
  0
LINE
  5
3AE2
  8
AM_0
 10
159.21930507041569
 20
316.29630010798292
 30
0.0
 11
161.2793750704156
 21
316.29630010798292
 31
0.0
  0
LINE
  5
3AE3
  8
AM_0
 10
205.4093150704158
 20
297.19630510798288
 30
0.0
 11
171.95937507041569
 21
297.19630510798282
 31
0.0
  0
LINE
  5
3AE4
  8
AM_0
 10
205.4093150704158
 20
295.19630410798288
 30
0.0
 11
171.95937507041569
 21
295.19630410798283
 31
0.0
  0
LINE
  5
3AE5
  8
AM_0
 10
179.01064517406991
 20
287.19630610798282
 30
0.0
 11
171.95906826875009
 21
287.19630610798248
 31
0.0
  0
LINE
  5
3AE6
  8
AM_0
 10
161.59932507041569
 20
321.32631010798281
 30
0.0
 11
160.67934507041571
 21
317.4463201079829
 31
0.0
  0
LINE
  5
3AE7
  8
AM_0
 10
176.6106439740698
 20
285.19630510798282
 30
0.0
 11
171.95937507041569
 21
285.19630510798282
 31
0.0
  0
LINE
  5
3AE8
  8
AM_0
 10
159.23931507041581
 20
318.31629010798292
 30
0.0
 11
160.8893450704156
 21
318.31629010798292
 31
0.0
  0
LINE
  5
3AE9
  8
AM_0
 10
161.57928507041581
 20
322.9863001079828
 30
0.0
 11
160.6892750704157
 21
319.45632010798278
 31
0.0
  0
LINE
  5
3AEA
  8
AM_0
 10
176.01064397406981
 20
277.19630410798288
 30
0.0
 11
162.95937507041569
 21
277.19630410798283
 31
0.0
  0
LINE
  5
3AEB
  8
AM_0
 10
178.4093150704158
 20
323.0862901079829
 30
0.0
 11
178.4093150704158
 21
315.6763201079828
 31
0.0
  0
LINE
  5
3AEC
  8
AM_0
 10
176.01064397406981
 20
275.19630610798282
 30
0.0
 11
162.95937507041569
 21
275.19630610798282
 31
0.0
  0
LINE
  5
3AED
  8
AM_0
 10
176.61064397406949
 20
267.19630510798288
 30
0.0
 11
162.95937507041569
 21
267.19630510798288
 31
0.0
  0
LINE
  5
3AEE
  8
AM_0
 10
235.4093150704158
 20
325.11630010798291
 30
0.0
 11
235.4093150704158
 21
323.0563201079828
 31
0.0
  0
LINE
  5
3AEF
  8
AM_0
 10
179.37269390925181
 20
265.19630410798283
 30
0.0
 11
162.95937507041569
 21
265.19630410798283
 31
0.0
  0
LINE
  5
3AF0
  8
AM_0
 10
299.1492950704158
 20
321.57630010798289
 30
0.0
 11
302.60931507041568
 21
308.65632010798282
 31
0.0
  0
LINE
  5
3AF1
  8
AM_0
 10
299.1193250704157
 20
321.69630010798278
 30
0.0
 11
304.4093150704158
 21
321.69630010798278
 31
0.0
  0
LINE
  5
3AF2
  8
AM_0
 10
304.11933507041579
 20
312.23631010798277
 30
0.0
 11
301.70937507041572
 21
312.23631010798277
 31
0.0
  0
LINE
  5
3AF3
  8
AM_0
 10
301.20936507041569
 20
320.1163201079828
 30
0.0
 11
302.64936507041568
 21
313.4163301079829
 31
0.0
  0
LINE
  5
3AF4
  8
AM_0
 10
180.4093250704156
 20
195.27630310798261
 30
0.0
 11
233.40936507041579
 21
195.27630310798261
 31
0.0
  0
LINE
  5
3AF5
  8
AM_0
 10
163.54932507041579
 20
199.5263191079828
 30
0.0
 11
176.9093150704158
 21
199.5263191079828
 31
0.0
  0
LINE
  5
3AF6
  8
AM_0
 10
157.9093250704156
 20
218.50629910798281
 30
0.0
 11
167.40936507041579
 21
218.50629910798281
 31
0.0
  0
LINE
  5
3AF7
  8
AM_0
 10
180.4093250704156
 20
195.95631310798279
 30
0.0
 11
233.40936507041579
 21
195.95631310798279
 31
0.0
  0
LINE
  5
3AF8
  8
AM_0
 10
159.21930507041569
 20
206.0962951079828
 30
0.0
 11
161.2793750704156
 21
206.0962951079828
 31
0.0
  0
LINE
  5
3AF9
  8
AM_0
 10
159.1992950704157
 20
210.16630510798291
 30
0.0
 11
161.60931507041559
 21
210.16630510798291
 31
0.0
  0
LINE
  5
3AFA
  8
AM_0
 10
161.61933507041579
 20
204.51630910798281
 30
0.0
 11
160.65930507041571
 21
208.97630110798281
 31
0.0
  0
LINE
  5
3AFB
  8
AM_0
 10
180.4093250704156
 20
197.30630410798281
 30
0.0
 11
233.40936507041579
 21
197.30630410798281
 31
0.0
  0
LINE
  5
3AFC
  8
AM_0
 10
161.8693250704157
 20
234.70629910798289
 30
0.0
 11
183.10932007041481
 21
234.7062991079828
 31
0.0
  0
LINE
  5
3AFD
  8
AM_0
 10
205.4093150704158
 20
227.1963031079828
 30
0.0
 11
163.39935507041579
 21
227.1963031079828
 31
0.0
  0
LINE
  5
3AFE
  8
AM_0
 10
171.08931507041569
 20
297.91630510798291
 30
0.0
 11
205.4093150704158
 21
297.91630510798291
 31
0.0
  0
LINE
  5
3AFF
  8
AM_0
 10
171.08931507041569
 20
294.56630110798278
 30
0.0
 11
205.4093150704158
 21
294.56630110798278
 31
0.0
  0
LINE
  5
3B00
  8
AM_0
 10
170.8693250704157
 20
287.68629610798291
 30
0.0
 11
186.51064397406981
 21
287.68629610798291
 31
0.0
  0
LINE
  5
3B01
  8
AM_0
 10
189.01064397406981
 20
287.68629610798291
 30
0.0
 11
196.4093150704158
 21
287.68629610798291
 31
0.0
  0
LINE
  5
3B02
  8
AM_0
 10
170.8693250704157
 20
284.75630110798278
 30
0.0
 11
176.16163034435621
 21
284.75630110798272
 31
0.0
  0
LINE
  5
3B03
  8
AM_0
 10
161.73933507041579
 20
277.53630010798281
 30
0.0
 11
176.01064397406981
 21
277.53630010798281
 31
0.0
  0
LINE
  5
3B04
  8
AM_0
 10
161.73933507041579
 20
274.87629610798291
 30
0.0
 11
176.01064397406981
 21
274.87629610798291
 31
0.0
  0
LINE
  5
3B05
  8
AM_0
 10
161.67933507041559
 20
267.46629310798278
 30
0.0
 11
176.2866583740693
 21
267.46629310798278
 31
0.0
  0
LINE
  5
3B06
  8
AM_0
 10
161.67933507041559
 20
264.93629410798292
 30
0.0
 11
186.51064397406981
 21
264.93629410798292
 31
0.0
  0
LINE
  5
3B07
  8
AM_0
 10
161.67933507041559
 20
257.46630910798291
 30
0.0
 11
204.4093150704158
 21
257.46630910798291
 31
0.0
  0
LINE
  5
3B08
  8
AM_0
 10
204.4093150704158
 20
255.19630510798279
 30
0.0
 11
162.95937507041569
 21
255.19630510798279
 31
0.0
  0
LINE
  5
3B09
  8
AM_0
 10
204.4093150704158
 20
257.19630310798283
 30
0.0
 11
162.95937507041569
 21
257.19630310798283
 31
0.0
  0
LINE
  5
3B0A
  8
AM_0
 10
161.73933507041579
 20
247.5163111079828
 30
0.0
 11
182.96765340374731
 21
247.5163111079828
 31
0.0
  0
LINE
  5
3B0B
  8
AM_0
 10
177.4093150704158
 20
245.1963031079828
 30
0.0
 11
162.95937507041569
 21
245.1963031079828
 31
0.0
  0
LINE
  5
3B0C
  8
AM_0
 10
161.73933507041579
 20
244.8562921079828
 30
0.0
 11
177.4093150704158
 21
244.8562921079828
 31
0.0
  0
LINE
  5
3B0D
  8
AM_0
 10
177.40931507041569
 20
237.1963021079828
 30
0.0
 11
162.95937507041569
 21
237.1963021079828
 31
0.0
  0
LINE
  5
3B0E
  8
AM_0
 10
161.8693250704157
 20
237.63630610798279
 30
0.0
 11
177.40931507041569
 21
237.63630610798279
 31
0.0
  0
LINE
  5
3B0F
  8
AM_0
 10
182.70097007041551
 20
235.19631910798279
 30
0.0
 11
162.95937507041569
 21
235.19631910798279
 31
0.0
  0
LINE
  5
3B10
  8
AM_0
 10
161.67933507041559
 20
254.92631410798279
 30
0.0
 11
204.4093150704158
 21
254.92631410798279
 31
0.0
  0
ARC
  5
3B11
  8
AM_0
 10
170.55000507041569
 20
219.97718710798279
 30
0.0
 40
1.00423602
 50
314.93782999999922
 51
5.6649239000010914
  0
ARC
  5
3B12
  8
AM_0
 10
305.40954507041579
 20
198.69648610798279
 30
0.0
 40
1.0001800499999991
 50
180.01030999999901
 51
269.98967999999991
  0
ARC
  5
3B13
  8
AM_0
 10
297.21399507041571
 20
201.3416881079828
 30
0.0
 40
2.0053919100000002
 50
270.15274999999968
 51
344.81207000000018
  0
ARC
  5
3B14
  8
AM_0
 10
305.40882507041579
 20
210.15577510798281
 30
0.0
 40
0.99947604
 50
179.97008999999869
 51
270.02992000000029
  0
ARC
  5
3B15
  8
AM_0
 10
163.63038507041571
 20
312.18387010798278
 30
0.0
 40
1.9924480200000001
 50
89.742108000000741
 51
169.81178999999909
  0
ARC
  5
3B16
  8
AM_0
 10
163.5741650704158
 20
317.46702010798282
 30
0.0
 40
1.9992880199999981
 50
89.851814999999618
 51
167.89433000000099
  0
ARC
  5
3B17
  8
AM_0
 10
159.19362507041569
 20
313.73652010798281
 30
0.0
 40
1.5002480099999991
 50
270.21662000000089
 51
347.67499999999922
  0
ARC
  5
3B18
  8
AM_0
 10
163.54140507041569
 20
320.87178010798277
 30
0.0
 40
1.9945160699999991
 50
89.771334999999524
 51
166.8280399999995
  0
ARC
  5
3B19
  8
AM_0
 10
159.2177750704156
 20
317.8001101079829
 30
0.0
 40
1.5037760099999991
 50
270.0598400000012
 51
346.39312999999879
  0
ARC
  5
3B1A
  8
AM_0
 10
159.23061507041569
 20
319.81950010798278
 30
0.0
 40
1.503232049999998
 50
270.33131999999961
 51
346.01803000000137
  0
ARC
  5
3B1B
  8
AM_0
 10
163.51587507041569
 20
322.49949010798281
 30
0.0
 40
1.996816109999999
 50
89.901436000000672
 51
165.88941000000139
  0
ARC
  5
3B1C
  8
AM_0
 10
180.40473507041571
 20
321.06093010798293
 30
0.0
 40
1.9953641399999991
 50
89.866758999999234
 51
180.13323000000119
  0
ARC
  5
3B1D
  8
AM_0
 10
180.40551507041559
 20
323.09010010798278
 30
0.0
 40
1.99618809
 50
89.890486999999737
 51
180.10951000000031
  0
ARC
  5
3B1E
  8
AM_0
 10
180.4029050704157
 20
324.44277010798288
 30
0.0
 40
1.993556189999999
 50
89.814515000000938
 51
180.1854899999997
  0
ARC
  5
3B1F
  8
AM_0
 10
180.40485507041581
 20
325.1175601079828
 30
0.0
 40
1.998724049999999
 50
89.871136999999536
 51
165.55095999999921
  0
ARC
  5
3B20
  8
AM_0
 10
176.90265507041579
 20
315.68301010798291
 30
0.0
 40
1.5066999599999991
 50
270.25416000000098
 51
359.74583999999908
  0
ARC
  5
3B21
  8
AM_0
 10
176.9064950704157
 20
320.96913010798278
 30
0.0
 40
1.5028360199999991
 50
270.10793999999891
 51
359.89206000000121
  0
ARC
  5
3B22
  8
AM_0
 10
176.9044850704158
 20
324.3711601079828
 30
0.0
 40
1.5048719999999991
 50
270.1851800000012
 51
359.81481999999869
  0
ARC
  5
3B23
  8
AM_0
 10
177.01593507041571
 20
325.99932010798278
 30
0.0
 40
1.50301605
 50
270.12944999999991
 51
345.2365400000013
  0
ARC
  5
3B24
  8
AM_0
 10
233.40840507041571
 20
323.08536010798281
 30
0.0
 40
2.0009239199999991
 50
0.0264629989995744
 51
89.973535999999072
  0
ARC
  5
3B25
  8
AM_0
 10
233.41101507041569
 20
324.43800010798282
 30
0.0
 40
1.9982920200000001
 50
359.95103000000051
 51
90.048974999998521
  0
ARC
  5
3B26
  8
AM_0
 10
233.4075350704158
 20
325.11450010798279
 30
0.0
 40
2.0018279999999979
 50
0.0523009999990686
 51
89.947697000000545
  0
ARC
  5
3B27
  8
AM_0
 10
304.05957507041569
 20
309.04869010798279
 30
0.0
 40
1.50239199
 50
195.14001000000141
 51
269.99063999999998
  0
ARC
  5
3B28
  8
AM_0
 10
297.21888507041581
 20
321.05733010798292
 30
0.0
 40
1.99898796
 50
15.04780099999898
 51
89.987372999998755
  0
ARC
  5
3B29
  8
AM_0
 10
305.40438507041603
 20
323.70126010798282
 30
0.0
 40
0.9950640599999999
 50
89.714938000000473
 51
180.28506000000129
  0
ARC
  5
3B2A
  8
AM_0
 10
305.40369507041578
 20
312.24192010798282
 30
0.0
 40
0.99440004
 50
89.676491000000041
 51
180.32351000000091
  0
ARC
  5
3B2B
  8
AM_0
 10
304.11519507041578
 20
313.73676010798278
 30
0.0
 40
1.5004760399999979
 50
192.3322299999987
 51
270.15827999999971
  0
ARC
  5
3B2C
  8
AM_0
 10
299.25678507041567
 20
319.69983010798279
 30
0.0
 40
1.9964880300000001
 50
12.04087499999966
 51
89.926440999999343
  0
ARC
  5
3B2D
  8
AM_0
 10
166.56762507041569
 20
302.78910910798282
 30
0.0
 40
5.004112499999998
 50
279.6835699999998
 51
354.57834000000122
  0
ARC
  5
3B2E
  8
AM_0
 10
167.03010507041569
 20
298.86339010798292
 30
0.0
 40
6.0049157999999991
 50
45.227306999999072
 51
86.379093999999796
  0
ARC
  5
3B2F
  8
AM_0
 10
170.55330507041569
 20
302.41658110798289
 30
0.0
 40
1.001108069999999
 50
354.25024999999829
 51
45.146993999999637
  0
ARC
  5
3B30
  8
AM_0
 10
299.25177507041582
 20
202.69891210798281
 30
0.0
 40
2.0026238699999981
 50
270.21534000000139
 51
347.8173399999996
  0
ARC
  5
3B31
  8
AM_0
 10
304.11639507041571
 20
208.6669891079828
 30
0.0
 40
1.499328059999999
 50
89.888151000000079
 51
168.09384000000071
  0
ARC
  5
3B32
  8
AM_0
 10
167.0393150704158
 20
223.5434851079828
 30
0.0
 40
6.0085923000000001
 50
273.53094999999939
 51
314.61478000000108
  0
ARC
  5
3B33
  8
AM_0
 10
166.57269507041559
 20
219.60822910798291
 30
0.0
 40
4.9985837999999987
 50
5.3731199000009289
 51
80.36497600000034
  0
ARC
  5
3B34
  8
AM_0
 10
163.6353950704156
 20
210.21473410798279
 30
0.0
 40
1.998444029999999
 50
190.3324000000008
 51
270.11369000000047
  0
ARC
  5
3B35
  8
AM_0
 10
163.57422507041571
 20
204.93568210798281
 30
0.0
 40
1.9993920899999991
 50
192.1080400000011
 51
270.14581999999967
  0
ARC
  5
3B36
  8
AM_0
 10
159.1924550704158
 20
208.66722010798281
 30
0.0
 40
1.499099999999999
 50
11.89856000000028
 51
89.736658000000475
  0
ARC
  5
3B37
  8
AM_0
 10
163.54632507041569
 20
201.52706710798279
 30
0.0
 40
2.0007560699999991
 50
193.31416000000041
 51
270.0864499999999
  0
ARC
  5
3B38
  8
AM_0
 10
159.22272507041569
 20
204.5988001079829
 30
0.0
 40
1.497512039999999
 50
13.41823300000142
 51
90.128792999998822
  0
ARC
  5
3B39
  8
AM_0
 10
159.23712507041569
 20
202.5781831079828
 30
0.0
 40
1.498128089999998
 50
14.224575000000939
 51
89.916113999998927
  0
ARC
  5
3B3A
  8
AM_0
 10
163.52082507041561
 20
199.8994441079829
 30
0.0
 40
2.0031319199999991
 50
194.2515899999988
 51
269.9575499999994
  0
ARC
  5
3B3B
  8
AM_0
 10
180.40980507041581
 20
201.33674410798281
 30
0.0
 40
2.000452109999999
 50
180.01290000000029
 51
269.98709999999971
  0
ARC
  5
3B3C
  8
AM_0
 10
180.41064507041571
 20
199.3076161079828
 30
0.0
 40
2.0013120899999981
 50
180.03755999999879
 51
269.9624400000011
  0
ARC
  5
3B3D
  8
AM_0
 10
180.4079750704156
 20
197.95492210798281
 30
0.0
 40
1.9986199799999991
 50
179.96046999999851
 51
270.03953000000138
  0
ARC
  5
3B3E
  8
AM_0
 10
180.40326507041581
 20
197.2863601079828
 30
0.0
 40
2.0000761200000001
 50
194.7749800000019
 51
270.17352999999849
  0
ARC
  5
3B3F
  8
AM_0
 10
176.9077850704158
 20
206.71473610798279
 30
0.0
 40
1.5015680099999991
 50
0.0598050030010001
 51
89.940196999999216
  0
ARC
  5
3B40
  8
AM_0
 10
176.9066150704158
 20
201.4335931079828
 30
0.0
 40
1.50271599
 50
0.1034359999993177
 51
89.896566000000206
  0
ARC
  5
3B41
  8
AM_0
 10
176.90961507041581
 20
198.02654710798279
 30
0.0
 40
1.49975601
 50
359.99059000000068
 51
90.009407999999681
  0
ARC
  5
3B42
  8
AM_0
 10
177.0208850704158
 20
196.39965610798279
 30
0.0
 40
1.49664405
 50
14.57573999999874
 51
90.058277999998381
  0
ARC
  5
3B43
  8
AM_0
 10
233.40333507041581
 20
199.3123291079828
 30
0.0
 40
2.0060480100000002
 50
270.17248999999867
 51
359.82751000000121
  0
ARC
  5
3B44
  8
AM_0
 10
233.40594507041581
 20
197.95966810798279
 30
0.0
 40
2.0033560499999989
 50
270.09594000000141
 51
359.90405999999848
  0
ARC
  5
3B45
  8
AM_0
 10
233.40741507041571
 20
197.28819010798281
 30
0.0
 40
2.0019000299999989
 50
270.05438000000072
 51
359.94561999999922
  0
ARC
  5
3B46
  8
AM_0
 10
304.0547150704158
 20
213.3503251079828
 30
0.0
 40
1.49599605
 50
89.821706999999776
 51
165.0476599999985
  0
ARC
  5
3B47
  8
AM_0
 10
179.40456507041571
 20
296.19630610798282
 30
0.0
 40
1.000011959999999
 50
89.726507999999697
 51
270.27347999999972
  0
ARC
  5
3B48
  8
AM_0
 10
161.67354507041571
 20
266.20131010798281
 30
0.0
 40
1.26501207
 50
89.737716000001527
 51
270.26227999999981
  0
ARC
  5
3B49
  8
AM_0
 10
161.73933507041579
 20
276.20631310798291
 30
0.0
 40
1.330008059999999
 50
90.000003000000945
 51
270.0
  0
ARC
  5
3B4A
  8
AM_0
 10
170.8693250704157
 20
286.22130010798281
 30
0.0
 40
1.465004009999999
 50
90.000003000000945
 51
270.0
  0
ARC
  5
3B4B
  8
AM_0
 10
171.08247507041571
 20
296.24128810798283
 30
0.0
 40
1.6750160999999979
 50
89.766540000000646
 51
270.23345999999941
  0
ARC
  5
3B4C
  8
AM_0
 10
162.95937507041569
 20
266.19630310798283
 30
0.0
 40
1.0000000199999981
 50
90.000003000000945
 51
270.0
  0
ARC
  5
3B4D
  8
AM_0
 10
162.95937507041569
 20
276.19630510798282
 30
0.0
 40
1.0000000199999981
 50
90.000003000000945
 51
270.0
  0
ARC
  5
3B4E
  8
AM_0
 10
171.95460507041571
 20
296.19630610798282
 30
0.0
 40
1.000011959999999
 50
89.728447999999375
 51
270.27153999999882
  0
ARC
  5
3B4F
  8
AM_0
 10
171.95460507041571
 20
286.19630410798283
 30
0.0
 40
1.000011959999999
 50
89.728447999999375
 51
270.27153999999882
  0
ARC
  5
3B50
  8
AM_0
 10
301.22931507041568
 20
296.24128810798283
 30
0.0
 40
1.675004159999999
 50
276.1690557384461
 51
83.83094426155381
  0
ARC
  5
3B51
  8
AM_0
 10
301.22931507041568
 20
226.15131910798291
 30
0.0
 40
1.675004159999999
 50
276.16905573844969
 51
83.830944261550229
  0
ARC
  5
3B52
  8
AM_0
 10
162.95937507041569
 20
256.19631910798279
 30
0.0
 40
1.0000000199999981
 50
90.000003000000945
 51
270.0
  0
ARC
  5
3B53
  8
AM_0
 10
179.40456507041571
 20
246.19630510798279
 30
0.0
 40
1.000011959999999
 50
89.726507999999697
 51
227.40544825727639
  0
ARC
  5
3B54
  8
AM_0
 10
179.40456507041571
 20
236.1963031079828
 30
0.0
 40
1.000011959999999
 50
132.59438434211481
 51
270.27347999999972
  0
ARC
  5
3B55
  8
AM_0
 10
161.73933507041579
 20
246.18630910798279
 30
0.0
 40
1.330008059999999
 50
90.000003000000945
 51
270.0
  0
ARC
  5
3B56
  8
AM_0
 10
161.8693250704157
 20
236.1713101079828
 30
0.0
 40
1.465004009999999
 50
90.000003000000945
 51
270.0
  0
ARC
  5
3B57
  8
AM_0
 10
162.95460507041571
 20
226.1963191079829
 30
0.0
 40
1.000011959999999
 50
89.728462000000377
 51
270.27153999999882
  0
ARC
  5
3B58
  8
AM_0
 10
179.40456507041571
 20
226.1963191079829
 30
0.0
 40
1.000011959999999
 50
89.726507999999697
 51
270.27347999999972
  0
ARC
  5
3B59
  8
AM_0
 10
161.67354507041571
 20
256.19631910798279
 30
0.0
 40
1.2700120500000001
 50
89.738748000000555
 51
270.26124000000118
  0
ARC
  5
3B5A
  8
AM_0
 10
162.08247507041571
 20
226.15131910798291
 30
0.0
 40
1.6750160999999979
 50
89.764983000000569
 51
270.23500999999908
  0
ARC
  5
3B5B
  8
AM_0
 10
162.95937507041569
 20
246.19630510798279
 30
0.0
 40
1.0000000199999981
 50
90.000003000000945
 51
270.0
  0
ARC
  5
3B5C
  8
AM_0
 10
162.95460507041571
 20
236.1963031079828
 30
0.0
 40
1.000011959999999
 50
89.728462000000377
 51
270.27153999999882
  0
LINE
  5
3B5E
  8
ﾁｭｳｼﾝｾﾝ
 10
253.4093150704158
 20
312.19630510798288
 30
0.0
 11
253.4093150704158
 21
210.19630510798279
 31
0.0
  0
LINE
  5
3B5F
  8
AM_0
 10
297.40931507041603
 20
215.19630510798291
 30
0.0
 11
209.4093150704158
 21
215.19630510798291
 31
0.0
  0
ARC
  5
3B60
  8
AM_0
 10
227.48038288228119
 20
220.19630510798279
 30
0.0
 40
5.0
 50
225.0
 51
270.0
1001
GENIUS_GENOBJ-N-FIL_13
1002
{
1000
OWNER
1000
GEN
1002
}
1001
GENIUS_GENODEF_13
1002
{
1000
HIER
1070
     0
1002
}
1002
{
1000
MANEDIT
1070
     0
1002
}
1002
{
1000
NOSEL
1070
     0
1002
}
1002
{
1000
BEHIND
1070
     0
1002
}
1002
{
1000
OTHER
1070
     0
1002
}
1002
{
1000
REACTOR
1002
}
  0
LINE
  5
3B61
  8
AM_0
 10
278.68139300905801
 20
220.19630510798279
 30
0.0
 11
228.1372371317735
 21
220.19630510798279
 31
0.0
  0
ARC
  5
3B62
  8
AM_0
 10
278.68139300905801
 20
225.19630510798291
 30
0.0
 40
5.0
 50
270.0
 51
315.0
1001
GENIUS_GENOBJ-N-FIL_13
1002
{
1000
OWNER
1000
GEN
1002
}
1001
GENIUS_GENODEF_13
1002
{
1000
HIER
1070
     0
1002
}
1002
{
1000
MANEDIT
1070
     0
1002
}
1002
{
1000
NOSEL
1070
     0
1002
}
1002
{
1000
BEHIND
1070
     0
1002
}
1002
{
1000
OTHER
1070
     0
1002
}
1002
{
1000
REACTOR
1002
}
  0
ARC
  5
3B63
  8
AM_0
 10
297.40931507041603
 20
219.19630510798291
 30
0.0
 40
4.0
 50
270.0
 51
0.0
1001
GENIUS_GENOBJ-N-FIL_13
1002
{
1000
OWNER
1000
GEN
1002
}
1001
GENIUS_GENODEF_13
1002
{
1000
HIER
1070
     0
1002
}
1002
{
1000
MANEDIT
1070
     0
1002
}
1002
{
1000
NOSEL
1070
     0
1002
}
1002
{
1000
BEHIND
1070
     0
1002
}
1002
{
1000
OTHER
1070
     0
1002
}
1002
{
1000
REACTOR
1002
}
  0
LINE
  5
3B64
  8
AM_0
 10
297.40931507041569
 20
307.19630510798311
 30
0.0
 11
209.4093150704158
 21
307.19630510798311
 31
0.0
  0
ARC
  5
3B65
  8
AM_0
 10
279.33824725855021
 20
302.19630510798311
 30
0.0
 40
5.0
 50
45.0
 51
90.0
1001
GENIUS_GENOBJ-N-FIL_13
1002
{
1000
OWNER
1000
GEN
1002
}
1001
GENIUS_GENODEF_13
1002
{
1000
HIER
1070
     0
1002
}
1002
{
1000
MANEDIT
1070
     0
1002
}
1002
{
1000
NOSEL
1070
     0
1002
}
1002
{
1000
BEHIND
1070
     0
1002
}
1002
{
1000
OTHER
1070
     0
1002
}
1002
{
1000
REACTOR
1002
}
  0
ARC
  5
3B66
  8
AM_0
 10
227.4803828822815
 20
302.19630510798311
 30
0.0
 40
5.0
 50
90.0
 51
135.0
1001
GENIUS_GENODEF_13
1002
{
1000
HIER
1070
     0
1002
}
1002
{
1000
MANEDIT
1070
     0
1002
}
1002
{
1000
NOSEL
1070
     0
1002
}
1002
{
1000
BEHIND
1070
     0
1002
}
1002
{
1000
OTHER
1070
     0
1002
}
1002
{
1000
REACTOR
1002
}
1001
GENIUS_GENOBJ-N-FIL_13
1002
{
1000
OWNER
1000
GEN
1002
}
  0
LINE
  5
3B67
  8
AM_0
 10
278.68139300905801
 20
302.19630510798311
 30
0.0
 11
228.13723713177359
 21
302.19630510798311
 31
0.0
  0
ARC
  5
3B68
  8
AM_0
 10
228.13723713177359
 20
297.19630510798311
 30
0.0
 40
5.0
 50
90.0
 51
135.0
1001
GENIUS_GENODEF_13
1002
{
1000
HIER
1070
     0
1002
}
1002
{
1000
MANEDIT
1070
     0
1002
}
1002
{
1000
NOSEL
1070
     0
1002
}
1002
{
1000
BEHIND
1070
     0
1002
}
1002
{
1000
OTHER
1070
     0
1002
}
1002
{
1000
REACTOR
1002
}
1001
GENIUS_GENOBJ-N-FIL_13
1002
{
1000
OWNER
1000
GEN
1002
}
  0
ARC
  5
3B69
  8
AM_0
 10
209.4093150704158
 20
303.19630510798311
 30
0.0
 40
4.0
 50
90.0
 51
180.0
1001
GENIUS_GENODEF_13
1002
{
1000
HIER
1070
     0
1002
}
1002
{
1000
MANEDIT
1070
     0
1002
}
1002
{
1000
NOSEL
1070
     0
1002
}
1002
{
1000
BEHIND
1070
     0
1002
}
1002
{
1000
OTHER
1070
     0
1002
}
1002
{
1000
REACTOR
1002
}
1001
GENIUS_GENOBJ-N-FIL_13
1002
{
1000
OWNER
1000
GEN
1002
}
  0
LINE
  5
3B6A
  8
AM_0
 10
205.4093150704158
 20
303.19630510798311
 30
0.0
 11
205.4093150704158
 21
219.19630510798291
 31
0.0
  0
ARC
  5
3B6B
  8
AM_0
 10
210.4093150704158
 20
237.26737291984821
 30
0.0
 40
5.0
 50
180.0
 51
225.0
1001
GENIUS_GENOBJ-N-FIL_13
1002
{
1000
OWNER
1000
GEN
1002
}
1001
GENIUS_GENODEF_13
1002
{
1000
HIER
1070
     0
1002
}
1002
{
1000
MANEDIT
1070
     0
1002
}
1002
{
1000
NOSEL
1070
     0
1002
}
1002
{
1000
BEHIND
1070
     0
1002
}
1002
{
1000
OTHER
1070
     0
1002
}
1002
{
1000
REACTOR
1002
}
  0
ARC
  5
3B6C
  8
AM_0
 10
210.4093150704158
 20
285.1252372961178
 30
0.0
 40
5.0
 50
135.0
 51
180.0
1001
GENIUS_GENOBJ-N-FIL_13
1002
{
1000
OWNER
1000
GEN
1002
}
1001
GENIUS_GENODEF_13
1002
{
1000
HIER
1070
     0
1002
}
1002
{
1000
MANEDIT
1070
     0
1002
}
1002
{
1000
NOSEL
1070
     0
1002
}
1002
{
1000
BEHIND
1070
     0
1002
}
1002
{
1000
OTHER
1070
     0
1002
}
1002
{
1000
REACTOR
1002
}
  0
LINE
  5
3B6D
  8
AM_0
 10
210.4093150704158
 20
284.46838304662521
 30
0.0
 11
210.40931507041569
 21
237.92422716934061
 31
0.0
  0
ARC
  5
3B6E
  8
AM_0
 10
215.40931507041569
 20
237.92422716934061
 30
0.0
 40
5.0
 50
180.0
 51
225.0
1001
GENIUS_GENOBJ-N-FIL_13
1002
{
1000
OWNER
1000
GEN
1002
}
1001
GENIUS_GENODEF_13
1002
{
1000
HIER
1070
     0
1002
}
1002
{
1000
MANEDIT
1070
     0
1002
}
1002
{
1000
NOSEL
1070
     0
1002
}
1002
{
1000
BEHIND
1070
     0
1002
}
1002
{
1000
OTHER
1070
     0
1002
}
1002
{
1000
REACTOR
1002
}
  0
ARC
  5
3B6F
  8
AM_0
 10
209.4093150704158
 20
219.19630510798291
 30
0.0
 40
4.0
 50
180.0
 51
270.0
1001
GENIUS_GENODEF_13
1002
{
1000
HIER
1070
     0
1002
}
1002
{
1000
MANEDIT
1070
     0
1002
}
1002
{
1000
NOSEL
1070
     0
1002
}
1002
{
1000
BEHIND
1070
     0
1002
}
1002
{
1000
OTHER
1070
     0
1002
}
1002
{
1000
REACTOR
1002
}
1001
GENIUS_GENOBJ-N-FIL_13
1002
{
1000
OWNER
1000
GEN
1002
}
  0
LINE
  5
3B70
  8
AM_0
 10
301.4093150704158
 20
303.19630510798311
 30
0.0
 11
301.40931507041603
 21
219.19630510798291
 31
0.0
  0
ARC
  5
3B71
  8
AM_0
 10
296.40931507041603
 20
285.12523729611758
 30
0.0
 40
5.0
 50
0.0
 51
45.0
1001
GENIUS_GENOBJ-N-FIL_13
1002
{
1000
OWNER
1000
GEN
1002
}
1001
GENIUS_GENODEF_13
1002
{
1000
HIER
1070
     0
1002
}
1002
{
1000
MANEDIT
1070
     0
1002
}
1002
{
1000
NOSEL
1070
     0
1002
}
1002
{
1000
BEHIND
1070
     0
1002
}
1002
{
1000
OTHER
1070
     0
1002
}
1002
{
1000
REACTOR
1002
}
  0
ARC
  5
3B72
  8
AM_0
 10
296.40931507041603
 20
237.26737291984841
 30
0.0
 40
5.0
 50
315.0
 51
0.0
1001
GENIUS_GENOBJ-N-FIL_13
1002
{
1000
OWNER
1000
GEN
1002
}
1001
GENIUS_GENODEF_13
1002
{
1000
HIER
1070
     0
1002
}
1002
{
1000
MANEDIT
1070
     0
1002
}
1002
{
1000
NOSEL
1070
     0
1002
}
1002
{
1000
BEHIND
1070
     0
1002
}
1002
{
1000
OTHER
1070
     0
1002
}
1002
{
1000
REACTOR
1002
}
  0
LINE
  5
3B73
  8
AM_0
 10
282.87378116448298
 20
305.73183901391582
 30
0.0
 11
299.94484897634862
 21
288.6607712020504
 31
0.0
  0
LINE
  5
3B74
  8
AM_0
 10
282.21692691499061
 20
300.73183901391582
 30
0.0
 11
294.94484897634828
 21
288.0039169525582
 31
0.0
  0
ARC
  5
3B75
  8
AM_0
 10
278.68139300905801
 20
297.19630510798311
 30
0.0
 40
5.0
 50
45.0
 51
90.0
1001
GENIUS_GENOBJ-N-FIL_13
1002
{
1000
OWNER
1000
GEN
1002
}
1001
GENIUS_GENODEF_13
1002
{
1000
HIER
1070
     0
1002
}
1002
{
1000
MANEDIT
1070
     0
1002
}
1002
{
1000
NOSEL
1070
     0
1002
}
1002
{
1000
BEHIND
1070
     0
1002
}
1002
{
1000
OTHER
1070
     0
1002
}
1002
{
1000
REACTOR
1002
}
  0
LINE
  5
3B76
  8
AM_0
 10
296.40931507041569
 20
284.46838304662538
 30
0.0
 11
296.40931507041603
 21
237.92422716934061
 31
0.0
  0
ARC
  5
3B77
  8
AM_0
 10
291.40931507041569
 20
284.46838304662538
 30
0.0
 40
5.0
 50
0.0
 51
45.0
1001
GENIUS_GENODEF_13
1002
{
1000
HIER
1070
     0
1002
}
1002
{
1000
MANEDIT
1070
     0
1002
}
1002
{
1000
NOSEL
1070
     0
1002
}
1002
{
1000
BEHIND
1070
     0
1002
}
1002
{
1000
OTHER
1070
     0
1002
}
1002
{
1000
REACTOR
1002
}
1001
GENIUS_GENOBJ-N-FIL_13
1002
{
1000
OWNER
1000
GEN
1002
}
  0
ARC
  5
3B78
  8
AM_0
 10
297.40931507041569
 20
303.19630510798311
 30
0.0
 40
4.0
 50
0.0
 51
90.0
1001
GENIUS_GENODEF_13
1002
{
1000
HIER
1070
     0
1002
}
1002
{
1000
MANEDIT
1070
     0
1002
}
1002
{
1000
NOSEL
1070
     0
1002
}
1002
{
1000
BEHIND
1070
     0
1002
}
1002
{
1000
OTHER
1070
     0
1002
}
1002
{
1000
REACTOR
1002
}
1001
GENIUS_GENOBJ-N-FIL_13
1002
{
1000
OWNER
1000
GEN
1002
}
  0
LINE
  5
3B79
  8
ﾁｭｳｼﾝｾﾝ1
 10
296.40931507041728
 20
296.19630510798282
 30
0.0
 11
296.4093150704179
 21
308.19630510798282
 31
0.0
  0
LINE
  5
3B7A
  8
ﾁｭｳｼﾝｾﾝ1
 10
302.40931507041762
 20
302.19630510798243
 30
0.0
 11
290.40931507041762
 21
302.19630510798311
 31
0.0
  0
LINE
  5
3B7B
  8
AM_0
 10
201.9093150704158
 20
289.69630510798311
 30
0.0
 11
204.40931507041569
 21
289.69630510798322
 31
0.0
  0
LINE
  5
3B7C
  8
AM_0
 10
204.4093150704158
 20
262.69630510798311
 30
0.0
 11
201.9093150704158
 21
262.69630510798311
 31
0.0
  0
LINE
  5
3B7D
  8
AM_0
 10
191.01064397406981
 20
265.69630510798311
 30
0.0
 11
191.01064397406981
 21
286.69630510798311
 31
0.0
  0
LINE
  5
3B7E
  8
AM_0
 10
176.01064397406981
 20
284.22793016199807
 30
0.0
 11
176.01064397406981
 21
268.16468005396712
 31
0.0
  0
LINE
  5
3B7F
  8
AM_0
 10
189.01064397406981
 20
264.19630510798311
 30
0.0
 11
189.01064397406981
 21
288.19630510798311
 31
0.0
  0
LINE
  5
3B80
  8
AM_0
 10
179.51064397406981
 20
276.19630510798311
 30
0.0
 11
180.01064397406981
 21
275.69630510798311
 31
0.0
  0
LINE
  5
3B81
  8
AM_0
 10
186.51064397406981
 20
287.89630510798293
 30
0.0
 11
186.51064397406981
 21
264.49630510798312
 31
0.0
  0
LINE
  5
3B82
  8
AM_0
 10
196.4093150704158
 20
287.69630510798311
 30
0.0
 11
196.4093150704158
 21
264.69630510798311
 31
0.0
  0
LINE
  5
3B83
  8
AM_0
 10
190.51064397406981
 20
275.49630510798107
 30
0.0
 11
190.51064397406981
 21
276.89630510798412
 31
0.0
  0
LINE
  5
3B84
  8
AM_0
 10
192.6102797006408
 20
267.09630510798308
 30
0.0
 11
191.86027970064171
 21
285.29630510798307
 31
0.0
  0
LINE
  5
3B85
  8
AM_0
 10
191.6593150704158
 20
267.09630510798308
 30
0.0
 11
191.01064397406981
 21
282.83739037929911
 31
0.0
  0
LINE
  5
3B86
  8
AM_0
 10
192.40800766098769
 20
266.38064639561912
 30
0.0
 11
191.6607476175798
 21
286.00867686915018
 31
0.0
  0
LINE
  5
3B87
  8
AM_0
 10
191.85884715347771
 20
266.38393334681513
 30
0.0
 11
191.11027970064171
 21
286.04630510798307
 31
0.0
  0
LINE
  5
3B88
  8
AM_0
 10
189.01064397406981
 20
288.19630510798311
 30
0.0
 11
186.81064397406971
 21
288.19630510798311
 31
0.0
  0
ARC
  5
3B89
  8
AM_0
 10
200.90931507041589
 20
288.69630510798311
 30
0.0
 40
0.5
 50
269.99999999998693
 51
0.0
  0
ARC
  5
3B8A
  8
AM_0
 10
201.90931507041589
 20
289.19630510798311
 30
0.0
 40
0.5
 50
90.0
 51
180.0
  0
LINE
  5
3B8B
  8
AM_0
 10
201.4093150704158
 20
288.69630510798311
 30
0.0
 11
201.4093150704158
 21
289.19630510798311
 31
0.0
  0
LINE
  5
3B8C
  8
AM_0
 10
192.4093150704158
 20
285.29630510798307
 30
0.0
 11
195.9093150704158
 21
285.29630510798307
 31
0.0
  0
LINE
  5
3B8D
  8
AM_0
 10
201.4093150704158
 20
287.05237642939011
 30
0.0
 11
201.4093150704158
 21
277.34023378657503
 31
0.0
  0
LINE
  5
3B8E
  8
AM_0
 10
196.9093150704158
 20
288.19630510798311
 30
0.0
 11
200.90931507041569
 21
288.19630510798311
 31
0.0
  0
LINE
  5
3B8F
  8
AM_0
 10
200.9093150704158
 20
287.55237642938999
 30
0.0
 11
196.4093150704158
 21
287.55237642938999
 31
0.0
  0
ARC
  5
3B90
  8
AM_0
 10
200.90931507041589
 20
287.05237642939011
 30
0.0
 40
0.5
 50
0.0
 51
90.0
  0
ARC
  5
3B91
  8
AM_0
 10
195.9093150704158
 20
285.79630510798307
 30
0.0
 40
0.5
 50
270.0
 51
0.0
  0
ARC
  5
3B92
  8
AM_0
 10
196.9093150704158
 20
287.69630510798311
 30
0.0
 40
0.5
 50
90.0
 51
180.0
  0
LINE
  5
3B93
  8
AM_0
 10
200.9093150704158
 20
276.84023378657503
 30
0.0
 11
196.4093150704158
 21
276.84023378657503
 31
0.0
  0
ARC
  5
3B94
  8
AM_0
 10
200.9093150704158
 20
277.34023378657503
 30
0.0
 40
0.5
 50
270.0
 51
0.0
  0
LINE
  5
3B95
  8
AM_0
 10
190.51064397406981
 20
282.34147586027512
 30
0.0
 11
190.51064397406981
 21
281.16923267384209
 31
0.0
  0
LINE
  5
3B96
  8
AM_0
 10
191.93701212906669
 20
285.29630510798307
 30
0.0
 11
192.4093150704158
 21
285.29630510798307
 31
0.0
  0
LINE
  5
3B97
  8
AM_0
 10
191.84041963452751
 20
285.37042287471968
 30
0.0
 11
191.86027970064171
 21
285.29630510798307
 31
0.0
  0
ARC
  5
3B98
  8
AM_0
 10
191.9370121290668
 20
285.39630510798298
 30
0.0
 40
0.1000000000000346
 50
195.00019500644461
 51
270.0
  0
ARC
  5
3B99
  8
AM_0
 10
190.2106439740698
 20
285.4831380884911
 30
0.0
 40
0.3000000000000043
 50
270.0
 51
0.0
  0
LINE
  5
3B9A
  8
AM_0
 10
189.01064397406981
 20
287.59630510798303
 30
0.0
 11
190.23059967722691
 21
287.51497472777208
 31
0.0
  0
LINE
  5
3B9B
  8
AM_0
 10
189.01064397406981
 20
286.44005307214309
 30
0.0
 11
190.2106439740698
 21
286.44005307214309
 31
0.0
  0
LINE
  5
3B9C
  8
AM_0
 10
190.51064397406981
 20
287.19630510798311
 30
0.0
 11
189.01064397406981
 21
287.19630510798311
 31
0.0
  0
ARC
  5
3B9D
  8
AM_0
 10
190.51064397406981
 20
286.69630510798311
 30
0.0
 40
0.5
 50
0.0
 51
90.0
  0
LINE
  5
3B9E
  8
AM_0
 10
190.51064397406981
 20
287.21563918041511
 30
0.0
 11
190.51064397406981
 21
287.19630510798311
 31
0.0
  0
ARC
  5
3B9F
  8
AM_0
 10
190.2106439740698
 20
287.21563918041511
 30
0.0
 40
0.3000000000000007
 50
0.0
 51
86.18592516571853
  0
LINE
  5
3BA0
  8
AM_0
 10
191.58258264199071
 20
286.04630510798307
 30
0.0
 11
191.6593150704168
 21
286.04630510798307
 31
0.0
  0
LINE
  5
3BA1
  8
AM_0
 10
191.6593150704168
 20
286.04630510798307
 30
0.0
 11
191.67917513652989
 21
285.97218734124658
 31
0.0
  0
LINE
  5
3BA2
  8
AM_0
 10
191.09041963452771
 20
285.97218734124658
 30
0.0
 11
191.11027970064171
 21
286.04630510798307
 31
0.0
  0
LINE
  5
3BA3
  8
AM_0
 10
191.11027970064171
 20
286.04630510798307
 30
0.0
 11
191.1870121290666
 21
286.04630510798307
 31
0.0
  0
LINE
  5
3BA4
  8
AM_0
 10
191.67917513652989
 20
285.97218734124658
 30
0.0
 11
191.84041963452751
 21
285.37042287471968
 31
0.0
  0
LINE
  5
3BA5
  8
AM_0
 10
191.1870121290666
 20
286.04630510798307
 30
0.0
 11
191.58258264199071
 21
286.04630510798307
 31
0.0
  0
LINE
  5
3BA6
  8
AM_0
 10
191.0106439740706
 20
285.67446457642211
 30
0.0
 11
191.09041963452771
 21
285.97218734124658
 31
0.0
  0
ARC
  5
3BA7
  8
AM_0
 10
191.5825826419908
 20
285.94630510798311
 30
0.0
 40
0.0999999999999866
 50
15.00019500657257
 51
90.0
  0
ARC
  5
3BA8
  8
AM_0
 10
191.1870121290668
 20
285.94630510798311
 30
0.0
 40
0.1000000000000014
 50
90.0
 51
164.9998049934274
  0
LINE
  5
3BA9
  8
AM_0
 10
190.51064397406981
 20
286.14005307214308
 30
0.0
 11
190.51064397406981
 21
285.4831380884911
 31
0.0
  0
ARC
  5
3BAA
  8
AM_0
 10
190.2106439740698
 20
286.14005307214308
 30
0.0
 40
0.3000000000000007
 50
0.0
 51
90.0
  0
LINE
  5
3BAB
  8
AM_0
 10
189.01064397406981
 20
282.64147586027508
 30
0.0
 11
190.2106439740698
 21
282.64147586027508
 31
0.0
  0
LINE
  5
3BAC
  8
AM_0
 10
190.2106439740698
 20
285.18313808849098
 30
0.0
 11
189.01064397406981
 21
285.18313808849098
 31
0.0
  0
LINE
  5
3BAD
  8
AM_0
 10
191.86027970064171
 20
285.29630510798307
 30
0.0
 11
191.93701212906669
 21
285.29630510798307
 31
0.0
  0
ARC
  5
3BAE
  8
AM_0
 10
190.2106439740698
 20
282.34147586027512
 30
0.0
 40
0.3000000000000007
 50
0.0
 51
90.0
  0
LINE
  5
3BAF
  8
AM_0
 10
190.2106439740698
 20
280.86923267384208
 30
0.0
 11
189.01064397406981
 21
280.86923267384208
 31
0.0
  0
ARC
  5
3BB0
  8
AM_0
 10
190.2106439740698
 20
281.16923267384209
 30
0.0
 40
0.3000000000000043
 50
270.0
 51
0.0
  0
LINE
  5
3BB1
  8
AM_0
 10
190.2106439740698
 20
277.19630510798407
 30
0.0
 11
189.01064397406981
 21
277.19630510798407
 31
0.0
  0
ARC
  5
3BB2
  8
AM_0
 10
190.2106439740698
 20
276.89630510798412
 30
0.0
 40
0.3000000000000007
 50
0.0
 51
90.0
  0
LINE
  5
3BB3
  8
AM_0
 10
180.01064397406981
 20
286.32958493663
 30
0.0
 11
186.51064397406981
 21
286.32958493663
 31
0.0
  0
LINE
  5
3BB4
  8
AM_0
 10
180.01064397406981
 20
286.82958493663
 30
0.0
 11
186.51064397406981
 21
286.82958493663
 31
0.0
  0
LINE
  5
3BB5
  8
AM_0
 10
186.51064397406981
 20
276.69630510798311
 30
0.0
 11
180.01064397406981
 21
276.69630510798311
 31
0.0
  0
LINE
  5
3BB6
  8
AM_0
 10
179.51064397406981
 20
277.19630510798311
 30
0.0
 11
186.51064397406981
 21
277.19630510798311
 31
0.0
  0
LINE
  5
3BB7
  8
AM_0
 10
186.2106439740698
 20
287.19630510798311
 30
0.0
 11
179.37269390925181
 21
287.19630510798311
 31
0.0
  0
LINE
  5
3BB8
  8
AM_0
 10
186.51064397406981
 20
277.54299317652408
 30
0.0
 11
180.01064397406981
 21
277.54299317652408
 31
0.0
  0
LINE
  5
3BB9
  8
AM_0
 10
186.51064397406981
 20
285.84961703944208
 30
0.0
 11
180.01064397406981
 21
285.84961703944208
 31
0.0
  0
ARC
  5
3BBA
  8
AM_0
 10
186.81064397406971
 20
287.89630510798293
 30
0.0
 40
0.2999999999999971
 50
90.0
 51
180.0
  0
ARC
  5
3BBB
  8
AM_0
 10
186.2106439740698
 20
287.49630510798312
 30
0.0
 40
0.2999999999999971
 50
270.0
 51
0.0
  0
ARC
  5
3BBC
  8
AM_0
 10
188.13564397406981
 20
281.69630510798311
 30
0.0
 40
9.124999999999984
 50
152.92493329271929
 51
207.07506670728071
  0
LINE
  5
3BBD
  8
AM_0
 10
178.73250950958729
 20
286.96452638758058
 30
0.0
 11
176.3704595744052
 21
284.99615144159549
 31
0.0
  0
LINE
  5
3BBE
  8
AM_0
 10
179.51064397406981
 20
286.6178725244751
 30
0.0
 11
180.01064397406981
 21
287.19630510798311
 31
0.0
  0
ARC
  5
3BBF
  8
AM_0
 10
179.37269390925181
 20
286.19630510798311
 30
0.0
 40
1.0
 50
90.0
 51
129.805571092256
  0
LINE
  5
3BC0
  8
AM_0
 10
180.01064397406981
 20
286.82958493663
 30
0.0
 11
179.51064397406981
 21
286.6178725244751
 31
0.0
  0
LINE
  5
3BC1
  8
AM_0
 10
179.51064397406981
 20
286.1555972515041
 30
0.0
 11
180.01064397406981
 21
286.82958493663
 31
0.0
  0
LINE
  5
3BC2
  8
AM_0
 10
180.01064397406981
 20
286.32958493663
 30
0.0
 11
179.51064397406981
 21
286.1555972515041
 31
0.0
  0
LINE
  5
3BC3
  8
AM_0
 10
179.51064397406981
 20
285.61787252447488
 30
0.0
 11
180.01064397406981
 21
286.32958493663
 31
0.0
  0
LINE
  5
3BC4
  8
AM_0
 10
180.01064397406981
 20
285.84961703944208
 30
0.0
 11
179.51064397406981
 21
285.61787252447488
 31
0.0
  0
ARC
  5
3BC5
  8
AM_0
 10
177.01064397406981
 20
284.22793016199807
 30
0.0
 40
1.0000000000000291
 50
129.80557109226771
 51
180.0
  0
LINE
  5
3BC6
  8
AM_0
 10
180.01064397406981
 20
276.69630510798311
 30
0.0
 11
179.51064397406981
 21
276.19630510798311
 31
0.0
  0
LINE
  5
3BC7
  8
AM_0
 10
179.51064397406981
 20
277.19630510798311
 30
0.0
 11
180.01064397406981
 21
276.69630510798311
 31
0.0
  0
LINE
  5
3BC8
  8
AM_0
 10
180.01064397406981
 20
277.54299317652408
 30
0.0
 11
179.51064397406981
 21
277.19630510798311
 31
0.0
  0
LINE
  5
3BC9
  8
AM_0
 10
186.81064397406971
 20
264.19630510798311
 30
0.0
 11
189.01064397406981
 21
264.19630510798311
 31
0.0
  0
ARC
  5
3BCA
  8
AM_0
 10
200.9093150704158
 20
263.69630510798311
 30
0.0
 40
0.5
 50
0.0
 51
90.000000000006537
  0
LINE
  5
3BCB
  8
AM_0
 10
195.9093150704158
 20
267.09630510798308
 30
0.0
 11
192.68701212906669
 21
267.09630510798308
 31
0.0
  0
LINE
  5
3BCC
  8
AM_0
 10
201.4093150704158
 20
275.05237642938999
 30
0.0
 11
201.4093150704158
 21
265.34023378657503
 31
0.0
  0
LINE
  5
3BCD
  8
AM_0
 10
196.4093150704158
 20
275.55237642939011
 30
0.0
 11
200.9093150704158
 21
275.55237642939011
 31
0.0
  0
ARC
  5
3BCE
  8
AM_0
 10
200.9093150704158
 20
275.05237642938999
 30
0.0
 40
0.5
 50
0.0
 51
90.0
  0
LINE
  5
3BCF
  8
AM_0
 10
196.4093150704158
 20
264.84023378657503
 30
0.0
 11
200.9093150704158
 21
264.84023378657503
 31
0.0
  0
LINE
  5
3BD0
  8
AM_0
 10
200.90931507041569
 20
264.19630510798311
 30
0.0
 11
196.9093150704158
 21
264.19630510798311
 31
0.0
  0
ARC
  5
3BD1
  8
AM_0
 10
200.9093150704158
 20
265.34023378657503
 30
0.0
 40
0.5
 50
270.0
 51
0.0
  0
ARC
  5
3BD2
  8
AM_0
 10
195.9093150704158
 20
266.59630510798308
 30
0.0
 40
0.5
 50
0.0
 51
90.0
  0
ARC
  5
3BD3
  8
AM_0
 10
196.9093150704158
 20
264.69630510798311
 30
0.0
 40
0.5
 50
180.0
 51
270.0
  0
ARC
  5
3BD4
  8
AM_0
 10
190.2106439740698
 20
270.05113435569109
 30
0.0
 40
0.3000000000000114
 50
270.0
 51
0.0
  0
LINE
  5
3BD5
  8
AM_0
 10
189.01064397406981
 20
275.196305107981
 30
0.0
 11
190.2106439740698
 21
275.196305107981
 31
0.0
  0
ARC
  5
3BD6
  8
AM_0
 10
190.2106439740698
 20
275.49630510798102
 30
0.0
 40
0.2999999999999971
 50
270.0
 51
0.0
  0
LINE
  5
3BD7
  8
AM_0
 10
189.01064397406981
 20
271.52337754212408
 30
0.0
 11
190.2106439740698
 21
271.52337754212408
 31
0.0
  0
ARC
  5
3BD8
  8
AM_0
 10
190.2106439740698
 20
271.22337754212401
 30
0.0
 40
0.3000000000000007
 50
0.0
 51
90.0
  0
LINE
  5
3BD9
  8
AM_0
 10
190.51064397406981
 20
271.22337754212413
 30
0.0
 11
190.51064397406981
 21
270.05113435569109
 31
0.0
  0
LINE
  5
3BDA
  8
AM_0
 10
191.93701212906669
 20
266.34630510798308
 30
0.0
 11
192.33258264199071
 21
266.34630510798308
 31
0.0
  0
LINE
  5
3BDB
  8
AM_0
 10
191.93701212906669
 20
266.34630510798308
 30
0.0
 11
192.33258264199071
 21
266.34630510798308
 31
0.0
  0
LINE
  5
3BDC
  8
AM_0
 10
192.42917513652989
 20
266.42042287471958
 30
0.0
 11
192.59041963452771
 21
267.02218734124659
 31
0.0
  0
LINE
  5
3BDD
  8
AM_0
 10
192.42917513652989
 20
266.42042287471958
 30
0.0
 11
192.59041963452771
 21
267.02218734124659
 31
0.0
  0
ARC
  5
3BDE
  8
AM_0
 10
192.68701212906669
 20
266.99630510798312
 30
0.0
 40
0.0999999999999943
 50
90.0
 51
164.9998049934874
  0
ARC
  5
3BDF
  8
AM_0
 10
192.33258264199071
 20
266.44630510798311
 30
0.0
 40
0.0999999999999943
 50
270.0
 51
344.99980499349448
  0
LINE
  5
3BE0
  8
AM_0
 10
191.00979738552871
 20
266.72130510798291
 30
0.0
 11
191.09041963452771
 21
267.02218734124659
 31
0.0
  0
LINE
  5
3BE1
  8
AM_0
 10
191.66202572262171
 20
267.05704057488509
 30
0.0
 11
191.84041963452771
 21
266.42042287471958
 31
0.0
  0
LINE
  5
3BE2
  8
AM_0
 10
191.67917513652989
 20
267.02218734124659
 30
0.0
 11
191.84041963452771
 21
266.42042287471958
 31
0.0
  0
LINE
  5
3BE3
  8
AM_0
 10
190.51064397406981
 20
266.9094721274742
 30
0.0
 11
190.51064397406981
 21
266.25255714382308
 31
0.0
  0
LINE
  5
3BE4
  8
AM_0
 10
191.01064397406981
 20
266.72446457642098
 30
0.0
 11
191.09041963452771
 21
267.02218734124659
 31
0.0
  0
LINE
  5
3BE5
  8
AM_0
 10
189.01064397406981
 20
267.2094721274741
 30
0.0
 11
190.2106439740698
 21
267.2094721274741
 31
0.0
  0
LINE
  5
3BE6
  8
AM_0
 10
190.2106439740698
 20
269.75113435569108
 30
0.0
 11
189.01064397406981
 21
269.75113435569011
 31
0.0
  0
LINE
  5
3BE7
  8
AM_0
 10
191.61521490750579
 20
267.09630510798308
 30
0.0
 11
191.66202572262171
 21
267.05704057488509
 31
0.0
  0
LINE
  5
3BE8
  8
AM_0
 10
191.1870121290666
 20
267.09630510798308
 30
0.0
 11
191.61521490750579
 21
267.09630510798308
 31
0.0
  0
LINE
  5
3BE9
  8
AM_0
 10
191.1870121290666
 20
267.09630510798308
 30
0.0
 11
191.58258264199071
 21
267.09630510798308
 31
0.0
  0
ARC
  5
3BEA
  8
AM_0
 10
191.1870121290666
 20
266.99630510798312
 30
0.0
 40
0.0999999999999943
 50
90.0
 51
164.9998049934874
  0
ARC
  5
3BEB
  8
AM_0
 10
191.58258264199071
 20
266.99630510798312
 30
0.0
 40
0.0999999999999608
 50
15.00019500651257
 51
90.0
  0
ARC
  5
3BEC
  8
AM_0
 10
190.2106439740698
 20
266.90947212747398
 30
0.0
 40
0.3000000000000007
 50
0.0
 51
90.0
  0
LINE
  5
3BED
  8
AM_0
 10
189.01064397406981
 20
265.19630510798311
 30
0.0
 11
190.51064397406981
 21
265.19630510798311
 31
0.0
  0
LINE
  5
3BEE
  8
AM_0
 10
190.2106439740698
 20
265.95255714382319
 30
0.0
 11
189.01064397406981
 21
265.95255714382319
 31
0.0
  0
LINE
  5
3BEF
  8
AM_0
 10
190.23059967722691
 20
264.87763548819311
 30
0.0
 11
189.01064397406981
 21
264.79630510798307
 31
0.0
  0
ARC
  5
3BF0
  8
AM_0
 10
190.51064397406981
 20
265.69630510798311
 30
0.0
 40
0.5
 50
270.0
 51
0.0
  0
ARC
  5
3BF1
  8
AM_0
 10
191.93701212906669
 20
266.44630510798311
 30
0.0
 40
0.0999999999999606
 50
195.00019500650541
 51
270.0
  0
ARC
  5
3BF2
  8
AM_0
 10
190.2106439740698
 20
266.25255714382308
 30
0.0
 40
0.2999999999999971
 50
270.0
 51
0.0
  0
LINE
  5
3BF3
  8
AM_0
 10
190.51064397406981
 20
265.19630510798311
 30
0.0
 11
190.51064397406981
 21
265.17697103555008
 31
0.0
  0
ARC
  5
3BF4
  8
AM_0
 10
190.2106439740698
 20
265.17697103555008
 30
0.0
 40
0.3000000000000043
 50
273.81407483428148
 51
0.0
  0
ARC
  5
3BF5
  8
AM_0
 10
201.9093150704158
 20
263.19630510798311
 30
0.0
 40
0.5
 50
180.0
 51
270.0
  0
LINE
  5
3BF6
  8
AM_0
 10
201.4093150704158
 20
263.19630510798311
 30
0.0
 11
201.4093150704158
 21
263.69630510798311
 31
0.0
  0
LINE
  5
3BF7
  8
AM_0
 10
180.01064397406981
 20
266.54299317652408
 30
0.0
 11
186.51064397406981
 21
266.54299317652408
 31
0.0
  0
LINE
  5
3BF8
  8
AM_0
 10
180.01064397406981
 20
274.84961703944208
 30
0.0
 11
186.51064397406981
 21
274.84961703944208
 31
0.0
  0
LINE
  5
3BF9
  8
AM_0
 10
179.37269390925181
 20
265.19630510798311
 30
0.0
 11
186.2106439740698
 21
265.19630510798311
 31
0.0
  0
LINE
  5
3BFA
  8
AM_0
 10
186.51064397406981
 20
275.19630510798311
 30
0.0
 11
179.51064397406981
 21
275.19630510798311
 31
0.0
  0
LINE
  5
3BFB
  8
AM_0
 10
180.01064397406981
 20
275.69630510798311
 30
0.0
 11
186.51064397406981
 21
275.69630510798311
 31
0.0
  0
LINE
  5
3BFC
  8
AM_0
 10
186.51064397406981
 20
265.56302527933508
 30
0.0
 11
180.01064397406981
 21
265.56302527933508
 31
0.0
  0
LINE
  5
3BFD
  8
AM_0
 10
186.51064397406981
 20
266.06302527933508
 30
0.0
 11
180.01064397406981
 21
266.06302527933508
 31
0.0
  0
ARC
  5
3BFE
  8
AM_0
 10
186.2106439740698
 20
264.89630510798298
 30
0.0
 40
0.3000000000000043
 50
0.0
 51
90.0
  0
ARC
  5
3BFF
  8
AM_0
 10
186.81064397406971
 20
264.49630510798312
 30
0.0
 40
0.2999999999999971
 50
180.0
 51
270.0
  0
ARC
  5
3C00
  8
AM_0
 10
188.13564397406981
 20
270.69630510798311
 30
0.0
 40
9.124999999999984
 50
152.92493329271929
 51
207.07506670728071
  0
LINE
  5
3C01
  8
AM_0
 10
179.51064397406981
 20
275.19630510798311
 30
0.0
 11
180.01064397406981
 21
274.84961703944208
 31
0.0
  0
LINE
  5
3C02
  8
AM_0
 10
180.01064397406981
 20
275.69630510798311
 30
0.0
 11
179.51064397406981
 21
275.19630510798311
 31
0.0
  0
LINE
  5
3C03
  8
AM_0
 10
176.3704595744052
 20
267.39645877436971
 30
0.0
 11
178.73250950958729
 21
265.42808382838558
 31
0.0
  0
LINE
  5
3C04
  8
AM_0
 10
180.01064397406981
 20
265.19630510798311
 30
0.0
 11
179.51064397406981
 21
265.7747376914902
 31
0.0
  0
ARC
  5
3C05
  8
AM_0
 10
179.37269390925181
 20
266.19630510798311
 30
0.0
 40
1.0000000000000411
 50
230.19442890774391
 51
270.0
  0
LINE
  5
3C06
  8
AM_0
 10
179.51064397406981
 20
266.77473769149009
 30
0.0
 11
180.01064397406981
 21
266.54299317652408
 31
0.0
  0
LINE
  5
3C07
  8
AM_0
 10
180.01064397406981
 20
266.06302527933508
 30
0.0
 11
179.51064397406981
 21
266.77473769149009
 31
0.0
  0
LINE
  5
3C08
  8
AM_0
 10
179.51064397406981
 20
266.23701296446211
 30
0.0
 11
180.01064397406981
 21
266.06302527933508
 31
0.0
  0
LINE
  5
3C09
  8
AM_0
 10
180.01064397406981
 20
265.56302527933508
 30
0.0
 11
179.51064397406981
 21
266.23701296446211
 31
0.0
  0
LINE
  5
3C0A
  8
AM_0
 10
179.51064397406981
 20
265.7747376914902
 30
0.0
 11
180.01064397406981
 21
265.56302527933508
 31
0.0
  0
ARC
  5
3C0B
  8
AM_0
 10
177.01064397406981
 20
268.164680053967
 30
0.0
 40
1.0
 50
180.0
 51
230.19442890773229
  0
CIRCLE
  5
3C0C
  8
AM_0
 10
210.4093150704141
 20
302.1963051079826
 30
0.0
 40
4.0
  0
LINE
  5
3C0D
  8
AM_0
 10
210.0978150704141
 20
299.9174967022584
 30
0.0
 11
210.72081507041409
 21
299.9174967022584
 31
0.0
  0
LINE
  5
3C0E
  8
AM_0
 10
210.0978150704141
 20
304.47511351370707
 30
0.0
 11
210.72081507041409
 21
304.47511351370707
 31
0.0
  0
LINE
  5
3C0F
  8
AM_0
 10
210.0978150704141
 20
299.9174967022584
 30
0.0
 11
210.0978150704141
 21
301.8848051079828
 31
0.0
  0
LINE
  5
3C10
  8
AM_0
 10
210.0978150704141
 20
302.50780510798268
 30
0.0
 11
210.0978150704141
 21
304.47511351370707
 31
0.0
  0
LINE
  5
3C11
  8
AM_0
 10
210.0978150704141
 20
302.50780510798268
 30
0.0
 11
208.1305066646897
 21
302.50780510798268
 31
0.0
  0
LINE
  5
3C12
  8
AM_0
 10
210.0978150704141
 20
301.8848051079828
 30
0.0
 11
208.1305066646897
 21
301.8848051079828
 31
0.0
  0
LINE
  5
3C13
  8
AM_0
 10
208.1305066646897
 20
302.50780510798268
 30
0.0
 11
208.1305066646897
 21
301.8848051079828
 31
0.0
  0
LINE
  5
3C14
  8
AM_0
 10
210.72081507041409
 20
299.9174967022584
 30
0.0
 11
210.72081507041409
 21
301.8848051079828
 31
0.0
  0
LINE
  5
3C15
  8
AM_0
 10
210.72081507041409
 20
302.50780510798268
 30
0.0
 11
210.72081507041409
 21
304.47511351370707
 31
0.0
  0
LINE
  5
3C16
  8
AM_0
 10
212.68812347613849
 20
301.8848051079828
 30
0.0
 11
210.72081507041409
 21
301.8848051079828
 31
0.0
  0
LINE
  5
3C17
  8
AM_0
 10
212.68812347613849
 20
302.50780510798268
 30
0.0
 11
210.72081507041409
 21
302.50780510798268
 31
0.0
  0
LINE
  5
3C18
  8
AM_0
 10
212.68812347613849
 20
302.50780510798268
 30
0.0
 11
212.68812347613849
 21
301.8848051079828
 31
0.0
  0
CIRCLE
  5
3C19
  8
AM_0
 10
296.40931507041762
 20
302.1963051079826
 30
0.0
 40
4.0
  0
LINE
  5
3C1A
  8
AM_0
 10
296.09781507041771
 20
299.91749670225829
 30
0.0
 11
296.7208150704177
 21
299.91749670225829
 31
0.0
  0
LINE
  5
3C1B
  8
AM_0
 10
296.09781507041771
 20
304.47511351370707
 30
0.0
 11
296.7208150704177
 21
304.47511351370707
 31
0.0
  0
LINE
  5
3C1C
  8
AM_0
 10
296.09781507041771
 20
299.91749670225829
 30
0.0
 11
296.09781507041771
 21
301.88480510798257
 31
0.0
  0
LINE
  5
3C1D
  8
AM_0
 10
296.09781507041771
 20
302.50780510798268
 30
0.0
 11
296.09781507041771
 21
304.47511351370707
 31
0.0
  0
LINE
  5
3C1E
  8
AM_0
 10
296.09781507041771
 20
302.50780510798268
 30
0.0
 11
294.13050666469331
 21
302.50780510798268
 31
0.0
  0
LINE
  5
3C1F
  8
AM_0
 10
296.09781507041771
 20
301.88480510798257
 30
0.0
 11
294.13050666469331
 21
301.88480510798257
 31
0.0
  0
LINE
  5
3C20
  8
AM_0
 10
294.13050666469331
 20
302.50780510798268
 30
0.0
 11
294.13050666469331
 21
301.88480510798257
 31
0.0
  0
LINE
  5
3C21
  8
AM_0
 10
296.7208150704177
 20
299.91749670225829
 30
0.0
 11
296.7208150704177
 21
301.88480510798257
 31
0.0
  0
LINE
  5
3C22
  8
AM_0
 10
296.7208150704177
 20
302.50780510798268
 30
0.0
 11
296.7208150704177
 21
304.47511351370707
 31
0.0
  0
LINE
  5
3C23
  8
AM_0
 10
298.68812347614198
 20
301.88480510798257
 30
0.0
 11
296.7208150704177
 21
301.88480510798257
 31
0.0
  0
LINE
  5
3C24
  8
AM_0
 10
298.68812347614198
 20
302.50780510798268
 30
0.0
 11
296.7208150704177
 21
302.50780510798268
 31
0.0
  0
LINE
  5
3C25
  8
AM_0
 10
298.68812347614198
 20
302.50780510798268
 30
0.0
 11
298.68812347614198
 21
301.88480510798257
 31
0.0
  0
LINE
  5
3C26
  8
AM_0
 10
223.94484897634879
 20
305.73183901391587
 30
0.0
 11
206.87378116448301
 21
288.66077120205063
 31
0.0
  0
LINE
  5
3C27
  8
AM_0
 10
224.60170322584091
 20
300.73183901391582
 30
0.0
 11
211.87378116448301
 21
288.00391695255797
 31
0.0
  0
ARC
  5
3C28
  8
AM_0
 10
215.4093150704158
 20
284.46838304662521
 30
0.0
 40
5.0
 50
135.0
 51
180.0
1001
GENIUS_GENOBJ-N-FIL_13
1002
{
1000
OWNER
1000
GEN
1002
}
1001
GENIUS_GENODEF_13
1002
{
1000
HIER
1070
     0
1002
}
1002
{
1000
MANEDIT
1070
     0
1002
}
1002
{
1000
NOSEL
1070
     0
1002
}
1002
{
1000
BEHIND
1070
     0
1002
}
1002
{
1000
OTHER
1070
     0
1002
}
1002
{
1000
REACTOR
1002
}
  0
LINE
  5
3C29
  8
AM_0
 10
282.87378116448298
 20
216.6607712020502
 30
0.0
 11
299.94484897634862
 21
233.7318390139155
 31
0.0
  0
ARC
  5
3C2A
  8
AM_0
 10
279.33824725855038
 20
220.19630510798279
 30
0.0
 40
5.0
 50
270.0
 51
315.0
1001
GENIUS_GENODEF_13
1002
{
1000
HIER
1070
     0
1002
}
1002
{
1000
MANEDIT
1070
     0
1002
}
1002
{
1000
NOSEL
1070
     0
1002
}
1002
{
1000
BEHIND
1070
     0
1002
}
1002
{
1000
OTHER
1070
     0
1002
}
1002
{
1000
REACTOR
1002
}
1001
GENIUS_GENOBJ-N-FIL_13
1002
{
1000
OWNER
1000
GEN
1002
}
  0
LINE
  5
3C2B
  8
AM_0
 10
282.21692691499078
 20
221.6607712020502
 30
0.0
 11
294.94484897634862
 21
234.3886932634077
 31
0.0
  0
ARC
  5
3C2C
  8
AM_0
 10
291.40931507041591
 20
237.92422716934061
 30
0.0
 40
5.0
 50
315.0
 51
0.0
1001
GENIUS_GENOBJ-N-FIL_13
1002
{
1000
OWNER
1000
GEN
1002
}
1001
GENIUS_GENODEF_13
1002
{
1000
HIER
1070
     0
1002
}
1002
{
1000
MANEDIT
1070
     0
1002
}
1002
{
1000
NOSEL
1070
     0
1002
}
1002
{
1000
BEHIND
1070
     0
1002
}
1002
{
1000
OTHER
1070
     0
1002
}
1002
{
1000
REACTOR
1002
}
  0
LINE
  5
3C2D
  8
AM_0
 10
223.9448489763486
 20
216.6607712020502
 30
0.0
 11
206.87378116448301
 21
233.73183901391539
 31
0.0
  0
LINE
  5
3C2E
  8
AM_0
 10
224.60170322584079
 20
221.6607712020502
 30
0.0
 11
211.87378116448301
 21
234.3886932634077
 31
0.0
  0
ARC
  5
3C2F
  8
AM_0
 10
228.1372371317735
 20
225.19630510798291
 30
0.0
 40
5.0
 50
225.0
 51
270.0
1001
GENIUS_GENOBJ-N-FIL_13
1002
{
1000
OWNER
1000
GEN
1002
}
1001
GENIUS_GENODEF_13
1002
{
1000
HIER
1070
     0
1002
}
1002
{
1000
MANEDIT
1070
     0
1002
}
1002
{
1000
NOSEL
1070
     0
1002
}
1002
{
1000
BEHIND
1070
     0
1002
}
1002
{
1000
OTHER
1070
     0
1002
}
1002
{
1000
REACTOR
1002
}
  0
CIRCLE
  5
3C30
  8
AM_0
 10
210.40931507041401
 20
220.19630510798331
 30
0.0
 40
4.0
  0
LINE
  5
3C31
  8
AM_0
 10
210.0978150704141
 20
222.4751135137077
 30
0.0
 11
210.72081507041401
 21
222.4751135137077
 31
0.0
  0
LINE
  5
3C32
  8
AM_0
 10
210.0978150704141
 20
217.917496702259
 30
0.0
 11
210.72081507041401
 21
217.917496702259
 31
0.0
  0
LINE
  5
3C33
  8
AM_0
 10
210.0978150704141
 20
222.4751135137077
 30
0.0
 11
210.0978150704141
 21
220.50780510798339
 31
0.0
  0
LINE
  5
3C34
  8
AM_0
 10
210.0978150704141
 20
219.88480510798331
 30
0.0
 11
210.0978150704141
 21
217.917496702259
 31
0.0
  0
LINE
  5
3C35
  8
AM_0
 10
210.0978150704141
 20
219.88480510798331
 30
0.0
 11
208.13050666468959
 21
219.88480510798331
 31
0.0
  0
LINE
  5
3C36
  8
AM_0
 10
210.0978150704141
 20
220.50780510798339
 30
0.0
 11
208.13050666468959
 21
220.50780510798339
 31
0.0
  0
LINE
  5
3C37
  8
AM_0
 10
208.13050666468959
 20
219.88480510798331
 30
0.0
 11
208.13050666468959
 21
220.50780510798339
 31
0.0
  0
LINE
  5
3C38
  8
AM_0
 10
210.72081507041401
 20
222.4751135137077
 30
0.0
 11
210.72081507041401
 21
220.50780510798339
 31
0.0
  0
LINE
  5
3C39
  8
AM_0
 10
210.72081507041401
 20
219.88480510798331
 30
0.0
 11
210.72081507041401
 21
217.917496702259
 31
0.0
  0
LINE
  5
3C3A
  8
AM_0
 10
212.6881234761384
 20
220.50780510798339
 30
0.0
 11
210.72081507041401
 21
220.50780510798339
 31
0.0
  0
LINE
  5
3C3B
  8
AM_0
 10
212.6881234761384
 20
219.88480510798331
 30
0.0
 11
210.72081507041401
 21
219.88480510798331
 31
0.0
  0
LINE
  5
3C3C
  8
AM_0
 10
212.6881234761384
 20
219.88480510798331
 30
0.0
 11
212.6881234761384
 21
220.50780510798339
 31
0.0
  0
CIRCLE
  5
3C3D
  8
AM_0
 10
296.40931507041751
 20
220.19630510798319
 30
0.0
 40
4.0
  0
LINE
  5
3C3E
  8
AM_0
 10
296.09781507041748
 20
222.47511351370761
 30
0.0
 11
296.72081507041747
 21
222.47511351370761
 31
0.0
  0
LINE
  5
3C3F
  8
AM_0
 10
296.09781507041748
 20
217.91749670225889
 30
0.0
 11
296.72081507041747
 21
217.91749670225889
 31
0.0
  0
LINE
  5
3C40
  8
AM_0
 10
296.09781507041748
 20
222.47511351370761
 30
0.0
 11
296.09781507041748
 21
220.5078051079831
 31
0.0
  0
LINE
  5
3C41
  8
AM_0
 10
296.09781507041748
 20
219.88480510798311
 30
0.0
 11
296.09781507041748
 21
217.91749670225889
 31
0.0
  0
LINE
  5
3C42
  8
AM_0
 10
296.09781507041748
 20
219.88480510798311
 30
0.0
 11
294.13050666469309
 21
219.88480510798311
 31
0.0
  0
LINE
  5
3C43
  8
AM_0
 10
296.09781507041748
 20
220.5078051079831
 30
0.0
 11
294.13050666469309
 21
220.5078051079831
 31
0.0
  0
LINE
  5
3C44
  8
AM_0
 10
294.13050666469309
 20
219.88480510798311
 30
0.0
 11
294.13050666469309
 21
220.5078051079831
 31
0.0
  0
LINE
  5
3C45
  8
AM_0
 10
296.72081507041747
 20
222.47511351370761
 30
0.0
 11
296.72081507041747
 21
220.5078051079831
 31
0.0
  0
LINE
  5
3C46
  8
AM_0
 10
296.72081507041747
 20
219.88480510798311
 30
0.0
 11
296.72081507041747
 21
217.91749670225889
 31
0.0
  0
LINE
  5
3C47
  8
AM_0
 10
298.68812347614193
 20
220.5078051079831
 30
0.0
 11
296.72081507041747
 21
220.5078051079831
 31
0.0
  0
LINE
  5
3C48
  8
AM_0
 10
298.68812347614193
 20
219.88480510798311
 30
0.0
 11
296.72081507041747
 21
219.88480510798311
 31
0.0
  0
LINE
  5
3C49
  8
AM_0
 10
298.68812347614193
 20
219.88480510798311
 30
0.0
 11
298.68812347614193
 21
220.5078051079831
 31
0.0
  0
LINE
  5
3C4A
  8
AM_0
 10
205.4093150704158
 20
230.19630510798299
 30
0.0
 11
204.4093150704158
 21
230.19630510798299
 31
0.0
  0
LINE
  5
3C4B
  8
AM_0
 10
205.4093150704158
 20
292.19630510798311
 30
0.0
 11
204.4093150704158
 21
292.19630510798299
 31
0.0
  0
LINE
  5
3C4C
  8
AM_0
 10
204.4093150704158
 20
230.19630510798299
 30
0.0
 11
204.4093150704158
 21
292.19630510798299
 31
0.0
  0
LINE
  5
3C4D
  8
ﾁｭｳｼﾝｾﾝ1
 10
210.4093150704137
 20
296.19630510798282
 30
0.0
 11
210.40931507041429
 21
308.19630510798282
 31
0.0
  0
LINE
  5
3C4E
  8
ﾁｭｳｼﾝｾﾝ1
 10
216.4093150704141
 20
302.19630510798243
 30
0.0
 11
204.4093150704141
 21
302.19630510798311
 31
0.0
  0
LINE
  5
3C4F
  8
ﾁｭｳｼﾝｾﾝ1
 10
210.40931507041361
 20
214.19630510798331
 30
0.0
 11
210.40931507041429
 21
226.19630510798331
 31
0.0
  0
LINE
  5
3C50
  8
ﾁｭｳｼﾝｾﾝ1
 10
216.40931507041401
 20
220.19630510798319
 30
0.0
 11
204.40931507041401
 21
220.1963051079837
 31
0.0
  0
LINE
  5
3C51
  8
ﾁｭｳｼﾝｾﾝ1
 10
296.40931507041722
 20
214.19630510798311
 30
0.0
 11
296.40931507041768
 21
226.19630510798311
 31
0.0
  0
LINE
  5
3C52
  8
ﾁｭｳｼﾝｾﾝ1
 10
302.40931507041751
 20
220.19630510798279
 30
0.0
 11
290.40931507041751
 21
220.19630510798359
 31
0.0
  0
LINE
  5
3C56
  8
AM_0
 10
190.38973785039391
 20
264.93629410798292
 30
0.0
 11
196.4093150704158
 21
264.93629410798297
 31
0.0
  0
LINE
  5
3C57
  8
ﾁｭｳｼﾝｾﾝ1
 10
174.4093150704158
 20
241.19630510798279
 30
0.0
 11
207.7072612089062
 21
241.19630510798279
 31
0.0
  0
LINE
  5
3C58
  8
AM_0
 10
194.2843150704168
 20
234.80625105185879
 30
0.0
 11
194.29502467496181
 21
234.59630510798289
 31
0.0
  0
LINE
  5
3C59
  8
AM_0
 10
194.29502467496181
 20
234.59630510798289
 30
0.0
 11
194.33133006216281
 21
233.88459173409589
 31
0.0
  0
LINE
  5
3C5A
  8
AM_0
 10
194.2843150704168
 20
238.56358259949991
 30
0.0
 11
194.5303412930968
 21
234.59630510798289
 31
0.0
  0
LINE
  5
3C5B
  8
AM_0
 10
195.0026442344458
 20
234.59630510798289
 30
0.0
 11
194.6070737215218
 21
234.59630510798289
 31
0.0
  0
LINE
  5
3C5C
  8
AM_0
 10
194.51048122698271
 20
234.5221873412473
 30
0.0
 11
194.34923672898489
 21
233.92042287471941
 31
0.0
  0
LINE
  5
3C5D
  8
AM_0
 10
194.5303412930968
 20
234.59630510798289
 30
0.0
 11
194.51048122698271
 21
234.5221873412473
 31
0.0
  0
LINE
  5
3C5E
  8
AM_0
 10
192.7843150704168
 20
232.19630510798291
 30
0.0
 11
192.7843150704168
 21
232.4963051079838
 31
0.0
  0
LINE
  5
3C5F
  8
AM_0
 10
182.2843150704158
 20
241.19630510798279
 30
0.0
 11
182.2843150704158
 21
235.87733007557381
 31
0.0
  0
LINE
  5
3C60
  8
AM_0
 10
192.7843150704168
 20
232.6963051079839
 30
0.0
 11
194.08431507041681
 21
232.6963051079839
 31
0.0
  0
LINE
  5
3C61
  8
AM_0
 10
193.7843150704158
 20
232.66780137661789
 30
0.0
 11
193.7843150704168
 21
232.6963051079839
 31
0.0
  0
LINE
  5
3C62
  8
AM_0
 10
184.78431507041381
 20
233.66411389984691
 30
0.0
 11
190.7843150704168
 21
233.66411389984691
 31
0.0
  0
LINE
  5
3C63
  8
AM_0
 10
190.7843150704168
 20
233.16411389984691
 30
0.0
 11
184.78431507041279
 21
233.16411389984691
 31
0.0
  0
LINE
  5
3C64
  8
AM_0
 10
184.78431507041279
 20
233.16411389984691
 30
0.0
 11
185.28431507041279
 21
232.69630510798279
 31
0.0
  0
LINE
  5
3C65
  8
AM_0
 10
185.28431507041279
 20
233.16411389984691
 30
0.0
 11
184.78431507041381
 21
233.66411389984691
 31
0.0
  0
LINE
  5
3C66
  8
AM_0
 10
184.78431507041381
 20
234.33508917581591
 30
0.0
 11
185.28431507041279
 21
233.66411389984691
 31
0.0
  0
LINE
  5
3C67
  8
AM_0
 10
185.28431507041279
 20
234.3845674164929
 30
0.0
 11
184.78431507041381
 21
234.33508917581591
 31
0.0
  0
LINE
  5
3C68
  8
AM_0
 10
190.7843150704168
 20
240.10611127292489
 30
0.0
 11
190.7843150704168
 21
241.19630510798279
 31
0.0
  0
LINE
  5
3C69
  8
AM_0
 10
184.78431507041279
 20
240.19630510798291
 30
0.0
 11
190.7843150704168
 21
240.19630510798291
 31
0.0
  0
LINE
  5
3C6A
  8
AM_0
 10
185.28431507041279
 20
239.50804279947289
 30
0.0
 11
184.78431507041279
 21
240.19630510798291
 31
0.0
  0
LINE
  5
3C6B
  8
AM_0
 10
184.78431507041279
 20
240.19630510798291
 30
0.0
 11
185.28431507041381
 21
240.69630510798279
 31
0.0
  0
LINE
  5
3C6C
  8
AM_0
 10
184.78431507041381
 20
241.19630510798279
 30
0.0
 11
185.28431507041381
 21
240.69630510798279
 31
0.0
  0
LINE
  5
3C6D
  8
AM_0
 10
185.28431507041381
 20
240.69630510798279
 30
0.0
 11
190.7843150704168
 21
240.69630510798279
 31
0.0
  0
LINE
  5
3C6E
  8
AM_0
 10
185.28431507041279
 20
239.50804279947289
 30
0.0
 11
190.7843150704168
 21
239.50804279947289
 31
0.0
  0
LINE
  5
3C6F
  8
AM_0
 10
185.28431507041279
 20
234.3845674164929
 30
0.0
 11
190.7843150704168
 21
234.38456741649381
 31
0.0
  0
LINE
  5
3C70
  8
AM_0
 10
193.7843150704158
 20
240.7463051079838
 30
0.0
 11
193.7843150704168
 21
241.19630510798279
 31
0.0
  0
LINE
  5
3C71
  8
AM_0
 10
192.7843150704168
 20
232.4963051079838
 30
0.0
 11
192.7843150704168
 21
241.1963051079849
 31
0.0
  0
LINE
  5
3C72
  8
AM_0
 10
193.4843150704157
 20
234.23880041995091
 30
0.0
 11
192.7843150704168
 21
234.23880041995091
 31
0.0
  0
LINE
  5
3C73
  8
AM_0
 10
193.7843150704158
 20
233.5336895626609
 30
0.0
 11
193.7843150704158
 21
233.93880041995089
 31
0.0
  0
LINE
  5
3C74
  8
AM_0
 10
192.7843150704168
 20
233.23368956266091
 30
0.0
 11
193.4843150704157
 21
233.23368956266091
 31
0.0
  0
LINE
  5
3C75
  8
AM_0
 10
193.4843150704157
 20
237.61240060535189
 30
0.0
 11
192.7843150704168
 21
237.61240060535189
 31
0.0
  0
LINE
  5
3C76
  8
AM_0
 10
193.7843150704158
 20
236.51248433905991
 30
0.0
 11
193.7843150704158
 21
237.31240060535191
 31
0.0
  0
LINE
  5
3C77
  8
AM_0
 10
192.7843150704168
 20
236.2124843390599
 30
0.0
 11
193.4843150704157
 21
236.2124843390599
 31
0.0
  0
LINE
  5
3C78
  8
AM_0
 10
192.7843150704168
 20
240.44630510798291
 30
0.0
 11
193.4843150704157
 21
240.44630510798291
 31
0.0
  0
LINE
  5
3C79
  8
AM_0
 10
194.2843150704168
 20
241.19630510798279
 30
0.0
 11
194.2843150704168
 21
232.89630510798381
 31
0.0
  0
LINE
  5
3C7A
  8
AM_0
 10
190.9843150704157
 20
232.19630510798291
 30
0.0
 11
192.7843150704168
 21
232.19630510798291
 31
0.0
  0
LINE
  5
3C7B
  8
AM_0
 10
182.4002044306169
 20
235.55723787574189
 30
0.0
 11
184.63439190360671
 21
232.8762129081492
 31
0.0
  0
LINE
  5
3C7C
  8
AM_0
 10
193.5141661861224
 20
232.3692902195549
 30
0.0
 11
192.7843150704168
 21
232.2963051079839
 31
0.0
  0
LINE
  5
3C7D
  8
AM_0
 10
190.58431507041681
 20
232.69630510798279
 30
0.0
 11
185.0185025434057
 21
232.69630510798089
 31
0.0
  0
LINE
  5
3C7E
  8
AM_0
 10
190.7843150704168
 20
240.10611127292489
 30
0.0
 11
190.7843150704168
 21
232.49630510798281
 31
0.0
  0
LINE
  5
3C7F
  8
AM_0
 10
190.7843150704168
 20
232.49630510798281
 30
0.0
 11
190.7843150704158
 21
232.3963051079829
 31
0.0
  0
LINE
  5
3C80
  8
AM_0
 10
198.4093150704158
 20
232.8963051079831
 30
0.0
 11
198.4093150704158
 21
239.50804279947289
 31
0.0
  0
LINE
  5
3C81
  8
AM_0
 10
194.9093150704168
 20
241.19630510798279
 30
0.0
 11
195.28206892842681
 21
233.88016676046291
 31
0.0
  0
LINE
  5
3C82
  8
AM_0
 10
195.45835044019171
 20
241.19630510798279
 30
0.0
 11
195.83133006216281
 21
233.88459173409589
 31
0.0
  0
LINE
  5
3C83
  8
AM_0
 10
195.09923672898481
 20
234.52218734124639
 30
0.0
 11
195.07937666287171
 21
234.59630510798289
 31
0.0
  0
LINE
  5
3C84
  8
AM_0
 10
196.0303412930968
 20
234.59630510798289
 30
0.0
 11
196.01048122698271
 21
234.5221873412473
 31
0.0
  0
LINE
  5
3C85
  8
AM_0
 10
195.7526442344458
 20
233.84630510798289
 30
0.0
 11
195.3570737215218
 21
233.84630510798289
 31
0.0
  0
LINE
  5
3C86
  8
AM_0
 10
195.26048122698251
 20
233.92042287471949
 30
0.0
 11
195.09923672898481
 21
234.52218734124639
 31
0.0
  0
LINE
  5
3C87
  8
AM_0
 10
196.01048122698271
 20
234.5221873412473
 30
0.0
 11
195.84923672898481
 21
233.92042287471941
 31
0.0
  0
LINE
  5
3C88
  8
AM_0
 10
194.67008513406881
 20
241.19630510798279
 30
0.0
 11
195.07937666287171
 21
234.59630510798289
 31
0.0
  0
LINE
  5
3C89
  8
AM_0
 10
195.6210497642937
 20
241.19630510798279
 30
0.0
 11
196.0303412930968
 21
234.59630510798289
 31
0.0
  0
LINE
  5
3C8A
  8
AM_0
 10
196.1070737215218
 20
234.59630510798289
 30
0.0
 11
197.9093150704158
 21
234.59630510798289
 31
0.0
  0
LINE
  5
3C8B
  8
AM_0
 10
198.4093150704158
 20
239.50804279947289
 30
0.0
 11
198.4093150704158
 21
241.1963051079839
 31
0.0
  0
LINE
  5
3C8C
  8
AM_0
 10
198.6093150704157
 20
232.69630510798279
 30
0.0
 11
202.2093150704157
 21
232.69630510798279
 31
0.0
  0
LINE
  5
3C8D
  8
AM_0
 10
202.20931507041581
 20
239.50804279947289
 30
0.0
 11
198.4093150704158
 21
239.50804279947289
 31
0.0
  0
LINE
  5
3C8E
  8
AM_0
 10
198.4093150704158
 20
234.38456741649381
 30
0.0
 11
202.20931507041581
 21
234.38456741649381
 31
0.0
  0
LINE
  5
3C8F
  8
AM_0
 10
177.4093150704158
 20
241.19630510798279
 30
0.0
 11
177.4093150704158
 21
236.94630510798279
 31
0.0
  0
LINE
  5
3C90
  8
AM_0
 10
182.2843150704158
 20
236.8951687443469
 30
0.0
 11
177.4093150704158
 21
236.94630510798279
 31
0.0
  0
LINE
  5
3C91
  8
AM_0
 10
177.4093150704158
 20
245.44630510798279
 30
0.0
 11
182.2843150704158
 21
245.49744147161999
 31
0.0
  0
LINE
  5
3C92
  8
AM_0
 10
177.4093150704158
 20
245.44630510798279
 30
0.0
 11
177.4093150704158
 21
241.19630510798279
 31
0.0
  0
LINE
  5
3C93
  8
AM_0
 10
202.20931507041581
 20
248.00804279947289
 30
0.0
 11
198.4093150704158
 21
248.00804279947289
 31
0.0
  0
LINE
  5
3C94
  8
AM_0
 10
198.4093150704158
 20
242.88456741649389
 30
0.0
 11
202.20931507041581
 21
242.88456741649389
 31
0.0
  0
LINE
  5
3C95
  8
AM_0
 10
202.20931507041581
 20
249.69630510798279
 30
0.0
 11
198.6093150704157
 21
249.69630510798279
 31
0.0
  0
LINE
  5
3C96
  8
AM_0
 10
198.4093150704158
 20
241.1963051079839
 30
0.0
 11
198.4093150704158
 21
242.88456741649389
 31
0.0
  0
LINE
  5
3C97
  8
AM_0
 10
197.9093150704158
 20
247.7963051079829
 30
0.0
 11
195.3610474988418
 21
247.7963051079829
 31
0.0
  0
LINE
  5
3C98
  8
AM_0
 10
195.2843150704158
 20
247.7963051079829
 30
0.0
 11
195.6210497642937
 21
241.19630510798279
 31
0.0
  0
LINE
  5
3C99
  8
AM_0
 10
194.3333504401908
 20
247.7963051079829
 30
0.0
 11
194.67008513406881
 21
241.19630510798279
 31
0.0
  0
LINE
  5
3C9A
  8
AM_0
 10
195.10321050630489
 20
248.47218734124641
 30
0.0
 11
195.2644550043027
 21
247.8704228747194
 31
0.0
  0
LINE
  5
3C9B
  8
AM_0
 10
194.35321050630489
 20
247.8704228747194
 30
0.0
 11
194.5144550043025
 21
248.4721873412463
 31
0.0
  0
LINE
  5
3C9C
  8
AM_0
 10
194.6110474988418
 20
248.5463051079829
 30
0.0
 11
195.0066180117658
 21
248.5463051079829
 31
0.0
  0
LINE
  5
3C9D
  8
AM_0
 10
195.2644550043027
 20
247.8704228747194
 30
0.0
 11
195.2843150704158
 21
247.7963051079829
 31
0.0
  0
LINE
  5
3C9E
  8
AM_0
 10
194.3333504401908
 20
247.7963051079829
 30
0.0
 11
194.35321050630489
 21
247.8704228747194
 31
0.0
  0
LINE
  5
3C9F
  8
AM_0
 10
195.0853038394828
 20
248.5080184818699
 30
0.0
 11
195.45835044019171
 21
241.19630510798279
 31
0.0
  0
LINE
  5
3CA0
  8
AM_0
 10
194.53604270574689
 20
248.5124434555039
 30
0.0
 11
194.9093150704168
 21
241.19630510798279
 31
0.0
  0
LINE
  5
3CA1
  8
AM_0
 10
198.4093150704158
 20
242.88456741649389
 30
0.0
 11
198.4093150704158
 21
249.49630510798369
 31
0.0
  0
LINE
  5
3CA2
  8
AM_0
 10
190.7843150704158
 20
249.99630510798389
 30
0.0
 11
190.7843150704168
 21
249.89630510798401
 31
0.0
  0
LINE
  5
3CA3
  8
AM_0
 10
190.7843150704168
 20
249.89630510798401
 30
0.0
 11
190.7843150704168
 21
242.28649894304189
 31
0.0
  0
LINE
  5
3CA4
  8
AM_0
 10
185.0185025434057
 20
249.69630510798589
 30
0.0
 11
190.58431507041681
 21
249.6963051079839
 31
0.0
  0
LINE
  5
3CA5
  8
AM_0
 10
192.7843150704168
 20
250.0963051079828
 30
0.0
 11
193.5141661861224
 21
250.02331999641191
 31
0.0
  0
LINE
  5
3CA6
  8
AM_0
 10
184.63439190360671
 20
249.51639730781761
 30
0.0
 11
182.4002044306169
 21
246.83537234022489
 31
0.0
  0
LINE
  5
3CA7
  8
AM_0
 10
192.7843150704168
 20
250.19630510798299
 30
0.0
 11
190.9843150704157
 21
250.19630510798299
 31
0.0
  0
LINE
  5
3CA8
  8
AM_0
 10
194.2843150704168
 20
249.49630510798289
 30
0.0
 11
194.2843150704168
 21
241.19630510798279
 31
0.0
  0
LINE
  5
3CA9
  8
AM_0
 10
193.4843150704157
 20
241.94630510798299
 30
0.0
 11
192.7843150704168
 21
241.94630510798299
 31
0.0
  0
LINE
  5
3CAA
  8
AM_0
 10
193.4843150704157
 20
246.18012587690691
 30
0.0
 11
192.7843150704168
 21
246.18012587690691
 31
0.0
  0
LINE
  5
3CAB
  8
AM_0
 10
193.78431507041589
 20
245.0802096106149
 30
0.0
 11
193.78431507041589
 21
245.8801258769069
 31
0.0
  0
LINE
  5
3CAC
  8
AM_0
 10
192.7843150704168
 20
244.78020961061489
 30
0.0
 11
193.4843150704157
 21
244.78020961061489
 31
0.0
  0
LINE
  5
3CAD
  8
AM_0
 10
193.4843150704157
 20
249.1589206533059
 30
0.0
 11
192.7843150704168
 21
249.1589206533059
 31
0.0
  0
LINE
  5
3CAE
  8
AM_0
 10
193.78431507041589
 20
248.45380979601589
 30
0.0
 11
193.78431507041589
 21
248.85892065330589
 31
0.0
  0
LINE
  5
3CAF
  8
AM_0
 10
192.7843150704168
 20
248.15380979601599
 30
0.0
 11
193.4843150704157
 21
248.15380979601599
 31
0.0
  0
LINE
  5
3CB0
  8
AM_0
 10
192.7843150704168
 20
241.1963051079849
 30
0.0
 11
192.7843150704168
 21
249.8963051079829
 31
0.0
  0
LINE
  5
3CB1
  8
AM_0
 10
193.7843150704168
 20
241.19630510798279
 30
0.0
 11
193.7843150704158
 21
241.6463051079829
 31
0.0
  0
LINE
  5
3CB2
  8
AM_0
 10
190.7843150704168
 20
248.00804279947289
 30
0.0
 11
185.28431507041279
 21
248.00804279947289
 31
0.0
  0
LINE
  5
3CB3
  8
AM_0
 10
190.7843150704168
 20
242.88456741649389
 30
0.0
 11
185.28431507041279
 21
242.8845674164929
 31
0.0
  0
LINE
  5
3CB4
  8
AM_0
 10
190.7843150704168
 20
241.69630510798291
 30
0.0
 11
185.28431507041381
 21
241.69630510798291
 31
0.0
  0
LINE
  5
3CB5
  8
AM_0
 10
185.28431507041381
 20
241.69630510798291
 30
0.0
 11
184.78431507041381
 21
241.19630510798279
 31
0.0
  0
LINE
  5
3CB6
  8
AM_0
 10
185.28431507041381
 20
241.69630510798291
 30
0.0
 11
184.78431507041279
 21
242.19630510798299
 31
0.0
  0
LINE
  5
3CB7
  8
AM_0
 10
184.78431507041279
 20
242.19630510798299
 30
0.0
 11
185.28431507041279
 21
242.8845674164929
 31
0.0
  0
LINE
  5
3CB8
  8
AM_0
 10
190.7843150704168
 20
242.19630510798299
 30
0.0
 11
184.78431507041279
 21
242.19630510798299
 31
0.0
  0
LINE
  5
3CB9
  8
AM_0
 10
190.7843150704168
 20
241.19630510798279
 30
0.0
 11
190.7843150704168
 21
242.28649894304189
 31
0.0
  0
LINE
  5
3CBA
  8
AM_0
 10
184.78431507041381
 20
248.0575210401509
 30
0.0
 11
185.28431507041279
 21
248.00804279947289
 31
0.0
  0
LINE
  5
3CBB
  8
AM_0
 10
185.28431507041279
 20
248.7284963161199
 30
0.0
 11
184.78431507041381
 21
248.0575210401509
 31
0.0
  0
LINE
  5
3CBC
  8
AM_0
 10
184.78431507041381
 20
248.7284963161199
 30
0.0
 11
185.28431507041279
 21
249.2284963161199
 31
0.0
  0
LINE
  5
3CBD
  8
AM_0
 10
185.28431507041279
 20
249.69630510798279
 30
0.0
 11
184.78431507041279
 21
249.2284963161199
 31
0.0
  0
LINE
  5
3CBE
  8
AM_0
 10
184.78431507041279
 20
249.2284963161199
 30
0.0
 11
190.7843150704168
 21
249.2284963161199
 31
0.0
  0
LINE
  5
3CBF
  8
AM_0
 10
190.7843150704168
 20
248.7284963161199
 30
0.0
 11
184.78431507041381
 21
248.7284963161199
 31
0.0
  0
LINE
  5
3CC0
  8
AM_0
 10
193.7843150704168
 20
249.69630510798279
 30
0.0
 11
193.78431507041589
 21
249.7248088393489
 31
0.0
  0
LINE
  5
3CC1
  8
AM_0
 10
194.08431507041681
 20
249.69630510798279
 30
0.0
 11
192.7843150704168
 21
249.69630510798279
 31
0.0
  0
LINE
  5
3CC2
  8
AM_0
 10
182.2843150704158
 20
246.51528014039309
 30
0.0
 11
182.2843150704158
 21
241.19630510798279
 31
0.0
  0
LINE
  5
3CC3
  8
AM_0
 10
192.7843150704168
 20
249.8963051079829
 30
0.0
 11
192.7843150704168
 21
250.19630510798299
 31
0.0
  0
ARC
  5
3CC4
  8
AM_0
 10
195.0026442344458
 20
234.49630510798301
 30
0.0
 40
0.0999999999999643
 50
15.00019500651257
 51
90.0
  0
ARC
  5
3CC5
  8
AM_0
 10
191.59681507041279
 20
236.94630510798279
 30
0.0
 40
6.8125000000000382
 50
157.91171016505771
 51
202.08828983494229
  0
ARC
  5
3CC6
  8
AM_0
 10
202.2093150704157
 20
232.49630510798289
 30
0.0
 40
0.1999999999999993
 50
0.0
 51
90.0
  0
ARC
  5
3CC7
  8
AM_0
 10
202.2093150704157
 20
249.8963051079829
 30
0.0
 40
0.2000000000000028
 50
270.0
 51
0.0
  0
ARC
  5
3CC8
  8
AM_0
 10
191.59681507041279
 20
245.44630510798279
 30
0.0
 40
6.8125000000000382
 50
157.91171016505771
 51
202.08828983494229
  0
ARC
  5
3CC9
  8
AM_0
 10
194.2526442344458
 20
233.94630510798291
 30
0.0
 40
0.1000000000000547
 50
288.4639767573006
 51
344.99980499348737
  0
ARC
  5
3CCA
  8
AM_0
 10
194.6070737215218
 20
234.4963051079838
 30
0.0
 40
0.1000000000000014
 50
90.0
 51
164.9998049934843
  0
ARC
  5
3CCB
  8
AM_0
 10
185.0185025434057
 20
233.196305107981
 30
0.0
 40
0.499999999999975
 50
219.8055710921868
 51
270.0
  0
ARC
  5
3CCC
  8
AM_0
 10
182.7843150704158
 20
235.87733007557389
 30
0.0
 40
0.5
 50
180.00000000000969
 51
219.80557109223059
  0
ARC
  5
3CCD
  8
AM_0
 10
193.4843150704157
 20
233.93880041995101
 30
0.0
 40
0.3000000000000007
 50
0.0
 51
90.0
  0
ARC
  5
3CCE
  8
AM_0
 10
193.4843150704157
 20
233.5336895626609
 30
0.0
 40
0.3000000000000043
 50
270.0
 51
0.0
  0
ARC
  5
3CCF
  8
AM_0
 10
193.4843150704157
 20
237.31240060535191
 30
0.0
 40
0.3000000000000007
 50
0.0
 51
90.0
  0
ARC
  5
3CD0
  8
AM_0
 10
193.4843150704157
 20
236.51248433905991
 30
0.0
 40
0.2999999999999971
 50
270.0
 51
0.0
  0
ARC
  5
3CD1
  8
AM_0
 10
193.4843150704157
 20
240.7463051079838
 30
0.0
 40
0.2999999999999971
 50
270.0
 51
0.0
  0
ARC
  5
3CD2
  8
AM_0
 10
193.4843150704157
 20
232.66780137661789
 30
0.0
 40
0.3000000000000302
 50
275.71059313755637
 51
0.0
  0
ARC
  5
3CD3
  8
AM_0
 10
190.9843150704157
 20
232.3963051079829
 30
0.0
 40
0.1999999999999993
 50
180.0
 51
270.0
  0
ARC
  5
3CD4
  8
AM_0
 10
194.08431507041681
 20
232.89630510798381
 30
0.0
 40
0.1999999999999957
 50
270.0
 51
0.0
  0
ARC
  5
3CD5
  8
AM_0
 10
190.58431507041681
 20
232.49630510798301
 30
0.0
 40
0.1999999999999993
 50
359.99999999997061
 51
90.0
  0
ARC
  5
3CD6
  8
AM_0
 10
196.1070737215218
 20
234.4963051079838
 30
0.0
 40
0.1000000000000014
 50
90.0
 51
164.9998049934843
  0
ARC
  5
3CD7
  8
AM_0
 10
195.7526442344458
 20
233.94630510798291
 30
0.0
 40
0.1000000000000014
 50
270.0
 51
344.99980499348737
  0
ARC
  5
3CD8
  8
AM_0
 10
195.3570737215218
 20
233.94630510798291
 30
0.0
 40
0.1000000000000311
 50
195.00019500644461
 51
270.0
  0
ARC
  5
3CD9
  8
AM_0
 10
197.9093150704158
 20
234.09630510798289
 30
0.0
 40
0.5
 50
359.99999999997721
 51
90.0
  0
ARC
  5
3CDA
  8
AM_0
 10
202.2093150704157
 20
239.3080427994729
 30
0.0
 40
0.1999999999999993
 50
0.0
 51
90.0
  0
ARC
  5
3CDB
  8
AM_0
 10
202.2093150704157
 20
234.58456741649391
 30
0.0
 40
0.2000000000000028
 50
270.0
 51
0.0
  0
ARC
  5
3CDC
  8
AM_0
 10
198.6093150704157
 20
232.8963051079829
 30
0.0
 40
0.1999999999999993
 50
179.99999999994131
 51
270.0
  0
ARC
  5
3CDD
  8
AM_0
 10
198.6093150704157
 20
249.49630510798389
 30
0.0
 40
0.2000000000000028
 50
90.0
 51
180.00000000005531
  0
ARC
  5
3CDE
  8
AM_0
 10
202.2093150704157
 20
247.8080427994729
 30
0.0
 40
0.1999999999999993
 50
0.0
 51
90.0
  0
ARC
  5
3CDF
  8
AM_0
 10
202.2093150704157
 20
243.0845674164928
 30
0.0
 40
0.2000000000000028
 50
270.0
 51
0.0
  0
ARC
  5
3CE0
  8
AM_0
 10
197.9093150704158
 20
248.2963051079829
 30
0.0
 40
0.5
 50
270.0
 51
0.0000000000227982
  0
ARC
  5
3CE1
  8
AM_0
 10
194.6110474988418
 20
248.44630510798299
 30
0.0
 40
0.1000000000000014
 50
90.0
 51
164.99980499355539
  0
ARC
  5
3CE2
  8
AM_0
 10
195.0066180117658
 20
248.44630510798299
 30
0.0
 40
0.0999999999999608
 50
15.00019500651571
 51
90.0
  0
ARC
  5
3CE3
  8
AM_0
 10
195.3610474988418
 20
247.8963051079829
 30
0.0
 40
0.0999999999999608
 50
195.00019500651561
 51
270.0
  0
ARC
  5
3CE4
  8
AM_0
 10
194.2566180117658
 20
247.8963051079829
 30
0.0
 40
0.0999999999999803
 50
286.07948273872381
 51
344.99980499348419
  0
ARC
  5
3CE5
  8
AM_0
 10
190.58431507041681
 20
249.89630510798401
 30
0.0
 40
0.1999999999999957
 50
270.0
 51
0.000000000029312
  0
ARC
  5
3CE6
  8
AM_0
 10
194.08431507041681
 20
249.49630510798289
 30
0.0
 40
0.1999999999999993
 50
0.0
 51
90.0
  0
ARC
  5
3CE7
  8
AM_0
 10
190.9843150704157
 20
249.99630510798389
 30
0.0
 40
0.2000000000000028
 50
90.0
 51
180.0
  0
ARC
  5
3CE8
  8
AM_0
 10
193.4843150704157
 20
249.72480883934901
 30
0.0
 40
0.3000000000000007
 50
0.0
 51
84.289406862443656
  0
ARC
  5
3CE9
  8
AM_0
 10
193.4843150704157
 20
241.6463051079829
 30
0.0
 40
0.3000000000000007
 50
0.0
 51
90.0
  0
ARC
  5
3CEA
  8
AM_0
 10
193.4843150704157
 20
245.8801258769069
 30
0.0
 40
0.3000000000000007
 50
0.0
 51
90.0
  0
ARC
  5
3CEB
  8
AM_0
 10
193.4843150704157
 20
245.0802096106149
 30
0.0
 40
0.2999999999999971
 50
270.0
 51
0.0
  0
ARC
  5
3CEC
  8
AM_0
 10
193.4843150704157
 20
248.85892065330589
 30
0.0
 40
0.3000000000000007
 50
0.0
 51
90.0
  0
ARC
  5
3CED
  8
AM_0
 10
193.4843150704157
 20
248.453809796016
 30
0.0
 40
0.3000000000000043
 50
270.0
 51
0.0
  0
ARC
  5
3CEE
  8
AM_0
 10
182.7843150704158
 20
246.51528014039289
 30
0.0
 40
0.5000000000000059
 50
140.19442890776941
 51
179.99999999998701
  0
ARC
  5
3CEF
  8
AM_0
 10
185.0185025434057
 20
249.19630510798601
 30
0.0
 40
0.5
 50
90.0
 51
140.19442890781301
  0
LINE
  5
3CF0
  8
AM_0
 10
202.6093150704157
 20
232.19630510798291
 30
0.0
 11
204.4093150704158
 21
232.19630510798291
 31
0.0
  0
LINE
  5
3CF1
  8
AM_0
 10
202.4093150704158
 20
232.3963051079829
 30
0.0
 11
202.4093150704158
 21
249.99630510798389
 31
0.0
  0
LINE
  5
3CF2
  8
AM_0
 10
204.40931507041589
 20
250.19630510798291
 30
0.0
 11
202.6093150704157
 21
250.19630510798299
 31
0.0
  0
ARC
  5
3CF3
  8
AM_0
 10
202.6093150704157
 20
232.3963051079829
 30
0.0
 40
0.1999999999999993
 50
180.0
 51
270.0
  0
ARC
  5
3CF4
  8
AM_0
 10
202.6093150704157
 20
249.99630510798389
 30
0.0
 40
0.2000000000000028
 50
90.0
 51
180.0
  0
LINE
  5
3CF5
  8
AM_0
 10
149.9093250704164
 20
313.25770861675488
 30
0.0
 11
149.90932507041609
 21
275.53542170199768
 31
0.0
  0
LINE
  5
3CF6
  8
AM_0
 10
140.9093250704156
 20
315.19630510798282
 30
0.0
 11
140.9093250704156
 21
236.15594062843479
 31
0.0
  0
LINE
  5
3CF7
  8
AM_0
 10
140.9093250704156
 20
228.99001949761831
 30
0.0
 11
140.9093250704156
 21
207.19630510798291
 31
0.0
  0
LINE
  5
3CF8
  8
AM_0
 10
140.9093250704156
 20
315.19630510798288
 30
0.0
 11
157.9093250704156
 21
314.19630510798288
 31
0.0
  0
LINE
  5
3CF9
  8
AM_0
 10
140.9093250704156
 20
207.19630510798291
 30
0.0
 11
157.9093250704156
 21
208.19630510798279
 31
0.0
  0
LINE
  5
3CFA
  8
AM_0
 10
149.9093250704164
 20
304.79020830607442
 30
0.0
 11
157.9093250704156
 21
304.79020830607431
 31
0.0
  0
LINE
  5
3CFB
  8
AM_0
 10
149.9093250704164
 20
313.25770861675488
 30
0.0
 11
157.9093250704156
 21
313.25770861675488
 31
0.0
  0
LINE
  5
3CFC
  8
AM_0
 10
146.4093250704164
 20
295.83717807324308
 30
0.0
 11
149.9093250704164
 21
295.83717807324308
 31
0.0
  0
LINE
  5
3CFD
  8
AM_0
 10
146.4093250704164
 20
304.33717807324308
 30
0.0
 11
149.9093250704164
 21
304.33717807324308
 31
0.0
  0
LINE
  5
3CFE
  8
AM_0
 10
145.9093250704164
 20
303.83717807324291
 30
0.0
 11
145.9093250704164
 21
296.33717807324308
 31
0.0
  0
ARC
  5
3CFF
  8
AM_0
 10
146.4093250704164
 20
303.83717807324291
 30
0.0
 40
0.5
 50
90.0
 51
180.0
  0
ARC
  5
3D00
  8
AM_0
 10
146.4093250704164
 20
296.33717807324308
 30
0.0
 40
0.5
 50
180.0
 51
270.0
  0
LINE
  5
3D01
  8
AM_0
 10
140.9093250704156
 20
303.46849960112303
 30
0.0
 11
145.9093250704164
 21
303.46849960112303
 31
0.0
  0
LINE
  5
3D02
  8
AM_0
 10
140.9093250704156
 20
293.7334171028271
 30
0.0
 11
149.90932507041629
 21
293.73341710282688
 31
0.0
  0
LINE
  5
3D03
  8
AM_0
 10
149.9093250704164
 20
217.6024019098914
 30
0.0
 11
157.9093250704156
 21
217.6024019098914
 31
0.0
  0
LINE
  5
3D04
  8
AM_0
 10
149.9093250704164
 20
209.13490159921091
 30
0.0
 11
157.9093250704156
 21
209.13490159921091
 31
0.0
  0
LINE
  5
3D05
  8
AM_0
 10
146.4093250704164
 20
226.55543214272279
 30
0.0
 11
149.9093250704164
 21
226.55543214272279
 31
0.0
  0
LINE
  5
3D06
  8
AM_0
 10
146.4093250704164
 20
218.05543214272279
 30
0.0
 11
149.9093250704164
 21
218.05543214272279
 31
0.0
  0
LINE
  5
3D07
  8
AM_0
 10
145.9093250704164
 20
218.55543214272279
 30
0.0
 11
145.9093250704164
 21
226.05543214272279
 31
0.0
  0
ARC
  5
3D08
  8
AM_0
 10
146.4093250704164
 20
218.55543214272279
 30
0.0
 40
0.5
 50
180.0
 51
270.0
  0
ARC
  5
3D09
  8
AM_0
 10
146.4093250704164
 20
226.05543214272279
 30
0.0
 40
0.5
 50
90.0
 51
180.0
  0
LINE
  5
3D0A
  8
AM_0
 10
140.9093250704156
 20
218.9241106148427
 30
0.0
 11
145.9093250704164
 21
218.9241106148427
 31
0.0
  0
LINE
  5
3D0B
  8
AM_0
 10
140.9093250704156
 20
228.6591931131388
 30
0.0
 11
149.90932507041629
 21
228.6591931131388
 31
0.0
  0
LINE
  5
3D0C
  8
AM_0
 10
149.90932507041609
 20
275.53542170199768
 30
0.0
 11
157.9093250704156
 21
275.53542170199762
 31
0.0
  0
LINE
  5
3D0D
  8
AM_0
 10
149.9093250704164
 20
209.13490159921091
 30
0.0
 11
149.90932507041629
 21
234.06058636931289
 31
0.0
  0
LINE
  5
3D0E
  8
AM_0
 10
149.90932507041629
 20
240.5368424452773
 30
0.0
 11
149.90932507041609
 21
246.85718851396811
 31
0.0
  0
LINE
  5
3D0F
  8
AM_0
 10
149.90932507041609
 20
246.85718851396811
 30
0.0
 11
157.9093250704156
 21
246.8571885139682
 31
0.0
  0
LINE
  5
3D10
  8
AM_0
 10
169.82074239176751
 20
238.1962706079828
 30
0.0
 11
177.4093150704158
 21
238.1962706079828
 31
0.0
  0
ARC
  5
3D11
  8
AM_0
 10
169.82074239176751
 20
188.19627060798271
 30
0.0
 40
50.0
 50
90.0
 51
122.4712801930125
1001
GENIUS_GENOBJ-N-FIL_13
1002
{
1000
OWNER
1000
GEN
1002
}
1001
GENIUS_GENODEF_13
1002
{
1000
HIER
1070
     0
1002
}
1002
{
1000
MANEDIT
1070
     0
1002
}
1002
{
1000
NOSEL
1070
     0
1002
}
1002
{
1000
BEHIND
1070
     0
1002
}
1002
{
1000
OTHER
1070
     0
1002
}
1002
{
1000
REACTOR
1002
}
  0
LINE
  5
3D12
  8
AM_0
 10
169.8207423917674
 20
244.19627060798251
 30
0.0
 11
177.4093150704158
 21
244.1962706079824
 31
0.0
  0
ARC
  5
3D13
  8
AM_0
 10
169.82074239176691
 20
188.19627060798251
 30
0.0
 40
56.0
 50
90.0
 51
122.4712801930125
1001
GENIUS_GENODEF_13
1002
{
1000
HIER
1070
     0
1002
}
1002
{
1000
MANEDIT
1070
     0
1002
}
1002
{
1000
NOSEL
1070
     0
1002
}
1002
{
1000
BEHIND
1070
     0
1002
}
1002
{
1000
OTHER
1070
     0
1002
}
1002
{
1000
REACTOR
1002
}
1001
GENIUS_GENOBJ-N-FIL_13
1002
{
1000
OWNER
1000
GEN
1002
}
  0
LINE
  5
3D14
  8
AM_0
 10
105.99874031908
 20
297.18668145290877
 30
0.0
 11
105.99874031908
 21
290.67507655395002
 31
0.0
  0
LINE
  5
3D15
  8
AM_0
 10
102.90932507041551
 20
250.19627060798271
 30
0.0
 11
102.90932507041551
 21
244.6962706079828
 31
0.0
  0
LINE
  5
3D16
  8
AM_0
 10
108.40932507041551
 20
257.69627060798268
 30
0.0
 11
108.40932507041551
 21
264.69627060798251
 31
0.0
  0
LINE
  5
3D17
  8
AM_0
 10
120.10932507041559
 20
244.6962706079828
 30
0.0
 11
102.90932507041551
 21
244.6962706079828
 31
0.0
  0
LINE
  5
3D18
  8
AM_0
 10
134.90932507041549
 20
207.19627060798271
 30
0.0
 11
134.90932507041549
 21
225.24537315224291
 31
0.0
  0
LINE
  5
3D19
  8
AM_0
 10
134.90932507041549
 20
232.35723726486029
 30
0.0
 11
134.90932507041549
 21
315.1962706079828
 31
0.0
  0
LINE
  5
3D1A
  8
AM_0
 10
102.90932507041551
 20
259.69627060798268
 30
0.0
 11
103.8093250704155
 21
259.69627060798268
 31
0.0
  0
LINE
  5
3D1B
  8
AM_0
 10
120.40932507041551
 20
252.6962706079828
 30
0.0
 11
120.40932507041551
 21
255.28078029258671
 31
0.0
  0
LINE
  5
3D1C
  8
AM_0
 10
100.7093250704153
 20
262.69627060798268
 30
0.0
 11
100.7093250704153
 21
259.69627060798268
 31
0.0
  0
LINE
  5
3D1D
  8
AM_0
 10
103.8093250704155
 20
259.42391887339909
 30
0.0
 11
103.8093250704155
 21
262.9686223425665
 31
0.0
  0
LINE
  5
3D1E
  8
AM_0
 10
100.40932507041541
 20
262.39627060798267
 30
0.0
 11
103.8093250704156
 21
262.39627060798267
 31
0.0
  0
LINE
  5
3D1F
  8
AM_0
 10
107.8093250704155
 20
258.81470074757561
 30
0.0
 11
107.8093250704155
 21
257.69627060798268
 31
0.0
  0
LINE
  5
3D20
  8
AM_0
 10
107.8093250704155
 20
259.69627060798268
 30
0.0
 11
107.8093250704155
 21
259.59627060798272
 31
0.0
  0
LINE
  5
3D21
  8
AM_0
 10
107.8093250704155
 20
259.59627060798272
 30
0.0
 11
107.8093250704155
 21
258.81470074757561
 31
0.0
  0
LINE
  5
3D22
  8
AM_0
 10
102.90932507041551
 20
244.6962706079828
 30
0.0
 11
102.90932507041551
 21
236.45873659856039
 31
0.0
  0
LINE
  5
3D23
  8
AM_0
 10
120.2628784610089
 20
255.6343336831801
 30
0.0
 11
119.90781133482059
 21
255.98940080936819
 31
0.0
  0
LINE
  5
3D24
  8
AM_0
 10
102.90932507041551
 20
262.69627060798268
 30
0.0
 11
102.90932507041551
 21
285.93380461740492
 31
0.0
  0
LINE
  5
3D25
  8
AM_0
 10
134.90932507041549
 20
306.19627060798291
 30
0.0
 11
111.1393163697829
 21
306.19627060798291
 31
0.0
  0
LINE
  5
3D26
  8
AM_0
 10
102.90932507041551
 20
251.12267378370379
 30
0.0
 11
102.90932507041551
 21
259.69627060798268
 31
0.0
  0
LINE
  5
3D27
  8
AM_0
 10
140.9093250704158
 20
315.1962706079828
 30
0.0
 11
134.90932507041549
 21
315.1962706079828
 31
0.0
  0
LINE
  5
3D28
  8
AM_0
 10
134.90932507041549
 20
207.19627060798271
 30
0.0
 11
140.90932507041549
 21
207.19627060798271
 31
0.0
  0
LINE
  5
3D29
  8
AM_0
 10
134.90932507041549
 20
216.19627060798271
 30
0.0
 11
125.40932507041551
 21
216.19627060798271
 31
0.0
  0
LINE
  5
3D2A
  8
AM_0
 10
102.9549018113789
 20
286.4547491504058
 30
0.0
 11
105.5243452590411
 21
301.02678706166949
 31
0.0
  0
LINE
  5
3D2B
  8
AM_0
 10
102.90932507041551
 20
251.12267378370379
 30
0.0
 11
102.90932507041551
 21
250.19627060798271
 31
0.0
  0
LINE
  5
3D2C
  8
AM_0
 10
125.40932507041551
 20
216.26489305836861
 30
0.0
 11
122.8465377715185
 21
216.26489305836861
 31
0.0
  0
LINE
  5
3D2D
  8
AM_0
 10
108.9531635781167
 20
216.19627060798271
 30
0.0
 11
109.90932507041551
 21
216.19627060798271
 31
0.0
  0
LINE
  5
3D2E
  8
AM_0
 10
102.9549018113789
 20
235.93779206555959
 30
0.0
 11
105.99874031908
 21
218.67532607498191
 31
0.0
  0
LINE
  5
3D2F
  8
AM_0
 10
102.90932507041551
 20
236.1962706079828
 30
0.0
 11
102.9549018113789
 21
235.93779206555959
 31
0.0
  0
LINE
  5
3D30
  8
AM_0
 10
102.90932507041551
 20
236.45873659856039
 30
0.0
 11
102.90932507041551
 21
236.1962706079828
 31
0.0
  0
LINE
  5
3D31
  8
AM_0
 10
102.4092864024086
 20
314.69627060798268
 30
0.0
 11
102.4092639500099
 21
341.69627060798268
 31
0.0
  0
LINE
  5
3D32
  8
AM_0
 10
102.4092639500099
 20
341.69627060798268
 30
0.0
 11
110.4092639500126
 21
341.69627060798268
 31
0.0
  0
LINE
  5
3D33
  8
AM_0
 10
110.4092639500126
 20
341.69627060798268
 30
0.0
 11
111.9092592948335
 21
347.2943294459713
 31
0.0
  0
LINE
  5
3D34
  8
AM_0
 10
111.9092592948335
 20
347.2943294459713
 30
0.0
 11
111.90924453147311
 21
365.04792172586161
 31
0.0
  0
LINE
  5
3D35
  8
AM_0
 10
102.4092639500099
 20
341.69627060798268
 30
0.0
 11
100.9092592948009
 21
347.29436419281268
 31
0.0
  0
LINE
  5
3D36
  8
AM_0
 10
100.9092592948009
 20
347.29436419281268
 30
0.0
 11
100.9092445314769
 21
365.04791257858818
 31
0.0
  0
LINE
  5
3D37
  8
AM_0
 10
106.40928640241
 20
365.04791257858818
 30
0.0
 11
106.40928640241
 21
347.29436419281268
 31
0.0
  0
LINE
  5
3D38
  8
AM_0
 10
110.4092639500126
 20
341.69627060798268
 30
0.0
 11
110.4092864024114
 21
314.69627060798268
 31
0.0
  0
LINE
  5
3D39
  8
AM_0
 10
120.40932507041551
 20
290.67507655395002
 30
0.0
 11
120.40932507041551
 21
244.99627060798269
 31
0.0
  0
LINE
  5
3D3A
  8
AM_0
 10
108.40932507041551
 20
255.28078029258671
 30
0.0
 11
108.40932507041551
 21
252.6962706079828
 31
0.0
  0
LINE
  5
3D3B
  8
AM_0
 10
108.9108388060106
 20
255.98940080936819
 30
0.0
 11
108.5557716798223
 21
255.6343336831801
 31
0.0
  0
LINE
  5
3D3C
  8
AM_0
 10
119.90932507041551
 20
252.19627060798271
 30
0.0
 11
108.90932507041551
 21
252.19627060798271
 31
0.0
  0
LINE
  5
3D3D
  8
AM_0
 10
99.909287233914583
 20
313.69626520277558
 30
0.0
 11
99.909314259950065
 21
308.69626520277558
 31
0.0
  0
LINE
  5
3D3E
  8
AM_0
 10
112.9092872340461
 20
313.69627601318967
 30
0.0
 11
112.9093131618658
 21
308.89945335981912
 31
0.0
  0
LINE
  5
3D3F
  8
AM_0
 10
103.5298283224964
 20
306.69627060798268
 30
0.0
 11
102.9582664211311
 21
307.35285443004301
 31
0.0
  0
LINE
  5
3D40
  8
AM_0
 10
100.9093142599355
 20
307.69627060798268
 30
0.0
 11
111.9093131618658
 21
307.69627060798268
 31
0.0
  0
LINE
  5
3D41
  8
AM_0
 10
112.9093131618658
 20
308.89945335981912
 30
0.0
 11
112.9093131618658
 21
308.69627060798268
 31
0.0
  0
LINE
  5
3D42
  8
AM_0
 10
112.9093131618658
 20
308.89945335981912
 30
0.0
 11
112.9093142600816
 21
308.69627601318967
 31
0.0
  0
LINE
  5
3D43
  8
AM_0
 10
100.9092872339
 20
314.69627060798268
 30
0.0
 11
111.9092872340608
 21
314.69627060798268
 31
0.0
  0
LINE
  5
3D44
  8
AM_0
 10
110.9167610325777
 20
306.72685767826812
 30
0.0
 11
118.0395607659231
 21
289.74561835952147
 31
0.0
  0
LINE
  5
3D45
  8
AM_0
 10
103.5298283224964
 20
306.69627060798268
 30
0.0
 11
110.1065433978067
 21
288.00172997758051
 31
0.0
  0
LINE
  5
3D46
  8
AM_0
 10
107.8093250704155
 20
259.69627060798268
 30
0.0
 11
107.8093250704155
 21
259.59627060798272
 31
0.0
  0
LINE
  5
3D47
  8
AM_0
 10
107.8093250704155
 20
259.59627060798272
 30
0.0
 11
107.8093250704155
 21
258.81470074757561
 31
0.0
  0
LINE
  5
3D48
  8
AM_0
 10
107.8093250704155
 20
257.69627060798268
 30
0.0
 11
108.40932507041551
 21
257.69627060798268
 31
0.0
  0
LINE
  5
3D49
  8
AM_0
 10
105.10932507041559
 20
258.81470074757561
 30
0.0
 11
105.10932507041559
 21
263.57784046838992
 31
0.0
  0
LINE
  5
3D4A
  8
AM_0
 10
104.948280841158
 20
258.52800911923248
 30
0.0
 11
104.0157277916508
 21
259.06641887339907
 31
0.0
  0
LINE
  5
3D4B
  8
AM_0
 10
107.8093250704155
 20
264.69627060798251
 30
0.0
 11
107.8093250704155
 21
259.69627060798268
 31
0.0
  0
LINE
  5
3D4C
  8
AM_0
 10
105.3817766624461
 20
258.02084412743977
 30
0.0
 11
107.5368734783849
 21
258.02084412743977
 31
0.0
  0
LINE
  5
3D4D
  8
AM_0
 10
105.3817766624461
 20
259.60855736771128
 30
0.0
 11
107.5368734783849
 21
259.60855736771128
 31
0.0
  0
LINE
  5
3D4E
  8
AM_0
 10
103.8093250704156
 20
262.69627060798268
 30
0.0
 11
100.7093250704153
 21
262.69627060798268
 31
0.0
  0
LINE
  5
3D4F
  8
AM_0
 10
100.7093250704153
 20
262.69627060798268
 30
0.0
 11
100.40932507041541
 21
262.39627060798267
 31
0.0
  0
LINE
  5
3D50
  8
AM_0
 10
100.40932507041541
 20
262.39627060798267
 30
0.0
 11
100.40932507041541
 21
259.99627060798281
 31
0.0
  0
LINE
  5
3D51
  8
AM_0
 10
100.7093250704153
 20
259.69627060798268
 30
0.0
 11
102.90932507041551
 21
259.69627060798268
 31
0.0
  0
LINE
  5
3D52
  8
AM_0
 10
100.40932507041541
 20
259.99627060798281
 30
0.0
 11
100.7093250704153
 21
259.69627060798268
 31
0.0
  0
LINE
  5
3D53
  8
AM_0
 10
103.8093250704155
 20
259.99627060798281
 30
0.0
 11
100.40932507041541
 21
259.99627060798281
 31
0.0
  0
ARC
  5
3D54
  8
AM_0
 10
102.40932507041551
 20
261.1962706079828
 30
0.0
 40
18.000000000000082
 50
344.79096035988943
 51
15.209039640107409
  0
ARC
  5
3D55
  8
AM_0
 10
106.51654825438899
 20
258.81470074757561
 30
0.0
 40
1.292776816026465
 50
322.11555894630482
 51
0.0
  0
ARC
  5
3D56
  8
AM_0
 10
126.40932507041551
 20
261.1962706079828
 30
0.0
 40
17.999999999999918
 50
164.7909603598894
 51
195.20903964011049
  0
ARC
  5
3D57
  8
AM_0
 10
106.4092514764564
 20
356.6962706079828
 30
0.0
 40
10.0
 50
56.63303467623782
 51
123.3670606147022
  0
ARC
  5
3D58
  8
AM_0
 10
103.6592654669434
 20
360.6152642189823
 30
0.0
 40
5.2164151124522951
 50
58.18448044842868
 51
121.8155195515713
  0
ARC
  5
3D59
  8
AM_0
 10
109.159272840578
 20
360.61438932822227
 30
0.0
 40
5.217140387381062
 50
58.190058295973543
 51
121.81013228735971
  0
ARC
  5
3D5A
  8
AM_0
 10
103.6592728486055
 20
348.66231820715541
 30
0.0
 40
3.0714610092699122
 50
206.44737672421749
 51
333.55262327578248
  0
ARC
  5
3D5B
  8
AM_0
 10
109.1592814799767
 20
348.66057800246011
 30
0.0
 40
3.070669812974502
 50
206.41845794673139
 51
333.58081810520707
  0
ARC
  5
3D5C
  8
AM_0
 10
109.87175494647521
 20
261.1962706079828
 30
0.0
 40
4.762429876059711
 50
160.52575999458611
 51
199.4742400054138
  0
ARC
  5
3D5D
  8
AM_0
 10
106.4021018864421
 20
258.81470074757561
 30
0.0
 40
1.292776816026556
 50
142.11555894629771
 51
217.8844410536951
  0
ARC
  5
3D5E
  8
AM_0
 10
103.046895194356
 20
261.1962706079828
 30
0.0
 40
4.762429876059584
 50
340.52575999458628
 51
19.474240005409651
  0
ARC
  5
3D5F
  8
AM_0
 10
106.51654825438899
 20
258.81470074757561
 30
0.0
 40
1.2927768160265021
 50
0.0
 51
37.884441053702282
  0
ARC
  5
3D60
  8
AM_0
 10
120.10932507041559
 20
244.99627060798269
 30
0.0
 40
0.2999999999999972
 50
270.0
 51
0.0
  0
ARC
  5
3D61
  8
AM_0
 10
120.2613647254138
 20
256.34295419996158
 30
0.0
 40
0.4999999999998723
 50
164.7909603598988
 51
225.00000000001839
  0
ARC
  5
3D62
  8
AM_0
 10
105.90932507041551
 20
236.45873659856039
 30
0.0
 40
3.0
 50
180.0
 51
190.00000000000171
  0
ARC
  5
3D63
  8
AM_0
 10
105.90932507041551
 20
285.93380461740492
 30
0.0
 40
2.999999999999992
 50
169.9999999999981
 51
180.0
  0
ARC
  5
3D64
  8
AM_0
 10
108.9531635781167
 20
219.19627060798271
 30
0.0
 40
2.9999999999999631
 50
190.00000000000171
 51
270.0
  0
ARC
  5
3D65
  8
AM_0
 10
108.90932507041551
 20
252.6962706079828
 30
0.0
 40
0.5
 50
180.0
 51
270.0
  0
ARC
  5
3D66
  8
AM_0
 10
119.90932507041551
 20
252.6962706079828
 30
0.0
 40
0.5
 50
270.0
 51
0.0
  0
ARC
  5
3D67
  8
AM_0
 10
119.90932507041551
 20
255.28078029258671
 30
0.0
 40
0.5
 50
0.0
 51
45.0
  0
ARC
  5
3D68
  8
AM_0
 10
108.5572854154172
 20
256.34295419996158
 30
0.0
 40
0.5000000000001048
 50
314.99999999998619
 51
15.209039640101111
  0
ARC
  5
3D69
  8
AM_0
 10
108.90932507041551
 20
255.28078029258671
 30
0.0
 40
0.499999999999984
 50
134.99999999999079
 51
180.0
  0
ARC
  5
3D6A
  8
AM_0
 10
100.9092872339
 20
313.69627060798268
 30
0.0
 40
1.0
 50
90.0
 51
180.00030969555451
  0
ARC
  5
3D6B
  8
AM_0
 10
111.9092872340608
 20
313.69627060798268
 30
0.0
 40
0.9999999999999992
 50
0.0003096955479991
 51
90.0
  0
ARC
  5
3D6C
  8
AM_0
 10
100.9093142599355
 20
308.69627060798268
 30
0.0
 40
0.9999999999999992
 50
180.00030969555451
 51
270.0
  0
ARC
  5
3D6D
  8
AM_0
 10
111.9093131618658
 20
308.69627060798268
 30
0.0
 40
1.0
 50
270.0
 51
0.0
  0
ARC
  5
3D6E
  8
AM_0
 10
111.389554948951
 20
307.09627060798277
 30
0.0
 40
0.5999999999999944
 50
90.0
 51
218.00194433773009
  0
ARC
  5
3D6F
  8
AM_0
 10
102.2040133570946
 20
306.69627060798268
 30
0.0
 40
0.9999999999999468
 50
41.03985310957956
 51
90.0
  0
ARC
  5
3D70
  8
AM_0
 10
104.2221305128861
 20
259.42391887339909
 30
0.0
 40
0.4128054424705854
 50
180.0
 51
239.99999999999949
  0
ARC
  5
3D71
  8
AM_0
 10
104.5354753986875
 20
257.81300911923262
 30
0.0
 40
0.8256108849411369
 50
28.217424594175291
 51
59.999999999996653
  0
LINE
  5
3D72
  8
AM_0
 10
103.6990594000471
 20
290.67507655394991
 30
0.0
 11
109.1660635498159
 21
290.67507655394991
 31
0.0
  0
LINE
  5
3D73
  8
AM_0
 10
117.64969849172959
 20
290.67507655394991
 30
0.0
 11
120.40932507041551
 21
290.67507655394991
 31
0.0
  0
LINE
  5
3D74
  8
AM_0
 10
107.8093250704158
 20
264.69627060798263
 30
0.0
 11
108.4093250704158
 21
264.69627060798251
 31
0.0
  0
LINE
  5
3D75
  8
AM_0
 10
104.94828084115829
 20
263.86453209673289
 30
0.0
 11
104.015727791651
 21
263.32612234256652
 31
0.0
  0
LINE
  5
3D76
  8
AM_0
 10
105.3817766624464
 20
264.37169708852571
 30
0.0
 11
107.5368734783852
 21
264.37169708852548
 31
0.0
  0
LINE
  5
3D77
  8
AM_0
 10
105.3817766624462
 20
262.78398384825431
 30
0.0
 11
107.5368734783851
 21
262.78398384825402
 31
0.0
  0
ARC
  5
3D78
  8
AM_0
 10
106.51654825438921
 20
263.57784046838992
 30
0.0
 40
1.292776816026465
 50
359.99999999999352
 51
37.88444105369058
  0
ARC
  5
3D79
  8
AM_0
 10
106.4021018864422
 20
263.57784046838992
 30
0.0
 40
1.292776816026556
 50
142.11555894629771
 51
217.8844410536951
  0
ARC
  5
3D7A
  8
AM_0
 10
106.51654825438921
 20
263.57784046838992
 30
0.0
 40
1.2927768160265021
 50
322.11555894629322
 51
359.99999999999352
  0
ARC
  5
3D7B
  8
AM_0
 10
104.2221305128862
 20
262.9686223425665
 30
0.0
 40
0.4128054424705854
 50
119.99999999999331
 51
179.99999999999341
  0
ARC
  5
3D7C
  8
AM_0
 10
104.53547539868769
 20
264.57953209673298
 30
0.0
 40
0.8256108849411369
 50
300.00000000000051
 51
331.7825754058203
  0
LINE
  5
3D7D
  8
AM_0
 10
120.4093250704161
 20
269.69627060798223
 30
0.0
 11
120.4093250704159
 21
267.11176092337809
 31
0.0
  0
LINE
  5
3D7E
  8
AM_0
 10
120.26287846100919
 20
266.75820753278492
 30
0.0
 11
119.90781133482091
 21
266.40314040659661
 31
0.0
  0
LINE
  5
3D7F
  8
AM_0
 10
108.4093250704159
 20
267.11176092337888
 30
0.0
 11
108.4093250704161
 21
269.69627060798302
 31
0.0
  0
LINE
  5
3D80
  8
AM_0
 10
108.9108388060109
 20
266.4031404065974
 30
0.0
 11
108.5557716798227
 21
266.7582075327856
 31
0.0
  0
LINE
  5
3D81
  8
AM_0
 10
119.9093250704161
 20
270.19627060798223
 30
0.0
 11
119.42874718456871
 21
270.19627060798223
 31
0.0
  0
LINE
  5
3D82
  8
AM_0
 10
109.3899029562634
 20
270.19627060798291
 30
0.0
 11
108.9093250704161
 21
270.19627060798291
 31
0.0
  0
ARC
  5
3D83
  8
AM_0
 10
120.2613647254141
 20
266.04958701600327
 30
0.0
 40
0.4999999999998723
 50
134.99999999997701
 51
195.20903964009699
  0
ARC
  5
3D84
  8
AM_0
 10
108.9093250704161
 20
269.6962706079828
 30
0.0
 40
0.5
 50
89.999999999996732
 51
179.99999999999659
  0
ARC
  5
3D85
  8
AM_0
 10
119.9093250704161
 20
269.69627060798223
 30
0.0
 40
0.5
 50
359.99999999999682
 51
89.999999999996732
  0
ARC
  5
3D86
  8
AM_0
 10
119.9093250704159
 20
267.1117609233782
 30
0.0
 40
0.5
 50
314.9999999999954
 51
359.99999999999682
  0
ARC
  5
3D87
  8
AM_0
 10
108.5572854154175
 20
266.04958701600401
 30
0.0
 40
0.5000000000001048
 50
344.79096035989579
 51
45.000000000009209
  0
ARC
  5
3D88
  8
AM_0
 10
108.9093250704159
 20
267.11176092337888
 30
0.0
 40
0.499999999999984
 50
179.99999999999659
 51
225.0000000000046
  0
LINE
  5
3D89
  8
AM_0
 10
110.3899029562635
 20
286.34242200580462
 30
0.0
 11
110.3899029562634
 21
271.19627060798291
 31
0.0
  0
ARC
  5
3D8A
  8
AM_0
 10
109.3899029562634
 20
271.19627060798291
 30
0.0
 40
1.0
 50
269.99999999999682
 51
0.0
1001
GENIUS_GENODEF_13
1002
{
1000
HIER
1070
     0
1002
}
1002
{
1000
MANEDIT
1070
     0
1002
}
1002
{
1000
NOSEL
1070
     0
1002
}
1002
{
1000
BEHIND
1070
     0
1002
}
1002
{
1000
OTHER
1070
     0
1002
}
1002
{
1000
REACTOR
1002
}
1001
GENIUS_GENOBJ-N-FIL_13
1002
{
1000
OWNER
1000
GEN
1002
}
  0
ARC
  5
3D8B
  8
AM_0
 10
105.3899029562635
 20
286.34242200580462
 30
0.0
 40
5.0
 50
0.0
 51
19.381805699020159
1001
GENIUS_GENOBJ-N-FIL_13
1002
{
1000
OWNER
1000
GEN
1002
}
1001
GENIUS_GENODEF_13
1002
{
1000
HIER
1070
     0
1002
}
1002
{
1000
MANEDIT
1070
     0
1002
}
1002
{
1000
NOSEL
1070
     0
1002
}
1002
{
1000
BEHIND
1070
     0
1002
}
1002
{
1000
OTHER
1070
     0
1002
}
1002
{
1000
REACTOR
1002
}
  0
LINE
  5
3D8C
  8
AM_0
 10
118.42874718456881
 20
287.8116074707213
 30
0.0
 11
118.42874718456881
 21
271.19627060798223
 31
0.0
  0
ARC
  5
3D8D
  8
AM_0
 10
119.42874718456881
 20
271.19627060798223
 30
0.0
 40
1.0
 50
180.0
 51
269.99999999999352
1001
GENIUS_GENOBJ-N-FIL_13
1002
{
1000
OWNER
1000
GEN
1002
}
1001
GENIUS_GENODEF_13
1002
{
1000
HIER
1070
     0
1002
}
1002
{
1000
MANEDIT
1070
     0
1002
}
1002
{
1000
NOSEL
1070
     0
1002
}
1002
{
1000
BEHIND
1070
     0
1002
}
1002
{
1000
OTHER
1070
     0
1002
}
1002
{
1000
REACTOR
1002
}
  0
ARC
  5
3D8E
  8
AM_0
 10
113.42874718456881
 20
287.8116074707213
 30
0.0
 40
5.0
 50
0.0
 51
22.755667319206839
1001
GENIUS_GENODEF_13
1002
{
1000
HIER
1070
     0
1002
}
1002
{
1000
MANEDIT
1070
     0
1002
}
1002
{
1000
NOSEL
1070
     0
1002
}
1002
{
1000
BEHIND
1070
     0
1002
}
1002
{
1000
OTHER
1070
     0
1002
}
1002
{
1000
REACTOR
1002
}
1001
GENIUS_GENOBJ-N-FIL_13
1002
{
1000
OWNER
1000
GEN
1002
}
  0
LINE
  5
3D8F
  8
AM_0
 10
109.13586391707361
 20
266.17811529553472
 30
0.0
 11
119.6827862237588
 21
266.17811529553472
 31
0.0
  0
LINE
  5
3D90
  8
AM_0
 10
109.13586391707319
 20
256.21442592043098
 30
0.0
 11
119.6827862237578
 21
256.21442592043098
 31
0.0
  0
LINE
  5
3D91
  8
AM_0
 10
105.99874031908
 20
225.20585976305671
 30
0.0
 11
105.99874031908
 21
244.6962706079828
 31
0.0
  0
LINE
  5
3D92
  8
AM_0
 10
108.9531635781167
 20
216.19627060798271
 30
0.0
 11
108.9531635781167
 21
244.6962706079828
 31
0.0
  0
LINE
  5
3DAD
  8
AM_0
 10
118.7081781347924
 20
214.9355174540284
 30
0.0
 11
142.97690306562029
 21
230.37930381129789
 31
0.0
  0
LINE
  5
3DAE
  8
AM_0
 10
115.4869174156547
 20
219.99748143842621
 30
0.0
 11
139.75564234648181
 21
235.44126779569541
 31
0.0
  0
POLYLINE
  5
3DAF
  8
AM_0
 66
     1
 10
0.0
 20
0.0
 30
0.0
 70
     8
  0
VERTEX
  5
57C2
  8
AM_0
 10
115.48699999999999
 20
219.99700000000001
 30
0.0
 70
    32
  0
VERTEX
  5
57C3
  8
AM_0
 10
115.411
 20
219.94800000000001
 30
0.0
 70
    32
  0
VERTEX
  5
57C4
  8
AM_0
 10
115.336
 20
219.89699999999999
 30
0.0
 70
    32
  0
VERTEX
  5
57C5
  8
AM_0
 10
115.262
 20
219.845
 30
0.0
 70
    32
  0
VERTEX
  5
57C6
  8
AM_0
 10
115.18899999999999
 20
219.791
 30
0.0
 70
    32
  0
VERTEX
  5
57C7
  8
AM_0
 10
115.117
 20
219.73599999999999
 30
0.0
 70
    32
  0
VERTEX
  5
57C8
  8
AM_0
 10
115.047
 20
219.679
 30
0.0
 70
    32
  0
VERTEX
  5
57C9
  8
AM_0
 10
114.97799999999999
 20
219.62100000000001
 30
0.0
 70
    32
  0
VERTEX
  5
57CA
  8
AM_0
 10
114.91
 20
219.56200000000001
 30
0.0
 70
    32
  0
VERTEX
  5
57CB
  8
AM_0
 10
114.843
 20
219.501
 30
0.0
 70
    32
  0
VERTEX
  5
57CC
  8
AM_0
 10
114.77800000000001
 20
219.44
 30
0.0
 70
    32
  0
VERTEX
  5
57CD
  8
AM_0
 10
114.714
 20
219.37700000000001
 30
0.0
 70
    32
  0
VERTEX
  5
57CE
  8
AM_0
 10
114.651
 20
219.31299999999999
 30
0.0
 70
    32
  0
VERTEX
  5
57CF
  8
AM_0
 10
114.59
 20
219.24700000000001
 30
0.0
 70
    32
  0
VERTEX
  5
57D0
  8
AM_0
 10
114.53100000000001
 20
219.18100000000001
 30
0.0
 70
    32
  0
VERTEX
  5
57D1
  8
AM_0
 10
114.473
 20
219.114
 30
0.0
 70
    32
  0
VERTEX
  5
57D2
  8
AM_0
 10
114.417
 20
219.04599999999999
 30
0.0
 70
    32
  0
VERTEX
  5
57D3
  8
AM_0
 10
114.36199999999999
 20
218.976
 30
0.0
 70
    32
  0
VERTEX
  5
57D4
  8
AM_0
 10
114.309
 20
218.90600000000001
 30
0.0
 70
    32
  0
VERTEX
  5
57D5
  8
AM_0
 10
114.25700000000001
 20
218.83500000000001
 30
0.0
 70
    32
  0
VERTEX
  5
57D6
  8
AM_0
 10
114.208
 20
218.76300000000001
 30
0.0
 70
    32
  0
VERTEX
  5
57D7
  8
AM_0
 10
114.16
 20
218.691
 30
0.0
 70
    32
  0
VERTEX
  5
57D8
  8
AM_0
 10
114.113
 20
218.61699999999999
 30
0.0
 70
    32
  0
VERTEX
  5
57D9
  8
AM_0
 10
114.069
 20
218.54300000000001
 30
0.0
 70
    32
  0
VERTEX
  5
57DA
  8
AM_0
 10
114.026
 20
218.46899999999999
 30
0.0
 70
    32
  0
VERTEX
  5
57DB
  8
AM_0
 10
113.986
 20
218.393
 30
0.0
 70
    32
  0
VERTEX
  5
57DC
  8
AM_0
 10
113.947
 20
218.31800000000001
 30
0.0
 70
    32
  0
VERTEX
  5
57DD
  8
AM_0
 10
113.91
 20
218.24100000000001
 30
0.0
 70
    32
  0
VERTEX
  5
57DE
  8
AM_0
 10
113.875
 20
218.16399999999999
 30
0.0
 70
    32
  0
VERTEX
  5
57DF
  8
AM_0
 10
113.842
 20
218.08699999999999
 30
0.0
 70
    32
  0
VERTEX
  5
57E0
  8
AM_0
 10
113.81100000000001
 20
218.00999999999999
 30
0.0
 70
    32
  0
VERTEX
  5
57E1
  8
AM_0
 10
113.78100000000001
 20
217.93199999999999
 30
0.0
 70
    32
  0
VERTEX
  5
57E2
  8
AM_0
 10
113.754
 20
217.85300000000001
 30
0.0
 70
    32
  0
VERTEX
  5
57E3
  8
AM_0
 10
113.729
 20
217.77500000000001
 30
0.0
 70
    32
  0
VERTEX
  5
57E4
  8
AM_0
 10
113.706
 20
217.696
 30
0.0
 70
    32
  0
VERTEX
  5
57E5
  8
AM_0
 10
113.685
 20
217.61699999999999
 30
0.0
 70
    32
  0
VERTEX
  5
57E6
  8
AM_0
 10
113.666
 20
217.53899999999999
 30
0.0
 70
    32
  0
VERTEX
  5
57E7
  8
AM_0
 10
113.649
 20
217.46000000000001
 30
0.0
 70
    32
  0
VERTEX
  5
57E8
  8
AM_0
 10
113.634
 20
217.381
 30
0.0
 70
    32
  0
VERTEX
  5
57E9
  8
AM_0
 10
113.621
 20
217.30199999999999
 30
0.0
 70
    32
  0
VERTEX
  5
57EA
  8
AM_0
 10
113.611
 20
217.22300000000001
 30
0.0
 70
    32
  0
VERTEX
  5
57EB
  8
AM_0
 10
113.602
 20
217.14400000000001
 30
0.0
 70
    32
  0
VERTEX
  5
57EC
  8
AM_0
 10
113.596
 20
217.066
 30
0.0
 70
    32
  0
VERTEX
  5
57ED
  8
AM_0
 10
113.59099999999999
 20
216.988
 30
0.0
 70
    32
  0
VERTEX
  5
57EE
  8
AM_0
 10
113.589
 20
216.91
 30
0.0
 70
    32
  0
VERTEX
  5
57EF
  8
AM_0
 10
113.589
 20
216.83199999999999
 30
0.0
 70
    32
  0
VERTEX
  5
57F0
  8
AM_0
 10
113.59099999999999
 20
216.755
 30
0.0
 70
    32
  0
VERTEX
  5
57F1
  8
AM_0
 10
113.595
 20
216.678
 30
0.0
 70
    32
  0
VERTEX
  5
57F2
  8
AM_0
 10
113.601
 20
216.602
 30
0.0
 70
    32
  0
VERTEX
  5
57F3
  8
AM_0
 10
113.60899999999999
 20
216.52600000000001
 30
0.0
 70
    32
  0
VERTEX
  5
57F4
  8
AM_0
 10
113.62
 20
216.45099999999999
 30
0.0
 70
    32
  0
VERTEX
  5
57F5
  8
AM_0
 10
113.63200000000001
 20
216.37700000000001
 30
0.0
 70
    32
  0
VERTEX
  5
57F6
  8
AM_0
 10
113.64700000000001
 20
216.303
 30
0.0
 70
    32
  0
VERTEX
  5
57F7
  8
AM_0
 10
113.663
 20
216.22999999999999
 30
0.0
 70
    32
  0
VERTEX
  5
57F8
  8
AM_0
 10
113.682
 20
216.15700000000001
 30
0.0
 70
    32
  0
VERTEX
  5
57F9
  8
AM_0
 10
113.703
 20
216.08500000000001
 30
0.0
 70
    32
  0
VERTEX
  5
57FA
  8
AM_0
 10
113.726
 20
216.01499999999999
 30
0.0
 70
    32
  0
VERTEX
  5
57FB
  8
AM_0
 10
113.751
 20
215.94499999999999
 30
0.0
 70
    32
  0
VERTEX
  5
57FC
  8
AM_0
 10
113.777
 20
215.875
 30
0.0
 70
    32
  0
VERTEX
  5
57FD
  8
AM_0
 10
113.806
 20
215.80699999999999
 30
0.0
 70
    32
  0
VERTEX
  5
57FE
  8
AM_0
 10
113.837
 20
215.74000000000001
 30
0.0
 70
    32
  0
VERTEX
  5
57FF
  8
AM_0
 10
113.87
 20
215.67400000000001
 30
0.0
 70
    32
  0
VERTEX
  5
5800
  8
AM_0
 10
113.905
 20
215.60900000000001
 30
0.0
 70
    32
  0
VERTEX
  5
5801
  8
AM_0
 10
113.941
 20
215.54499999999999
 30
0.0
 70
    32
  0
VERTEX
  5
5802
  8
AM_0
 10
113.98
 20
215.483
 30
0.0
 70
    32
  0
VERTEX
  5
5803
  8
AM_0
 10
114.021
 20
215.42099999999999
 30
0.0
 70
    32
  0
VERTEX
  5
5804
  8
AM_0
 10
114.063
 20
215.36099999999999
 30
0.0
 70
    32
  0
VERTEX
  5
5805
  8
AM_0
 10
114.107
 20
215.30199999999999
 30
0.0
 70
    32
  0
VERTEX
  5
5806
  8
AM_0
 10
114.15300000000001
 20
215.244
 30
0.0
 70
    32
  0
VERTEX
  5
5807
  8
AM_0
 10
114.20099999999999
 20
215.18799999999999
 30
0.0
 70
    32
  0
VERTEX
  5
5808
  8
AM_0
 10
114.25
 20
215.13300000000001
 30
0.0
 70
    32
  0
VERTEX
  5
5809
  8
AM_0
 10
114.301
 20
215.07900000000001
 30
0.0
 70
    32
  0
VERTEX
  5
580A
  8
AM_0
 10
114.354
 20
215.02699999999999
 30
0.0
 70
    32
  0
VERTEX
  5
580B
  8
AM_0
 10
114.40900000000001
 20
214.976
 30
0.0
 70
    32
  0
VERTEX
  5
580C
  8
AM_0
 10
114.465
 20
214.92699999999999
 30
0.0
 70
    32
  0
VERTEX
  5
580D
  8
AM_0
 10
114.523
 20
214.87899999999999
 30
0.0
 70
    32
  0
VERTEX
  5
580E
  8
AM_0
 10
114.58199999999999
 20
214.833
 30
0.0
 70
    32
  0
VERTEX
  5
580F
  8
AM_0
 10
114.643
 20
214.78899999999999
 30
0.0
 70
    32
  0
VERTEX
  5
5810
  8
AM_0
 10
114.705
 20
214.74600000000001
 30
0.0
 70
    32
  0
VERTEX
  5
5811
  8
AM_0
 10
114.76900000000001
 20
214.70500000000001
 30
0.0
 70
    32
  0
VERTEX
  5
5812
  8
AM_0
 10
114.834
 20
214.66499999999999
 30
0.0
 70
    32
  0
VERTEX
  5
5813
  8
AM_0
 10
114.90000000000001
 20
214.62700000000001
 30
0.0
 70
    32
  0
VERTEX
  5
5814
  8
AM_0
 10
114.968
 20
214.59100000000001
 30
0.0
 70
    32
  0
VERTEX
  5
5815
  8
AM_0
 10
115.03700000000001
 20
214.55699999999999
 30
0.0
 70
    32
  0
VERTEX
  5
5816
  8
AM_0
 10
115.107
 20
214.524
 30
0.0
 70
    32
  0
VERTEX
  5
5817
  8
AM_0
 10
115.179
 20
214.49299999999999
 30
0.0
 70
    32
  0
VERTEX
  5
5818
  8
AM_0
 10
115.252
 20
214.464
 30
0.0
 70
    32
  0
VERTEX
  5
5819
  8
AM_0
 10
115.325
 20
214.43600000000001
 30
0.0
 70
    32
  0
VERTEX
  5
581A
  8
AM_0
 10
115.40000000000001
 20
214.411
 30
0.0
 70
    32
  0
VERTEX
  5
581B
  8
AM_0
 10
115.476
 20
214.387
 30
0.0
 70
    32
  0
VERTEX
  5
581C
  8
AM_0
 10
115.553
 20
214.36500000000001
 30
0.0
 70
    32
  0
VERTEX
  5
581D
  8
AM_0
 10
115.631
 20
214.345
 30
0.0
 70
    32
  0
VERTEX
  5
581E
  8
AM_0
 10
115.709
 20
214.327
 30
0.0
 70
    32
  0
VERTEX
  5
581F
  8
AM_0
 10
115.789
 20
214.31100000000001
 30
0.0
 70
    32
  0
VERTEX
  5
5820
  8
AM_0
 10
115.869
 20
214.297
 30
0.0
 70
    32
  0
VERTEX
  5
5821
  8
AM_0
 10
115.95
 20
214.28399999999999
 30
0.0
 70
    32
  0
VERTEX
  5
5822
  8
AM_0
 10
116.032
 20
214.274
 30
0.0
 70
    32
  0
VERTEX
  5
5823
  8
AM_0
 10
116.114
 20
214.26499999999999
 30
0.0
 70
    32
  0
VERTEX
  5
5824
  8
AM_0
 10
116.197
 20
214.25899999999999
 30
0.0
 70
    32
  0
VERTEX
  5
5825
  8
AM_0
 10
116.28100000000001
 20
214.25399999999999
 30
0.0
 70
    32
  0
VERTEX
  5
5826
  8
AM_0
 10
116.36499999999999
 20
214.251
 30
0.0
 70
    32
  0
VERTEX
  5
5827
  8
AM_0
 10
116.449
 20
214.251
 30
0.0
 70
    32
  0
VERTEX
  5
5828
  8
AM_0
 10
116.53400000000001
 20
214.25200000000001
 30
0.0
 70
    32
  0
VERTEX
  5
5829
  8
AM_0
 10
116.619
 20
214.255
 30
0.0
 70
    32
  0
VERTEX
  5
582A
  8
AM_0
 10
116.705
 20
214.25999999999999
 30
0.0
 70
    32
  0
VERTEX
  5
582B
  8
AM_0
 10
116.79000000000001
 20
214.267
 30
0.0
 70
    32
  0
VERTEX
  5
582C
  8
AM_0
 10
116.876
 20
214.27600000000001
 30
0.0
 70
    32
  0
VERTEX
  5
582D
  8
AM_0
 10
116.962
 20
214.286
 30
0.0
 70
    32
  0
VERTEX
  5
582E
  8
AM_0
 10
117.048
 20
214.29900000000001
 30
0.0
 70
    32
  0
VERTEX
  5
582F
  8
AM_0
 10
117.13500000000001
 20
214.31399999999999
 30
0.0
 70
    32
  0
VERTEX
  5
5830
  8
AM_0
 10
117.221
 20
214.33000000000001
 30
0.0
 70
    32
  0
VERTEX
  5
5831
  8
AM_0
 10
117.307
 20
214.34899999999999
 30
0.0
 70
    32
  0
VERTEX
  5
5832
  8
AM_0
 10
117.393
 20
214.369
 30
0.0
 70
    32
  0
VERTEX
  5
5833
  8
AM_0
 10
117.47799999999999
 20
214.39099999999999
 30
0.0
 70
    32
  0
VERTEX
  5
5834
  8
AM_0
 10
117.56399999999999
 20
214.41499999999999
 30
0.0
 70
    32
  0
VERTEX
  5
5835
  8
AM_0
 10
117.649
 20
214.441
 30
0.0
 70
    32
  0
VERTEX
  5
5836
  8
AM_0
 10
117.73399999999999
 20
214.46899999999999
 30
0.0
 70
    32
  0
VERTEX
  5
5837
  8
AM_0
 10
117.818
 20
214.49799999999999
 30
0.0
 70
    32
  0
VERTEX
  5
5838
  8
AM_0
 10
117.902
 20
214.529
 30
0.0
 70
    32
  0
VERTEX
  5
5839
  8
AM_0
 10
117.986
 20
214.56200000000001
 30
0.0
 70
    32
  0
VERTEX
  5
583A
  8
AM_0
 10
118.069
 20
214.59700000000001
 30
0.0
 70
    32
  0
VERTEX
  5
583B
  8
AM_0
 10
118.151
 20
214.63399999999999
 30
0.0
 70
    32
  0
VERTEX
  5
583C
  8
AM_0
 10
118.233
 20
214.672
 30
0.0
 70
    32
  0
VERTEX
  5
583D
  8
AM_0
 10
118.31399999999999
 20
214.71199999999999
 30
0.0
 70
    32
  0
VERTEX
  5
583E
  8
AM_0
 10
118.395
 20
214.75299999999999
 30
0.0
 70
    32
  0
VERTEX
  5
583F
  8
AM_0
 10
118.474
 20
214.79599999999999
 30
0.0
 70
    32
  0
VERTEX
  5
5840
  8
AM_0
 10
118.553
 20
214.84100000000001
 30
0.0
 70
    32
  0
VERTEX
  5
5841
  8
AM_0
 10
118.631
 20
214.88800000000001
 30
0.0
 70
    32
  0
VERTEX
  5
5842
  8
AM_0
 10
118.708
 20
214.93600000000001
 30
0.0
 70
    32
  0
SEQEND
  5
5843
  8
AM_0
  0
LINE
  5
3DB0
  8
AM_0
 10
133.90932507041549
 20
314.99627060798269
 30
0.0
 11
133.90932507041549
 21
307.39627060798267
 31
0.0
1001
GENIUS_GENOREF_13
1005
0
  0
LINE
  5
3DB1
  8
AM_0
 10
133.90932507041549
 20
307.39627060798267
 30
0.0
 11
134.90932507041549
 21
307.39627060798267
 31
0.0
1001
GENIUS_GENOREF_13
1005
0
  0
LINE
  5
3DB2
  8
AM_0
 10
134.90932507041549
 20
310.99627060798269
 30
0.0
 11
133.90932507041549
 21
310.63230037371648
 31
0.0
1001
GENIUS_GENOREF_13
1005
0
  0
LINE
  5
3DB3
  8
AM_0
 10
134.90932507041549
 20
311.39627060798267
 30
0.0
 11
133.90932507041549
 21
311.03230037371651
 31
0.0
1001
GENIUS_GENOREF_13
1005
0
  0
LINE
  5
3DB4
  8
AM_0
 10
134.90932507041549
 20
314.99627060798269
 30
0.0
 11
133.90932507041549
 21
314.99627060798269
 31
0.0
1001
GENIUS_GENOREF_13
1005
0
  0
LINE
  5
3DB5
  8
AM_0N
 10
132.85038755828771
 20
307.28891563567618
 30
0.0
 11
133.90932507041549
 21
307.1962706079828
 31
0.0
  0
LINE
  5
3DB6
  8
AM_0N
 10
132.85038755828771
 20
315.1036255802893
 30
0.0
 11
133.90932507041549
 21
315.1962706079828
 31
0.0
  0
ARC
  5
3DB7
  8
AM_0N
 10
137.3093250704155
 20
311.1962706079828
 30
0.0
 40
6.5
 50
151.82726586813479
 51
208.1727341318651
  0
ARC
  5
3DB8
  8
AM_0N
 10
132.98983674668401
 20
313.50971406334241
 30
0.0
 40
1.6000000000000001
 50
94.99999999999973
 51
151.82726586813479
  0
ARC
  5
3DB9
  8
AM_0N
 10
132.98983674668401
 20
308.88282715262312
 30
0.0
 40
1.6000000000000001
 50
208.1727341318651
 51
265.00000000000028
  0
LINE
  5
3DBA
  8
AM_0N
 10
133.90932507041549
 20
315.1962706079828
 30
0.0
 11
133.90932507041549
 21
307.1962706079828
 31
0.0
  0
LINE
  5
3DC5
  8
AM_0
 10
113.9593250704157
 20
232.19521421961059
 30
0.0
 11
118.85932507041559
 21
232.19521421961059
 31
0.0
  0
LINE
  5
3DC6
  8
AM_0
 10
113.9593250704157
 20
230.98219390117811
 30
0.0
 11
118.85932507041559
 21
230.98219390117811
 31
0.0
  0
LINE
  5
3DC7
  8
AM_0
 10
113.15932507041551
 20
231.39521421961069
 30
0.0
 11
113.15932507041551
 21
225.75408279916431
 31
0.0
  0
LINE
  5
3DC8
  8
AM_0
 10
113.15932507041551
 20
223.9226769302316
 30
0.0
 11
113.15932507041551
 21
225.75408279916431
 31
0.0
  0
LINE
  5
3DC9
  8
AM_0
 10
109.3093250704155
 20
217.23298027030859
 30
0.0
 11
109.3093250704155
 21
223.8555446484356
 31
0.0
  0
LINE
  5
3DCA
  8
AM_0
 10
119.65932507041551
 20
223.9226769302316
 30
0.0
 11
119.65932507041551
 21
225.75408279916431
 31
0.0
  0
LINE
  5
3DCB
  8
AM_0
 10
119.65932507041551
 20
231.39521421961069
 30
0.0
 11
119.65932507041551
 21
225.75408279916431
 31
0.0
  0
LINE
  5
3DCC
  8
AM_0
 10
123.5093250704155
 20
217.99080312540019
 30
0.0
 11
123.5093250704155
 21
217.23298027030859
 31
0.0
  0
LINE
  5
3DCD
  8
AM_0
 10
116.40932507041551
 20
222.11246344248499
 30
0.0
 11
109.90932507041551
 21
219.84669397489341
 31
0.0
  0
LINE
  5
3DCE
  8
AM_0
 10
117.96067283614531
 20
221.57169476537621
 30
0.0
 11
116.40932507041551
 21
222.11246344248499
 31
0.0
  0
LINE
  5
3DCF
  8
AM_0
 10
116.21186869654539
 20
220.45881563432721
 30
0.0
 11
109.90932507041551
 21
218.26187549336569
 31
0.0
  0
LINE
  5
3DD0
  8
AM_0
 10
122.90932507041551
 20
217.6089836503032
 30
0.0
 11
122.90932507041551
 21
216.97755282604859
 31
0.0
  0
LINE
  5
3DD1
  8
AM_0
 10
122.90932507041551
 20
216.97755282604859
 30
0.0
 11
122.90932507041551
 21
214.95831020792789
 31
0.0
  0
LINE
  5
3DD2
  8
AM_0
 10
116.4092828085894
 20
212.69252600871221
 30
0.0
 11
122.90932507041551
 21
214.95831020792789
 31
0.0
  0
LINE
  5
3DD3
  8
AM_0
 10
109.90932507041551
 20
214.95831020792789
 30
0.0
 11
109.90932507041551
 21
216.97755282604859
 31
0.0
  0
LINE
  5
3DD4
  8
AM_0
 10
109.90932507041551
 20
214.95831020792789
 30
0.0
 11
116.4092828085894
 21
212.69255547196011
 31
0.0
  0
LINE
  5
3DD5
  8
AM_0
 10
109.90932507041551
 20
216.97755282604859
 30
0.0
 11
109.90932507041551
 21
219.84669397489341
 31
0.0
  0
LINE
  5
3DD6
  8
AM_0
 10
116.42089102298139
 20
220.7662529398261
 30
0.0
 11
116.40932507041551
 21
222.11246344248499
 31
0.0
  0
ARC
  5
3DD7
  8
AM_0
 10
113.71313792148401
 20
217.9466827016482
 30
0.0
 40
6.001601094213977
 50
95.294644622325137
 51
137.2036378052704
  0
ARC
  5
3DD8
  8
AM_0
 10
113.71313792148401
 20
219.77808857058099
 30
0.0
 40
6.0016010942139628
 50
95.294644622325137
 51
137.2036378052704
  0
ARC
  5
3DD9
  8
AM_0
 10
110.17905675561271
 20
218.44356835873239
 30
0.0
 40
1.4906229315522701
 50
234.30512237790029
 51
259.57476505017542
  0
ARC
  5
3DDA
  8
AM_0
 10
119.1055122193472
 20
219.77808857058099
 30
0.0
 40
6.0016010942138758
 50
53.236790438343668
 51
84.705355377678401
  0
ARC
  5
3DDB
  8
AM_0
 10
119.1055122193472
 20
217.9466827016482
 30
0.0
 40
6.0016010942138758
 50
70.204787517104947
 51
84.705355377678401
  0
ARC
  5
3DDC
  8
AM_0
 10
122.6395933852185
 20
218.44356835873239
 30
0.0
 40
1.490622931552253
 50
280.42523494982129
 51
305.69487762209508
  0
ARC
  5
3DDD
  8
AM_0
 10
116.1418732277119
 20
226.27137578256929
 30
8206336.7530117426
 40
12.9134744604336
 50
271.18655406403752
 51
287.92670513354841
  0
LINE
  5
3DDE
  8
AM_0
 10
120.1166421571105
 20
213.98483702675381
 30
8206336.7530117426
 11
120.5292229243117
 21
214.13807871214641
 31
8206336.7530117426
  0
LINE
  5
3DDF
  8
AM_0
 10
120.5292229243117
 20
214.13807871214641
 30
8206336.7530117426
 11
120.9317146685682
 21
214.31704807485221
 31
8206336.7530117426
  0
ARC
  5
3DE0
  8
AM_0
 10
118.42795302781229
 20
219.60184863857449
 30
8206336.7530117426
 40
5.8479004225482916
 50
295.35002817212489
 51
303.5670510400584
  0
LINE
  5
3DE1
  8
AM_0
 10
121.66133010382219
 20
214.7291479463122
 30
8206336.7530117426
 11
121.9758729830735
 21
214.96142140148271
 31
8206336.7530117426
  0
LINE
  5
3DE2
  8
AM_0
 10
121.9758729830735
 20
214.96142140148271
 30
8206336.7530117426
 11
122.2650621312708
 21
215.22429227752141
 31
8206336.7530117426
  0
ARC
  5
3DE3
  8
AM_0
 10
120.38617916789271
 20
217.08997666772879
 30
8206336.7530117426
 40
2.647825416060579
 50
315.20195107610522
 51
327.6690874537353
  0
LINE
  5
3DE4
  8
AM_0
 10
122.6235212477384
 20
215.67389762625979
 30
8206336.7530117426
 11
122.7524372040178
 21
215.91342939149601
 31
8206336.7530117426
  0
LINE
  5
3DE5
  8
AM_0
 10
122.7524372040178
 20
215.91342939149601
 30
8206336.7530117426
 11
122.8465377715185
 21
216.1680883799803
 31
8206336.7530117426
  0
ARC
  5
3DE6
  8
AM_0
 10
121.2477175325696
 20
216.62317704458351
 30
8206336.7530117426
 40
1.6623272388802151
 50
344.11151119415172
 51
352.55958186686092
  0
LINE
  5
3DE7
  8
AM_0
 10
122.89604807489749
 20
216.4079137816889
 30
8206336.7530117426
 11
122.9059527393385
 21
216.5087795354095
 31
8206336.7530117426
  0
LINE
  5
3DE8
  8
AM_0
 10
122.9059527393385
 20
216.5087795354095
 30
8206336.7530117426
 11
122.90932507041551
 21
216.61007824914839
 31
8206336.7530117426
  0
ARC
  5
3DE9
  8
AM_0
 10
121.3142316517461
 20
216.6071020976502
 30
8206336.7530117426
 40
1.595096195143147
 50
0.1069032823798393
 51
11.47976002760999
  0
LINE
  5
3DEA
  8
AM_0
 10
122.8774180608046
 20
216.92456094899191
 30
8206336.7530117426
 11
122.8367861506194
 21
217.0851348245163
 31
8206336.7530117426
  0
LINE
  5
3DEB
  8
AM_0
 10
122.8367861506194
 20
217.0851348245163
 30
8206336.7530117426
 11
122.7811460860857
 21
217.24110311793899
 31
8206336.7530117426
  0
ARC
  5
3DEC
  8
AM_0
 10
120.905671792432
 20
216.465720336554
 30
8206336.7530117426
 40
2.029438908620818
 50
22.461811304460369
 51
29.330593568206702
  0
ARC
  5
3DED
  8
AM_0
 10
116.6767769131348
 20
226.2713757826225
 30
8206336.7530117426
 40
12.91347446048893
 50
252.0732948664546
 51
268.81307083254751
  0
LINE
  5
3DEE
  8
AM_0
 10
112.70200798372061
 20
213.98483702675381
 30
8206336.7530117426
 11
112.2894272165194
 21
214.13807871214641
 31
8206336.7530117426
  0
LINE
  5
3DEF
  8
AM_0
 10
112.2894272165194
 20
214.13807871214641
 30
8206336.7530117426
 11
111.88693547226281
 21
214.31704807485221
 31
8206336.7530117426
  0
ARC
  5
3DF0
  8
AM_0
 10
114.39069711302371
 20
219.60184863858319
 30
8206336.7530117426
 40
5.8479004225582418
 50
236.43294895995061
 51
244.649971827868
  0
LINE
  5
3DF1
  8
AM_0
 10
111.1573200370088
 20
214.7291479463122
 30
8206336.7530117426
 11
110.8427771577576
 21
214.96142140148271
 31
8206336.7530117426
  0
LINE
  5
3DF2
  8
AM_0
 10
110.8427771577576
 20
214.96142140148271
 30
8206336.7530117426
 11
110.5535880095602
 21
215.22429227752141
 31
8206336.7530117426
  0
ARC
  5
3DF3
  8
AM_0
 10
112.43247097293821
 20
217.08997666772819
 30
8206336.7530117426
 40
2.6478254160599781
 50
212.3309125462558
 51
224.79804892389021
  0
LINE
  5
3DF4
  8
AM_0
 10
110.1951288930927
 20
215.67389762625979
 30
8206336.7530117426
 11
110.0662129368134
 21
215.91342939149601
 31
8206336.7530117426
  0
LINE
  5
3DF5
  8
AM_0
 10
110.0662129368134
 20
215.91342939149601
 30
8206336.7530117426
 11
109.9721123693126
 21
216.1680883799803
 31
8206336.7530117426
  0
ARC
  5
3DF6
  8
AM_0
 10
111.5709326082912
 20
216.62317704459011
 30
8206336.7530117426
 40
1.6623272389105701
 50
187.4404181332275
 51
195.8884888057874
  0
LINE
  5
3DF7
  8
AM_0
 10
109.9226020659336
 20
216.4079137816889
 30
8206336.7530117426
 11
109.91269740149259
 21
216.5087795354095
 31
8206336.7530117426
  0
LINE
  5
3DF8
  8
AM_0
 10
109.91269740149259
 20
216.5087795354095
 30
8206336.7530117426
 11
109.90932507041551
 21
216.61007824914839
 31
8206336.7530117426
  0
ARC
  5
3DF9
  8
AM_0
 10
111.5044184890821
 20
216.6071020976502
 30
8206336.7530117426
 40
1.5950961951403351
 50
168.52023997237021
 51
179.8930967176201
  0
LINE
  5
3DFA
  8
AM_0
 10
109.9412320800265
 20
216.92456094899191
 30
8206336.7530117426
 11
109.98186399021191
 21
217.0851348245163
 31
8206336.7530117426
  0
LINE
  5
3DFB
  8
AM_0
 10
109.98186399021191
 20
217.0851348245163
 30
8206336.7530117426
 11
110.0375040547452
 21
217.24110311793899
 31
8206336.7530117426
  0
ARC
  5
3DFC
  8
AM_0
 10
111.9129783484088
 20
216.46572033654809
 30
8206336.7530117426
 40
2.02943890863216
 50
147.8557105642179
 51
157.53818869548999
  0
LINE
  5
3DFD
  8
AM_0
 10
110.1946303054023
 20
217.54548988926121
 30
8206336.7530117426
 11
110.31691905193691
 21
217.72280048198311
 31
8206336.7530117426
  0
LINE
  5
3DFE
  8
AM_0
 10
110.31691905193691
 20
217.72280048198311
 30
8206336.7530117426
 11
110.45377265227511
 21
217.88918240437249
 31
8206336.7530117426
  0
ARC
  5
3DFF
  8
AM_0
 10
112.9519306384677
 20
215.6461707185513
 30
8206336.7530117426
 40
3.3573642558870951
 50
129.0813784716793
 51
138.08040406443399
  0
LINE
  5
3E00
  8
AM_0
 10
110.83536913345149
 20
218.25232922144241
 30
8206336.7530117426
 11
111.2545077508516
 21
218.55502569906821
 31
8206336.7530117426
  0
LINE
  5
3E01
  8
AM_0
 10
111.2545077508516
 20
218.55502569906821
 30
8206336.7530117426
 11
111.70366143074941
 21
218.81237740032279
 31
8206336.7530117426
  0
ARC
  5
3E02
  8
AM_0
 10
115.0348871137757
 20
212.2847671060573
 30
8206336.7530117426
 40
7.3284896605682359
 50
109.0382363849769
 51
117.03651703470091
  0
LINE
  5
3E03
  8
AM_0
 10
112.644340568998
 20
219.21239642078729
 30
8206336.7530117426
 11
113.32083846356539
 21
219.41927627040559
 31
8206336.7530117426
  0
LINE
  5
3E04
  8
AM_0
 10
113.32083846356539
 20
219.41927627040559
 30
8206336.7530117426
 11
114.0106050262652
 21
219.5770897029079
 31
8206336.7530117426
  0
ARC
  5
3E05
  8
AM_0
 10
116.3194763431289
 20
207.63698985998701
 30
8206336.7530117426
 40
12.16128574685901
 50
96.390354906716382
 51
100.944276276251
  0
LINE
  5
3E06
  8
AM_0
 10
114.9659052817
 20
219.72271352050561
 30
8206336.7530117426
 11
115.07086905486381
 21
219.7327224938725
 31
8206336.7530117426
  0
ARC
  5
3E07
  8
AM_0
 10
113.9593250704157
 20
231.39521421961069
 30
0.0
 40
0.7999999999998977
 50
90.0
 51
180.0
  0
ARC
  5
3E08
  8
AM_0
 10
113.9593250704157
 20
230.1821939011781
 30
0.0
 40
0.7999999999999972
 50
90.0
 51
180.0
  0
ARC
  5
3E09
  8
AM_0
 10
118.85932507041559
 20
231.39521421961069
 30
0.0
 40
0.8000000000000112
 50
0.0
 51
90.0
  0
ARC
  5
3E0A
  8
AM_0
 10
118.85932507041559
 20
230.1821939011781
 30
0.0
 40
0.8000000000000112
 50
0.0
 51
90.0
  0
LINE
  5
494D
  8
AM_0
 10
149.40935507041681
 20
498.06042183994941
 30
0.0
 11
149.40935507041641
 21
535.78270875470673
 31
0.0
  0
LINE
  5
494E
  8
AM_0
 10
140.4093550704159
 20
496.12182534872142
 30
0.0
 11
140.4093550704159
 21
604.12182534872136
 31
0.0
  0
LINE
  5
494F
  8
AM_0
 10
140.4093550704159
 20
496.12182534872142
 30
0.0
 11
157.4093550704159
 21
497.12182534872119
 31
0.0
  0
LINE
  5
4950
  8
AM_0
 10
140.4093550704159
 20
604.12182534872136
 30
0.0
 11
157.4093550704159
 21
603.12182534872125
 31
0.0
  0
LINE
  5
4951
  8
AM_0
 10
149.40935507041661
 20
506.52792215062982
 30
0.0
 11
157.4093550704159
 21
506.52792215062999
 31
0.0
  0
LINE
  5
4952
  8
AM_0
 10
149.40935507041681
 20
498.06042183994941
 30
0.0
 11
157.4093550704159
 21
498.06042183994941
 31
0.0
  0
LINE
  5
4953
  8
AM_0
 10
145.90935507041661
 20
515.48095238346127
 30
0.0
 11
149.40935507041661
 21
515.48095238346127
 31
0.0
  0
LINE
  5
4954
  8
AM_0
 10
145.90935507041661
 20
506.98095238346122
 30
0.0
 11
149.40935507041681
 21
506.98095238346122
 31
0.0
  0
LINE
  5
4955
  8
AM_0
 10
145.40935507041661
 20
507.48095238346122
 30
0.0
 11
145.40935507041661
 21
514.98095238346104
 31
0.0
  0
ARC
  5
4956
  8
AM_0
 10
145.90935507041661
 20
507.48095238346122
 30
0.0
 40
0.5
 50
180.0
 51
270.0
  0
ARC
  5
4957
  8
AM_0
 10
145.90935507041661
 20
514.98095238346104
 30
0.0
 40
0.5
 50
90.0
 51
180.0
  0
LINE
  5
4958
  8
AM_0
 10
140.4093550704159
 20
507.84963085558121
 30
0.0
 11
145.40935507041661
 21
507.8496308555811
 31
0.0
  0
LINE
  5
4959
  8
AM_0
 10
140.4093550704159
 20
517.58471335387719
 30
0.0
 11
149.40935507041661
 21
517.58471335387731
 31
0.0
  0
LINE
  5
495A
  8
AM_0
 10
149.40935507041681
 20
602.18322885749353
 30
0.0
 11
149.40935507041641
 21
564.46094194274065
 31
0.0
  0
LINE
  5
495B
  8
AM_0
 10
149.40935507041661
 20
593.7157285468129
 30
0.0
 11
157.4093550704159
 21
593.7157285468129
 31
0.0
  0
LINE
  5
495C
  8
AM_0
 10
149.40935507041681
 20
602.18322885749353
 30
0.0
 11
157.4093550704159
 21
602.18322885749353
 31
0.0
  0
LINE
  5
495D
  8
AM_0
 10
145.90935507041661
 20
584.76269831398145
 30
0.0
 11
149.40935507041661
 21
584.76269831398145
 31
0.0
  0
LINE
  5
495E
  8
AM_0
 10
145.90935507041661
 20
593.26269831398145
 30
0.0
 11
149.40935507041681
 21
593.26269831398145
 31
0.0
  0
LINE
  5
495F
  8
AM_0
 10
145.40935507041661
 20
592.76269831398145
 30
0.0
 11
145.40935507041661
 21
585.26269831398145
 31
0.0
  0
ARC
  5
4960
  8
AM_0
 10
145.90935507041661
 20
592.76269831398145
 30
0.0
 40
0.5
 50
90.0
 51
180.0
  0
ARC
  5
4961
  8
AM_0
 10
145.90935507041661
 20
585.26269831398145
 30
0.0
 40
0.5
 50
180.0
 51
270.0
  0
LINE
  5
4962
  8
AM_0
 10
140.4093550704159
 20
592.39401984186145
 30
0.0
 11
145.40935507041661
 21
592.39401984186156
 31
0.0
  0
LINE
  5
4963
  8
AM_0
 10
140.4093550704159
 20
582.65893734356564
 30
0.0
 11
149.40935507041661
 21
582.65893734356564
 31
0.0
  0
LINE
  5
4964
  8
AM_0
 10
134.4093550704159
 20
604.12182534872136
 30
0.0
 11
134.4093550704159
 21
496.12182534872142
 31
0.0
  0
LINE
  5
4965
  8
AM_0
 10
140.4093550704159
 20
496.12182534872142
 30
0.0
 11
134.4093550704159
 21
496.12182534872142
 31
0.0
  0
LINE
  5
4966
  8
AM_0
 10
134.4093550704159
 20
604.12182534872136
 30
0.0
 11
140.4093550704157
 21
604.12182534872136
 31
0.0
  0
LINE
  5
4967
  8
AM_0
 10
133.4093550704159
 20
546.32182534872118
 30
0.0
 11
133.4093550704159
 21
553.9218253487212
 31
0.0
  0
LINE
  5
4968
  8
AM_0
 10
133.4093550704159
 20
553.9218253487212
 30
0.0
 11
134.4093550704159
 21
553.9218253487212
 31
0.0
  0
LINE
  5
4969
  8
AM_0
 10
134.4093550704159
 20
550.32182534872118
 30
0.0
 11
133.4093550704159
 21
550.68579558298745
 31
0.0
  0
LINE
  5
496A
  8
AM_0
 10
134.4093550704159
 20
549.9218253487212
 30
0.0
 11
133.4093550704159
 21
550.2857955829877
 31
0.0
  0
LINE
  5
496B
  8
AM_0
 10
134.4093550704159
 20
546.32182534872118
 30
0.0
 11
133.4093550704159
 21
546.32182534872118
 31
0.0
  0
LINE
  5
496C
  8
AM_0
 10
132.3504175582878
 20
554.02918032102775
 30
0.0
 11
133.4093550704159
 21
554.12182534872136
 31
0.0
  0
LINE
  5
496D
  8
AM_0
 10
132.3504175582878
 20
546.21447037641485
 30
0.0
 11
133.4093550704159
 21
546.12182534872136
 31
0.0
  0
ARC
  5
496E
  8
AM_0
 10
136.8093550704159
 20
550.12182534872136
 30
0.0
 40
6.5
 50
151.82726586813439
 51
208.1727341318655
  0
ARC
  5
496F
  8
AM_0
 10
132.4898667466845
 20
547.80838189336146
 30
0.0
 40
1.6000000000000001
 50
208.1727341318655
 51
265.00000000000028
  0
ARC
  5
4970
  8
AM_0
 10
132.4898667466845
 20
552.43526880408092
 30
0.0
 40
1.6000000000000001
 50
94.999999999999758
 51
151.82726586813439
  0
LINE
  5
4971
  8
AM_0
 10
133.4093550704159
 20
546.12182534872136
 30
0.0
 11
133.4093550704159
 21
554.12182534872136
 31
0.0
  0
LINE
  5
4972
  8
AM_0
 10
157.4093550704159
 20
535.78270875470685
 30
0.0
 11
149.40935507041661
 21
535.78270875470685
 31
0.0
  0
LINE
  5
4973
  8
AM_0
 10
157.4093550704157
 20
564.46094194274065
 30
0.0
 11
149.40935507041641
 21
564.46094194274065
 31
0.0
  0
LINE
  5
4974
  8
AM_0
 10
119.9093550704154
 20
516.12182534872227
 30
0.0
 11
119.9093550704154
 21
505.12182534872142
 31
0.0
  0
LINE
  5
4975
  8
AM_0
 10
134.40935507041539
 20
505.12182534872142
 30
0.0
 11
119.9093550704154
 21
505.12182534872142
 31
0.0
  0
LINE
  5
4976
  8
AM_0
 10
107.9093550704159
 20
510.12182534872238
 30
0.0
 11
107.9093550704157
 21
507.12182534872238
 31
0.0
  0
LINE
  5
4977
  8
AM_0
 10
107.9093550704157
 20
507.12182534872238
 30
0.0
 11
119.9093550704154
 21
507.12182534872238
 31
0.0
  0
LINE
  5
4978
  8
AM_0
 10
107.9093550704155
 20
508.1218253487225
 30
0.0
 11
107.9093550704155
 21
510.29949375486888
 31
0.0
  0
LINE
  5
4979
  8
AM_0
 10
102.4093550704154
 20
510.1218253487225
 30
0.0
 11
103.30935507041551
 21
510.1218253487225
 31
0.0
  0
LINE
  5
497A
  8
AM_0
 10
102.2093550704152
 20
513.1218253487225
 30
0.0
 11
102.2093550704152
 21
510.1218253487225
 31
0.0
  0
LINE
  5
497B
  8
AM_0
 10
103.30935507041551
 20
509.84947361413879
 30
0.0
 11
103.30935507041551
 21
513.39417708330632
 31
0.0
  0
LINE
  5
497C
  8
AM_0
 10
101.9093550704154
 20
512.82182534872265
 30
0.0
 11
103.3093550704137
 21
512.82182534872265
 31
0.0
  0
LINE
  5
497D
  8
AM_0
 10
107.30935507041551
 20
509.24025548831543
 30
0.0
 11
107.30935507041551
 21
508.1218253487225
 31
0.0
  0
LINE
  5
497E
  8
AM_0
 10
107.30935507041551
 20
510.1218253487225
 30
0.0
 11
107.30935507041551
 21
510.02182534872247
 31
0.0
  0
LINE
  5
497F
  8
AM_0
 10
107.30935507041551
 20
510.02182534872247
 30
0.0
 11
107.30935507041551
 21
509.24025548831543
 31
0.0
  0
LINE
  5
4980
  8
AM_0
 10
107.30935507041551
 20
510.1218253487225
 30
0.0
 11
107.30935507041551
 21
510.02182534872247
 31
0.0
  0
LINE
  5
4981
  8
AM_0
 10
107.30935507041551
 20
510.50558802505219
 30
0.0
 11
107.30935507041551
 21
509.24025548831543
 31
0.0
  0
LINE
  5
4982
  8
AM_0
 10
107.30935507041551
 20
508.1218253487225
 30
0.0
 11
107.9093550704155
 21
508.1218253487225
 31
0.0
  0
LINE
  5
4983
  8
AM_0
 10
104.6093550704157
 20
509.24025548831543
 30
0.0
 11
104.6093550704157
 21
512.67178668071574
 31
0.0
  0
LINE
  5
4984
  8
AM_0
 10
104.4483108411581
 20
508.95356385997218
 30
0.0
 11
103.515757791651
 21
509.491973614139
 31
0.0
  0
LINE
  5
4985
  8
AM_0
 10
104.8818066624461
 20
508.4463988681797
 30
0.0
 11
107.0369034783851
 21
508.4463988681797
 31
0.0
  0
LINE
  5
4986
  8
AM_0
 10
104.8818066624461
 20
510.0341121084511
 30
0.0
 11
107.0369034783851
 21
510.0341121084511
 31
0.0
  0
LINE
  5
4987
  8
AM_0
 10
103.3093550704142
 20
513.1218253487225
 30
0.0
 11
102.2093550704152
 21
513.1218253487225
 31
0.0
  0
LINE
  5
4988
  8
AM_0
 10
102.2093550704152
 20
513.1218253487225
 30
0.0
 11
101.9093550704154
 21
512.82182534872265
 31
0.0
  0
LINE
  5
4989
  8
AM_0
 10
101.9093550704154
 20
512.82182534872265
 30
0.0
 11
101.9093550704154
 21
510.42182534872251
 31
0.0
  0
LINE
  5
498A
  8
AM_0
 10
102.2093550704152
 20
510.1218253487225
 30
0.0
 11
103.3093550704137
 21
510.1218253487225
 31
0.0
  0
LINE
  5
498B
  8
AM_0
 10
101.9093550704154
 20
510.42182534872251
 30
0.0
 11
102.2093550704152
 21
510.1218253487225
 31
0.0
  0
LINE
  5
498C
  8
AM_0
 10
103.3093550704137
 20
510.42182534872251
 30
0.0
 11
101.9093550704154
 21
510.42182534872251
 31
0.0
  0
ARC
  5
498D
  8
AM_0
 10
106.0165782543889
 20
509.24025548831543
 30
0.0
 40
1.292776816026465
 50
322.11555894629811
 51
0.0
  0
ARC
  5
498E
  8
AM_0
 10
109.3717849464752
 20
511.6218253487225
 30
0.0
 40
4.762429876059711
 50
168.45024695876941
 51
199.4742400054142
  0
ARC
  5
498F
  8
AM_0
 10
105.90213188644211
 20
509.24025548831543
 30
0.0
 40
1.292776816026556
 50
142.11555894629799
 51
217.88444105370201
  0
ARC
  5
4990
  8
AM_0
 10
102.54692519435601
 20
511.6218253487225
 30
0.0
 40
4.762429876059584
 50
340.52575999458583
 51
347.08714779821958
  0
ARC
  5
4991
  8
AM_0
 10
106.0165782543889
 20
509.24025548831543
 30
0.0
 40
1.2927768160265021
 50
0.0
 51
37.884441053701963
  0
ARC
  5
4992
  8
AM_0
 10
103.72216051288601
 20
509.84947361413907
 30
0.0
 40
0.4128054424705854
 50
180.0
 51
239.9999999999998
  0
ARC
  5
4993
  8
AM_0
 10
104.0355053986876
 20
508.23856385997232
 30
0.0
 40
0.8256108849411369
 50
28.217424594182209
 51
59.999999999999851
  0
LINE
  5
4994
  8
AM_0
 10
103.52444760293869
 20
513.75669414819254
 30
0.0
 11
103.515757791651
 21
513.75167708330616
 31
0.0
  0
ARC
  5
4995
  8
AM_0
 10
103.72216051288621
 20
513.39417708330632
 30
0.0
 40
0.4128054424705854
 50
119.9999999999922
 51
179.99999999999341
  0
CIRCLE
  5
4996
  8
AM_0
 10
105.9093164024097
 20
550.12182534872147
 30
0.0
 40
5.5
  0
LINE
  5
4997
  8
AM_0
 10
100.4093164024096
 20
546.94639886817868
 30
0.0
 11
105.9093164024101
 21
543.77097238763565
 31
0.0
  0
LINE
  5
4998
  8
AM_0
 10
105.9093164024101
 20
543.77097238763565
 30
0.0
 11
111.4093164024096
 21
546.9463988681789
 31
0.0
  0
LINE
  5
4999
  8
AM_0
 10
111.4093164024096
 20
546.9463988681789
 30
0.0
 11
111.4093164024096
 21
553.29725182926461
 31
0.0
  0
LINE
  5
499A
  8
AM_0
 10
111.4093164024096
 20
553.29725182926461
 30
0.0
 11
105.9093164024097
 21
556.47267830980763
 31
0.0
  0
LINE
  5
499B
  8
AM_0
 10
105.9093164024097
 20
556.47267830980763
 30
0.0
 11
100.4093164024096
 21
553.29725182926416
 31
0.0
  0
LINE
  5
499C
  8
AM_0
 10
100.4093164024096
 20
553.29725182926416
 30
0.0
 11
100.4093164024096
 21
546.94639886817868
 31
0.0
  0
CIRCLE
  5
499D
  8
AM_0
 10
105.9093164024097
 20
550.12182534872147
 30
0.0
 40
6.4999856554771771
  0
LINE
  5
499E
  8
AM_0
 10
116.9746086327808
 20
516.12182534872227
 30
0.0
 11
119.9093550704154
 21
516.12182534872227
 31
0.0
  0
LINE
  5
499F
  8
AM_0
 10
117.9287771845687
 20
514.62182534872238
 30
0.0
 11
119.9093550704154
 21
514.62182534872238
 31
0.0
  0
LINE
  5
49A0
  8
AM_0
 10
109.23038421427449
 20
510.12182534872238
 30
0.0
 11
119.9093550704154
 21
510.12182534872238
 31
0.0
  0
ARC
  5
49A1
  8
AM_0
 10
109.2303842142743
 20
515.12182534872238
 30
0.0
 40
5.0
 50
224.9999999999996
 51
270.0
1001
GENIUS_GENODEF_13
1002
{
1000
HIER
1070
     0
1002
}
1002
{
1000
MANEDIT
1070
     0
1002
}
1002
{
1000
NOSEL
1070
     0
1002
}
1002
{
1000
BEHIND
1070
     0
1002
}
1002
{
1000
OTHER
1070
     0
1002
}
1002
{
1000
REACTOR
1002
}
1001
GENIUS_GENOBJ-N-FIL_13
1002
{
1000
OWNER
1000
GEN
1002
}
  0
LINE
  5
49A2
  8
AM_0
 10
117.9287771845685
 20
510.12182534872238
 30
0.0
 11
117.9287771845687
 21
514.62182534872238
 31
0.0
  0
LINE
  5
49A3
  8
AM_0
 10
104.4093164024096
 20
543.79728477082915
 30
0.0
 11
104.4093164024099
 21
522.90985049501285
 31
0.0
  0
LINE
  5
49A4
  8
AM_0
 10
107.4093164024096
 20
543.79728477082915
 30
0.0
 11
107.4093164024096
 21
522.90985049501285
 31
0.0
  0
LINE
  5
49A5
  8
AM_0
 10
102.1593164024096
 20
544.81265276521958
 30
0.0
 11
102.1593164024096
 21
517.192893160587
 31
0.0
  0
ARC
  5
49A6
  8
AM_0
 10
107.1593164024096
 20
517.192893160587
 30
0.0
 40
5.0
 50
180.0
 51
224.9999999999996
1001
GENIUS_GENOBJ-N-FIL_13
1002
{
1000
OWNER
1000
GEN
1002
}
1001
GENIUS_GENODEF_13
1002
{
1000
HIER
1070
     0
1002
}
1002
{
1000
MANEDIT
1070
     0
1002
}
1002
{
1000
NOSEL
1070
     0
1002
}
1002
{
1000
BEHIND
1070
     0
1002
}
1002
{
1000
OTHER
1070
     0
1002
}
1002
{
1000
REACTOR
1002
}
  0
LINE
  5
49A7
  8
AM_0
 10
109.6593164024096
 20
544.81265276521958
 30
0.0
 11
109.6593164024096
 21
520.65274369197402
 31
0.0
  0
ARC
  5
49A8
  8
AM_0
 10
114.6593164024096
 20
529.07734371804702
 30
0.0
 40
5.0
 50
180.0
 51
212.46094411513951
1001
GENIUS_GENODEF_13
1002
{
1000
HIER
1070
     0
1002
}
1002
{
1000
MANEDIT
1070
     0
1002
}
1002
{
1000
NOSEL
1070
     0
1002
}
1002
{
1000
BEHIND
1070
     0
1002
}
1002
{
1000
OTHER
1070
     0
1002
}
1002
{
1000
REACTOR
1002
}
1001
GENIUS_GENOBJ-N-FIL_13
1002
{
1000
OWNER
1000
GEN
1002
}
  0
ARC
  5
49A9
  8
AM_0
 10
114.6593164024096
 20
520.65274369197402
 30
0.0
 40
5.0
 50
180.0
 51
224.21237228089481
1001
GENIUS_GENOBJ-N-FIL_13
1002
{
1000
OWNER
1000
GEN
1002
}
1001
GENIUS_GENODEF_13
1002
{
1000
HIER
1070
     0
1002
}
1002
{
1000
MANEDIT
1070
     0
1002
}
1002
{
1000
NOSEL
1070
     0
1002
}
1002
{
1000
BEHIND
1070
     0
1002
}
1002
{
1000
OTHER
1070
     0
1002
}
1002
{
1000
REACTOR
1002
}
  0
LINE
  5
49AA
  8
AM_0
 10
117.9287771845685
 20
514.62182534872238
 30
0.0
 11
110.4405288916426
 21
526.39372080508122
 31
0.0
  0
LINE
  5
49AB
  8
AM_0
 10
117.9287771845685
 20
510.12182534872238
 30
0.0
 11
111.0755161665582
 21
517.1661442212129
 31
0.0
  0
LINE
  5
49AC
  8
AM_0
 10
103.62378249647701
 20
513.65735925465435
 30
0.0
 11
105.6948503083416
 21
511.58629144278962
 31
0.0
  0
ARC
  5
49AD
  8
AM_0
 10
105.9093164024097
 20
522.90985049501285
 30
0.0
 40
1.5
 50
180.0
 51
0.0
  0
LINE
  5
49AE
  8
AM_0
 10
119.9093550704159
 20
584.12182534872068
 30
0.0
 11
119.9093550704164
 21
595.12182534872159
 31
0.0
  0
LINE
  5
49AF
  8
AM_0
 10
134.40935507041641
 20
595.12182534872147
 30
0.0
 11
119.9093550704164
 21
595.12182534872159
 31
0.0
  0
LINE
  5
49B0
  8
AM_0
 10
107.90935507041659
 20
590.1218253487209
 30
0.0
 11
107.90935507041659
 21
593.12182534872102
 31
0.0
  0
LINE
  5
49B1
  8
AM_0
 10
107.90935507041659
 20
593.12182534872102
 30
0.0
 11
119.9093550704164
 21
593.12182534872079
 31
0.0
  0
LINE
  5
49B2
  8
AM_0
 10
107.9093550704164
 20
592.1218253487209
 30
0.0
 11
107.9093550704164
 21
589.94415694257441
 31
0.0
  0
LINE
  5
49B3
  8
AM_0
 10
102.4093550704163
 20
590.1218253487209
 30
0.0
 11
103.3093550704164
 21
590.1218253487209
 31
0.0
  0
LINE
  5
49B4
  8
AM_0
 10
102.209355070416
 20
587.12182534872113
 30
0.0
 11
102.209355070416
 21
590.12182534872113
 31
0.0
  0
LINE
  5
49B5
  8
AM_0
 10
103.3093550704164
 20
590.39417708330473
 30
0.0
 11
103.3093550704164
 21
586.8494736141372
 31
0.0
  0
LINE
  5
49B6
  8
AM_0
 10
101.9093550704164
 20
587.42182534872086
 30
0.0
 11
103.3093550704162
 21
587.42182534872074
 31
0.0
  0
LINE
  5
49B7
  8
AM_0
 10
107.3093550704165
 20
591.00339520912814
 30
0.0
 11
107.3093550704165
 21
592.12182534872102
 31
0.0
  0
LINE
  5
49B8
  8
AM_0
 10
107.3093550704165
 20
590.1218253487209
 30
0.0
 11
107.3093550704165
 21
590.22182534872081
 31
0.0
  0
LINE
  5
49B9
  8
AM_0
 10
107.3093550704165
 20
590.22182534872081
 30
0.0
 11
107.3093550704165
 21
591.00339520912814
 31
0.0
  0
LINE
  5
49BA
  8
AM_0
 10
107.3093550704165
 20
590.1218253487209
 30
0.0
 11
107.3093550704165
 21
590.22182534872081
 31
0.0
  0
LINE
  5
49BB
  8
AM_0
 10
107.3093550704165
 20
589.73806267239115
 30
0.0
 11
107.3093550704165
 21
591.00339520912814
 31
0.0
  0
LINE
  5
49BC
  8
AM_0
 10
107.3093550704165
 20
592.12182534872102
 30
0.0
 11
107.9093550704164
 21
592.1218253487209
 31
0.0
  0
LINE
  5
49BD
  8
AM_0
 10
104.6093550704166
 20
591.00339520912814
 30
0.0
 11
104.6093550704164
 21
587.57186401672755
 31
0.0
  0
LINE
  5
49BE
  8
AM_0
 10
104.448310841159
 20
591.29008683747122
 30
0.0
 11
103.51575779165179
 21
590.75167708330446
 31
0.0
  0
LINE
  5
49BF
  8
AM_0
 10
104.881806662447
 20
591.7972518292637
 30
0.0
 11
107.03690347838609
 21
591.7972518292637
 31
0.0
  0
LINE
  5
49C0
  8
AM_0
 10
104.881806662447
 20
590.20953858899225
 30
0.0
 11
107.03690347838609
 21
590.20953858899225
 31
0.0
  0
LINE
  5
49C1
  8
AM_0
 10
103.3093550704164
 20
587.12182534872113
 30
0.0
 11
102.209355070416
 21
587.12182534872113
 31
0.0
  0
LINE
  5
49C2
  8
AM_0
 10
102.209355070416
 20
587.12182534872113
 30
0.0
 11
101.9093550704164
 21
587.42182534872086
 31
0.0
  0
LINE
  5
49C3
  8
AM_0
 10
101.9093550704164
 20
587.42182534872086
 30
0.0
 11
101.9093550704164
 21
589.82182534872095
 31
0.0
  0
LINE
  5
49C4
  8
AM_0
 10
102.209355070416
 20
590.12182534872113
 30
0.0
 11
103.3093550704164
 21
590.1218253487209
 31
0.0
  0
LINE
  5
49C5
  8
AM_0
 10
101.9093550704164
 20
589.82182534872095
 30
0.0
 11
102.209355070416
 21
590.12182534872113
 31
0.0
  0
LINE
  5
49C6
  8
AM_0
 10
103.3093550704164
 20
589.82182534872095
 30
0.0
 11
101.9093550704164
 21
589.82182534872095
 31
0.0
  0
ARC
  5
49C7
  8
AM_0
 10
106.0165782543898
 20
591.00339520912814
 30
0.0
 40
1.292776816026465
 50
0.0
 51
37.884441053701963
  0
ARC
  5
49C8
  8
AM_0
 10
109.3717849464759
 20
588.6218253487209
 30
0.0
 40
4.762429876059711
 50
160.5257599945858
 51
191.5497530412305
  0
ARC
  5
49C9
  8
AM_0
 10
105.902131886443
 20
591.00339520912814
 30
0.0
 40
1.292776816026556
 50
142.11555894629799
 51
217.88444105370201
  0
ARC
  5
49CA
  8
AM_0
 10
102.5469251943567
 20
588.62182534872102
 30
0.0
 40
4.762429876059584
 50
12.912852201780369
 51
19.474240005414199
  0
ARC
  5
49CB
  8
AM_0
 10
106.0165782543898
 20
591.00339520912814
 30
0.0
 40
1.2927768160265021
 50
322.11555894629811
 51
0.0
  0
ARC
  5
49CC
  8
AM_0
 10
103.7221605128869
 20
590.3941770833045
 30
0.0
 40
0.4128054424705854
 50
120.0000000000001
 51
180.0
  0
ARC
  5
49CD
  8
AM_0
 10
104.0355053986883
 20
592.00508683747125
 30
0.0
 40
0.8256108849411369
 50
300.0
 51
331.78257540581768
  0
LINE
  5
49CE
  8
AM_0
 10
103.5244476029396
 20
586.48695654925109
 30
0.0
 11
103.51575779165179
 21
586.49197361413724
 31
0.0
  0
ARC
  5
49CF
  8
AM_0
 10
103.7221605128869
 20
586.84947361413697
 30
0.0
 40
0.4128054424705854
 50
180.00000000000659
 51
240.0000000000077
  0
LINE
  5
49D0
  8
AM_0
 10
116.9746086327817
 20
584.1218253487209
 30
0.0
 11
119.9093550704159
 21
584.12182534872068
 31
0.0
  0
LINE
  5
49D1
  8
AM_0
 10
117.9287771845694
 20
585.6218253487209
 30
0.0
 11
119.9093550704161
 21
585.62182534872079
 31
0.0
  0
LINE
  5
49D2
  8
AM_0
 10
109.2303842142754
 20
590.1218253487209
 30
0.0
 11
119.9093550704161
 21
590.12182534872079
 31
0.0
  0
ARC
  5
49D3
  8
AM_0
 10
109.23038421427501
 20
585.12182534872102
 30
0.0
 40
5.0
 50
90.0
 51
135.00000000000031
1001
GENIUS_GENODEF_13
1002
{
1000
HIER
1070
     0
1002
}
1002
{
1000
MANEDIT
1070
     0
1002
}
1002
{
1000
NOSEL
1070
     0
1002
}
1002
{
1000
BEHIND
1070
     0
1002
}
1002
{
1000
OTHER
1070
     0
1002
}
1002
{
1000
REACTOR
1002
}
1001
GENIUS_GENOBJ-N-FIL_13
1002
{
1000
OWNER
1000
GEN
1002
}
  0
LINE
  5
49D4
  8
AM_0
 10
117.9287771845694
 20
590.1218253487209
 30
0.0
 11
117.9287771845694
 21
585.6218253487209
 31
0.0
  0
LINE
  5
49D5
  8
AM_0
 10
104.4093164024101
 20
556.44636592661425
 30
0.0
 11
104.4093164024106
 21
577.33380020243055
 31
0.0
  0
LINE
  5
49D6
  8
AM_0
 10
107.4093164024099
 20
556.44636592661425
 30
0.0
 11
107.4093164024106
 21
577.33380020243055
 31
0.0
  0
LINE
  5
49D7
  8
AM_0
 10
102.1593164024101
 20
555.43099793222393
 30
0.0
 11
102.1593164024106
 21
583.05075753685651
 31
0.0
  0
ARC
  5
49D8
  8
AM_0
 10
107.1593164024103
 20
583.05075753685639
 30
0.0
 40
5.0
 50
135.00000000000031
 51
180.0
1001
GENIUS_GENOBJ-N-FIL_13
1002
{
1000
OWNER
1000
GEN
1002
}
1001
GENIUS_GENODEF_13
1002
{
1000
HIER
1070
     0
1002
}
1002
{
1000
MANEDIT
1070
     0
1002
}
1002
{
1000
NOSEL
1070
     0
1002
}
1002
{
1000
BEHIND
1070
     0
1002
}
1002
{
1000
OTHER
1070
     0
1002
}
1002
{
1000
REACTOR
1002
}
  0
LINE
  5
49D9
  8
AM_0
 10
109.6593164024101
 20
555.4309979322237
 30
0.0
 11
109.6593164024105
 21
579.59090700546949
 31
0.0
  0
ARC
  5
49DA
  8
AM_0
 10
114.6593164024101
 20
571.16630697939638
 30
0.0
 40
5.0
 50
147.53905588486049
 51
180.0
1001
GENIUS_GENODEF_13
1002
{
1000
HIER
1070
     0
1002
}
1002
{
1000
MANEDIT
1070
     0
1002
}
1002
{
1000
NOSEL
1070
     0
1002
}
1002
{
1000
BEHIND
1070
     0
1002
}
1002
{
1000
OTHER
1070
     0
1002
}
1002
{
1000
REACTOR
1002
}
1001
GENIUS_GENOBJ-N-FIL_13
1002
{
1000
OWNER
1000
GEN
1002
}
  0
ARC
  5
49DB
  8
AM_0
 10
114.6593164024103
 20
579.59090700546915
 30
0.0
 40
5.0
 50
135.78762771910519
 51
180.0
1001
GENIUS_GENOBJ-N-FIL_13
1002
{
1000
OWNER
1000
GEN
1002
}
1001
GENIUS_GENODEF_13
1002
{
1000
HIER
1070
     0
1002
}
1002
{
1000
MANEDIT
1070
     0
1002
}
1002
{
1000
NOSEL
1070
     0
1002
}
1002
{
1000
BEHIND
1070
     0
1002
}
1002
{
1000
OTHER
1070
     0
1002
}
1002
{
1000
REACTOR
1002
}
  0
LINE
  5
49DC
  8
AM_0
 10
117.9287771845692
 20
585.6218253487209
 30
0.0
 11
110.4405288916431
 21
573.84992989236207
 31
0.0
  0
LINE
  5
49DD
  8
AM_0
 10
117.9287771845694
 20
590.1218253487209
 30
0.0
 11
111.0755161665591
 21
583.07750647623038
 31
0.0
  0
LINE
  5
49DE
  8
AM_0
 10
103.6237824964777
 20
586.58629144278916
 30
0.0
 11
105.6948503083425
 21
588.6573592546539
 31
0.0
  0
ARC
  5
49DF
  8
AM_0
 10
105.9093164024103
 20
577.33380020243055
 30
0.0
 40
1.5
 50
0.0
 51
180.0
  0
LINE
  5
49E2
  8
AM_0
 10
128.03884814339611
 20
479.9093034679031
 30
0.0
 11
112.9087609793182
 21
507.12182534872238
 31
0.0
  0
LINE
  5
49E3
  8
AM_0
 10
133.28280821082041
 20
482.82493081227648
 30
0.0
 11
120.8857963020328
 21
505.12182534872142
 31
0.0
  0
LINE
  5
5355
  8
ﾁｭｳｼﾝｾﾝ
 10
93.640202598546693
 20
550.12182534872125
 30
0.0
 11
445.27312507041557
 21
550.12182534872125
 31
0.0
  0
LINE
  5
5356
  8
AM_0
 10
417.90929507041562
 20
547.12182534872125
 30
0.0
 11
417.90929507041562
 21
553.12182534872125
 31
0.0
  0
LINE
  5
5357
  8
AM_0
 10
415.90930507041622
 20
540.62182534872125
 30
0.0
 11
439.9093250704156
 21
540.62182534872125
 31
0.0
  0
LINE
  5
5358
  8
AM_0
 10
415.90930507041583
 20
559.62182534872125
 30
0.0
 11
439.9093250704156
 21
559.62182534872125
 31
0.0
  0
LINE
  5
5359
  8
AM_0
 10
439.9093250704156
 20
540.62182534872125
 30
0.0
 11
439.9093250704156
 21
559.62182534872125
 31
0.0
  0
LINE
  5
535A
  8
AM_0
 10
417.90929507041562
 20
547.12182534872125
 30
0.0
 11
439.9093250704156
 21
547.12182534872125
 31
0.0
  0
LINE
  5
535B
  8
AM_0
 10
417.90929507041562
 20
553.12182534872125
 30
0.0
 11
439.9093250704156
 21
553.12182534872125
 31
0.0
  0
LINE
  5
535C
  8
AM_0
 10
384.90935507041559
 20
484.11791534872123
 30
0.0
 11
384.90935507041559
 21
493.2510353487213
 31
0.0
  0
LINE
  5
535D
  8
AM_0
 10
394.90935507041559
 20
501.3061453487212
 30
0.0
 11
394.90935507041559
 21
598.9374953487212
 31
0.0
  0
LINE
  5
535E
  8
AM_0
 10
389.77843507041558
 20
498.24929534872109
 30
0.0
 11
391.98787507041573
 21
498.30715534872121
 31
0.0
  0
LINE
  5
535F
  8
AM_0
 10
351.88317507041558
 20
484.07149534872121
 30
0.0
 11
349.9355150704157
 21
484.12252534872118
 31
0.0
  0
LINE
  5
5360
  8
AM_0
 10
352.90935507041547
 20
482.1486753487211
 30
0.0
 11
352.90935507041547
 21
488.14733534872113
 31
0.0
  0
LINE
  5
5361
  8
AM_0
 10
348.90935507041547
 20
481.12215534872132
 30
0.0
 11
348.90935507041547
 21
483.12285534872109
 31
0.0
  0
LINE
  5
5362
  8
AM_0
 10
405.04024507041561
 20
481.56545534872112
 30
0.0
 11
349.90935507041547
 21
480.12179534872132
 31
0.0
  0
LINE
  5
5363
  8
AM_0
 10
349.90932507041572
 20
480.12182534872119
 30
0.0
 11
331.77846507041568
 21
480.59658534872108
 31
0.0
  0
LINE
  5
5364
  8
AM_0
 10
407.90935507041559
 20
589.35894534872125
 30
0.0
 11
407.90935507041559
 21
507.67986534872108
 31
0.0
  0
LINE
  5
5365
  8
AM_0
 10
349.90935507041547
 20
490.12182534872079
 30
0.0
 11
349.90935507041547
 21
610.12182534872125
 31
0.0
  0
LINE
  5
5366
  8
AM_0
 10
399.77846507041568
 20
507.74932534872119
 30
0.0
 11
404.98787507041573
 21
507.88573534872131
 31
0.0
  0
LINE
  5
5367
  8
AM_0
 10
409.90935507041559
 20
486.56374534872111
 30
0.0
 11
409.90935507041559
 21
503.67986534872108
 31
0.0
  0
LINE
  5
5368
  8
AM_0
 10
326.90935507041547
 20
485.59487534872108
 30
0.0
 11
326.90935507041547
 21
489.51952534872117
 31
0.0
  0
LINE
  5
5369
  8
AM_0
 10
317.40935507041547
 20
489.27077534872092
 30
0.0
 11
358.3705350704156
 21
490.34337534872111
 31
0.0
  0
LINE
  5
536A
  8
AM_0
 10
384.90935507041559
 20
616.12572534872095
 30
0.0
 11
384.90935507041559
 21
606.99260534872121
 31
0.0
  0
LINE
  5
536B
  8
AM_0
 10
389.77846507041568
 20
601.99431534872099
 30
0.0
 11
391.98787507041573
 21
601.9364553487211
 31
0.0
  0
LINE
  5
536C
  8
AM_0
 10
351.88317507041558
 20
616.17211534872126
 30
0.0
 11
349.93554507041563
 21
616.12111534872122
 31
0.0
  0
LINE
  5
536D
  8
AM_0
 10
352.90935507041547
 20
618.09493534872115
 30
0.0
 11
352.90935507041547
 21
612.09630534872122
 31
0.0
  0
LINE
  5
536E
  8
AM_0
 10
348.90935507041547
 20
619.12145534872116
 30
0.0
 11
348.90935507041547
 21
617.12078534872126
 31
0.0
  0
LINE
  5
536F
  8
AM_0
 10
405.04021507041563
 20
618.67815534872125
 30
0.0
 11
349.90935507041547
 21
620.12182534872125
 31
0.0
  0
LINE
  5
5370
  8
AM_0
 10
349.90935507041547
 20
620.12179534872121
 30
0.0
 11
331.77846507041568
 21
619.64702534872129
 31
0.0
  0
LINE
  5
5371
  8
AM_0
 10
399.77846507041568
 20
592.49431534872122
 30
0.0
 11
404.98787507041573
 21
592.35790534872126
 31
0.0
  0
LINE
  5
5372
  8
AM_0
 10
409.90935507041559
 20
613.67986534872114
 30
0.0
 11
409.90935507041559
 21
596.56374534872123
 31
0.0
  0
LINE
  5
5373
  8
AM_0
 10
326.90935507041547
 20
614.64873534872095
 30
0.0
 11
326.90935507041547
 21
610.72408534872113
 31
0.0
  0
LINE
  5
5374
  8
AM_0
 10
317.40935507041547
 20
610.97286534872114
 30
0.0
 11
358.37056507041558
 21
609.90026534872095
 31
0.0
  0
LINE
  5
5375
  8
AM_0
 10
360.9093550704157
 20
592.85546534872117
 30
0.0
 11
360.9093550704157
 21
609.50350534872121
 31
0.0
  0
LINE
  5
5376
  8
AM_0
 10
362.90929507041562
 20
507.38817534872118
 30
0.0
 11
362.90929507041562
 21
592.85546534872117
 31
0.0
  0
LINE
  5
5377
  8
AM_0
 10
317.40935507041547
 20
605.64815534872128
 30
0.0
 11
360.9093550704157
 21
605.64815534872128
 31
0.0
  0
LINE
  5
5378
  8
AM_0
 10
317.40935507041547
 20
494.59545534872109
 30
0.0
 11
360.9093550704157
 21
494.59545534872109
 31
0.0
  0
LINE
  5
5379
  8
AM_0
 10
369.8723750704155
 20
604.65896534872115
 30
0.0
 11
363.10878507041559
 21
608.56392534872123
 31
0.0
  0
LINE
  5
537A
  8
AM_0
 10
360.9093550704157
 20
592.85546534872117
 30
0.0
 11
362.90929507041562
 21
592.85546534872117
 31
0.0
  0
LINE
  5
537B
  8
AM_0
 10
386.89831507041572
 20
603.00087534872125
 30
0.0
 11
374.61059507041563
 21
603.32265534872124
 31
0.0
  0
LINE
  5
537C
  8
AM_0
 10
374.40743507041572
 20
591.44365534872099
 30
0.0
 11
362.90932507041572
 21
592.85546534872117
 31
0.0
  0
LINE
  5
537D
  8
AM_0
 10
394.90932507041572
 20
590.72771534872106
 30
0.0
 11
374.4074650704157
 21
591.44365534872099
 31
0.0
  0
LINE
  5
537E
  8
AM_0
 10
369.8723750704155
 20
495.58465534872113
 30
0.0
 11
363.10878507041559
 21
491.67968534872108
 31
0.0
  0
LINE
  5
537F
  8
AM_0
 10
360.9093550704157
 20
507.38817534872118
 30
0.0
 11
360.9093550704157
 21
490.74010534872122
 31
0.0
  0
LINE
  5
5380
  8
AM_0
 10
394.90932507041572
 20
509.51589534872119
 30
0.0
 11
374.40743507041572
 21
508.79995534872108
 31
0.0
  0
LINE
  5
5381
  8
AM_0
 10
374.40743507041572
 20
508.79995534872108
 30
0.0
 11
362.90932507041572
 21
507.38814534872091
 31
0.0
  0
LINE
  5
5382
  8
AM_0
 10
360.9093550704157
 20
507.38817534872118
 30
0.0
 11
362.90929507041562
 21
507.38817534872118
 31
0.0
  0
LINE
  5
5383
  8
AM_0
 10
386.89831507041572
 20
497.24276534872109
 30
0.0
 11
374.61062507041572
 21
496.9209853487211
 31
0.0
  0
LINE
  5
5384
  8
AM_0
 10
361.90935507041559
 20
505.91405534872109
 30
0.0
 11
364.9093550704157
 21
505.91405534872109
 31
0.0
  0
LINE
  5
5385
  8
AM_0
 10
361.90935507041559
 20
494.3670653487211
 30
0.0
 11
364.9093550704157
 21
494.3670653487211
 31
0.0
  0
LINE
  5
5386
  8
AM_0
 10
361.90935507041559
 20
503.02733534872118
 30
0.0
 11
364.9093550704157
 21
503.02733534872118
 31
0.0
  0
LINE
  5
5387
  8
AM_0
 10
365.90929507041568
 20
495.3670653487211
 30
0.0
 11
365.90929507041568
 21
504.91408534872107
 31
0.0
  0
LINE
  5
5388
  8
AM_0
 10
361.90935507041559
 20
497.25377534872109
 30
0.0
 11
364.9093550704157
 21
497.25377534872109
 31
0.0
  0
LINE
  5
5389
  8
AM_0
 10
360.9093550704157
 20
493.86706534872121
 30
0.0
 11
361.90935507041559
 21
493.86706534872121
 31
0.0
  0
LINE
  5
538A
  8
AM_0
 10
360.9093550704157
 20
506.41405534872109
 30
0.0
 11
361.90935507041559
 21
506.41405534872109
 31
0.0
  0
LINE
  5
538B
  8
AM_0
 10
361.90935507041559
 20
506.41405534872109
 30
0.0
 11
361.90935507041559
 21
493.86706534872121
 31
0.0
  0
LINE
  5
538C
  8
AM_0
 10
361.90935507041559
 20
593.82958534872125
 30
0.0
 11
361.90935507041559
 21
606.37658534872116
 31
0.0
  0
LINE
  5
538D
  8
AM_0
 10
360.9093550704157
 20
593.82958534872125
 30
0.0
 11
361.90935507041559
 21
593.82958534872125
 31
0.0
  0
LINE
  5
538E
  8
AM_0
 10
360.9093550704157
 20
606.37658534872116
 30
0.0
 11
361.90935507041559
 21
606.37658534872116
 31
0.0
  0
LINE
  5
538F
  8
AM_0
 10
361.90935507041559
 20
602.98983534872127
 30
0.0
 11
364.9093550704157
 21
602.98983534872127
 31
0.0
  0
LINE
  5
5390
  8
AM_0
 10
365.90929507041568
 20
604.87658534872105
 30
0.0
 11
365.90929507041568
 21
595.32955534872121
 31
0.0
  0
LINE
  5
5391
  8
AM_0
 10
361.90935507041559
 20
597.21630534872122
 30
0.0
 11
364.9093550704157
 21
597.21630534872122
 31
0.0
  0
LINE
  5
5392
  8
AM_0
 10
361.90935507041559
 20
605.87658534872116
 30
0.0
 11
364.9093550704157
 21
605.87658534872116
 31
0.0
  0
LINE
  5
5393
  8
AM_0
 10
361.90935507041559
 20
594.32955534872121
 30
0.0
 11
364.9093550704157
 21
594.32955534872121
 31
0.0
  0
LINE
  5
5394
  8
AM_0
 10
317.40935507041547
 20
487.22689534872109
 30
0.0
 11
317.40935507041547
 21
498.62151534872112
 31
0.0
  0
LINE
  5
5395
  8
AM_0
 10
312.40935507041547
 20
486.12182534872079
 30
0.0
 11
312.40935507041547
 21
614.12182534872125
 31
0.0
  0
LINE
  5
5396
  8
AM_0
 10
316.43554507041563
 20
614.01638534872097
 30
0.0
 11
312.40935507041547
 21
614.12182534872125
 31
0.0
  0
LINE
  5
5397
  8
AM_0
 10
316.43554507041563
 20
486.22722534872111
 30
0.0
 11
312.40935507041547
 21
486.12182534872079
 31
0.0
  0
LINE
  5
5398
  8
AM_0
 10
312.40935507041547
 20
498.62151534872112
 30
0.0
 11
324.53447507041562
 21
498.62151534872112
 31
0.0
  0
LINE
  5
5399
  8
AM_0
 10
312.40935507041547
 20
512.06695534872108
 30
0.0
 11
317.40935507041547
 21
512.06695534872108
 31
0.0
  0
LINE
  5
539A
  8
AM_0
 10
325.40935507041547
 20
500.8334953487211
 30
0.0
 11
325.40935507041547
 21
510.74672534872121
 31
0.0
  0
LINE
  5
539B
  8
AM_0
 10
335.40935507041547
 20
501.80202534872109
 30
0.0
 11
335.40935507041547
 21
511.77221534872092
 31
0.0
  0
LINE
  5
539C
  8
AM_0
 10
317.40935507041547
 20
512.06695534872108
 30
0.0
 11
317.40935507041547
 21
588.17669534872095
 31
0.0
  0
LINE
  5
539D
  8
AM_0
 10
317.40935507041547
 20
601.62182534872125
 30
0.0
 11
317.40935507041547
 21
613.01671534872128
 31
0.0
  0
LINE
  5
539E
  8
AM_0
 10
335.40932507041572
 20
500.3847653487212
 30
0.0
 11
326.2709650704158
 21
498.7734053487211
 31
0.0
  0
LINE
  5
539F
  8
AM_0
 10
317.40935507041547
 20
512.94182534872107
 30
0.0
 11
335.40935507041547
 21
512.94182534872107
 31
0.0
  0
LINE
  5
53A0
  8
AM_0
 10
325.40935507041547
 20
599.41012534872118
 30
0.0
 11
325.40935507041547
 21
589.49688534872121
 31
0.0
  0
LINE
  5
53A1
  8
AM_0
 10
335.40932507041572
 20
599.85882534872121
 30
0.0
 11
326.27092507041561
 21
601.470175348721
 31
0.0
  0
LINE
  5
53A2
  8
AM_0
 10
312.40935507041547
 20
588.17669534872095
 30
0.0
 11
317.40935507041547
 21
588.17669534872095
 31
0.0
  0
LINE
  5
53A3
  8
AM_0
 10
317.40935507041547
 20
587.30178534872095
 30
0.0
 11
335.40935507041547
 21
587.30178534872095
 31
0.0
  0
LINE
  5
53A4
  8
AM_0
 10
312.40935507041547
 20
601.62209534872125
 30
0.0
 11
324.53447507041562
 21
601.62209534872125
 31
0.0
  0
LINE
  5
53A5
  8
AM_0
 10
335.40935507041547
 20
598.44158534872099
 30
0.0
 11
335.40935507041547
 21
588.47136534872095
 31
0.0
  0
LINE
  5
53EB
  8
AM_0
 10
304.40935507041547
 20
587.27184534872117
 30
0.0
 11
312.40935507041547
 21
587.27184534872117
 31
0.0
  0
LINE
  5
53EC
  8
AM_0
 10
305.40935507041559
 20
498.0817853487211
 30
0.0
 11
312.40935507041547
 21
498.08178534872138
 31
0.0
  0
LINE
  5
53ED
  8
AM_0
 10
304.40935507041547
 20
512.97179534872112
 30
0.0
 11
312.40935507041547
 21
512.97179534872112
 31
0.0
  0
LINE
  5
53EE
  8
AM_0
 10
305.40935507041559
 20
486.62182534872107
 30
0.0
 11
312.40935507041547
 21
486.6218253487213
 31
0.0
  0
LINE
  5
53EF
  8
AM_0
 10
305.40935507041559
 20
602.16185534872113
 30
0.0
 11
312.40935507041547
 21
602.16185534872113
 31
0.0
  0
LINE
  5
53F0
  8
AM_0
 10
305.40935507041559
 20
613.62182534872125
 30
0.0
 11
312.40935507041547
 21
613.62182534872113
 31
0.0
  0
LINE
  5
53F1
  8
AM_0
 10
157.40935507041581
 20
492.69176534872122
 30
0.0
 11
160.22930507041539
 21
492.6317653487211
 31
0.0
  0
LINE
  5
53F2
  8
AM_0
 10
198.40935507041581
 20
503.77184534872117
 30
0.0
 11
304.40935507041547
 21
503.77184534872117
 31
0.0
  0
LINE
  5
53F3
  8
AM_0
 10
299.11931507041572
 20
489.6218253487209
 30
0.0
 11
304.40935507041547
 21
489.6218253487209
 31
0.0
  0
LINE
  5
53F4
  8
AM_0
 10
171.07934507041571
 20
516.76183534872109
 30
0.0
 11
265.42931507041573
 21
516.76183534872109
 31
0.0
  0
LINE
  5
53F5
  8
AM_0
 10
253.4093550704157
 20
514.12182534872113
 30
0.0
 11
171.94506507041581
 21
514.12182534872113
 31
0.0
  0
LINE
  5
53F6
  8
AM_0
 10
253.4093550704157
 20
513.40185534872114
 30
0.0
 11
301.22936507041572
 21
513.40185534872114
 31
0.0
  0
LINE
  5
53F7
  8
AM_0
 10
171.07934507041571
 20
513.40185534872114
 30
0.0
 11
253.4093550704157
 21
513.40185534872114
 31
0.0
  0
LINE
  5
53F8
  8
AM_0
 10
171.10698507041559
 20
491.86181534872111
 30
0.0
 11
176.90935507041559
 21
491.86181534872111
 31
0.0
  0
LINE
  5
53F9
  8
AM_0
 10
180.40935507041559
 20
488.26183534872121
 30
0.0
 11
297.21935507041547
 21
488.26183534872121
 31
0.0
  0
LINE
  5
53FA
  8
AM_0
 10
171.16924507041571
 20
497.14184534872118
 30
0.0
 11
176.90935507041559
 21
497.14184534872118
 31
0.0
  0
LINE
  5
53FB
  8
AM_0
 10
167.40935507041559
 20
501.77184534872111
 30
0.0
 11
167.40935507041559
 21
515.82177534872096
 31
0.0
  0
LINE
  5
53FC
  8
AM_0
 10
157.40935507041581
 20
501.77184534872111
 30
0.0
 11
167.40935507041559
 21
501.77184534872111
 31
0.0
  0
LINE
  5
53FD
  8
AM_0
 10
299.14934507041551
 20
489.75173534872113
 30
0.0
 11
302.60936507041572
 21
502.66185534872108
 31
0.0
  0
LINE
  5
53FE
  8
AM_0
 10
161.17064507041559
 20
489.96282534872103
 30
0.0
 11
160.68938507041571
 21
491.8718253487209
 31
0.0
  0
LINE
  5
53FF
  8
AM_0
 10
161.5993650704157
 20
489.99175534872109
 30
0.0
 11
160.6793150704155
 21
493.87185534872123
 31
0.0
  0
LINE
  5
5400
  8
AM_0
 10
178.4093550704157
 20
488.23278534872111
 30
0.0
 11
178.4093550704157
 21
495.64184534872112
 31
0.0
  0
LINE
  5
5401
  8
AM_0
 10
159.2393750704156
 20
493.00182534872118
 30
0.0
 11
160.88933507041571
 21
493.00182534872118
 31
0.0
  0
LINE
  5
5402
  8
AM_0
 10
198.40935507041581
 20
596.47179534872123
 30
0.0
 11
304.40935507041547
 21
596.47179534872123
 31
0.0
  0
LINE
  5
5403
  8
AM_0
 10
304.40935507041547
 20
487.62182534872079
 30
0.0
 11
304.40935507041547
 21
612.62182534872125
 31
0.0
  0
LINE
  5
5404
  8
AM_0
 10
157.40935507041581
 20
607.55181534872122
 30
0.0
 11
160.22936507041581
 21
607.62182534872125
 31
0.0
  0
LINE
  5
5405
  8
AM_0
 10
157.40935507041581
 20
492.69176534872122
 30
0.0
 11
157.40935507041581
 21
607.55181534872145
 31
0.0
  0
LINE
  5
5406
  8
AM_0
 10
297.74932507041558
 20
514.12182534872113
 30
0.0
 11
253.4093550704157
 21
514.12182534872113
 31
0.0
  0
LINE
  5
5407
  8
AM_0
 10
167.40935507041559
 20
598.47179534872112
 30
0.0
 11
167.40935507041559
 21
584.43187534872095
 31
0.0
  0
LINE
  5
5408
  8
AM_0
 10
157.40935507041581
 20
584.43187534872095
 30
0.0
 11
167.40935507041559
 21
584.43187534872095
 31
0.0
  0
LINE
  5
5409
  8
AM_0
 10
157.40935507041581
 20
592.81176534872122
 30
0.0
 11
167.40935507041559
 21
592.81176534872122
 31
0.0
  0
LINE
  5
540A
  8
AM_0
 10
157.40935507041581
 20
598.47179534872112
 30
0.0
 11
167.40935507041559
 21
598.47179534872112
 31
0.0
  0
LINE
  5
540B
  8
AM_0
 10
232.85143507041559
 20
536.12182534872125
 30
0.0
 11
162.95934507041551
 21
536.12182534872125
 31
0.0
  0
LINE
  5
540C
  8
AM_0
 10
180.40935507041559
 20
611.9818053487212
 30
0.0
 11
297.21935507041547
 21
611.9818053487212
 31
0.0
  0
LINE
  5
540D
  8
AM_0
 10
171.3636450704156
 20
603.11181534872128
 30
0.0
 11
176.90935507041559
 21
603.11181534872128
 31
0.0
  0
LINE
  5
540E
  8
AM_0
 10
168.6186450704156
 20
597.11513534872097
 30
0.0
 11
169.4036250704157
 21
601.46181534872096
 31
0.0
  0
LINE
  5
540F
  8
AM_0
 10
171.2997950704156
 20
608.39184534872106
 30
0.0
 11
176.90935507041559
 21
608.39184534872106
 31
0.0
  0
LINE
  5
5410
  8
AM_0
 10
163.5393650704155
 20
611.79186534872122
 30
0.0
 11
176.90935507041559
 21
611.79186534872122
 31
0.0
  0
LINE
  5
5411
  8
AM_0
 10
163.51934507041571
 20
613.42186534872121
 30
0.0
 11
177.01934507041571
 21
613.42186534872121
 31
0.0
  0
LINE
  5
5412
  8
AM_0
 10
180.40935507041559
 20
616.04186534872099
 30
0.0
 11
298.49297507041558
 21
616.04186534872099
 31
0.0
  0
LINE
  5
5413
  8
AM_0
 10
180.40935507041559
 20
615.37182534872125
 30
0.0
 11
298.63701507041571
 21
615.37182534872125
 31
0.0
  0
LINE
  5
5414
  8
AM_0
 10
180.40935507041559
 20
614.01183534872121
 30
0.0
 11
298.92931507041578
 21
614.01183534872121
 31
0.0
  0
LINE
  5
5415
  8
AM_0
 10
166.92363507041549
 20
601.16185534872113
 30
0.0
 11
169.3436250704155
 21
601.16185534872113
 31
0.0
  0
LINE
  5
5416
  8
AM_0
 10
169.3535750704155
 20
606.81185534872122
 30
0.0
 11
168.3935450704158
 21
602.3417653487212
 31
0.0
  0
LINE
  5
5417
  8
AM_0
 10
159.21935507041539
 20
605.22179534872123
 30
0.0
 11
169.01214507041561
 21
605.22179534872123
 31
0.0
  0
LINE
  5
5418
  8
AM_0
 10
297.74932507041558
 20
586.12182534872125
 30
0.0
 11
171.95934507041579
 21
586.12182534872125
 31
0.0
  0
LINE
  5
5419
  8
AM_0
 10
297.74932507041558
 20
584.12182534872125
 30
0.0
 11
283.40935507041547
 21
584.12182534872125
 31
0.0
  0
LINE
  5
541A
  8
AM_0
 10
297.7564650704158
 20
576.12182534872125
 30
0.0
 11
283.40935507041547
 21
576.12182534872125
 31
0.0
  0
LINE
  5
541B
  8
AM_0
 10
161.5993650704157
 20
610.25185534872128
 30
0.0
 11
160.6793150704155
 21
606.38180534872129
 31
0.0
  0
LINE
  5
541C
  8
AM_0
 10
297.7421850704157
 20
574.12182534872125
 30
0.0
 11
171.95934507041579
 21
574.12182534872125
 31
0.0
  0
LINE
  5
541D
  8
AM_0
 10
159.2393750704156
 20
607.24181534872127
 30
0.0
 11
160.88933507041571
 21
607.24181534872127
 31
0.0
  0
LINE
  5
541E
  8
AM_0
 10
161.57934507041551
 20
611.91176534872125
 30
0.0
 11
160.68938507041571
 21
608.38186534872113
 31
0.0
  0
LINE
  5
541F
  8
AM_0
 10
232.8480750704158
 20
566.12182534872125
 30
0.0
 11
162.95934507041551
 21
566.12182534872125
 31
0.0
  0
LINE
  5
5420
  8
AM_0
 10
178.4093550704157
 20
612.01183534872121
 30
0.0
 11
178.4093550704157
 21
604.61181534872128
 31
0.0
  0
LINE
  5
5421
  8
AM_0
 10
232.8480750704158
 20
564.12182534872125
 30
0.0
 11
162.95934507041551
 21
564.12182534872125
 31
0.0
  0
LINE
  5
5422
  8
AM_0
 10
232.85143507041559
 20
556.12182534872125
 30
0.0
 11
162.95934507041551
 21
556.12182534872125
 31
0.0
  0
LINE
  5
5423
  8
AM_0
 10
232.85143507041559
 20
554.12182534872125
 30
0.0
 11
162.95934507041551
 21
554.12182534872125
 31
0.0
  0
LINE
  5
5424
  8
AM_0
 10
299.14934507041551
 20
610.50185534872105
 30
0.0
 11
302.60936507041572
 21
597.58178534872116
 31
0.0
  0
LINE
  5
5425
  8
AM_0
 10
300.86974507041572
 20
610.62182534872125
 30
0.0
 11
304.40935507041547
 21
610.62182534872125
 31
0.0
  0
LINE
  5
5426
  8
AM_0
 10
304.11931507041561
 20
601.16185534872113
 30
0.0
 11
301.69933507041571
 21
601.16185534872113
 31
0.0
  0
LINE
  5
5427
  8
AM_0
 10
299.9595550704156
 20
614.85698534872085
 30
0.0
 11
302.6493750704156
 21
602.3417653487212
 31
0.0
  0
LINE
  5
5429
  8
AM_0
 10
157.40935507041581
 20
515.82177534872096
 30
0.0
 11
167.40935507041559
 21
515.82177534872096
 31
0.0
  0
LINE
  5
542A
  8
AM_0
 10
163.1099850704156
 20
488.45177534872113
 30
0.0
 11
177.1520950704159
 21
488.45177534872113
 31
0.0
  0
LINE
  5
542B
  8
AM_0
 10
157.40935507041581
 20
507.43187534872118
 30
0.0
 11
167.40935507041559
 21
507.43187534872118
 31
0.0
  0
LINE
  5
542C
  8
AM_0
 10
159.21935507041539
 20
495.02184534872111
 30
0.0
 11
169.01214507041561
 21
495.02184534872111
 31
0.0
  0
LINE
  5
542D
  8
AM_0
 10
180.40935507041559
 20
486.23180534872108
 30
0.0
 11
221.73571507041561
 21
486.23180534872108
 31
0.0
  0
LINE
  5
542E
  8
AM_0
 10
170.86937507041549
 20
523.64184534872095
 30
0.0
 11
265.40935507041547
 21
523.64184534872095
 31
0.0
  0
LINE
  5
542F
  8
AM_0
 10
265.40935507041547
 20
516.12182534872113
 30
0.0
 11
171.94506507041581
 21
516.12182534872113
 31
0.0
  0
LINE
  5
5430
  8
AM_0
 10
171.07934507041571
 20
586.85180534872097
 30
0.0
 11
301.22936507041572
 21
586.85180534872097
 31
0.0
  0
LINE
  5
5431
  8
AM_0
 10
171.07934507041571
 20
583.49181534872127
 30
0.0
 11
265.42931507041573
 21
583.49181534872127
 31
0.0
  0
LINE
  5
5432
  8
AM_0
 10
170.86937507041549
 20
576.61181534872105
 30
0.0
 11
265.40935507041547
 21
576.61181534872105
 31
0.0
  0
LINE
  5
5433
  8
AM_0
 10
170.86937507041549
 20
573.69176534872111
 30
0.0
 11
301.4435950704156
 21
573.69176534872111
 31
0.0
  0
LINE
  5
5434
  8
AM_0
 10
161.7393750704158
 20
566.47179534872123
 30
0.0
 11
234.08062507041561
 21
566.47179534872123
 31
0.0
  0
LINE
  5
5435
  8
AM_0
 10
161.7393750704158
 20
563.80187534872096
 30
0.0
 11
234.06804507041559
 21
563.80187534872096
 31
0.0
  0
LINE
  5
5436
  8
AM_0
 10
161.6793750704154
 20
556.40185534872114
 30
0.0
 11
234.14446507041549
 21
556.40185534872114
 31
0.0
  0
LINE
  5
5437
  8
AM_0
 10
161.6793750704154
 20
553.86181534872105
 30
0.0
 11
234.14446507041549
 21
553.86181534872105
 31
0.0
  0
LINE
  5
5438
  8
AM_0
 10
161.6793750704154
 20
546.39184534872095
 30
0.0
 11
234.14446507041549
 21
546.39184534872095
 31
0.0
  0
LINE
  5
5439
  8
AM_0
 10
232.85143507041559
 20
544.12182534872125
 30
0.0
 11
162.95934507041551
 21
544.12182534872125
 31
0.0
  0
LINE
  5
543A
  8
AM_0
 10
232.85143507041559
 20
546.12182534872125
 30
0.0
 11
162.95934507041551
 21
546.12182534872125
 31
0.0
  0
LINE
  5
543B
  8
AM_0
 10
161.7393750704158
 20
536.44176534872122
 30
0.0
 11
234.08062507041561
 21
536.44176534872122
 31
0.0
  0
LINE
  5
543C
  8
AM_0
 10
232.85143507041559
 20
534.12182534872125
 30
0.0
 11
162.95934507041551
 21
534.12182534872125
 31
0.0
  0
LINE
  5
543D
  8
AM_0
 10
161.7393750704158
 20
533.78185534872125
 30
0.0
 11
234.08062507041561
 21
533.78185534872125
 31
0.0
  0
LINE
  5
543E
  8
AM_0
 10
297.7421850704157
 20
526.12182534872125
 30
0.0
 11
171.94506507041581
 21
526.12182534872125
 31
0.0
  0
LINE
  5
543F
  8
AM_0
 10
170.86937507041549
 20
526.561765348721
 30
0.0
 11
301.4435950704156
 21
526.561765348721
 31
0.0
  0
LINE
  5
5440
  8
AM_0
 10
297.7421850704157
 20
524.12182534872125
 30
0.0
 11
283.40935507041547
 21
524.12182534872125
 31
0.0
  0
LINE
  5
5441
  8
AM_0
 10
297.74932507041558
 20
516.12182534872113
 30
0.0
 11
283.40935507041547
 21
516.12182534872113
 31
0.0
  0
LINE
  5
5442
  8
AM_0
 10
161.6793750704154
 20
543.8518053487212
 30
0.0
 11
234.14446507041549
 21
543.8518053487212
 31
0.0
  0
LINE
  5
5443
  8
AM_0
 10
168.61858507041561
 20
503.12844534872107
 30
0.0
 11
169.4036250704157
 21
498.78176534872108
 31
0.0
  0
LINE
  5
5444
  8
AM_0
 10
166.92363507041549
 20
499.08178534872121
 30
0.0
 11
169.3436250704155
 21
499.08178534872121
 31
0.0
  0
LINE
  5
5445
  8
AM_0
 10
169.35363507041561
 20
493.4318153487211
 30
0.0
 11
168.39361507041539
 21
497.90178534872132
 31
0.0
  0
LINE
  5
5446
  8
AM_0
 10
284.92296507041578
 20
480.12182534872119
 30
0.0
 11
296.42553507041561
 21
480.12182534872119
 31
0.0
  0
LINE
  5
5447
  8
AM_0
 10
303.40938507041568
 20
489.62179534872109
 30
0.0
 11
297.6835850704158
 21
480.8048353487211
 31
0.0
  0
LINE
  5
5448
  8
AM_0
 10
266.90935507041547
 20
522.62182534872113
 30
0.0
 11
266.90935507041547
 21
517.62182534872125
 31
0.0
  0
LINE
  5
5449
  8
AM_0
 10
281.90935507041547
 20
522.62182534872113
 30
0.0
 11
281.90935507041547
 21
517.62182534872125
 31
0.0
  0
LINE
  5
544A
  8
AM_0
 10
265.40935507041547
 20
524.12182534872125
 30
0.0
 11
171.94506507041581
 21
524.12182534872125
 31
0.0
  0
LINE
  5
544B
  8
AM_0
 10
266.42931507041573
 20
522.62182534872113
 30
0.0
 11
266.42931507041573
 21
517.76183534872109
 31
0.0
  0
LINE
  5
544C
  8
AM_0
 10
282.38933507041571
 20
522.62182534872113
 30
0.0
 11
282.38933507041571
 21
517.76183534872109
 31
0.0
  0
LINE
  5
544D
  8
AM_0
 10
283.40935507041547
 20
523.64184534872095
 30
0.0
 11
301.4435950704156
 21
523.64184534872095
 31
0.0
  0
LINE
  5
544E
  8
AM_0
 10
283.3893350704156
 20
516.76183534872109
 30
0.0
 11
301.22936507041572
 21
516.76183534872109
 31
0.0
  0
LINE
  5
544F
  8
AM_0
 10
282.38933507041571
 20
577.62182534872125
 30
0.0
 11
282.38933507041571
 21
582.4818053487212
 31
0.0
  0
LINE
  5
5450
  8
AM_0
 10
266.42931507041573
 20
577.62182534872125
 30
0.0
 11
266.42931507041573
 21
582.4818053487212
 31
0.0
  0
LINE
  5
5451
  8
AM_0
 10
281.90935507041547
 20
577.62182534872125
 30
0.0
 11
281.90935507041547
 21
582.62182534872125
 31
0.0
  0
LINE
  5
5452
  8
AM_0
 10
266.90935507041547
 20
577.62182534872125
 30
0.0
 11
266.90935507041547
 21
582.62182534872125
 31
0.0
  0
LINE
  5
5453
  8
AM_0
 10
265.40935507041547
 20
584.12182534872125
 30
0.0
 11
171.95934507041579
 21
584.12182534872125
 31
0.0
  0
LINE
  5
5454
  8
AM_0
 10
283.3893350704156
 20
583.49181534872127
 30
0.0
 11
301.22936507041572
 21
583.49181534872127
 31
0.0
  0
LINE
  5
5455
  8
AM_0
 10
283.40935507041547
 20
576.61181534872105
 30
0.0
 11
301.4550750704156
 21
576.61181534872105
 31
0.0
  0
LINE
  5
5456
  8
AM_0
 10
265.40935507041547
 20
576.12182534872125
 30
0.0
 11
171.95934507041579
 21
576.12182534872125
 31
0.0
  0
LINE
  5
5457
  8
AM_0
 10
238.40935507041559
 20
570.62182534872125
 30
0.0
 11
238.40935507041559
 21
529.62182534872125
 31
0.0
  0
LINE
  5
5458
  8
AM_0
 10
301.40935507041547
 20
570.62182534872125
 30
0.0
 11
301.40935507041547
 21
529.62182534872125
 31
0.0
  0
LINE
  5
5459
  8
AM_0
 10
238.40935507041559
 20
570.62182534872125
 30
0.0
 11
301.40935507041547
 21
570.62182534872125
 31
0.0
  0
LINE
  5
545A
  8
AM_0
 10
238.40935507041559
 20
529.62182534872125
 30
0.0
 11
301.40935507041547
 21
529.62182534872125
 31
0.0
  0
LINE
  5
545B
  8
AM_0
 10
238.40935507041559
 20
563.12182534872125
 30
0.0
 11
301.40935507041547
 21
563.12182534872125
 31
0.0
  0
LINE
  5
545C
  8
AM_0
 10
198.40935507041581
 20
596.47173534872127
 30
0.0
 11
167.40935507041559
 21
594.44173534872095
 31
0.0
  0
LINE
  5
545D
  8
AM_0
 10
198.40935507041581
 20
503.7717853487211
 30
0.0
 11
167.40935507041559
 21
505.80178534872118
 31
0.0
  0
ARC
  5
545E
  8
AM_0
 10
417.90929507041562
 20
550.12182534872125
 30
0.0
 40
3.0
 50
89.986014000002498
 51
131.81005866176551
  0
ARC
  5
545F
  8
AM_0
 10
417.90929507041562
 20
550.12182534872125
 30
0.0
 40
3.0
 50
228.18994133823441
 51
270.01399000000328
  0
ARC
  5
5460
  8
AM_0
 10
349.90935507041547
 20
481.12215534872132
 30
0.0
 40
1.0
 50
180.00001000000091
 51
268.50000000000369
  0
ARC
  5
5461
  8
AM_0
 10
404.90935507041559
 20
510.8846953487211
 30
0.0
 40
3.0
 50
271.49999999999608
 51
0.0
  0
ARC
  5
5462
  8
AM_0
 10
350.90935507041547
 20
482.1486753487211
 30
0.0
 40
2.0
 50
271.49999999999608
 51
0.0
  0
ARC
  5
5463
  8
AM_0
 10
350.90935507041547
 20
488.14733534872113
 30
0.0
 40
2.0
 50
0.0
 51
91.500001000001546
  0
ARC
  5
5464
  8
AM_0
 10
391.9093550704157
 20
501.3061453487212
 30
0.0
 40
3.0
 50
271.49999999999608
 51
0.0
  0
ARC
  5
5465
  8
AM_0
 10
387.9093550704157
 20
484.11791534872123
 30
0.0
 40
3.0
 50
180.00001000000091
 51
271.49999999999608
  0
ARC
  5
5466
  8
AM_0
 10
389.90935507041559
 20
493.2510353487213
 30
0.0
 40
5.0
 50
91.500001000001546
 51
180.00001000000091
  0
ARC
  5
5467
  8
AM_0
 10
399.9093550704157
 20
502.75103534872079
 30
0.0
 40
5.0
 50
91.500001000001546
 51
180.00001000000091
  0
ARC
  5
5468
  8
AM_0
 10
351.90935507041547
 20
485.07116534872102
 30
0.0
 40
1.0
 50
268.50000000000369
 51
0.0000006832495047
  0
ARC
  5
5469
  8
AM_0
 10
349.90935507041547
 20
483.12285534872109
 30
0.0
 40
1.0
 50
88.499997000000747
 51
180.00001000000091
  0
CIRCLE
  5
546A
  8
AM_0
 10
399.90929507041562
 20
492.62182534872119
 30
0.0
 40
5.0
  0
ARC
  5
546B
  8
AM_0
 10
331.90935507041547
 20
485.59487534872108
 30
0.0
 40
5.0
 50
180.00001000000091
 51
268.50000000000369
  0
ARC
  5
546C
  8
AM_0
 10
404.90935507041559
 20
503.67986534872108
 30
0.0
 40
5.0
 50
0.0
 51
70.485339000001886
  0
ARC
  5
546D
  8
AM_0
 10
404.90935507041559
 20
486.56374534872111
 30
0.0
 40
5.0
 50
271.49999999999608
 51
0.0
  0
ARC
  5
546E
  8
AM_0
 10
349.90935507041547
 20
619.12145534872116
 30
0.0
 40
1.0
 50
91.500001000001546
 51
180.00001000000091
  0
ARC
  5
546F
  8
AM_0
 10
404.90935507041559
 20
589.35894534872125
 30
0.0
 40
3.0
 50
0.0
 51
88.499997000000747
  0
ARC
  5
5470
  8
AM_0
 10
350.90935507041547
 20
618.09493534872115
 30
0.0
 40
2.0
 50
0.0
 51
88.499997000000747
  0
ARC
  5
5471
  8
AM_0
 10
350.90935507041547
 20
612.09630534872122
 30
0.0
 40
2.0
 50
268.50000000000369
 51
0.0000006832495047
  0
ARC
  5
5472
  8
AM_0
 10
391.9093550704157
 20
598.9374953487212
 30
0.0
 40
3.0
 50
0.0
 51
88.499997000000747
  0
ARC
  5
5473
  8
AM_0
 10
387.9093550704157
 20
616.12572534872095
 30
0.0
 40
3.0
 50
88.499997000000747
 51
180.00001000000091
  0
ARC
  5
5474
  8
AM_0
 10
389.90935507041559
 20
606.99260534872121
 30
0.0
 40
5.0
 50
180.00001000000091
 51
268.50000000000369
  0
ARC
  5
5475
  8
AM_0
 10
399.9093550704157
 20
597.49260534872099
 30
0.0
 40
5.0
 50
180.00001000000091
 51
268.50000000000369
  0
ARC
  5
5476
  8
AM_0
 10
351.90935507041547
 20
615.17247534872115
 30
0.0
 40
1.0
 50
0.0
 51
91.500001000001546
  0
ARC
  5
5477
  8
AM_0
 10
349.90935507041547
 20
617.12078534872126
 30
0.0
 40
1.0
 50
180.00001000000091
 51
271.49999999999608
  0
CIRCLE
  5
5478
  8
AM_0
 10
399.90929507041562
 20
607.62182534872125
 30
0.0
 40
5.0
  0
ARC
  5
5479
  8
AM_0
 10
331.90935507041547
 20
614.64873534872095
 30
0.0
 40
5.0
 50
91.500001000001546
 51
180.00001000000091
  0
ARC
  5
547A
  8
AM_0
 10
404.90935507041559
 20
596.56374534872123
 30
0.0
 40
5.0
 50
289.51466999999531
 51
0.0
  0
ARC
  5
547B
  8
AM_0
 10
404.90935507041559
 20
613.67986534872114
 30
0.0
 40
5.0
 50
0.0
 51
88.499997000000747
  0
ARC
  5
547C
  8
AM_0
 10
442.9093250704156
 20
550.12182534872125
 30
0.0
 40
80.0
 50
148.90067999999621
 51
211.0993000000052
  0
ARC
  5
547D
  8
AM_0
 10
364.9093550704157
 20
504.02730534872109
 30
0.0
 40
1.0
 50
269.999989999999
 51
0.0000006832495047
  0
ARC
  5
547E
  8
AM_0
 10
364.9093550704157
 20
498.25380534872107
 30
0.0
 40
1.0
 50
269.999989999999
 51
0.0000006832495047
  0
ARC
  5
547F
  8
AM_0
 10
364.9093550704157
 20
495.3670653487211
 30
0.0
 40
1.0
 50
269.999989999999
 51
0.0000006832495047
  0
ARC
  5
5480
  8
AM_0
 10
364.9093550704157
 20
502.02730534872097
 30
0.0
 40
1.0
 50
0.0
 51
90.00000299999769
  0
ARC
  5
5481
  8
AM_0
 10
364.9093550704157
 20
504.91408534872107
 30
0.0
 40
1.0
 50
0.0
 51
90.00000299999769
  0
ARC
  5
5482
  8
AM_0
 10
364.9093550704157
 20
496.25380534872102
 30
0.0
 40
1.0
 50
0.0
 51
90.00000299999769
  0
ARC
  5
5483
  8
AM_0
 10
364.9093550704157
 20
603.98980534872123
 30
0.0
 40
1.0
 50
269.999989999999
 51
0.0000006832495047
  0
ARC
  5
5484
  8
AM_0
 10
364.9093550704157
 20
595.32955534872121
 30
0.0
 40
1.0
 50
269.999989999999
 51
0.0000006832495047
  0
ARC
  5
5485
  8
AM_0
 10
364.9093550704157
 20
598.21630534872111
 30
0.0
 40
1.0
 50
269.999989999999
 51
0.0000006832495047
  0
ARC
  5
5486
  8
AM_0
 10
364.9093550704157
 20
604.87658534872105
 30
0.0
 40
1.0
 50
0.0
 51
90.00000299999769
  0
ARC
  5
5487
  8
AM_0
 10
364.9093550704157
 20
601.98983534872127
 30
0.0
 40
1.0
 50
0.0
 51
90.00000299999769
  0
ARC
  5
5488
  8
AM_0
 10
364.9093550704157
 20
596.21633534872115
 30
0.0
 40
1.0
 50
0.0
 51
90.00000299999769
  0
ARC
  5
5489
  8
AM_0
 10
336.90929507041568
 20
492.62182534872119
 30
0.0
 40
5.0
 50
216.1029699999946
 51
326.8970199999992
  0
ARC
  5
548A
  8
AM_0
 10
336.90929507041568
 20
607.62182534872125
 30
0.0
 40
5.0
 50
33.103112999996831
 51
143.8968800000051
  0
ARC
  5
548B
  8
AM_0
 10
374.87237507041573
 20
486.92440534872122
 30
0.0
 40
10.0
 50
91.500001000001546
 51
120.0000000000005
  0
ARC
  5
548C
  8
AM_0
 10
374.87237507041573
 20
613.31923534872124
 30
0.0
 40
10.0
 50
239.99999999999949
 51
268.50000000000369
  0
ARC
  5
548D
  8
AM_0
 10
358.10875507041573
 20
599.90368534872096
 30
0.0
 40
10.0
 50
60.000002000001302
 51
88.499997000000747
  0
ARC
  5
548E
  8
AM_0
 10
358.10875507041573
 20
500.33996534872091
 30
0.0
 40
10.0
 50
271.49999999999608
 51
300.00001000000083
  0
ARC
  5
548F
  8
AM_0
 10
316.40935507041547
 20
613.01671534872128
 30
0.0
 40
1.0
 50
0.0
 51
88.499997000000747
  0
ARC
  5
5490
  8
AM_0
 10
316.40935507041547
 20
487.22689534872109
 30
0.0
 40
1.0
 50
271.49999999999608
 51
0.0
  0
ARC
  5
5491
  8
AM_0
 10
324.53447507041562
 20
508.62151534872112
 30
0.0
 40
10.0
 50
270.0
 51
280.00001000000128
  0
ARC
  5
5492
  8
AM_0
 10
324.53447507041562
 20
591.62209534872125
 30
0.0
 40
10.0
 50
79.999998000001099
 51
90.00000299999769
  0
ARC
  5
54D9
  8
AM_0
 10
170.5501650704156
 20
508.91149534872102
 30
0.0
 40
1.0032491999999991
 50
314.98118999999519
 51
5.1676434000007099
  0
ARC
  5
54DA
  8
AM_0
 10
305.40917507041559
 20
612.62206534872098
 30
0.0
 40
0.99980682
 50
89.988930999997422
 51
180.0110699999974
  0
ARC
  5
54DB
  8
AM_0
 10
297.21062507041557
 20
490.26806534872122
 30
0.0
 40
2.0062942999999991
 50
270.24932999999891
 51
345.08844000000403
  0
ARC
  5
54DC
  8
AM_0
 10
305.40844507041561
 20
601.16271534872124
 30
0.0
 40
0.9990923399999999
 50
89.947921999999295
 51
180.05208000000431
  0
ARC
  5
54DD
  8
AM_0
 10
179.4021550704154
 20
555.12182534872125
 30
0.0
 40
1.0000259
 50
89.587534000000232
 51
270.4124599999987
  0
ARC
  5
54DE
  8
AM_0
 10
171.36883507041551
 20
601.1165753487212
 30
0.0
 40
1.9952742999999991
 50
90.148580000000095
 51
170.03521999999899
  0
ARC
  5
54DF
  8
AM_0
 10
171.30669507041549
 20
606.39476534872085
 30
0.0
 40
1.997119399999999
 50
89.801366999998493
 51
167.94475999999821
  0
ARC
  5
54E0
  8
AM_0
 10
166.92620507041551
 20
602.66417534872096
 30
0.0
 40
1.502416299999999
 50
269.90137999999558
 51
347.60813000000007
  0
ARC
  5
54E1
  8
AM_0
 10
163.5396050704156
 20
609.79955534872113
 30
0.0
 40
1.9922863
 50
90.007721000000544
 51
166.87838999999639
  0
ARC
  5
54E2
  8
AM_0
 10
159.2145950704159
 20
606.72667534872119
 30
0.0
 40
1.5048382
 50
270.18264000000067
 51
346.753080000002
  0
ARC
  5
54E3
  8
AM_0
 10
159.22893507041579
 20
608.74718534872125
 30
0.0
 40
1.505448699999999
 50
270.39686999999992
 51
345.95247000000012
  0
ARC
  5
54E4
  8
AM_0
 10
163.51421507041559
 20
611.42724534872104
 30
0.0
 40
1.994612099999999
 50
89.851991999995732
 51
165.93885999999711
  0
ARC
  5
54E5
  8
AM_0
 10
180.40264507041559
 20
609.98851534872097
 30
0.0
 40
1.9933081999999991
 50
89.807323000004203
 51
180.19266999999849
  0
ARC
  5
54E6
  8
AM_0
 10
180.4034950704156
 20
612.01769534872085
 30
0.0
 40
1.994130499999996
 50
89.831105999995955
 51
180.16889000000049
  0
ARC
  5
54E7
  8
AM_0
 10
180.40587507041559
 20
613.37536534872095
 30
0.0
 40
1.996488899999999
 50
89.899148000001659
 51
180.10084999999879
  0
ARC
  5
54E8
  8
AM_0
 10
180.4031350704158
 20
614.04528534872122
 30
0.0
 40
1.9964978999999961
 50
89.821482000000245
 51
165.60060999999891
  0
ARC
  5
54E9
  8
AM_0
 10
176.90563507041571
 20
604.61559534872094
 30
0.0
 40
1.5037541000000001
 50
270.14287000000093
 51
359.85713999999848
  0
ARC
  5
54EA
  8
AM_0
 10
176.9044750704156
 20
609.89672534872113
 30
0.0
 40
1.504891299999997
 50
270.18592999999731
 51
359.81406999999621
  0
ARC
  5
54EB
  8
AM_0
 10
176.90246507041559
 20
613.29870534872123
 30
0.0
 40
1.506942899999999
 50
270.26336999999921
 51
359.73663000000079
  0
ARC
  5
54EC
  8
AM_0
 10
177.01427507041581
 20
614.92699534872111
 30
0.0
 40
1.505230099999999
 50
270.19421
 51
345.17177999999791
  0
ARC
  5
54ED
  8
AM_0
 10
304.05950507041558
 20
597.97411534872117
 30
0.0
 40
1.5022733999999991
 50
195.13650999999561
 51
269.99411999999722
  0
ARC
  5
54EE
  8
AM_0
 10
297.21880507041578
 20
609.98266534872118
 30
0.0
 40
1.9991226
 50
15.05079100000003
 51
89.984388999999666
  0
ARC
  5
54EF
  8
AM_0
 10
305.40233507041557
 20
487.6148653487212
 30
0.0
 40
0.99304521
 50
179.5973099999994
 51
270.40268000000009
  0
ARC
  5
54F0
  8
AM_0
 10
305.40166507041562
 20
499.07421534872122
 30
0.0
 40
0.99237448
 50
179.55801999999801
 51
270.4419699999965
  0
ARC
  5
54F1
  8
AM_0
 10
304.1150450704157
 20
602.66210534872096
 30
0.0
 40
1.500286
 50
192.32631000000109
 51
270.16416999999529
  0
ARC
  5
54F2
  8
AM_0
 10
166.56493507041549
 20
591.71605534872128
 30
0.0
 40
5.0059714
 50
279.71098000000438
 51
354.67888000000482
  0
ARC
  5
54F3
  8
AM_0
 10
167.03032507041539
 20
587.7893053487212
 30
0.0
 40
6.0044340999999992
 50
45.225578000003388
 51
86.380822000002453
  0
ARC
  5
54F4
  8
AM_0
 10
170.5513250704156
 20
591.3425253487211
 30
0.0
 40
1.002184699999999
 50
354.8038600000034
 51
45.047307000000579
  0
ARC
  5
54F5
  8
AM_0
 10
167.02904507041561
 20
512.46715534872089
 30
0.0
 40
6.0073843
 50
273.62974000000389
 51
314.7638500000042
  0
ARC
  5
54F6
  8
AM_0
 10
166.57219507041549
 20
508.53331534872098
 30
0.0
 40
4.9991421999999961
 50
5.378026899999572
 51
80.360064999998514
  0
ARC
  5
54F7
  8
AM_0
 10
163.54619507041579
 20
490.45238534872112
 30
0.0
 40
2.0005671999999981
 50
193.30959000000149
 51
269.80430999999942
  0
ARC
  5
54F8
  8
AM_0
 10
159.22259507041539
 20
493.52416534872123
 30
0.0
 40
1.497715799999999
 50
13.424378999996829
 51
90.122644999997888
  0
ARC
  5
54F9
  8
AM_0
 10
159.23705507041561
 20
491.50353534872102
 30
0.0
 40
1.4982997
 50
14.22973999999882
 51
89.910950000001179
  0
ARC
  5
54FA
  8
AM_0
 10
180.40941507041541
 20
490.26183534872121
 30
0.0
 40
2.0000371999999991
 50
180.0010599999959
 51
269.99892999999639
  0
ARC
  5
54FB
  8
AM_0
 10
180.41027507041539
 20
488.23278534872111
 30
0.0
 40
2.0009109999999981
 50
180.00001000000091
 51
269.97390999999652
  0
ARC
  5
54FC
  8
AM_0
 10
176.90740507041559
 20
495.63988534872112
 30
0.0
 40
1.501982699999999
 50
0.0755872020005832
 51
89.924413000004819
  0
ARC
  5
54FD
  8
AM_0
 10
176.90624507041579
 20
490.35863534872112
 30
0.0
 40
1.503128599999999
 50
0.1191296500021994
 51
89.880869999998822
  0
ARC
  5
54FE
  8
AM_0
 10
304.05297507041558
 20
502.2780753487209
 30
0.0
 40
1.4937901
 50
89.756423999995206
 51
165.1129200000008
  0
ARC
  5
54FF
  8
AM_0
 10
179.4021550704154
 20
565.12182534872125
 30
0.0
 40
1.0000259
 50
89.587534000000232
 51
270.4124599999987
  0
ARC
  5
5500
  8
AM_0
 10
179.4021550704154
 20
575.12182534872125
 30
0.0
 40
1.0000259
 50
89.587534000000232
 51
270.4124599999987
  0
ARC
  5
5501
  8
AM_0
 10
179.4021550704154
 20
585.12182534872125
 30
0.0
 40
1.0000259
 50
89.587534000000232
 51
270.4124599999987
  0
ARC
  5
5502
  8
AM_0
 10
161.6711350704156
 20
555.13183534872121
 30
0.0
 40
1.2700266
 50
89.629328000002715
 51
270.37065999999629
  0
ARC
  5
5503
  8
AM_0
 10
161.73308507041571
 20
565.13683534872121
 30
0.0
 40
1.3350147999999991
 50
89.730434999997087
 51
270.2695700000001
  0
ARC
  5
5504
  8
AM_0
 10
170.8636450704156
 20
575.15185534872126
 30
0.0
 40
1.460011199999999
 50
89.775247999997958
 51
270.22473999999698
  0
ARC
  5
5505
  8
AM_0
 10
171.07934507041571
 20
585.17186534872098
 30
0.0
 40
1.6800002000000001
 50
90.00000299999769
 51
270.0
  0
ARC
  5
5506
  8
AM_0
 10
162.95934507041551
 20
555.12182534872125
 30
0.0
 40
1.0000056999999991
 50
90.00000299999769
 51
270.0
  0
ARC
  5
5507
  8
AM_0
 10
162.95934507041551
 20
565.12182534872125
 30
0.0
 40
1.0000056999999991
 50
90.00000299999769
 51
270.0
  0
ARC
  5
5508
  8
AM_0
 10
171.9522050704154
 20
585.12182534872125
 30
0.0
 40
1.0000255999999981
 50
89.589474000000749
 51
270.41051999999962
  0
ARC
  5
5509
  8
AM_0
 10
171.9522050704154
 20
575.12182534872125
 30
0.0
 40
1.0000255999999981
 50
89.589474000000749
 51
270.41051999999962
  0
ARC
  5
550A
  8
AM_0
 10
301.22936507041572
 20
585.17186534872098
 30
0.0
 40
1.6800077
 50
269.999989999999
 51
90.00000299999769
  0
ARC
  5
550B
  8
AM_0
 10
297.74932507041558
 20
585.12182534872125
 30
0.0
 40
1.0000040999999991
 50
269.999989999999
 51
90.00000299999769
  0
ARC
  5
550C
  8
AM_0
 10
297.74932507041558
 20
515.12182534872113
 30
0.0
 40
1.0000040999999991
 50
269.999989999999
 51
90.00000299999769
  0
ARC
  5
550D
  8
AM_0
 10
301.22936507041572
 20
515.08178534872116
 30
0.0
 40
1.6800077
 50
269.999989999999
 51
90.00000299999769
  0
ARC
  5
550E
  8
AM_0
 10
162.95934507041551
 20
545.12182534872125
 30
0.0
 40
1.0000056999999991
 50
90.00000299999769
 51
270.0
  0
ARC
  5
550F
  8
AM_0
 10
179.4021550704154
 20
535.12182534872125
 30
0.0
 40
1.0000259
 50
89.587534000000232
 51
270.4124599999987
  0
ARC
  5
5510
  8
AM_0
 10
179.4021550704154
 20
525.12182534872113
 30
0.0
 40
1.0000259
 50
89.587534000000232
 51
270.4124599999987
  0
ARC
  5
5511
  8
AM_0
 10
161.73308507041571
 20
535.11181534872105
 30
0.0
 40
1.3300148000000001
 50
89.729417999999541
 51
270.27059000000321
  0
ARC
  5
5512
  8
AM_0
 10
179.4021550704154
 20
545.12182534872125
 30
0.0
 40
1.0000259
 50
89.587534000000232
 51
270.4124599999987
  0
ARC
  5
5513
  8
AM_0
 10
179.4021550704154
 20
515.12182534872113
 30
0.0
 40
1.0000259
 50
89.587534000000232
 51
270.4124599999987
  0
ARC
  5
5514
  8
AM_0
 10
161.6711350704156
 20
545.12182534872125
 30
0.0
 40
1.2700266
 50
89.629321000002747
 51
270.37068999999542
  0
ARC
  5
5515
  8
AM_0
 10
162.95934507041551
 20
535.12182534872125
 30
0.0
 40
1.0000056999999991
 50
90.00000299999769
 51
270.0
  0
ARC
  5
5516
  8
AM_0
 10
167.14251507041561
 20
597.38183534872121
 30
0.0
 40
1.5
 50
280.24788999999811
 51
349.76261999999878
  0
ARC
  5
5517
  8
AM_0
 10
167.14251507041561
 20
502.86181534872122
 30
0.0
 40
1.5
 50
10.23737899999913
 51
79.75211000000192
  0
ARC
  5
5518
  8
AM_0
 10
171.36883507041551
 20
499.12706534872109
 30
0.0
 40
1.9952742999999991
 50
189.9647800000009
 51
269.85141999999991
  0
ARC
  5
5519
  8
AM_0
 10
166.92620507041551
 20
497.57946534872121
 30
0.0
 40
1.502416299999999
 50
12.391887000000411
 51
90.098617000002307
  0
ARC
  5
551A
  8
AM_0
 10
171.30669507041549
 20
493.84887534872109
 30
0.0
 40
1.997119399999999
 50
192.0552400000017
 51
270.1986299999989
  0
ARC
  5
551B
  8
AM_0
 10
171.07934507041571
 20
515.07177534872119
 30
0.0
 40
1.6800002000000001
 50
90.00000299999769
 51
270.0
  0
ARC
  5
551C
  8
AM_0
 10
171.9522050704154
 20
515.12182534872113
 30
0.0
 40
1.0000255999999981
 50
89.589474000000749
 51
270.41051999999962
  0
ARC
  5
551D
  8
AM_0
 10
171.9522050704154
 20
525.12182534872113
 30
0.0
 40
1.0000255999999981
 50
89.589474000000749
 51
270.41051999999962
  0
ARC
  5
551E
  8
AM_0
 10
170.8636450704156
 20
525.09179534872112
 30
0.0
 40
1.460011199999999
 50
89.775247999997958
 51
270.22473999999698
  0
ARC
  5
551F
  8
AM_0
 10
221.73571507041561
 20
484.73180534872108
 30
0.0
 40
1.5
 50
1.5000027000022329
 51
90.00000299999769
  0
ARC
  5
5520
  8
AM_0
 10
296.42553507041561
 20
481.62182534872079
 30
0.0
 40
1.5
 50
269.999989999999
 51
326.99999999999892
  0
ARC
  5
5521
  8
AM_0
 10
284.92296507041578
 20
478.62182534872079
 30
0.0
 40
1.5
 50
90.00000299999769
 51
178.4999999999973
  0
ARC
  5
5522
  8
AM_0
 10
298.92931507041578
 20
612.51183534872121
 30
0.0
 40
1.5
 50
12.12979199999603
 51
90.00000299999769
  0
ARC
  5
5523
  8
AM_0
 10
298.63701507041571
 20
613.87182534872125
 30
0.0
 40
1.5
 50
12.12979199999603
 51
90.00000299999769
  0
ARC
  5
5524
  8
AM_0
 10
298.49297507041558
 20
614.54186534872122
 30
0.0
 40
1.5
 50
12.12979199999603
 51
90.00000299999769
  0
ARC
  5
5525
  8
AM_0
 10
301.4493350704156
 20
525.09179534872112
 30
0.0
 40
1.460011199999999
 50
269.77524999999667
 51
90.224749999996845
  0
ARC
  5
5526
  8
AM_0
 10
297.74932507041558
 20
525.12182534872113
 30
0.0
 40
1.0000255999999981
 50
269.5894700000033
 51
90.410530999997775
  0
ARC
  5
5527
  8
AM_0
 10
301.4493350704156
 20
575.15185534872126
 30
0.0
 40
1.460011199999999
 50
269.77524999999667
 51
90.224749999996845
  0
ARC
  5
5528
  8
AM_0
 10
297.74932507041558
 20
575.12182534872125
 30
0.0
 40
1.0000255999999981
 50
269.5894700000033
 51
90.410530999997775
  0
ARC
  5
5529
  8
AM_0
 10
234.0743350704156
 20
565.13683534872121
 30
0.0
 40
1.3350147999999991
 50
269.7304299999999
 51
90.269556000001344
  0
ARC
  5
552A
  8
AM_0
 10
232.8480750704158
 20
565.12182534872125
 30
0.0
 40
1.0000056999999991
 50
269.999989999999
 51
90.00000299999769
  0
ARC
  5
552B
  8
AM_0
 10
232.8480750704158
 20
555.12182534872125
 30
0.0
 40
1.0000056999999991
 50
269.999989999999
 51
90.00000299999769
  0
ARC
  5
552C
  8
AM_0
 10
234.1362850704156
 20
555.13183534872121
 30
0.0
 40
1.2700266
 50
269.62932000000001
 51
90.370670000004694
  0
ARC
  5
552D
  8
AM_0
 10
232.8480750704158
 20
545.12182534872125
 30
0.0
 40
1.0000056999999991
 50
269.999989999999
 51
90.00000299999769
  0
ARC
  5
552E
  8
AM_0
 10
234.1362850704156
 20
545.12182534872125
 30
0.0
 40
1.2700266
 50
269.62932000000001
 51
90.370670000004694
  0
ARC
  5
552F
  8
AM_0
 10
232.8480750704158
 20
535.12182534872125
 30
0.0
 40
1.0000056999999991
 50
269.999989999999
 51
90.00000299999769
  0
ARC
  5
5530
  8
AM_0
 10
234.0743350704156
 20
535.11181534872105
 30
0.0
 40
1.3300148000000001
 50
269.7294199999987
 51
90.270567000000995
  0
ARC
  5
5531
  8
AM_0
 10
283.40935507041547
 20
522.62182534872113
 30
0.0
 40
1.5
 50
90.00000299999769
 51
180.00001000000091
  0
ARC
  5
5532
  8
AM_0
 10
283.40935507041547
 20
517.62182534872125
 30
0.0
 40
1.5
 50
179.999989999999
 51
270.0
  0
ARC
  5
5533
  8
AM_0
 10
265.40935507041547
 20
522.62182534872113
 30
0.0
 40
1.5
 50
0.0
 51
90.00000299999769
  0
ARC
  5
5534
  8
AM_0
 10
265.40935507041547
 20
517.62182534872125
 30
0.0
 40
1.5
 50
269.999989999999
 51
0.0000006832495047
  0
ARC
  5
5535
  8
AM_0
 10
283.40935507041547
 20
522.62182534872113
 30
0.0
 40
1.02
 50
90.00000299999769
 51
180.00001000000091
  0
ARC
  5
5536
  8
AM_0
 10
265.40935507041547
 20
522.62182534872113
 30
0.0
 40
1.02
 50
0.0
 51
90.00000299999769
  0
ARC
  5
5537
  8
AM_0
 10
265.42931507041573
 20
517.76183534872109
 30
0.0
 40
1.0
 50
269.999989999999
 51
0.0000006832495047
  0
ARC
  5
5538
  8
AM_0
 10
283.3893350704156
 20
517.76183534872109
 30
0.0
 40
1.0
 50
179.999989999999
 51
270.0
  0
CIRCLE
  5
5539
  8
AM_0
 10
271.90935507041547
 20
521.62182534872125
 30
0.0
 40
1.1000000000000001
  0
CIRCLE
  5
553A
  8
AM_0
 10
271.90935507041547
 20
521.62182534872125
 30
0.0
 40
1.149999999999999
  0
CIRCLE
  5
553B
  8
AM_0
 10
276.90935507041547
 20
521.62182534872125
 30
0.0
 40
1.0
  0
ARC
  5
553C
  8
AM_0
 10
283.40935507041547
 20
577.62182534872125
 30
0.0
 40
1.5
 50
179.999989999999
 51
270.0
  0
ARC
  5
553D
  8
AM_0
 10
283.40935507041547
 20
582.62182534872125
 30
0.0
 40
1.5
 50
90.00000299999769
 51
180.00001000000091
  0
ARC
  5
553E
  8
AM_0
 10
265.40935507041547
 20
577.62182534872125
 30
0.0
 40
1.5
 50
269.999989999999
 51
0.0000006832495047
  0
ARC
  5
553F
  8
AM_0
 10
265.40935507041547
 20
582.62182534872125
 30
0.0
 40
1.5
 50
0.0
 51
90.00000299999769
  0
ARC
  5
5540
  8
AM_0
 10
283.40935507041547
 20
577.62182534872125
 30
0.0
 40
1.02
 50
179.999989999999
 51
270.0
  0
ARC
  5
5541
  8
AM_0
 10
265.40935507041547
 20
577.62182534872125
 30
0.0
 40
1.02
 50
269.999989999999
 51
0.0000006832429909
  0
ARC
  5
5542
  8
AM_0
 10
265.42931507041573
 20
582.4818053487212
 30
0.0
 40
1.0
 50
0.0
 51
90.00000299999769
  0
ARC
  5
5543
  8
AM_0
 10
283.3893350704156
 20
582.4818053487212
 30
0.0
 40
1.0
 50
90.00000299999769
 51
180.00001000000091
  0
CIRCLE
  5
5544
  8
AM_0
 10
276.90935507041547
 20
578.62182534872125
 30
0.0
 40
1.0
  0
CIRCLE
  5
5545
  8
AM_0
 10
271.90935507041547
 20
578.62182534872125
 30
0.0
 40
1.149999999999999
  0
CIRCLE
  5
5546
  8
AM_0
 10
271.90935507041547
 20
578.62182534872125
 30
0.0
 40
1.1000000000000001
  0
ARC
  5
5547
  8
AM_0
 10
163.1099850704156
 20
490.45177534872113
 30
0.0
 40
2.0
 50
194.15074999999919
 51
269.999989999999
  0
ARC
  5
5548
  8
AM_0
 10
177.1520950704159
 20
486.95177534872118
 30
0.0
 40
1.5
 50
21.46170899999715
 51
90.00000299999769
  0
LINE
  5
5549
  8
ﾁｭｳｼﾝｾﾝ1
 10
389.90932507041572
 20
607.62185534872128
 30
0.0
 11
409.9093250704156
 21
607.62185534872128
 31
0.0
  0
LINE
  5
554A
  8
ﾁｭｳｼﾝｾﾝ1
 10
399.90932507041572
 20
617.62185534872117
 30
0.0
 11
399.90932507041572
 21
597.62185534872117
 31
0.0
  0
LINE
  5
554B
  8
ﾁｭｳｼﾝｾﾝ1
 10
389.90932507041572
 20
492.62182534872119
 30
0.0
 11
409.9093250704156
 21
492.62182534872119
 31
0.0
  0
LINE
  5
554C
  8
ﾁｭｳｼﾝｾﾝ1
 10
399.90932507041572
 20
502.62182534872107
 30
0.0
 11
399.90932507041572
 21
482.62182534872107
 31
0.0
  0
LINE
  5
554D
  8
ﾁｭｳｼﾝｾﾝ1
 10
326.90932507041589
 20
492.62182534872119
 30
0.0
 11
346.90932507041589
 21
492.62182534872119
 31
0.0
  0
LINE
  5
554E
  8
ﾁｭｳｼﾝｾﾝ1
 10
336.90932507041589
 20
502.62182534872107
 30
0.0
 11
336.90932507041589
 21
482.62182534872107
 31
0.0
  0
LINE
  5
554F
  8
ﾁｭｳｼﾝｾﾝ1
 10
326.90932507041589
 20
607.62185534872128
 30
0.0
 11
346.90932507041589
 21
607.62185534872128
 31
0.0
  0
LINE
  5
5550
  8
ﾁｭｳｼﾝｾﾝ1
 10
336.90932507041589
 20
617.62185534872117
 30
0.0
 11
336.90932507041589
 21
597.62185534872117
 31
0.0
  0
ARC
  5
5551
  8
AM_0
 10
408.90933507041598
 20
529.09530234872113
 30
0.0
 40
1.0000000199999981
 50
90.001718873355244
 51
180.00001000000091
  0
ARC
  5
5552
  8
AM_0
 10
408.90933507041598
 20
571.14836934872085
 30
0.0
 40
1.0000000199999981
 50
179.999989999999
 51
269.99828112664488
  0
LINE
  5
5553
  8
AM_0
 10
411.9093050704156
 20
574.62185534872106
 30
0.0
 11
415.9093050704156
 21
570.6218553487214
 31
0.0
  0
LINE
  5
5554
  8
AM_0
 10
409.40930507041583
 20
574.62185534872106
 30
0.0
 11
411.9093050704156
 21
574.62185534872106
 31
0.0
  0
LINE
  5
5555
  8
AM_0
 10
408.9093050704156
 20
574.12185534872106
 30
0.0
 11
408.9093050704156
 21
526.12185534872117
 31
0.0
  0
LINE
  5
5556
  8
AM_0
 10
415.9093050704156
 20
570.6218553487214
 30
0.0
 11
415.90930507041628
 21
529.62185534872117
 31
0.0
  0
LINE
  5
5557
  8
AM_0
 10
411.9093050704156
 20
525.62185534872117
 30
0.0
 11
415.9093050704156
 21
529.62185534872117
 31
0.0
  0
LINE
  5
5558
  8
AM_0
 10
409.40930507041583
 20
525.62185534872117
 30
0.0
 11
411.9093050704156
 21
525.62185534872128
 31
0.0
  0
LINE
  5
5559
  8
AM_0
 10
408.9093050704156
 20
574.12185534872106
 30
0.0
 11
409.40930507041583
 21
574.62185534872106
 31
0.0
1001
GENIUS_GENFIL_13
1070
     0
1040
0.5
1040
0.5
1040
20.0
1040
0.0
1002
{
1002
}
1001
GENIUS_GENOBJ-N-CHA_13
1002
{
1000
OWNER
1000
GEN
1002
}
1001
GENIUS_GENODEF_13
1002
{
1000
HIER
1070
     0
1002
}
1002
{
1000
MANEDIT
1070
     0
1002
}
1002
{
1000
NOSEL
1070
     0
1002
}
1002
{
1000
BEHIND
1070
     0
1002
}
1002
{
1000
OTHER
1070
     0
1002
}
1002
{
1000
REACTOR
1002
}
  0
LINE
  5
555A
  8
AM_0
 10
408.9093050704156
 20
526.12185534872117
 30
0.0
 11
409.40930507041583
 21
525.62185534872117
 31
0.0
1001
GENIUS_GENFIL_13
1070
     0
1040
0.5
1040
0.5
1040
20.0
1040
0.0
1002
{
1002
}
1001
GENIUS_GENODEF_13
1002
{
1000
HIER
1070
     0
1002
}
1002
{
1000
MANEDIT
1070
     0
1002
}
1002
{
1000
NOSEL
1070
     0
1002
}
1002
{
1000
BEHIND
1070
     0
1002
}
1002
{
1000
OTHER
1070
     0
1002
}
1002
{
1000
REACTOR
1002
}
1001
GENIUS_GENOBJ-N-CHA_13
1002
{
1000
OWNER
1000
GEN
1002
}
  0
LINE
  5
555B
  8
AM_0
 10
411.90930507041583
 20
574.62185534872106
 30
0.0
 11
411.9093050704156
 21
525.62185534872128
 31
0.0
  0
LINE
  5
555D
  8
AM_0
 10
283.43550491945638
 20
476.12182534872119
 30
0.0
 11
283.75343087315048
 21
488.26183534872121
 31
0.0
  0
LINE
  5
555E
  8
AM_0
 10
223.3830729242157
 20
476.12182534872119
 30
0.0
 11
223.06523094278521
 21
488.26183534872121
 31
0.0
  0
LINE
  5
555F
  8
AM_0
 10
219.9093150704158
 20
474.12182534872107
 30
0.0
 11
286.90931507041603
 21
474.12182534872107
 31
0.0
  0
LINE
  5
5560
  8
AM_0
 10
219.9093150704158
 20
473.12182534872107
 30
0.0
 11
219.9093150704158
 21
474.12182534872107
 31
0.0
  0
LINE
  5
5561
  8
AM_0
 10
286.90931507041603
 20
473.12182534872107
 30
0.0
 11
286.90931507041603
 21
474.12182534872107
 31
0.0
  0
LINE
  5
5562
  8
AM_0
 10
205.4093150704158
 20
435.12182534872107
 30
0.0
 11
206.6689002066781
 21
471.19162434212609
 31
0.0
  0
LINE
  5
5563
  8
AM_0
 10
208.6676818607165
 20
473.12182534872107
 30
0.0
 11
298.15094828011541
 21
473.12182534872107
 31
0.0
  0
ARC
  5
5564
  8
AM_0
 10
208.6676818607165
 20
471.12182534872119
 30
0.0
 40
2.0
 50
90.0
 51
178.00000000000259
1001
GENIUS_GENODEF_13
1002
{
1000
HIER
1070
     0
1002
}
1002
{
1000
MANEDIT
1070
     0
1002
}
1002
{
1000
NOSEL
1070
     0
1002
}
1002
{
1000
BEHIND
1070
     0
1002
}
1002
{
1000
OTHER
1070
     0
1002
}
1002
{
1000
REACTOR
1002
}
1001
GENIUS_GENOBJ-N-FIL_13
1002
{
1000
OWNER
1000
GEN
1002
}
  0
LINE
  5
5565
  8
AM_0
 10
300.1497299341537
 20
471.19162434212609
 30
0.0
 11
301.40931507041608
 21
435.12182534872107
 31
0.0
  0
ARC
  5
5566
  8
AM_0
 10
298.15094828011541
 20
471.12182534872119
 30
0.0
 40
2.0
 50
1.9999999999972149
 51
90.0
1001
GENIUS_GENOBJ-N-FIL_13
1002
{
1000
OWNER
1000
GEN
1002
}
1001
GENIUS_GENODEF_13
1002
{
1000
HIER
1070
     0
1002
}
1002
{
1000
MANEDIT
1070
     0
1002
}
1002
{
1000
NOSEL
1070
     0
1002
}
1002
{
1000
BEHIND
1070
     0
1002
}
1002
{
1000
OTHER
1070
     0
1002
}
1002
{
1000
REACTOR
1002
}
  0
LINE
  5
5567
  8
AM_0
 10
301.40931507041608
 20
435.12182534872107
 30
0.0
 11
205.4093150704156
 21
435.12182534872107
 31
0.0
  0
LINE
  5
5568
  8
AM_0
 10
205.5140773788911
 20
438.1218253487209
 30
0.0
 11
204.4093150704158
 21
438.1218253487209
 31
0.0
  0
LINE
  5
5569
  8
AM_0
 10
206.63154200262699
 20
470.12182534872079
 30
0.0
 11
204.4093150704158
 21
470.12182534872079
 31
0.0
  0
LINE
  5
556A
  8
ﾁｭｳｼﾝｾﾝ1
 10
210.4093150704164
 20
424.85711784872109
 30
0.0
 11
210.4093150704166
 21
437.85711784872109
 31
0.0
  0
LINE
  5
556B
  8
ﾁｭｳｼﾝｾﾝ
 10
253.40931507041589
 20
480.4138560219501
 30
0.0
 11
253.40931507041589
 21
422.67130270791182
 31
0.0
  0
LINE
  5
556C
  8
AM_0
 10
201.9093150704158
 20
440.62182534872079
 30
0.0
 11
204.4093150704158
 21
440.62182534872079
 31
0.0
  0
LINE
  5
556D
  8
AM_0
 10
204.4093150704158
 20
467.62182534872068
 30
0.0
 11
201.9093150704158
 21
467.6218253487209
 31
0.0
  0
LINE
  5
556E
  8
AM_0
 10
191.01064397406981
 20
464.6218253487209
 30
0.0
 11
191.01064397406981
 21
443.6218253487209
 31
0.0
  0
LINE
  5
556F
  8
AM_0
 10
176.01064397406981
 20
446.09020029470571
 30
0.0
 11
176.01064397406981
 21
462.15345040273678
 31
0.0
  0
LINE
  5
5570
  8
AM_0
 10
189.01064397406981
 20
466.12182534872079
 30
0.0
 11
189.01064397406981
 21
442.1218253487209
 31
0.0
  0
LINE
  5
5571
  8
AM_0
 10
179.51064397406981
 20
454.12182534872079
 30
0.0
 11
180.01064397406981
 21
454.6218253487209
 31
0.0
  0
LINE
  5
5572
  8
AM_0
 10
186.51064397406981
 20
442.4218253487208
 30
0.0
 11
186.51064397406981
 21
465.82182534872072
 31
0.0
  0
LINE
  5
5573
  8
AM_0
 10
196.4093150704158
 20
442.6218253487209
 30
0.0
 11
196.4093150704158
 21
465.62182534872079
 31
0.0
  0
LINE
  5
5574
  8
AM_0
 10
190.51064397406981
 20
454.82182534872271
 30
0.0
 11
190.51064397406981
 21
453.42182534871972
 31
0.0
  0
LINE
  5
5575
  8
AM_0
 10
192.61027970064069
 20
463.22182534872081
 30
0.0
 11
191.8602797006418
 21
445.02182534872071
 31
0.0
  0
LINE
  5
5576
  8
AM_0
 10
191.6593150704158
 20
463.22182534872081
 30
0.0
 11
191.01064397406981
 21
447.48074007740468
 31
0.0
  0
LINE
  5
5577
  8
AM_0
 10
192.40800766098789
 20
463.937484061085
 30
0.0
 11
191.66074761757989
 21
444.30945358755378
 31
0.0
  0
LINE
  5
5578
  8
AM_0
 10
191.85884715347771
 20
463.93419710988883
 30
0.0
 11
191.1102797006418
 21
444.27182534872088
 31
0.0
  0
LINE
  5
5579
  8
AM_0
 10
189.01064397406981
 20
442.1218253487209
 30
0.0
 11
186.8106439740699
 21
442.1218253487209
 31
0.0
  0
ARC
  5
557A
  8
AM_0
 10
200.90931507041589
 20
441.62182534872079
 30
0.0
 40
0.5
 50
0.0
 51
90.000000000013017
  0
ARC
  5
557B
  8
AM_0
 10
201.90931507041589
 20
441.12182534872079
 30
0.0
 40
0.5
 50
180.0
 51
270.0
  0
LINE
  5
557C
  8
AM_0
 10
201.4093150704158
 20
441.62182534872079
 30
0.0
 11
201.4093150704158
 21
441.12182534872079
 31
0.0
  0
LINE
  5
557D
  8
AM_0
 10
192.4093150704158
 20
445.02182534872071
 30
0.0
 11
195.9093150704158
 21
445.02182534872071
 31
0.0
  0
LINE
  5
557E
  8
AM_0
 10
201.4093150704158
 20
443.2657540273139
 30
0.0
 11
201.4093150704158
 21
452.97789667012893
 31
0.0
  0
LINE
  5
557F
  8
AM_0
 10
196.9093150704158
 20
442.1218253487209
 30
0.0
 11
200.9093150704158
 21
442.1218253487209
 31
0.0
  0
LINE
  5
5580
  8
AM_0
 10
200.9093150704158
 20
442.7657540273139
 30
0.0
 11
196.4093150704158
 21
442.7657540273139
 31
0.0
  0
ARC
  5
5581
  8
AM_0
 10
200.90931507041589
 20
443.2657540273139
 30
0.0
 40
0.5
 50
270.0
 51
0.0
  0
ARC
  5
5582
  8
AM_0
 10
195.9093150704158
 20
444.52182534872111
 30
0.0
 40
0.5
 50
0.0
 51
90.0
  0
ARC
  5
5583
  8
AM_0
 10
196.9093150704158
 20
442.6218253487209
 30
0.0
 40
0.5
 50
180.0
 51
270.0
  0
LINE
  5
5584
  8
AM_0
 10
200.9093150704158
 20
453.47789667012881
 30
0.0
 11
196.4093150704158
 21
453.47789667012881
 31
0.0
  0
ARC
  5
5585
  8
AM_0
 10
200.9093150704158
 20
452.97789667012893
 30
0.0
 40
0.5
 50
0.0
 51
90.0
  0
LINE
  5
5586
  8
AM_0
 10
190.51064397406981
 20
447.97665459642877
 30
0.0
 11
190.51064397406981
 21
449.14889778286181
 31
0.0
  0
LINE
  5
5587
  8
AM_0
 10
191.9370121290668
 20
445.02182534872071
 30
0.0
 11
192.4093150704158
 21
445.02182534872071
 31
0.0
  0
LINE
  5
5588
  8
AM_0
 10
191.84041963452759
 20
444.94770758198399
 30
0.0
 11
191.8602797006418
 21
445.02182534872071
 31
0.0
  0
ARC
  5
5589
  8
AM_0
 10
191.9370121290668
 20
444.92182534872092
 30
0.0
 40
0.1000000000000346
 50
90.0
 51
164.99980499355451
  0
ARC
  5
558A
  8
AM_0
 10
190.2106439740698
 20
444.83499236821291
 30
0.0
 40
0.3000000000000043
 50
0.0
 51
90.0
  0
LINE
  5
558B
  8
AM_0
 10
189.01064397406981
 20
442.72182534872081
 30
0.0
 11
190.23059967722691
 21
442.80315572893198
 31
0.0
  0
LINE
  5
558C
  8
AM_0
 10
189.01064397406981
 20
443.87807738456081
 30
0.0
 11
190.21064397406971
 21
443.87807738456081
 31
0.0
  0
LINE
  5
558D
  8
AM_0
 10
190.51064397406981
 20
443.1218253487209
 30
0.0
 11
189.01064397406981
 21
443.1218253487209
 31
0.0
  0
ARC
  5
558E
  8
AM_0
 10
190.51064397406981
 20
443.6218253487209
 30
0.0
 40
0.5
 50
270.0
 51
0.0
  0
LINE
  5
558F
  8
AM_0
 10
190.51064397406981
 20
443.1024912762889
 30
0.0
 11
190.51064397406981
 21
443.1218253487209
 31
0.0
  0
LINE
  5
5590
  8
AM_0
 10
190.51064397406981
 20
442.82182534872089
 30
0.0
 11
190.51064397406981
 21
443.1024912762889
 31
0.0
  0
LINE
  5
5591
  8
AM_0
 10
190.23059967722691
 20
442.80315572893198
 30
0.0
 11
190.51064397406981
 21
442.82182534872089
 31
0.0
  0
ARC
  5
5592
  8
AM_0
 10
190.2106439740698
 20
443.1024912762889
 30
0.0
 40
0.3000000000000007
 50
273.81407483428148
 51
0.0
  0
LINE
  5
5593
  8
AM_0
 10
191.5825826419908
 20
444.27182534872088
 30
0.0
 11
191.65931507041671
 21
444.27182534872088
 31
0.0
  0
LINE
  5
5594
  8
AM_0
 10
191.65931507041671
 20
444.27182534872088
 30
0.0
 11
191.67917513652981
 21
444.3459431154572
 31
0.0
  0
LINE
  5
5595
  8
AM_0
 10
191.09041963452759
 20
444.3459431154572
 30
0.0
 11
191.1102797006418
 21
444.27182534872088
 31
0.0
  0
LINE
  5
5596
  8
AM_0
 10
191.1102797006418
 20
444.27182534872088
 30
0.0
 11
191.1870121290668
 21
444.27182534872088
 31
0.0
  0
LINE
  5
5597
  8
AM_0
 10
191.67917513652981
 20
444.3459431154572
 30
0.0
 11
191.84041963452759
 21
444.94770758198399
 31
0.0
  0
LINE
  5
5598
  8
AM_0
 10
191.1870121290668
 20
444.27182534872088
 30
0.0
 11
191.5825826419908
 21
444.27182534872088
 31
0.0
  0
LINE
  5
5599
  8
AM_0
 10
191.0106439740708
 20
444.64366588028167
 30
0.0
 11
191.09041963452759
 21
444.3459431154572
 31
0.0
  0
ARC
  5
559A
  8
AM_0
 10
191.5825826419908
 20
444.3718253487209
 30
0.0
 40
0.0999999999999866
 50
270.0
 51
344.99980499343462
  0
ARC
  5
559B
  8
AM_0
 10
191.1870121290668
 20
444.3718253487209
 30
0.0
 40
0.1000000000000014
 50
195.00019500656541
 51
270.0
  0
LINE
  5
559C
  8
AM_0
 10
190.51064397406981
 20
444.17807738456071
 30
0.0
 11
190.51064397406981
 21
444.83499236821291
 31
0.0
  0
ARC
  5
559D
  8
AM_0
 10
190.2106439740698
 20
444.17807738456122
 30
0.0
 40
0.3000000000000007
 50
270.0
 51
0.0
  0
LINE
  5
559E
  8
AM_0
 10
189.01064397406981
 20
447.67665459642882
 30
0.0
 11
190.21064397406971
 21
447.67665459642882
 31
0.0
  0
LINE
  5
559F
  8
AM_0
 10
190.21064397406971
 20
445.13499236821281
 30
0.0
 11
189.01064397406981
 21
445.13499236821281
 31
0.0
  0
LINE
  5
55A0
  8
AM_0
 10
191.8602797006418
 20
445.02182534872071
 30
0.0
 11
191.9370121290668
 21
445.02182534872071
 31
0.0
  0
ARC
  5
55A1
  8
AM_0
 10
190.2106439740698
 20
447.976654596429
 30
0.0
 40
0.3000000000000007
 50
270.0
 51
0.0
  0
LINE
  5
55A2
  8
AM_0
 10
190.21064397406971
 20
449.44889778286199
 30
0.0
 11
189.01064397406981
 21
449.44889778286199
 31
0.0
  0
ARC
  5
55A3
  8
AM_0
 10
190.2106439740698
 20
449.14889778286198
 30
0.0
 40
0.3000000000000043
 50
0.0
 51
90.0
  0
LINE
  5
55A4
  8
AM_0
 10
190.21064397406971
 20
453.12182534871988
 30
0.0
 11
189.01064397406981
 21
453.12182534871988
 31
0.0
  0
ARC
  5
55A5
  8
AM_0
 10
190.2106439740698
 20
453.42182534872012
 30
0.0
 40
0.3000000000000007
 50
270.0
 51
0.0
  0
LINE
  5
55A6
  8
AM_0
 10
180.01064397406981
 20
443.98854552007373
 30
0.0
 11
186.51064397406981
 21
443.98854552007373
 31
0.0
  0
LINE
  5
55A7
  8
AM_0
 10
180.01064397406981
 20
443.48854552007373
 30
0.0
 11
186.51064397406981
 21
443.48854552007373
 31
0.0
  0
LINE
  5
55A8
  8
AM_0
 10
186.51064397406981
 20
453.62182534872079
 30
0.0
 11
180.01064397406981
 21
453.62182534872079
 31
0.0
  0
LINE
  5
55A9
  8
AM_0
 10
179.51064397406981
 20
453.12182534872079
 30
0.0
 11
186.51064397406981
 21
453.12182534872079
 31
0.0
  0
LINE
  5
55AA
  8
AM_0
 10
186.21064397406971
 20
443.1218253487209
 30
0.0
 11
179.37269390925181
 21
443.1218253487209
 31
0.0
  0
LINE
  5
55AB
  8
AM_0
 10
186.51064397406981
 20
452.77513728017982
 30
0.0
 11
180.01064397406981
 21
452.77513728017982
 31
0.0
  0
LINE
  5
55AC
  8
AM_0
 10
186.51064397406981
 20
444.46851341726199
 30
0.0
 11
180.01064397406981
 21
444.46851341726199
 31
0.0
  0
ARC
  5
55AD
  8
AM_0
 10
186.8106439740699
 20
442.4218253487208
 30
0.0
 40
0.2999999999999971
 50
180.0
 51
270.0
  0
ARC
  5
55AE
  8
AM_0
 10
186.2106439740698
 20
442.82182534872089
 30
0.0
 40
0.2999999999999971
 50
0.0
 51
90.0
  0
ARC
  5
55AF
  8
AM_0
 10
188.13564397406989
 20
448.62182534872079
 30
0.0
 40
9.124999999999984
 50
152.92493329271929
 51
207.07506670728071
  0
LINE
  5
55B0
  8
AM_0
 10
178.7325095095874
 20
443.35360406912332
 30
0.0
 11
176.37045957440529
 21
445.3219790151083
 31
0.0
  0
LINE
  5
55B1
  8
AM_0
 10
179.51064397406981
 20
443.70025793222879
 30
0.0
 11
180.01064397406981
 21
443.1218253487209
 31
0.0
  0
ARC
  5
55B2
  8
AM_0
 10
179.37269390925181
 20
444.12182534872079
 30
0.0
 40
1.0
 50
230.19442890774391
 51
270.0
  0
LINE
  5
55B3
  8
AM_0
 10
180.01064397406981
 20
443.48854552007373
 30
0.0
 11
179.51064397406981
 21
443.70025793222879
 31
0.0
  0
LINE
  5
55B4
  8
AM_0
 10
179.51064397406981
 20
444.16253320519991
 30
0.0
 11
180.01064397406981
 21
443.48854552007373
 31
0.0
  0
LINE
  5
55B5
  8
AM_0
 10
180.01064397406981
 20
443.98854552007373
 30
0.0
 11
179.51064397406981
 21
444.16253320519991
 31
0.0
  0
LINE
  5
55B6
  8
AM_0
 10
179.51064397406981
 20
444.70025793222891
 30
0.0
 11
180.01064397406981
 21
443.98854552007373
 31
0.0
  0
LINE
  5
55B7
  8
AM_0
 10
180.01064397406981
 20
444.46851341726199
 30
0.0
 11
179.51064397406981
 21
444.70025793222891
 31
0.0
  0
ARC
  5
55B8
  8
AM_0
 10
177.01064397406981
 20
446.09020029470588
 30
0.0
 40
1.0000000000000291
 50
180.0
 51
230.19442890773689
  0
LINE
  5
55B9
  8
AM_0
 10
180.01064397406981
 20
453.62182534872079
 30
0.0
 11
179.51064397406981
 21
454.12182534872079
 31
0.0
  0
LINE
  5
55BA
  8
AM_0
 10
179.51064397406981
 20
453.12182534872079
 30
0.0
 11
180.01064397406981
 21
453.62182534872079
 31
0.0
  0
LINE
  5
55BB
  8
AM_0
 10
180.01064397406981
 20
452.77513728017982
 30
0.0
 11
179.51064397406981
 21
453.12182534872079
 31
0.0
  0
LINE
  5
55BC
  8
AM_0
 10
186.8106439740699
 20
466.12182534872079
 30
0.0
 11
189.01064397406981
 21
466.12182534872079
 31
0.0
  0
ARC
  5
55BD
  8
AM_0
 10
200.9093150704158
 20
466.62182534872079
 30
0.0
 40
0.5
 50
269.99999999998693
 51
0.0
  0
LINE
  5
55BE
  8
AM_0
 10
195.9093150704158
 20
463.22182534872081
 30
0.0
 11
192.6870121290668
 21
463.22182534872081
 31
0.0
  0
LINE
  5
55BF
  8
AM_0
 10
201.4093150704158
 20
455.2657540273139
 30
0.0
 11
201.4093150704158
 21
464.97789667012893
 31
0.0
  0
LINE
  5
55C0
  8
AM_0
 10
196.4093150704158
 20
454.76575402731402
 30
0.0
 11
200.9093150704158
 21
454.76575402731402
 31
0.0
  0
ARC
  5
55C1
  8
AM_0
 10
200.9093150704158
 20
455.2657540273139
 30
0.0
 40
0.5
 50
270.0
 51
0.0
  0
LINE
  5
55C2
  8
AM_0
 10
196.4093150704158
 20
465.47789667012893
 30
0.0
 11
200.9093150704158
 21
465.47789667012893
 31
0.0
  0
LINE
  5
55C3
  8
AM_0
 10
200.9093150704158
 20
466.12182534872079
 30
0.0
 11
196.9093150704158
 21
466.12182534872079
 31
0.0
  0
ARC
  5
55C4
  8
AM_0
 10
200.9093150704158
 20
464.97789667012893
 30
0.0
 40
0.5
 50
0.0
 51
90.0
  0
ARC
  5
55C5
  8
AM_0
 10
195.9093150704158
 20
463.72182534872081
 30
0.0
 40
0.5
 50
270.0
 51
0.0
  0
ARC
  5
55C6
  8
AM_0
 10
196.9093150704158
 20
465.62182534872079
 30
0.0
 40
0.5
 50
90.0
 51
180.0
  0
ARC
  5
55C7
  8
AM_0
 10
190.2106439740698
 20
460.26699610101281
 30
0.0
 40
0.3000000000000114
 50
0.0
 51
90.0
  0
LINE
  5
55C8
  8
AM_0
 10
189.01064397406981
 20
455.12182534872278
 30
0.0
 11
190.21064397406971
 21
455.12182534872278
 31
0.0
  0
ARC
  5
55C9
  8
AM_0
 10
190.2106439740698
 20
454.82182534872311
 30
0.0
 40
0.2999999999999971
 50
0.0
 51
90.0
  0
LINE
  5
55CA
  8
AM_0
 10
189.01064397406981
 20
458.79475291457982
 30
0.0
 11
190.21064397406971
 21
458.79475291457982
 31
0.0
  0
ARC
  5
55CB
  8
AM_0
 10
190.2106439740698
 20
459.09475291457989
 30
0.0
 40
0.3000000000000007
 50
270.0
 51
0.0
  0
LINE
  5
55CC
  8
AM_0
 10
190.51064397406981
 20
459.09475291457989
 30
0.0
 11
190.51064397406981
 21
460.26699610101281
 31
0.0
  0
LINE
  5
55CD
  8
AM_0
 10
191.9370121290668
 20
463.97182534872093
 30
0.0
 11
192.3325826419908
 21
463.97182534872093
 31
0.0
  0
LINE
  5
55CE
  8
AM_0
 10
191.9370121290668
 20
463.97182534872093
 30
0.0
 11
192.3325826419908
 21
463.97182534872093
 31
0.0
  0
LINE
  5
55CF
  8
AM_0
 10
192.42917513652981
 20
463.89770758198449
 30
0.0
 11
192.59041963452759
 21
463.29594311545719
 31
0.0
  0
LINE
  5
55D0
  8
AM_0
 10
192.42917513652981
 20
463.89770758198449
 30
0.0
 11
192.59041963452759
 21
463.29594311545719
 31
0.0
  0
ARC
  5
55D1
  8
AM_0
 10
192.6870121290668
 20
463.32182534872112
 30
0.0
 40
0.0999999999999943
 50
195.00019500651959
 51
270.0
  0
ARC
  5
55D2
  8
AM_0
 10
192.3325826419908
 20
463.87182534872079
 30
0.0
 40
0.0999999999999943
 50
15.000195006505431
 51
90.0
  0
LINE
  5
55D3
  8
AM_0
 10
191.00979738552871
 20
463.5968253487211
 30
0.0
 11
191.09041963452759
 21
463.29594311545719
 31
0.0
  0
LINE
  5
55D4
  8
AM_0
 10
191.66202572262171
 20
463.26108988181892
 30
0.0
 11
191.84041963452759
 21
463.89770758198449
 31
0.0
  0
LINE
  5
55D5
  8
AM_0
 10
191.67917513652981
 20
463.29594311545719
 30
0.0
 11
191.84041963452759
 21
463.89770758198449
 31
0.0
  0
LINE
  5
55D6
  8
AM_0
 10
190.51064397406981
 20
463.40865832922992
 30
0.0
 11
190.51064397406981
 21
464.06557331288082
 31
0.0
  0
LINE
  5
55D7
  8
AM_0
 10
191.01064397406981
 20
463.5936658802828
 30
0.0
 11
191.09041963452759
 21
463.29594311545719
 31
0.0
  0
LINE
  5
55D8
  8
AM_0
 10
189.01064397406981
 20
463.10865832922991
 30
0.0
 11
190.21064397406971
 21
463.10865832922991
 31
0.0
  0
LINE
  5
55D9
  8
AM_0
 10
190.21064397406971
 20
460.56699610101288
 30
0.0
 11
189.01064397406981
 21
460.56699610101367
 31
0.0
  0
LINE
  5
55DA
  8
AM_0
 10
191.6152149075059
 20
463.22182534872081
 30
0.0
 11
191.66202572262171
 21
463.26108988181892
 31
0.0
  0
LINE
  5
55DB
  8
AM_0
 10
191.1870121290668
 20
463.22182534872081
 30
0.0
 11
191.6152149075059
 21
463.22182534872081
 31
0.0
  0
LINE
  5
55DC
  8
AM_0
 10
191.1870121290668
 20
463.22182534872081
 30
0.0
 11
191.5825826419908
 21
463.22182534872081
 31
0.0
  0
ARC
  5
55DD
  8
AM_0
 10
191.1870121290668
 20
463.32182534872112
 30
0.0
 40
0.0999999999999943
 50
195.00019500651959
 51
270.0
  0
ARC
  5
55DE
  8
AM_0
 10
191.5825826419908
 20
463.32182534872112
 30
0.0
 40
0.0999999999999608
 50
270.0
 51
344.99980499348032
  0
ARC
  5
55DF
  8
AM_0
 10
190.2106439740698
 20
463.40865832922992
 30
0.0
 40
0.3000000000000007
 50
270.0
 51
0.0
  0
LINE
  5
55E0
  8
AM_0
 10
189.01064397406981
 20
465.12182534872079
 30
0.0
 11
190.51064397406981
 21
465.12182534872079
 31
0.0
  0
LINE
  5
55E1
  8
AM_0
 10
190.21064397406971
 20
464.36557331288088
 30
0.0
 11
189.01064397406981
 21
464.36557331288088
 31
0.0
  0
LINE
  5
55E2
  8
AM_0
 10
190.23059967722691
 20
465.44049496851079
 30
0.0
 11
189.01064397406981
 21
465.52182534872071
 31
0.0
  0
ARC
  5
55E3
  8
AM_0
 10
190.51064397406981
 20
464.6218253487209
 30
0.0
 40
0.5
 50
0.0
 51
90.0
  0
ARC
  5
55E4
  8
AM_0
 10
191.9370121290668
 20
463.87182534872079
 30
0.0
 40
0.0999999999999606
 50
90.0
 51
164.99980499349451
  0
ARC
  5
55E5
  8
AM_0
 10
190.2106439740698
 20
464.06557331288082
 30
0.0
 40
0.2999999999999971
 50
0.0
 51
90.0
  0
LINE
  5
55E6
  8
AM_0
 10
190.51064397406981
 20
465.12182534872079
 30
0.0
 11
190.51064397406981
 21
465.14115942115382
 31
0.0
  0
ARC
  5
55E7
  8
AM_0
 10
190.2106439740698
 20
465.14115942115382
 30
0.0
 40
0.3000000000000043
 50
0.0
 51
86.18592516571853
  0
ARC
  5
55E8
  8
AM_0
 10
201.9093150704158
 20
467.1218253487209
 30
0.0
 40
0.5
 50
90.0
 51
180.0
  0
LINE
  5
55E9
  8
AM_0
 10
201.4093150704158
 20
467.1218253487209
 30
0.0
 11
201.4093150704158
 21
466.62182534872079
 31
0.0
  0
LINE
  5
55EA
  8
AM_0
 10
180.01064397406981
 20
463.77513728017982
 30
0.0
 11
186.51064397406981
 21
463.77513728017982
 31
0.0
  0
LINE
  5
55EB
  8
AM_0
 10
180.01064397406981
 20
455.4685134172617
 30
0.0
 11
186.51064397406981
 21
455.4685134172617
 31
0.0
  0
LINE
  5
55EC
  8
AM_0
 10
179.37269390925181
 20
465.12182534872079
 30
0.0
 11
186.21064397406971
 21
465.12182534872079
 31
0.0
  0
LINE
  5
55ED
  8
AM_0
 10
186.51064397406981
 20
455.1218253487209
 30
0.0
 11
179.51064397406981
 21
455.1218253487209
 31
0.0
  0
LINE
  5
55EE
  8
AM_0
 10
180.01064397406981
 20
454.6218253487209
 30
0.0
 11
186.51064397406981
 21
454.6218253487209
 31
0.0
  0
LINE
  5
55EF
  8
AM_0
 10
186.51064397406981
 20
464.7551051773687
 30
0.0
 11
180.01064397406981
 21
464.7551051773687
 31
0.0
  0
LINE
  5
55F0
  8
AM_0
 10
186.51064397406981
 20
464.2551051773687
 30
0.0
 11
180.01064397406981
 21
464.2551051773687
 31
0.0
  0
ARC
  5
55F1
  8
AM_0
 10
186.2106439740698
 20
465.42182534872092
 30
0.0
 40
0.3000000000000043
 50
270.0
 51
0.0
  0
ARC
  5
55F2
  8
AM_0
 10
186.8106439740699
 20
465.82182534872089
 30
0.0
 40
0.2999999999999971
 50
90.0
 51
180.0
  0
ARC
  5
55F3
  8
AM_0
 10
188.13564397406989
 20
459.6218253487209
 30
0.0
 40
9.124999999999984
 50
152.92493329271929
 51
207.07506670728071
  0
LINE
  5
55F4
  8
AM_0
 10
179.51064397406981
 20
455.1218253487209
 30
0.0
 11
180.01064397406981
 21
455.4685134172617
 31
0.0
  0
LINE
  5
55F5
  8
AM_0
 10
180.01064397406981
 20
454.6218253487209
 30
0.0
 11
179.51064397406981
 21
455.1218253487209
 31
0.0
  0
LINE
  5
55F6
  8
AM_0
 10
176.37045957440529
 20
462.92167168233419
 30
0.0
 11
178.7325095095874
 21
464.8900466283182
 31
0.0
  0
LINE
  5
55F7
  8
AM_0
 10
180.01064397406981
 20
465.12182534872079
 30
0.0
 11
179.51064397406981
 21
464.54339276521392
 31
0.0
  0
ARC
  5
55F8
  8
AM_0
 10
179.37269390925181
 20
464.1218253487209
 30
0.0
 40
1.0000000000000411
 50
90.0
 51
129.805571092256
  0
LINE
  5
55F9
  8
AM_0
 10
179.51064397406981
 20
463.54339276521392
 30
0.0
 11
180.01064397406981
 21
463.77513728017982
 31
0.0
  0
LINE
  5
55FA
  8
AM_0
 10
180.01064397406981
 20
464.2551051773687
 30
0.0
 11
179.51064397406981
 21
463.54339276521392
 31
0.0
  0
LINE
  5
55FB
  8
AM_0
 10
179.51064397406981
 20
464.0811174922419
 30
0.0
 11
180.01064397406981
 21
464.2551051773687
 31
0.0
  0
LINE
  5
55FC
  8
AM_0
 10
180.01064397406981
 20
464.7551051773687
 30
0.0
 11
179.51064397406981
 21
464.0811174922419
 31
0.0
  0
LINE
  5
55FD
  8
AM_0
 10
179.51064397406981
 20
464.54339276521392
 30
0.0
 11
180.01064397406981
 21
464.7551051773687
 31
0.0
  0
ARC
  5
55FE
  8
AM_0
 10
177.01064397406981
 20
462.15345040273678
 30
0.0
 40
1.0
 50
129.80557109226311
 51
180.0
  0
LINE
  5
55FF
  8
AM_0
 10
301.40931507041603
 20
431.12182534872107
 30
0.0
 11
280.59481017088348
 21
431.12182534872107
 31
0.0
  0
LINE
  5
5600
  8
AM_0
 10
226.22381996994829
 20
431.12182534872107
 30
0.0
 11
205.40931507041651
 21
431.12182534872107
 31
0.0
  0
LINE
  5
5601
  8
AM_0
 10
295.27353340125489
 20
427.12182534872107
 30
0.0
 11
211.54509673957671
 21
427.12182534872107
 31
0.0
  0
LINE
  5
5602
  8
AM_0
 10
214.3166700427229
 20
429.0628878365934
 30
0.0
 11
214.4093150704164
 21
430.12182534872119
 31
0.0
  0
LINE
  5
5603
  8
AM_0
 10
206.50196009810989
 20
429.0628878365934
 30
0.0
 11
206.4093150704164
 21
430.12182534872119
 31
0.0
  0
ARC
  5
5604
  8
AM_0
 10
210.4093150704164
 20
433.52182534872111
 30
0.0
 40
6.5
 50
241.82726586813479
 51
298.17273413186518
  0
ARC
  5
5605
  8
AM_0
 10
208.09587161505681
 20
429.20233702498962
 30
0.0
 40
1.6000000000000001
 50
185.0
 51
241.82726586813479
  0
LINE
  5
5606
  8
AM_0
 10
212.70931507041649
 20
427.44235168729278
 30
0.0
 11
210.4093150704164
 21
429.73191136608841
 31
0.0
  0
LINE
  5
5607
  8
AM_0
 10
210.72081507041651
 20
429.42182534872109
 30
0.0
 11
210.09781507041649
 21
429.42182534872109
 31
0.0
  0
LINE
  5
5608
  8
AM_0
 10
208.1093150704165
 20
427.44235168729278
 30
0.0
 11
210.4093150704164
 21
429.73191136608841
 31
0.0
  0
LINE
  5
5609
  8
AM_0
 10
210.72081507041651
 20
427.02929365838651
 30
0.0
 11
210.72081507041651
 21
429.42182534872109
 31
0.0
  0
LINE
  5
560A
  8
AM_0
 10
210.09781507041649
 20
427.02929365838651
 30
0.0
 11
210.09781507041649
 21
429.42182534872109
 31
0.0
  0
ARC
  5
560B
  8
AM_0
 10
212.7227585257761
 20
429.20233702498962
 30
0.0
 40
1.6000000000000001
 50
298.17273413186518
 51
354.99999999999977
  0
LINE
  5
560C
  8
AM_0
 10
301.40931507041608
 20
431.12182534872107
 30
0.0
 11
301.40931507041608
 21
435.12182534872107
 31
0.0
  0
LINE
  5
560D
  8
AM_0
 10
205.4093150704156
 20
435.12182534872107
 30
0.0
 11
205.40931507041671
 21
431.12182534872107
 31
0.0
  0
LINE
  5
560E
  8
AM_0N
 10
214.20931507041641
 20
431.12182534872107
 30
0.0
 11
214.20931507041641
 21
430.12182534872119
 31
0.0
  0
LINE
  5
560F
  8
AM_0N
 10
210.6093150704165
 20
430.12182534872119
 30
0.0
 11
210.97328530468269
 21
431.12182534872107
 31
0.0
  0
LINE
  5
5610
  8
AM_0N
 10
210.20931507041641
 20
430.12182534872119
 30
0.0
 11
210.5732853046826
 21
431.12182534872107
 31
0.0
  0
LINE
  5
5611
  8
AM_0N
 10
206.4093150704164
 20
430.12182534872119
 30
0.0
 11
214.4093150704164
 21
430.12182534872119
 31
0.0
  0
LINE
  5
5612
  8
AM_0N
 10
206.6093150704165
 20
430.12182534872119
 30
0.0
 11
206.6093150704165
 21
431.12182534872107
 31
0.0
  0
LINE
  5
5613
  8
AM_0
 10
226.2238199699481
 20
427.12182534872107
 30
0.0
 11
226.2238199699481
 21
431.12182534872107
 31
0.0
  0
LINE
  5
5614
  8
AM_0
 10
224.56696572045561
 20
431.12182534872107
 30
0.0
 11
226.2238199699481
 21
427.12182534872107
 31
0.0
  0
LINE
  5
5615
  8
AM_0
 10
280.59481017088348
 20
427.12182534872107
 30
0.0
 11
280.59481017088348
 21
431.12182534872107
 31
0.0
  0
LINE
  5
5616
  8
AM_0
 10
282.25166442037607
 20
431.12182534872107
 30
0.0
 11
280.59481017088348
 21
427.12182534872107
 31
0.0
  0
LINE
  5
5617
  8
AM_0
 10
219.9093150704158
 20
476.12182534872119
 30
0.0
 11
286.90931507041603
 21
476.12182534872119
 31
0.0
  0
LINE
  5
5618
  8
AM_0
 10
219.9093150704158
 20
476.12182534872119
 30
0.0
 11
219.9093150704158
 21
474.12182534872107
 31
0.0
  0
LINE
  5
5619
  8
AM_0
 10
286.90931507041603
 20
476.12182534872119
 30
0.0
 11
286.90931507041603
 21
474.12182534872107
 31
0.0
  0
LINE
  5
561A
  8
ﾁｭｳｼﾝｾﾝ1
 10
296.40931507041518
 20
424.85711784872109
 30
0.0
 11
296.40931507041518
 21
437.85711784872109
 31
0.0
  0
LINE
  5
561B
  8
AM_0
 10
292.50196009810878
 20
429.0628878365934
 30
0.0
 11
292.4093150704154
 21
430.12182534872119
 31
0.0
  0
LINE
  5
561C
  8
AM_0
 10
300.31667004272202
 20
429.0628878365934
 30
0.0
 11
300.40931507041518
 21
430.12182534872119
 31
0.0
  0
ARC
  5
561D
  8
AM_0
 10
296.40931507041552
 20
433.52182534872111
 30
0.0
 40
6.5
 50
241.82726586813479
 51
298.17273413186518
  0
ARC
  5
561E
  8
AM_0
 10
298.72275852577508
 20
429.20233702498939
 30
0.0
 40
1.6000000000000001
 50
298.17273413186518
 51
354.99999999999977
  0
LINE
  5
561F
  8
AM_0
 10
294.10931507041539
 20
427.44235168729278
 30
0.0
 11
296.4093150704154
 21
429.73191136608841
 31
0.0
  0
LINE
  5
5620
  8
AM_0
 10
296.09781507041532
 20
429.42182534872109
 30
0.0
 11
296.72081507041543
 21
429.42182534872109
 31
0.0
  0
LINE
  5
5621
  8
AM_0
 10
298.7093150704153
 20
427.44235168729278
 30
0.0
 11
296.4093150704154
 21
429.73191136608841
 31
0.0
  0
LINE
  5
5622
  8
AM_0
 10
296.09781507041532
 20
427.02929365838651
 30
0.0
 11
296.09781507041532
 21
429.42182534872109
 31
0.0
  0
LINE
  5
5623
  8
AM_0
 10
296.72081507041543
 20
427.02929365838651
 30
0.0
 11
296.72081507041543
 21
429.42182534872109
 31
0.0
  0
ARC
  5
5624
  8
AM_0
 10
294.09587161505573
 20
429.20233702498939
 30
0.0
 40
1.6000000000000001
 50
185.0
 51
241.82726586813479
  0
LINE
  5
5625
  8
AM_0N
 10
292.60931507041528
 20
431.12182534872107
 30
0.0
 11
292.60931507041528
 21
430.12182534872119
 31
0.0
  0
LINE
  5
5626
  8
AM_0N
 10
296.2093150704153
 20
430.12182534872119
 30
0.0
 11
295.8453448361492
 21
431.12182534872107
 31
0.0
  0
LINE
  5
5627
  8
AM_0N
 10
296.60931507041528
 20
430.12182534872119
 30
0.0
 11
296.24534483614912
 21
431.12182534872107
 31
0.0
  0
LINE
  5
5628
  8
AM_0N
 10
300.4093150704154
 20
430.12182534872119
 30
0.0
 11
292.4093150704154
 21
430.12182534872119
 31
0.0
  0
LINE
  5
5629
  8
AM_0N
 10
300.2093150704153
 20
430.12182534872119
 30
0.0
 11
300.2093150704153
 21
431.12182534872107
 31
0.0
  0
LINE
  5
562A
  8
AM_0
 10
204.4093150704158
 20
438.1218253487209
 30
0.0
 11
204.4093150704158
 21
470.12182534872079
 31
0.0
  0
ARC
  5
575B
  8
AM_0
 10
176.98247543935759
 20
507.1218253487213
 30
0.0
 40
50.0
 50
209.0739387456421
 51
268.88629304213532
1001
GENIUS_GENOBJ-N-FIL_13
1002
{
1000
OWNER
1000
GEN
1002
}
1001
GENIUS_GENODEF_13
1002
{
1000
HIER
1070
     0
1002
}
1002
{
1000
MANEDIT
1070
     0
1002
}
1002
{
1000
NOSEL
1070
     0
1002
}
1002
{
1000
BEHIND
1070
     0
1002
}
1002
{
1000
OTHER
1070
     0
1002
}
1002
{
1000
REACTOR
1002
}
  0
ARC
  5
575D
  8
AM_0
 10
176.98247543935759
 20
507.1218253487213
 30
0.0
 40
56.0
 50
209.07393874564229
 51
269.00563148838881
1001
GENIUS_GENOBJ-N-FIL_13
1002
{
1000
OWNER
1000
GEN
1002
}
1001
GENIUS_GENODEF_13
1002
{
1000
HIER
1070
     0
1002
}
1002
{
1000
MANEDIT
1070
     0
1002
}
1002
{
1000
NOSEL
1070
     0
1002
}
1002
{
1000
BEHIND
1070
     0
1002
}
1002
{
1000
OTHER
1070
     0
1002
}
1002
{
1000
REACTOR
1002
}
  0
TEXT
  5
59D9
  8
AM_0
 10
521.13115597306432
 20
563.76800881608187
 30
0.0
 40
10.0
  1
VX04-005BW~VX04-010BW
  0
ENDSEC
  0
EOF
