  0
SECTION
  2
HEADER
  9
$ACADVER
  1
AC1009
  9
$INSBASE
 10
0.0
 20
0.0
 30
0.0
  9
$EXTMIN
 10
87.621278944682899
 20
183.43711753861879
 30
-250.41841640509659
  9
$EXTMAX
 10
744.06456942572765
 20
636.9028429439993
 30
8206587.2096418813
  9
$LIMMIN
 10
0.0
 20
0.0
  9
$LIMMAX
 10
853.5
 20
555.00000000000011
  9
$ORTHOMODE
 70
     0
  9
$REGENMODE
 70
     1
  9
$FILLMODE
 70
     1
  9
$QTEXTMODE
 70
     0
  9
$MIRRTEXT
 70
     1
  9
$DRAGMODE
 70
     2
  9
$LTSCALE
 40
3.0
  9
$OSMODE
 70
   551
  9
$ATTMODE
 70
     1
  9
$TEXTSIZE
 40
2.5
  9
$TRACEWID
 40
1.0
  9
$TEXTSTYLE
  7
STANDARD
  9
$CLAYER
  8
AM_0
  9
$CELTYPE
  6
BYLAYER
  9
$CECOLOR
 62
   256
  9
$DIMSCALE
 40
1.0
  9
$DIMASZ
 40
2.5
  9
$DIMEXO
 40
1.0
  9
$DIMDLI
 40
8.0
  9
$DIMRND
 40
0.0
  9
$DIMDLE
 40
0.0
  9
$DIMEXE
 40
0.6
  9
$DIMTP
 40
0.1
  9
$DIMTM
 40
0.1
  9
$DIMTXT
 40
2.5
  9
$DIMCEN
 40
0.0
  9
$DIMTSZ
 40
0.0
  9
$DIMTOL
 70
     0
  9
$DIMLIM
 70
     0
  9
$DIMTIH
 70
     0
  9
$DIMTOH
 70
     0
  9
$DIMSE1
 70
     0
  9
$DIMSE2
 70
     0
  9
$DIMTAD
 70
     1
  9
$DIMZIN
 70
     8
  9
$DIMBLK
  1

  9
$DIMASO
 70
     1
  9
$DIMSHO
 70
     1
  9
$DIMPOST
  1

  9
$DIMAPOST
  1
"
  9
$DIMALT
 70
     0
  9
$DIMALTD
 70
     2
  9
$DIMALTF
 40
0.0393701
  9
$DIMLFAC
 40
1.0
  9
$DIMTOFL
 70
     1
  9
$DIMTVP
 40
0.0
  9
$DIMTIX
 70
     0
  9
$DIMSOXD
 70
     0
  9
$DIMSAH
 70
     0
  9
$DIMBLK1
  1

  9
$DIMBLK2
  1

  9
$DIMSTYLE
  2
AM_ISO
  9
$DIMCLRD
 70
   256
  9
$DIMCLRE
 70
   256
  9
$DIMCLRT
 70
     4
  9
$DIMTFAC
 40
0.71
  9
$DIMGAP
 40
0.8
  9
$LUNITS
 70
     2
  9
$LUPREC
 70
     2
  9
$SKETCHINC
 40
1.0
  9
$FILLETRAD
 40
15.0
  9
$AUNITS
 70
     0
  9
$AUPREC
 70
     0
  9
$MENU
  1
.
  9
$ELEVATION
 40
0.0
  9
$PELEVATION
 40
0.0
  9
$THICKNESS
 40
0.0
  9
$LIMCHECK
 70
     0
  9
$BLIPMODE
 70
     0
  9
$CHAMFERA
 40
6.0
  9
$CHAMFERB
 40
3.0
  9
$SKPOLY
 70
     0
  9
$TDCREATE
 40
2452065.7887456599
  9
$TDUPDATE
 40
2458541.6085978132
  9
$TDINDWG
 40
0.1201752894
  9
$TDUSRTIMER
 40
0.1201752778
  9
$USRTIMER
 70
     1
  9
$ANGBASE
 50
0.0
  9
$ANGDIR
 70
     0
  9
$PDMODE
 70
     0
  9
$PDSIZE
 40
0.0
  9
$PLINEWID
 40
0.0
  9
$COORDS
 70
     1
  9
$SPLFRAME
 70
     0
  9
$SPLINETYPE
 70
     6
  9
$SPLINESEGS
 70
     8
  9
$ATTDIA
 70
     1
  9
$ATTREQ
 70
     1
  9
$HANDLING
 70
     1
  9
$HANDSEED
  5
67BC
  9
$SURFTAB1
 70
     6
  9
$SURFTAB2
 70
     6
  9
$SURFTYPE
 70
     6
  9
$SURFU
 70
     6
  9
$SURFV
 70
     6
  9
$UCSNAME
  2

  9
$UCSORG
 10
0.0
 20
0.0
 30
0.0
  9
$UCSXDIR
 10
1.0
 20
0.0
 30
0.0
  9
$UCSYDIR
 10
0.0
 20
1.0
 30
0.0
  9
$PUCSNAME
  2

  9
$PUCSORG
 10
0.0
 20
0.0
 30
0.0
  9
$PUCSXDIR
 10
1.0
 20
0.0
 30
0.0
  9
$PUCSYDIR
 10
0.0
 20
1.0
 30
0.0
  9
$USERI1
 70
     0
  9
$USERI2
 70
     0
  9
$USERI3
 70
     0
  9
$USERI4
 70
     0
  9
$USERI5
 70
     0
  9
$USERR1
 40
0.0
  9
$USERR2
 40
0.0
  9
$USERR3
 40
0.0
  9
$USERR4
 40
0.0
  9
$USERR5
 40
0.0
  9
$WORLDVIEW
 70
     1
  9
$SHADEDGE
 70
     3
  9
$SHADEDIF
 70
    70
  9
$TILEMODE
 70
     1
  9
$MAXACTVP
 70
    64
  9
$PLIMCHECK
 70
     0
  9
$PEXTMIN
 10
1.0000000000000000E+020
 20
1.0000000000000000E+020
 30
1.0000000000000000E+020
  9
$PEXTMAX
 10
-1.0000000000000000E+020
 20
-1.0000000000000000E+020
 30
-1.0000000000000000E+020
  9
$PLIMMIN
 10
0.0
 20
0.0
  9
$PLIMMAX
 10
420.0
 20
297.0
  9
$UNITMODE
 70
     0
  9
$VISRETAIN
 70
     1
  9
$PLINEGEN
 70
     0
  9
$PSLTSCALE
 70
     1
  0
ENDSEC
  0
SECTION
  2
TABLES
  0
TABLE
  2
VPORT
 70
     1
  0
VPORT
  2
*ACTIVE
 70
     0
 10
0.0
 20
0.0
 11
1.0
 21
1.0
 12
415.84292418520522
 22
410.16998024130902
 13
0.0
 23
0.0
 14
7.5
 24
7.5
 15
30.0
 25
30.0
 16
0.0
 26
0.0
 36
1.0
 17
0.0
 27
0.0
 37
0.0
 40
456.57876242189332
 41
1.7571592210767459
 42
50.0
 43
0.0
 44
0.0
 50
0.0
 51
0.0
 71
     0
 72
   100
 73
     1
 74
     3
 75
     0
 76
     0
 77
     0
 78
     0
  0
ENDTAB
  0
TABLE
  2
LTYPE
 70
    27
  0
LTYPE
  2
CONTINUOUS
 70
     0
  3
Solid line
 72
    65
 73
     0
 40
0.0
  0
LTYPE
  2
AM_ISO02W050
 70
     0
  3
__ __ __ __ __ __ __ __ __ __ __ __ __ __ __
 72
    65
 73
     2
 40
7.5
 49
6.0
 49
-1.5
  0
LTYPE
  2
AM_ISO08W050
 70
     0
  3
____ . ____ . ____ . ____ . ____ . ____ . ____
 72
    65
 73
     4
 40
18.0
 49
12.0
 49
-1.5
 49
3.0
 49
-1.5
  0
LTYPE
  2
AM_ISO09W050
 70
     0
  3
_____ . . _____ . . _____ . . ____ .. ____
 72
    65
 73
     6
 40
22.5
 49
12.0
 49
-1.5
 49
3.0
 49
-1.5
 49
3.0
 49
-1.5
  0
LTYPE
  2
AMCONSTR
 70
     0
  3
_______________________
 72
    65
 73
     2
 40
9999.0
 49
9999.0
 49
0.0
  0
LTYPE
  2
AM_ISO08W050X2
 70
     0
  3
__ . __ . __ . __ . __ . __
 72
    65
 73
     4
 40
9.0
 49
6.0
 49
-0.75
 49
1.5
 49
-0.75
  0
LTYPE
  2
AM_ISO02W050X2
 70
     0
  3
 _ _ _ _ _ _ _ _ _ _ _ _
 72
    65
 73
     2
 40
3.75
 49
3.0
 49
-0.75
  0
LTYPE
  2
AMZIGZAG
 70
     0
  3
/\/-/\/-/\/-/\/-/\/-/\/
 72
    65
 73
     2
 40
11.0001
 49
0.0001
 49
-11.0
  0
LTYPE
  2
ACISOWELD
 70
     0
  3
_ _ _ _ _
 72
    65
 73
     2
 40
2.0
 49
2.0
 49
-1.0
  0
LTYPE
  2
ACISOTGB
 70
     0
  3
__ . . __ . .
 72
    65
 73
     6
 40
9.0
 49
4.0
 49
-1.0
 49
1.0
 49
-1.0
 49
1.0
 49
-1.0
  0
LTYPE
  2
ACISOTGL
 70
     0
  3
_ _ _ _ _
 72
    65
 73
     2
 40
3.0
 49
2.0
 49
-1.0
  0
LTYPE
  2
CENTER
 70
     0
  3
__ . __
 72
    65
 73
     4
 40
7.0
 49
4.0
 49
-1.0
 49
1.0
 49
-1.0
  0
LTYPE
  2
HIDDEN
 70
     0
  3
Hidden __ __ __ __ __ __ __ __ __ __ __ __ __ _
 72
    65
 73
     2
 40
9.5249999999999986
 49
6.3499999999999979
 49
-3.174999999999998
  0
LTYPE
  2
PHANTOM2
 70
     0
  3
Phantom (.5x) ___ _ _ ___ _ _ ___ _ _ ___ _ _
 72
    65
 73
     6
 40
31.75
 49
15.875
 49
-3.174999999999998
 49
3.174999999999998
 49
-3.174999999999998
 49
3.174999999999998
 49
-3.174999999999998
  0
LTYPE
  2
ACANSTGBM
 70
     0
  3
__ . . __ . .
 72
    65
 73
     6
 40
9.0
 49
4.0
 49
-1.0
 49
1.0
 49
-1.0
 49
1.0
 49
-1.0
  0
LTYPE
  2
ACANSTGLM
 70
     0
  3
_ _ _ _ _
 72
    65
 73
     2
 40
3.0
 49
2.0
 49
-1.0
  0
LTYPE
  2
GEN7
 70
     0
  3
____ . ____ . ____ . ____ . ____ . ____ . ____
 72
    65
 73
     4
 40
14.25
 49
9.75
 49
-1.5
 49
1.5
 49
-1.5
  0
LTYPE
  2
GEN3B
 70
     0
  3
 - - - - -
 72
    65
 73
     2
 40
1.0
 49
0.5
 49
-0.5
  0
LTYPE
  2
GEN7A
 70
     0
  3
__ . __ . __
 72
    65
 73
     4
 40
7.375
 49
4.75
 49
-0.875
 49
0.875
 49
-0.875
  0
LTYPE
  2
ACJISTGB
 70
     0
  3
__ . . __ . .
 72
    65
 73
     6
 40
9.0
 49
4.0
 49
-1.0
 49
1.0
 49
-1.0
 49
1.0
 49
-1.0
  0
LTYPE
  2
ACJISTGL
 70
     0
  3
_ _ _ _ _
 72
    65
 73
     2
 40
3.0
 49
2.0
 49
-1.0
  0
LTYPE
  2
CENTER2
 70
     0
  3
Center (.5x) ___ _ ___ _ ___ _ ___ _ ___ _ ___
 72
    65
 73
     4
 40
1.125
 49
0.75
 49
-0.125
 49
0.125
 49
-0.125
  0
LTYPE
  2
HIDDEN2
 70
     0
  3
Hidden (.5x) _ _ _ _ _ _ _ _ _ _ _ _ _ _ _ _ _
 72
    65
 73
     2
 40
0.1875
 49
0.125
 49
-0.0625
  0
LTYPE
  2
AMZIGZAG2
 70
     0
  3
/\/-/\/-/\/-/\/-/\/-/\/
 72
    65
 73
     2
 40
0.4401
 49
0.0001
 49
-0.4400000000000001
  0
LTYPE
  2
ACANSTGB
 70
     0
  3
__ . . __ . .
 72
    65
 73
     6
 40
0.35433070866
 49
0.15748031496
 49
-0.03937007874
 49
0.03937007874
 49
-0.03937007874
 49
0.03937007874
 49
-0.03937007874
  0
LTYPE
  2
ACANSTGL
 70
     0
  3
_ _ _ _ _
 72
    65
 73
     2
 40
0.11811023622
 49
0.07874015748
 49
-0.03937007874
  0
ENDTAB
  0
TABLE
  2
LAYER
 70
     7
  0
LAYER
  2
0
 70
     0
 62
     7
  6
CONTINUOUS
  0
LAYER
  2
AM_0
 70
     0
 62
     7
  6
CONTINUOUS
  0
LAYER
  2
DEFPOINTS
 70
     0
 62
     7
  6
CONTINUOUS
  0
LAYER
  2
ｶｸﾚｾﾝ2
 70
     0
 62
     3
  6
GEN3B
  0
LAYER
  2
ﾁｭｳｼﾝｾﾝ
 70
     0
 62
     1
  6
GEN7
  0
LAYER
  2
ﾁｭｳｼﾝｾﾝ1
 70
     0
 62
     1
  6
GEN7A
  0
LAYER
  2
AM_0N
 70
     0
 62
     7
  6
CONTINUOUS
  0
ENDTAB
  0
TABLE
  2
STYLE
 70
    10
  0
STYLE
  2
STANDARD
 70
     0
 40
0.0
 41
0.8299999999999999
 50
0.0
 71
     0
 42
2.5
  3
txt.shx
  4
bigfont.shx
  0
STYLE
  2
ANNOTATIVE
 70
     0
 40
0.0
 41
1.0
 50
0.0
 71
     0
 42
0.2
  3
txt
  4

  0
STYLE
  2

 70
     1
 40
0.0
 41
1.0
 50
0.0
 71
     0
 42
2.5
  3
ltypeshp.shx
  4

  0
STYLE
  2
ACISOTS
 70
     0
 40
1.0
 41
1.0
 50
0.0
 71
     0
 42
2.5
  3
isocp.shx
  4
extfont.shx
  0
STYLE
  2
ACISOGDT
 70
     0
 40
0.0
 41
1.0
 50
0.0
 71
     0
 42
2.5
  3
amgdt.shx
  4

  0
STYLE
  2
ACANSTS
 70
     0
 40
1.0
 41
1.0
 50
0.0
 71
     0
 42
2.5
  3
romans.shx
  4
bigfont.shx
  0
STYLE
  2
ACANSGDT
 70
     0
 40
0.0
 41
1.0
 50
0.0
 71
     0
 42
2.5
  3
amgdt.shx
  4

  0
STYLE
  2
ACJISTS
 70
     0
 40
1.0
 41
1.0
 50
0.0
 71
     0
 42
2.5
  3
isocp.shx
  4
bigfont.shx
  0
STYLE
  2
ACJISGDT
 70
     0
 40
0.0
 41
1.0
 50
0.0
 71
     0
 42
2.5
  3
amgdt.shx
  4

  0
STYLE
  2

 70
     1
 40
0.0
 41
1.0
 50
0.0
 71
     0
 42
2.5
  3
genltshp.shx
  4

  0
ENDTAB
  0
TABLE
  2
VIEW
 70
     6
  0
VIEW
  2
AM_VIEW1
 70
     0
 40
277.50000000000011
 10
249.64779005524869
 20
416.25
 41
499.29558011049721
 11
0.0
 21
0.0
 31
1.0
 12
0.0
 22
0.0
 32
0.0
 42
50.0
 43
0.0
 44
0.0
 50
0.0
 71
     0
  0
VIEW
  2
AM_VIEW2
 70
     0
 40
277.50000000000011
 10
603.85220994475117
 20
416.25
 41
499.29558011049721
 11
0.0
 21
0.0
 31
1.0
 12
0.0
 22
0.0
 32
0.0
 42
50.0
 43
0.0
 44
0.0
 50
0.0
 71
     0
  0
VIEW
  2
AM_VIEW3
 70
     0
 40
277.50000000000011
 10
249.64779005524869
 20
138.75
 41
499.29558011049721
 11
0.0
 21
0.0
 31
1.0
 12
0.0
 22
0.0
 32
0.0
 42
50.0
 43
0.0
 44
0.0
 50
0.0
 71
     0
  0
VIEW
  2
AM_VIEW4
 70
     0
 40
277.50000000000011
 10
603.85220994475117
 20
138.75
 41
499.29558011049721
 11
0.0
 21
0.0
 31
1.0
 12
0.0
 22
0.0
 32
0.0
 42
50.0
 43
0.0
 44
0.0
 50
0.0
 71
     0
  0
VIEW
  2
AM_VIEW5
 70
     0
 40
277.50000000000011
 10
426.75
 20
277.50000000000011
 41
499.2955801104971
 11
0.0
 21
0.0
 31
1.0
 12
0.0
 22
0.0
 32
0.0
 42
50.0
 43
0.0
 44
0.0
 50
0.0
 71
     0
  0
VIEW
  2
AM_VIEW6
 70
     0
 40
554.99445000000014
 10
426.75
 20
277.5
 41
998.5811743093924
 11
0.0
 21
0.0
 31
1.0
 12
0.0
 22
0.0
 32
0.0
 42
50.0
 43
0.0
 44
0.0
 50
0.0
 71
     0
  0
ENDTAB
  0
TABLE
  2
UCS
 70
     0
  0
ENDTAB
  0
TABLE
  2
APPID
 70
    98
  0
APPID
  2
ACAD
 70
     0
  0
APPID
  2
ACADANNOTATIVE
 70
     0
  0
APPID
  2
MCAD_NO_VIS
 70
     0
  0
APPID
  2
ACAD_TEMP_GRAPHIC
 70
     0
  0
APPID
  2
ACATTRIBSERVICES
 70
     0
  0
APPID
  2
GENIUS_GENREC_14
 70
     0
  0
APPID
  2
GENIUS_GENOBJ-N-REC_13
 70
     0
  0
APPID
  2
GENIUS_GENODEF_13
 70
     0
  0
APPID
  2
GENIUS_GENOLIS_13
 70
     0
  0
APPID
  2
GENIUS_GENOBJ-N-TIT_13
 70
     0
  0
APPID
  2
GENIUS_GENOENT_13
 70
     0
  0
APPID
  2
GENIUS_GENTITLE_13
 70
     0
  0
APPID
  2
GENIUS_GENOREF_13
 70
     0
  0
APPID
  2
GENIUS_GENSCREG_15
 70
     0
  0
APPID
  2
GENIUS_GENOBJ-N-SDF_13
 70
     0
  0
APPID
  2
GENIUS_GENFIL_13
 70
     0
  0
APPID
  2
GENIUS_GENOBJ-N-CHA_13
 70
     0
  0
APPID
  2
GENIUS_GENDTOL_13
 70
     0
  0
APPID
  2
GENIUS_GENOBJ-N-FIL_13
 70
     0
  0
APPID
  2
AD_DRAW
 70
     0
  0
APPID
  2
DESIGNERASSEMBLIES
 70
     0
  0
APPID
  2
ASURF_PCURVE_APPNAME
 70
     0
  0
APPID
  2
GENIUS_GE3SECT_13
 70
     0
  0
APPID
  2
GENIUS_GENCFG_13
 70
     0
  0
APPID
  2
GENIUS_GE3CFG0_13
 70
     0
  0
APPID
  2
GENIUS_GENCFG0_13
 70
     0
  0
APPID
  2
GENIUS_GENCFG1_13
 70
     0
  0
APPID
  2
GENIUS_GENCFG2_13
 70
     0
  0
APPID
  2
GENIUS_GENCFG3_13
 70
     0
  0
APPID
  2
GENIUS_GENCFG4_13
 70
     0
  0
APPID
  2
GENIUS_GEVCFG0_13
 70
     0
  0
APPID
  2
GENIUS_GENHINW_13
 70
     0
  0
APPID
  2
GENIUS_FIRSTVISTXT_14
 70
     0
  0
APPID
  2
GENIUS_GENOBJ-N-LEADER_13
 70
     0
  0
APPID
  2
GEV_VCCNULL_SWITCH_OFF
 70
     0
  0
APPID
  2
GENIUS_GEFCFG0_13
 70
     0
  0
APPID
  2
GENIUS_GENZVEED_13
 70
     0
  0
APPID
  2
GENIUS_GENSCREG_13
 70
     0
  0
APPID
  2
GENIUS_DUMCFG0_13
 70
     0
  0
APPID
  2
GEVID936201362
 70
     0
  0
APPID
  2
GEVDC
 70
     0
  0
APPID
  2
GEVCON
 70
     0
  0
APPID
  2
VCC
 70
     0
  0
APPID
  2
GEVPT
 70
     0
  0
APPID
  2
GEVIT
 70
     0
  0
APPID
  2
GENBH
 70
     0
  0
APPID
  2
GEVMK
 70
     0
  0
APPID
  2
GENIUS_GENBH_13
 70
     0
  0
APPID
  2
GENIUS_GENOBJ-NBEHI-BHF_13
 70
     0
  0
APPID
  2
GENIUS_GENOBJ-NBEHI-BHB_13
 70
     0
  0
APPID
  2
GENIUS_GENOBJ-F-DESC_13
 70
     0
  0
APPID
  2
GENIUS_GEFDESC_14
 70
     0
  0
APPID
  2
GENIUS_GENOBJ-F-PART_13
 70
     0
  0
APPID
  2
GENIUS_GEFSTDP_13
 70
     0
  0
APPID
  2
GENIUS_GEFPARTINS_13
 70
     0
  0
APPID
  2
GENIUS_GENTRA_14
 70
     0
  0
APPID
  2
GENIUS_GENINF13_13
 70
     0
  0
APPID
  2
GENIUS_GENOBJ-N-INFOPT_13
 70
     0
  0
APPID
  2
GENIUS_GENOBJ-N-RSSYM_13
 70
     0
  0
APPID
  2
GENIUS_GENSYMENT_13
 70
     0
  0
APPID
  2
GENIUS_GENSCSYM_13
 70
     0
  0
APPID
  2
GENIUS_GEFINFNAM_13
 70
     0
  0
APPID
  2
GENIUS_GENOBJ-N-CEN_13
 70
     0
  0
APPID
  2
GENIUS_GENOBJ-N-CRS_13
 70
     0
  0
APPID
  2
GENIUS_GENOBJ-N-CRC_13
 70
     0
  0
APPID
  2
GENIUS_GENCRC_14
 70
     0
  0
APPID
  2
GEVID942827039
 70
     0
  0
APPID
  2
GEVID942827040
 70
     0
  0
APPID
  2
GEVID942827041
 70
     0
  0
APPID
  2
GENIUS_GENOBJ-F-SCPASSM_13
 70
     0
  0
APPID
  2
GENIUS_GENDIMSH_14
 70
     0
  0
APPID
  2
GEVID942827042
 70
     0
  0
APPID
  2
GEVID946020473
 70
     0
  0
APPID
  2
GEVID946020474
 70
     0
  0
APPID
  2
GEVID946020475
 70
     0
  0
APPID
  2
GENIUS_GENOBJ-N-HTC_13
 70
     0
  0
APPID
  2
GENIUS_GENHATCH_13
 70
     0
  0
APPID
  2
GEVID948854295
 70
     0
  0
APPID
  2
GEVID939402019
 70
     0
  0
APPID
  2
GEVID952919491
 70
     0
  0
APPID
  2
GEVID952919492
 70
     0
  0
APPID
  2
GENIUS_GEFWELD_13
 70
     0
  0
APPID
  2
GENIUS_GENOBJ-F-WELS_13
 70
     0
  0
APPID
  2
GEVID952919493
 70
     0
  0
APPID
  2
GENIUS_GENOBJ-N-RSBK_13
 70
     0
  0
APPID
  2
GENIUS_GENOBJ-N-LIB_13
 70
     0
  0
APPID
  2
GENIUS_GENSCALE_13
 70
     0
  0
APPID
  2
GEVID986376691
 70
     0
  0
APPID
  2
DCO15
 70
     0
  0
APPID
  2
ACADM_DIM_EDIT
 70
     0
  0
APPID
  2
AMDT_DM_ADJ
 70
     0
  0
APPID
  2
ACAD_PSEXT
 70
     0
  0
APPID
  2
ACAD_DSTYLE_DIMJAG
 70
     0
  0
APPID
  2
ACAD_DSTYLE_DIMBREAK
 70
     0
  0
APPID
  2
ACAD_NAV_VCDISPLAY
 70
     0
  0
APPID
  2
ACADANNOPO
 70
     0
  0
APPID
  2
ACAD_EXEMPT_FROM_CAD_STANDARDS
 70
     0
  0
APPID
  2
ACAD_MLEADERVER
 70
     0
  0
ENDTAB
  0
TABLE
  2
DIMSTYLE
 70
    22
  0
DIMSTYLE
  2
STANDARD
 70
     0
  3

  4

  5

  6

  7

 40
1.0
 41
0.18
 42
0.0625
 43
0.38
 44
0.18
 45
0.0
 46
0.0
 47
0.0
 48
0.0
140
0.18
141
0.09
142
0.0
143
25.399999999999999
144
1.0
145
0.0
146
1.0
147
0.09
 71
     0
 72
     0
 73
     1
 74
     1
 75
     0
 76
     0
 77
     0
 78
     0
170
     0
171
     2
172
     0
173
     0
174
     0
175
     0
176
     0
177
     0
178
     0
  0
DIMSTYLE
  2
ANNOTATIVE
 70
     0
  3

  4

  5

  6

  7

 40
1.0
 41
0.18
 42
0.0625
 43
0.38
 44
0.18
 45
0.0
 46
0.0
 47
0.0
 48
0.0
140
0.18
141
0.09
142
0.0
143
25.399999999999999
144
1.0
145
0.0
146
1.0
147
0.09
 71
     0
 72
     0
 73
     1
 74
     1
 75
     0
 76
     0
 77
     0
 78
     0
170
     0
171
     2
172
     0
173
     0
174
     0
175
     0
176
     0
177
     0
178
     0
  0
DIMSTYLE
  2
AM_ISO
 70
     0
  3

  4
"
  5

  6

  7

 40
1.0
 41
2.5
 42
1.0
 43
8.0
 44
0.6
 45
0.0
 46
0.0
 47
0.1
 48
0.1
140
2.5
141
0.0
142
0.0
143
0.0393701
144
1.0
145
0.0
146
0.71
147
0.8
 71
     0
 72
     0
 73
     0
 74
     0
 75
     0
 76
     0
 77
     1
 78
     8
170
     0
171
     2
172
     1
173
     0
174
     0
175
     0
176
   256
177
   256
178
     4
  0
DIMSTYLE
  2
AM_ISO$3
 70
     0
  3

  4
"
  5

  6

  7

 40
1.0
 41
2.5
 42
1.0
 43
8.0
 44
0.6
 45
0.0
 46
0.0
 47
0.1
 48
0.1
140
2.5
141
0.0
142
0.0
143
0.0393701
144
1.0
145
0.0
146
0.71
147
0.8
 71
     0
 72
     0
 73
     0
 74
     1
 75
     0
 76
     0
 77
     1
 78
     8
170
     0
171
     2
172
     0
173
     0
174
     0
175
     0
176
   256
177
   256
178
     4
  0
DIMSTYLE
  2
AM_ISO$4
 70
     0
  3

  4
"
  5

  6

  7

 40
1.0
 41
2.5
 42
1.0
 43
8.0
 44
0.6
 45
0.0
 46
0.0
 47
0.1
 48
0.1
140
2.5
141
0.0
142
0.0
143
0.0393701
144
1.0
145
0.0
146
0.71
147
0.8
 71
     0
 72
     0
 73
     0
 74
     1
 75
     0
 76
     0
 77
     1
 78
     8
170
     0
171
     2
172
     0
173
     0
174
     0
175
     0
176
   256
177
   256
178
     4
  0
DIMSTYLE
  2
AM_ISO$6
 70
     0
  3

  4
"
  5

  6

  7

 40
1.0
 41
2.5
 42
1.0
 43
8.0
 44
0.6
 45
0.0
 46
0.0
 47
0.1
 48
0.1
140
2.5
141
0.0
142
0.0
143
0.0393701
144
1.0
145
0.0
146
0.71
147
0.8
 71
     0
 72
     0
 73
     0
 74
     0
 75
     0
 76
     0
 77
     0
 78
     8
170
     0
171
     2
172
     1
173
     0
174
     0
175
     0
176
   256
177
   256
178
     4
  0
DIMSTYLE
  2
AM_ISO$7
 70
     0
  3

  4
"
  5

  6

  7

 40
1.0
 41
2.5
 42
1.0
 43
8.0
 44
0.6
 45
0.0
 46
0.0
 47
0.1
 48
0.1
140
2.5
141
0.0
142
0.0
143
0.0393701
144
1.0
145
0.0
146
0.71
147
0.8
 71
     0
 72
     0
 73
     0
 74
     0
 75
     0
 76
     0
 77
     1
 78
     8
170
     0
171
     2
172
     1
173
     0
174
     0
175
     0
176
   256
177
   256
178
     4
  0
DIMSTYLE
  2
AM_ISO$SF
 70
     0
  3

  4
"
  5

  6

  7

 40
1.0
 41
2.5
 42
1.0
 43
10.0
 44
1.0
 45
0.0
 46
0.0
 47
0.1
 48
0.1
140
3.5
141
0.0
142
0.0
143
0.0393701
144
1.0
145
0.0
146
0.71
147
1.5
 71
     0
 72
     0
 73
     0
 74
     0
 75
     1
 76
     1
 77
     1
 78
     8
170
     0
171
     2
172
     1
173
     0
174
     0
175
     0
176
   256
177
   256
178
     2
  0
DIMSTYLE
  2
AM_ISO$SH
 70
     0
  3

  4
"
  5

  6

  7

 40
1.0
 41
2.5
 42
1.0
 43
10.0
 44
1.0
 45
0.0
 46
0.0
 47
0.1
 48
0.1
140
3.5
141
0.0
142
0.0
143
0.0393701
144
2.0
145
0.0
146
0.71
147
1.5
 71
     0
 72
     0
 73
     0
 74
     0
 75
     1
 76
     1
 77
     1
 78
     8
170
     0
171
     2
172
     1
173
     1
174
     0
175
     0
176
   256
177
   256
178
     2
  0
DIMSTYLE
  2
AM_JIS
 70
     0
  3

  4
"
  5

  6

  7

 40
1.0
 41
2.5
 42
1.0
 43
7.0
 44
1.0
 45
0.0
 46
0.0
 47
0.1
 48
0.1000000001
140
2.5
141
0.0
142
0.0
143
0.0393701
144
1.0
145
0.0
146
0.71
147
1.0
 71
     0
 72
     0
 73
     0
 74
     0
 75
     0
 76
     0
 77
     3
 78
     8
170
     0
171
     2
172
     1
173
     0
174
     0
175
     0
176
   256
177
   256
178
     4
  0
DIMSTYLE
  2
AM_JIS$3
 70
     0
  3

  4
"
  5

  6

  7

 40
1.0
 41
2.5
 42
1.0
 43
7.0
 44
1.0
 45
0.0
 46
0.0
 47
0.1
 48
0.1000000001
140
2.5
141
0.0
142
0.0
143
0.0393701
144
1.0
145
0.0
146
0.71
147
1.0
 71
     0
 72
     0
 73
     0
 74
     1
 75
     0
 76
     0
 77
     3
 78
     8
170
     0
171
     2
172
     0
173
     0
174
     0
175
     0
176
   256
177
   256
178
     4
  0
DIMSTYLE
  2
AM_JIS$4
 70
     0
  3

  4
"
  5

  6

  7

 40
1.0
 41
2.5
 42
1.0
 43
7.0
 44
1.0
 45
0.0
 46
0.0
 47
0.1
 48
0.1000000001
140
2.5
141
0.0
142
0.0
143
0.0393701
144
1.0
145
0.0
146
0.71
147
1.0
 71
     0
 72
     0
 73
     0
 74
     0
 75
     0
 76
     0
 77
     3
 78
     8
170
     0
171
     2
172
     0
173
     0
174
     0
175
     0
176
   256
177
   256
178
     4
  0
DIMSTYLE
  2
AM_JIS$6
 70
     0
  3

  4
"
  5

  6

  7

 40
1.0
 41
2.5
 42
1.0
 43
7.0
 44
1.0
 45
0.0
 46
0.0
 47
0.1
 48
0.1000000001
140
2.5
141
0.0
142
0.0
143
0.0393701
144
1.0
145
0.0
146
0.71
147
1.0
 71
     0
 72
     0
 73
     0
 74
     0
 75
     0
 76
     0
 77
     0
 78
     8
170
     0
171
     2
172
     1
173
     0
174
     0
175
     0
176
   256
177
   256
178
     4
  0
DIMSTYLE
  2
AM_JIS$7
 70
     0
  3

  4
"
  5

  6

  7

 40
1.0
 41
2.5
 42
1.0
 43
7.0
 44
1.0
 45
0.0
 46
0.0
 47
0.1
 48
0.1000000001
140
2.5
141
0.0
142
0.0
143
0.0393701
144
1.0
145
0.0
146
0.71
147
1.0
 71
     0
 72
     0
 73
     0
 74
     0
 75
     0
 76
     0
 77
     3
 78
     8
170
     0
171
     2
172
     1
173
     0
174
     0
175
     0
176
   256
177
   256
178
     4
  0
DIMSTYLE
  2
AM_JIS$SF
 70
     0
  3

  4
"
  5

  6

  7

 40
1.0
 41
2.5
 42
1.0
 43
10.0
 44
1.0
 45
0.0
 46
0.0
 47
0.1
 48
0.1
140
3.5
141
0.0
142
0.0
143
0.0393701
144
1.0
145
0.0
146
0.71
147
1.5
 71
     0
 72
     0
 73
     0
 74
     0
 75
     1
 76
     1
 77
     3
 78
     8
170
     0
171
     2
172
     1
173
     0
174
     0
175
     0
176
   256
177
   256
178
     4
  0
DIMSTYLE
  2
AM_JIS$SH
 70
     0
  3

  4
"
  5

  6

  7

 40
1.0
 41
2.5
 42
1.0
 43
10.0
 44
1.0
 45
0.0
 46
0.0
 47
0.1
 48
0.1
140
3.5
141
0.0
142
0.0
143
0.0393701
144
1.0
145
0.0
146
0.71
147
1.5
 71
     0
 72
     0
 73
     0
 74
     0
 75
     1
 76
     0
 77
     3
 78
     8
170
     0
171
     2
172
     1
173
     1
174
     0
175
     0
176
   256
177
   256
178
     4
  0
DIMSTYLE
  2
AM_ANSI
 70
     0
  3

  4
mm
  5

  6

  7

 40
1.0
 41
0.12
 42
0.05
 43
0.5
 44
0.1
 45
0.0
 46
0.0
 47
0.1
 48
0.1
140
0.12
141
0.0
142
0.0
143
25.399999999999999
144
1.0
145
0.0
146
0.71
147
0.06
 71
     0
 72
     0
 73
     1
 74
     1
 75
     0
 76
     0
 77
     0
 78
     7
170
     0
171
     2
172
     0
173
     0
174
     0
175
     0
176
   256
177
   256
178
     2
  0
DIMSTYLE
  2
AM_ANSI$3
 70
     0
  3

  4
mm
  5

  6

  7

 40
1.0
 41
0.12
 42
0.05
 43
0.5
 44
0.1
 45
0.0
 46
0.0
 47
0.1
 48
0.1
140
0.12
141
0.0
142
0.0
143
25.399999999999999
144
1.0
145
0.0
146
0.71
147
0.06
 71
     0
 72
     0
 73
     1
 74
     1
 75
     0
 76
     0
 77
     0
 78
     7
170
     0
171
     2
172
     0
173
     0
174
     0
175
     0
176
   256
177
   256
178
     2
  0
DIMSTYLE
  2
AM_ANSI$4
 70
     0
  3

  4
mm
  5

  6

  7

 40
1.0
 41
0.12
 42
0.05
 43
0.5
 44
0.1
 45
0.0
 46
0.0
 47
0.1
 48
0.1
140
0.12
141
0.0
142
0.0
143
25.399999999999999
144
1.0
145
0.0
146
0.71
147
0.06
 71
     0
 72
     0
 73
     1
 74
     1
 75
     0
 76
     0
 77
     0
 78
     7
170
     0
171
     2
172
     0
173
     0
174
     0
175
     0
176
   256
177
   256
178
     2
  0
DIMSTYLE
  2
AM_ANSI$7
 70
     0
  3

  4
mm
  5

  6

  7

 40
1.0
 41
0.12
 42
0.05
 43
0.5
 44
0.1
 45
0.0
 46
0.0
 47
0.1
 48
0.1
140
0.12
141
0.0
142
0.0
143
25.399999999999999
144
1.0
145
0.0
146
0.71
147
0.06
 71
     0
 72
     0
 73
     1
 74
     1
 75
     0
 76
     0
 77
     0
 78
     7
170
     0
171
     2
172
     0
173
     0
174
     0
175
     0
176
   256
177
   256
178
     2
  0
DIMSTYLE
  2
AM_ANSI$SF
 70
     0
  3

  4
mm
  5

  6

  7

 40
1.0
 41
0.12
 42
0.05
 43
0.5
 44
0.1
 45
0.0
 46
0.0
 47
0.1
 48
0.1
140
0.12
141
0.0
142
0.0
143
25.399999999999999
144
1.0
145
0.0
146
0.71
147
0.06
 71
     0
 72
     0
 73
     1
 74
     1
 75
     1
 76
     1
 77
     0
 78
     7
170
     0
171
     2
172
     0
173
     0
174
     0
175
     0
176
   256
177
   256
178
     2
  0
DIMSTYLE
  2
AM_ANSI$SH
 70
     0
  3

  4
mm
  5

  6
GENAXEH
  7

 40
1.0
 41
0.12
 42
0.05
 43
0.5
 44
0.1
 45
0.0
 46
0.0
 47
0.1
 48
0.1
140
0.12
141
0.0
142
0.0
143
25.399999999999999
144
1.0
145
0.0
146
0.71
147
0.06
 71
     0
 72
     0
 73
     1
 74
     1
 75
     1
 76
     1
 77
     0
 78
     7
170
     0
171
     2
172
     0
173
     1
174
     0
175
     0
176
   256
177
   256
178
     2
  0
ENDTAB
  0
ENDSEC
  0
SECTION
  2
BLOCKS
  0
BLOCK
  8
0
  2
$MODEL_SPACE
 70
     0
 10
0.0
 20
0.0
 30
0.0
  3
$MODEL_SPACE
  1

  0
ENDBLK
  5
6639
  8
0
  0
BLOCK
 67
     1
  8
0
  2
$PAPER_SPACE
 70
     0
 10
0.0
 20
0.0
 30
0.0
  3
$PAPER_SPACE
  1

  0
ENDBLK
  5
6635
 67
     1
  8
0
  0
BLOCK
  8
0
  2
GENAXEH
 70
     0
 10
0.0
 20
0.0
 30
0.0
  3
GENAXEH
  1

  0
LINE
  5
73
  8
0
 10
-1.0
 20
0.0
 30
0.0
 11
1.0
 21
0.0
 31
0.0
  0
ENDBLK
  5
75
  8
0
  0
BLOCK
  8
0
  2
_OPEN30
 70
     0
 10
0.0
 20
0.0
 30
0.0
  3
_OPEN30
  1

  0
LINE
  5
31A
  8
0
 62
     0
 10
-1.0
 20
0.26794919
 30
0.0
 11
0.0
 21
0.0
 31
0.0
  0
LINE
  5
31B
  8
0
 62
     0
 10
0.0
 20
0.0
 30
0.0
 11
-1.0
 21
-0.26794919
 31
0.0
  0
LINE
  5
31C
  8
0
 62
     0
 10
0.0
 20
0.0
 30
0.0
 11
-1.0
 21
0.0
 31
0.0
  0
ENDBLK
  5
31E
  8
0
  0
BLOCK
  8
0
  2
_NONE
 70
     0
 10
0.0
 20
0.0
 30
0.0
  3
_NONE
  1

  0
ENDBLK
  5
579
  8
0
  0
BLOCK
  8
0
  2
*U5
 70
     1
 10
0.0
 20
0.0
 30
0.0
  3
*U5
  1

  0
TEXT
  5
6544
  8
AM_0
 10
565.56919712001695
 20
552.46778462353222
 30
0.0
 40
10.0
  1
ＶＸ０４－０１５～０３０ＢＷ
 41
0.8299999999999999
  0
ENDBLK
  5
6546
  8
0
  0
BLOCK
  8
0
  2
_ACMFILLEDHALF
 70
     0
 10
0.0
 20
0.0
 30
0.0
  3
_ACMFILLEDHALF
  1

  0
TRACE
  5
6738
  8
AM_0
 62
     0
 10
-0.8
 20
0.0
 30
0.0
 11
-1.0
 21
0.166666666
 31
0.0
 12
0.0
 22
0.0
 32
0.0
 13
0.0
 23
0.0
 33
0.0
  0
LINE
  5
6739
  8
AM_0
 62
     0
 10
-1.0
 20
0.0
 30
0.0
 11
-0.8
 21
0.0
 31
0.0
  0
ENDBLK
  5
6737
  8
0
  0
ENDSEC
  0
SECTION
  2
ENTITIES
  0
LINE
  5
3412
  8
ﾁｭｳｼﾝｾﾝ
 10
452.45624705380931
 20
283.00455333586291
 30
0.0
 11
322.95839705380928
 21
283.00455333586291
 31
0.0
  0
LINE
  5
342B
  8
AM_0
 10
354.99530705380943
 20
313.52206833586291
 30
0.0
 11
357.99530705380943
 21
313.52206833586291
 31
0.0
  0
LINE
  5
342C
  8
AM_0
 10
354.99530705380943
 20
301.97504433586289
 30
0.0
 11
357.99530705380943
 21
301.97504433586289
 31
0.0
  0
LINE
  5
342D
  8
AM_0
 10
354.99530705380943
 20
304.86178833586308
 30
0.0
 11
357.99530705380943
 21
304.86178833586308
 31
0.0
  0
LINE
  5
342E
  8
AM_0
 10
354.99530705380943
 20
310.63528833586292
 30
0.0
 11
357.99530705380943
 21
310.63528833586292
 31
0.0
  0
LINE
  5
342F
  8
AM_0
 10
358.99526705380941
 20
302.97505833586291
 30
0.0
 11
358.99526705380941
 21
312.52207833586289
 31
0.0
  0
LINE
  5
3430
  8
AM_0
 10
354.99530705380943
 20
314.52205833586288
 30
0.0
 11
354.99530705380943
 21
300.97504533586311
 31
0.0
  0
LINE
  5
3432
  8
AM_0
 10
353.99531705380929
 20
314.52205833586288
 30
0.0
 11
354.99530705380943
 21
314.52205833586288
 31
0.0
  0
LINE
  5
3433
  8
AM_0
 10
353.99531705380929
 20
300.97504533586311
 30
0.0
 11
354.99530705380943
 21
300.97504533586311
 31
0.0
  0
LINE
  5
343F
  8
AM_0
 10
313.9953570538093
 20
188.0045673358629
 30
0.0
 11
338.9953170538094
 21
188.0045673358629
 31
0.0
  0
LINE
  5
3440
  8
AM_0
 10
315.99530705380943
 20
200.00458233586289
 30
0.0
 11
334.94465705380941
 21
200.00458233586289
 31
0.0
  0
LINE
  5
3441
  8
AM_0
 10
382.99532705380938
 20
188.0045673358629
 30
0.0
 11
407.99531705380929
 21
188.0045673358629
 31
0.0
  0
LINE
  5
3443
  8
AM_0
 10
342.99530705380943
 20
334.00456833586293
 30
0.0
 11
342.99530705380943
 21
218.8617153358629
 31
0.0
  0
LINE
  5
3444
  8
AM_0
 10
342.99530705380943
 20
334.00456833586293
 30
0.0
 11
387.12620705380942
 21
332.84893833586301
 31
0.0
  0
LINE
  5
3445
  8
AM_0
 10
396.5595570538095
 20
316.74259833586308
 30
0.0
 11
402.25682705380922
 21
316.2441483358628
 31
0.0
  0
LINE
  5
3446
  8
AM_0
 10
404.99531705380929
 20
313.25557833586288
 30
0.0
 11
404.99531705380929
 21
203.74913433586309
 31
0.0
  0
LINE
  5
3447
  8
AM_0
 10
313.9953570538093
 20
198.0045663358629
 30
0.0
 11
313.9953570538093
 21
188.0045673358629
 31
0.0
  0
LINE
  5
3448
  8
AM_0
 10
339.99530705380943
 20
189.004551335863
 30
0.0
 11
381.99530705380943
 21
189.004551335863
 31
0.0
  0
LINE
  5
3449
  8
AM_0
 10
407.99531705380929
 20
198.0045663358629
 30
0.0
 11
407.99531705380929
 21
188.0045673358629
 31
0.0
  0
LINE
  5
3451
  8
AM_0
 10
345.99530705380943
 20
270.22083333586301
 30
0.0
 11
345.99530705380943
 21
233.52904233586301
 31
0.0
  0
LINE
  5
3452
  8
AM_0
 10
383.99531705380929
 20
200.00458233586289
 30
0.0
 11
405.99530705380943
 21
200.00458233586289
 31
0.0
  0
LINE
  5
3455
  8
AM_0
 10
356.99531705380929
 20
314.53201833586292
 30
0.0
 11
391.99532705380938
 21
314.53201833586292
 31
0.0
  0
LINE
  5
3457
  8
AM_0
 10
338.9953170538094
 20
188.0045673358629
 30
0.0
 11
338.9953170538094
 21
188.0045673358629
 31
0.0
  0
LINE
  5
3458
  8
AM_0
 10
378.99530705380943
 20
292.79538633586287
 30
0.0
 11
378.99530705380943
 21
205.00456833586301
 31
0.0
  0
LINE
  5
345A
  8
AM_0
 10
391.99532705380938
 20
327.85066833586308
 30
0.0
 11
391.99532705380938
 21
219.045369335863
 31
0.0
  0
LINE
  5
345E
  8
AM_0
 10
378.99530705380943
 20
215.0453853358629
 30
0.0
 11
387.99530705380943
 21
215.0453853358629
 31
0.0
  0
LINE
  5
3463
  8
AM_0
 10
386.9953170538094
 20
300.79535733586289
 30
0.0
 11
391.99532705380938
 21
300.79535733586289
 31
0.0
  0
LINE
  5
3467
  8
AM_0
 10
382.99532705380938
 20
188.0045673358629
 30
0.0
 11
382.99532705380938
 21
188.0045673358629
 31
0.0
  0
LINE
  5
3468
  8
AM_0
 10
339.83582705380928
 20
203.96704533586299
 30
0.0
 11
345.88649705380948
 21
232.49152233586301
 31
0.0
  0
LINE
  5
3469
  8
AM_0
 10
353.99531705380929
 20
319.53133833586293
 30
0.0
 11
353.99531705380929
 21
296.62931133586289
 31
0.0
  0
LINE
  5
346C
  8
AM_0
 10
356.99531705380929
 20
333.55942833586289
 30
0.0
 11
356.99531705380929
 21
314.53201833586292
 31
0.0
  0
LINE
  5
346D
  8
AM_0
 10
356.99531705380929
 20
333.55939833586308
 30
0.0
 11
370.57730705380942
 21
314.53201833586292
 31
0.0
  0
LINE
  5
346E
  8
AM_0
 10
356.99531705380929
 20
296.35327833586308
 30
0.0
 11
356.99531705380929
 21
270.22083333586301
 31
0.0
  0
LINE
  5
346F
  8
AM_0
 10
369.82493705380938
 20
296.35327833586308
 30
0.0
 11
356.99531705380929
 21
270.22083333586301
 31
0.0
  0
LINE
  5
3470
  8
AM_0
 10
345.99530705380943
 20
270.22083333586301
 30
0.0
 11
356.99531705380929
 21
270.22083333586301
 31
0.0
  0
LINE
  5
3471
  8
AM_0
 10
356.99531705380929
 20
296.35327833586308
 30
0.0
 11
379.83002705380937
 21
296.35327833586308
 31
0.0
  0
LINE
  5
3472
  8
AM_0
 10
337.99535705380941
 20
334.00456833586293
 30
0.0
 11
342.99530705380943
 21
334.00456833586293
 31
0.0
  0
LINE
  5
3473
  8
AM_0
 10
305.9953170538094
 20
199.5045663358629
 30
0.0
 11
314.45723705380948
 21
199.2829803358629
 31
0.0
  0
LINE
  5
3474
  8
AM_0
 10
330.99530705380943
 20
312.50458833586288
 30
0.0
 11
330.99530705380943
 21
297.87189633586308
 31
0.0
  0
LINE
  5
3475
  8
AM_0
 10
305.9953170538094
 20
326.50456833586293
 30
0.0
 11
334.04768705380928
 21
327.23914833586292
 31
0.0
  0
LINE
  5
3476
  8
AM_0
 10
335.99531705380929
 20
332.00458833586288
 30
0.0
 11
335.99531705380929
 21
316.50454833586309
 31
0.0
  0
LINE
  5
3477
  8
ﾁｭｳｼﾝｾﾝ
 10
87.64036048134983
 20
263.004585335863
 30
0.0
 11
329.60920424960813
 21
263.004585335863
 31
0.0
  0
LINE
  5
3478
  8
AM_0
 10
330.99530705380943
 20
207.37457733586299
 30
0.0
 11
335.47529705380953
 21
207.37457733586299
 31
0.0
  0
LINE
  5
3479
  8
AM_0
 10
332.9953170538094
 20
200.40750633586291
 30
0.0
 11
333.99530705380943
 21
200.40750633586291
 31
0.0
  0
LINE
  5
347A
  8
AM_0
 10
330.99530705380943
 20
295.87189533586292
 30
0.0
 11
335.43599705380927
 21
295.87189533586292
 31
0.0
  0
LINE
  5
347B
  8
AM_0
 10
332.9953170538094
 20
305.39257833586288
 30
0.0
 11
335.99531705380929
 21
305.39257833586288
 31
0.0
  0
LINE
  5
347C
  8
AM_0
 10
332.9953170538094
 20
314.50456833586293
 30
0.0
 11
333.99530705380943
 21
314.50456833586293
 31
0.0
  0
LINE
  5
347D
  8
AM_0
 10
330.99530705380943
 20
205.37456133586301
 30
0.0
 11
330.99530705380943
 21
200.00458233586289
 31
0.0
  0
LINE
  5
347E
  8
AM_0
 10
335.99531705380929
 20
305.39257833586288
 30
0.0
 11
335.99531705380929
 21
202.40752233586289
 31
0.0
  0
LINE
  5
347F
  8
AM_0
 10
305.9953170538094
 20
314.50456833586293
 30
0.0
 11
331.99535705380941
 21
314.50456833586293
 31
0.0
  0
LINE
  5
3480
  8
AM_0
 10
305.9953170538094
 20
300.15250533586288
 30
0.0
 11
330.99530705380943
 21
300.15250533586288
 31
0.0
  0
LINE
  5
3481
  8
AM_0
 10
305.9953170538094
 20
225.85665033586301
 30
0.0
 11
335.99531705380929
 21
225.85665033586301
 31
0.0
  0
LINE
  5
3482
  8
AM_0
 10
305.9953170538094
 20
211.50456633586299
 30
0.0
 11
335.99531705380929
 21
211.50456633586299
 31
0.0
  0
LINE
  5
3495
  8
AM_0
 10
305.9953170538094
 20
326.50456833586293
 30
0.0
 11
305.9953170538094
 21
199.5045213358629
 31
0.0
  0
ARC
  5
3582
  8
AM_0
 10
357.99530705380943
 20
305.86180833586292
 30
0.0
 40
1.0000000199999981
 50
270.0
 51
0.0
  0
ARC
  5
3583
  8
AM_0
 10
357.99530705380943
 20
309.63532833586299
 30
0.0
 40
1.0000000199999981
 50
0.0
 51
90.00000299999769
  0
ARC
  5
3584
  8
AM_0
 10
357.99530705380943
 20
311.63527833586301
 30
0.0
 40
1.0000000199999981
 50
270.0
 51
0.0
  0
ARC
  5
3585
  8
AM_0
 10
357.99530705380943
 20
303.861798335863
 30
0.0
 40
1.0000000199999981
 50
0.0
 51
90.00000299999769
  0
ARC
  5
3586
  8
AM_0
 10
357.99530705380943
 20
302.97505833586291
 30
0.0
 40
1.0000000199999981
 50
270.0
 51
0.0
  0
ARC
  5
3587
  8
AM_0
 10
357.99530705380943
 20
312.52207833586289
 30
0.0
 40
1.0000000199999981
 50
0.0
 51
90.00000299999769
  0
ARC
  5
3589
  8
AM_0
 10
401.99531705380929
 20
313.25557833586288
 30
0.0
 40
3.0
 50
0.0
 51
84.999996999998885
  0
ARC
  5
358A
  8
AM_0
 10
396.99530705380943
 20
321.72358833586293
 30
0.0
 40
5.0000001000000003
 50
179.999989999999
 51
265.0
  0
ARC
  5
3595
  8
AM_0
 10
354.99530705380943
 20
319.53133833586293
 30
0.0
 40
1.0000000199999981
 50
90.00000299999769
 51
180.00001000000091
  0
ARC
  5
3596
  8
AM_0
 10
381.99530705380943
 20
188.0045673358629
 30
0.0
 40
1.0000000199999981
 50
0.0
 51
90.00000299999769
  0
ARC
  5
3597
  8
AM_0
 10
340.9953570538093
 20
233.52904233586301
 30
0.0
 40
5.0000001000000003
 50
348.0238700000001
 51
0.0
  0
ARC
  5
359C
  8
AM_0
 10
387.99530705380943
 20
219.045369335863
 30
0.0
 40
4.0000001999999979
 50
270.0
 51
0.0
  0
ARC
  5
35A0
  8
AM_0
 10
386.9953170538094
 20
327.85066833586308
 30
0.0
 40
5.0000001000000003
 50
0.0
 51
88.499997000000647
  0
ARC
  5
35A1
  8
AM_0
 10
409.99532705380921
 20
203.74913433586309
 30
0.0
 40
5.0000001000000003
 50
179.999989999999
 51
235.15011000000041
  0
ARC
  5
35A2
  8
AM_0
 10
405.99530705380943
 20
198.0045663358629
 30
0.0
 40
2.00000007
 50
0.0
 51
90.00000299999769
  0
ARC
  5
35A3
  8
AM_0
 10
315.99530705380943
 20
198.0045663358629
 30
0.0
 40
2.00000007
 50
90.00000299999769
 51
180.00001000000091
  0
ARC
  5
35A4
  8
AM_0
 10
339.99530705380943
 20
188.0045673358629
 30
0.0
 40
1.0000000199999981
 50
90.00000299999769
 51
180.00001000000091
  0
ARC
  5
35A7
  8
AM_0
 10
383.99531705380929
 20
205.00456833586301
 30
0.0
 40
5.0000001000000003
 50
180.00001000000091
 51
270.0
  0
ARC
  5
35AF
  8
AM_0
 10
386.9953170538094
 20
292.79538633586287
 30
0.0
 40
8.0000000999999976
 50
90.00000299999769
 51
180.00001000000091
  0
ARC
  5
35B0
  8
AM_0
 10
334.94465705380941
 20
205.00456833586301
 30
0.0
 40
5.0000001000000003
 50
270.0
 51
348.0238700000001
  0
ARC
  5
35BF
  8
AM_0
 10
354.99530705380943
 20
296.62931133586289
 30
0.0
 40
1.0000000199999981
 50
179.999989999999
 51
270.0
  0
ARC
  5
35C0
  8
AM_0
 10
354.99530705380943
 20
293.62931133586301
 30
0.0
 40
2.00000007
 50
0.0
 51
90.00000299999769
  0
ARC
  5
35C1
  8
AM_0
 10
354.99530705380943
 20
322.53133833586293
 30
0.0
 40
2.00000007
 50
270.0
 51
0.0
  0
ARC
  5
35C2
  8
AM_0
 10
337.99535705380941
 20
332.00458833586288
 30
0.0
 40
2.00000007
 50
90.00000299999769
 51
180.00001000000091
  0
ARC
  5
35C3
  8
AM_0
 10
333.99530705380943
 20
316.50454833586309
 30
0.0
 40
2.00000007
 50
270.0
 51
0.0
  0
ARC
  5
35C4
  8
AM_0
 10
332.9953170538094
 20
312.50458833586288
 30
0.0
 40
2.00000007
 50
90.00000299999769
 51
180.00001000000091
  0
ARC
  5
35C5
  8
AM_0
 10
332.9953170538094
 20
307.39258833586308
 30
0.0
 40
2.00000007
 50
179.999989999999
 51
270.0
  0
ARC
  5
35C6
  8
AM_0
 10
328.99535705380941
 20
297.87189633586308
 30
0.0
 40
2.00000007
 50
270.0
 51
0.0
  0
ARC
  5
35C7
  8
AM_0
 10
333.99530705380943
 20
202.40752233586289
 30
0.0
 40
2.00000007
 50
270.0
 51
0.0
  0
ARC
  5
35C8
  8
AM_0
 10
332.9953170538094
 20
198.40750533586299
 30
0.0
 40
2.00000007
 50
90.00000299999769
 51
127.01006999999861
  0
ARC
  5
35C9
  8
AM_0
 10
328.99535705380941
 20
205.37456133586301
 30
0.0
 40
2.00000007
 50
0.0
 51
90.00000299999769
  0
ARC
  5
35D0
  8
AM_0
 10
333.99530705380943
 20
329.23846833586288
 30
0.0
 40
2.00000007
 50
271.50000000000267
 51
0.0
  0
LINE
  5
3F5E
  8
ﾁｭｳｼﾝｾﾝ
 10
603.18551837507482
 20
283.00455333586291
 30
0.0
 11
700.09692386166785
 21
283.00455333586291
 31
0.0
  0
LINE
  5
3F5F
  8
AM_0
 10
415.99526705380919
 20
295.00453833586278
 30
0.0
 11
449.99531705380917
 21
295.00453833586278
 31
0.0
  0
LINE
  5
3F60
  8
AM_0
 10
449.99531705380917
 20
298.00453833586278
 30
0.0
 11
449.99531705380917
 21
271.00455333586291
 31
0.0
  0
LINE
  5
3F61
  8
AM_0
 10
415.99526705380919
 20
271.00455333586291
 30
0.0
 11
449.99531705380917
 21
271.00455333586291
 31
0.0
  0
LINE
  5
3F63
  8
ﾁｭｳｼﾝｾﾝ
 10
651.64122111837128
 20
373.0561945483326
 30
0.0
 11
651.64122111837128
 21
183.77028033586279
 31
0.0
  0
LINE
  5
3F64
  8
AM_0
 10
417.99527705380922
 20
298.00453833586278
 30
0.0
 11
417.99527705380922
 21
295.00453833586278
 31
0.0
  0
LINE
  5
3F65
  8
AM_0
 10
594.08339211837153
 20
302.02444833586293
 30
0.0
 11
598.66379211837136
 21
305.53915833586291
 31
0.0
  0
LINE
  5
3F66
  8
AM_0
 10
598.66379211837136
 20
305.5391283358627
 30
0.0
 11
597.91019211837136
 21
311.26324833586278
 31
0.0
  0
LINE
  5
3F67
  8
AM_0
 10
597.91019211837136
 20
311.26321833586269
 30
0.0
 11
592.57619211837118
 21
313.47265833586277
 31
0.0
  0
LINE
  5
3F68
  8
AM_0
 10
592.57622211837156
 20
313.47265833586277
 30
0.0
 11
587.99576211837154
 21
309.95797833586278
 31
0.0
  0
LINE
  5
3F69
  8
AM_0
 10
587.99576211837154
 20
309.95797833586278
 30
0.0
 11
588.74933211837163
 21
304.23385833586281
 31
0.0
  0
LINE
  5
3F6A
  8
AM_0
 10
588.74933211837163
 20
304.23385833586281
 30
0.0
 11
594.08336211837161
 21
302.02441833586278
 31
0.0
  0
LINE
  5
3F6B
  8
AM_0
 10
704.61869811837141
 20
305.53903833586281
 30
0.0
 11
709.19912811837116
 21
302.02435833586281
 31
0.0
  0
LINE
  5
3F6C
  8
AM_0
 10
705.37227111837115
 20
311.2631583358629
 30
0.0
 11
704.6186681183716
 21
305.53903833586281
 31
0.0
  0
LINE
  5
3F6D
  8
AM_0
 10
710.70631611837132
 20
313.47259833586281
 30
0.0
 11
705.37228611837122
 21
311.26318833586282
 31
0.0
  0
LINE
  5
3F6E
  8
AM_0
 10
715.2867461183713
 20
309.95788833586289
 30
0.0
 11
710.70631611837132
 21
313.47256833586289
 31
0.0
  0
LINE
  5
3F6F
  8
AM_0
 10
709.19912811837116
 20
302.02438833586268
 30
0.0
 11
714.53315811837115
 21
304.2337983358629
 31
0.0
  0
LINE
  5
3F70
  8
AM_0
 10
675.18805011837162
 20
198.61410933586279
 30
0.0
 11
674.43446511837135
 21
192.89000133586279
 31
0.0
  0
LINE
  5
3F71
  8
AM_0
 10
674.43448011837131
 20
192.88998633586289
 30
0.0
 11
679.01490711837118
 21
189.37530933586291
 31
0.0
  0
LINE
  5
3F72
  8
AM_0
 10
680.5221101183713
 20
200.8235343358628
 30
0.0
 11
675.18808011837132
 21
198.61410933586279
 31
0.0
  0
LINE
  5
3F73
  8
AM_0
 10
685.10252511837132
 20
197.30882433586279
 30
0.0
 11
680.52209511837157
 21
200.8235193358629
 31
0.0
  0
LINE
  5
3F74
  8
AM_0
 10
679.01490711837118
 20
189.37532433586281
 30
0.0
 11
684.34893711837128
 21
191.5847493358628
 31
0.0
  0
LINE
  5
3F75
  8
AM_0
 10
684.34890711837124
 20
191.58473433586289
 30
0.0
 11
685.10251011837136
 21
197.30884233586281
 31
0.0
  0
LINE
  5
3F76
  8
AM_0
 10
628.84797711837155
 20
192.89001633586281
 30
0.0
 11
628.09437411837155
 21
198.61412433586281
 31
0.0
  0
LINE
  5
3F77
  8
AM_0
 10
624.26753211837115
 20
189.37532433586281
 30
0.0
 11
628.84797711837155
 21
192.89000133586279
 31
0.0
  0
LINE
  5
3F78
  8
AM_0
 10
628.09440411837136
 20
198.61409433586289
 30
0.0
 11
622.76038911837145
 21
200.8235193358629
 31
0.0
  0
LINE
  5
3F79
  8
AM_0
 10
622.76035911837118
 20
200.8235343358628
 30
0.0
 11
618.17994411837128
 21
197.30884233586281
 31
0.0
  0
LINE
  5
3F7A
  8
AM_0
 10
618.93354711837139
 20
191.58471933586279
 30
0.0
 11
624.26756211837153
 21
189.37529133586281
 31
0.0
  0
LINE
  5
3F7B
  8
AM_0
 10
618.17991411837124
 20
197.3088573358628
 30
0.0
 11
618.93351711837147
 21
191.5847493358628
 31
0.0
  0
LINE
  5
3F7C
  8
AM_0
 10
655.64120511837132
 20
298.00453833586278
 30
0.0
 11
655.64120511837132
 21
291.00454833586281
 31
0.0
  0
LINE
  5
3F7D
  8
AM_0
 10
647.64121911837162
 20
298.00453833586278
 30
0.0
 11
647.64121911837162
 21
291.00454833586281
 31
0.0
  0
LINE
  5
3F7E
  8
AM_0
 10
647.64121911837162
 20
298.00453833586278
 30
0.0
 11
655.64120511837132
 21
298.00453833586278
 31
0.0
  0
LINE
  5
3F7F
  8
AM_0
 10
647.64121911837162
 20
291.00454833586281
 30
0.0
 11
655.64120511837132
 21
291.00454833586281
 31
0.0
  0
LINE
  5
3F80
  8
AM_0
 10
417.99527705380922
 20
298.00453833586278
 30
0.0
 11
449.99531705380917
 21
298.00453833586278
 31
0.0
  0
LINE
  5
3F8D
  8
AM_0
 10
715.28668311837146
 20
309.95794833586291
 30
0.0
 11
714.53309811837141
 21
304.23385833586281
 31
0.0
  0
LINE
  5
3F97
  8
AM_0
 10
729.64122111837139
 20
200.0045643358628
 30
0.0
 11
718.87280511837139
 21
302.63473833586278
 31
0.0
  0
LINE
  5
3F98
  8
AM_0
 10
697.64123511837136
 20
191.0045643358628
 30
0.0
 11
693.64122111837116
 21
191.0045643358628
 31
0.0
  0
LINE
  5
3F99
  8
AM_0
 10
698.64122211837162
 20
189.00458133586289
 30
0.0
 11
604.6412621183714
 21
189.00458133586289
 31
0.0
  0
LINE
  5
3F9A
  8
AM_0
 10
609.64121811837128
 20
191.0045643358628
 30
0.0
 11
605.64121911837162
 21
191.0045643358628
 31
0.0
  0
LINE
  5
3F9B
  8
AM_0
 10
690.64122111837116
 20
200.0045643358628
 30
0.0
 11
690.64122111837116
 21
194.0045643358628
 31
0.0
  0
LINE
  5
3F9C
  8
AM_0
 10
699.64122111837139
 20
188.0045643358628
 30
0.0
 11
699.64122111837139
 21
198.00458133586289
 31
0.0
  0
LINE
  5
3F9D
  8
ﾁｭｳｼﾝｾﾝ1
 10
586.64123211837125
 20
204.5500203358628
 30
0.0
 11
586.64123211837125
 21
183.45910833586279
 31
0.0
  0
LINE
  5
3F9E
  8
ﾁｭｳｼﾝｾﾝ1
 10
716.64123711837146
 20
204.5500203358628
 30
0.0
 11
716.64123711837146
 21
183.45910833586279
 31
0.0
  0
LINE
  5
3F9F
  8
AM_0
 10
617.64121911837151
 20
205.00456533586291
 30
0.0
 11
685.64123511837136
 21
205.00456533586291
 31
0.0
  0
LINE
  5
3FAF
  8
ｶｸﾚｾﾝ2
 10
592.6412621183714
 20
200.0045643358628
 30
0.0
 11
592.6412621183714
 21
188.0045643358628
 31
0.0
  0
LINE
  5
3FB0
  8
ｶｸﾚｾﾝ2
 10
580.6412621183714
 20
200.0045643358628
 30
0.0
 11
580.6412621183714
 21
188.0045643358628
 31
0.0
  0
LINE
  5
3FB1
  8
AM_0
 10
573.64121211837153
 20
188.0045643358628
 30
0.0
 11
573.64121211837153
 21
200.0045643358628
 31
0.0
  0
LINE
  5
3FB2
  8
AM_0
 10
573.64121211837153
 20
188.0045643358628
 30
0.0
 11
603.64121211837153
 21
188.0045643358628
 31
0.0
  0
LINE
  5
3FB3
  8
AM_0
 10
601.6412621183714
 20
200.0045643358628
 30
0.0
 11
575.64122211837127
 21
200.0045643358628
 31
0.0
  0
LINE
  5
3FB8
  8
ｶｸﾚｾﾝ2
 10
710.64122211837162
 20
200.0045643358628
 30
0.0
 11
710.64122211837162
 21
188.0045643358628
 31
0.0
  0
LINE
  5
3FBD
  8
AM_0
 10
573.64121211837153
 20
200.0045643358628
 30
0.0
 11
584.40965211837135
 21
302.63473833586278
 31
0.0
  0
LINE
  5
3FBF
  8
ｶｸﾚｾﾝ2
 10
722.64123711837135
 20
200.0045643358628
 30
0.0
 11
722.64123711837135
 21
188.0045643358628
 31
0.0
  0
LINE
  5
3FC0
  8
AM_0
 10
729.64122111837139
 20
188.0045643358628
 30
0.0
 11
699.64122111837139
 21
188.0045643358628
 31
0.0
  0
LINE
  5
3FC1
  8
AM_0
 10
701.64122211837162
 20
200.0045643358628
 30
0.0
 11
727.64123811837135
 21
200.0045643358628
 31
0.0
  0
LINE
  5
3FC3
  8
AM_0
 10
612.64121811837117
 20
200.0045643358628
 30
0.0
 11
612.64121811837117
 21
194.0045643358628
 31
0.0
  0
LINE
  5
3FC4
  8
AM_0
 10
603.64121211837153
 20
188.0045643358628
 30
0.0
 11
603.64121211837153
 21
198.00458133586289
 31
0.0
  0
LINE
  5
3FC5
  8
AM_0
 10
704.6412221183715
 20
298.25710833586288
 30
0.0
 11
704.6412221183715
 21
237.0045513358628
 31
0.0
  0
LINE
  5
3FC6
  8
AM_0
 10
729.64122111837139
 20
188.0045643358628
 30
0.0
 11
729.64122111837139
 21
200.0045643358628
 31
0.0
  0
LINE
  5
3FC8
  8
AM_0
 10
598.64126211837117
 20
298.25710833586288
 30
0.0
 11
598.64126211837117
 21
237.0045513358628
 31
0.0
  0
LINE
  5
3FC9
  8
AM_0
 10
603.64121211837153
 20
268.00455333586291
 30
0.0
 11
603.64121211837153
 21
205.00456533586291
 31
0.0
  0
LINE
  5
3FCA
  8
AM_0
 10
699.64122111837139
 20
268.00455333586291
 30
0.0
 11
699.64122111837139
 21
205.00456533586291
 31
0.0
  0
LINE
  5
3FDE
  8
ﾁｭｳｼﾝｾﾝ
 10
725.81561121630045
 20
263.0045523358628
 30
0.0
 11
524.62648097501858
 21
263.0045523358628
 31
0.0
  0
CIRCLE
  5
3FDF
  8
AM_0
 10
593.32976211837115
 20
307.74853833586292
 30
0.0
 40
4.9999998000000003
  0
CIRCLE
  5
3FE0
  8
AM_0
 10
709.95269811837136
 20
307.7484783358629
 30
0.0
 40
4.9999998000000003
  0
CIRCLE
  5
3FE1
  8
AM_0
 10
679.76846211837153
 20
195.09942933586279
 30
0.0
 40
4.9999998000000003
  0
CIRCLE
  5
3FE2
  8
AM_0
 10
623.51392911837115
 20
195.09942933586279
 30
0.0
 40
4.9999998000000003
  0
ARC
  5
3FE3
  8
AM_0
 10
651.64122111837128
 20
283.00455333586291
 30
0.0
 40
12.0000003
 50
109.4712200000001
 51
70.52878900000546
  0
CIRCLE
  5
3FED
  8
AM_0
 62
     2
 10
651.64122111837128
 20
283.00455333586291
 30
0.0
 40
4.0000001999999979
  0
CIRCLE
  5
3FEE
  8
AM_0
 10
651.64122111837128
 20
283.00455333586291
 30
0.0
 40
3.0
  0
ARC
  5
3FF2
  8
AM_0
 10
712.22935611837136
 20
293.87653833586279
 30
0.0
 40
3.0
 50
27.000573000003559
 51
84.294260999995842
  0
ARC
  5
3FF5
  8
AM_0
 10
591.05309211837164
 20
293.87653833586279
 30
0.0
 40
3.0
 50
95.705737999992436
 51
152.999419999997
  0
ARC
  5
3FF6
  8
AM_0
 10
598.64126211837117
 20
205.00456533586291
 30
0.0
 40
5.0000001000000003
 50
270.0
 51
0.0
  0
ARC
  5
3FF7
  8
AM_0
 10
603.64121211837153
 20
298.25710833586288
 30
0.0
 40
5.0000001000000003
 50
138.71941000000211
 51
180.00001000000091
  0
ARC
  5
3FF8
  8
AM_0
 10
606.13978311837138
 20
313.53790833586282
 30
0.0
 40
3.0
 50
132.00064999999441
 51
189.2943400000016
  0
ARC
  5
3FF9
  8
AM_0
 10
699.64122111837139
 20
298.25710833586288
 30
0.0
 40
5.0000001000000003
 50
0.0
 51
41.280591000003277
  0
ARC
  5
3FFA
  8
AM_0
 10
698.64122211837162
 20
188.0045643358628
 30
0.0
 40
1.0000000199999981
 50
0.0
 51
90.00000299999769
  0
ARC
  5
3FFB
  8
AM_0
 10
604.6412621183714
 20
188.0045643358628
 30
0.0
 40
1.0000000199999981
 50
90.00000299999769
 51
180.00001000000091
  0
ARC
  5
3FFC
  8
AM_0
 10
609.64121811837128
 20
194.0045643358628
 30
0.0
 40
3.0
 50
270.0
 51
0.0
  0
ARC
  5
3FFD
  8
AM_0
 10
605.64121911837162
 20
189.00458133586289
 30
0.0
 40
2.00000007
 50
90.00000299999769
 51
180.00001000000091
  0
ARC
  5
3FFE
  8
AM_0
 10
696.70846611837135
 20
318.84097833586299
 30
0.0
 40
5.0000001000000003
 50
334.93703000000107
 51
64.582444000007499
  0
ARC
  5
4002
  8
AM_0
 10
651.64122111837128
 20
263.0045523358628
 30
0.0
 40
71.000000999999983
 50
5.9898141999989969
 51
27.000573000003559
  0
ARC
  5
4003
  8
AM_0
 10
575.64122211837127
 20
198.00458133586289
 30
0.0
 40
2.00000007
 50
90.00000299999769
 51
180.00001000000091
  0
ARC
  5
4005
  8
AM_0
 10
651.64122111837128
 20
268.00455333586291
 30
0.0
 40
48.0
 50
0.0
 51
77.663515021271778
  0
ARC
  5
4006
  8
AM_0
 10
651.64122111837128
 20
268.00455333586291
 30
0.0
 40
48.0
 50
102.33648497872819
 51
180.00001000000091
  0
ARC
  5
4008
  8
AM_0
 10
589.36295211837125
 20
310.79230833586269
 30
0.0
 40
13.9999986
 50
266.80063999999248
 51
25.062968999998159
  0
ARC
  5
4009
  8
AM_0
 10
704.6412221183715
 20
205.00456533586291
 30
0.0
 40
5.0000001000000003
 50
179.999989999999
 51
270.0
  0
ARC
  5
400A
  8
AM_0
 10
693.64122111837116
 20
194.0045643358628
 30
0.0
 40
3.0
 50
179.999989999999
 51
270.0
  0
ARC
  5
4010
  8
AM_0
 10
601.6412621183714
 20
198.00458133586289
 30
0.0
 40
2.00000007
 50
0.0
 51
90.00000299999769
  0
ARC
  5
4011
  8
AM_0
 10
713.91949611837117
 20
310.79230833586269
 30
0.0
 40
13.9999986
 50
154.93704000000471
 51
273.19937000000078
  0
ARC
  5
4013
  8
AM_0
 10
727.64123811837135
 20
198.00458133586289
 30
0.0
 40
2.00000007
 50
0.0
 51
90.00000299999769
  0
ARC
  5
4014
  8
AM_0
 10
617.64121911837151
 20
200.0045643358628
 30
0.0
 40
5.0000001000000003
 50
90.00000299999769
 51
180.00001000000091
  0
ARC
  5
4015
  8
AM_0
 10
651.64122111837128
 20
263.0045523358628
 30
0.0
 40
71.000000999999983
 50
47.99935899999911
 51
132.00064999999441
  0
ARC
  5
4016
  8
AM_0
 10
701.64122211837162
 20
198.00458133586289
 30
0.0
 40
2.00000007
 50
90.00000299999769
 51
180.00001000000091
  0
ARC
  5
4017
  8
AM_0
 10
685.64123511837136
 20
200.0045643358628
 30
0.0
 40
5.0000001000000003
 50
0.0
 51
90.00000299999769
  0
ARC
  5
4018
  8
AM_0
 10
651.64122111837128
 20
263.0045523358628
 30
0.0
 40
71.000000999999983
 50
152.999419999997
 51
174.01019000000019
  0
ARC
  5
401B
  8
AM_0
 10
632.64121911837162
 20
237.0045513358628
 30
0.0
 40
34.000002000000002
 50
179.999989999999
 51
211.46696999999929
  0
ARC
  5
401C
  8
AM_0
 10
714.97989111837137
 20
291.8218983358629
 30
0.0
 40
5.0000001000000003
 50
5.9898155000026119
 51
93.199358999991276
  0
ARC
  5
401D
  8
AM_0
 10
697.64123511837136
 20
189.00458133586289
 30
0.0
 40
2.00000007
 50
0.0
 51
90.00000299999769
  0
ARC
  5
401E
  8
AM_0
 10
670.6412351183717
 20
237.0045513358628
 30
0.0
 40
34.000002000000002
 50
328.53302000000161
 51
0.0
  0
ARC
  5
401F
  8
AM_0
 10
406.99529705380951
 20
312.39130833586279
 30
0.0
 40
2.00000007
 50
179.999989999999
 51
240.0000100000054
  0
ARC
  5
4020
  8
AM_0
 10
406.99529705380951
 20
253.61780133586279
 30
0.0
 40
2.00000007
 50
120.0000000000001
 51
180.00001000000091
  0
ARC
  5
4021
  8
AM_0
 10
604.30046211837123
 20
300.54769833586289
 30
0.0
 40
20.000000700000001
 50
121.7361700000021
 51
174.01019000000019
  0
ARC
  5
4022
  8
AM_0
 10
698.98199511837117
 20
300.54769833586289
 30
0.0
 40
20.000000700000001
 50
5.9898155000026119
 51
58.263835999999969
  0
ARC
  5
4023
  8
AM_0
 10
606.57398811837163
 20
318.84097833586299
 30
0.0
 40
5.0000001000000003
 50
115.41756000000269
 51
205.06296999999901
  0
ARC
  5
4024
  8
AM_0
 10
651.64122111837128
 20
224.00456733586279
 30
0.0
 40
110.000004
 50
58.263835999999969
 51
121.7361700000021
  0
ARC
  5
4025
  8
AM_0
 10
697.14268611837133
 20
313.53790833586282
 30
0.0
 40
3.0
 50
350.70566999999772
 51
47.99935899999911
  0
ARC
  5
4026
  8
AM_0
 10
588.30257211837124
 20
291.8218983358629
 30
0.0
 40
5.0000001000000003
 50
86.800639000002249
 51
174.01019000000019
  0
LINE
  5
404B
  8
AM_0
 10
410.99526705380907
 20
316.50455033586292
 30
0.0
 11
415.99526705380919
 21
311.50455033586292
 31
0.0
  0
LINE
  5
404C
  8
AM_0
 10
406.49526705380907
 20
316.50455033586292
 30
0.0
 11
410.99526705380907
 21
316.50455033586292
 31
0.0
  0
LINE
  5
404D
  8
AM_0
 10
405.99526705380907
 20
316.00455033586292
 30
0.0
 11
405.99526705380879
 21
250.0045503358634
 31
0.0
  0
LINE
  5
404E
  8
AM_0
 10
415.99526705380919
 20
311.50455033586292
 30
0.0
 11
415.99526705380919
 21
254.504550335863
 31
0.0
  0
LINE
  5
404F
  8
AM_0
 10
406.49526705380907
 20
249.50455033586289
 30
0.0
 11
410.99526705380907
 21
249.50455033586289
 31
0.0
  0
LINE
  5
4050
  8
AM_0
 10
410.99526705380907
 20
249.50455033586289
 30
0.0
 11
415.99526705380919
 21
254.504550335863
 31
0.0
  0
LINE
  5
4051
  8
AM_0
 10
406.49526705380907
 20
316.50455033586292
 30
0.0
 11
405.99526705380907
 21
316.00455033586292
 31
0.0
1001
GENIUS_GENFIL_13
1070
     0
1040
0.5
1040
0.5
1040
20.0
1040
0.0
1002
{
1002
}
1001
GENIUS_GENOBJ-N-CHA_13
1002
{
1000
OWNER
1000
GEN
1002
}
1001
GENIUS_GENODEF_13
1002
{
1000
HIER
1070
     0
1002
}
1002
{
1000
MANEDIT
1070
     0
1002
}
1002
{
1000
NOSEL
1070
     0
1002
}
1002
{
1000
BEHIND
1070
     0
1002
}
1002
{
1000
OTHER
1070
     0
1002
}
1002
{
1000
REACTOR
1002
}
  0
LINE
  5
4052
  8
AM_0
 10
405.99526705380907
 20
250.00455033586289
 30
0.0
 11
406.49526705380907
 21
249.50455033586289
 31
0.0
1001
GENIUS_GENFIL_13
1070
     0
1040
0.5
1040
0.5
1040
20.0
1040
0.0
1002
{
1002
}
1001
GENIUS_GENOBJ-N-CHA_13
1002
{
1000
OWNER
1000
GEN
1002
}
1001
GENIUS_GENODEF_13
1002
{
1000
HIER
1070
     0
1002
}
1002
{
1000
MANEDIT
1070
     0
1002
}
1002
{
1000
NOSEL
1070
     0
1002
}
1002
{
1000
BEHIND
1070
     0
1002
}
1002
{
1000
OTHER
1070
     0
1002
}
1002
{
1000
REACTOR
1002
}
  0
LINE
  5
4053
  8
AM_0
 10
410.99526705380907
 20
316.50455033586292
 30
0.0
 11
410.99526705380907
 21
249.50455033586289
 31
0.0
  0
CIRCLE
  5
4054
  8
AM_0
 10
651.64122111837128
 20
283.00455333586291
 30
0.0
 40
33.499999999999893
  0
CIRCLE
  5
4055
  8
AM_0
 10
651.64122111837128
 20
283.00455333586291
 30
0.0
 40
28.49999999999994
  0
LINE
  5
4472
  8
ﾁｭｳｼﾝｾﾝ1
 10
395.99531705380952
 20
204.55003833586289
 30
0.0
 11
395.99531705380952
 21
183.45912633586289
 31
0.0
  0
LINE
  5
4473
  8
ｶｸﾚｾﾝ2
 10
401.99534705380933
 20
200.00458233586289
 30
0.0
 11
401.99534705380933
 21
188.00458233586289
 31
0.0
  0
LINE
  5
4474
  8
ｶｸﾚｾﾝ2
 10
389.99534705380938
 20
200.00458233586289
 30
0.0
 11
389.99534705380938
 21
188.00458233586289
 31
0.0
  0
LINE
  5
4475
  8
ﾁｭｳｼﾝｾﾝ1
 10
325.9953570538093
 20
204.55003833586289
 30
0.0
 11
325.9953570538093
 21
183.45912633586289
 31
0.0
  0
LINE
  5
4476
  8
ｶｸﾚｾﾝ2
 10
331.99538705380922
 20
200.00458233586289
 30
0.0
 11
331.99538705380922
 21
188.00458233586289
 31
0.0
  0
LINE
  5
4477
  8
ｶｸﾚｾﾝ2
 10
319.99538705380922
 20
200.00458233586289
 30
0.0
 11
319.99538705380922
 21
188.00458233586289
 31
0.0
  0
LINE
  5
44FE
  8
AM_0
 10
575.64122111837139
 20
229.5026829082754
 30
0.0
 11
575.64122111837139
 21
296.5026829082754
 31
0.0
  0
LINE
  5
44FF
  8
AM_0
 10
574.64122111837139
 20
296.5026829082754
 30
0.0
 11
577.64122111837116
 21
296.5026829082754
 31
0.0
  0
LINE
  5
4500
  8
AM_0
 10
536.64122111837105
 20
217.0026829082754
 30
0.0
 11
572.71102011177629
 21
218.26226804453771
 31
0.0
  0
LINE
  5
4501
  8
AM_0
 10
574.64122111837139
 20
220.2610496985759
 30
0.0
 11
574.64122111837139
 21
305.7443161179749
 31
0.0
  0
ARC
  5
4502
  8
AM_0
 10
572.64122111837128
 20
220.2610496985759
 30
0.0
 40
2.0
 50
271.9999999999971
 51
0.0
1001
GENIUS_GENODEF_13
1002
{
1000
HIER
1070
     0
1002
}
1002
{
1000
MANEDIT
1070
     0
1002
}
1002
{
1000
NOSEL
1070
     0
1002
}
1002
{
1000
BEHIND
1070
     0
1002
}
1002
{
1000
OTHER
1070
     0
1002
}
1002
{
1000
REACTOR
1002
}
1001
GENIUS_GENOBJ-N-FIL_13
1002
{
1000
OWNER
1000
GEN
1002
}
  0
LINE
  5
4503
  8
AM_0
 10
572.71102011177629
 20
307.74309777201307
 30
0.0
 11
536.64122111837116
 21
309.00268290827552
 31
0.0
  0
ARC
  5
4504
  8
AM_0
 10
572.64122111837128
 20
305.7443161179749
 30
0.0
 40
2.0
 50
0.0
 51
88.000000000002899
1001
GENIUS_GENOBJ-N-FIL_13
1002
{
1000
OWNER
1000
GEN
1002
}
1001
GENIUS_GENODEF_13
1002
{
1000
HIER
1070
     0
1002
}
1002
{
1000
MANEDIT
1070
     0
1002
}
1002
{
1000
NOSEL
1070
     0
1002
}
1002
{
1000
BEHIND
1070
     0
1002
}
1002
{
1000
OTHER
1070
     0
1002
}
1002
{
1000
REACTOR
1002
}
  0
LINE
  5
4505
  8
AM_0
 10
536.64122111837116
 20
309.00268290827552
 30
0.0
 11
536.64122111837105
 21
217.00268290827509
 31
0.0
  0
LINE
  5
4506
  8
ﾁｭｳｼﾝｾﾝ1
 10
525.64122111837128
 20
222.002682908276
 30
0.0
 11
541.46874413090802
 21
222.00268290827589
 31
0.0
  0
LINE
  5
4507
  8
AM_0
 10
532.64122111837139
 20
309.00268290827552
 30
0.0
 11
532.64122111837139
 21
288.18817800874308
 31
0.0
  0
LINE
  5
4508
  8
AM_0
 10
532.64122111837105
 20
237.8171878078077
 30
0.0
 11
532.64122111837105
 21
217.0026829082762
 31
0.0
  0
LINE
  5
4509
  8
AM_0
 10
528.64122111837139
 20
302.86690123911478
 30
0.0
 11
528.64122111837105
 21
223.13846457743591
 31
0.0
  0
LINE
  5
450A
  8
AM_0
 10
530.58228360624332
 20
225.91003788058239
 30
0.0
 11
531.64122111837105
 21
226.00268290827589
 31
0.0
  0
LINE
  5
450B
  8
AM_0
 10
530.58228360624332
 20
218.09532793596949
 30
0.0
 11
531.64122111837105
 21
218.00268290827589
 31
0.0
  0
ARC
  5
450C
  8
AM_0
 10
535.04122111837148
 20
222.00268290827589
 30
0.0
 40
6.5
 50
151.82726586813479
 51
208.1727341318651
  0
ARC
  5
450D
  8
AM_0
 10
530.72173279463993
 20
219.68923945291621
 30
0.0
 40
1.6000000000000001
 50
208.1727341318651
 51
265.00000000000028
  0
LINE
  5
450E
  8
AM_0
 10
528.96174745694304
 20
224.3026829082759
 30
0.0
 11
531.25130713573833
 21
222.00268290827589
 31
0.0
  0
LINE
  5
450F
  8
AM_0
 10
530.94122111837123
 20
222.31418290827591
 30
0.0
 11
530.94122111837123
 21
221.69118290827581
 31
0.0
  0
LINE
  5
4510
  8
AM_0
 10
528.96174745694304
 20
219.7026829082759
 30
0.0
 11
531.25130713573833
 21
222.00268290827589
 31
0.0
  0
LINE
  5
4511
  8
AM_0
 10
528.54868942803648
 20
222.31418290827591
 30
0.0
 11
530.94122111837123
 21
222.31418290827591
 31
0.0
  0
LINE
  5
4512
  8
AM_0
 10
528.54868942803648
 20
221.69118290827581
 30
0.0
 11
530.94122111837123
 21
221.69118290827581
 31
0.0
  0
ARC
  5
4513
  8
AM_0
 10
530.72173279463993
 20
224.31612636363559
 30
0.0
 40
1.6000000000000001
 50
94.99999999999973
 51
151.82726586813479
  0
LINE
  5
4514
  8
AM_0
 10
532.64122111837139
 20
309.00268290827552
 30
0.0
 11
536.64122111837116
 21
309.00268290827552
 31
0.0
  0
LINE
  5
4515
  8
AM_0
 10
531.64122111837105
 20
308.00268290827518
 30
0.0
 11
532.6412211183715
 21
309.00268290827552
 31
0.0
  0
LINE
  5
4516
  8
AM_0
 10
536.64122111837105
 20
217.00268290827509
 30
0.0
 11
532.64122111837105
 21
217.0026829082762
 31
0.0
  0
LINE
  5
4517
  8
AM_0N
 10
532.64122111837105
 20
225.80268290827601
 30
0.0
 11
531.64122111837105
 21
225.80268290827601
 31
0.0
  0
LINE
  5
4518
  8
AM_0N
 10
531.64122111837105
 20
222.20268290827599
 30
0.0
 11
532.64122111837105
 21
222.56665314254209
 31
0.0
  0
LINE
  5
4519
  8
AM_0N
 10
531.64122111837105
 20
221.80268290827601
 30
0.0
 11
532.64122111837105
 21
222.16665314254209
 31
0.0
  0
LINE
  5
451A
  8
AM_0N
 10
531.64122111837105
 20
218.00268290827589
 30
0.0
 11
531.64122111837105
 21
226.00268290827589
 31
0.0
  0
LINE
  5
451B
  8
AM_0N
 10
531.64122111837105
 20
218.20268290827599
 30
0.0
 11
532.64122111837105
 21
218.20268290827599
 31
0.0
  0
LINE
  5
451C
  8
AM_0
 10
528.64122111837105
 20
237.81718780780761
 30
0.0
 11
532.64122111837105
 21
237.8171878078077
 31
0.0
  0
LINE
  5
451D
  8
AM_0
 10
532.64122111837105
 20
236.16033355831519
 30
0.0
 11
528.64122111837105
 21
237.81718780780761
 31
0.0
  0
LINE
  5
451E
  8
AM_0
 10
528.64122111837139
 20
288.18817800874308
 30
0.0
 11
532.64122111837139
 21
288.18817800874308
 31
0.0
  0
LINE
  5
451F
  8
AM_0
 10
532.64122111837139
 20
289.84503225823551
 30
0.0
 11
528.64122111837139
 21
288.18817800874308
 31
0.0
  0
LINE
  5
4520
  8
ﾁｭｳｼﾝｾﾝ1
 10
525.64122111837139
 20
304.00268290827478
 30
0.0
 11
541.46874413090802
 21
304.00268290827478
 31
0.0
  0
LINE
  5
4521
  8
AM_0
 10
530.58228360624332
 20
300.09532793596838
 30
0.0
 11
531.64122111837105
 21
300.00268290827478
 31
0.0
  0
LINE
  5
4522
  8
AM_0
 10
530.58228360624332
 20
307.91003788058123
 30
0.0
 11
531.64122111837105
 21
308.00268290827478
 31
0.0
  0
ARC
  5
4523
  8
AM_0
 10
535.04122111837148
 20
304.00268290827478
 30
0.0
 40
6.5
 50
151.82726586813479
 51
208.1727341318651
  0
ARC
  5
4524
  8
AM_0
 10
530.72173279463993
 20
306.31612636363451
 30
0.0
 40
1.6000000000000001
 50
94.99999999999973
 51
151.82726586813479
  0
LINE
  5
4525
  8
AM_0
 10
528.96174745694304
 20
301.70268290827482
 30
0.0
 11
531.25130713573833
 21
304.00268290827478
 31
0.0
  0
LINE
  5
4526
  8
AM_0
 10
530.94122111837123
 20
303.69118290827481
 30
0.0
 11
530.94122111837123
 21
304.3141829082748
 31
0.0
  0
LINE
  5
4527
  8
AM_0
 10
528.96174745694304
 20
306.30268290827479
 30
0.0
 11
531.25130713573833
 21
304.00268290827478
 31
0.0
  0
LINE
  5
4528
  8
AM_0
 10
528.54868942803648
 20
303.69118290827481
 30
0.0
 11
530.94122111837123
 21
303.69118290827481
 31
0.0
  0
LINE
  5
4529
  8
AM_0
 10
528.54868942803648
 20
304.3141829082748
 30
0.0
 11
530.94122111837123
 21
304.3141829082748
 31
0.0
  0
ARC
  5
452A
  8
AM_0
 10
530.72173279463993
 20
301.6892394529151
 30
0.0
 40
1.6000000000000001
 50
208.1727341318651
 51
265.00000000000028
  0
LINE
  5
452B
  8
AM_0N
 10
532.64122111837105
 20
300.20268290827482
 30
0.0
 11
531.64122111837105
 21
300.20268290827482
 31
0.0
  0
LINE
  5
452C
  8
AM_0N
 10
531.64122111837105
 20
303.80268290827468
 30
0.0
 11
532.64122111837105
 21
303.43871267400863
 31
0.0
  0
LINE
  5
452D
  8
AM_0N
 10
531.64122111837105
 20
304.20268290827482
 30
0.0
 11
532.64122111837105
 21
303.83871267400872
 31
0.0
  0
LINE
  5
452E
  8
AM_0N
 10
531.64122111837105
 20
308.00268290827478
 30
0.0
 11
531.64122111837105
 21
300.00268290827478
 31
0.0
  0
LINE
  5
452F
  8
AM_0N
 10
531.64122111837105
 20
307.80268290827468
 30
0.0
 11
532.64122111837105
 21
307.80268290827468
 31
0.0
  0
LINE
  5
4530
  8
AM_0
 10
583.41109607352894
 20
293.11785560903201
 30
0.0
 11
577.64122111837116
 21
292.96349803566778
 31
0.0
  0
LINE
  5
4532
  8
AM_0
 10
577.64122111837116
 20
238.12722831240399
 30
0.0
 11
577.64122111837116
 21
296.5026829082754
 31
0.0
  0
LINE
  5
4533
  8
AM_0
 10
574.64122111837139
 20
229.5026829082754
 30
0.0
 11
576.73629329751782
 21
229.5026829082754
 31
0.0
  0
LINE
  5
4E2C
  8
AM_0
 10
654.84122111837132
 20
352.46147427402809
 30
0.0
 11
654.84122111837132
 21
366.1883014207823
 31
0.0
  0
LINE
  5
4E2D
  8
AM_0
 10
648.44122111837135
 20
352.46147427402809
 30
0.0
 11
648.44122111837135
 21
366.1883014207823
 31
0.0
  0
LINE
  5
4E2E
  8
AM_0
 10
647.64122111837128
 20
343.50455233586291
 30
0.0
 11
655.64122111837128
 21
343.50455233586291
 31
0.0
  0
LINE
  5
4E2F
  8
AM_0
 10
655.64122111837128
 20
333.9318200078003
 30
0.0
 11
655.64122111837128
 21
343.50455233586291
 31
0.0
  0
LINE
  5
4E30
  8
AM_0
 10
655.64122111837128
 20
343.50455233586291
 30
0.0
 11
658.04122111837125
 21
352.46147427402809
 31
0.0
  0
LINE
  5
4E31
  8
AM_0
 10
658.04122111837125
 20
352.46147427402809
 30
0.0
 11
658.04122111837125
 21
366.1883014207823
 31
0.0
  0
LINE
  5
4E32
  8
AM_0
 10
645.24122111837119
 20
366.1883014207823
 30
0.0
 11
645.24122111837119
 21
352.46147427402809
 31
0.0
  0
LINE
  5
4E33
  8
AM_0
 10
645.24122111837119
 20
352.46147427402809
 30
0.0
 11
647.64122111837128
 21
343.50455233586291
 31
0.0
  0
LINE
  5
4E34
  8
AM_0
 10
647.64122111837128
 20
343.50455233586291
 30
0.0
 11
647.64122111837128
 21
333.9318200078003
 31
0.0
  0
ARC
  5
4E35
  8
AM_0
 10
651.64122111837128
 20
358.5045523358628
 30
0.0
 40
9.9999999999999964
 50
50.208180500442623
 51
90.0
  0
ARC
  5
4E36
  8
AM_0
 10
646.84122111837132
 20
352.90022296833399
 30
0.0
 40
1.659066127903009
 50
195.33458427584509
 51
344.66541572415468
  0
ARC
  5
4E37
  8
AM_0
 10
651.64122111837128
 20
356.05154086297262
 30
0.0
 40
4.8092180355079419
 50
228.2878371051452
 51
311.71216289485483
  0
ARC
  5
4E38
  8
AM_0
 10
656.44122111837135
 20
352.89994509468772
 30
0.0
 40
1.6589926644111621
 50
195.32532916095269
 51
344.67467083904228
  0
ARC
  5
4E39
  8
AM_0
 10
651.64122111837128
 20
355.97332052589928
 30
0.0
 40
10.704477319459491
 50
72.606031891266454
 51
107.3939681087335
  0
ARC
  5
4E3A
  8
AM_0
 10
646.84122111837132
 20
363.81853602430789
 30
0.0
 40
2.8593334947723461
 50
55.973867765119778
 51
124.02613223488019
  0
ARC
  5
4E3B
  8
AM_0
 10
656.44122111837135
 20
363.82160294571042
 30
0.0
 40
2.856792199637066
 50
55.939448481710848
 51
124.060551518289
  0
ARC
  5
4E3C
  8
AM_0
 10
651.64122111837128
 20
358.5045523358628
 30
0.0
 40
10.0
 50
90.0
 51
129.79181949955731
  0
LINE
  5
51B5
  8
ﾁｭｳｼﾝｾﾝ1
 10
166.0118198882339
 20
278.004538835863
 30
0.0
 11
203.99530705380951
 21
278.004538835863
 31
0.0
  0
LINE
  5
51B6
  8
AM_0
 10
151.4953170538094
 20
320.4469851476714
 30
0.0
 11
151.4953170538094
 21
244.72303992844411
 31
0.0
  0
LINE
  5
51B7
  8
AM_0
 10
151.4953170538094
 20
238.5649629147992
 30
0.0
 11
151.4953170538094
 21
205.5621298216501
 31
0.0
  0
LINE
  5
51B8
  8
AM_0
 10
195.99530705380951
 20
216.65454483586291
 30
0.0
 11
160.9952970538094
 21
218.68454583586291
 31
0.0
  0
LINE
  5
51B9
  8
AM_0
 10
195.99530705380951
 20
309.35455383586287
 30
0.0
 11
160.9952970538094
 21
307.32454383586293
 31
0.0
  0
LINE
  5
51BA
  8
AM_0
 10
151.4953170538094
 20
205.5621298216501
 30
0.0
 11
153.81530705380939
 21
205.5045348358629
 31
0.0
  0
LINE
  5
51BB
  8
AM_0
 10
298.99535705380953
 20
199.50454983586289
 30
0.0
 11
305.9953170538094
 21
199.50454983586289
 31
0.0
  0
LINE
  5
51BC
  8
AM_0
 10
298.99535705380953
 20
210.96454383586291
 30
0.0
 11
305.9953170538094
 21
210.96454383586291
 31
0.0
  0
LINE
  5
51BD
  8
AM_0
 10
195.99530705380951
 20
216.65454483586291
 30
0.0
 11
297.99530705380948
 21
216.65454483586291
 31
0.0
  0
LINE
  5
51BE
  8
AM_0
 10
297.70532705380953
 20
211.97453883586289
 30
0.0
 11
295.29536705380951
 21
211.97453883586289
 31
0.0
  0
LINE
  5
51BF
  8
AM_0
 10
294.79529705380929
 20
204.0845388358629
 30
0.0
 11
296.23529705380952
 21
210.7845348358629
 31
0.0
  0
LINE
  5
51C0
  8
AM_0
 10
292.70531705380938
 20
202.50455283586291
 30
0.0
 11
297.99530705380948
 21
202.50455283586291
 31
0.0
  0
LINE
  5
51C1
  8
AM_0
 10
155.67530705380941
 20
229.63452783586291
 30
0.0
 11
198.99530705380951
 21
229.63452783586291
 31
0.0
  0
LINE
  5
51C2
  8
AM_0
 10
198.99530705380951
 20
227.0045358358629
 30
0.0
 11
156.5453670538094
 21
227.0045358358629
 31
0.0
  0
LINE
  5
51C3
  8
AM_0
 10
155.67530705380941
 20
226.2845508358628
 30
0.0
 11
198.99530705380951
 21
226.2845508358628
 31
0.0
  0
LINE
  5
51C4
  8
AM_0
 10
151.4953170538094
 20
228.70453383586289
 30
0.0
 11
154.16534705380951
 21
228.70453383586289
 31
0.0
  0
LINE
  5
51C5
  8
AM_0
 10
157.16534705380951
 20
204.74454183586289
 30
0.0
 11
170.49530705380951
 21
204.74454183586289
 31
0.0
  0
LINE
  5
51C6
  8
AM_0
 10
173.9953170538094
 20
201.14453583586291
 30
0.0
 11
290.80529705380951
 21
201.14453583586291
 31
0.0
  0
LINE
  5
51C7
  8
AM_0
 10
157.10528705380941
 20
199.70454783586291
 30
0.0
 11
170.60528705380941
 21
199.70454783586291
 31
0.0
  0
LINE
  5
51C8
  8
AM_0
 10
157.2253470538094
 20
210.0245268358629
 30
0.0
 11
170.49530705380951
 21
210.0245268358629
 31
0.0
  0
LINE
  5
51C9
  8
AM_0
 10
154.7152770538095
 20
214.6545468358629
 30
0.0
 11
155.2553070538095
 21
211.66453983586291
 31
0.0
  0
LINE
  5
51CA
  8
AM_0
 10
151.4953170538094
 20
214.6545318358628
 30
0.0
 11
160.9953570538095
 21
214.65453183586291
 31
0.0
  0
LINE
  5
51CB
  8
AM_0
 10
160.9953570538095
 20
214.65453183586291
 30
0.0
 11
160.9953570538095
 21
228.70453383586289
 31
0.0
  0
LINE
  5
51CC
  8
AM_0
 10
292.73528705380949
 20
202.6245468358629
 30
0.0
 11
296.19530705380947
 21
215.54454483586289
 31
0.0
  0
LINE
  5
51CD
  8
AM_0
 10
155.1652770538096
 20
201.21454383586291
 30
0.0
 11
154.2752670538095
 21
204.7545348358629
 31
0.0
  0
LINE
  5
51CE
  8
AM_0
 10
155.1853170538094
 20
202.8745458358629
 30
0.0
 11
154.26527705380951
 21
206.7545508358628
 31
0.0
  0
LINE
  5
51CF
  8
AM_0
 10
228.99530705380951
 20
199.0945338358629
 30
0.0
 11
228.99530705380951
 21
201.14453583586291
 31
0.0
  0
LINE
  5
51D0
  8
AM_0
 10
171.99530705380951
 20
201.1145508358629
 30
0.0
 11
171.99530705380951
 21
208.52452383586291
 31
0.0
  0
LINE
  5
51D1
  8
AM_0
 10
152.82530705380961
 20
205.8845418358629
 30
0.0
 11
154.4753370538094
 21
205.8845418358629
 31
0.0
  0
LINE
  5
51D2
  8
AM_0
 10
195.99530705380951
 20
309.35452383586289
 30
0.0
 11
297.99530705380948
 21
309.35452383586289
 31
0.0
  0
LINE
  5
51D3
  8
AM_0
 10
297.99530705380948
 20
325.50454383586288
 30
0.0
 11
297.99530705380948
 21
200.50453683586289
 31
0.0
  0
LINE
  5
51D4
  8
AM_0
 10
298.99535705380953
 20
326.5045338358629
 30
0.0
 11
305.9953170538094
 21
326.5045338358629
 31
0.0
  0
LINE
  5
51D5
  8
AM_0
 10
297.99530705380948
 20
300.15453183586288
 30
0.0
 11
305.9953170538094
 21
300.15453183586288
 31
0.0
  0
LINE
  5
51D6
  8
AM_0
 10
298.99535705380953
 20
315.04450383586283
 30
0.0
 11
305.9953170538094
 21
315.04450383586283
 31
0.0
  0
LINE
  5
51D7
  8
AM_0
 10
297.99530705380948
 20
225.8545428358629
 30
0.0
 11
305.9953170538094
 21
225.8545428358629
 31
0.0
  0
LINE
  5
51D8
  8
AM_0
 10
151.4953170538094
 20
320.4469851476714
 30
0.0
 11
153.8152470538094
 21
320.50456383586283
 31
0.0
  0
LINE
  5
51D9
  8
AM_0
 10
160.9953570538095
 20
311.35453383586292
 30
0.0
 11
160.9953570538095
 21
297.3145368358629
 31
0.0
  0
LINE
  5
51DA
  8
AM_0
 10
151.4953170538094
 20
297.3145368358629
 30
0.0
 11
160.9953570538095
 21
297.3145368358629
 31
0.0
  0
LINE
  5
51DB
  8
AM_0
 10
151.4953170538094
 20
305.69455383586291
 30
0.0
 11
160.9953570538095
 21
305.69455383586291
 31
0.0
  0
LINE
  5
51DC
  8
AM_0
 10
151.4953170538094
 20
311.35453383586292
 30
0.0
 11
160.9953570538095
 21
311.35453383586292
 31
0.0
  0
LINE
  5
51DD
  8
AM_0
 10
176.28698538714161
 20
249.00455283586291
 30
0.0
 11
156.5453670538094
 21
249.00455283586291
 31
0.0
  0
LINE
  5
51DE
  8
AM_0
 10
173.9953170538094
 20
324.86455383586292
 30
0.0
 11
290.80529705380951
 21
324.86455383586292
 31
0.0
  0
LINE
  5
51DF
  8
AM_0
 10
157.2253470538094
 20
315.98455383586293
 30
0.0
 11
170.49530705380951
 21
315.98455383586293
 31
0.0
  0
LINE
  5
51E0
  8
AM_0
 10
154.71533705380941
 20
311.35456383586279
 30
0.0
 11
155.2553070538095
 21
314.34457383586278
 31
0.0
  0
LINE
  5
51E1
  8
AM_0
 10
157.16534705380951
 20
321.27451383586288
 30
0.0
 11
170.49530705380951
 21
321.27451383586288
 31
0.0
  0
LINE
  5
51E2
  8
AM_0
 10
157.1353170538095
 20
324.67453383586292
 30
0.0
 11
170.49530705380951
 21
324.67453383586292
 31
0.0
  0
LINE
  5
51E3
  8
AM_0
 10
157.10528705380941
 20
326.30452383586288
 30
0.0
 11
170.60528705380941
 21
326.30452383586288
 31
0.0
  0
LINE
  5
51E4
  8
AM_0
 10
173.9953170538094
 20
328.92454383586278
 30
0.0
 11
226.9953570538095
 21
328.92454383586278
 31
0.0
  0
LINE
  5
51E5
  8
AM_0
 10
173.9953170538094
 20
328.24453383586291
 30
0.0
 11
226.9953570538095
 21
328.24453383586291
 31
0.0
  0
LINE
  5
51E6
  8
AM_0
 10
173.9953170538094
 20
326.89456383586293
 30
0.0
 11
226.9953570538095
 21
326.89456383586293
 31
0.0
  0
LINE
  5
51E7
  8
AM_0
 10
152.78528705380941
 20
314.0445438358629
 30
0.0
 11
155.1953070538095
 21
314.0445438358629
 31
0.0
  0
LINE
  5
51E8
  8
AM_0
 10
155.20526705380939
 20
319.69456383586288
 30
0.0
 11
154.2452370538094
 21
315.22456383586291
 31
0.0
  0
LINE
  5
51E9
  8
AM_0
 10
152.80529705380951
 20
318.10453383586292
 30
0.0
 11
154.86536705380939
 21
318.10453383586292
 31
0.0
  0
LINE
  5
51EA
  8
AM_0
 10
198.99530705380951
 20
299.00453883586289
 30
0.0
 11
165.5453670538094
 21
299.00453883586289
 31
0.0
  0
LINE
  5
51EB
  8
AM_0
 10
198.99530705380951
 20
297.004537835863
 30
0.0
 11
165.5453670538094
 21
297.00453783586289
 31
0.0
  0
LINE
  5
51EC
  8
AM_0
 10
172.59663715746359
 20
289.00453983586277
 30
0.0
 11
165.5450602521438
 21
289.00453983586272
 31
0.0
  0
LINE
  5
51ED
  8
AM_0
 10
155.1853170538094
 20
323.13454383586293
 30
0.0
 11
154.26533705380939
 21
319.25455383586308
 31
0.0
  0
LINE
  5
51EE
  8
AM_0
 10
170.19663595746371
 20
287.00453883586289
 30
0.0
 11
165.5453670538094
 21
287.00453883586289
 31
0.0
  0
LINE
  5
51EF
  8
AM_0
 10
152.82530705380961
 20
320.12452383586287
 30
0.0
 11
154.4753370538094
 21
320.12452383586287
 31
0.0
  0
LINE
  5
51F0
  8
AM_0
 10
155.1652770538096
 20
324.79453383586292
 30
0.0
 11
154.2752670538095
 21
321.26455383586278
 31
0.0
  0
LINE
  5
51F1
  8
AM_0
 10
169.59663595746341
 20
279.00453783586289
 30
0.0
 11
156.5453670538094
 21
279.00453783586289
 31
0.0
  0
LINE
  5
51F2
  8
AM_0
 10
171.99530705380951
 20
324.89452383586291
 30
0.0
 11
171.99530705380951
 21
317.48455383586293
 31
0.0
  0
LINE
  5
51F3
  8
AM_0
 10
169.59663595746341
 20
277.00453983586289
 30
0.0
 11
156.5453670538094
 21
277.00453983586289
 31
0.0
  0
LINE
  5
51F4
  8
AM_0
 10
170.1966359574632
 20
269.004538835863
 30
0.0
 11
156.5453670538094
 21
269.004538835863
 31
0.0
  0
LINE
  5
51F5
  8
AM_0
 10
228.99530705380951
 20
326.92453383586292
 30
0.0
 11
228.99530705380951
 21
324.86455383586292
 31
0.0
  0
LINE
  5
51F6
  8
AM_0
 10
172.95868589264541
 20
267.00453783586278
 30
0.0
 11
156.5453670538094
 21
267.00453783586278
 31
0.0
  0
LINE
  5
51F7
  8
AM_0
 10
292.73528705380949
 20
323.3845338358629
 30
0.0
 11
296.19530705380947
 21
310.46455383586289
 31
0.0
  0
LINE
  5
51F8
  8
AM_0
 10
292.70531705380938
 20
323.5045338358629
 30
0.0
 11
297.99530705380948
 21
323.5045338358629
 31
0.0
  0
LINE
  5
51F9
  8
AM_0
 10
297.70532705380953
 20
314.0445438358629
 30
0.0
 11
295.29536705380951
 21
314.0445438358629
 31
0.0
  0
LINE
  5
51FA
  8
AM_0
 10
294.79535705380948
 20
321.92455383586292
 30
0.0
 11
296.23535705380942
 21
315.22456383586291
 31
0.0
  0
LINE
  5
51FB
  8
AM_0
 10
173.9953170538094
 20
197.08453683586279
 30
0.0
 11
226.9953570538095
 21
197.08453683586279
 31
0.0
  0
LINE
  5
51FC
  8
AM_0
 10
157.1353170538095
 20
201.33455283586289
 30
0.0
 11
170.49530705380951
 21
201.33455283586289
 31
0.0
  0
LINE
  5
51FD
  8
AM_0
 10
151.4953170538094
 20
220.31453283586279
 30
0.0
 11
160.9953570538095
 21
220.31453283586291
 31
0.0
  0
LINE
  5
51FE
  8
AM_0
 10
173.9953170538094
 20
197.76454683586289
 30
0.0
 11
226.9953570538095
 21
197.76454683586289
 31
0.0
  0
LINE
  5
51FF
  8
AM_0
 10
152.80529705380951
 20
207.90452883586289
 30
0.0
 11
154.86536705380939
 21
207.90452883586289
 31
0.0
  0
LINE
  5
5200
  8
AM_0
 10
152.78528705380941
 20
211.97453883586289
 30
0.0
 11
155.1953070538095
 21
211.97453883586289
 31
0.0
  0
LINE
  5
5201
  8
AM_0
 10
155.2053270538095
 20
206.3245428358629
 30
0.0
 11
154.2452970538094
 21
210.7845348358629
 31
0.0
  0
LINE
  5
5202
  8
AM_0
 10
173.9953170538094
 20
199.1145378358629
 30
0.0
 11
226.9953570538095
 21
199.1145378358629
 31
0.0
  0
LINE
  5
5203
  8
AM_0
 10
155.45531705380941
 20
236.51453283586301
 30
0.0
 11
176.69531205380849
 21
236.51453283586289
 31
0.0
  0
LINE
  5
5204
  8
AM_0
 10
198.99530705380951
 20
229.00453683586289
 30
0.0
 11
156.98534705380951
 21
229.00453683586289
 31
0.0
  0
LINE
  5
5205
  8
AM_0
 10
164.67530705380941
 20
299.72453883586292
 30
0.0
 11
198.99530705380951
 21
299.72453883586292
 31
0.0
  0
LINE
  5
5206
  8
AM_0
 10
164.67530705380941
 20
296.3745348358629
 30
0.0
 11
198.99530705380951
 21
296.3745348358629
 31
0.0
  0
LINE
  5
5207
  8
AM_0
 10
164.45531705380941
 20
289.49452983586292
 30
0.0
 11
180.09663595746341
 21
289.49452983586292
 31
0.0
  0
LINE
  5
5208
  8
AM_0
 10
182.59663595746341
 20
289.49452983586292
 30
0.0
 11
189.99530705380951
 21
289.49452983586292
 31
0.0
  0
LINE
  5
5209
  8
AM_0
 10
164.45531705380941
 20
286.56453483586279
 30
0.0
 11
169.74762232775001
 21
286.56453483586279
 31
0.0
  0
LINE
  5
520A
  8
AM_0
 10
155.3253270538095
 20
279.34453383586282
 30
0.0
 11
169.59663595746341
 21
279.34453383586282
 31
0.0
  0
LINE
  5
520B
  8
AM_0
 10
155.3253270538095
 20
276.6845298358628
 30
0.0
 11
169.59663595746341
 21
276.6845298358628
 31
0.0
  0
LINE
  5
520C
  8
AM_0
 10
155.26532705380939
 20
269.2745268358629
 30
0.0
 11
169.8726503574631
 21
269.2745268358629
 31
0.0
  0
LINE
  5
520D
  8
AM_0
 10
155.26532705380939
 20
266.74452783586298
 30
0.0
 11
180.09663595746341
 21
266.74452783586298
 31
0.0
  0
LINE
  5
520E
  8
AM_0
 10
155.26532705380939
 20
259.27454283586292
 30
0.0
 11
197.99530705380951
 21
259.27454283586292
 31
0.0
  0
LINE
  5
520F
  8
AM_0
 10
197.99530705380951
 20
257.00453883586289
 30
0.0
 11
156.5453670538094
 21
257.00453883586289
 31
0.0
  0
LINE
  5
5210
  8
AM_0
 10
197.99530705380951
 20
259.00453683586278
 30
0.0
 11
156.5453670538094
 21
259.00453683586278
 31
0.0
  0
LINE
  5
5211
  8
AM_0
 10
155.3253270538095
 20
249.32454483586289
 30
0.0
 11
176.55364538714119
 21
249.32454483586289
 31
0.0
  0
LINE
  5
5212
  8
AM_0
 10
170.99530705380951
 20
247.00453683586281
 30
0.0
 11
156.5453670538094
 21
247.00453683586281
 31
0.0
  0
LINE
  5
5213
  8
AM_0
 10
155.3253270538095
 20
246.6645258358628
 30
0.0
 11
170.99530705380951
 21
246.66452583586289
 31
0.0
  0
LINE
  5
5214
  8
AM_0
 10
170.9953070538094
 20
239.0045358358629
 30
0.0
 11
156.5453670538094
 21
239.0045358358629
 31
0.0
  0
LINE
  5
5215
  8
AM_0
 10
155.45531705380941
 20
239.44453983586291
 30
0.0
 11
170.99530705380951
 21
239.44453983586291
 31
0.0
  0
LINE
  5
5216
  8
AM_0
 10
176.28696205380919
 20
237.00455283586291
 30
0.0
 11
156.5453670538094
 21
237.00455283586291
 31
0.0
  0
LINE
  5
5217
  8
AM_0
 10
155.26532705380939
 20
256.73454783586283
 30
0.0
 11
197.99530705380951
 21
256.73454783586283
 31
0.0
  0
ARC
  5
5218
  8
AM_0
 10
164.1359970538094
 20
221.78542083586291
 30
0.0
 40
1.00423602
 50
314.93782999999922
 51
5.6649239000010914
  0
ARC
  5
5219
  8
AM_0
 10
298.99553705380953
 20
200.5047198358628
 30
0.0
 40
1.0001800499999991
 50
180.01030999999901
 51
269.98967999999991
  0
ARC
  5
521A
  8
AM_0
 10
290.7999870538095
 20
203.1499218358629
 30
0.0
 40
2.0053919100000002
 50
270.15274999999968
 51
344.81207000000018
  0
ARC
  5
521B
  8
AM_0
 10
298.99481705380953
 20
211.9640088358629
 30
0.0
 40
0.99947604
 50
179.97008999999869
 51
270.02992000000029
  0
ARC
  5
521C
  8
AM_0
 10
157.21637705380951
 20
313.99210383586291
 30
0.0
 40
1.9924480200000001
 50
89.742108000000741
 51
169.81178999999909
  0
ARC
  5
521D
  8
AM_0
 10
157.16015705380951
 20
319.27525383586288
 30
0.0
 40
1.9992880199999981
 50
89.851814999999618
 51
167.89433000000099
  0
ARC
  5
521E
  8
AM_0
 10
152.7796170538094
 20
315.54475383586288
 30
0.0
 40
1.5002480099999991
 50
270.21662000000089
 51
347.67499999999922
  0
ARC
  5
521F
  8
AM_0
 10
157.1273970538094
 20
322.68001383586289
 30
0.0
 40
1.9945160699999991
 50
89.771334999999524
 51
166.8280399999995
  0
ARC
  5
5220
  8
AM_0
 10
152.80376705380939
 20
319.60834383586291
 30
0.0
 40
1.5037760099999991
 50
270.0598400000012
 51
346.39312999999879
  0
ARC
  5
5221
  8
AM_0
 10
152.81660705380941
 20
321.6277338358629
 30
0.0
 40
1.503232049999998
 50
270.33131999999961
 51
346.01803000000137
  0
ARC
  5
5222
  8
AM_0
 10
157.10186705380951
 20
324.30772383586287
 30
0.0
 40
1.996816109999999
 50
89.901436000000672
 51
165.88941000000139
  0
ARC
  5
5223
  8
AM_0
 10
173.99072705380951
 20
322.86916383586288
 30
0.0
 40
1.9953641399999991
 50
89.866758999999234
 51
180.13323000000119
  0
ARC
  5
5224
  8
AM_0
 10
173.9915070538095
 20
324.8983338358629
 30
0.0
 40
1.99618809
 50
89.890486999999737
 51
180.10951000000031
  0
ARC
  5
5225
  8
AM_0
 10
173.9888970538093
 20
326.25100383586289
 30
0.0
 40
1.993556189999999
 50
89.814515000000938
 51
180.1854899999997
  0
ARC
  5
5226
  8
AM_0
 10
173.9908470538094
 20
326.92579383586292
 30
0.0
 40
1.998724049999999
 50
89.871136999999536
 51
165.55095999999921
  0
ARC
  5
5227
  8
AM_0
 10
170.4886470538095
 20
317.4912438358628
 30
0.0
 40
1.5066999599999991
 50
270.25416000000098
 51
359.74583999999908
  0
ARC
  5
5228
  8
AM_0
 10
170.4924870538095
 20
322.7773638358629
 30
0.0
 40
1.5028360199999991
 50
270.10793999999891
 51
359.89206000000121
  0
ARC
  5
5229
  8
AM_0
 10
170.49047705380951
 20
326.17939383586292
 30
0.0
 40
1.5048719999999991
 50
270.1851800000012
 51
359.81481999999869
  0
ARC
  5
522A
  8
AM_0
 10
170.60192705380939
 20
327.8075538358629
 30
0.0
 40
1.50301605
 50
270.12944999999991
 51
345.2365400000013
  0
ARC
  5
522B
  8
AM_0
 10
226.99439705380931
 20
324.89359383586287
 30
0.0
 40
2.0009239199999991
 50
0.0264629989995744
 51
89.973535999999072
  0
ARC
  5
522C
  8
AM_0
 10
226.9970070538096
 20
326.24623383586282
 30
0.0
 40
1.9982920200000001
 50
359.95103000000051
 51
90.048974999998521
  0
ARC
  5
522D
  8
AM_0
 10
226.99352705380949
 20
326.9227338358628
 30
0.0
 40
2.0018279999999979
 50
0.0523009999990686
 51
89.947697000000545
  0
ARC
  5
522E
  8
AM_0
 10
297.64556705380937
 20
310.8569238358628
 30
0.0
 40
1.50239199
 50
195.14001000000141
 51
269.99063999999998
  0
ARC
  5
522F
  8
AM_0
 10
290.80487705380961
 20
322.86556383586287
 30
0.0
 40
1.99898796
 50
15.04780099999898
 51
89.987372999998755
  0
ARC
  5
5230
  8
AM_0
 10
298.9903770538096
 20
325.50949383586288
 30
0.0
 40
0.9950640599999999
 50
89.714938000000473
 51
180.28506000000129
  0
ARC
  5
5231
  8
AM_0
 10
298.98968705380952
 20
314.05015383586289
 30
0.0
 40
0.99440004
 50
89.676491000000041
 51
180.32351000000091
  0
ARC
  5
5232
  8
AM_0
 10
297.70118705380952
 20
315.54499383586278
 30
0.0
 40
1.5004760399999979
 50
192.3322299999987
 51
270.15827999999971
  0
ARC
  5
5233
  8
AM_0
 10
292.84277705380953
 20
321.50806383586291
 30
0.0
 40
1.9964880300000001
 50
12.04087499999966
 51
89.926440999999343
  0
ARC
  5
5234
  8
AM_0
 10
160.1536170538094
 20
304.59734283586289
 30
0.0
 40
5.004112499999998
 50
279.6835699999998
 51
354.57834000000122
  0
ARC
  5
5235
  8
AM_0
 10
160.61609705380951
 20
300.67162383586287
 30
0.0
 40
6.0049157999999991
 50
45.227306999999072
 51
86.379093999999796
  0
ARC
  5
5236
  8
AM_0
 10
164.1392970538094
 20
304.2248148358629
 30
0.0
 40
1.001108069999999
 50
354.25024999999829
 51
45.146993999999637
  0
ARC
  5
5237
  8
AM_0
 10
292.8377670538095
 20
204.5071458358629
 30
0.0
 40
2.0026238699999981
 50
270.21534000000139
 51
347.8173399999996
  0
ARC
  5
5238
  8
AM_0
 10
297.70238705380939
 20
210.47522283586289
 30
0.0
 40
1.499328059999999
 50
89.888151000000079
 51
168.09384000000071
  0
ARC
  5
5239
  8
AM_0
 10
160.62530705380951
 20
225.3517188358629
 30
0.0
 40
6.0085923000000001
 50
273.53094999999939
 51
314.61478000000108
  0
ARC
  5
523A
  8
AM_0
 10
160.15868705380939
 20
221.41646283586289
 30
0.0
 40
4.9985837999999987
 50
5.3731199000009289
 51
80.36497600000034
  0
ARC
  5
523B
  8
AM_0
 10
157.22138705380931
 20
212.02296783586289
 30
0.0
 40
1.998444029999999
 50
190.3324000000008
 51
270.11369000000047
  0
ARC
  5
523C
  8
AM_0
 10
157.1602170538095
 20
206.74391583586291
 30
0.0
 40
1.9993920899999991
 50
192.1080400000011
 51
270.14581999999967
  0
ARC
  5
523D
  8
AM_0
 10
152.7784470538094
 20
210.47545383586291
 30
0.0
 40
1.499099999999999
 50
11.89856000000028
 51
89.736658000000475
  0
ARC
  5
523E
  8
AM_0
 10
157.1323170538094
 20
203.33530083586291
 30
0.0
 40
2.0007560699999991
 50
193.31416000000041
 51
270.0864499999999
  0
ARC
  5
523F
  8
AM_0
 10
152.8087170538094
 20
206.4070338358629
 30
0.0
 40
1.497512039999999
 50
13.41823300000142
 51
90.128792999998822
  0
ARC
  5
5240
  8
AM_0
 10
152.8231170538094
 20
204.38641683586289
 30
0.0
 40
1.498128089999998
 50
14.224575000000939
 51
89.916113999998927
  0
ARC
  5
5241
  8
AM_0
 10
157.10681705380941
 20
201.70767783586291
 30
0.0
 40
2.0031319199999991
 50
194.2515899999988
 51
269.9575499999994
  0
ARC
  5
5242
  8
AM_0
 10
173.9957970538095
 20
203.1449778358629
 30
0.0
 40
2.000452109999999
 50
180.01290000000029
 51
269.98709999999971
  0
ARC
  5
5243
  8
AM_0
 10
173.99663705380951
 20
201.11584983586289
 30
0.0
 40
2.0013120899999981
 50
180.03755999999879
 51
269.9624400000011
  0
ARC
  5
5244
  8
AM_0
 10
173.9939670538094
 20
199.7631558358629
 30
0.0
 40
1.9986199799999991
 50
179.96046999999851
 51
270.03953000000138
  0
ARC
  5
5245
  8
AM_0
 10
173.98925705380961
 20
199.0945938358629
 30
0.0
 40
2.0000761200000001
 50
194.7749800000019
 51
270.17352999999849
  0
ARC
  5
5246
  8
AM_0
 10
170.49377705380951
 20
208.52296983586291
 30
0.0
 40
1.5015680099999991
 50
0.0598050030010001
 51
89.940196999999216
  0
ARC
  5
5247
  8
AM_0
 10
170.49260705380951
 20
203.24182683586289
 30
0.0
 40
1.50271599
 50
0.1034359999993177
 51
89.896566000000206
  0
ARC
  5
5248
  8
AM_0
 10
170.49560705380941
 20
199.8347808358628
 30
0.0
 40
1.49975601
 50
359.99059000000068
 51
90.009407999999681
  0
ARC
  5
5249
  8
AM_0
 10
170.60687705380951
 20
198.20788983586289
 30
0.0
 40
1.49664405
 50
14.57573999999874
 51
90.058277999998381
  0
ARC
  5
524A
  8
AM_0
 10
226.98932705380949
 20
201.1205628358629
 30
0.0
 40
2.0060480100000002
 50
270.17248999999867
 51
359.82751000000121
  0
ARC
  5
524B
  8
AM_0
 10
226.99193705380949
 20
199.76790183586289
 30
0.0
 40
2.0033560499999989
 50
270.09594000000141
 51
359.90405999999848
  0
ARC
  5
524C
  8
AM_0
 10
226.99340705380951
 20
199.09642383586279
 30
0.0
 40
2.0019000299999989
 50
270.05438000000072
 51
359.94561999999922
  0
ARC
  5
524D
  8
AM_0
 10
297.64070705380948
 20
215.15855883586289
 30
0.0
 40
1.49599605
 50
89.821706999999776
 51
165.0476599999985
  0
ARC
  5
524E
  8
AM_0
 10
172.99055705380951
 20
298.00453983586289
 30
0.0
 40
1.000011959999999
 50
89.726507999999697
 51
270.27347999999972
  0
ARC
  5
524F
  8
AM_0
 10
155.2595370538094
 20
268.00954383586293
 30
0.0
 40
1.26501207
 50
89.737716000001527
 51
270.26227999999981
  0
ARC
  5
5250
  8
AM_0
 10
155.3253270538095
 20
278.01454683586292
 30
0.0
 40
1.330008059999999
 50
90.000003000000945
 51
270.0
  0
ARC
  5
5251
  8
AM_0
 10
164.45531705380941
 20
288.02953383586288
 30
0.0
 40
1.465004009999999
 50
90.000003000000945
 51
270.0
  0
ARC
  5
5252
  8
AM_0
 10
164.66846705380951
 20
298.04952183586289
 30
0.0
 40
1.6750160999999979
 50
89.766540000000646
 51
270.23345999999941
  0
ARC
  5
5253
  8
AM_0
 10
156.5453670538094
 20
268.00453683586278
 30
0.0
 40
1.0000000199999981
 50
90.000003000000945
 51
270.0
  0
ARC
  5
5254
  8
AM_0
 10
156.5453670538094
 20
278.00453883586289
 30
0.0
 40
1.0000000199999981
 50
90.000003000000945
 51
270.0
  0
ARC
  5
5255
  8
AM_0
 10
165.54059705380939
 20
298.00453983586289
 30
0.0
 40
1.000011959999999
 50
89.728447999999375
 51
270.27153999999882
  0
ARC
  5
5256
  8
AM_0
 10
165.54059705380939
 20
288.00453783586289
 30
0.0
 40
1.000011959999999
 50
89.728447999999375
 51
270.27153999999882
  0
ARC
  5
5257
  8
AM_0
 10
294.81530705380948
 20
298.04952183586289
 30
0.0
 40
1.675004159999999
 50
276.1690557384461
 51
83.83094426155381
  0
ARC
  5
5258
  8
AM_0
 10
294.81530705380948
 20
227.95955283586289
 30
0.0
 40
1.675004159999999
 50
276.16905573844969
 51
83.830944261550229
  0
ARC
  5
5259
  8
AM_0
 10
156.5453670538094
 20
258.00455283586291
 30
0.0
 40
1.0000000199999981
 50
90.000003000000945
 51
270.0
  0
ARC
  5
525A
  8
AM_0
 10
172.99055705380951
 20
248.00453883586289
 30
0.0
 40
1.000011959999999
 50
89.726507999999697
 51
227.40544825727639
  0
ARC
  5
525B
  8
AM_0
 10
172.99055705380951
 20
238.00453683586281
 30
0.0
 40
1.000011959999999
 50
132.59438434211481
 51
270.27347999999972
  0
ARC
  5
525C
  8
AM_0
 10
155.3253270538095
 20
247.99454283586289
 30
0.0
 40
1.330008059999999
 50
90.000003000000945
 51
270.0
  0
ARC
  5
525D
  8
AM_0
 10
155.45531705380941
 20
237.9795438358629
 30
0.0
 40
1.465004009999999
 50
90.000003000000945
 51
270.0
  0
ARC
  5
525E
  8
AM_0
 10
156.54059705380939
 20
228.004552835863
 30
0.0
 40
1.000011959999999
 50
89.728462000000377
 51
270.27153999999882
  0
ARC
  5
525F
  8
AM_0
 10
172.99055705380951
 20
228.004552835863
 30
0.0
 40
1.000011959999999
 50
89.726507999999697
 51
270.27347999999972
  0
ARC
  5
5260
  8
AM_0
 10
155.2595370538094
 20
258.00455283586291
 30
0.0
 40
1.2700120500000001
 50
89.738748000000555
 51
270.26124000000118
  0
ARC
  5
5261
  8
AM_0
 10
155.66846705380951
 20
227.95955283586289
 30
0.0
 40
1.6750160999999979
 50
89.764983000000569
 51
270.23500999999908
  0
ARC
  5
5262
  8
AM_0
 10
156.5453670538094
 20
248.00453883586289
 30
0.0
 40
1.0000000199999981
 50
90.000003000000945
 51
270.0
  0
ARC
  5
5263
  8
AM_0
 10
156.54059705380939
 20
238.00453683586281
 30
0.0
 40
1.000011959999999
 50
89.728462000000377
 51
270.27153999999882
  0
LINE
  5
5265
  8
ﾁｭｳｼﾝｾﾝ
 10
246.9953070538096
 20
314.00453883586312
 30
0.0
 11
246.9953070538096
 21
212.00453883586289
 31
0.0
  0
LINE
  5
5266
  8
AM_0
 10
290.9953070538096
 20
217.004538835863
 30
0.0
 11
202.99530705380951
 21
217.004538835863
 31
0.0
  0
ARC
  5
5267
  8
AM_0
 10
221.06637486567499
 20
222.00453883586289
 30
0.0
 40
5.0
 50
225.0
 51
270.0
1001
GENIUS_GENOBJ-N-FIL_13
1002
{
1000
OWNER
1000
GEN
1002
}
1001
GENIUS_GENODEF_13
1002
{
1000
HIER
1070
     0
1002
}
1002
{
1000
MANEDIT
1070
     0
1002
}
1002
{
1000
NOSEL
1070
     0
1002
}
1002
{
1000
BEHIND
1070
     0
1002
}
1002
{
1000
OTHER
1070
     0
1002
}
1002
{
1000
REACTOR
1002
}
  0
LINE
  5
5268
  8
AM_0
 10
272.26738499245181
 20
222.00453883586289
 30
0.0
 11
221.7232291151673
 21
222.00453883586289
 31
0.0
  0
ARC
  5
5269
  8
AM_0
 10
272.26738499245181
 20
227.00453883586289
 30
0.0
 40
5.0
 50
270.0
 51
315.0
1001
GENIUS_GENOBJ-N-FIL_13
1002
{
1000
OWNER
1000
GEN
1002
}
1001
GENIUS_GENODEF_13
1002
{
1000
HIER
1070
     0
1002
}
1002
{
1000
MANEDIT
1070
     0
1002
}
1002
{
1000
NOSEL
1070
     0
1002
}
1002
{
1000
BEHIND
1070
     0
1002
}
1002
{
1000
OTHER
1070
     0
1002
}
1002
{
1000
REACTOR
1002
}
  0
ARC
  5
526A
  8
AM_0
 10
290.9953070538096
 20
221.00453883586289
 30
0.0
 40
4.0
 50
270.0
 51
0.0
1001
GENIUS_GENOBJ-N-FIL_13
1002
{
1000
OWNER
1000
GEN
1002
}
1001
GENIUS_GENODEF_13
1002
{
1000
HIER
1070
     0
1002
}
1002
{
1000
MANEDIT
1070
     0
1002
}
1002
{
1000
NOSEL
1070
     0
1002
}
1002
{
1000
BEHIND
1070
     0
1002
}
1002
{
1000
OTHER
1070
     0
1002
}
1002
{
1000
REACTOR
1002
}
  0
LINE
  5
526B
  8
AM_0
 10
290.99530705380943
 20
309.00453883586317
 30
0.0
 11
202.99530705380951
 21
309.00453883586317
 31
0.0
  0
ARC
  5
526C
  8
AM_0
 10
272.92423924194401
 20
304.00453883586317
 30
0.0
 40
5.0
 50
45.0
 51
90.0
1001
GENIUS_GENOBJ-N-FIL_13
1002
{
1000
OWNER
1000
GEN
1002
}
1001
GENIUS_GENODEF_13
1002
{
1000
HIER
1070
     0
1002
}
1002
{
1000
MANEDIT
1070
     0
1002
}
1002
{
1000
NOSEL
1070
     0
1002
}
1002
{
1000
BEHIND
1070
     0
1002
}
1002
{
1000
OTHER
1070
     0
1002
}
1002
{
1000
REACTOR
1002
}
  0
ARC
  5
526D
  8
AM_0
 10
221.06637486567519
 20
304.00453883586317
 30
0.0
 40
5.0
 50
90.0
 51
135.0
1001
GENIUS_GENODEF_13
1002
{
1000
HIER
1070
     0
1002
}
1002
{
1000
MANEDIT
1070
     0
1002
}
1002
{
1000
NOSEL
1070
     0
1002
}
1002
{
1000
BEHIND
1070
     0
1002
}
1002
{
1000
OTHER
1070
     0
1002
}
1002
{
1000
REACTOR
1002
}
1001
GENIUS_GENOBJ-N-FIL_13
1002
{
1000
OWNER
1000
GEN
1002
}
  0
LINE
  5
526E
  8
AM_0
 10
272.2673849924517
 20
304.00453883586317
 30
0.0
 11
221.72322911516741
 21
304.00453883586317
 31
0.0
  0
ARC
  5
526F
  8
AM_0
 10
221.72322911516741
 20
299.00453883586317
 30
0.0
 40
5.0
 50
90.0
 51
135.0
1001
GENIUS_GENODEF_13
1002
{
1000
HIER
1070
     0
1002
}
1002
{
1000
MANEDIT
1070
     0
1002
}
1002
{
1000
NOSEL
1070
     0
1002
}
1002
{
1000
BEHIND
1070
     0
1002
}
1002
{
1000
OTHER
1070
     0
1002
}
1002
{
1000
REACTOR
1002
}
1001
GENIUS_GENOBJ-N-FIL_13
1002
{
1000
OWNER
1000
GEN
1002
}
  0
ARC
  5
5270
  8
AM_0
 10
202.99530705380951
 20
305.00453883586317
 30
0.0
 40
4.0
 50
90.0
 51
180.0
1001
GENIUS_GENODEF_13
1002
{
1000
HIER
1070
     0
1002
}
1002
{
1000
MANEDIT
1070
     0
1002
}
1002
{
1000
NOSEL
1070
     0
1002
}
1002
{
1000
BEHIND
1070
     0
1002
}
1002
{
1000
OTHER
1070
     0
1002
}
1002
{
1000
REACTOR
1002
}
1001
GENIUS_GENOBJ-N-FIL_13
1002
{
1000
OWNER
1000
GEN
1002
}
  0
LINE
  5
5271
  8
AM_0
 10
198.99530705380951
 20
305.00453883586317
 30
0.0
 11
198.99530705380951
 21
221.00453883586289
 31
0.0
  0
ARC
  5
5272
  8
AM_0
 10
203.99530705380951
 20
239.07560664772819
 30
0.0
 40
5.0
 50
180.0
 51
225.0
1001
GENIUS_GENOBJ-N-FIL_13
1002
{
1000
OWNER
1000
GEN
1002
}
1001
GENIUS_GENODEF_13
1002
{
1000
HIER
1070
     0
1002
}
1002
{
1000
MANEDIT
1070
     0
1002
}
1002
{
1000
NOSEL
1070
     0
1002
}
1002
{
1000
BEHIND
1070
     0
1002
}
1002
{
1000
OTHER
1070
     0
1002
}
1002
{
1000
REACTOR
1002
}
  0
ARC
  5
5273
  8
AM_0
 10
203.99530705380951
 20
286.93347102399798
 30
0.0
 40
5.0
 50
135.0
 51
180.0
1001
GENIUS_GENOBJ-N-FIL_13
1002
{
1000
OWNER
1000
GEN
1002
}
1001
GENIUS_GENODEF_13
1002
{
1000
HIER
1070
     0
1002
}
1002
{
1000
MANEDIT
1070
     0
1002
}
1002
{
1000
NOSEL
1070
     0
1002
}
1002
{
1000
BEHIND
1070
     0
1002
}
1002
{
1000
OTHER
1070
     0
1002
}
1002
{
1000
REACTOR
1002
}
  0
LINE
  5
5274
  8
AM_0
 10
203.99530705380951
 20
286.27661677450521
 30
0.0
 11
203.9953070538094
 21
239.7324608972207
 31
0.0
  0
ARC
  5
5275
  8
AM_0
 10
208.9953070538094
 20
239.7324608972207
 30
0.0
 40
5.0
 50
180.0
 51
225.0
1001
GENIUS_GENOBJ-N-FIL_13
1002
{
1000
OWNER
1000
GEN
1002
}
1001
GENIUS_GENODEF_13
1002
{
1000
HIER
1070
     0
1002
}
1002
{
1000
MANEDIT
1070
     0
1002
}
1002
{
1000
NOSEL
1070
     0
1002
}
1002
{
1000
BEHIND
1070
     0
1002
}
1002
{
1000
OTHER
1070
     0
1002
}
1002
{
1000
REACTOR
1002
}
  0
ARC
  5
5276
  8
AM_0
 10
202.99530705380951
 20
221.00453883586289
 30
0.0
 40
4.0
 50
180.0
 51
270.0
1001
GENIUS_GENODEF_13
1002
{
1000
HIER
1070
     0
1002
}
1002
{
1000
MANEDIT
1070
     0
1002
}
1002
{
1000
NOSEL
1070
     0
1002
}
1002
{
1000
BEHIND
1070
     0
1002
}
1002
{
1000
OTHER
1070
     0
1002
}
1002
{
1000
REACTOR
1002
}
1001
GENIUS_GENOBJ-N-FIL_13
1002
{
1000
OWNER
1000
GEN
1002
}
  0
LINE
  5
5277
  8
AM_0
 10
294.9953070538096
 20
305.00453883586317
 30
0.0
 11
294.9953070538096
 21
221.00453883586289
 31
0.0
  0
ARC
  5
5278
  8
AM_0
 10
289.99530705380971
 20
286.93347102399758
 30
0.0
 40
5.0
 50
0.0
 51
45.0
1001
GENIUS_GENOBJ-N-FIL_13
1002
{
1000
OWNER
1000
GEN
1002
}
1001
GENIUS_GENODEF_13
1002
{
1000
HIER
1070
     0
1002
}
1002
{
1000
MANEDIT
1070
     0
1002
}
1002
{
1000
NOSEL
1070
     0
1002
}
1002
{
1000
BEHIND
1070
     0
1002
}
1002
{
1000
OTHER
1070
     0
1002
}
1002
{
1000
REACTOR
1002
}
  0
ARC
  5
5279
  8
AM_0
 10
289.99530705380971
 20
239.07560664772851
 30
0.0
 40
5.0
 50
315.0
 51
0.0
1001
GENIUS_GENOBJ-N-FIL_13
1002
{
1000
OWNER
1000
GEN
1002
}
1001
GENIUS_GENODEF_13
1002
{
1000
HIER
1070
     0
1002
}
1002
{
1000
MANEDIT
1070
     0
1002
}
1002
{
1000
NOSEL
1070
     0
1002
}
1002
{
1000
BEHIND
1070
     0
1002
}
1002
{
1000
OTHER
1070
     0
1002
}
1002
{
1000
REACTOR
1002
}
  0
LINE
  5
527A
  8
AM_0
 10
276.45977314787677
 20
307.54007274179583
 30
0.0
 11
293.53084095974231
 21
290.46900492993041
 31
0.0
  0
LINE
  5
527B
  8
AM_0
 10
275.80291889838441
 20
302.54007274179583
 30
0.0
 11
288.53084095974202
 21
289.81215068043821
 31
0.0
  0
ARC
  5
527C
  8
AM_0
 10
272.2673849924517
 20
299.00453883586317
 30
0.0
 40
5.0
 50
45.0
 51
90.0
1001
GENIUS_GENOBJ-N-FIL_13
1002
{
1000
OWNER
1000
GEN
1002
}
1001
GENIUS_GENODEF_13
1002
{
1000
HIER
1070
     0
1002
}
1002
{
1000
MANEDIT
1070
     0
1002
}
1002
{
1000
NOSEL
1070
     0
1002
}
1002
{
1000
BEHIND
1070
     0
1002
}
1002
{
1000
OTHER
1070
     0
1002
}
1002
{
1000
REACTOR
1002
}
  0
LINE
  5
527D
  8
AM_0
 10
289.99530705380943
 20
286.27661677450538
 30
0.0
 11
289.99530705380971
 21
239.7324608972207
 31
0.0
  0
ARC
  5
527E
  8
AM_0
 10
284.99530705380943
 20
286.27661677450538
 30
0.0
 40
5.0
 50
0.0
 51
45.0
1001
GENIUS_GENODEF_13
1002
{
1000
HIER
1070
     0
1002
}
1002
{
1000
MANEDIT
1070
     0
1002
}
1002
{
1000
NOSEL
1070
     0
1002
}
1002
{
1000
BEHIND
1070
     0
1002
}
1002
{
1000
OTHER
1070
     0
1002
}
1002
{
1000
REACTOR
1002
}
1001
GENIUS_GENOBJ-N-FIL_13
1002
{
1000
OWNER
1000
GEN
1002
}
  0
ARC
  5
527F
  8
AM_0
 10
290.99530705380943
 20
305.00453883586317
 30
0.0
 40
4.0
 50
0.0
 51
90.0
1001
GENIUS_GENODEF_13
1002
{
1000
HIER
1070
     0
1002
}
1002
{
1000
MANEDIT
1070
     0
1002
}
1002
{
1000
NOSEL
1070
     0
1002
}
1002
{
1000
BEHIND
1070
     0
1002
}
1002
{
1000
OTHER
1070
     0
1002
}
1002
{
1000
REACTOR
1002
}
1001
GENIUS_GENOBJ-N-FIL_13
1002
{
1000
OWNER
1000
GEN
1002
}
  0
LINE
  5
5280
  8
ﾁｭｳｼﾝｾﾝ1
 10
289.99530705381108
 20
298.00453883586272
 30
0.0
 11
289.9953070538117
 21
310.00453883586272
 31
0.0
  0
LINE
  5
5281
  8
ﾁｭｳｼﾝｾﾝ1
 10
295.99530705381147
 20
304.00453883586249
 30
0.0
 11
283.9953070538113
 21
304.00453883586317
 31
0.0
  0
LINE
  5
5282
  8
AM_0
 10
195.49530705380951
 20
291.50453883586312
 30
0.0
 11
197.9953070538094
 21
291.50453883586329
 31
0.0
  0
LINE
  5
5283
  8
AM_0
 10
197.99530705380951
 20
264.50453883586317
 30
0.0
 11
195.49530705380951
 21
264.50453883586317
 31
0.0
  0
LINE
  5
5284
  8
AM_0
 10
184.59663595746341
 20
267.50453883586317
 30
0.0
 11
184.59663595746341
 21
288.50453883586317
 31
0.0
  0
LINE
  5
5285
  8
AM_0
 10
169.59663595746341
 20
286.0361638898782
 30
0.0
 11
169.59663595746341
 21
269.97291378184718
 31
0.0
  0
LINE
  5
5286
  8
AM_0
 10
182.59663595746341
 20
266.00453883586317
 30
0.0
 11
182.59663595746341
 21
290.00453883586317
 31
0.0
  0
LINE
  5
5287
  8
AM_0
 10
173.09663595746341
 20
278.00453883586317
 30
0.0
 11
173.59663595746341
 21
277.50453883586317
 31
0.0
  0
LINE
  5
5288
  8
AM_0
 10
180.09663595746341
 20
289.7045388358631
 30
0.0
 11
180.09663595746341
 21
266.30453883586313
 31
0.0
  0
LINE
  5
5289
  8
AM_0
 10
189.99530705380951
 20
289.50453883586317
 30
0.0
 11
189.99530705380951
 21
266.50453883586317
 31
0.0
  0
LINE
  5
528A
  8
AM_0
 10
184.09663595746341
 20
277.30453883586119
 30
0.0
 11
184.09663595746341
 21
278.70453883586413
 31
0.0
  0
LINE
  5
528B
  8
AM_0
 10
186.1962716840344
 20
268.90453883586321
 30
0.0
 11
185.44627168403551
 21
287.1045388358632
 31
0.0
  0
LINE
  5
528C
  8
AM_0
 10
185.24530705380951
 20
268.90453883586321
 30
0.0
 11
184.59663595746341
 21
284.64562410717917
 31
0.0
  0
LINE
  5
528D
  8
AM_0
 10
185.99399964438149
 20
268.18888012349919
 30
0.0
 11
185.24673960097351
 21
287.81691059703019
 31
0.0
  0
LINE
  5
528E
  8
AM_0
 10
185.44483913687151
 20
268.19216707469508
 30
0.0
 11
184.69627168403551
 21
287.85453883586308
 31
0.0
  0
LINE
  5
528F
  8
AM_0
 10
182.59663595746341
 20
290.00453883586317
 30
0.0
 11
180.3966359574635
 21
290.00453883586317
 31
0.0
  0
ARC
  5
5290
  8
AM_0
 10
194.4953070538096
 20
290.50453883586317
 30
0.0
 40
0.5
 50
269.99999999998693
 51
0.0
  0
ARC
  5
5291
  8
AM_0
 10
195.4953070538096
 20
291.00453883586317
 30
0.0
 40
0.5
 50
90.0
 51
180.0
  0
LINE
  5
5292
  8
AM_0
 10
194.99530705380951
 20
290.50453883586317
 30
0.0
 11
194.99530705380951
 21
291.00453883586317
 31
0.0
  0
LINE
  5
5293
  8
AM_0
 10
185.99530705380951
 20
287.1045388358632
 30
0.0
 11
189.49530705380951
 21
287.10453883586308
 31
0.0
  0
LINE
  5
5294
  8
AM_0
 10
194.99530705380951
 20
288.86061015727012
 30
0.0
 11
194.99530705380951
 21
279.14846751445509
 31
0.0
  0
LINE
  5
5295
  8
AM_0
 10
190.49530705380951
 20
290.00453883586317
 30
0.0
 11
194.4953070538094
 21
290.00453883586317
 31
0.0
  0
LINE
  5
5296
  8
AM_0
 10
194.49530705380951
 20
289.36061015727
 30
0.0
 11
189.99530705380951
 21
289.36061015727
 31
0.0
  0
ARC
  5
5297
  8
AM_0
 10
194.4953070538096
 20
288.86061015727012
 30
0.0
 40
0.5
 50
0.0
 51
90.0
  0
ARC
  5
5298
  8
AM_0
 10
189.49530705380951
 20
287.60453883586308
 30
0.0
 40
0.5
 50
270.0
 51
0.0
  0
ARC
  5
5299
  8
AM_0
 10
190.49530705380951
 20
289.50453883586317
 30
0.0
 40
0.5
 50
90.0
 51
180.0
  0
LINE
  5
529A
  8
AM_0
 10
194.49530705380951
 20
278.64846751445509
 30
0.0
 11
189.99530705380951
 21
278.64846751445509
 31
0.0
  0
ARC
  5
529B
  8
AM_0
 10
194.49530705380951
 20
279.14846751445509
 30
0.0
 40
0.5
 50
270.0
 51
0.0
  0
LINE
  5
529C
  8
AM_0
 10
184.09663595746341
 20
284.14970958815508
 30
0.0
 11
184.09663595746341
 21
282.97746640172221
 31
0.0
  0
LINE
  5
529D
  8
AM_0
 10
185.5230041124604
 20
287.1045388358632
 30
0.0
 11
185.99530705380951
 21
287.1045388358632
 31
0.0
  0
LINE
  5
529E
  8
AM_0
 10
185.42641161792119
 20
287.17865660259969
 30
0.0
 11
185.44627168403551
 21
287.1045388358632
 31
0.0
  0
ARC
  5
529F
  8
AM_0
 10
185.5230041124604
 20
287.2045388358631
 30
0.0
 40
0.1000000000000346
 50
195.00019500644461
 51
270.0
  0
ARC
  5
52A0
  8
AM_0
 10
183.79663595746359
 20
287.29137181637111
 30
0.0
 40
0.3000000000000043
 50
270.0
 51
0.0
  0
LINE
  5
52A1
  8
AM_0
 10
182.59663595746341
 20
289.40453883586321
 30
0.0
 11
183.81659166062059
 21
289.32320845565221
 31
0.0
  0
LINE
  5
52A2
  8
AM_0
 10
182.59663595746341
 20
288.24828680002321
 30
0.0
 11
183.79663595746359
 21
288.24828680002321
 31
0.0
  0
LINE
  5
52A3
  8
AM_0
 10
184.09663595746341
 20
289.00453883586317
 30
0.0
 11
182.59663595746341
 21
289.00453883586317
 31
0.0
  0
ARC
  5
52A4
  8
AM_0
 10
184.09663595746341
 20
288.50453883586317
 30
0.0
 40
0.5
 50
0.0
 51
90.0
  0
LINE
  5
52A5
  8
AM_0
 10
184.09663595746341
 20
289.02387290829517
 30
0.0
 11
184.09663595746341
 21
289.00453883586317
 31
0.0
  0
ARC
  5
52A6
  8
AM_0
 10
183.79663595746359
 20
289.02387290829517
 30
0.0
 40
0.3000000000000007
 50
0.0
 51
86.18592516571853
  0
LINE
  5
52A7
  8
AM_0
 10
185.16857462538439
 20
287.85453883586308
 30
0.0
 11
185.24530705381039
 21
287.85453883586308
 31
0.0
  0
LINE
  5
52A8
  8
AM_0
 10
185.24530705381039
 20
287.85453883586308
 30
0.0
 11
185.2651671199236
 21
287.78042106912659
 31
0.0
  0
LINE
  5
52A9
  8
AM_0
 10
184.6764116179213
 20
287.78042106912659
 30
0.0
 11
184.69627168403551
 21
287.85453883586308
 31
0.0
  0
LINE
  5
52AA
  8
AM_0
 10
184.69627168403551
 20
287.85453883586308
 30
0.0
 11
184.7730041124604
 21
287.85453883586308
 31
0.0
  0
LINE
  5
52AB
  8
AM_0
 10
185.2651671199236
 20
287.78042106912659
 30
0.0
 11
185.42641161792119
 21
287.17865660259969
 31
0.0
  0
LINE
  5
52AC
  8
AM_0
 10
184.7730041124604
 20
287.85453883586308
 30
0.0
 11
185.16857462538439
 21
287.85453883586308
 31
0.0
  0
LINE
  5
52AD
  8
AM_0
 10
184.5966359574644
 20
287.48269830430218
 30
0.0
 11
184.6764116179213
 21
287.78042106912659
 31
0.0
  0
ARC
  5
52AE
  8
AM_0
 10
185.16857462538451
 20
287.75453883586317
 30
0.0
 40
0.0999999999999866
 50
15.00019500657257
 51
90.0
  0
ARC
  5
52AF
  8
AM_0
 10
184.7730041124606
 20
287.75453883586317
 30
0.0
 40
0.1000000000000014
 50
90.0
 51
164.9998049934274
  0
LINE
  5
52B0
  8
AM_0
 10
184.09663595746341
 20
287.94828680002308
 30
0.0
 11
184.09663595746341
 21
287.29137181637111
 31
0.0
  0
ARC
  5
52B1
  8
AM_0
 10
183.79663595746359
 20
287.94828680002308
 30
0.0
 40
0.3000000000000007
 50
0.0
 51
90.0
  0
LINE
  5
52B2
  8
AM_0
 10
182.59663595746341
 20
284.4497095881552
 30
0.0
 11
183.79663595746359
 21
284.4497095881552
 31
0.0
  0
LINE
  5
52B3
  8
AM_0
 10
183.79663595746359
 20
286.9913718163711
 30
0.0
 11
182.59663595746341
 21
286.9913718163711
 31
0.0
  0
LINE
  5
52B4
  8
AM_0
 10
185.44627168403551
 20
287.1045388358632
 30
0.0
 11
185.5230041124604
 21
287.1045388358632
 31
0.0
  0
ARC
  5
52B5
  8
AM_0
 10
183.79663595746359
 20
284.14970958815508
 30
0.0
 40
0.3000000000000007
 50
0.0
 51
90.0
  0
LINE
  5
52B6
  8
AM_0
 10
183.79663595746359
 20
282.6774664017222
 30
0.0
 11
182.59663595746341
 21
282.6774664017222
 31
0.0
  0
ARC
  5
52B7
  8
AM_0
 10
183.79663595746359
 20
282.97746640172221
 30
0.0
 40
0.3000000000000043
 50
270.0
 51
0.0
  0
LINE
  5
52B8
  8
AM_0
 10
183.79663595746359
 20
279.0045388358642
 30
0.0
 11
182.59663595746341
 21
279.0045388358642
 31
0.0
  0
ARC
  5
52B9
  8
AM_0
 10
183.79663595746359
 20
278.70453883586413
 30
0.0
 40
0.3000000000000007
 50
0.0
 51
90.0
  0
LINE
  5
52BA
  8
AM_0
 10
173.59663595746341
 20
288.13781866451001
 30
0.0
 11
180.09663595746341
 21
288.13781866451001
 31
0.0
  0
LINE
  5
52BB
  8
AM_0
 10
173.59663595746341
 20
288.63781866451012
 30
0.0
 11
180.09663595746341
 21
288.63781866451012
 31
0.0
  0
LINE
  5
52BC
  8
AM_0
 10
180.09663595746341
 20
278.50453883586317
 30
0.0
 11
173.59663595746341
 21
278.50453883586317
 31
0.0
  0
LINE
  5
52BD
  8
AM_0
 10
173.09663595746341
 20
279.00453883586317
 30
0.0
 11
180.09663595746341
 21
279.00453883586317
 31
0.0
  0
LINE
  5
52BE
  8
AM_0
 10
179.79663595746359
 20
289.00453883586317
 30
0.0
 11
172.95868589264541
 21
289.00453883586317
 31
0.0
  0
LINE
  5
52BF
  8
AM_0
 10
180.09663595746341
 20
279.35122690440409
 30
0.0
 11
173.59663595746341
 21
279.35122690440409
 31
0.0
  0
LINE
  5
52C0
  8
AM_0
 10
180.09663595746341
 20
287.6578507673222
 30
0.0
 11
173.59663595746341
 21
287.6578507673222
 31
0.0
  0
ARC
  5
52C1
  8
AM_0
 10
180.3966359574635
 20
289.7045388358631
 30
0.0
 40
0.2999999999999971
 50
90.0
 51
180.0
  0
ARC
  5
52C2
  8
AM_0
 10
179.79663595746359
 20
289.30453883586318
 30
0.0
 40
0.2999999999999971
 50
270.0
 51
0.0
  0
ARC
  5
52C3
  8
AM_0
 10
181.72163595746341
 20
283.50453883586317
 30
0.0
 40
9.124999999999984
 50
152.92493329271929
 51
207.07506670728071
  0
LINE
  5
52C4
  8
AM_0
 10
172.318501492981
 20
288.77276011546053
 30
0.0
 11
169.95645155779891
 21
286.80438516947561
 31
0.0
  0
LINE
  5
52C5
  8
AM_0
 10
173.09663595746341
 20
288.42610625235511
 30
0.0
 11
173.59663595746341
 21
289.00453883586317
 31
0.0
  0
ARC
  5
52C6
  8
AM_0
 10
172.95868589264541
 20
288.00453883586317
 30
0.0
 40
1.0
 50
90.0
 51
129.805571092256
  0
LINE
  5
52C7
  8
AM_0
 10
173.59663595746341
 20
288.63781866451012
 30
0.0
 11
173.09663595746341
 21
288.42610625235511
 31
0.0
  0
LINE
  5
52C8
  8
AM_0
 10
173.09663595746341
 20
287.96383097938423
 30
0.0
 11
173.59663595746341
 21
288.63781866451012
 31
0.0
  0
LINE
  5
52C9
  8
AM_0
 10
173.59663595746341
 20
288.13781866451001
 30
0.0
 11
173.09663595746341
 21
287.96383097938423
 31
0.0
  0
LINE
  5
52CA
  8
AM_0
 10
173.09663595746341
 20
287.42610625235511
 30
0.0
 11
173.59663595746341
 21
288.13781866451001
 31
0.0
  0
LINE
  5
52CB
  8
AM_0
 10
173.59663595746341
 20
287.6578507673222
 30
0.0
 11
173.09663595746341
 21
287.42610625235511
 31
0.0
  0
ARC
  5
52CC
  8
AM_0
 10
170.59663595746341
 20
286.0361638898782
 30
0.0
 40
1.0000000000000291
 50
129.80557109226771
 51
180.0
  0
LINE
  5
52CD
  8
AM_0
 10
173.59663595746341
 20
278.50453883586317
 30
0.0
 11
173.09663595746341
 21
278.00453883586317
 31
0.0
  0
LINE
  5
52CE
  8
AM_0
 10
173.09663595746341
 20
279.00453883586317
 30
0.0
 11
173.59663595746341
 21
278.50453883586317
 31
0.0
  0
LINE
  5
52CF
  8
AM_0
 10
173.59663595746341
 20
279.35122690440409
 30
0.0
 11
173.09663595746341
 21
279.00453883586317
 31
0.0
  0
LINE
  5
52D0
  8
AM_0
 10
180.3966359574635
 20
266.00453883586317
 30
0.0
 11
182.59663595746341
 21
266.00453883586317
 31
0.0
  0
ARC
  5
52D1
  8
AM_0
 10
194.49530705380951
 20
265.50453883586317
 30
0.0
 40
0.5
 50
0.0
 51
90.000000000006537
  0
LINE
  5
52D2
  8
AM_0
 10
189.49530705380951
 20
268.90453883586321
 30
0.0
 11
186.2730041124604
 21
268.90453883586321
 31
0.0
  0
LINE
  5
52D3
  8
AM_0
 10
194.99530705380951
 20
276.86061015727012
 30
0.0
 11
194.99530705380951
 21
267.14846751445509
 31
0.0
  0
LINE
  5
52D4
  8
AM_0
 10
189.99530705380951
 20
277.36061015727012
 30
0.0
 11
194.49530705380951
 21
277.36061015727012
 31
0.0
  0
ARC
  5
52D5
  8
AM_0
 10
194.49530705380951
 20
276.86061015727012
 30
0.0
 40
0.5
 50
0.0
 51
90.0
  0
LINE
  5
52D6
  8
AM_0
 10
189.99530705380951
 20
266.64846751445509
 30
0.0
 11
194.49530705380951
 21
266.64846751445509
 31
0.0
  0
LINE
  5
52D7
  8
AM_0
 10
194.4953070538094
 20
266.00453883586317
 30
0.0
 11
190.49530705380951
 21
266.00453883586317
 31
0.0
  0
ARC
  5
52D8
  8
AM_0
 10
194.49530705380951
 20
267.14846751445509
 30
0.0
 40
0.5
 50
270.0
 51
0.0
  0
ARC
  5
52D9
  8
AM_0
 10
189.49530705380951
 20
268.40453883586321
 30
0.0
 40
0.5
 50
0.0
 51
90.0
  0
ARC
  5
52DA
  8
AM_0
 10
190.49530705380951
 20
266.50453883586317
 30
0.0
 40
0.5
 50
180.0
 51
270.0
  0
ARC
  5
52DB
  8
AM_0
 10
183.79663595746359
 20
271.8593680835711
 30
0.0
 40
0.3000000000000114
 50
270.0
 51
0.0
  0
LINE
  5
52DC
  8
AM_0
 10
182.59663595746341
 20
277.00453883586118
 30
0.0
 11
183.79663595746359
 21
277.00453883586118
 31
0.0
  0
ARC
  5
52DD
  8
AM_0
 10
183.79663595746359
 20
277.30453883586108
 30
0.0
 40
0.2999999999999971
 50
270.0
 51
0.0
  0
LINE
  5
52DE
  8
AM_0
 10
182.59663595746341
 20
273.3316112700042
 30
0.0
 11
183.79663595746359
 21
273.3316112700042
 31
0.0
  0
ARC
  5
52DF
  8
AM_0
 10
183.79663595746359
 20
273.03161127000408
 30
0.0
 40
0.3000000000000007
 50
0.0
 51
90.0
  0
LINE
  5
52E0
  8
AM_0
 10
184.09663595746341
 20
273.03161127000408
 30
0.0
 11
184.09663595746341
 21
271.85936808357121
 31
0.0
  0
LINE
  5
52E1
  8
AM_0
 10
185.5230041124604
 20
268.15453883586321
 30
0.0
 11
185.91857462538439
 21
268.15453883586321
 31
0.0
  0
LINE
  5
52E2
  8
AM_0
 10
185.5230041124604
 20
268.15453883586321
 30
0.0
 11
185.91857462538439
 21
268.15453883586321
 31
0.0
  0
LINE
  5
52E3
  8
AM_0
 10
186.0151671199236
 20
268.2286566025997
 30
0.0
 11
186.1764116179213
 21
268.83042106912671
 31
0.0
  0
LINE
  5
52E4
  8
AM_0
 10
186.0151671199236
 20
268.2286566025997
 30
0.0
 11
186.1764116179213
 21
268.83042106912671
 31
0.0
  0
ARC
  5
52E5
  8
AM_0
 10
186.2730041124604
 20
268.80453883586313
 30
0.0
 40
0.0999999999999943
 50
90.0
 51
164.9998049934874
  0
ARC
  5
52E6
  8
AM_0
 10
185.91857462538439
 20
268.25453883586317
 30
0.0
 40
0.0999999999999943
 50
270.0
 51
344.99980499349448
  0
LINE
  5
52E7
  8
AM_0
 10
184.5957893689224
 20
268.52953883586292
 30
0.0
 11
184.6764116179213
 21
268.83042106912671
 31
0.0
  0
LINE
  5
52E8
  8
AM_0
 10
185.2480177060155
 20
268.8652743027651
 30
0.0
 11
185.4264116179215
 21
268.2286566025997
 31
0.0
  0
LINE
  5
52E9
  8
AM_0
 10
185.2651671199236
 20
268.83042106912671
 30
0.0
 11
185.4264116179215
 21
268.2286566025997
 31
0.0
  0
LINE
  5
52EA
  8
AM_0
 10
184.09663595746341
 20
268.71770585535421
 30
0.0
 11
184.09663595746341
 21
268.0607908717032
 31
0.0
  0
LINE
  5
52EB
  8
AM_0
 10
184.59663595746341
 20
268.53269830430111
 30
0.0
 11
184.6764116179213
 21
268.83042106912671
 31
0.0
  0
LINE
  5
52EC
  8
AM_0
 10
182.59663595746341
 20
269.01770585535422
 30
0.0
 11
183.79663595746359
 21
269.01770585535422
 31
0.0
  0
LINE
  5
52ED
  8
AM_0
 10
183.79663595746359
 20
271.55936808357109
 30
0.0
 11
182.59663595746341
 21
271.55936808357012
 31
0.0
  0
LINE
  5
52EE
  8
AM_0
 10
185.2012068908995
 20
268.90453883586321
 30
0.0
 11
185.2480177060155
 21
268.8652743027651
 31
0.0
  0
LINE
  5
52EF
  8
AM_0
 10
184.7730041124604
 20
268.90453883586321
 30
0.0
 11
185.2012068908995
 21
268.90453883586321
 31
0.0
  0
LINE
  5
52F0
  8
AM_0
 10
184.7730041124604
 20
268.90453883586321
 30
0.0
 11
185.16857462538439
 21
268.90453883586321
 31
0.0
  0
ARC
  5
52F1
  8
AM_0
 10
184.7730041124604
 20
268.80453883586313
 30
0.0
 40
0.0999999999999943
 50
90.0
 51
164.9998049934874
  0
ARC
  5
52F2
  8
AM_0
 10
185.16857462538439
 20
268.80453883586313
 30
0.0
 40
0.0999999999999608
 50
15.00019500651257
 51
90.0
  0
ARC
  5
52F3
  8
AM_0
 10
183.79663595746359
 20
268.7177058553541
 30
0.0
 40
0.3000000000000007
 50
0.0
 51
90.0
  0
LINE
  5
52F4
  8
AM_0
 10
182.59663595746341
 20
267.00453883586317
 30
0.0
 11
184.09663595746341
 21
267.00453883586317
 31
0.0
  0
LINE
  5
52F5
  8
AM_0
 10
183.79663595746359
 20
267.76079087170319
 30
0.0
 11
182.59663595746341
 21
267.76079087170319
 31
0.0
  0
LINE
  5
52F6
  8
AM_0
 10
183.81659166062059
 20
266.68586921607312
 30
0.0
 11
182.59663595746341
 21
266.6045388358632
 31
0.0
  0
ARC
  5
52F7
  8
AM_0
 10
184.09663595746341
 20
267.50453883586317
 30
0.0
 40
0.5
 50
270.0
 51
0.0
  0
ARC
  5
52F8
  8
AM_0
 10
185.5230041124604
 20
268.25453883586317
 30
0.0
 40
0.0999999999999606
 50
195.00019500650541
 51
270.0
  0
ARC
  5
52F9
  8
AM_0
 10
183.79663595746359
 20
268.0607908717032
 30
0.0
 40
0.2999999999999971
 50
270.0
 51
0.0
  0
LINE
  5
52FA
  8
AM_0
 10
184.09663595746341
 20
267.00453883586317
 30
0.0
 11
184.09663595746341
 21
266.98520476343009
 31
0.0
  0
ARC
  5
52FB
  8
AM_0
 10
183.79663595746359
 20
266.98520476343009
 30
0.0
 40
0.3000000000000043
 50
273.81407483428148
 51
0.0
  0
ARC
  5
52FC
  8
AM_0
 10
195.49530705380951
 20
265.00453883586317
 30
0.0
 40
0.5
 50
180.0
 51
270.0
  0
LINE
  5
52FD
  8
AM_0
 10
194.99530705380951
 20
265.00453883586317
 30
0.0
 11
194.99530705380951
 21
265.50453883586317
 31
0.0
  0
LINE
  5
52FE
  8
AM_0
 10
173.59663595746341
 20
268.3512269044042
 30
0.0
 11
180.09663595746341
 21
268.3512269044042
 31
0.0
  0
LINE
  5
52FF
  8
AM_0
 10
173.59663595746341
 20
276.6578507673222
 30
0.0
 11
180.09663595746341
 21
276.6578507673222
 31
0.0
  0
LINE
  5
5300
  8
AM_0
 10
172.95868589264541
 20
267.00453883586317
 30
0.0
 11
179.79663595746359
 21
267.00453883586317
 31
0.0
  0
LINE
  5
5301
  8
AM_0
 10
180.09663595746341
 20
277.00453883586317
 30
0.0
 11
173.09663595746341
 21
277.00453883586317
 31
0.0
  0
LINE
  5
5302
  8
AM_0
 10
173.59663595746341
 20
277.50453883586317
 30
0.0
 11
180.09663595746341
 21
277.50453883586317
 31
0.0
  0
LINE
  5
5303
  8
AM_0
 10
180.09663595746341
 20
267.3712590072152
 30
0.0
 11
173.59663595746341
 21
267.3712590072152
 31
0.0
  0
LINE
  5
5304
  8
AM_0
 10
180.09663595746341
 20
267.8712590072152
 30
0.0
 11
173.59663595746341
 21
267.8712590072152
 31
0.0
  0
ARC
  5
5305
  8
AM_0
 10
179.79663595746359
 20
266.70453883586299
 30
0.0
 40
0.3000000000000043
 50
0.0
 51
90.0
  0
ARC
  5
5306
  8
AM_0
 10
180.3966359574635
 20
266.30453883586313
 30
0.0
 40
0.2999999999999971
 50
180.0
 51
270.0
  0
ARC
  5
5307
  8
AM_0
 10
181.72163595746341
 20
272.50453883586317
 30
0.0
 40
9.124999999999984
 50
152.92493329271929
 51
207.07506670728071
  0
LINE
  5
5308
  8
AM_0
 10
173.09663595746341
 20
277.00453883586317
 30
0.0
 11
173.59663595746341
 21
276.6578507673222
 31
0.0
  0
LINE
  5
5309
  8
AM_0
 10
173.59663595746341
 20
277.50453883586317
 30
0.0
 11
173.09663595746341
 21
277.00453883586317
 31
0.0
  0
LINE
  5
530A
  8
AM_0
 10
169.95645155779891
 20
269.20469250224971
 30
0.0
 11
172.318501492981
 21
267.2363175562657
 31
0.0
  0
LINE
  5
530B
  8
AM_0
 10
173.59663595746341
 20
267.00453883586317
 30
0.0
 11
173.09663595746341
 21
267.58297141937021
 31
0.0
  0
ARC
  5
530C
  8
AM_0
 10
172.95868589264541
 20
268.00453883586317
 30
0.0
 40
1.0000000000000411
 50
230.19442890774391
 51
270.0
  0
LINE
  5
530D
  8
AM_0
 10
173.09663595746341
 20
268.58297141937021
 30
0.0
 11
173.59663595746341
 21
268.3512269044042
 31
0.0
  0
LINE
  5
530E
  8
AM_0
 10
173.59663595746341
 20
267.8712590072152
 30
0.0
 11
173.09663595746341
 21
268.58297141937021
 31
0.0
  0
LINE
  5
530F
  8
AM_0
 10
173.09663595746341
 20
268.04524669234218
 30
0.0
 11
173.59663595746341
 21
267.8712590072152
 31
0.0
  0
LINE
  5
5310
  8
AM_0
 10
173.59663595746341
 20
267.3712590072152
 30
0.0
 11
173.09663595746341
 21
268.04524669234218
 31
0.0
  0
LINE
  5
5311
  8
AM_0
 10
173.09663595746341
 20
267.58297141937021
 30
0.0
 11
173.59663595746341
 21
267.3712590072152
 31
0.0
  0
ARC
  5
5312
  8
AM_0
 10
170.59663595746341
 20
269.97291378184713
 30
0.0
 40
1.0
 50
180.0
 51
230.19442890773229
  0
CIRCLE
  5
5313
  8
AM_0
 10
203.99530705380781
 20
304.00453883586272
 30
0.0
 40
4.0
  0
LINE
  5
5314
  8
AM_0
 10
203.68380705380781
 20
301.72573043013853
 30
0.0
 11
204.30680705380789
 21
301.72573043013853
 31
0.0
  0
LINE
  5
5315
  8
AM_0
 10
203.68380705380781
 20
306.28334724158719
 30
0.0
 11
204.30680705380789
 21
306.28334724158719
 31
0.0
  0
LINE
  5
5316
  8
AM_0
 10
203.68380705380781
 20
301.72573043013853
 30
0.0
 11
203.68380705380781
 21
303.69303883586281
 31
0.0
  0
LINE
  5
5317
  8
AM_0
 10
203.68380705380781
 20
304.31603883586268
 30
0.0
 11
203.68380705380781
 21
306.28334724158719
 31
0.0
  0
LINE
  5
5318
  8
AM_0
 10
203.68380705380781
 20
304.31603883586268
 30
0.0
 11
201.7164986480835
 21
304.31603883586268
 31
0.0
  0
LINE
  5
5319
  8
AM_0
 10
203.68380705380781
 20
303.69303883586281
 30
0.0
 11
201.7164986480835
 21
303.69303883586281
 31
0.0
  0
LINE
  5
531A
  8
AM_0
 10
201.7164986480835
 20
304.31603883586268
 30
0.0
 11
201.7164986480835
 21
303.69303883586281
 31
0.0
  0
LINE
  5
531B
  8
AM_0
 10
204.30680705380789
 20
301.72573043013853
 30
0.0
 11
204.30680705380789
 21
303.69303883586281
 31
0.0
  0
LINE
  5
531C
  8
AM_0
 10
204.30680705380789
 20
304.31603883586268
 30
0.0
 11
204.30680705380789
 21
306.28334724158719
 31
0.0
  0
LINE
  5
531D
  8
AM_0
 10
206.2741154595322
 20
303.69303883586281
 30
0.0
 11
204.30680705380789
 21
303.69303883586281
 31
0.0
  0
LINE
  5
531E
  8
AM_0
 10
206.2741154595322
 20
304.31603883586268
 30
0.0
 11
204.30680705380789
 21
304.31603883586268
 31
0.0
  0
LINE
  5
531F
  8
AM_0
 10
206.2741154595322
 20
304.31603883586268
 30
0.0
 11
206.2741154595322
 21
303.69303883586281
 31
0.0
  0
CIRCLE
  5
5320
  8
AM_0
 10
289.99530705381147
 20
304.00453883586272
 30
0.0
 40
4.0
  0
LINE
  5
5321
  8
AM_0
 10
289.68380705381151
 20
301.7257304301383
 30
0.0
 11
290.30680705381138
 21
301.7257304301383
 31
0.0
  0
LINE
  5
5322
  8
AM_0
 10
289.68380705381151
 20
306.28334724158708
 30
0.0
 11
290.30680705381138
 21
306.28334724158708
 31
0.0
  0
LINE
  5
5323
  8
AM_0
 10
289.68380705381151
 20
301.7257304301383
 30
0.0
 11
289.68380705381151
 21
303.69303883586269
 31
0.0
  0
LINE
  5
5324
  8
AM_0
 10
289.68380705381151
 20
304.31603883586268
 30
0.0
 11
289.68380705381151
 21
306.28334724158708
 31
0.0
  0
LINE
  5
5325
  8
AM_0
 10
289.68380705381151
 20
304.31603883586268
 30
0.0
 11
287.716498648087
 21
304.31603883586268
 31
0.0
  0
LINE
  5
5326
  8
AM_0
 10
289.68380705381151
 20
303.69303883586269
 30
0.0
 11
287.716498648087
 21
303.69303883586269
 31
0.0
  0
LINE
  5
5327
  8
AM_0
 10
287.716498648087
 20
304.31603883586268
 30
0.0
 11
287.716498648087
 21
303.69303883586269
 31
0.0
  0
LINE
  5
5328
  8
AM_0
 10
290.30680705381138
 20
301.7257304301383
 30
0.0
 11
290.30680705381138
 21
303.69303883586269
 31
0.0
  0
LINE
  5
5329
  8
AM_0
 10
290.30680705381138
 20
304.31603883586268
 30
0.0
 11
290.30680705381138
 21
306.28334724158708
 31
0.0
  0
LINE
  5
532A
  8
AM_0
 10
292.27411545953572
 20
303.69303883586269
 30
0.0
 11
290.30680705381138
 21
303.69303883586269
 31
0.0
  0
LINE
  5
532B
  8
AM_0
 10
292.27411545953572
 20
304.31603883586268
 30
0.0
 11
290.30680705381138
 21
304.31603883586268
 31
0.0
  0
LINE
  5
532C
  8
AM_0
 10
292.27411545953572
 20
304.31603883586268
 30
0.0
 11
292.27411545953572
 21
303.69303883586269
 31
0.0
  0
LINE
  5
532D
  8
AM_0
 10
217.53084095974251
 20
307.54007274179588
 30
0.0
 11
200.4597731478768
 21
290.46900492993058
 31
0.0
  0
LINE
  5
532E
  8
AM_0
 10
218.1876952092347
 20
302.54007274179583
 30
0.0
 11
205.4597731478768
 21
289.81215068043809
 31
0.0
  0
ARC
  5
532F
  8
AM_0
 10
208.99530705380951
 20
286.27661677450521
 30
0.0
 40
5.0
 50
135.0
 51
180.0
1001
GENIUS_GENOBJ-N-FIL_13
1002
{
1000
OWNER
1000
GEN
1002
}
1001
GENIUS_GENODEF_13
1002
{
1000
HIER
1070
     0
1002
}
1002
{
1000
MANEDIT
1070
     0
1002
}
1002
{
1000
NOSEL
1070
     0
1002
}
1002
{
1000
BEHIND
1070
     0
1002
}
1002
{
1000
OTHER
1070
     0
1002
}
1002
{
1000
REACTOR
1002
}
  0
LINE
  5
5330
  8
AM_0
 10
276.45977314787677
 20
218.46900492993029
 30
0.0
 11
293.53084095974231
 21
235.5400727417956
 31
0.0
  0
ARC
  5
5331
  8
AM_0
 10
272.92423924194412
 20
222.00453883586289
 30
0.0
 40
5.0
 50
270.0
 51
315.0
1001
GENIUS_GENODEF_13
1002
{
1000
HIER
1070
     0
1002
}
1002
{
1000
MANEDIT
1070
     0
1002
}
1002
{
1000
NOSEL
1070
     0
1002
}
1002
{
1000
BEHIND
1070
     0
1002
}
1002
{
1000
OTHER
1070
     0
1002
}
1002
{
1000
REACTOR
1002
}
1001
GENIUS_GENOBJ-N-FIL_13
1002
{
1000
OWNER
1000
GEN
1002
}
  0
LINE
  5
5332
  8
AM_0
 10
275.80291889838458
 20
223.46900492993021
 30
0.0
 11
288.53084095974231
 21
236.19692699128791
 31
0.0
  0
ARC
  5
5333
  8
AM_0
 10
284.9953070538096
 20
239.7324608972207
 30
0.0
 40
5.0
 50
315.0
 51
0.0
1001
GENIUS_GENOBJ-N-FIL_13
1002
{
1000
OWNER
1000
GEN
1002
}
1001
GENIUS_GENODEF_13
1002
{
1000
HIER
1070
     0
1002
}
1002
{
1000
MANEDIT
1070
     0
1002
}
1002
{
1000
NOSEL
1070
     0
1002
}
1002
{
1000
BEHIND
1070
     0
1002
}
1002
{
1000
OTHER
1070
     0
1002
}
1002
{
1000
REACTOR
1002
}
  0
LINE
  5
5334
  8
AM_0
 10
217.53084095974231
 20
218.46900492993029
 30
0.0
 11
200.4597731478768
 21
235.5400727417956
 31
0.0
  0
LINE
  5
5335
  8
AM_0
 10
218.18769520923451
 20
223.46900492993021
 30
0.0
 11
205.4597731478768
 21
236.19692699128791
 31
0.0
  0
ARC
  5
5336
  8
AM_0
 10
221.7232291151673
 20
227.00453883586289
 30
0.0
 40
5.0
 50
225.0
 51
270.0
1001
GENIUS_GENOBJ-N-FIL_13
1002
{
1000
OWNER
1000
GEN
1002
}
1001
GENIUS_GENODEF_13
1002
{
1000
HIER
1070
     0
1002
}
1002
{
1000
MANEDIT
1070
     0
1002
}
1002
{
1000
NOSEL
1070
     0
1002
}
1002
{
1000
BEHIND
1070
     0
1002
}
1002
{
1000
OTHER
1070
     0
1002
}
1002
{
1000
REACTOR
1002
}
  0
CIRCLE
  5
5337
  8
AM_0
 10
203.99530705380769
 20
222.0045388358634
 30
0.0
 40
4.0
  0
LINE
  5
5338
  8
AM_0
 10
203.68380705380781
 20
224.28334724158779
 30
0.0
 11
204.30680705380769
 21
224.28334724158779
 31
0.0
  0
LINE
  5
5339
  8
AM_0
 10
203.68380705380781
 20
219.72573043013901
 30
0.0
 11
204.30680705380769
 21
219.72573043013901
 31
0.0
  0
LINE
  5
533A
  8
AM_0
 10
203.68380705380781
 20
224.28334724158779
 30
0.0
 11
203.68380705380781
 21
222.3160388358634
 31
0.0
  0
LINE
  5
533B
  8
AM_0
 10
203.68380705380781
 20
221.6930388358634
 30
0.0
 11
203.68380705380781
 21
219.72573043013901
 31
0.0
  0
LINE
  5
533C
  8
AM_0
 10
203.68380705380781
 20
221.6930388358634
 30
0.0
 11
201.71649864808339
 21
221.6930388358634
 31
0.0
  0
LINE
  5
533D
  8
AM_0
 10
203.68380705380781
 20
222.3160388358634
 30
0.0
 11
201.71649864808339
 21
222.3160388358634
 31
0.0
  0
LINE
  5
533E
  8
AM_0
 10
201.71649864808339
 20
221.6930388358634
 30
0.0
 11
201.71649864808339
 21
222.3160388358634
 31
0.0
  0
LINE
  5
533F
  8
AM_0
 10
204.30680705380769
 20
224.28334724158779
 30
0.0
 11
204.30680705380769
 21
222.3160388358634
 31
0.0
  0
LINE
  5
5340
  8
AM_0
 10
204.30680705380769
 20
221.6930388358634
 30
0.0
 11
204.30680705380769
 21
219.72573043013901
 31
0.0
  0
LINE
  5
5341
  8
AM_0
 10
206.27411545953211
 20
222.3160388358634
 30
0.0
 11
204.30680705380769
 21
222.3160388358634
 31
0.0
  0
LINE
  5
5342
  8
AM_0
 10
206.27411545953211
 20
221.6930388358634
 30
0.0
 11
204.30680705380769
 21
221.6930388358634
 31
0.0
  0
LINE
  5
5343
  8
AM_0
 10
206.27411545953211
 20
221.6930388358634
 30
0.0
 11
206.27411545953211
 21
222.3160388358634
 31
0.0
  0
CIRCLE
  5
5344
  8
AM_0
 10
289.9953070538113
 20
222.0045388358632
 30
0.0
 40
4.0
  0
LINE
  5
5345
  8
AM_0
 10
289.68380705381122
 20
224.28334724158771
 30
0.0
 11
290.30680705381133
 21
224.28334724158771
 31
0.0
  0
LINE
  5
5346
  8
AM_0
 10
289.68380705381122
 20
219.7257304301389
 30
0.0
 11
290.30680705381133
 21
219.7257304301389
 31
0.0
  0
LINE
  5
5347
  8
AM_0
 10
289.68380705381122
 20
224.28334724158771
 30
0.0
 11
289.68380705381122
 21
222.3160388358632
 31
0.0
  0
LINE
  5
5348
  8
AM_0
 10
289.68380705381122
 20
221.69303883586309
 30
0.0
 11
289.68380705381122
 21
219.7257304301389
 31
0.0
  0
LINE
  5
5349
  8
AM_0
 10
289.68380705381122
 20
221.69303883586309
 30
0.0
 11
287.71649864808688
 21
221.69303883586309
 31
0.0
  0
LINE
  5
534A
  8
AM_0
 10
289.68380705381122
 20
222.3160388358632
 30
0.0
 11
287.71649864808688
 21
222.3160388358632
 31
0.0
  0
LINE
  5
534B
  8
AM_0
 10
287.71649864808688
 20
221.69303883586309
 30
0.0
 11
287.71649864808688
 21
222.3160388358632
 31
0.0
  0
LINE
  5
534C
  8
AM_0
 10
290.30680705381133
 20
224.28334724158771
 30
0.0
 11
290.30680705381133
 21
222.3160388358632
 31
0.0
  0
LINE
  5
534D
  8
AM_0
 10
290.30680705381133
 20
221.69303883586309
 30
0.0
 11
290.30680705381133
 21
219.7257304301389
 31
0.0
  0
LINE
  5
534E
  8
AM_0
 10
292.27411545953572
 20
222.3160388358632
 30
0.0
 11
290.30680705381133
 21
222.3160388358632
 31
0.0
  0
LINE
  5
534F
  8
AM_0
 10
292.27411545953572
 20
221.69303883586309
 30
0.0
 11
290.30680705381133
 21
221.69303883586309
 31
0.0
  0
LINE
  5
5350
  8
AM_0
 10
292.27411545953572
 20
221.69303883586309
 30
0.0
 11
292.27411545953572
 21
222.3160388358632
 31
0.0
  0
LINE
  5
5351
  8
AM_0
 10
198.99530705380951
 20
232.004538835863
 30
0.0
 11
197.99530705380951
 21
232.004538835863
 31
0.0
  0
LINE
  5
5352
  8
AM_0
 10
198.99530705380951
 20
294.00453883586317
 30
0.0
 11
197.99530705380951
 21
294.00453883586312
 31
0.0
  0
LINE
  5
5353
  8
AM_0
 10
197.99530705380951
 20
232.004538835863
 30
0.0
 11
197.99530705380951
 21
294.00453883586312
 31
0.0
  0
LINE
  5
5354
  8
ﾁｭｳｼﾝｾﾝ1
 10
203.99530705380749
 20
298.00453883586272
 30
0.0
 11
203.99530705380809
 21
310.00453883586272
 31
0.0
  0
LINE
  5
5355
  8
ﾁｭｳｼﾝｾﾝ1
 10
209.99530705380781
 20
304.00453883586249
 30
0.0
 11
197.99530705380781
 21
304.00453883586317
 31
0.0
  0
LINE
  5
5356
  8
ﾁｭｳｼﾝｾﾝ1
 10
203.99530705380741
 20
216.0045388358634
 30
0.0
 11
203.99530705380809
 21
228.0045388358634
 31
0.0
  0
LINE
  5
5357
  8
ﾁｭｳｼﾝｾﾝ1
 10
209.99530705380769
 20
222.0045388358632
 30
0.0
 11
197.99530705380761
 21
222.00453883586371
 31
0.0
  0
LINE
  5
5358
  8
ﾁｭｳｼﾝｾﾝ1
 10
289.9953070538109
 20
216.0045388358632
 30
0.0
 11
289.99530705381147
 21
228.0045388358632
 31
0.0
  0
LINE
  5
5359
  8
ﾁｭｳｼﾝｾﾝ1
 10
295.99530705381119
 20
222.00453883586289
 30
0.0
 11
283.9953070538113
 21
222.0045388358636
 31
0.0
  0
LINE
  5
535D
  8
AM_0
 10
183.9757298337878
 20
266.74452783586298
 30
0.0
 11
189.99530705380951
 21
266.7445278358631
 31
0.0
  0
LINE
  5
535E
  8
ﾁｭｳｼﾝｾﾝ1
 10
167.99530705380951
 20
243.00453883586289
 30
0.0
 11
201.29325319229989
 21
243.00453883586289
 31
0.0
  0
LINE
  5
535F
  8
AM_0
 10
187.87030705381039
 20
236.61448477973889
 30
0.0
 11
187.88101665835549
 21
236.40453883586289
 31
0.0
  0
LINE
  5
5360
  8
AM_0
 10
187.88101665835549
 20
236.40453883586289
 30
0.0
 11
187.9173220455564
 21
235.6928254619759
 31
0.0
  0
LINE
  5
5361
  8
AM_0
 10
187.87030705381039
 20
240.37181632737989
 30
0.0
 11
188.11633327649051
 21
236.40453883586289
 31
0.0
  0
LINE
  5
5362
  8
AM_0
 10
188.58863621783951
 20
236.40453883586289
 30
0.0
 11
188.19306570491551
 21
236.40453883586289
 31
0.0
  0
LINE
  5
5363
  8
AM_0
 10
188.09647321037639
 20
236.3304210691274
 30
0.0
 11
187.93522871237849
 21
235.72865660259939
 31
0.0
  0
LINE
  5
5364
  8
AM_0
 10
188.11633327649051
 20
236.40453883586289
 30
0.0
 11
188.09647321037639
 21
236.3304210691274
 31
0.0
  0
LINE
  5
5365
  8
AM_0
 10
186.37030705381039
 20
234.004538835863
 30
0.0
 11
186.37030705381039
 21
234.30453883586401
 31
0.0
  0
LINE
  5
5366
  8
AM_0
 10
175.87030705380951
 20
243.004538835863
 30
0.0
 11
175.87030705380951
 21
237.6855638034539
 31
0.0
  0
LINE
  5
5367
  8
AM_0
 10
186.37030705381039
 20
234.504538835864
 30
0.0
 11
187.6703070538104
 21
234.504538835864
 31
0.0
  0
LINE
  5
5368
  8
AM_0
 10
187.37030705380951
 20
234.47603510449801
 30
0.0
 11
187.37030705381039
 21
234.504538835864
 31
0.0
  0
LINE
  5
5369
  8
AM_0
 10
178.37030705380749
 20
235.472347627727
 30
0.0
 11
184.37030705381039
 21
235.472347627727
 31
0.0
  0
LINE
  5
536A
  8
AM_0
 10
184.37030705381039
 20
234.972347627727
 30
0.0
 11
178.37030705380661
 21
234.972347627727
 31
0.0
  0
LINE
  5
536B
  8
AM_0
 10
178.37030705380661
 20
234.972347627727
 30
0.0
 11
178.87030705380661
 21
234.504538835863
 31
0.0
  0
LINE
  5
536C
  8
AM_0
 10
178.87030705380661
 20
234.972347627727
 30
0.0
 11
178.37030705380749
 21
235.472347627727
 31
0.0
  0
LINE
  5
536D
  8
AM_0
 10
178.37030705380749
 20
236.143322903696
 30
0.0
 11
178.87030705380661
 21
235.472347627727
 31
0.0
  0
LINE
  5
536E
  8
AM_0
 10
178.87030705380661
 20
236.19280114437299
 30
0.0
 11
178.37030705380749
 21
236.143322903696
 31
0.0
  0
LINE
  5
536F
  8
AM_0
 10
184.37030705381039
 20
241.91434500080501
 30
0.0
 11
184.37030705381039
 21
243.004538835863
 31
0.0
  0
LINE
  5
5370
  8
AM_0
 10
178.37030705380661
 20
242.004538835863
 30
0.0
 11
184.37030705381039
 21
242.004538835863
 31
0.0
  0
LINE
  5
5371
  8
AM_0
 10
178.87030705380661
 20
241.31627652735301
 30
0.0
 11
178.37030705380661
 21
242.004538835863
 31
0.0
  0
LINE
  5
5372
  8
AM_0
 10
178.37030705380661
 20
242.004538835863
 30
0.0
 11
178.87030705380749
 21
242.504538835863
 31
0.0
  0
LINE
  5
5373
  8
AM_0
 10
178.37030705380749
 20
243.004538835863
 30
0.0
 11
178.87030705380749
 21
242.504538835863
 31
0.0
  0
LINE
  5
5374
  8
AM_0
 10
178.87030705380749
 20
242.504538835863
 30
0.0
 11
184.37030705381039
 21
242.504538835863
 31
0.0
  0
LINE
  5
5375
  8
AM_0
 10
178.87030705380661
 20
241.31627652735301
 30
0.0
 11
184.37030705381039
 21
241.31627652735301
 31
0.0
  0
LINE
  5
5376
  8
AM_0
 10
178.87030705380661
 20
236.19280114437299
 30
0.0
 11
184.37030705381039
 21
236.1928011443739
 31
0.0
  0
LINE
  5
5377
  8
AM_0
 10
187.37030705380951
 20
242.55453883586401
 30
0.0
 11
187.37030705381039
 21
243.004538835863
 31
0.0
  0
LINE
  5
5378
  8
AM_0
 10
186.37030705381039
 20
234.30453883586401
 30
0.0
 11
186.37030705381039
 21
243.00453883586499
 31
0.0
  0
LINE
  5
5379
  8
AM_0
 10
187.07030705380959
 20
236.047034147831
 30
0.0
 11
186.37030705381039
 21
236.047034147831
 31
0.0
  0
LINE
  5
537A
  8
AM_0
 10
187.37030705380951
 20
235.34192329054099
 30
0.0
 11
187.37030705380951
 21
235.74703414783099
 31
0.0
  0
LINE
  5
537B
  8
AM_0
 10
186.37030705381039
 20
235.04192329054101
 30
0.0
 11
187.07030705380959
 21
235.04192329054101
 31
0.0
  0
LINE
  5
537C
  8
AM_0
 10
187.07030705380959
 20
239.42063433323199
 30
0.0
 11
186.37030705381039
 21
239.42063433323199
 31
0.0
  0
LINE
  5
537D
  8
AM_0
 10
187.37030705380951
 20
238.32071806694
 30
0.0
 11
187.37030705380951
 21
239.120634333232
 31
0.0
  0
LINE
  5
537E
  8
AM_0
 10
186.37030705381039
 20
238.02071806693999
 30
0.0
 11
187.07030705380959
 21
238.02071806693999
 31
0.0
  0
LINE
  5
537F
  8
AM_0
 10
186.37030705381039
 20
242.254538835863
 30
0.0
 11
187.07030705380959
 21
242.254538835863
 31
0.0
  0
LINE
  5
5380
  8
AM_0
 10
187.87030705381039
 20
243.00453883586289
 30
0.0
 11
187.87030705381039
 21
234.7045388358639
 31
0.0
  0
LINE
  5
5381
  8
AM_0
 10
184.5703070538095
 20
234.004538835863
 30
0.0
 11
186.37030705381039
 21
234.004538835863
 31
0.0
  0
LINE
  5
5382
  8
AM_0
 10
175.98619641401061
 20
237.36547160362201
 30
0.0
 11
178.22038388700039
 21
234.68444663602929
 31
0.0
  0
LINE
  5
5383
  8
AM_0
 10
187.10015816951611
 20
234.17752394743499
 30
0.0
 11
186.37030705381039
 21
234.10453883586399
 31
0.0
  0
LINE
  5
5384
  8
AM_0
 10
184.1703070538104
 20
234.504538835863
 30
0.0
 11
178.6044945267995
 21
234.5045388358609
 31
0.0
  0
LINE
  5
5385
  8
AM_0
 10
184.37030705381039
 20
241.91434500080501
 30
0.0
 11
184.37030705381039
 21
234.3045388358629
 31
0.0
  0
LINE
  5
5386
  8
AM_0
 10
184.37030705381039
 20
234.3045388358629
 30
0.0
 11
184.37030705380951
 21
234.20453883586299
 31
0.0
  0
LINE
  5
5387
  8
AM_0
 10
191.99530705380951
 20
234.7045388358631
 30
0.0
 11
191.99530705380951
 21
241.31627652735301
 31
0.0
  0
LINE
  5
5388
  8
AM_0
 10
188.49530705381039
 20
243.00453883586289
 30
0.0
 11
188.86806091182041
 21
235.68840048834301
 31
0.0
  0
LINE
  5
5389
  8
AM_0
 10
189.0443424235855
 20
243.00453883586289
 30
0.0
 11
189.4173220455564
 21
235.6928254619759
 31
0.0
  0
LINE
  5
538A
  8
AM_0
 10
188.6852287123786
 20
236.3304210691264
 30
0.0
 11
188.66536864626559
 21
236.40453883586289
 31
0.0
  0
LINE
  5
538B
  8
AM_0
 10
189.61633327649051
 20
236.40453883586289
 30
0.0
 11
189.5964732103765
 21
236.3304210691274
 31
0.0
  0
LINE
  5
538C
  8
AM_0
 10
189.33863621783951
 20
235.65453883586289
 30
0.0
 11
188.94306570491551
 21
235.65453883586289
 31
0.0
  0
LINE
  5
538D
  8
AM_0
 10
188.8464732103763
 20
235.7286566025995
 30
0.0
 11
188.6852287123786
 21
236.3304210691264
 31
0.0
  0
LINE
  5
538E
  8
AM_0
 10
189.5964732103765
 20
236.3304210691274
 30
0.0
 11
189.43522871237849
 21
235.72865660259939
 31
0.0
  0
LINE
  5
538F
  8
AM_0
 10
188.2560771174625
 20
243.00453883586289
 30
0.0
 11
188.66536864626559
 21
236.40453883586289
 31
0.0
  0
LINE
  5
5390
  8
AM_0
 10
189.20704174768761
 20
243.00453883586289
 30
0.0
 11
189.61633327649051
 21
236.40453883586289
 31
0.0
  0
LINE
  5
5391
  8
AM_0
 10
189.69306570491551
 20
236.40453883586289
 30
0.0
 11
191.49530705380951
 21
236.40453883586289
 31
0.0
  0
LINE
  5
5392
  8
AM_0
 10
191.99530705380951
 20
241.31627652735301
 30
0.0
 11
191.99530705380951
 21
243.004538835864
 31
0.0
  0
LINE
  5
5393
  8
AM_0
 10
192.19530705380959
 20
234.50453883586289
 30
0.0
 11
195.79530705380949
 21
234.50453883586289
 31
0.0
  0
LINE
  5
5394
  8
AM_0
 10
195.79530705380949
 20
241.31627652735301
 30
0.0
 11
191.99530705380951
 21
241.31627652735301
 31
0.0
  0
LINE
  5
5395
  8
AM_0
 10
191.99530705380951
 20
236.1928011443739
 30
0.0
 11
195.79530705380949
 21
236.1928011443739
 31
0.0
  0
LINE
  5
5396
  8
AM_0
 10
170.99530705380951
 20
243.004538835863
 30
0.0
 11
170.99530705380951
 21
238.754538835863
 31
0.0
  0
LINE
  5
5397
  8
AM_0
 10
175.87030705380951
 20
238.703402472227
 30
0.0
 11
170.99530705380951
 21
238.754538835863
 31
0.0
  0
LINE
  5
5398
  8
AM_0
 10
170.9953070538096
 20
247.254538835863
 30
0.0
 11
175.8703070538096
 21
247.3056751995
 31
0.0
  0
LINE
  5
5399
  8
AM_0
 10
170.9953070538096
 20
247.254538835863
 30
0.0
 11
170.99530705380951
 21
243.004538835863
 31
0.0
  0
LINE
  5
539A
  8
AM_0
 10
195.79530705380949
 20
249.81627652735301
 30
0.0
 11
191.9953070538096
 21
249.81627652735301
 31
0.0
  0
LINE
  5
539B
  8
AM_0
 10
191.99530705380951
 20
244.6928011443739
 30
0.0
 11
195.79530705380949
 21
244.6928011443739
 31
0.0
  0
LINE
  5
539C
  8
AM_0
 10
195.79530705380949
 20
251.50453883586289
 30
0.0
 11
192.19530705380959
 21
251.50453883586289
 31
0.0
  0
LINE
  5
539D
  8
AM_0
 10
191.99530705380951
 20
243.004538835864
 30
0.0
 11
191.99530705380951
 21
244.6928011443739
 31
0.0
  0
LINE
  5
539E
  8
AM_0
 10
191.4953070538096
 20
249.604538835863
 30
0.0
 11
188.9470394822356
 21
249.604538835863
 31
0.0
  0
LINE
  5
539F
  8
AM_0
 10
188.8703070538096
 20
249.604538835863
 30
0.0
 11
189.20704174768761
 21
243.00453883586289
 31
0.0
  0
LINE
  5
53A0
  8
AM_0
 10
187.91934242358451
 20
249.604538835863
 30
0.0
 11
188.2560771174625
 21
243.00453883586289
 31
0.0
  0
LINE
  5
53A1
  8
AM_0
 10
188.68920248969869
 20
250.28042106912639
 30
0.0
 11
188.8504469876965
 21
249.67865660259949
 31
0.0
  0
LINE
  5
53A2
  8
AM_0
 10
187.93920248969869
 20
249.67865660259949
 30
0.0
 11
188.10044698769639
 21
250.28042106912639
 31
0.0
  0
LINE
  5
53A3
  8
AM_0
 10
188.1970394822356
 20
250.354538835863
 30
0.0
 11
188.59260999515959
 21
250.354538835863
 31
0.0
  0
LINE
  5
53A4
  8
AM_0
 10
188.8504469876965
 20
249.67865660259949
 30
0.0
 11
188.8703070538096
 21
249.604538835863
 31
0.0
  0
LINE
  5
53A5
  8
AM_0
 10
187.91934242358451
 20
249.604538835863
 30
0.0
 11
187.93920248969869
 21
249.67865660259949
 31
0.0
  0
LINE
  5
53A6
  8
AM_0
 10
188.6712958228766
 20
250.31625220974999
 30
0.0
 11
189.0443424235855
 21
243.00453883586289
 31
0.0
  0
LINE
  5
53A7
  8
AM_0
 10
188.12203468914049
 20
250.32067718338391
 30
0.0
 11
188.49530705381039
 21
243.00453883586289
 31
0.0
  0
LINE
  5
53A8
  8
AM_0
 10
191.99530705380951
 20
244.6928011443739
 30
0.0
 11
191.9953070538096
 21
251.30453883586381
 31
0.0
  0
LINE
  5
53A9
  8
AM_0
 10
184.3703070538096
 20
251.80453883586401
 30
0.0
 11
184.37030705381039
 21
251.7045388358641
 31
0.0
  0
LINE
  5
53AA
  8
AM_0
 10
184.37030705381039
 20
251.7045388358641
 30
0.0
 11
184.37030705381039
 21
244.09473267092201
 31
0.0
  0
LINE
  5
53AB
  8
AM_0
 10
178.6044945267995
 20
251.50453883586599
 30
0.0
 11
184.1703070538106
 21
251.504538835864
 31
0.0
  0
LINE
  5
53AC
  8
AM_0
 10
186.37030705381039
 20
251.90453883586301
 30
0.0
 11
187.10015816951611
 21
251.83155372429189
 31
0.0
  0
LINE
  5
53AD
  8
AM_0
 10
178.22038388700039
 20
251.32463103569771
 30
0.0
 11
175.98619641401069
 21
248.64360606810499
 31
0.0
  0
LINE
  5
53AE
  8
AM_0
 10
186.37030705381039
 20
252.004538835863
 30
0.0
 11
184.57030705380959
 21
252.004538835863
 31
0.0
  0
LINE
  5
53AF
  8
AM_0
 10
187.87030705381039
 20
251.30453883586301
 30
0.0
 11
187.87030705381039
 21
243.00453883586289
 31
0.0
  0
LINE
  5
53B0
  8
AM_0
 10
187.07030705380959
 20
243.754538835863
 30
0.0
 11
186.37030705381039
 21
243.754538835863
 31
0.0
  0
LINE
  5
53B1
  8
AM_0
 10
187.07030705380959
 20
247.98835960478701
 30
0.0
 11
186.37030705381039
 21
247.98835960478701
 31
0.0
  0
LINE
  5
53B2
  8
AM_0
 10
187.3703070538096
 20
246.88844333849499
 30
0.0
 11
187.3703070538096
 21
247.688359604787
 31
0.0
  0
LINE
  5
53B3
  8
AM_0
 10
186.37030705381039
 20
246.58844333849501
 30
0.0
 11
187.07030705380959
 21
246.58844333849501
 31
0.0
  0
LINE
  5
53B4
  8
AM_0
 10
187.07030705380959
 20
250.96715438118599
 30
0.0
 11
186.37030705381039
 21
250.96715438118599
 31
0.0
  0
LINE
  5
53B5
  8
AM_0
 10
187.3703070538096
 20
250.2620435238959
 30
0.0
 11
187.3703070538096
 21
250.66715438118601
 31
0.0
  0
LINE
  5
53B6
  8
AM_0
 10
186.37030705381039
 20
249.962043523896
 30
0.0
 11
187.07030705380959
 21
249.962043523896
 31
0.0
  0
LINE
  5
53B7
  8
AM_0
 10
186.37030705381039
 20
243.00453883586499
 30
0.0
 11
186.37030705381039
 21
251.70453883586299
 31
0.0
  0
LINE
  5
53B8
  8
AM_0
 10
187.37030705381039
 20
243.004538835863
 30
0.0
 11
187.37030705380951
 21
243.45453883586299
 31
0.0
  0
LINE
  5
53B9
  8
AM_0
 10
184.37030705381039
 20
249.81627652735301
 30
0.0
 11
178.87030705380661
 21
249.81627652735301
 31
0.0
  0
LINE
  5
53BA
  8
AM_0
 10
184.37030705381039
 20
244.6928011443739
 30
0.0
 11
178.87030705380661
 21
244.69280114437299
 31
0.0
  0
LINE
  5
53BB
  8
AM_0
 10
184.37030705381039
 20
243.504538835863
 30
0.0
 11
178.87030705380749
 21
243.504538835863
 31
0.0
  0
LINE
  5
53BC
  8
AM_0
 10
178.87030705380749
 20
243.504538835863
 30
0.0
 11
178.37030705380749
 21
243.004538835863
 31
0.0
  0
LINE
  5
53BD
  8
AM_0
 10
178.87030705380749
 20
243.504538835863
 30
0.0
 11
178.37030705380661
 21
244.004538835863
 31
0.0
  0
LINE
  5
53BE
  8
AM_0
 10
178.37030705380661
 20
244.004538835863
 30
0.0
 11
178.87030705380661
 21
244.69280114437299
 31
0.0
  0
LINE
  5
53BF
  8
AM_0
 10
184.37030705381039
 20
244.004538835863
 30
0.0
 11
178.37030705380661
 21
244.004538835863
 31
0.0
  0
LINE
  5
53C0
  8
AM_0
 10
184.37030705381039
 20
243.004538835863
 30
0.0
 11
184.37030705381039
 21
244.09473267092201
 31
0.0
  0
LINE
  5
53C1
  8
AM_0
 10
178.37030705380761
 20
249.865754768031
 30
0.0
 11
178.87030705380661
 21
249.81627652735301
 31
0.0
  0
LINE
  5
53C2
  8
AM_0
 10
178.87030705380661
 20
250.536730044
 30
0.0
 11
178.37030705380761
 21
249.865754768031
 31
0.0
  0
LINE
  5
53C3
  8
AM_0
 10
178.37030705380761
 20
250.536730044
 30
0.0
 11
178.87030705380661
 21
251.036730044
 31
0.0
  0
LINE
  5
53C4
  8
AM_0
 10
178.87030705380661
 20
251.504538835863
 30
0.0
 11
178.37030705380661
 21
251.036730044
 31
0.0
  0
LINE
  5
53C5
  8
AM_0
 10
178.37030705380661
 20
251.036730044
 30
0.0
 11
184.37030705381039
 21
251.036730044
 31
0.0
  0
LINE
  5
53C6
  8
AM_0
 10
184.37030705381039
 20
250.536730044
 30
0.0
 11
178.37030705380761
 21
250.536730044
 31
0.0
  0
LINE
  5
53C7
  8
AM_0
 10
187.37030705381039
 20
251.504538835863
 30
0.0
 11
187.3703070538096
 21
251.5330425672289
 31
0.0
  0
LINE
  5
53C8
  8
AM_0
 10
187.6703070538106
 20
251.50453883586289
 30
0.0
 11
186.37030705381039
 21
251.504538835863
 31
0.0
  0
LINE
  5
53C9
  8
AM_0
 10
175.8703070538096
 20
248.3235138682731
 30
0.0
 11
175.87030705380951
 21
243.004538835863
 31
0.0
  0
LINE
  5
53CA
  8
AM_0
 10
186.37030705381039
 20
251.70453883586299
 30
0.0
 11
186.37030705381039
 21
252.004538835863
 31
0.0
  0
ARC
  5
53CB
  8
AM_0
 10
188.58863621783951
 20
236.30453883586301
 30
0.0
 40
0.0999999999999643
 50
15.00019500651257
 51
90.0
  0
ARC
  5
53CC
  8
AM_0
 10
185.18280705380661
 20
238.754538835863
 30
0.0
 40
6.8125000000000382
 50
157.91171016505771
 51
202.08828983494229
  0
ARC
  5
53CD
  8
AM_0
 10
195.79530705380949
 20
234.30453883586301
 30
0.0
 40
0.1999999999999993
 50
0.0
 51
90.0
  0
ARC
  5
53CE
  8
AM_0
 10
195.79530705380949
 20
251.70453883586291
 30
0.0
 40
0.2000000000000028
 50
270.0
 51
0.0
  0
ARC
  5
53CF
  8
AM_0
 10
185.18280705380661
 20
247.254538835863
 30
0.0
 40
6.8125000000000382
 50
157.91171016505771
 51
202.08828983494229
  0
ARC
  5
53D0
  8
AM_0
 10
187.83863621783951
 20
235.754538835863
 30
0.0
 40
0.1000000000000547
 50
288.4639767573006
 51
344.99980499348737
  0
ARC
  5
53D1
  8
AM_0
 10
188.19306570491551
 20
236.30453883586401
 30
0.0
 40
0.1000000000000014
 50
90.0
 51
164.9998049934843
  0
ARC
  5
53D2
  8
AM_0
 10
178.6044945267995
 20
235.00453883586101
 30
0.0
 40
0.499999999999975
 50
219.8055710921868
 51
270.0
  0
ARC
  5
53D3
  8
AM_0
 10
176.37030705380951
 20
237.68556380345399
 30
0.0
 40
0.5
 50
180.00000000000969
 51
219.80557109223059
  0
ARC
  5
53D4
  8
AM_0
 10
187.07030705380959
 20
235.74703414783099
 30
0.0
 40
0.3000000000000007
 50
0.0
 51
90.0
  0
ARC
  5
53D5
  8
AM_0
 10
187.07030705380959
 20
235.34192329054099
 30
0.0
 40
0.3000000000000043
 50
270.0
 51
0.0
  0
ARC
  5
53D6
  8
AM_0
 10
187.07030705380959
 20
239.120634333232
 30
0.0
 40
0.3000000000000007
 50
0.0
 51
90.0
  0
ARC
  5
53D7
  8
AM_0
 10
187.07030705380959
 20
238.32071806694
 30
0.0
 40
0.2999999999999971
 50
270.0
 51
0.0
  0
ARC
  5
53D8
  8
AM_0
 10
187.07030705380959
 20
242.55453883586401
 30
0.0
 40
0.2999999999999971
 50
270.0
 51
0.0
  0
ARC
  5
53D9
  8
AM_0
 10
187.07030705380959
 20
234.47603510449801
 30
0.0
 40
0.3000000000000302
 50
275.71059313755637
 51
0.0
  0
ARC
  5
53DA
  8
AM_0
 10
184.5703070538095
 20
234.20453883586299
 30
0.0
 40
0.1999999999999993
 50
180.0
 51
270.0
  0
ARC
  5
53DB
  8
AM_0
 10
187.6703070538104
 20
234.70453883586401
 30
0.0
 40
0.1999999999999957
 50
270.0
 51
0.0
  0
ARC
  5
53DC
  8
AM_0
 10
184.1703070538104
 20
234.30453883586301
 30
0.0
 40
0.1999999999999993
 50
359.99999999997061
 51
90.0
  0
ARC
  5
53DD
  8
AM_0
 10
189.69306570491551
 20
236.30453883586389
 30
0.0
 40
0.1000000000000014
 50
90.0
 51
164.9998049934843
  0
ARC
  5
53DE
  8
AM_0
 10
189.33863621783951
 20
235.754538835863
 30
0.0
 40
0.1000000000000014
 50
270.0
 51
344.99980499348737
  0
ARC
  5
53DF
  8
AM_0
 10
188.94306570491551
 20
235.754538835863
 30
0.0
 40
0.1000000000000311
 50
195.00019500644461
 51
270.0
  0
ARC
  5
53E0
  8
AM_0
 10
191.49530705380951
 20
235.90453883586289
 30
0.0
 40
0.5
 50
359.99999999997721
 51
90.0
  0
ARC
  5
53E1
  8
AM_0
 10
195.79530705380949
 20
241.11627652735299
 30
0.0
 40
0.1999999999999993
 50
0.0
 51
90.0
  0
ARC
  5
53E2
  8
AM_0
 10
195.79530705380949
 20
236.39280114437389
 30
0.0
 40
0.2000000000000028
 50
270.0
 51
0.0
  0
ARC
  5
53E3
  8
AM_0
 10
192.19530705380959
 20
234.70453883586291
 30
0.0
 40
0.1999999999999993
 50
179.99999999994131
 51
270.0
  0
ARC
  5
53E4
  8
AM_0
 10
192.19530705380959
 20
251.30453883586381
 30
0.0
 40
0.2000000000000028
 50
90.0
 51
180.00000000005531
  0
ARC
  5
53E5
  8
AM_0
 10
195.79530705380949
 20
249.61627652735299
 30
0.0
 40
0.1999999999999993
 50
0.0
 51
90.0
  0
ARC
  5
53E6
  8
AM_0
 10
195.79530705380949
 20
244.8928011443729
 30
0.0
 40
0.2000000000000028
 50
270.0
 51
0.0
  0
ARC
  5
53E7
  8
AM_0
 10
191.49530705380951
 20
250.104538835863
 30
0.0
 40
0.5
 50
270.0
 51
0.0000000000227982
  0
ARC
  5
53E8
  8
AM_0
 10
188.19703948223551
 20
250.254538835863
 30
0.0
 40
0.1000000000000014
 50
90.0
 51
164.99980499355539
  0
ARC
  5
53E9
  8
AM_0
 10
188.59260999515951
 20
250.254538835863
 30
0.0
 40
0.0999999999999608
 50
15.00019500651571
 51
90.0
  0
ARC
  5
53EA
  8
AM_0
 10
188.94703948223551
 20
249.70453883586299
 30
0.0
 40
0.0999999999999608
 50
195.00019500651561
 51
270.0
  0
ARC
  5
53EB
  8
AM_0
 10
187.84260999515951
 20
249.70453883586299
 30
0.0
 40
0.0999999999999803
 50
286.07948273872381
 51
344.99980499348419
  0
ARC
  5
53EC
  8
AM_0
 10
184.1703070538104
 20
251.70453883586401
 30
0.0
 40
0.1999999999999957
 50
270.0
 51
0.000000000029312
  0
ARC
  5
53ED
  8
AM_0
 10
187.6703070538104
 20
251.30453883586301
 30
0.0
 40
0.1999999999999993
 50
0.0
 51
90.0
  0
ARC
  5
53EE
  8
AM_0
 10
184.5703070538095
 20
251.80453883586401
 30
0.0
 40
0.2000000000000028
 50
90.0
 51
180.0
  0
ARC
  5
53EF
  8
AM_0
 10
187.07030705380959
 20
251.5330425672289
 30
0.0
 40
0.3000000000000007
 50
0.0
 51
84.289406862443656
  0
ARC
  5
53F0
  8
AM_0
 10
187.07030705380959
 20
243.45453883586299
 30
0.0
 40
0.3000000000000007
 50
0.0
 51
90.0
  0
ARC
  5
53F1
  8
AM_0
 10
187.07030705380959
 20
247.688359604787
 30
0.0
 40
0.3000000000000007
 50
0.0
 51
90.0
  0
ARC
  5
53F2
  8
AM_0
 10
187.07030705380959
 20
246.88844333849499
 30
0.0
 40
0.2999999999999971
 50
270.0
 51
0.0
  0
ARC
  5
53F3
  8
AM_0
 10
187.07030705380959
 20
250.66715438118601
 30
0.0
 40
0.3000000000000007
 50
0.0
 51
90.0
  0
ARC
  5
53F4
  8
AM_0
 10
187.07030705380959
 20
250.26204352389601
 30
0.0
 40
0.3000000000000043
 50
270.0
 51
0.0
  0
ARC
  5
53F5
  8
AM_0
 10
176.37030705380951
 20
248.32351386827301
 30
0.0
 40
0.5000000000000059
 50
140.19442890776941
 51
179.99999999998701
  0
ARC
  5
53F6
  8
AM_0
 10
178.6044945267995
 20
251.00453883586599
 30
0.0
 40
0.5
 50
90.0
 51
140.19442890781301
  0
LINE
  5
53F7
  8
AM_0
 10
196.19530705380959
 20
234.004538835863
 30
0.0
 11
197.99530705380951
 21
234.004538835863
 31
0.0
  0
LINE
  5
53F8
  8
AM_0
 10
195.99530705380951
 20
234.20453883586291
 30
0.0
 11
195.99530705380951
 21
251.80453883586389
 31
0.0
  0
LINE
  5
53F9
  8
AM_0
 10
197.9953070538096
 20
252.00453883586289
 30
0.0
 11
196.19530705380959
 21
252.004538835863
 31
0.0
  0
ARC
  5
53FA
  8
AM_0
 10
196.19530705380959
 20
234.20453883586291
 30
0.0
 40
0.1999999999999993
 50
180.0
 51
270.0
  0
ARC
  5
53FB
  8
AM_0
 10
196.19530705380959
 20
251.80453883586389
 30
0.0
 40
0.2000000000000028
 50
90.0
 51
180.0
  0
LINE
  5
53FC
  8
AM_0
 10
143.49531705381031
 20
315.065942344635
 30
0.0
 11
143.49531705381
 21
277.34365542987769
 31
0.0
  0
LINE
  5
53FD
  8
AM_0
 10
134.4953170538094
 20
317.00453883586289
 30
0.0
 11
134.4953170538094
 21
237.96417435631491
 31
0.0
  0
LINE
  5
53FE
  8
AM_0
 10
134.4953170538094
 20
230.7982532254984
 30
0.0
 11
134.4953170538094
 21
209.004538835863
 31
0.0
  0
LINE
  5
53FF
  8
AM_0
 10
134.4953170538094
 20
317.004538835863
 30
0.0
 11
151.4953170538094
 21
316.00453883586289
 31
0.0
  0
LINE
  5
5400
  8
AM_0
 10
134.4953170538094
 20
209.004538835863
 30
0.0
 11
151.4953170538094
 21
210.004538835863
 31
0.0
  0
LINE
  5
5401
  8
AM_0
 10
143.4953170538102
 20
306.59844203395443
 30
0.0
 11
151.4953170538094
 21
306.59844203395443
 31
0.0
  0
LINE
  5
5402
  8
AM_0
 10
143.49531705381031
 20
315.065942344635
 30
0.0
 11
151.4953170538094
 21
315.065942344635
 31
0.0
  0
LINE
  5
5403
  8
AM_0
 10
139.9953170538102
 20
297.64541180112309
 30
0.0
 11
143.4953170538102
 21
297.64541180112309
 31
0.0
  0
LINE
  5
5404
  8
AM_0
 10
139.9953170538102
 20
306.14541180112292
 30
0.0
 11
143.4953170538102
 21
306.14541180112292
 31
0.0
  0
LINE
  5
5405
  8
AM_0
 10
139.4953170538102
 20
305.64541180112309
 30
0.0
 11
139.4953170538102
 21
298.14541180112292
 31
0.0
  0
ARC
  5
5406
  8
AM_0
 10
139.9953170538102
 20
305.64541180112309
 30
0.0
 40
0.5
 50
90.0
 51
180.0
  0
ARC
  5
5407
  8
AM_0
 10
139.9953170538102
 20
298.14541180112292
 30
0.0
 40
0.5
 50
180.0
 51
270.0
  0
LINE
  5
5408
  8
AM_0
 10
134.4953170538094
 20
305.27673332900309
 30
0.0
 11
139.4953170538102
 21
305.27673332900309
 31
0.0
  0
LINE
  5
5409
  8
AM_0
 10
134.4953170538094
 20
295.54165083070723
 30
0.0
 11
143.49531705381011
 21
295.54165083070711
 31
0.0
  0
LINE
  5
540A
  8
AM_0
 10
143.4953170538102
 20
219.41063563777149
 30
0.0
 11
151.4953170538094
 21
219.41063563777149
 31
0.0
  0
LINE
  5
540B
  8
AM_0
 10
143.49531705381031
 20
210.94313532709091
 30
0.0
 11
151.4953170538094
 21
210.94313532709091
 31
0.0
  0
LINE
  5
540C
  8
AM_0
 10
139.9953170538102
 20
228.36366587060289
 30
0.0
 11
143.4953170538102
 21
228.36366587060289
 31
0.0
  0
LINE
  5
540D
  8
AM_0
 10
139.9953170538102
 20
219.8636658706028
 30
0.0
 11
143.4953170538102
 21
219.86366587060289
 31
0.0
  0
LINE
  5
540E
  8
AM_0
 10
139.4953170538102
 20
220.36366587060289
 30
0.0
 11
139.4953170538102
 21
227.8636658706028
 31
0.0
  0
ARC
  5
540F
  8
AM_0
 10
139.9953170538102
 20
220.36366587060289
 30
0.0
 40
0.5
 50
180.0
 51
270.0
  0
ARC
  5
5410
  8
AM_0
 10
139.9953170538102
 20
227.8636658706028
 30
0.0
 40
0.5
 50
90.0
 51
180.0
  0
LINE
  5
5411
  8
AM_0
 10
134.4953170538094
 20
220.7323443427228
 30
0.0
 11
139.4953170538102
 21
220.73234434272271
 31
0.0
  0
LINE
  5
5412
  8
AM_0
 10
134.4953170538094
 20
230.46742684101869
 30
0.0
 11
143.49531705381011
 21
230.46742684101881
 31
0.0
  0
LINE
  5
5413
  8
AM_0
 10
143.49531705381
 20
277.3436554298778
 30
0.0
 11
151.4953170538094
 21
277.34365542987769
 31
0.0
  0
LINE
  5
5414
  8
AM_0
 10
143.49531705381031
 20
210.943135327091
 30
0.0
 11
143.49531705381011
 21
235.86882009719301
 31
0.0
  0
LINE
  5
5415
  8
AM_0
 10
143.49531705381
 20
242.34507617315731
 30
0.0
 11
143.49531705381
 21
248.6654222418482
 31
0.0
  0
LINE
  5
5416
  8
AM_0
 10
143.49531705381
 20
248.66542224184809
 30
0.0
 11
151.4953170538094
 21
248.66542224184829
 31
0.0
  0
LINE
  5
5417
  8
AM_0
 10
163.40673437516119
 20
240.0045043358628
 30
0.0
 11
170.99530705380951
 21
240.0045043358628
 31
0.0
  0
ARC
  5
5418
  8
AM_0
 10
163.40673437516119
 20
190.0045043358628
 30
0.0
 40
50.0
 50
90.0
 51
122.4712801930125
1001
GENIUS_GENOBJ-N-FIL_13
1002
{
1000
OWNER
1000
GEN
1002
}
1001
GENIUS_GENODEF_13
1002
{
1000
HIER
1070
     0
1002
}
1002
{
1000
MANEDIT
1070
     0
1002
}
1002
{
1000
NOSEL
1070
     0
1002
}
1002
{
1000
BEHIND
1070
     0
1002
}
1002
{
1000
OTHER
1070
     0
1002
}
1002
{
1000
REACTOR
1002
}
  0
LINE
  5
5419
  8
AM_0
 10
163.40673437516111
 20
246.00450433586261
 30
0.0
 11
170.99530705380951
 21
246.00450433586249
 31
0.0
  0
ARC
  5
541A
  8
AM_0
 10
163.4067343751606
 20
190.00450433586241
 30
0.0
 40
56.0
 50
90.0
 51
122.4712801930125
1001
GENIUS_GENODEF_13
1002
{
1000
HIER
1070
     0
1002
}
1002
{
1000
MANEDIT
1070
     0
1002
}
1002
{
1000
NOSEL
1070
     0
1002
}
1002
{
1000
BEHIND
1070
     0
1002
}
1002
{
1000
OTHER
1070
     0
1002
}
1002
{
1000
REACTOR
1002
}
1001
GENIUS_GENOBJ-N-FIL_13
1002
{
1000
OWNER
1000
GEN
1002
}
  0
LINE
  5
541B
  8
AM_0
 10
99.584732302473796
 20
298.99491518078889
 30
0.0
 11
99.584732302473796
 21
292.48331028183009
 31
0.0
  0
LINE
  5
541C
  8
AM_0
 10
96.495317053809302
 20
252.0045043358628
 30
0.0
 11
96.495317053809302
 21
246.5045043358628
 31
0.0
  0
LINE
  5
541D
  8
AM_0
 10
101.9953170538093
 20
259.5045043358628
 30
0.0
 11
101.9953170538093
 21
266.50450433586269
 31
0.0
  0
LINE
  5
541E
  8
AM_0
 10
113.6953170538093
 20
246.5045043358628
 30
0.0
 11
96.495317053809302
 21
246.5045043358628
 31
0.0
  0
LINE
  5
541F
  8
AM_0
 10
128.49531705380929
 20
209.0045043358628
 30
0.0
 11
128.49531705380929
 21
227.05360688012291
 31
0.0
  0
LINE
  5
5420
  8
AM_0
 10
128.49531705380929
 20
234.16547099274041
 30
0.0
 11
128.49531705380929
 21
317.00450433586292
 31
0.0
  0
LINE
  5
5421
  8
AM_0
 10
96.495317053809302
 20
261.5045043358628
 30
0.0
 11
97.395317053809265
 21
261.5045043358628
 31
0.0
  0
LINE
  5
5422
  8
AM_0
 10
113.9953170538093
 20
254.5045043358628
 30
0.0
 11
113.9953170538093
 21
257.08901402046678
 31
0.0
  0
LINE
  5
5423
  8
AM_0
 10
94.295317053809015
 20
264.5045043358628
 30
0.0
 11
94.295317053809015
 21
261.5045043358628
 31
0.0
  0
LINE
  5
5424
  8
AM_0
 10
97.395317053809265
 20
261.23215260127921
 30
0.0
 11
97.395317053809265
 21
264.77685607044663
 31
0.0
  0
LINE
  5
5425
  8
AM_0
 10
93.995317053809146
 20
264.20450433586279
 30
0.0
 11
97.395317053809379
 21
264.20450433586279
 31
0.0
  0
LINE
  5
5426
  8
AM_0
 10
101.39531705380919
 20
260.62293447545562
 30
0.0
 11
101.39531705380919
 21
259.5045043358628
 31
0.0
  0
LINE
  5
5427
  8
AM_0
 10
101.39531705380919
 20
261.5045043358628
 30
0.0
 11
101.39531705380919
 21
261.40450433586278
 31
0.0
  0
LINE
  5
5428
  8
AM_0
 10
101.39531705380919
 20
261.40450433586278
 30
0.0
 11
101.39531705380919
 21
260.62293447545562
 31
0.0
  0
LINE
  5
5429
  8
AM_0
 10
96.495317053809302
 20
246.5045043358628
 30
0.0
 11
96.495317053809302
 21
238.2669703264404
 31
0.0
  0
LINE
  5
542A
  8
AM_0
 10
113.84887044440261
 20
257.44256741106011
 30
0.0
 11
113.4938033182143
 21
257.79763453724831
 31
0.0
  0
LINE
  5
542B
  8
AM_0
 10
96.495317053809302
 20
264.5045043358628
 30
0.0
 11
96.495317053809302
 21
287.7420383452851
 31
0.0
  0
LINE
  5
542C
  8
AM_0
 10
128.49531705380929
 20
308.00450433586292
 30
0.0
 11
104.7253083531767
 21
308.00450433586292
 31
0.0
  0
LINE
  5
542D
  8
AM_0
 10
96.495317053809302
 20
252.93090751158391
 30
0.0
 11
96.495317053809302
 21
261.5045043358628
 31
0.0
  0
LINE
  5
542E
  8
AM_0
 10
134.49531705380949
 20
317.00450433586292
 30
0.0
 11
128.49531705380929
 21
317.00450433586292
 31
0.0
  0
LINE
  5
542F
  8
AM_0
 10
128.49531705380929
 20
209.0045043358628
 30
0.0
 11
134.49531705380929
 21
209.0045043358628
 31
0.0
  0
LINE
  5
5430
  8
AM_0
 10
128.49531705380929
 20
218.0045043358628
 30
0.0
 11
118.9953170538093
 21
218.0045043358628
 31
0.0
  0
LINE
  5
5431
  8
AM_0
 10
96.540893794772686
 20
288.26298287828592
 30
0.0
 11
99.110337242434923
 21
302.83502078954962
 31
0.0
  0
LINE
  5
5432
  8
AM_0
 10
96.495317053809302
 20
252.93090751158391
 30
0.0
 11
96.495317053809302
 21
252.0045043358628
 31
0.0
  0
LINE
  5
5433
  8
AM_0
 10
118.9953170538093
 20
218.07312678624871
 30
0.0
 11
116.4325297549123
 21
218.07312678624871
 31
0.0
  0
LINE
  5
5434
  8
AM_0
 10
102.5391555615104
 20
218.0045043358628
 30
0.0
 11
103.4953170538093
 21
218.0045043358628
 31
0.0
  0
LINE
  5
5435
  8
AM_0
 10
96.540893794772686
 20
237.74602579343971
 30
0.0
 11
99.584732302473796
 21
220.483559802862
 31
0.0
  0
LINE
  5
5436
  8
AM_0
 10
96.495317053809302
 20
238.0045043358628
 30
0.0
 11
96.540893794772686
 21
237.74602579343971
 31
0.0
  0
LINE
  5
5437
  8
AM_0
 10
96.495317053809302
 20
238.2669703264404
 30
0.0
 11
96.495317053809302
 21
238.0045043358628
 31
0.0
  0
LINE
  5
5438
  8
AM_0
 10
95.995278385802308
 20
316.50450433586269
 30
0.0
 11
95.995255933403726
 21
343.50450433586269
 31
0.0
  0
LINE
  5
5439
  8
AM_0
 10
95.995255933403726
 20
343.50450433586269
 30
0.0
 11
103.9952559334063
 21
343.50450433586269
 31
0.0
  0
LINE
  5
543A
  8
AM_0
 10
103.9952559334063
 20
343.50450433586269
 30
0.0
 11
105.4952512782272
 21
349.10256317385131
 31
0.0
  0
LINE
  5
543B
  8
AM_0
 10
105.4952512782272
 20
349.10256317385131
 30
0.0
 11
105.4952365148669
 21
366.85615545374168
 31
0.0
  0
LINE
  5
543C
  8
AM_0
 10
95.995255933403726
 20
343.50450433586269
 30
0.0
 11
94.495251278194644
 21
349.10259792069257
 31
0.0
  0
LINE
  5
543D
  8
AM_0
 10
94.495251278194644
 20
349.10259792069257
 30
0.0
 11
94.495236514870669
 21
366.8561463064683
 31
0.0
  0
LINE
  5
543E
  8
AM_0
 10
99.995278385803715
 20
366.8561463064683
 30
0.0
 11
99.995278385803715
 21
349.10259792069257
 31
0.0
  0
LINE
  5
543F
  8
AM_0
 10
103.9952559334063
 20
343.50450433586269
 30
0.0
 11
103.99527838580519
 21
316.50450433586269
 31
0.0
  0
LINE
  5
5440
  8
AM_0
 10
113.9953170538093
 20
292.48331028183009
 30
0.0
 11
113.9953170538093
 21
246.80450433586279
 31
0.0
  0
LINE
  5
5441
  8
AM_0
 10
101.9953170538093
 20
257.08901402046678
 30
0.0
 11
101.9953170538093
 21
254.5045043358628
 31
0.0
  0
LINE
  5
5442
  8
AM_0
 10
102.4968307894043
 20
257.79763453724831
 30
0.0
 11
102.1417636632161
 21
257.44256741106011
 31
0.0
  0
LINE
  5
5443
  8
AM_0
 10
113.4953170538093
 20
254.0045043358628
 30
0.0
 11
102.4953170538093
 21
254.0045043358628
 31
0.0
  0
LINE
  5
5444
  8
AM_0
 10
93.495279217308294
 20
315.50449893065559
 30
0.0
 11
93.495306243343791
 21
310.5044989306557
 31
0.0
  0
LINE
  5
5445
  8
AM_0
 10
106.4952792174398
 20
315.5045097410698
 30
0.0
 11
106.49530514525959
 21
310.70768708769918
 31
0.0
  0
LINE
  5
5446
  8
AM_0
 10
97.115820305890196
 20
308.50450433586269
 30
0.0
 11
96.544258404524896
 21
309.16108815792307
 31
0.0
  0
LINE
  5
5447
  8
AM_0
 10
94.495306243329239
 20
309.5045043358628
 30
0.0
 11
105.49530514525949
 21
309.5045043358628
 31
0.0
  0
LINE
  5
5448
  8
AM_0
 10
106.49530514525959
 20
310.70768708769918
 30
0.0
 11
106.49530514525959
 21
310.50450433586269
 31
0.0
  0
LINE
  5
5449
  8
AM_0
 10
106.49530514525959
 20
310.70768708769918
 30
0.0
 11
106.4953062434753
 21
310.5045097410698
 31
0.0
  0
LINE
  5
544A
  8
AM_0
 10
94.495279217293771
 20
316.50450433586269
 30
0.0
 11
105.4952792174545
 21
316.50450433586269
 31
0.0
  0
LINE
  5
544B
  8
AM_0
 10
104.50275301597139
 20
308.53509140614818
 30
0.0
 11
111.6255527493169
 21
291.55385208740148
 31
0.0
  0
LINE
  5
544C
  8
AM_0
 10
97.115820305890196
 20
308.50450433586269
 30
0.0
 11
103.6925353812004
 21
289.80996370546052
 31
0.0
  0
LINE
  5
544D
  8
AM_0
 10
101.39531705380919
 20
261.5045043358628
 30
0.0
 11
101.39531705380919
 21
261.40450433586278
 31
0.0
  0
LINE
  5
544E
  8
AM_0
 10
101.39531705380919
 20
261.40450433586278
 30
0.0
 11
101.39531705380919
 21
260.62293447545562
 31
0.0
  0
LINE
  5
544F
  8
AM_0
 10
101.39531705380919
 20
259.5045043358628
 30
0.0
 11
101.9953170538093
 21
259.5045043358628
 31
0.0
  0
LINE
  5
5450
  8
AM_0
 10
98.695317053809319
 20
260.62293447545562
 30
0.0
 11
98.695317053809319
 21
265.38607419626999
 31
0.0
  0
LINE
  5
5451
  8
AM_0
 10
98.534272824551792
 20
260.33624284711271
 30
0.0
 11
97.601719775044614
 21
260.87465260127919
 31
0.0
  0
LINE
  5
5452
  8
AM_0
 10
101.39531705380919
 20
266.50450433586269
 30
0.0
 11
101.39531705380919
 21
261.5045043358628
 31
0.0
  0
LINE
  5
5453
  8
AM_0
 10
98.967768645839826
 20
259.82907785531978
 30
0.0
 11
101.1228654617786
 21
259.82907785531978
 31
0.0
  0
LINE
  5
5454
  8
AM_0
 10
98.967768645839826
 20
261.41679109559129
 30
0.0
 11
101.1228654617786
 21
261.41679109559141
 31
0.0
  0
LINE
  5
5455
  8
AM_0
 10
97.395317053809379
 20
264.5045043358628
 30
0.0
 11
94.295317053809015
 21
264.5045043358628
 31
0.0
  0
LINE
  5
5456
  8
AM_0
 10
94.295317053809015
 20
264.5045043358628
 30
0.0
 11
93.995317053809146
 21
264.20450433586279
 31
0.0
  0
LINE
  5
5457
  8
AM_0
 10
93.995317053809146
 20
264.20450433586279
 30
0.0
 11
93.995317053809146
 21
261.80450433586282
 31
0.0
  0
LINE
  5
5458
  8
AM_0
 10
94.295317053809015
 20
261.5045043358628
 30
0.0
 11
96.495317053809302
 21
261.5045043358628
 31
0.0
  0
LINE
  5
5459
  8
AM_0
 10
93.995317053809146
 20
261.80450433586282
 30
0.0
 11
94.295317053809015
 21
261.5045043358628
 31
0.0
  0
LINE
  5
545A
  8
AM_0
 10
97.395317053809265
 20
261.80450433586282
 30
0.0
 11
93.995317053809146
 21
261.80450433586282
 31
0.0
  0
ARC
  5
545B
  8
AM_0
 10
95.995317053809273
 20
263.0045043358628
 30
0.0
 40
18.000000000000082
 50
344.79096035988943
 51
15.209039640107409
  0
ARC
  5
545C
  8
AM_0
 10
100.1025402377827
 20
260.62293447545562
 30
0.0
 40
1.292776816026465
 50
322.11555894630482
 51
0.0
  0
ARC
  5
545D
  8
AM_0
 10
119.9953170538093
 20
263.0045043358628
 30
0.0
 40
17.999999999999918
 50
164.7909603598894
 51
195.20903964011049
  0
ARC
  5
545E
  8
AM_0
 10
99.995243459850215
 20
358.5045043358628
 30
0.0
 40
10.0
 50
56.63303467623782
 51
123.3670606147022
  0
ARC
  5
545F
  8
AM_0
 10
97.245257450337206
 20
362.42349794686243
 30
0.0
 40
5.2164151124522951
 50
58.18448044842868
 51
121.8155195515713
  0
ARC
  5
5460
  8
AM_0
 10
102.74526482397179
 20
362.42262305610228
 30
0.0
 40
5.217140387381062
 50
58.190058295973543
 51
121.81013228735971
  0
ARC
  5
5461
  8
AM_0
 10
97.245264831999236
 20
350.47055193503559
 30
0.0
 40
3.0714610092699122
 50
206.44737672421749
 51
333.55262327578248
  0
ARC
  5
5462
  8
AM_0
 10
102.7452734633704
 20
350.46881173034018
 30
0.0
 40
3.070669812974502
 50
206.41845794673139
 51
333.58081810520707
  0
ARC
  5
5463
  8
AM_0
 10
103.4577469298689
 20
263.0045043358628
 30
0.0
 40
4.762429876059711
 50
160.52575999458611
 51
199.4742400054138
  0
ARC
  5
5464
  8
AM_0
 10
99.988093869835836
 20
260.62293447545562
 30
0.0
 40
1.292776816026556
 50
142.11555894629771
 51
217.8844410536951
  0
ARC
  5
5465
  8
AM_0
 10
96.632887177749765
 20
263.0045043358628
 30
0.0
 40
4.762429876059584
 50
340.52575999458628
 51
19.474240005409651
  0
ARC
  5
5466
  8
AM_0
 10
100.1025402377827
 20
260.62293447545562
 30
0.0
 40
1.2927768160265021
 50
0.0
 51
37.884441053702282
  0
ARC
  5
5467
  8
AM_0
 10
113.6953170538093
 20
246.80450433586279
 30
0.0
 40
0.2999999999999972
 50
270.0
 51
0.0
  0
ARC
  5
5468
  8
AM_0
 10
113.8473567088076
 20
258.1511879278417
 30
0.0
 40
0.4999999999998723
 50
164.7909603598988
 51
225.00000000001839
  0
ARC
  5
5469
  8
AM_0
 10
99.495317053809273
 20
238.2669703264404
 30
0.0
 40
3.0
 50
180.0
 51
190.00000000000171
  0
ARC
  5
546A
  8
AM_0
 10
99.495317053809273
 20
287.7420383452851
 30
0.0
 40
2.999999999999992
 50
169.9999999999981
 51
180.0
  0
ARC
  5
546B
  8
AM_0
 10
102.5391555615104
 20
221.00450433586269
 30
0.0
 40
2.9999999999999631
 50
190.00000000000171
 51
270.0
  0
ARC
  5
546C
  8
AM_0
 10
102.4953170538093
 20
254.5045043358628
 30
0.0
 40
0.5
 50
180.0
 51
270.0
  0
ARC
  5
546D
  8
AM_0
 10
113.4953170538093
 20
254.5045043358628
 30
0.0
 40
0.5
 50
270.0
 51
0.0
  0
ARC
  5
546E
  8
AM_0
 10
113.4953170538093
 20
257.08901402046678
 30
0.0
 40
0.5
 50
0.0
 51
45.0
  0
ARC
  5
546F
  8
AM_0
 10
102.14327739881099
 20
258.1511879278417
 30
0.0
 40
0.5000000000001048
 50
314.99999999998619
 51
15.209039640101111
  0
ARC
  5
5470
  8
AM_0
 10
102.4953170538093
 20
257.08901402046678
 30
0.0
 40
0.499999999999984
 50
134.99999999999079
 51
180.0
  0
ARC
  5
5471
  8
AM_0
 10
94.495279217293771
 20
315.5045043358628
 30
0.0
 40
1.0
 50
90.0
 51
180.00030969555451
  0
ARC
  5
5472
  8
AM_0
 10
105.4952792174545
 20
315.5045043358628
 30
0.0
 40
0.9999999999999992
 50
0.0003096955479991
 51
90.0
  0
ARC
  5
5473
  8
AM_0
 10
94.495306243329239
 20
310.50450433586269
 30
0.0
 40
0.9999999999999992
 50
180.00030969555451
 51
270.0
  0
ARC
  5
5474
  8
AM_0
 10
105.49530514525949
 20
310.50450433586269
 30
0.0
 40
1.0
 50
270.0
 51
0.0
  0
ARC
  5
5475
  8
AM_0
 10
104.9755469323448
 20
308.90450433586278
 30
0.0
 40
0.5999999999999944
 50
90.0
 51
218.00194433773009
  0
ARC
  5
5476
  8
AM_0
 10
95.790005340488321
 20
308.50450433586269
 30
0.0
 40
0.9999999999999468
 50
41.03985310957956
 51
90.0
  0
ARC
  5
5477
  8
AM_0
 10
97.80812249627985
 20
261.23215260127921
 30
0.0
 40
0.4128054424705854
 50
180.0
 51
239.99999999999949
  0
ARC
  5
5478
  8
AM_0
 10
98.121467382081221
 20
259.62124284711268
 30
0.0
 40
0.8256108849411369
 50
28.217424594175291
 51
59.999999999996653
  0
LINE
  5
5479
  8
AM_0
 10
97.285051383440845
 20
292.48331028183009
 30
0.0
 11
102.7520555332096
 21
292.48331028183009
 31
0.0
  0
LINE
  5
547A
  8
AM_0
 10
111.23569047512331
 20
292.48331028183009
 30
0.0
 11
113.9953170538093
 21
292.48331028183009
 31
0.0
  0
LINE
  5
547B
  8
AM_0
 10
101.39531705380961
 20
266.50450433586269
 30
0.0
 11
101.9953170538095
 21
266.50450433586269
 31
0.0
  0
LINE
  5
547C
  8
AM_0
 10
98.534272824552033
 20
265.67276582461301
 30
0.0
 11
97.601719775044728
 21
265.13435607044647
 31
0.0
  0
LINE
  5
547D
  8
AM_0
 10
98.967768645840209
 20
266.17993081640577
 30
0.0
 11
101.1228654617789
 21
266.1799308164056
 31
0.0
  0
LINE
  5
547E
  8
AM_0
 10
98.967768645839953
 20
264.59221757613432
 30
0.0
 11
101.1228654617788
 21
264.59221757613409
 31
0.0
  0
ARC
  5
547F
  8
AM_0
 10
100.102540237783
 20
265.38607419626987
 30
0.0
 40
1.292776816026465
 50
359.99999999999352
 51
37.88444105369058
  0
ARC
  5
5480
  8
AM_0
 10
99.98809386983595
 20
265.38607419626999
 30
0.0
 40
1.292776816026556
 50
142.11555894629771
 51
217.8844410536951
  0
ARC
  5
5481
  8
AM_0
 10
100.102540237783
 20
265.38607419626987
 30
0.0
 40
1.2927768160265021
 50
322.11555894629322
 51
359.99999999999352
  0
ARC
  5
5482
  8
AM_0
 10
97.80812249627995
 20
264.77685607044663
 30
0.0
 40
0.4128054424705854
 50
119.99999999999331
 51
179.99999999999341
  0
ARC
  5
5483
  8
AM_0
 10
98.121467382081434
 20
266.38776582461298
 30
0.0
 40
0.8256108849411369
 50
300.00000000000051
 51
331.7825754058203
  0
LINE
  5
5484
  8
AM_0
 10
113.9953170538098
 20
271.50450433586218
 30
0.0
 11
113.9953170538096
 21
268.91999465125821
 31
0.0
  0
LINE
  5
5485
  8
AM_0
 10
113.84887044440291
 20
268.56644126066487
 30
0.0
 11
113.4938033182147
 21
268.21137413447673
 31
0.0
  0
LINE
  5
5486
  8
AM_0
 10
101.9953170538096
 20
268.919994651259
 30
0.0
 11
101.9953170538098
 21
271.50450433586298
 31
0.0
  0
LINE
  5
5487
  8
AM_0
 10
102.4968307894047
 20
268.21137413447752
 30
0.0
 11
102.14176366321649
 21
268.56644126066573
 31
0.0
  0
LINE
  5
5488
  8
AM_0
 10
113.4953170538098
 20
272.00450433586218
 30
0.0
 11
113.0147391679624
 21
272.00450433586229
 31
0.0
  0
LINE
  5
5489
  8
AM_0
 10
102.9758949396571
 20
272.00450433586298
 30
0.0
 11
102.4953170538098
 21
272.00450433586298
 31
0.0
  0
ARC
  5
548A
  8
AM_0
 10
113.84735670880789
 20
267.85782074388339
 30
0.0
 40
0.4999999999998723
 50
134.99999999997701
 51
195.20903964009699
  0
ARC
  5
548B
  8
AM_0
 10
102.4953170538098
 20
271.50450433586298
 30
0.0
 40
0.5
 50
89.999999999996732
 51
179.99999999999659
  0
ARC
  5
548C
  8
AM_0
 10
113.4953170538098
 20
271.50450433586218
 30
0.0
 40
0.5
 50
359.99999999999682
 51
89.999999999996732
  0
ARC
  5
548D
  8
AM_0
 10
113.4953170538096
 20
268.91999465125832
 30
0.0
 40
0.5
 50
314.9999999999954
 51
359.99999999999682
  0
ARC
  5
548E
  8
AM_0
 10
102.14327739881119
 20
267.85782074388408
 30
0.0
 40
0.5000000000001048
 50
344.79096035989579
 51
45.000000000009209
  0
ARC
  5
548F
  8
AM_0
 10
102.4953170538096
 20
268.919994651259
 30
0.0
 40
0.499999999999984
 50
179.99999999999659
 51
225.0000000000046
  0
LINE
  5
5490
  8
AM_0
 10
103.97589493965729
 20
288.15065573368457
 30
0.0
 11
103.9758949396571
 21
273.00450433586298
 31
0.0
  0
ARC
  5
5491
  8
AM_0
 10
102.9758949396571
 20
273.00450433586298
 30
0.0
 40
1.0
 50
269.99999999999682
 51
0.0
1001
GENIUS_GENODEF_13
1002
{
1000
HIER
1070
     0
1002
}
1002
{
1000
MANEDIT
1070
     0
1002
}
1002
{
1000
NOSEL
1070
     0
1002
}
1002
{
1000
BEHIND
1070
     0
1002
}
1002
{
1000
OTHER
1070
     0
1002
}
1002
{
1000
REACTOR
1002
}
1001
GENIUS_GENOBJ-N-FIL_13
1002
{
1000
OWNER
1000
GEN
1002
}
  0
ARC
  5
5492
  8
AM_0
 10
98.975894939657294
 20
288.15065573368457
 30
0.0
 40
5.0
 50
0.0
 51
19.381805699020159
1001
GENIUS_GENOBJ-N-FIL_13
1002
{
1000
OWNER
1000
GEN
1002
}
1001
GENIUS_GENODEF_13
1002
{
1000
HIER
1070
     0
1002
}
1002
{
1000
MANEDIT
1070
     0
1002
}
1002
{
1000
NOSEL
1070
     0
1002
}
1002
{
1000
BEHIND
1070
     0
1002
}
1002
{
1000
OTHER
1070
     0
1002
}
1002
{
1000
REACTOR
1002
}
  0
LINE
  5
5493
  8
AM_0
 10
112.0147391679625
 20
289.61984119860148
 30
0.0
 11
112.0147391679625
 21
273.00450433586229
 31
0.0
  0
ARC
  5
5494
  8
AM_0
 10
113.0147391679625
 20
273.00450433586229
 30
0.0
 40
1.0
 50
180.0
 51
269.99999999999352
1001
GENIUS_GENOBJ-N-FIL_13
1002
{
1000
OWNER
1000
GEN
1002
}
1001
GENIUS_GENODEF_13
1002
{
1000
HIER
1070
     0
1002
}
1002
{
1000
MANEDIT
1070
     0
1002
}
1002
{
1000
NOSEL
1070
     0
1002
}
1002
{
1000
BEHIND
1070
     0
1002
}
1002
{
1000
OTHER
1070
     0
1002
}
1002
{
1000
REACTOR
1002
}
  0
ARC
  5
5495
  8
AM_0
 10
107.0147391679625
 20
289.61984119860148
 30
0.0
 40
5.0
 50
0.0
 51
22.755667319206839
1001
GENIUS_GENODEF_13
1002
{
1000
HIER
1070
     0
1002
}
1002
{
1000
MANEDIT
1070
     0
1002
}
1002
{
1000
NOSEL
1070
     0
1002
}
1002
{
1000
BEHIND
1070
     0
1002
}
1002
{
1000
OTHER
1070
     0
1002
}
1002
{
1000
REACTOR
1002
}
1001
GENIUS_GENOBJ-N-FIL_13
1002
{
1000
OWNER
1000
GEN
1002
}
  0
LINE
  5
5496
  8
AM_0
 10
102.7218559004673
 20
267.98634902341468
 30
0.0
 11
113.26877820715259
 21
267.98634902341468
 31
0.0
  0
LINE
  5
5497
  8
AM_0
 10
102.72185590046701
 20
258.02265964831111
 30
0.0
 11
113.2687782071515
 21
258.02265964831111
 31
0.0
  0
LINE
  5
5498
  8
AM_0
 10
99.584732302473796
 20
227.01409349093669
 30
0.0
 11
99.584732302473796
 21
246.5045043358628
 31
0.0
  0
LINE
  5
5499
  8
AM_0
 10
102.5391555615104
 20
218.0045043358628
 30
0.0
 11
102.5391555615104
 21
246.5045043358628
 31
0.0
  0
LINE
  5
54B4
  8
AM_0
 10
112.2941701181861
 20
216.74375118190841
 30
0.0
 11
136.562895049014
 21
232.18753753917801
 31
0.0
  0
LINE
  5
54B5
  8
AM_0
 10
109.0729093990485
 20
221.80571516630619
 30
0.0
 11
133.3416343298756
 21
237.2495015235755
 31
0.0
  0
POLYLINE
  5
54B6
  8
AM_0
 66
     1
 10
0.0
 20
0.0
 30
0.0
 70
     8
  0
VERTEX
  5
6547
  8
AM_0
 10
109.07299999999999
 20
221.80600000000001
 30
0.0
 70
    32
  0
VERTEX
  5
6548
  8
AM_0
 10
108.997
 20
221.756
 30
0.0
 70
    32
  0
VERTEX
  5
6549
  8
AM_0
 10
108.922
 20
221.70500000000001
 30
0.0
 70
    32
  0
VERTEX
  5
654A
  8
AM_0
 10
108.848
 20
221.65299999999999
 30
0.0
 70
    32
  0
VERTEX
  5
654B
  8
AM_0
 10
108.77500000000001
 20
221.59899999999999
 30
0.0
 70
    32
  0
VERTEX
  5
654C
  8
AM_0
 10
108.703
 20
221.54400000000001
 30
0.0
 70
    32
  0
VERTEX
  5
654D
  8
AM_0
 10
108.633
 20
221.48699999999999
 30
0.0
 70
    32
  0
VERTEX
  5
654E
  8
AM_0
 10
108.56399999999999
 20
221.429
 30
0.0
 70
    32
  0
VERTEX
  5
654F
  8
AM_0
 10
108.496
 20
221.37
 30
0.0
 70
    32
  0
VERTEX
  5
6550
  8
AM_0
 10
108.429
 20
221.31
 30
0.0
 70
    32
  0
VERTEX
  5
6551
  8
AM_0
 10
108.364
 20
221.24799999999999
 30
0.0
 70
    32
  0
VERTEX
  5
6552
  8
AM_0
 10
108.3
 20
221.185
 30
0.0
 70
    32
  0
VERTEX
  5
6553
  8
AM_0
 10
108.23699999999999
 20
221.12100000000001
 30
0.0
 70
    32
  0
VERTEX
  5
6554
  8
AM_0
 10
108.176
 20
221.05600000000001
 30
0.0
 70
    32
  0
VERTEX
  5
6555
  8
AM_0
 10
108.117
 20
220.989
 30
0.0
 70
    32
  0
VERTEX
  5
6556
  8
AM_0
 10
108.059
 20
220.922
 30
0.0
 70
    32
  0
VERTEX
  5
6557
  8
AM_0
 10
108.002
 20
220.85400000000001
 30
0.0
 70
    32
  0
VERTEX
  5
6558
  8
AM_0
 10
107.94799999999999
 20
220.785
 30
0.0
 70
    32
  0
VERTEX
  5
6559
  8
AM_0
 10
107.895
 20
220.715
 30
0.0
 70
    32
  0
VERTEX
  5
655A
  8
AM_0
 10
107.843
 20
220.643
 30
0.0
 70
    32
  0
VERTEX
  5
655B
  8
AM_0
 10
107.794
 20
220.572
 30
0.0
 70
    32
  0
VERTEX
  5
655C
  8
AM_0
 10
107.746
 20
220.499
 30
0.0
 70
    32
  0
VERTEX
  5
655D
  8
AM_0
 10
107.699
 20
220.42599999999999
 30
0.0
 70
    32
  0
VERTEX
  5
655E
  8
AM_0
 10
107.655
 20
220.352
 30
0.0
 70
    32
  0
VERTEX
  5
655F
  8
AM_0
 10
107.61199999999999
 20
220.27699999999999
 30
0.0
 70
    32
  0
VERTEX
  5
6560
  8
AM_0
 10
107.572
 20
220.202
 30
0.0
 70
    32
  0
VERTEX
  5
6561
  8
AM_0
 10
107.533
 20
220.126
 30
0.0
 70
    32
  0
VERTEX
  5
6562
  8
AM_0
 10
107.496
 20
220.04900000000001
 30
0.0
 70
    32
  0
VERTEX
  5
6563
  8
AM_0
 10
107.461
 20
219.97300000000001
 30
0.0
 70
    32
  0
VERTEX
  5
6564
  8
AM_0
 10
107.428
 20
219.89500000000001
 30
0.0
 70
    32
  0
VERTEX
  5
6565
  8
AM_0
 10
107.39700000000001
 20
219.81800000000001
 30
0.0
 70
    32
  0
VERTEX
  5
6566
  8
AM_0
 10
107.367
 20
219.74000000000001
 30
0.0
 70
    32
  0
VERTEX
  5
6567
  8
AM_0
 10
107.34
 20
219.66200000000001
 30
0.0
 70
    32
  0
VERTEX
  5
6568
  8
AM_0
 10
107.315
 20
219.583
 30
0.0
 70
    32
  0
VERTEX
  5
6569
  8
AM_0
 10
107.292
 20
219.50399999999999
 30
0.0
 70
    32
  0
VERTEX
  5
656A
  8
AM_0
 10
107.271
 20
219.42599999999999
 30
0.0
 70
    32
  0
VERTEX
  5
656B
  8
AM_0
 10
107.252
 20
219.34700000000001
 30
0.0
 70
    32
  0
VERTEX
  5
656C
  8
AM_0
 10
107.235
 20
219.268
 30
0.0
 70
    32
  0
VERTEX
  5
656D
  8
AM_0
 10
107.22
 20
219.18899999999999
 30
0.0
 70
    32
  0
VERTEX
  5
656E
  8
AM_0
 10
107.20699999999999
 20
219.11000000000001
 30
0.0
 70
    32
  0
VERTEX
  5
656F
  8
AM_0
 10
107.197
 20
219.03100000000001
 30
0.0
 70
    32
  0
VERTEX
  5
6570
  8
AM_0
 10
107.188
 20
218.953
 30
0.0
 70
    32
  0
VERTEX
  5
6571
  8
AM_0
 10
107.182
 20
218.874
 30
0.0
 70
    32
  0
VERTEX
  5
6572
  8
AM_0
 10
107.17700000000001
 20
218.79599999999999
 30
0.0
 70
    32
  0
VERTEX
  5
6573
  8
AM_0
 10
107.175
 20
218.71799999999999
 30
0.0
 70
    32
  0
VERTEX
  5
6574
  8
AM_0
 10
107.175
 20
218.64099999999999
 30
0.0
 70
    32
  0
VERTEX
  5
6575
  8
AM_0
 10
107.17700000000001
 20
218.56299999999999
 30
0.0
 70
    32
  0
VERTEX
  5
6576
  8
AM_0
 10
107.181
 20
218.48699999999999
 30
0.0
 70
    32
  0
VERTEX
  5
6577
  8
AM_0
 10
107.187
 20
218.41
 30
0.0
 70
    32
  0
VERTEX
  5
6578
  8
AM_0
 10
107.19499999999999
 20
218.33500000000001
 30
0.0
 70
    32
  0
VERTEX
  5
6579
  8
AM_0
 10
107.206
 20
218.25899999999999
 30
0.0
 70
    32
  0
VERTEX
  5
657A
  8
AM_0
 10
107.218
 20
218.185
 30
0.0
 70
    32
  0
VERTEX
  5
657B
  8
AM_0
 10
107.233
 20
218.11099999999999
 30
0.0
 70
    32
  0
VERTEX
  5
657C
  8
AM_0
 10
107.249
 20
218.03800000000001
 30
0.0
 70
    32
  0
VERTEX
  5
657D
  8
AM_0
 10
107.268
 20
217.965
 30
0.0
 70
    32
  0
VERTEX
  5
657E
  8
AM_0
 10
107.289
 20
217.89400000000001
 30
0.0
 70
    32
  0
VERTEX
  5
657F
  8
AM_0
 10
107.312
 20
217.82300000000001
 30
0.0
 70
    32
  0
VERTEX
  5
6580
  8
AM_0
 10
107.337
 20
217.75299999999999
 30
0.0
 70
    32
  0
VERTEX
  5
6581
  8
AM_0
 10
107.363
 20
217.684
 30
0.0
 70
    32
  0
VERTEX
  5
6582
  8
AM_0
 10
107.392
 20
217.61600000000001
 30
0.0
 70
    32
  0
VERTEX
  5
6583
  8
AM_0
 10
107.423
 20
217.548
 30
0.0
 70
    32
  0
VERTEX
  5
6584
  8
AM_0
 10
107.456
 20
217.482
 30
0.0
 70
    32
  0
VERTEX
  5
6585
  8
AM_0
 10
107.491
 20
217.417
 30
0.0
 70
    32
  0
VERTEX
  5
6586
  8
AM_0
 10
107.527
 20
217.35400000000001
 30
0.0
 70
    32
  0
VERTEX
  5
6587
  8
AM_0
 10
107.566
 20
217.291
 30
0.0
 70
    32
  0
VERTEX
  5
6588
  8
AM_0
 10
107.607
 20
217.22900000000001
 30
0.0
 70
    32
  0
VERTEX
  5
6589
  8
AM_0
 10
107.649
 20
217.16900000000001
 30
0.0
 70
    32
  0
VERTEX
  5
658A
  8
AM_0
 10
107.693
 20
217.11000000000001
 30
0.0
 70
    32
  0
VERTEX
  5
658B
  8
AM_0
 10
107.739
 20
217.05199999999999
 30
0.0
 70
    32
  0
VERTEX
  5
658C
  8
AM_0
 10
107.78700000000001
 20
216.99600000000001
 30
0.0
 70
    32
  0
VERTEX
  5
658D
  8
AM_0
 10
107.836
 20
216.941
 30
0.0
 70
    32
  0
VERTEX
  5
658E
  8
AM_0
 10
107.887
 20
216.887
 30
0.0
 70
    32
  0
VERTEX
  5
658F
  8
AM_0
 10
107.94
 20
216.83500000000001
 30
0.0
 70
    32
  0
VERTEX
  5
6590
  8
AM_0
 10
107.995
 20
216.785
 30
0.0
 70
    32
  0
VERTEX
  5
6591
  8
AM_0
 10
108.051
 20
216.73500000000001
 30
0.0
 70
    32
  0
VERTEX
  5
6592
  8
AM_0
 10
108.10899999999999
 20
216.68799999999999
 30
0.0
 70
    32
  0
VERTEX
  5
6593
  8
AM_0
 10
108.16800000000001
 20
216.642
 30
0.0
 70
    32
  0
VERTEX
  5
6594
  8
AM_0
 10
108.229
 20
216.59700000000001
 30
0.0
 70
    32
  0
VERTEX
  5
6595
  8
AM_0
 10
108.291
 20
216.554
 30
0.0
 70
    32
  0
VERTEX
  5
6596
  8
AM_0
 10
108.355
 20
216.51300000000001
 30
0.0
 70
    32
  0
VERTEX
  5
6597
  8
AM_0
 10
108.42
 20
216.47300000000001
 30
0.0
 70
    32
  0
VERTEX
  5
6598
  8
AM_0
 10
108.486
 20
216.435
 30
0.0
 70
    32
  0
VERTEX
  5
6599
  8
AM_0
 10
108.554
 20
216.399
 30
0.0
 70
    32
  0
VERTEX
  5
659A
  8
AM_0
 10
108.623
 20
216.36500000000001
 30
0.0
 70
    32
  0
VERTEX
  5
659B
  8
AM_0
 10
108.693
 20
216.33199999999999
 30
0.0
 70
    32
  0
VERTEX
  5
659C
  8
AM_0
 10
108.765
 20
216.30099999999999
 30
0.0
 70
    32
  0
VERTEX
  5
659D
  8
AM_0
 10
108.83799999999999
 20
216.27199999999999
 30
0.0
 70
    32
  0
VERTEX
  5
659E
  8
AM_0
 10
108.911
 20
216.245
 30
0.0
 70
    32
  0
VERTEX
  5
659F
  8
AM_0
 10
108.986
 20
216.21899999999999
 30
0.0
 70
    32
  0
VERTEX
  5
65A0
  8
AM_0
 10
109.062
 20
216.19499999999999
 30
0.0
 70
    32
  0
VERTEX
  5
65A1
  8
AM_0
 10
109.139
 20
216.17400000000001
 30
0.0
 70
    32
  0
VERTEX
  5
65A2
  8
AM_0
 10
109.217
 20
216.154
 30
0.0
 70
    32
  0
VERTEX
  5
65A3
  8
AM_0
 10
109.295
 20
216.136
 30
0.0
 70
    32
  0
VERTEX
  5
65A4
  8
AM_0
 10
109.375
 20
216.119
 30
0.0
 70
    32
  0
VERTEX
  5
65A5
  8
AM_0
 10
109.455
 20
216.10499999999999
 30
0.0
 70
    32
  0
VERTEX
  5
65A6
  8
AM_0
 10
109.536
 20
216.09299999999999
 30
0.0
 70
    32
  0
VERTEX
  5
65A7
  8
AM_0
 10
109.61799999999999
 20
216.08199999999999
 30
0.0
 70
    32
  0
VERTEX
  5
65A8
  8
AM_0
 10
109.7
 20
216.07400000000001
 30
0.0
 70
    32
  0
VERTEX
  5
65A9
  8
AM_0
 10
109.783
 20
216.06700000000001
 30
0.0
 70
    32
  0
VERTEX
  5
65AA
  8
AM_0
 10
109.867
 20
216.06200000000001
 30
0.0
 70
    32
  0
VERTEX
  5
65AB
  8
AM_0
 10
109.95099999999999
 20
216.06
 30
0.0
 70
    32
  0
VERTEX
  5
65AC
  8
AM_0
 10
110.035
 20
216.059
 30
0.0
 70
    32
  0
VERTEX
  5
65AD
  8
AM_0
 10
110.12
 20
216.06
 30
0.0
 70
    32
  0
VERTEX
  5
65AE
  8
AM_0
 10
110.205
 20
216.06299999999999
 30
0.0
 70
    32
  0
VERTEX
  5
65AF
  8
AM_0
 10
110.291
 20
216.06800000000001
 30
0.0
 70
    32
  0
VERTEX
  5
65B0
  8
AM_0
 10
110.376
 20
216.07499999999999
 30
0.0
 70
    32
  0
VERTEX
  5
65B1
  8
AM_0
 10
110.462
 20
216.084
 30
0.0
 70
    32
  0
VERTEX
  5
65B2
  8
AM_0
 10
110.548
 20
216.095
 30
0.0
 70
    32
  0
VERTEX
  5
65B3
  8
AM_0
 10
110.634
 20
216.107
 30
0.0
 70
    32
  0
VERTEX
  5
65B4
  8
AM_0
 10
110.721
 20
216.12200000000001
 30
0.0
 70
    32
  0
VERTEX
  5
65B5
  8
AM_0
 10
110.807
 20
216.13900000000001
 30
0.0
 70
    32
  0
VERTEX
  5
65B6
  8
AM_0
 10
110.893
 20
216.15700000000001
 30
0.0
 70
    32
  0
VERTEX
  5
65B7
  8
AM_0
 10
110.979
 20
216.17699999999999
 30
0.0
 70
    32
  0
VERTEX
  5
65B8
  8
AM_0
 10
111.06399999999999
 20
216.19900000000001
 30
0.0
 70
    32
  0
VERTEX
  5
65B9
  8
AM_0
 10
111.15000000000001
 20
216.22300000000001
 30
0.0
 70
    32
  0
VERTEX
  5
65BA
  8
AM_0
 10
111.235
 20
216.249
 30
0.0
 70
    32
  0
VERTEX
  5
65BB
  8
AM_0
 10
111.31999999999999
 20
216.27699999999999
 30
0.0
 70
    32
  0
VERTEX
  5
65BC
  8
AM_0
 10
111.404
 20
216.30600000000001
 30
0.0
 70
    32
  0
VERTEX
  5
65BD
  8
AM_0
 10
111.488
 20
216.33799999999999
 30
0.0
 70
    32
  0
VERTEX
  5
65BE
  8
AM_0
 10
111.572
 20
216.37100000000001
 30
0.0
 70
    32
  0
VERTEX
  5
65BF
  8
AM_0
 10
111.655
 20
216.405
 30
0.0
 70
    32
  0
VERTEX
  5
65C0
  8
AM_0
 10
111.73699999999999
 20
216.44200000000001
 30
0.0
 70
    32
  0
VERTEX
  5
65C1
  8
AM_0
 10
111.819
 20
216.47999999999999
 30
0.0
 70
    32
  0
VERTEX
  5
65C2
  8
AM_0
 10
111.90000000000001
 20
216.52000000000001
 30
0.0
 70
    32
  0
VERTEX
  5
65C3
  8
AM_0
 10
111.98099999999999
 20
216.56100000000001
 30
0.0
 70
    32
  0
VERTEX
  5
65C4
  8
AM_0
 10
112.06
 20
216.60499999999999
 30
0.0
 70
    32
  0
VERTEX
  5
65C5
  8
AM_0
 10
112.139
 20
216.649
 30
0.0
 70
    32
  0
VERTEX
  5
65C6
  8
AM_0
 10
112.217
 20
216.696
 30
0.0
 70
    32
  0
VERTEX
  5
65C7
  8
AM_0
 10
112.294
 20
216.744
 30
0.0
 70
    32
  0
SEQEND
  5
65C8
  8
AM_0
  0
LINE
  5
54B7
  8
AM_0
 10
127.4953170538093
 20
316.80450433586282
 30
0.0
 11
127.4953170538093
 21
309.20450433586279
 31
0.0
1001
GENIUS_GENOREF_13
1005
0
  0
LINE
  5
54B8
  8
AM_0
 10
127.4953170538093
 20
309.20450433586279
 30
0.0
 11
128.49531705380929
 21
309.20450433586279
 31
0.0
1001
GENIUS_GENOREF_13
1005
0
  0
LINE
  5
54B9
  8
AM_0
 10
128.49531705380929
 20
312.80450433586282
 30
0.0
 11
127.4953170538093
 21
312.4405341015966
 31
0.0
1001
GENIUS_GENOREF_13
1005
0
  0
LINE
  5
54BA
  8
AM_0
 10
128.49531705380929
 20
313.20450433586279
 30
0.0
 11
127.4953170538093
 21
312.84053410159657
 31
0.0
1001
GENIUS_GENOREF_13
1005
0
  0
LINE
  5
54BB
  8
AM_0
 10
128.49531705380929
 20
316.80450433586282
 30
0.0
 11
127.4953170538093
 21
316.80450433586282
 31
0.0
1001
GENIUS_GENOREF_13
1005
0
  0
LINE
  5
54BC
  8
AM_0N
 10
126.4363795416814
 20
309.09714936355641
 30
0.0
 11
127.4953170538093
 21
309.0045043358628
 31
0.0
  0
LINE
  5
54BD
  8
AM_0N
 10
126.4363795416814
 20
316.91185930816931
 30
0.0
 11
127.4953170538093
 21
317.0045043358628
 31
0.0
  0
ARC
  5
54BE
  8
AM_0N
 10
130.89531705380921
 20
313.0045043358628
 30
0.0
 40
6.5
 50
151.82726586813479
 51
208.1727341318651
  0
ARC
  5
54BF
  8
AM_0N
 10
126.5758287300777
 20
315.31794779122248
 30
0.0
 40
1.6000000000000001
 50
94.99999999999973
 51
151.82726586813479
  0
ARC
  5
54C0
  8
AM_0N
 10
126.5758287300777
 20
310.69106088050302
 30
0.0
 40
1.6000000000000001
 50
208.1727341318651
 51
265.00000000000028
  0
LINE
  5
54C1
  8
AM_0N
 10
127.4953170538093
 20
317.0045043358628
 30
0.0
 11
127.4953170538093
 21
309.0045043358628
 31
0.0
  0
LINE
  5
54CC
  8
AM_0
 10
107.5453170538094
 20
234.00344794749071
 30
0.0
 11
112.4453170538093
 21
234.00344794749071
 31
0.0
  0
LINE
  5
54CD
  8
AM_0
 10
107.5453170538094
 20
232.7904276290582
 30
0.0
 11
112.4453170538093
 21
232.7904276290582
 31
0.0
  0
LINE
  5
54CE
  8
AM_0
 10
106.7453170538093
 20
233.2034479474907
 30
0.0
 11
106.7453170538093
 21
227.56231652704429
 31
0.0
  0
LINE
  5
54CF
  8
AM_0
 10
106.7453170538093
 20
225.7309106581117
 30
0.0
 11
106.7453170538093
 21
227.56231652704429
 31
0.0
  0
LINE
  5
54D0
  8
AM_0
 10
102.89531705380919
 20
219.04121399818871
 30
0.0
 11
102.89531705380919
 21
225.66377837631569
 31
0.0
  0
LINE
  5
54D1
  8
AM_0
 10
113.2453170538093
 20
225.7309106581117
 30
0.0
 11
113.2453170538093
 21
227.56231652704429
 31
0.0
  0
LINE
  5
54D2
  8
AM_0
 10
113.2453170538093
 20
233.2034479474907
 30
0.0
 11
113.2453170538093
 21
227.56231652704429
 31
0.0
  0
LINE
  5
54D3
  8
AM_0
 10
117.0953170538093
 20
219.7990368532802
 30
0.0
 11
117.0953170538093
 21
219.04121399818871
 31
0.0
  0
LINE
  5
54D4
  8
AM_0
 10
109.9953170538093
 20
223.92069717036509
 30
0.0
 11
103.4953170538093
 21
221.65492770277339
 31
0.0
  0
LINE
  5
54D5
  8
AM_0
 10
111.5466648195391
 20
223.3799284932563
 30
0.0
 11
109.9953170538093
 21
223.92069717036509
 31
0.0
  0
LINE
  5
54D6
  8
AM_0
 10
109.7978606799393
 20
222.2670493622073
 30
0.0
 11
103.4953170538093
 21
220.07010922124579
 31
0.0
  0
LINE
  5
54D7
  8
AM_0
 10
116.4953170538093
 20
219.4172173781833
 30
0.0
 11
116.4953170538093
 21
218.7857865539286
 31
0.0
  0
LINE
  5
54D8
  8
AM_0
 10
116.4953170538093
 20
218.7857865539286
 30
0.0
 11
116.4953170538093
 21
216.76654393580799
 31
0.0
  0
LINE
  5
54D9
  8
AM_0
 10
109.99527479198311
 20
214.5007597365923
 30
0.0
 11
116.4953170538093
 21
216.76654393580799
 31
0.0
  0
LINE
  5
54DA
  8
AM_0
 10
103.4953170538093
 20
216.76654393580799
 30
0.0
 11
103.4953170538093
 21
218.7857865539286
 31
0.0
  0
LINE
  5
54DB
  8
AM_0
 10
103.4953170538093
 20
216.76654393580799
 30
0.0
 11
109.99527479198311
 21
214.50078919984011
 31
0.0
  0
LINE
  5
54DC
  8
AM_0
 10
103.4953170538093
 20
218.7857865539286
 30
0.0
 11
103.4953170538093
 21
221.65492770277339
 31
0.0
  0
LINE
  5
54DD
  8
AM_0
 10
110.0068830063752
 20
222.57448666770611
 30
0.0
 11
109.9953170538093
 21
223.92069717036509
 31
0.0
  0
ARC
  5
54DE
  8
AM_0
 10
107.2991299048778
 20
219.75491642952829
 30
0.0
 40
6.001601094213977
 50
95.294644622325137
 51
137.2036378052704
  0
ARC
  5
54DF
  8
AM_0
 10
107.2991299048778
 20
221.586322298461
 30
0.0
 40
6.0016010942139628
 50
95.294644622325137
 51
137.2036378052704
  0
ARC
  5
54E0
  8
AM_0
 10
103.7650487390065
 20
220.2518020866124
 30
0.0
 40
1.4906229315522701
 50
234.30512237790029
 51
259.57476505017542
  0
ARC
  5
54E1
  8
AM_0
 10
112.6915042027409
 20
221.586322298461
 30
0.0
 40
6.0016010942138758
 50
53.236790438343668
 51
84.705355377678401
  0
ARC
  5
54E2
  8
AM_0
 10
112.6915042027409
 20
219.75491642952829
 30
0.0
 40
6.0016010942138758
 50
70.204787517104947
 51
84.705355377678401
  0
ARC
  5
54E3
  8
AM_0
 10
116.2255853686122
 20
220.2518020866124
 30
0.0
 40
1.490622931552253
 50
280.42523494982129
 51
305.69487762209508
  0
ARC
  5
54E4
  8
AM_0
 10
109.72786521110559
 20
228.07960951044939
 30
8206336.7530117426
 40
12.9134744604336
 50
271.18655406403752
 51
287.92670513354841
  0
LINE
  5
54E5
  8
AM_0
 10
113.7026341405042
 20
215.79307075463379
 30
8206336.7530117426
 11
114.11521490770549
 21
215.9463124400265
 31
8206336.7530117426
  0
LINE
  5
54E6
  8
AM_0
 10
114.11521490770549
 20
215.9463124400265
 30
8206336.7530117426
 11
114.517706651962
 21
216.1252818027323
 31
8206336.7530117426
  0
ARC
  5
54E7
  8
AM_0
 10
112.0139450112061
 20
221.4100823664545
 30
8206336.7530117426
 40
5.8479004225482916
 50
295.35002817212489
 51
303.5670510400584
  0
LINE
  5
54E8
  8
AM_0
 10
115.24732208721601
 20
216.53738167419229
 30
8206336.7530117426
 11
115.5618649664672
 21
216.7696551293628
 31
8206336.7530117426
  0
LINE
  5
54E9
  8
AM_0
 10
115.5618649664672
 20
216.7696551293628
 30
8206336.7530117426
 11
115.85105411466461
 21
217.03252600540139
 31
8206336.7530117426
  0
ARC
  5
54EA
  8
AM_0
 10
113.9721711512864
 20
218.8982103956088
 30
8206336.7530117426
 40
2.647825416060579
 50
315.20195107610522
 51
327.6690874537353
  0
LINE
  5
54EB
  8
AM_0
 10
116.20951323113221
 20
217.48213135413991
 30
8206336.7530117426
 11
116.33842918741161
 21
217.72166311937599
 31
8206336.7530117426
  0
LINE
  5
54EC
  8
AM_0
 10
116.33842918741161
 20
217.72166311937599
 30
8206336.7530117426
 11
116.4325297549123
 21
217.97632210786031
 31
8206336.7530117426
  0
ARC
  5
54ED
  8
AM_0
 10
114.83370951596331
 20
218.43141077246361
 30
8206336.7530117426
 40
1.6623272388802151
 50
344.11151119415172
 51
352.55958186686092
  0
LINE
  5
54EE
  8
AM_0
 10
116.4820400582912
 20
218.21614750956891
 30
8206336.7530117426
 11
116.4919447227322
 21
218.3170132632896
 31
8206336.7530117426
  0
LINE
  5
54EF
  8
AM_0
 10
116.4919447227322
 20
218.3170132632896
 30
8206336.7530117426
 11
116.4953170538093
 21
218.41831197702851
 31
8206336.7530117426
  0
ARC
  5
54F0
  8
AM_0
 10
114.9002236351398
 20
218.41533582553029
 30
8206336.7530117426
 40
1.595096195143147
 50
0.1069032823798393
 51
11.47976002760999
  0
LINE
  5
54F1
  8
AM_0
 10
116.4634100441983
 20
218.732794676872
 30
8206336.7530117426
 11
116.4227781340131
 21
218.89336855239631
 31
8206336.7530117426
  0
LINE
  5
54F2
  8
AM_0
 10
116.4227781340131
 20
218.89336855239631
 30
8206336.7530117426
 11
116.36713806947949
 21
219.049336845819
 31
8206336.7530117426
  0
ARC
  5
54F3
  8
AM_0
 10
114.4916637758258
 20
218.27395406443409
 30
8206336.7530117426
 40
2.029438908620818
 50
22.461811304460369
 51
29.330593568206702
  0
ARC
  5
54F4
  8
AM_0
 10
110.2627688965286
 20
228.07960951050251
 30
8206336.7530117426
 40
12.91347446048893
 50
252.0732948664546
 51
268.81307083254751
  0
LINE
  5
54F5
  8
AM_0
 10
106.2879999671144
 20
215.79307075463379
 30
8206336.7530117426
 11
105.8754191999132
 21
215.9463124400265
 31
8206336.7530117426
  0
LINE
  5
54F6
  8
AM_0
 10
105.8754191999132
 20
215.9463124400265
 30
8206336.7530117426
 11
105.4729274556566
 21
216.1252818027323
 31
8206336.7530117426
  0
ARC
  5
54F7
  8
AM_0
 10
107.9766890964175
 20
221.41008236646331
 30
8206336.7530117426
 40
5.8479004225582418
 50
236.43294895995061
 51
244.649971827868
  0
LINE
  5
54F8
  8
AM_0
 10
104.7433120204026
 20
216.53738167419229
 30
8206336.7530117426
 11
104.42876914115141
 21
216.7696551293628
 31
8206336.7530117426
  0
LINE
  5
54F9
  8
AM_0
 10
104.42876914115141
 20
216.7696551293628
 30
8206336.7530117426
 11
104.139579992954
 21
217.03252600540139
 31
8206336.7530117426
  0
ARC
  5
54FA
  8
AM_0
 10
106.0184629563319
 20
218.8982103956082
 30
8206336.7530117426
 40
2.6478254160599781
 50
212.3309125462558
 51
224.79804892389021
  0
LINE
  5
54FB
  8
AM_0
 10
103.7811208764864
 20
217.48213135413991
 30
8206336.7530117426
 11
103.6522049202071
 21
217.72166311937599
 31
8206336.7530117426
  0
LINE
  5
54FC
  8
AM_0
 10
103.6522049202071
 20
217.72166311937599
 30
8206336.7530117426
 11
103.55810435270629
 21
217.97632210786031
 31
8206336.7530117426
  0
ARC
  5
54FD
  8
AM_0
 10
105.1569245916849
 20
218.43141077247009
 30
8206336.7530117426
 40
1.6623272389105701
 50
187.4404181332275
 51
195.8884888057874
  0
LINE
  5
54FE
  8
AM_0
 10
103.5085940493273
 20
218.21614750956891
 30
8206336.7530117426
 11
103.4986893848864
 21
218.3170132632896
 31
8206336.7530117426
  0
LINE
  5
54FF
  8
AM_0
 10
103.4986893848864
 20
218.3170132632896
 30
8206336.7530117426
 11
103.4953170538093
 21
218.41831197702851
 31
8206336.7530117426
  0
ARC
  5
5500
  8
AM_0
 10
105.0904104724758
 20
218.41533582553029
 30
8206336.7530117426
 40
1.5950961951403351
 50
168.52023997237021
 51
179.8930967176201
  0
LINE
  5
5501
  8
AM_0
 10
103.52722406342031
 20
218.732794676872
 30
8206336.7530117426
 11
103.5678559736056
 21
218.89336855239631
 31
8206336.7530117426
  0
LINE
  5
5502
  8
AM_0
 10
103.5678559736056
 20
218.89336855239631
 30
8206336.7530117426
 11
103.6234960381389
 21
219.049336845819
 31
8206336.7530117426
  0
ARC
  5
5503
  8
AM_0
 10
105.4989703318025
 20
218.27395406442821
 30
8206336.7530117426
 40
2.02943890863216
 50
147.8557105642179
 51
157.53818869548999
  0
LINE
  5
5504
  8
AM_0
 10
103.7806222887961
 20
219.3537236171413
 30
8206336.7530117426
 11
103.9029110353307
 21
219.53103420986321
 31
8206336.7530117426
  0
LINE
  5
5505
  8
AM_0
 10
103.9029110353307
 20
219.53103420986321
 30
8206336.7530117426
 11
104.0397646356688
 21
219.69741613225261
 31
8206336.7530117426
  0
ARC
  5
5506
  8
AM_0
 10
106.5379226218615
 20
217.4544044464314
 30
8206336.7530117426
 40
3.3573642558870951
 50
129.0813784716793
 51
138.08040406443399
  0
LINE
  5
5507
  8
AM_0
 10
104.4213611168453
 20
220.0605629493225
 30
8206336.7530117426
 11
104.8404997342454
 21
220.3632594269483
 31
8206336.7530117426
  0
LINE
  5
5508
  8
AM_0
 10
104.8404997342454
 20
220.3632594269483
 30
8206336.7530117426
 11
105.2896534141431
 21
220.6206111282028
 31
8206336.7530117426
  0
ARC
  5
5509
  8
AM_0
 10
108.62087909716951
 20
214.09300083393731
 30
8206336.7530117426
 40
7.3284896605682359
 50
109.0382363849769
 51
117.03651703470091
  0
LINE
  5
550A
  8
AM_0
 10
106.2303325523917
 20
221.02063014866741
 30
8206336.7530117426
 11
106.90683044695911
 21
221.22750999828571
 31
8206336.7530117426
  0
LINE
  5
550B
  8
AM_0
 10
106.90683044695911
 20
221.22750999828571
 30
8206336.7530117426
 11
107.59659700965879
 21
221.38532343078799
 31
8206336.7530117426
  0
ARC
  5
550C
  8
AM_0
 10
109.90546832652269
 20
209.4452235878671
 30
8206336.7530117426
 40
12.16128574685901
 50
96.390354906716382
 51
100.944276276251
  0
LINE
  5
550D
  8
AM_0
 10
108.5518972650937
 20
221.53094724838559
 30
8206336.7530117426
 11
108.6568610382575
 21
221.54095622175259
 31
8206336.7530117426
  0
ARC
  5
550E
  8
AM_0
 10
107.5453170538094
 20
233.2034479474907
 30
0.0
 40
0.7999999999998977
 50
90.0
 51
180.0
  0
ARC
  5
550F
  8
AM_0
 10
107.5453170538094
 20
231.99042762905819
 30
0.0
 40
0.7999999999999972
 50
90.0
 51
180.0
  0
ARC
  5
5510
  8
AM_0
 10
112.4453170538093
 20
233.2034479474907
 30
0.0
 40
0.8000000000000112
 50
0.0
 51
90.0
  0
ARC
  5
5511
  8
AM_0
 10
112.4453170538093
 20
231.99042762905819
 30
0.0
 40
0.8000000000000112
 50
0.0
 51
90.0
  0
LINE
  5
5D7C
  8
ﾁｭｳｼﾝｾﾝ
 10
87.64036048134983
 20
558.89674463230369
 30
0.0
 11
456.2150070538093
 21
558.89674463230369
 31
0.0
  0
LINE
  5
5D7D
  8
AM_0
 10
353.99531705380929
 20
508.82951463230359
 30
0.0
 11
353.99531705380929
 21
488.18479463230369
 31
0.0
  0
LINE
  5
5D7E
  8
AM_0
 10
354.99531705380969
 20
507.35880463230359
 30
0.0
 11
354.99531705380969
 21
493.81175463230358
 31
0.0
  0
LINE
  5
5D7F
  8
AM_0
 10
353.99531705380929
 20
493.81175463230358
 30
0.0
 11
354.99531705380969
 21
493.81175463230358
 31
0.0
  0
LINE
  5
5D80
  8
AM_0
 10
353.99531705380929
 20
507.35880463230359
 30
0.0
 11
354.99531705380969
 21
507.35880463230359
 31
0.0
  0
LINE
  5
5D81
  8
AM_0
 10
358.99528705380942
 20
495.81175463230358
 30
0.0
 11
358.99528705380942
 21
505.35877463230378
 31
0.0
  0
LINE
  5
5D82
  8
AM_0
 10
354.99531705380969
 20
503.47202463230371
 30
0.0
 11
357.9953170538094
 21
503.47202463230371
 31
0.0
  0
LINE
  5
5D83
  8
AM_0
 10
354.99531705380969
 20
497.6985246323037
 30
0.0
 11
357.9953170538094
 21
497.6985246323037
 31
0.0
  0
LINE
  5
5D84
  8
AM_0
 10
354.99531705380969
 20
494.81175463230358
 30
0.0
 11
357.9953170538094
 21
494.81175463230358
 31
0.0
  0
LINE
  5
5D85
  8
AM_0
 10
354.99531705380969
 20
506.35880463230359
 30
0.0
 11
357.9953170538094
 21
506.35880463230359
 31
0.0
  0
LINE
  5
5D86
  8
AM_0
 10
313.9953170538094
 20
634.11048463230384
 30
0.0
 11
313.9953170538094
 21
622.65861463230362
 31
0.0
  0
LINE
  5
5D87
  8
AM_0
 10
407.99531705380917
 20
633.32490463230386
 30
0.0
 11
407.99531705380917
 21
610.46857463230367
 31
0.0
  0
LINE
  5
5D88
  8
AM_0
 10
345.9953470538095
 20
636.89674463230347
 30
0.0
 11
406.04767705380942
 21
635.32423463230339
 31
0.0
  0
LINE
  5
5D89
  8
AM_0
 10
315.94297705380922
 20
636.10978463230379
 30
0.0
 11
345.99531705380969
 21
636.89674463230347
 31
0.0
  0
LINE
  5
5D8A
  8
AM_0
 10
342.9953170538094
 20
629.89674463230347
 30
0.0
 11
342.9953170538094
 21
487.89674463230369
 31
0.0
  0
LINE
  5
5D8B
  8
AM_0
 10
404.99531705380929
 20
608.44169463230355
 30
0.0
 11
404.99531705380929
 21
509.35178463230358
 31
0.0
  0
LINE
  5
5D8C
  8
AM_0
 10
404.99534705380921
 20
608.44172463230348
 30
0.0
 11
406.04767705380942
 21
608.4692846323037
 31
0.0
  0
LINE
  5
5D8D
  8
AM_0
 10
407.99531705380917
 20
484.46857463230378
 30
0.0
 11
407.99531705380917
 21
507.3249046323038
 31
0.0
  0
LINE
  5
5D8E
  8
AM_0
 10
313.9953170538094
 20
483.68302463230378
 30
0.0
 11
313.9953170538094
 21
495.13487463230371
 31
0.0
  0
LINE
  5
5D8F
  8
AM_0
 10
345.9953470538095
 20
480.89677463230379
 30
0.0
 11
406.04767705380942
 21
482.4692846323037
 31
0.0
  0
LINE
  5
5D90
  8
AM_0
 10
315.94297705380922
 20
481.68366463230359
 30
0.0
 11
345.99531705380969
 21
480.89674463230369
 31
0.0
  0
LINE
  5
5D91
  8
AM_0
 10
345.99531705380969
 20
633.04075463230356
 30
0.0
 11
338.9953170538094
 21
636.71345463230375
 31
0.0
  0
LINE
  5
5D92
  8
AM_0
 10
343.39835705380938
 20
629.88618463230375
 30
0.0
 11
338.99534705380933
 21
632.19630463230385
 31
0.0
  0
LINE
  5
5D93
  8
AM_0
 10
338.9953170538094
 20
636.71342463230383
 30
0.0
 11
338.9953170538094
 21
632.19633463230377
 31
0.0
  0
LINE
  5
5D94
  8
AM_0
 10
406.04767705380942
 20
509.32420463230369
 30
0.0
 11
404.99531705380929
 21
509.35175463230348
 31
0.0
  0
LINE
  5
5D95
  8
AM_0
 10
391.99534705380933
 20
508.6457346323038
 30
0.0
 11
391.99534705380933
 21
609.14774463230356
 31
0.0
  0
LINE
  5
5D96
  8
AM_0
 10
400.43110705380928
 20
607.29603463230364
 30
0.0
 11
395.73359705380938
 21
607.70701463230375
 31
0.0
  0
LINE
  5
5D97
  8
AM_0
 10
400.43110705380928
 20
510.49741463230339
 30
0.0
 11
395.73359705380938
 21
510.08643463230379
 31
0.0
  0
LINE
  5
5D98
  8
AM_0
 10
389.25681705380941
 20
505.65717463230368
 30
0.0
 11
383.55952705380929
 21
505.15873463230378
 31
0.0
  0
LINE
  5
5D99
  8
AM_0
 10
378.99531705380929
 20
486.89353463230361
 30
0.0
 11
378.99531705380929
 21
500.1777146323036
 31
0.0
  0
LINE
  5
5D9A
  8
AM_0
 10
345.99531705380969
 20
629.81818463230366
 30
0.0
 11
345.99531705380969
 21
633.04075463230356
 31
0.0
  0
LINE
  5
5D9B
  8
AM_0
 10
338.9953170538094
 20
481.08006463230367
 30
0.0
 11
338.9953170538094
 21
485.59715463230361
 31
0.0
  0
LINE
  5
5D9C
  8
AM_0
 10
343.39832705380962
 20
487.90730463230358
 30
0.0
 11
338.9953170538094
 21
485.59718463230348
 31
0.0
  0
LINE
  5
5D9D
  8
AM_0
 10
345.99531705380969
 20
484.75272463230363
 30
0.0
 11
338.9953170538094
 21
481.08006463230367
 31
0.0
  0
LINE
  5
5D9E
  8
AM_0
 10
345.99531705380969
 20
487.97529463230342
 30
0.0
 11
345.99531705380969
 21
484.75272463230363
 31
0.0
  0
LINE
  5
5D9F
  8
AM_0
 10
355.73118705380938
 20
488.23023463230368
 30
0.0
 11
342.99534705380933
 21
487.89674463230369
 31
0.0
  0
LINE
  5
5DA0
  8
AM_0
 10
355.73118705380938
 20
629.56324463230328
 30
0.0
 11
342.99534705380933
 21
629.89674463230347
 31
0.0
  0
LINE
  5
5DA1
  8
AM_0
 10
353.99531705380929
 20
508.82951463230359
 30
0.0
 11
356.99531705380929
 21
508.82951463230359
 31
0.0
  0
LINE
  5
5DA2
  8
AM_0
 10
356.9953470538095
 20
508.82951463230359
 30
0.0
 11
356.9953470538095
 21
608.9639746323038
 31
0.0
  0
LINE
  5
5DA3
  8
AM_0
 10
356.9953470538095
 20
508.82951463230359
 30
0.0
 11
370.5773170538094
 21
511.3878946323037
 31
0.0
  0
LINE
  5
5DA4
  8
AM_0
 10
358.09174705380968
 20
488.89347463230371
 30
0.0
 11
368.7285270538095
 21
495.00669463230372
 31
0.0
  0
LINE
  5
5DA5
  8
AM_0
 10
378.99531705380929
 20
617.61573463230366
 30
0.0
 11
378.99531705380929
 21
630.89994463230346
 31
0.0
  0
LINE
  5
5DA6
  8
AM_0
 10
389.07389705380928
 20
511.87223463230362
 30
0.0
 11
370.5773170538094
 21
511.3878946323037
 31
0.0
  0
LINE
  5
5DA7
  8
AM_0
 10
376.07386705380941
 20
495.8004546323038
 30
0.0
 11
371.08912705380942
 21
495.66993463230369
 31
0.0
  0
LINE
  5
5DA8
  8
AM_0
 10
389.25681705380941
 20
612.13633463230383
 30
0.0
 11
383.55955705380933
 21
612.63477463230379
 31
0.0
  0
LINE
  5
5DA9
  8
AM_0
 10
358.09177705380938
 20
628.89997463230338
 30
0.0
 11
368.7285270538095
 21
622.78678463230358
 31
0.0
  0
LINE
  5
5DAA
  8
AM_0
 10
356.9953470538095
 20
608.96400463230361
 30
0.0
 11
370.5773170538094
 21
606.40562463230378
 31
0.0
  0
LINE
  5
5DAB
  8
AM_0
 10
389.07389705380928
 20
605.92124463230346
 30
0.0
 11
370.57728705380941
 21
606.40559463230363
 31
0.0
  0
LINE
  5
5DAC
  8
AM_0
 10
376.07386705380941
 20
621.99302463230379
 30
0.0
 11
371.08912705380942
 21
622.12354463230361
 31
0.0
  0
LINE
  5
5DAD
  8
AM_0
 10
354.99531705380969
 20
611.43470463230346
 30
0.0
 11
357.9953170538094
 21
611.43470463230346
 31
0.0
  0
LINE
  5
5DAE
  8
AM_0
 10
354.99531705380969
 20
622.98170463230349
 30
0.0
 11
357.9953170538094
 21
622.98170463230349
 31
0.0
  0
LINE
  5
5DAF
  8
AM_0
 10
354.99531705380969
 20
620.0949546323036
 30
0.0
 11
357.9953170538094
 21
620.0949546323036
 31
0.0
  0
LINE
  5
5DB0
  8
AM_0
 10
354.99531705380969
 20
614.32145463230358
 30
0.0
 11
357.9953170538094
 21
614.32145463230358
 31
0.0
  0
LINE
  5
5DB1
  8
AM_0
 10
358.99528705380942
 20
621.98173463230376
 30
0.0
 11
358.99528705380942
 21
612.43470463230381
 31
0.0
  0
LINE
  5
5DB2
  8
AM_0
 10
353.99531705380929
 20
610.43467463230365
 30
0.0
 11
354.99531705380969
 21
610.43467463230365
 31
0.0
  0
LINE
  5
5DB3
  8
AM_0
 10
353.99531705380929
 20
623.98173463230376
 30
0.0
 11
354.99531705380969
 21
623.98173463230376
 31
0.0
  0
LINE
  5
5DB4
  8
AM_0
 10
354.99531705380969
 20
610.43467463230365
 30
0.0
 11
354.99531705380969
 21
623.98173463230376
 31
0.0
  0
LINE
  5
5DB5
  8
AM_0
 10
353.99531705380929
 20
608.9639746323038
 30
0.0
 11
353.99531705380929
 21
629.60868463230383
 31
0.0
  0
LINE
  5
5DB6
  8
AM_0
 10
353.99531705380929
 20
608.9639746323038
 30
0.0
 11
356.99531705380929
 21
608.9639746323038
 31
0.0
  0
LINE
  5
5DB7
  8
AM_0
 10
342.99534705380933
 20
487.89674463230369
 30
0.0
 11
337.94300705380942
 21
488.02903463230342
 31
0.0
  0
LINE
  5
5DB8
  8
AM_0
 10
342.9953170538094
 20
629.89674463230347
 30
0.0
 11
337.94300705380942
 21
629.76444463230359
 31
0.0
  0
LINE
  5
5DB9
  8
AM_0
 10
335.9953470538095
 20
490.02836463230358
 30
0.0
 11
335.9953470538095
 21
627.76511463230361
 31
0.0
  0
LINE
  5
5DBA
  8
AM_0
 10
305.99534705380933
 20
495.39674463230358
 30
0.0
 11
305.99534705380933
 21
622.39674463230358
 31
0.0
  0
LINE
  5
5DBB
  8
AM_0
 10
331.2351470538095
 20
494.73582463230372
 30
0.0
 11
305.99537705380942
 21
495.39674463230358
 31
0.0
  0
LINE
  5
5DBC
  8
AM_0
 10
332.9953170538094
 20
493.68546463230359
 30
0.0
 11
333.9953470538095
 21
493.68546463230359
 31
0.0
  0
LINE
  5
5DBD
  8
AM_0
 10
330.9953170538094
 20
495.68546463230342
 30
0.0
 11
330.9953170538094
 21
504.85670463230377
 31
0.0
  0
LINE
  5
5DBE
  8
AM_0
 10
330.9953170538094
 20
622.10804463230363
 30
0.0
 11
330.9953170538094
 21
612.93678463230356
 31
0.0
  0
LINE
  5
5DBF
  8
AM_0
 10
331.2351470538095
 20
623.05766463230361
 30
0.0
 11
305.99537705380942
 21
622.39674463230358
 31
0.0
  0
LINE
  5
5DC0
  8
AM_0
 10
332.9953170538094
 20
624.10804463230363
 30
0.0
 11
333.9953470538095
 21
624.10804463230363
 31
0.0
  0
LINE
  5
5DC1
  8
AM_0
 10
305.99534705380933
 20
506.85670463230372
 30
0.0
 11
335.9953470538095
 21
506.85670463230372
 31
0.0
  0
LINE
  5
5DC2
  8
AM_0
 10
305.99534705380933
 20
521.74671463230368
 30
0.0
 11
335.9953470538095
 21
521.74671463230368
 31
0.0
  0
LINE
  5
5DC3
  8
AM_0
 10
305.99534705380933
 20
596.04676463230362
 30
0.0
 11
335.9953470538095
 21
596.04676463230362
 31
0.0
  0
LINE
  5
5DC4
  8
AM_0
 10
305.99534705380933
 20
610.93678463230378
 30
0.0
 11
335.9953470538095
 21
610.93678463230378
 31
0.0
  0
LINE
  5
5DC5
  8
AM_0
 10
417.99531705380929
 20
562.89671463230366
 30
0.0
 11
449.99531705380917
 21
562.89671463230366
 31
0.0
  0
LINE
  5
5DC6
  8
AM_0
 10
417.99531705380929
 20
562.89671463230366
 30
0.0
 11
417.99531705380929
 21
554.89674463230369
 31
0.0
  0
LINE
  5
5DC7
  8
AM_0
 10
415.99526705380919
 20
546.89674463230335
 30
0.0
 11
449.99531705380917
 21
546.89674463230369
 31
0.0
  0
LINE
  5
5DC8
  8
AM_0
 10
415.99526705380919
 20
570.89674463230335
 30
0.0
 11
449.99531705380917
 21
570.89674463230347
 31
0.0
  0
LINE
  5
5DC9
  8
AM_0
 10
449.99531705380917
 20
570.89674463230347
 30
0.0
 11
449.99531705380917
 21
546.89674463230369
 31
0.0
  0
LINE
  5
5DCA
  8
AM_0
 10
417.99531705380929
 20
554.89674463230369
 30
0.0
 11
449.99531705380917
 21
554.89674463230369
 31
0.0
  0
ARC
  5
5DCB
  8
AM_0
 10
357.9953170538094
 20
505.35877463230378
 30
0.0
 40
1.0
 50
0.0
 51
90.00000299999769
  0
ARC
  5
5DCC
  8
AM_0
 10
357.9953170538094
 20
502.4720246323036
 30
0.0
 40
1.0
 50
0.0
 51
90.00000299999769
  0
ARC
  5
5DCD
  8
AM_0
 10
357.9953170538094
 20
496.69852463230359
 30
0.0
 40
1.0
 50
0.0
 51
90.00000299999769
  0
ARC
  5
5DCE
  8
AM_0
 10
357.9953170538094
 20
495.81175463230358
 30
0.0
 40
1.0
 50
269.999989999999
 51
0.0000006832495047
  0
ARC
  5
5DCF
  8
AM_0
 10
357.9953170538094
 20
498.69849463230361
 30
0.0
 40
1.0
 50
269.999989999999
 51
0.0000006832495047
  0
ARC
  5
5DD0
  8
AM_0
 10
357.9953170538094
 20
504.47202463230371
 30
0.0
 40
1.0
 50
269.999989999999
 51
0.0000006832495047
  0
ARC
  5
5DD1
  8
AM_0
 10
405.99531705380929
 20
633.32490463230386
 30
0.0
 40
2.0
 50
0.0
 51
88.499997000000747
  0
ARC
  5
5DD2
  8
AM_0
 10
315.9953170538094
 20
634.11048463230384
 30
0.0
 40
2.0
 50
91.500001000001546
 51
180.00001000000091
  0
ARC
  5
5DD3
  8
AM_0
 10
405.99531705380929
 20
610.46857463230367
 30
0.0
 40
2.0
 50
271.49999999999608
 51
0.0
  0
ARC
  5
5DD4
  8
AM_0
 10
325.99531705380957
 20
623.89674463230358
 30
0.0
 40
6.0
 50
359.45751000000109
 51
190.86121000000489
  0
CIRCLE
  5
5DD5
  8
AM_0
 10
395.9953170538094
 20
623.89674463230358
 30
0.0
 40
6.0
  0
ARC
  5
5DD6
  8
AM_0
 10
405.99531705380929
 20
484.46857463230378
 30
0.0
 40
2.0
 50
271.49999999999608
 51
0.0
  0
ARC
  5
5DD7
  8
AM_0
 10
315.9953170538094
 20
483.68302463230378
 30
0.0
 40
2.0
 50
180.00001000000091
 51
268.50000000000369
  0
ARC
  5
5DD8
  8
AM_0
 10
405.99531705380929
 20
507.3249046323038
 30
0.0
 40
2.0
 50
0.0
 51
88.499997000000747
  0
CIRCLE
  5
5DD9
  8
AM_0
 10
395.9953170538094
 20
493.89674463230369
 30
0.0
 40
6.0
  0
ARC
  5
5DDA
  8
AM_0
 10
399.99531705380929
 20
602.31507463230389
 30
0.0
 40
5.0
 50
0.0
 51
85.000003999997659
  0
ARC
  5
5DDB
  8
AM_0
 10
399.99531705380929
 20
515.4783746323036
 30
0.0
 40
5.0
 50
274.99999999999972
 51
0.0
  0
ARC
  5
5DDC
  8
AM_0
 10
383.99531705380929
 20
500.1777146323036
 30
0.0
 40
5.0
 50
95.00000199999856
 51
180.00001000000091
  0
ARC
  5
5DDD
  8
AM_0
 10
383.99531705380929
 20
617.61573463230366
 30
0.0
 40
5.0
 50
180.00001000000091
 51
265.00001000000071
  0
ARC
  5
5DDE
  8
AM_0
 10
383.99531705380929
 20
486.89353463230361
 30
0.0
 40
5.0
 50
180.00001000000091
 51
271.49999999999608
  0
ARC
  5
5DDF
  8
AM_0
 10
383.99531705380929
 20
630.89994463230346
 30
0.0
 40
5.0
 50
88.499997000000747
 51
180.00001000000091
  0
ARC
  5
5DE0
  8
AM_0
 10
375.99531705380969
 20
498.79942463230378
 30
0.0
 40
3.0
 50
271.49999999999608
 51
0.0
  0
ARC
  5
5DE1
  8
AM_0
 10
355.60029705380941
 20
493.22852463230362
 30
0.0
 40
5.0
 50
271.49999999999608
 51
299.88701999999472
  0
ARC
  5
5DE2
  8
AM_0
 10
371.2199870538094
 20
490.6716446323037
 30
0.0
 40
5.0
 50
91.500001000001546
 51
119.88701999999461
  0
ARC
  5
5DE3
  8
AM_0
 10
388.99534705380933
 20
514.87119463230385
 30
0.0
 40
3.0
 50
271.49999999999608
 51
0.0
  0
ARC
  5
5DE4
  8
AM_0
 10
388.99534705380933
 20
508.6457346323038
 30
0.0
 40
3.0
 50
274.99999999999972
 51
0.0
  0
ARC
  5
5DE5
  8
AM_0
 10
396.16935705380928
 20
505.10545463230369
 30
0.0
 40
5.0
 50
95.00000199999856
 51
153.73433000000119
  0
ARC
  5
5DE6
  8
AM_0
 10
396.16935705380928
 20
612.68800463230355
 30
0.0
 40
5.0
 50
206.26566999999881
 51
265.00001000000071
  0
ARC
  5
5DE7
  8
AM_0
 10
388.99534705380933
 20
602.92228463230379
 30
0.0
 40
3.0
 50
0.0
 51
88.499997000000747
  0
ARC
  5
5DE8
  8
AM_0
 10
355.60029705380941
 20
624.56495463230362
 30
0.0
 40
5.0
 50
60.112980000005322
 51
88.499997000000747
  0
ARC
  5
5DE9
  8
AM_0
 10
388.99534705380933
 20
609.14774463230356
 30
0.0
 40
3.0
 50
0.0
 51
85.000003999997659
  0
ARC
  5
5DEA
  8
AM_0
 10
371.2199870538094
 20
627.12183463230383
 30
0.0
 40
5.0
 50
240.11298000000519
 51
268.50000000000369
  0
ARC
  5
5DEB
  8
AM_0
 10
375.99531705380969
 20
618.99406463230355
 30
0.0
 40
3.0
 50
0.0
 51
88.499997000000747
  0
ARC
  5
5DEC
  8
AM_0
 10
357.9953170538094
 20
613.32145463230381
 30
0.0
 40
1.0
 50
0.0
 51
90.00000299999769
  0
ARC
  5
5DED
  8
AM_0
 10
357.9953170538094
 20
619.09498463230375
 30
0.0
 40
1.0
 50
0.0
 51
90.00000299999769
  0
ARC
  5
5DEE
  8
AM_0
 10
357.9953170538094
 20
621.98173463230376
 30
0.0
 40
1.0
 50
0.0
 51
90.00000299999769
  0
ARC
  5
5DEF
  8
AM_0
 10
357.9953170538094
 20
621.09495463230348
 30
0.0
 40
1.0
 50
269.999989999999
 51
0.0000006832495047
  0
ARC
  5
5DF0
  8
AM_0
 10
357.9953170538094
 20
615.32145463230347
 30
0.0
 40
1.0
 50
269.999989999999
 51
0.0000006832495047
  0
ARC
  5
5DF1
  8
AM_0
 10
357.9953170538094
 20
612.43470463230381
 30
0.0
 40
1.0
 50
269.999989999999
 51
0.0000006832495047
  0
ARC
  5
5DF2
  8
AM_0
 10
458.48405705380929
 20
558.89674463230369
 30
0.0
 40
101.4887199999999
 50
151.89333000000309
 51
208.10666999999691
  0
ARC
  5
5DF3
  8
AM_0
 10
337.9953470538095
 20
490.02836463230358
 30
0.0
 40
2.0
 50
180.00001000000091
 51
268.50000000000369
  0
ARC
  5
5DF4
  8
AM_0
 10
337.9953470538095
 20
627.76511463230361
 30
0.0
 40
2.0
 50
91.500001000001546
 51
180.00001000000091
  0
ARC
  5
5DF5
  8
AM_0
 10
332.9953170538094
 20
495.68546463230342
 30
0.0
 40
2.0
 50
180.00001000000091
 51
270.0
  0
ARC
  5
5DF6
  8
AM_0
 10
333.9953470538095
 20
491.68546463230342
 30
0.0
 40
2.0
 50
0.0
 51
90.00000299999769
  0
ARC
  5
5DF7
  8
AM_0
 10
333.9953470538095
 20
626.10804463230363
 30
0.0
 40
2.0
 50
270.0
 51
0.0
  0
ARC
  5
5DF8
  8
AM_0
 10
332.9953170538094
 20
622.10804463230363
 30
0.0
 40
2.0
 50
90.00000299999769
 51
180.00001000000091
  0
ARC
  5
5DF9
  8
AM_0
 10
328.99531705380917
 20
504.85670463230377
 30
0.0
 40
2.0
 50
0.0
 51
90.00000299999769
  0
ARC
  5
5DFA
  8
AM_0
 10
328.99531705380917
 20
612.93678463230356
 30
0.0
 40
2.0
 50
270.0
 51
0.0
  0
ARC
  5
5DFB
  8
AM_0
 10
325.99531705380957
 20
493.89674463230369
 30
0.0
 40
6.0
 50
169.138789999995
 51
0.5425729200004824
  0
ARC
  5
5DFC
  8
AM_0
 10
417.99531705380929
 20
558.89671463230366
 30
0.0
 40
3.9999962
 50
90.00000299999769
 51
120.0008584236235
  0
ARC
  5
5DFD
  8
AM_0
 10
417.99531705380929
 20
558.89671463230366
 30
0.0
 40
3.9999962
 50
239.99914157637639
 51
270.0
  0
LINE
  5
5F6C
  8
ﾁｭｳｼﾝｾﾝ1
 10
385.99531705380929
 20
623.89674463230358
 30
0.0
 11
405.99531705380929
 21
623.89674463230358
 31
0.0
  0
LINE
  5
5F6D
  8
ﾁｭｳｼﾝｾﾝ1
 10
395.9953170538094
 20
633.89674463230347
 30
0.0
 11
395.9953170538094
 21
613.89674463230358
 31
0.0
  0
LINE
  5
603D
  8
ﾁｭｳｼﾝｾﾝ1
 10
315.99531705380957
 20
623.89674463230358
 30
0.0
 11
335.99531705380957
 21
623.89674463230358
 31
0.0
  0
LINE
  5
603E
  8
ﾁｭｳｼﾝｾﾝ1
 10
325.99531705380957
 20
633.89674463230347
 30
0.0
 11
325.99531705380957
 21
613.89674463230358
 31
0.0
  0
LINE
  5
603F
  8
ﾁｭｳｼﾝｾﾝ1
 10
315.99531705380957
 20
493.89674463230369
 30
0.0
 11
335.99531705380957
 21
493.89674463230369
 31
0.0
  0
LINE
  5
6040
  8
ﾁｭｳｼﾝｾﾝ1
 10
325.99531705380957
 20
503.89674463230358
 30
0.0
 11
325.99531705380957
 21
483.89674463230369
 31
0.0
  0
LINE
  5
6041
  8
ﾁｭｳｼﾝｾﾝ1
 10
385.99531705380929
 20
493.89674463230369
 30
0.0
 11
405.99531705380929
 21
493.89674463230369
 31
0.0
  0
LINE
  5
6042
  8
ﾁｭｳｼﾝｾﾝ1
 10
395.9953170538094
 20
503.89674463230358
 30
0.0
 11
395.9953170538094
 21
483.89674463230369
 31
0.0
  0
ARC
  5
6043
  8
AM_0
 10
406.99529705380951
 20
588.28349963230335
 30
0.0
 40
2.00000007
 50
179.999989999999
 51
240.00001000000699
  0
ARC
  5
6044
  8
AM_0
 10
406.99529705380951
 20
529.50999263230335
 30
0.0
 40
2.00000007
 50
120.0000000000005
 51
180.00001000000091
  0
LINE
  5
6045
  8
AM_0
 10
410.99526705380907
 20
592.39674163230336
 30
0.0
 11
415.99526705380919
 21
587.39674163230382
 31
0.0
  0
LINE
  5
6046
  8
AM_0
 10
406.49526705380907
 20
592.39674163230336
 30
0.0
 11
410.99526705380907
 21
592.39674163230336
 31
0.0
  0
LINE
  5
6047
  8
AM_0
 10
405.99526705380907
 20
591.89674163230347
 30
0.0
 11
405.99526705380879
 21
525.89674163230416
 31
0.0
  0
LINE
  5
6048
  8
AM_0
 10
415.99526705380919
 20
587.39674163230382
 30
0.0
 11
415.99526705380919
 21
530.39674163230382
 31
0.0
  0
LINE
  5
6049
  8
AM_0
 10
406.49526705380907
 20
525.39674163230336
 30
0.0
 11
410.99526705380907
 21
525.39674163230336
 31
0.0
  0
LINE
  5
604A
  8
AM_0
 10
410.99526705380907
 20
525.39674163230336
 30
0.0
 11
415.99526705380919
 21
530.39674163230382
 31
0.0
  0
LINE
  5
604B
  8
AM_0
 10
406.49526705380907
 20
592.39674163230336
 30
0.0
 11
405.99526705380907
 21
591.89674163230347
 31
0.0
1001
GENIUS_GENFIL_13
1070
     0
1040
0.5
1040
0.5
1040
20.0
1040
0.0
1002
{
1002
}
1001
GENIUS_GENOBJ-N-CHA_13
1002
{
1000
OWNER
1000
GEN
1002
}
1001
GENIUS_GENODEF_13
1002
{
1000
HIER
1070
     0
1002
}
1002
{
1000
MANEDIT
1070
     0
1002
}
1002
{
1000
NOSEL
1070
     0
1002
}
1002
{
1000
BEHIND
1070
     0
1002
}
1002
{
1000
OTHER
1070
     0
1002
}
1002
{
1000
REACTOR
1002
}
  0
LINE
  5
604C
  8
AM_0
 10
405.99526705380907
 20
525.89674163230336
 30
0.0
 11
406.49526705380907
 21
525.39674163230336
 31
0.0
1001
GENIUS_GENFIL_13
1070
     0
1040
0.5
1040
0.5
1040
20.0
1040
0.0
1002
{
1002
}
1001
GENIUS_GENOBJ-N-CHA_13
1002
{
1000
OWNER
1000
GEN
1002
}
1001
GENIUS_GENODEF_13
1002
{
1000
HIER
1070
     0
1002
}
1002
{
1000
MANEDIT
1070
     0
1002
}
1002
{
1000
NOSEL
1070
     0
1002
}
1002
{
1000
BEHIND
1070
     0
1002
}
1002
{
1000
OTHER
1070
     0
1002
}
1002
{
1000
REACTOR
1002
}
  0
LINE
  5
604D
  8
AM_0
 10
410.99526705380907
 20
592.39674163230336
 30
0.0
 11
410.99526705380907
 21
525.39674163230336
 31
0.0
  0
LINE
  5
629D
  8
AM_0
 10
142.9953470538106
 20
506.83534112353192
 30
0.0
 11
142.99534705381021
 21
544.55762803828907
 31
0.0
  0
LINE
  5
629E
  8
AM_0
 10
133.9953470538097
 20
504.89674463230398
 30
0.0
 11
133.9953470538097
 21
612.89674463230403
 31
0.0
  0
LINE
  5
629F
  8
AM_0
 10
133.9953470538097
 20
504.89674463230392
 30
0.0
 11
150.9953470538097
 21
505.89674463230381
 31
0.0
  0
LINE
  5
62A0
  8
AM_0
 10
133.9953470538097
 20
612.89674463230381
 30
0.0
 11
150.9953470538097
 21
611.89674463230381
 31
0.0
  0
LINE
  5
62A1
  8
AM_0
 10
142.99534705381041
 20
515.30284143421238
 30
0.0
 11
150.9953470538097
 21
515.30284143421238
 31
0.0
  0
LINE
  5
62A2
  8
AM_0
 10
142.9953470538106
 20
506.83534112353192
 30
0.0
 11
150.9953470538097
 21
506.83534112353192
 31
0.0
  0
LINE
  5
62A3
  8
AM_0
 10
139.49534705381041
 20
524.25587166704383
 30
0.0
 11
142.99534705381041
 21
524.25587166704383
 31
0.0
  0
LINE
  5
62A4
  8
AM_0
 10
139.49534705381041
 20
515.75587166704383
 30
0.0
 11
142.9953470538106
 21
515.75587166704383
 31
0.0
  0
LINE
  5
62A5
  8
AM_0
 10
138.99534705381041
 20
516.25587166704383
 30
0.0
 11
138.99534705381041
 21
523.75587166704383
 31
0.0
  0
ARC
  5
62A6
  8
AM_0
 10
139.49534705381049
 20
516.25587166704383
 30
0.0
 40
0.5
 50
180.0
 51
270.0
  0
ARC
  5
62A7
  8
AM_0
 10
139.49534705381049
 20
523.75587166704383
 30
0.0
 40
0.5
 50
90.0
 51
180.0
  0
LINE
  5
62A8
  8
AM_0
 10
133.9953470538097
 20
516.62455013916383
 30
0.0
 11
138.99534705381041
 21
516.62455013916372
 31
0.0
  0
LINE
  5
62A9
  8
AM_0
 10
133.9953470538097
 20
526.35963263745975
 30
0.0
 11
142.99534705381041
 21
526.35963263745987
 31
0.0
  0
LINE
  5
62AA
  8
AM_0
 10
142.9953470538106
 20
610.95814814107609
 30
0.0
 11
142.99534705381021
 21
573.23586122632321
 31
0.0
  0
LINE
  5
62AB
  8
AM_0
 10
142.99534705381041
 20
602.49064783039535
 30
0.0
 11
150.9953470538097
 21
602.49064783039535
 31
0.0
  0
LINE
  5
62AC
  8
AM_0
 10
142.9953470538106
 20
610.95814814107609
 30
0.0
 11
150.9953470538097
 21
610.95814814107609
 31
0.0
  0
LINE
  5
62AD
  8
AM_0
 10
139.49534705381041
 20
593.53761759756401
 30
0.0
 11
142.99534705381041
 21
593.53761759756401
 31
0.0
  0
LINE
  5
62AE
  8
AM_0
 10
139.49534705381041
 20
602.03761759756412
 30
0.0
 11
142.9953470538106
 21
602.03761759756412
 31
0.0
  0
LINE
  5
62AF
  8
AM_0
 10
138.99534705381041
 20
601.53761759756412
 30
0.0
 11
138.99534705381041
 21
594.03761759756412
 31
0.0
  0
ARC
  5
62B0
  8
AM_0
 10
139.49534705381049
 20
601.53761759756401
 30
0.0
 40
0.5
 50
90.0
 51
180.0
  0
ARC
  5
62B1
  8
AM_0
 10
139.49534705381049
 20
594.03761759756389
 30
0.0
 40
0.5
 50
180.0
 51
270.0
  0
LINE
  5
62B2
  8
AM_0
 10
133.9953470538097
 20
601.16893912544413
 30
0.0
 11
138.99534705381041
 21
601.16893912544413
 31
0.0
  0
LINE
  5
62B3
  8
AM_0
 10
133.9953470538097
 20
591.4338566271482
 30
0.0
 11
142.99534705381041
 21
591.4338566271482
 31
0.0
  0
LINE
  5
62B4
  8
AM_0
 10
127.9953470538097
 20
612.89674463230415
 30
0.0
 11
127.9953470538097
 21
504.89674463230392
 31
0.0
  0
LINE
  5
62B5
  8
AM_0
 10
133.9953470538097
 20
504.89674463230392
 30
0.0
 11
127.9953470538097
 21
504.89674463230392
 31
0.0
  0
LINE
  5
62B6
  8
AM_0
 10
127.9953470538097
 20
612.89674463230415
 30
0.0
 11
133.9953470538095
 21
612.89674463230415
 31
0.0
  0
LINE
  5
62B7
  8
AM_0
 10
126.9953470538097
 20
555.09674463230385
 30
0.0
 11
126.9953470538097
 21
562.69674463230365
 31
0.0
  0
LINE
  5
62B8
  8
AM_0
 10
126.9953470538097
 20
562.69674463230365
 30
0.0
 11
127.9953470538097
 21
562.69674463230365
 31
0.0
  0
LINE
  5
62B9
  8
AM_0
 10
127.9953470538097
 20
559.09674463230385
 30
0.0
 11
126.9953470538097
 21
559.46071486657002
 31
0.0
  0
LINE
  5
62BA
  8
AM_0
 10
127.9953470538097
 20
558.69674463230365
 30
0.0
 11
126.9953470538097
 21
559.06071486657027
 31
0.0
  0
LINE
  5
62BB
  8
AM_0
 10
127.9953470538097
 20
555.09674463230385
 30
0.0
 11
126.9953470538097
 21
555.09674463230385
 31
0.0
  0
LINE
  5
62BC
  8
AM_0
 10
125.9364095416816
 20
562.80409960461054
 30
0.0
 11
126.9953470538097
 21
562.89674463230392
 31
0.0
  0
LINE
  5
62BD
  8
AM_0
 10
125.9364095416816
 20
554.98938965999753
 30
0.0
 11
126.9953470538097
 21
554.89674463230392
 31
0.0
  0
ARC
  5
62BE
  8
AM_0
 10
130.3953470538097
 20
558.89674463230392
 30
0.0
 40
6.5
 50
151.82726586813479
 51
208.1727341318651
  0
ARC
  5
62BF
  8
AM_0
 10
126.0758587300782
 20
556.58330117694425
 30
0.0
 40
1.6000000000000001
 50
208.1727341318651
 51
265.0
  0
ARC
  5
62C0
  8
AM_0
 10
126.0758587300782
 20
561.21018808766325
 30
0.0
 40
1.6000000000000001
 50
95.0
 51
151.82726586813479
  0
LINE
  5
62C1
  8
AM_0
 10
126.9953470538097
 20
554.89674463230392
 30
0.0
 11
126.9953470538097
 21
562.89674463230392
 31
0.0
  0
LINE
  5
62C2
  8
AM_0
 10
150.9953470538097
 20
544.55762803828918
 30
0.0
 11
142.99534705381041
 21
544.55762803828918
 31
0.0
  0
LINE
  5
62C3
  8
AM_0
 10
150.9953470538095
 20
573.23586122632321
 30
0.0
 11
142.99534705381021
 21
573.23586122632321
 31
0.0
  0
LINE
  5
62C4
  8
AM_0
 10
113.4953470538093
 20
524.89674463230494
 30
0.0
 11
113.4953470538093
 21
513.89674463230403
 31
0.0
  0
LINE
  5
62C5
  8
AM_0
 10
127.9953470538092
 20
513.89674463230403
 30
0.0
 11
113.4953470538093
 21
513.89674463230415
 31
0.0
  0
LINE
  5
62C6
  8
AM_0
 10
101.4953470538097
 20
518.89674463230494
 30
0.0
 11
101.4953470538095
 21
515.89674463230506
 31
0.0
  0
LINE
  5
62C7
  8
AM_0
 10
101.4953470538095
 20
515.89674463230506
 30
0.0
 11
113.4953470538093
 21
515.89674463230506
 31
0.0
  0
LINE
  5
62C8
  8
AM_0
 10
101.4953470538092
 20
516.89674463230494
 30
0.0
 11
101.4953470538092
 21
519.07441303845155
 31
0.0
  0
LINE
  5
62C9
  8
AM_0
 10
95.995347053809283
 20
518.89674463230517
 30
0.0
 11
96.895347053809346
 21
518.89674463230517
 31
0.0
  0
LINE
  5
62CA
  8
AM_0
 10
95.795347053808996
 20
521.89674463230494
 30
0.0
 11
95.795347053808996
 21
518.89674463230517
 31
0.0
  0
LINE
  5
62CB
  8
AM_0
 10
96.895347053809346
 20
518.62439289772135
 30
0.0
 11
96.895347053809346
 21
522.16909636688888
 31
0.0
  0
LINE
  5
62CC
  8
AM_0
 10
95.49534705380924
 20
521.59674463230522
 30
0.0
 11
96.895347053807541
 21
521.59674463230522
 31
0.0
  0
LINE
  5
62CD
  8
AM_0
 10
100.8953470538093
 20
518.01517477189805
 30
0.0
 11
100.8953470538093
 21
516.89674463230494
 31
0.0
  0
LINE
  5
62CE
  8
AM_0
 10
100.8953470538093
 20
518.89674463230517
 30
0.0
 11
100.8953470538093
 21
518.79674463230515
 31
0.0
  0
LINE
  5
62CF
  8
AM_0
 10
100.8953470538093
 20
518.79674463230515
 30
0.0
 11
100.8953470538093
 21
518.01517477189805
 31
0.0
  0
LINE
  5
62D0
  8
AM_0
 10
100.8953470538093
 20
518.89674463230517
 30
0.0
 11
100.8953470538093
 21
518.79674463230515
 31
0.0
  0
LINE
  5
62D1
  8
AM_0
 10
100.8953470538093
 20
519.28050730863481
 30
0.0
 11
100.8953470538093
 21
518.01517477189805
 31
0.0
  0
LINE
  5
62D2
  8
AM_0
 10
100.8953470538093
 20
516.89674463230494
 30
0.0
 11
101.4953470538092
 21
516.89674463230494
 31
0.0
  0
LINE
  5
62D3
  8
AM_0
 10
98.195347053809542
 20
518.01517477189805
 30
0.0
 11
98.195347053809542
 21
521.44670596429819
 31
0.0
  0
LINE
  5
62D4
  8
AM_0
 10
98.034302824551901
 20
517.72848314355485
 30
0.0
 11
97.101749775044809
 21
518.26689289772162
 31
0.0
  0
LINE
  5
62D5
  8
AM_0
 10
98.467798645839935
 20
517.22131815176215
 30
0.0
 11
100.6228954617789
 21
517.22131815176215
 31
0.0
  0
LINE
  5
62D6
  8
AM_0
 10
98.467798645839935
 20
518.80903139203372
 30
0.0
 11
100.6228954617789
 21
518.80903139203372
 31
0.0
  0
LINE
  5
62D7
  8
AM_0
 10
96.895347053807996
 20
521.89674463230494
 30
0.0
 11
95.795347053808996
 21
521.89674463230494
 31
0.0
  0
LINE
  5
62D8
  8
AM_0
 10
95.795347053808996
 20
521.89674463230494
 30
0.0
 11
95.49534705380924
 21
521.59674463230522
 31
0.0
  0
LINE
  5
62D9
  8
AM_0
 10
95.49534705380924
 20
521.59674463230522
 30
0.0
 11
95.49534705380924
 21
519.19674463230513
 31
0.0
  0
LINE
  5
62DA
  8
AM_0
 10
95.795347053808996
 20
518.89674463230517
 30
0.0
 11
96.895347053807541
 21
518.89674463230517
 31
0.0
  0
LINE
  5
62DB
  8
AM_0
 10
95.49534705380924
 20
519.19674463230513
 30
0.0
 11
95.795347053808996
 21
518.89674463230517
 31
0.0
  0
LINE
  5
62DC
  8
AM_0
 10
96.895347053807541
 20
519.19674463230513
 30
0.0
 11
95.49534705380924
 21
519.19674463230513
 31
0.0
  0
ARC
  5
62DD
  8
AM_0
 10
99.602570237782771
 20
518.01517477189805
 30
0.0
 40
1.292776816026465
 50
322.11555894629771
 51
0.0
  0
ARC
  5
62DE
  8
AM_0
 10
102.957776929869
 20
520.39674463230494
 30
0.0
 40
4.762429876059711
 50
168.45024695876941
 51
199.4742400054138
  0
ARC
  5
62DF
  8
AM_0
 10
99.488123869835931
 20
518.01517477189805
 30
0.0
 40
1.292776816026556
 50
142.11555894629771
 51
217.88444105370229
  0
ARC
  5
62E0
  8
AM_0
 10
96.132917177749846
 20
520.39674463230494
 30
0.0
 40
4.762429876059584
 50
340.52575999458628
 51
347.08714779821958
  0
ARC
  5
62E1
  8
AM_0
 10
99.602570237782771
 20
518.01517477189805
 30
0.0
 40
1.2927768160265021
 50
0.0
 51
37.884441053702282
  0
ARC
  5
62E2
  8
AM_0
 10
97.308152496279845
 20
518.62439289772158
 30
0.0
 40
0.4128054424705854
 50
180.0
 51
239.99999999999949
  0
ARC
  5
62E3
  8
AM_0
 10
97.621497382081444
 20
517.01348314355505
 30
0.0
 40
0.8256108849411369
 50
28.217424594182571
 51
59.999999999999439
  0
LINE
  5
62E4
  8
AM_0
 10
97.110439586332518
 20
522.53161343177487
 30
0.0
 11
97.101749775044809
 21
522.52659636688895
 31
0.0
  0
ARC
  5
62E5
  8
AM_0
 10
97.308152496280044
 20
522.16909636688899
 30
0.0
 40
0.4128054424705854
 50
119.9999999999916
 51
179.99999999999341
  0
CIRCLE
  5
62E6
  8
AM_0
 10
99.495308385803483
 20
558.89674463230415
 30
0.0
 40
5.5
  0
LINE
  5
62E7
  8
AM_0
 10
93.995308385803426
 20
555.72131815176124
 30
0.0
 11
99.495308385803924
 21
552.54589167121821
 31
0.0
  0
LINE
  5
62E8
  8
AM_0
 10
99.495308385803924
 20
552.54589167121821
 30
0.0
 11
104.9953083858034
 21
555.72131815176147
 31
0.0
  0
LINE
  5
62E9
  8
AM_0
 10
104.9953083858034
 20
555.72131815176147
 30
0.0
 11
104.9953083858034
 21
562.07217111284717
 31
0.0
  0
LINE
  5
62EA
  8
AM_0
 10
104.9953083858034
 20
562.07217111284717
 30
0.0
 11
99.495308385803483
 21
565.24759759339031
 31
0.0
  0
LINE
  5
62EB
  8
AM_0
 10
99.495308385803483
 20
565.24759759339031
 30
0.0
 11
93.995308385803426
 21
562.07217111284683
 31
0.0
  0
LINE
  5
62EC
  8
AM_0
 10
93.995308385803426
 20
562.07217111284683
 30
0.0
 11
93.995308385803426
 21
555.72131815176124
 31
0.0
  0
CIRCLE
  5
62ED
  8
AM_0
 10
99.495308385803483
 20
558.89674463230415
 30
0.0
 40
6.4999856554771771
  0
LINE
  5
62EE
  8
AM_0
 10
110.5606006161746
 20
524.89674463230494
 30
0.0
 11
113.4953470538093
 21
524.89674463230494
 31
0.0
  0
LINE
  5
62EF
  8
AM_0
 10
111.5147691679625
 20
523.39674463230494
 30
0.0
 11
113.4953470538093
 21
523.39674463230494
 31
0.0
  0
LINE
  5
62F0
  8
AM_0
 10
102.8163761976683
 20
518.89674463230494
 30
0.0
 11
113.4953470538093
 21
518.89674463230494
 31
0.0
  0
ARC
  5
62F1
  8
AM_0
 10
102.81637619766811
 20
523.89674463230494
 30
0.0
 40
5.0
 50
225.0
 51
270.0
1001
GENIUS_GENODEF_13
1002
{
1000
HIER
1070
     0
1002
}
1002
{
1000
MANEDIT
1070
     0
1002
}
1002
{
1000
NOSEL
1070
     0
1002
}
1002
{
1000
BEHIND
1070
     0
1002
}
1002
{
1000
OTHER
1070
     0
1002
}
1002
{
1000
REACTOR
1002
}
1001
GENIUS_GENOBJ-N-FIL_13
1002
{
1000
OWNER
1000
GEN
1002
}
  0
LINE
  5
62F2
  8
AM_0
 10
111.5147691679623
 20
518.89674463230494
 30
0.0
 11
111.5147691679625
 21
523.39674463230494
 31
0.0
  0
LINE
  5
62F3
  8
AM_0
 10
97.995308385803483
 20
552.57220405441171
 30
0.0
 11
97.995308385803682
 21
531.68476977859552
 31
0.0
  0
LINE
  5
62F4
  8
AM_0
 10
100.9953083858034
 20
552.57220405441171
 30
0.0
 11
100.9953083858034
 21
531.68476977859552
 31
0.0
  0
LINE
  5
62F5
  8
AM_0
 10
95.745308385803483
 20
553.58757204880203
 30
0.0
 11
95.745308385803483
 21
525.96781244416968
 31
0.0
  0
ARC
  5
62F6
  8
AM_0
 10
100.7453083858034
 20
525.96781244416968
 30
0.0
 40
5.0
 50
180.0
 51
225.0
1001
GENIUS_GENOBJ-N-FIL_13
1002
{
1000
OWNER
1000
GEN
1002
}
1001
GENIUS_GENODEF_13
1002
{
1000
HIER
1070
     0
1002
}
1002
{
1000
MANEDIT
1070
     0
1002
}
1002
{
1000
NOSEL
1070
     0
1002
}
1002
{
1000
BEHIND
1070
     0
1002
}
1002
{
1000
OTHER
1070
     0
1002
}
1002
{
1000
REACTOR
1002
}
  0
LINE
  5
62F7
  8
AM_0
 10
103.2453083858035
 20
553.58757204880203
 30
0.0
 11
103.2453083858035
 21
529.42766297555647
 31
0.0
  0
ARC
  5
62F8
  8
AM_0
 10
108.2453083858034
 20
537.85226300162969
 30
0.0
 40
5.0
 50
180.0
 51
212.46094411513889
1001
GENIUS_GENODEF_13
1002
{
1000
HIER
1070
     0
1002
}
1002
{
1000
MANEDIT
1070
     0
1002
}
1002
{
1000
NOSEL
1070
     0
1002
}
1002
{
1000
BEHIND
1070
     0
1002
}
1002
{
1000
OTHER
1070
     0
1002
}
1002
{
1000
REACTOR
1002
}
1001
GENIUS_GENOBJ-N-FIL_13
1002
{
1000
OWNER
1000
GEN
1002
}
  0
ARC
  5
62F9
  8
AM_0
 10
108.2453083858034
 20
529.42766297555647
 30
0.0
 40
5.0
 50
180.0
 51
224.2123722808945
1001
GENIUS_GENOBJ-N-FIL_13
1002
{
1000
OWNER
1000
GEN
1002
}
1001
GENIUS_GENODEF_13
1002
{
1000
HIER
1070
     0
1002
}
1002
{
1000
MANEDIT
1070
     0
1002
}
1002
{
1000
NOSEL
1070
     0
1002
}
1002
{
1000
BEHIND
1070
     0
1002
}
1002
{
1000
OTHER
1070
     0
1002
}
1002
{
1000
REACTOR
1002
}
  0
LINE
  5
62FA
  8
AM_0
 10
111.5147691679623
 20
523.39674463230494
 30
0.0
 11
104.0265208750364
 21
535.16864008866389
 31
0.0
  0
LINE
  5
62FB
  8
AM_0
 10
111.5147691679623
 20
518.89674463230494
 30
0.0
 11
104.661508149952
 21
525.94106350479535
 31
0.0
  0
LINE
  5
62FC
  8
AM_0
 10
97.209774479870816
 20
522.43227853823669
 30
0.0
 11
99.280842291735453
 21
520.36121072637218
 31
0.0
  0
ARC
  5
62FD
  8
AM_0
 10
99.495308385803483
 20
531.68476977859552
 30
0.0
 40
1.5
 50
180.0
 51
0.0
  0
LINE
  5
62FE
  8
AM_0
 10
113.4953470538097
 20
592.89674463230335
 30
0.0
 11
113.49534705381021
 21
603.89674463230415
 31
0.0
  0
LINE
  5
62FF
  8
AM_0
 10
127.99534705381009
 20
603.89674463230403
 30
0.0
 11
113.49534705381021
 21
603.89674463230415
 31
0.0
  0
LINE
  5
6300
  8
AM_0
 10
101.49534705381041
 20
598.89674463230358
 30
0.0
 11
101.49534705381041
 21
601.89674463230358
 31
0.0
  0
LINE
  5
6301
  8
AM_0
 10
101.49534705381041
 20
601.89674463230358
 30
0.0
 11
113.49534705381021
 21
601.89674463230335
 31
0.0
  0
LINE
  5
6302
  8
AM_0
 10
101.49534705381021
 20
600.89674463230335
 30
0.0
 11
101.49534705381021
 21
598.71907622615674
 31
0.0
  0
LINE
  5
6303
  8
AM_0
 10
95.995347053810164
 20
598.89674463230358
 30
0.0
 11
96.895347053810283
 21
598.89674463230358
 31
0.0
  0
LINE
  5
6304
  8
AM_0
 10
95.795347053809905
 20
595.89674463230347
 30
0.0
 11
95.795347053809905
 21
598.89674463230358
 31
0.0
  0
LINE
  5
6305
  8
AM_0
 10
96.895347053810283
 20
599.16909636688717
 30
0.0
 11
96.895347053810283
 21
595.62439289771976
 31
0.0
  0
LINE
  5
6306
  8
AM_0
 10
95.495347053810178
 20
596.19674463230365
 30
0.0
 11
96.895347053810056
 21
596.19674463230342
 31
0.0
  0
LINE
  5
6307
  8
AM_0
 10
100.8953470538102
 20
599.77831449271048
 30
0.0
 11
100.8953470538102
 21
600.89674463230335
 31
0.0
  0
LINE
  5
6308
  8
AM_0
 10
100.8953470538102
 20
598.89674463230358
 30
0.0
 11
100.8953470538102
 21
598.99674463230349
 31
0.0
  0
LINE
  5
6309
  8
AM_0
 10
100.8953470538102
 20
598.99674463230349
 30
0.0
 11
100.8953470538102
 21
599.77831449271048
 31
0.0
  0
LINE
  5
630A
  8
AM_0
 10
100.8953470538102
 20
598.89674463230358
 30
0.0
 11
100.8953470538102
 21
598.99674463230349
 31
0.0
  0
LINE
  5
630B
  8
AM_0
 10
100.8953470538102
 20
598.5129819559736
 30
0.0
 11
100.8953470538102
 21
599.77831449271048
 31
0.0
  0
LINE
  5
630C
  8
AM_0
 10
100.8953470538102
 20
600.89674463230335
 30
0.0
 11
101.49534705381021
 21
600.89674463230335
 31
0.0
  0
LINE
  5
630D
  8
AM_0
 10
98.195347053810451
 20
599.77831449271048
 30
0.0
 11
98.195347053810224
 21
596.34678330031034
 31
0.0
  0
LINE
  5
630E
  8
AM_0
 10
98.03430282455281
 20
600.06500612105378
 30
0.0
 11
97.101749775045704
 21
599.52659636688713
 31
0.0
  0
LINE
  5
630F
  8
AM_0
 10
98.467798645840844
 20
600.57217111284626
 30
0.0
 11
100.62289546177981
 21
600.57217111284626
 31
0.0
  0
LINE
  5
6310
  8
AM_0
 10
98.467798645840844
 20
598.98445787257504
 30
0.0
 11
100.62289546177981
 21
598.98445787257469
 31
0.0
  0
LINE
  5
6311
  8
AM_0
 10
96.895347053810283
 20
595.89674463230347
 30
0.0
 11
95.795347053809905
 21
595.89674463230347
 31
0.0
  0
LINE
  5
6312
  8
AM_0
 10
95.795347053809905
 20
595.89674463230347
 30
0.0
 11
95.495347053810178
 21
596.19674463230365
 31
0.0
  0
LINE
  5
6313
  8
AM_0
 10
95.495347053810178
 20
596.19674463230365
 30
0.0
 11
95.495347053810178
 21
598.59674463230363
 31
0.0
  0
LINE
  5
6314
  8
AM_0
 10
95.795347053809905
 20
598.89674463230358
 30
0.0
 11
96.895347053810283
 21
598.89674463230358
 31
0.0
  0
LINE
  5
6315
  8
AM_0
 10
95.495347053810178
 20
598.59674463230363
 30
0.0
 11
95.795347053809905
 21
598.89674463230358
 31
0.0
  0
LINE
  5
6316
  8
AM_0
 10
96.895347053810283
 20
598.59674463230363
 30
0.0
 11
95.495347053810178
 21
598.59674463230363
 31
0.0
  0
ARC
  5
6317
  8
AM_0
 10
99.602570237783681
 20
599.77831449271048
 30
0.0
 40
1.292776816026465
 50
0.0
 51
37.884441053702282
  0
ARC
  5
6318
  8
AM_0
 10
102.95777692986969
 20
597.39674463230335
 30
0.0
 40
4.762429876059711
 50
160.52575999458611
 51
191.5497530412305
  0
ARC
  5
6319
  8
AM_0
 10
99.488123869836841
 20
599.77831449271048
 30
0.0
 40
1.292776816026556
 50
142.11555894629771
 51
217.88444105370229
  0
ARC
  5
631A
  8
AM_0
 10
96.132917177750514
 20
597.39674463230358
 30
0.0
 40
4.762429876059584
 50
12.912852201780369
 51
19.474240005413812
  0
ARC
  5
631B
  8
AM_0
 10
99.602570237783681
 20
599.77831449271048
 30
0.0
 40
1.2927768160265021
 50
322.11555894629771
 51
0.0
  0
ARC
  5
631C
  8
AM_0
 10
97.308152496280726
 20
599.16909636688706
 30
0.0
 40
0.4128054424705854
 50
120.0000000000005
 51
180.0
  0
ARC
  5
631D
  8
AM_0
 10
97.621497382082126
 20
600.78000612105382
 30
0.0
 40
0.8256108849411369
 50
300.00000000000051
 51
331.7825754058174
  0
LINE
  5
631E
  8
AM_0
 10
97.110439586333456
 20
595.26187583283365
 30
0.0
 11
97.101749775045704
 21
595.26689289771957
 31
0.0
  0
ARC
  5
631F
  8
AM_0
 10
97.308152496280726
 20
595.62439289771976
 30
0.0
 40
0.4128054424705854
 50
180.00000000000659
 51
240.00000000000841
  0
LINE
  5
6320
  8
AM_0
 10
110.56060061617551
 20
592.89674463230335
 30
0.0
 11
113.4953470538097
 21
592.89674463230335
 31
0.0
  0
LINE
  5
6321
  8
AM_0
 10
111.51476916796319
 20
594.39674463230347
 30
0.0
 11
113.49534705380979
 21
594.39674463230335
 31
0.0
  0
LINE
  5
6322
  8
AM_0
 10
102.8163761976692
 20
598.89674463230358
 30
0.0
 11
113.49534705380979
 21
598.89674463230335
 31
0.0
  0
ARC
  5
6323
  8
AM_0
 10
102.8163761976687
 20
593.89674463230358
 30
0.0
 40
5.0
 50
90.0
 51
135.0
1001
GENIUS_GENODEF_13
1002
{
1000
HIER
1070
     0
1002
}
1002
{
1000
MANEDIT
1070
     0
1002
}
1002
{
1000
NOSEL
1070
     0
1002
}
1002
{
1000
BEHIND
1070
     0
1002
}
1002
{
1000
OTHER
1070
     0
1002
}
1002
{
1000
REACTOR
1002
}
1001
GENIUS_GENOBJ-N-FIL_13
1002
{
1000
OWNER
1000
GEN
1002
}
  0
LINE
  5
6324
  8
AM_0
 10
111.51476916796319
 20
598.89674463230347
 30
0.0
 11
111.51476916796319
 21
594.39674463230347
 31
0.0
  0
LINE
  5
6325
  8
AM_0
 10
97.995308385803924
 20
565.22128521019704
 30
0.0
 11
97.995308385804364
 21
586.10871948601311
 31
0.0
  0
LINE
  5
6326
  8
AM_0
 10
100.9953083858037
 20
565.22128521019681
 30
0.0
 11
100.99530838580429
 21
586.10871948601311
 31
0.0
  0
LINE
  5
6327
  8
AM_0
 10
95.745308385803924
 20
564.20591721580649
 30
0.0
 11
95.745308385804364
 21
591.82567682043918
 31
0.0
  0
ARC
  5
6328
  8
AM_0
 10
100.74530838580409
 20
591.82567682043884
 30
0.0
 40
5.0
 50
135.0
 51
180.0
1001
GENIUS_GENOBJ-N-FIL_13
1002
{
1000
OWNER
1000
GEN
1002
}
1001
GENIUS_GENODEF_13
1002
{
1000
HIER
1070
     0
1002
}
1002
{
1000
MANEDIT
1070
     0
1002
}
1002
{
1000
NOSEL
1070
     0
1002
}
1002
{
1000
BEHIND
1070
     0
1002
}
1002
{
1000
OTHER
1070
     0
1002
}
1002
{
1000
REACTOR
1002
}
  0
LINE
  5
6329
  8
AM_0
 10
103.2453083858039
 20
564.20591721580615
 30
0.0
 11
103.24530838580441
 21
588.36582628905205
 31
0.0
  0
ARC
  5
632A
  8
AM_0
 10
108.2453083858039
 20
579.94122626297894
 30
0.0
 40
5.0
 50
147.53905588486111
 51
180.0
1001
GENIUS_GENODEF_13
1002
{
1000
HIER
1070
     0
1002
}
1002
{
1000
MANEDIT
1070
     0
1002
}
1002
{
1000
NOSEL
1070
     0
1002
}
1002
{
1000
BEHIND
1070
     0
1002
}
1002
{
1000
OTHER
1070
     0
1002
}
1002
{
1000
REACTOR
1002
}
1001
GENIUS_GENOBJ-N-FIL_13
1002
{
1000
OWNER
1000
GEN
1002
}
  0
ARC
  5
632B
  8
AM_0
 10
108.24530838580409
 20
588.36582628905194
 30
0.0
 40
5.0
 50
135.7876277191055
 51
180.0
1001
GENIUS_GENOBJ-N-FIL_13
1002
{
1000
OWNER
1000
GEN
1002
}
1001
GENIUS_GENODEF_13
1002
{
1000
HIER
1070
     0
1002
}
1002
{
1000
MANEDIT
1070
     0
1002
}
1002
{
1000
NOSEL
1070
     0
1002
}
1002
{
1000
BEHIND
1070
     0
1002
}
1002
{
1000
OTHER
1070
     0
1002
}
1002
{
1000
REACTOR
1002
}
  0
LINE
  5
632C
  8
AM_0
 10
111.514769167963
 20
594.39674463230347
 30
0.0
 11
104.02652087503679
 21
582.62484917594475
 31
0.0
  0
LINE
  5
632D
  8
AM_0
 10
111.51476916796319
 20
598.89674463230347
 30
0.0
 11
104.66150814995279
 21
591.85242575981295
 31
0.0
  0
LINE
  5
632E
  8
AM_0
 10
97.209774479871484
 20
595.36121072637184
 30
0.0
 11
99.280842291736334
 21
597.43227853823635
 31
0.0
  0
ARC
  5
632F
  8
AM_0
 10
99.495308385804151
 20
586.10871948601311
 30
0.0
 40
1.5
 50
0.0
 51
180.0
  0
LINE
  5
6330
  8
AM_0
 10
121.62484012678991
 20
488.68422275148561
 30
0.0
 11
106.494752962712
 21
515.89674463230506
 31
0.0
  0
LINE
  5
6331
  8
AM_0
 10
126.8688001942142
 20
491.59985009585921
 30
0.0
 11
114.4717882854267
 21
513.89674463230403
 31
0.0
  0
LINE
  5
6332
  8
AM_0
 10
297.99534705380933
 20
596.04676463230385
 30
0.0
 11
305.99534705380933
 21
596.04676463230385
 31
0.0
  0
LINE
  5
6333
  8
AM_0
 10
298.99534705380933
 20
506.85670463230372
 30
0.0
 11
305.99534705380933
 21
506.85670463230389
 31
0.0
  0
LINE
  5
6334
  8
AM_0
 10
297.99534705380933
 20
521.74671463230379
 30
0.0
 11
305.99534705380933
 21
521.74671463230379
 31
0.0
  0
LINE
  5
6335
  8
AM_0
 10
298.99534705380933
 20
495.39674463230381
 30
0.0
 11
305.99534705380933
 21
495.39674463230381
 31
0.0
  0
LINE
  5
6336
  8
AM_0
 10
298.99534705380933
 20
610.93677463230358
 30
0.0
 11
305.99534705380933
 21
610.93677463230358
 31
0.0
  0
LINE
  5
6337
  8
AM_0
 10
298.99534705380933
 20
622.39674463230381
 30
0.0
 11
305.99534705380933
 21
622.39674463230358
 31
0.0
  0
LINE
  5
6338
  8
AM_0
 10
150.99534705380961
 20
501.46668463230378
 30
0.0
 11
153.81529705380919
 21
501.40668463230378
 31
0.0
  0
LINE
  5
6339
  8
AM_0
 10
191.99534705380961
 20
512.54676463230373
 30
0.0
 11
297.99534705380933
 21
512.54676463230373
 31
0.0
  0
LINE
  5
633A
  8
AM_0
 10
292.70530705380952
 20
498.39674463230358
 30
0.0
 11
297.99534705380933
 21
498.39674463230358
 31
0.0
  0
LINE
  5
633B
  8
AM_0
 10
164.66533705380951
 20
525.53675463230365
 30
0.0
 11
259.01530705380952
 21
525.53675463230365
 31
0.0
  0
LINE
  5
633C
  8
AM_0
 10
246.9953470538095
 20
522.89674463230369
 30
0.0
 11
165.53105705380949
 21
522.89674463230369
 31
0.0
  0
LINE
  5
633D
  8
AM_0
 10
246.9953470538095
 20
522.17677463230359
 30
0.0
 11
294.81535705380941
 21
522.17677463230359
 31
0.0
  0
LINE
  5
633E
  8
AM_0
 10
164.66533705380951
 20
522.17677463230359
 30
0.0
 11
246.9953470538095
 21
522.17677463230359
 31
0.0
  0
LINE
  5
633F
  8
AM_0
 10
164.69297705380939
 20
500.63673463230373
 30
0.0
 11
170.4953470538093
 21
500.63673463230373
 31
0.0
  0
LINE
  5
6340
  8
AM_0
 10
173.99534705380941
 20
497.03675463230383
 30
0.0
 11
290.80534705380933
 21
497.03675463230383
 31
0.0
  0
LINE
  5
6341
  8
AM_0
 10
164.75523705380951
 20
505.91676463230368
 30
0.0
 11
170.4953470538093
 21
505.91676463230368
 31
0.0
  0
LINE
  5
6342
  8
AM_0
 10
160.9953470538093
 20
510.54676463230362
 30
0.0
 11
160.9953470538093
 21
524.59669463230375
 31
0.0
  0
LINE
  5
6343
  8
AM_0
 10
150.99534705380961
 20
510.54676463230362
 30
0.0
 11
160.9953470538093
 21
510.54676463230362
 31
0.0
  0
LINE
  5
6344
  8
AM_0
 10
292.73533705380942
 20
498.5266546323038
 30
0.0
 11
296.19535705380952
 21
511.43677463230381
 31
0.0
  0
LINE
  5
6345
  8
AM_0
 10
154.7566370538095
 20
498.73774463230359
 30
0.0
 11
154.27537705380951
 21
500.64674463230358
 31
0.0
  0
LINE
  5
6346
  8
AM_0
 10
155.1853570538095
 20
498.76667463230359
 30
0.0
 11
154.26530705380929
 21
502.64677463230362
 31
0.0
  0
LINE
  5
6347
  8
AM_0
 10
171.9953470538095
 20
497.00770463230361
 30
0.0
 11
171.9953470538095
 21
504.41676463230363
 31
0.0
  0
LINE
  5
6348
  8
AM_0
 10
152.82536705380929
 20
501.77674463230369
 30
0.0
 11
154.47532705380951
 21
501.77674463230369
 31
0.0
  0
LINE
  5
6349
  8
AM_0
 10
191.99534705380961
 20
605.24671463230379
 30
0.0
 11
297.99534705380933
 21
605.24671463230379
 31
0.0
  0
LINE
  5
634A
  8
AM_0
 10
297.99534705380933
 20
496.39674463230341
 30
0.0
 11
297.99534705380933
 21
621.39674463230381
 31
0.0
  0
LINE
  5
634B
  8
AM_0
 10
150.99534705380961
 20
616.32673463230378
 30
0.0
 11
153.81535705380961
 21
616.39674463230381
 31
0.0
  0
LINE
  5
634C
  8
AM_0
 10
150.99534705380961
 20
501.46668463230378
 30
0.0
 11
150.99534705380961
 21
616.32673463230378
 31
0.0
  0
LINE
  5
634D
  8
AM_0
 10
291.33531705380938
 20
522.89674463230369
 30
0.0
 11
246.9953470538095
 21
522.89674463230369
 31
0.0
  0
LINE
  5
634E
  8
AM_0
 10
160.9953470538093
 20
607.24671463230345
 30
0.0
 11
160.9953470538093
 21
593.20679463230363
 31
0.0
  0
LINE
  5
634F
  8
AM_0
 10
150.99534705380961
 20
593.20679463230363
 30
0.0
 11
160.9953470538093
 21
593.20679463230363
 31
0.0
  0
LINE
  5
6350
  8
AM_0
 10
150.99534705380961
 20
601.58668463230379
 30
0.0
 11
160.9953470538093
 21
601.58668463230379
 31
0.0
  0
LINE
  5
6351
  8
AM_0
 10
150.99534705380961
 20
607.24671463230345
 30
0.0
 11
160.9953470538093
 21
607.24671463230345
 31
0.0
  0
LINE
  5
6352
  8
AM_0
 10
226.43742705380939
 20
544.89674463230358
 30
0.0
 11
156.54533705380939
 21
544.89674463230358
 31
0.0
  0
LINE
  5
6353
  8
AM_0
 10
173.99534705380941
 20
620.75672463230364
 30
0.0
 11
290.80534705380933
 21
620.75672463230364
 31
0.0
  0
LINE
  5
6354
  8
AM_0
 10
164.9496370538094
 20
611.88673463230384
 30
0.0
 11
170.4953470538093
 21
611.88673463230384
 31
0.0
  0
LINE
  5
6355
  8
AM_0
 10
162.20463705380939
 20
605.89005463230365
 30
0.0
 11
162.9896170538095
 21
610.23673463230375
 31
0.0
  0
LINE
  5
6356
  8
AM_0
 10
164.88578705380939
 20
617.16676463230363
 30
0.0
 11
170.4953470538093
 21
617.16676463230363
 31
0.0
  0
LINE
  5
6357
  8
AM_0
 10
157.1253570538093
 20
620.56678463230378
 30
0.0
 11
170.4953470538093
 21
620.56678463230378
 31
0.0
  0
LINE
  5
6358
  8
AM_0
 10
157.10533705380951
 20
622.19678463230389
 30
0.0
 11
170.60533705380951
 21
622.19678463230389
 31
0.0
  0
LINE
  5
6359
  8
AM_0
 10
173.99534705380941
 20
624.81678463230367
 30
0.0
 11
292.07896705380938
 21
624.81678463230367
 31
0.0
  0
LINE
  5
635A
  8
AM_0
 10
173.99534705380941
 20
624.14674463230381
 30
0.0
 11
292.22300705380951
 21
624.14674463230381
 31
0.0
  0
LINE
  5
635B
  8
AM_0
 10
173.99534705380941
 20
622.78675463230388
 30
0.0
 11
292.51530705380952
 21
622.78675463230388
 31
0.0
  0
LINE
  5
635C
  8
AM_0
 10
160.50962705380931
 20
609.93677463230381
 30
0.0
 11
162.9296170538093
 21
609.93677463230381
 31
0.0
  0
LINE
  5
635D
  8
AM_0
 10
162.9395670538093
 20
615.58677463230356
 30
0.0
 11
161.97953705380959
 21
611.11668463230365
 31
0.0
  0
LINE
  5
635E
  8
AM_0
 10
152.80534705380919
 20
613.99671463230345
 30
0.0
 11
162.59813705380941
 21
613.99671463230345
 31
0.0
  0
LINE
  5
635F
  8
AM_0
 10
291.33531705380938
 20
594.89674463230347
 30
0.0
 11
165.54533705380959
 21
594.89674463230347
 31
0.0
  0
LINE
  5
6360
  8
AM_0
 10
291.33531705380938
 20
592.89674463230381
 30
0.0
 11
276.99534705380933
 21
592.89674463230381
 31
0.0
  0
LINE
  5
6361
  8
AM_0
 10
291.3424570538096
 20
584.89674463230381
 30
0.0
 11
276.99534705380933
 21
584.89674463230381
 31
0.0
  0
LINE
  5
6362
  8
AM_0
 10
155.1853570538095
 20
619.02677463230384
 30
0.0
 11
154.26530705380929
 21
615.15672463230385
 31
0.0
  0
LINE
  5
6363
  8
AM_0
 10
291.3281770538095
 20
582.89674463230381
 30
0.0
 11
165.54533705380959
 21
582.89674463230381
 31
0.0
  0
LINE
  5
6364
  8
AM_0
 10
152.82536705380929
 20
616.01673463230384
 30
0.0
 11
154.47532705380951
 21
616.01673463230384
 31
0.0
  0
LINE
  5
6365
  8
AM_0
 10
155.16533705380931
 20
620.68668463230381
 30
0.0
 11
154.27537705380951
 21
617.1567846323037
 31
0.0
  0
LINE
  5
6366
  8
AM_0
 10
226.4340670538096
 20
574.89674463230381
 30
0.0
 11
156.54533705380939
 21
574.89674463230381
 31
0.0
  0
LINE
  5
6367
  8
AM_0
 10
171.9953470538095
 20
620.78675463230365
 30
0.0
 11
171.9953470538095
 21
613.38673463230384
 31
0.0
  0
LINE
  5
6368
  8
AM_0
 10
226.4340670538096
 20
572.89674463230381
 30
0.0
 11
156.54533705380939
 21
572.89674463230381
 31
0.0
  0
LINE
  5
6369
  8
AM_0
 10
226.43742705380939
 20
564.89674463230358
 30
0.0
 11
156.54533705380939
 21
564.89674463230358
 31
0.0
  0
LINE
  5
636A
  8
AM_0
 10
226.43742705380939
 20
562.89674463230381
 30
0.0
 11
156.54533705380939
 21
562.89674463230381
 31
0.0
  0
LINE
  5
636B
  8
AM_0
 10
292.73533705380942
 20
619.27677463230361
 30
0.0
 11
296.19535705380952
 21
606.35670463230383
 31
0.0
  0
LINE
  5
636C
  8
AM_0
 10
294.4557370538094
 20
619.39674463230358
 30
0.0
 11
297.99534705380933
 21
619.39674463230358
 31
0.0
  0
LINE
  5
636D
  8
AM_0
 10
297.70530705380952
 20
609.93677463230381
 30
0.0
 11
295.28532705380951
 21
609.93677463230381
 31
0.0
  0
LINE
  5
636E
  8
AM_0
 10
293.54554705380929
 20
623.63190463230364
 30
0.0
 11
296.23536705380928
 21
611.11668463230365
 31
0.0
  0
LINE
  5
636F
  8
AM_0
 10
150.99534705380961
 20
524.59669463230375
 30
0.0
 11
160.9953470538093
 21
524.59669463230375
 31
0.0
  0
LINE
  5
6370
  8
AM_0
 10
156.6959770538094
 20
497.2266946323038
 30
0.0
 11
170.73808705380969
 21
497.2266946323038
 31
0.0
  0
LINE
  5
6371
  8
AM_0
 10
150.99534705380961
 20
516.20679463230374
 30
0.0
 11
160.9953470538093
 21
516.20679463230374
 31
0.0
  0
LINE
  5
6372
  8
AM_0
 10
152.80534705380919
 20
503.79676463230362
 30
0.0
 11
162.59813705380941
 21
503.79676463230362
 31
0.0
  0
LINE
  5
6373
  8
AM_0
 10
173.99534705380941
 20
495.0067246323037
 30
0.0
 11
215.3217070538094
 21
495.0067246323037
 31
0.0
  0
LINE
  5
6374
  8
AM_0
 10
164.45536705380931
 20
532.41676463230374
 30
0.0
 11
258.99534705380933
 21
532.41676463230374
 31
0.0
  0
LINE
  5
6375
  8
AM_0
 10
258.99534705380933
 20
524.89674463230347
 30
0.0
 11
165.53105705380949
 21
524.89674463230347
 31
0.0
  0
LINE
  5
6376
  8
AM_0
 10
164.66533705380951
 20
595.62672463230365
 30
0.0
 11
294.81535705380941
 21
595.62672463230365
 31
0.0
  0
LINE
  5
6377
  8
AM_0
 10
164.66533705380951
 20
592.26673463230384
 30
0.0
 11
259.01530705380952
 21
592.26673463230384
 31
0.0
  0
LINE
  5
6378
  8
AM_0
 10
164.45536705380931
 20
585.38673463230361
 30
0.0
 11
258.99534705380933
 21
585.38673463230361
 31
0.0
  0
LINE
  5
6379
  8
AM_0
 10
164.45536705380931
 20
582.46668463230367
 30
0.0
 11
295.02958705380928
 21
582.46668463230367
 31
0.0
  0
LINE
  5
637A
  8
AM_0
 10
155.32536705380949
 20
575.24671463230379
 30
0.0
 11
227.6666170538094
 21
575.24671463230379
 31
0.0
  0
LINE
  5
637B
  8
AM_0
 10
155.32536705380949
 20
572.57679463230363
 30
0.0
 11
227.65403705380939
 21
572.57679463230363
 31
0.0
  0
LINE
  5
637C
  8
AM_0
 10
155.2653670538092
 20
565.17677463230382
 30
0.0
 11
227.7304570538094
 21
565.17677463230382
 31
0.0
  0
LINE
  5
637D
  8
AM_0
 10
155.2653670538092
 20
562.63673463230384
 30
0.0
 11
227.7304570538094
 21
562.63673463230384
 31
0.0
  0
LINE
  5
637E
  8
AM_0
 10
155.2653670538092
 20
555.16676463230374
 30
0.0
 11
227.7304570538094
 21
555.16676463230374
 31
0.0
  0
LINE
  5
637F
  8
AM_0
 10
226.43742705380939
 20
552.89674463230358
 30
0.0
 11
156.54533705380939
 21
552.89674463230358
 31
0.0
  0
LINE
  5
6380
  8
AM_0
 10
226.43742705380939
 20
554.89674463230381
 30
0.0
 11
156.54533705380939
 21
554.89674463230381
 31
0.0
  0
LINE
  5
6381
  8
AM_0
 10
155.32536705380949
 20
545.2166846323039
 30
0.0
 11
227.6666170538094
 21
545.2166846323039
 31
0.0
  0
LINE
  5
6382
  8
AM_0
 10
226.43742705380939
 20
542.89674463230381
 30
0.0
 11
156.54533705380939
 21
542.89674463230381
 31
0.0
  0
LINE
  5
6383
  8
AM_0
 10
155.32536705380949
 20
542.55677463230381
 30
0.0
 11
227.6666170538094
 21
542.55677463230381
 31
0.0
  0
LINE
  5
6384
  8
AM_0
 10
291.3281770538095
 20
534.89674463230381
 30
0.0
 11
165.53105705380949
 21
534.89674463230381
 31
0.0
  0
LINE
  5
6385
  8
AM_0
 10
164.45536705380931
 20
535.33668463230356
 30
0.0
 11
295.02958705380928
 21
535.33668463230356
 31
0.0
  0
LINE
  5
6386
  8
AM_0
 10
291.3281770538095
 20
532.89674463230381
 30
0.0
 11
276.99534705380933
 21
532.89674463230381
 31
0.0
  0
LINE
  5
6387
  8
AM_0
 10
291.33531705380938
 20
524.89674463230347
 30
0.0
 11
276.99534705380933
 21
524.89674463230347
 31
0.0
  0
LINE
  5
6388
  8
AM_0
 10
155.2653670538092
 20
552.62672463230388
 30
0.0
 11
227.7304570538094
 21
552.62672463230388
 31
0.0
  0
LINE
  5
6389
  8
AM_0
 10
162.2045770538094
 20
511.90336463230381
 30
0.0
 11
162.9896170538095
 21
507.55668463230381
 31
0.0
  0
LINE
  5
638A
  8
AM_0
 10
160.50962705380931
 20
507.85670463230372
 30
0.0
 11
162.9296170538093
 21
507.85670463230372
 31
0.0
  0
LINE
  5
638B
  8
AM_0
 10
162.9396270538094
 20
502.20673463230372
 30
0.0
 11
161.97960705380919
 21
506.67670463230388
 31
0.0
  0
LINE
  5
638C
  8
AM_0
 10
278.50895705380952
 20
488.89674463230392
 30
0.0
 11
290.0115270538094
 21
488.89674463230392
 31
0.0
  0
LINE
  5
638D
  8
AM_0
 10
296.9953770538097
 20
498.39671463230371
 30
0.0
 11
291.2695770538096
 21
489.57975463230372
 31
0.0
  0
LINE
  5
638E
  8
AM_0
 10
260.49534705380933
 20
531.39674463230369
 30
0.0
 11
260.49534705380933
 21
526.39674463230381
 31
0.0
  0
LINE
  5
638F
  8
AM_0
 10
275.49534705380933
 20
531.39674463230369
 30
0.0
 11
275.49534705380933
 21
526.39674463230381
 31
0.0
  0
LINE
  5
6390
  8
AM_0
 10
258.99534705380933
 20
532.89674463230381
 30
0.0
 11
165.53105705380949
 21
532.89674463230381
 31
0.0
  0
LINE
  5
6391
  8
AM_0
 10
260.01530705380952
 20
531.39674463230369
 30
0.0
 11
260.01530705380952
 21
526.53675463230365
 31
0.0
  0
LINE
  5
6392
  8
AM_0
 10
275.97532705380939
 20
531.39674463230369
 30
0.0
 11
275.97532705380939
 21
526.53675463230365
 31
0.0
  0
LINE
  5
6393
  8
AM_0
 10
276.99534705380933
 20
532.41676463230374
 30
0.0
 11
295.02958705380928
 21
532.41676463230374
 31
0.0
  0
LINE
  5
6394
  8
AM_0
 10
276.97532705380928
 20
525.53675463230365
 30
0.0
 11
294.81535705380941
 21
525.53675463230365
 31
0.0
  0
LINE
  5
6395
  8
AM_0
 10
275.97532705380939
 20
586.39674463230358
 30
0.0
 11
275.97532705380939
 21
591.25672463230364
 31
0.0
  0
LINE
  5
6396
  8
AM_0
 10
260.01530705380952
 20
586.39674463230358
 30
0.0
 11
260.01530705380952
 21
591.25672463230364
 31
0.0
  0
LINE
  5
6397
  8
AM_0
 10
275.49534705380933
 20
586.39674463230358
 30
0.0
 11
275.49534705380933
 21
591.39674463230381
 31
0.0
  0
LINE
  5
6398
  8
AM_0
 10
260.49534705380933
 20
586.39674463230358
 30
0.0
 11
260.49534705380933
 21
591.39674463230381
 31
0.0
  0
LINE
  5
6399
  8
AM_0
 10
258.99534705380933
 20
592.89674463230381
 30
0.0
 11
165.54533705380959
 21
592.89674463230381
 31
0.0
  0
LINE
  5
639A
  8
AM_0
 10
276.97532705380928
 20
592.26673463230384
 30
0.0
 11
294.81535705380941
 21
592.26673463230384
 31
0.0
  0
LINE
  5
639B
  8
AM_0
 10
276.99534705380933
 20
585.38673463230361
 30
0.0
 11
295.04106705380951
 21
585.38673463230361
 31
0.0
  0
LINE
  5
639C
  8
AM_0
 10
258.99534705380933
 20
584.89674463230381
 30
0.0
 11
165.54533705380959
 21
584.89674463230381
 31
0.0
  0
LINE
  5
639D
  8
AM_0
 10
231.99534705380941
 20
579.39674463230381
 30
0.0
 11
231.99534705380941
 21
538.39674463230381
 31
0.0
  0
LINE
  5
639E
  8
AM_0
 10
294.99534705380933
 20
579.39674463230381
 30
0.0
 11
294.99534705380933
 21
538.39674463230381
 31
0.0
  0
LINE
  5
639F
  8
AM_0
 10
231.99534705380941
 20
579.39674463230381
 30
0.0
 11
294.99534705380933
 21
579.39674463230381
 31
0.0
  0
LINE
  5
63A0
  8
AM_0
 10
231.99534705380941
 20
538.39674463230381
 30
0.0
 11
294.99534705380933
 21
538.39674463230381
 31
0.0
  0
LINE
  5
63A1
  8
AM_0
 10
231.99534705380941
 20
571.89674463230381
 30
0.0
 11
294.99534705380933
 21
571.89674463230381
 31
0.0
  0
LINE
  5
63A2
  8
AM_0
 10
191.99534705380961
 20
605.24665463230383
 30
0.0
 11
160.9953470538093
 21
603.21665463230363
 31
0.0
  0
LINE
  5
63A3
  8
AM_0
 10
191.99534705380961
 20
512.54670463230354
 30
0.0
 11
160.9953470538093
 21
514.57670463230374
 31
0.0
  0
ARC
  5
63A4
  8
AM_0
 10
164.13615705380931
 20
517.68641463230369
 30
0.0
 40
1.0032491999999991
 50
314.98118999999519
 51
5.167643400001003
  0
ARC
  5
63A5
  8
AM_0
 10
298.99516705380938
 20
621.39698463230366
 30
0.0
 40
0.99980682
 50
89.988930999997422
 51
180.0110699999974
  0
ARC
  5
63A6
  8
AM_0
 10
290.79661705380943
 20
499.04298463230379
 30
0.0
 40
2.0062942999999991
 50
270.24932999999891
 51
345.08844000000403
  0
ARC
  5
63A7
  8
AM_0
 10
298.99443705380929
 20
609.9376346323038
 30
0.0
 40
0.9990923399999999
 50
89.947921999999295
 51
180.05208000000431
  0
ARC
  5
63A8
  8
AM_0
 10
172.9881470538094
 20
563.89674463230381
 30
0.0
 40
1.0000259
 50
89.587534000000232
 51
270.4124599999987
  0
ARC
  5
63A9
  8
AM_0
 10
164.95482705380931
 20
609.89149463230365
 30
0.0
 40
1.9952742999999991
 50
90.148580000000095
 51
170.03521999999899
  0
ARC
  5
63AA
  8
AM_0
 10
164.89268705380931
 20
615.16968463230376
 30
0.0
 40
1.997119399999999
 50
89.801366999998493
 51
167.94475999999821
  0
ARC
  5
63AB
  8
AM_0
 10
160.5121970538093
 20
611.43909463230375
 30
0.0
 40
1.502416299999999
 50
269.90137999999558
 51
347.60813000000093
  0
ARC
  5
63AC
  8
AM_0
 10
157.1255970538094
 20
618.57447463230346
 30
0.0
 40
1.9922863
 50
90.007721000000544
 51
166.8783899999971
  0
ARC
  5
63AD
  8
AM_0
 10
152.80058705380969
 20
615.50159463230375
 30
0.0
 40
1.5048382
 50
270.18264000000067
 51
346.75308000000138
  0
ARC
  5
63AE
  8
AM_0
 10
152.81492705380961
 20
617.52210463230381
 30
0.0
 40
1.505448699999999
 50
270.39686999999992
 51
345.95247000000012
  0
ARC
  5
63AF
  8
AM_0
 10
157.1002070538095
 20
620.20216463230361
 30
0.0
 40
1.994612099999999
 50
89.851991999995732
 51
165.93885999999711
  0
ARC
  5
63B0
  8
AM_0
 10
173.9886370538093
 20
618.76343463230376
 30
0.0
 40
1.9933081999999991
 50
89.807323000004203
 51
180.19266999999849
  0
ARC
  5
63B1
  8
AM_0
 10
173.9894870538094
 20
620.79261463230375
 30
0.0
 40
1.994130499999996
 50
89.831105999995955
 51
180.16889000000049
  0
ARC
  5
63B2
  8
AM_0
 10
173.9918670538095
 20
622.15028463230362
 30
0.0
 40
1.996488899999999
 50
89.899148000001659
 51
180.10084999999879
  0
ARC
  5
63B3
  8
AM_0
 10
173.9891270538096
 20
622.82020463230378
 30
0.0
 40
1.9964978999999961
 50
89.821482000000245
 51
165.6006099999997
  0
ARC
  5
63B4
  8
AM_0
 10
170.49162705380951
 20
613.39051463230362
 30
0.0
 40
1.5037541000000001
 50
270.14287000000093
 51
359.85713999999848
  0
ARC
  5
63B5
  8
AM_0
 10
170.4904670538094
 20
618.67164463230347
 30
0.0
 40
1.504891299999997
 50
270.18592999999731
 51
359.81406999999621
  0
ARC
  5
63B6
  8
AM_0
 10
170.48845705380941
 20
622.07362463230379
 30
0.0
 40
1.506942899999999
 50
270.2633699999991
 51
359.73663000000079
  0
ARC
  5
63B7
  8
AM_0
 10
170.60026705380949
 20
623.70191463230356
 30
0.0
 40
1.505230099999999
 50
270.19421
 51
345.17177999999871
  0
ARC
  5
63B8
  8
AM_0
 10
297.64549705380921
 20
606.74903463230385
 30
0.0
 40
1.5022733999999991
 50
195.1365099999966
 51
269.99411999999722
  0
ARC
  5
63B9
  8
AM_0
 10
290.80479705380952
 20
618.75758463230386
 30
0.0
 40
1.9991226
 50
15.05079100000003
 51
89.984388999999666
  0
ARC
  5
63BA
  8
AM_0
 10
298.98832705380943
 20
496.38978463230382
 30
0.0
 40
0.99304521
 50
179.5973099999994
 51
270.40268000000009
  0
ARC
  5
63BB
  8
AM_0
 10
298.98765705380941
 20
507.84913463230379
 30
0.0
 40
0.99237448
 50
179.55801999999801
 51
270.4419699999965
  0
ARC
  5
63BC
  8
AM_0
 10
297.70103705380939
 20
611.43702463230375
 30
0.0
 40
1.500286
 50
192.32631000000171
 51
270.16416999999529
  0
ARC
  5
63BD
  8
AM_0
 10
160.1509270538094
 20
600.49097463230385
 30
0.0
 40
5.0059714
 50
279.71098000000478
 51
354.67888000000482
  0
ARC
  5
63BE
  8
AM_0
 10
160.61631705380921
 20
596.56422463230388
 30
0.0
 40
6.0044340999999992
 50
45.225578000003388
 51
86.380822000002652
  0
ARC
  5
63BF
  8
AM_0
 10
164.1373170538094
 20
600.11744463230355
 30
0.0
 40
1.002184699999999
 50
354.8038600000034
 51
45.047307000000579
  0
ARC
  5
63C0
  8
AM_0
 10
160.61503705380929
 20
521.24207463230357
 30
0.0
 40
6.0073843
 50
273.62974000000389
 51
314.7638500000042
  0
ARC
  5
63C1
  8
AM_0
 10
160.15818705380931
 20
517.30823463230365
 30
0.0
 40
4.9991421999999961
 50
5.3780268999992682
 51
80.360064999999054
  0
ARC
  5
63C2
  8
AM_0
 10
157.13218705380959
 20
499.22730463230363
 30
0.0
 40
2.0005671999999981
 50
193.3095900000024
 51
269.80430999999942
  0
ARC
  5
63C3
  8
AM_0
 10
152.80858705380919
 20
502.29908463230379
 30
0.0
 40
1.497715799999999
 50
13.424378999996071
 51
90.122644999997888
  0
ARC
  5
63C4
  8
AM_0
 10
152.8230470538094
 20
500.27845463230358
 30
0.0
 40
1.4982997
 50
14.229739999998021
 51
89.910950000001222
  0
ARC
  5
63C5
  8
AM_0
 10
173.99540705380929
 20
499.03675463230388
 30
0.0
 40
2.0000371999999991
 50
180.0010599999959
 51
269.99892999999639
  0
ARC
  5
63C6
  8
AM_0
 10
173.99626705380919
 20
497.00770463230361
 30
0.0
 40
2.0009109999999981
 50
180.00001000000091
 51
269.97390999999652
  0
ARC
  5
63C7
  8
AM_0
 10
170.49339705380939
 20
504.41480463230363
 30
0.0
 40
1.501982699999999
 50
0.0755872020005832
 51
89.924413000004819
  0
ARC
  5
63C8
  8
AM_0
 10
170.49223705380959
 20
499.13355463230351
 30
0.0
 40
1.503128599999999
 50
0.1191296500022061
 51
89.880869999998822
  0
ARC
  5
63C9
  8
AM_0
 10
297.63896705380938
 20
511.05299463230341
 30
0.0
 40
1.4937901
 50
89.756423999995178
 51
165.1129200000008
  0
ARC
  5
63CA
  8
AM_0
 10
172.9881470538094
 20
573.89674463230358
 30
0.0
 40
1.0000259
 50
89.587534000000232
 51
270.4124599999987
  0
ARC
  5
63CB
  8
AM_0
 10
172.9881470538094
 20
583.89674463230381
 30
0.0
 40
1.0000259
 50
89.587534000000232
 51
270.4124599999987
  0
ARC
  5
63CC
  8
AM_0
 10
172.9881470538094
 20
593.89674463230358
 30
0.0
 40
1.0000259
 50
89.587534000000232
 51
270.4124599999987
  0
ARC
  5
63CD
  8
AM_0
 10
155.2571270538094
 20
563.90675463230377
 30
0.0
 40
1.2700266
 50
89.629328000002715
 51
270.37065999999629
  0
ARC
  5
63CE
  8
AM_0
 10
155.31907705380951
 20
573.91175463230365
 30
0.0
 40
1.3350147999999991
 50
89.730434999997087
 51
270.2695700000001
  0
ARC
  5
63CF
  8
AM_0
 10
164.4496370538094
 20
583.92677463230382
 30
0.0
 40
1.460011199999999
 50
89.775247999997958
 51
270.22473999999698
  0
ARC
  5
63D0
  8
AM_0
 10
164.66533705380951
 20
593.94678463230366
 30
0.0
 40
1.6800002000000001
 50
90.00000299999769
 51
270.0
  0
ARC
  5
63D1
  8
AM_0
 10
156.54533705380939
 20
563.89674463230381
 30
0.0
 40
1.0000056999999991
 50
90.00000299999769
 51
270.0
  0
ARC
  5
63D2
  8
AM_0
 10
156.54533705380939
 20
573.89674463230358
 30
0.0
 40
1.0000056999999991
 50
90.00000299999769
 51
270.0
  0
ARC
  5
63D3
  8
AM_0
 10
165.5381970538092
 20
593.89674463230358
 30
0.0
 40
1.0000255999999981
 50
89.589474000000749
 51
270.41051999999962
  0
ARC
  5
63D4
  8
AM_0
 10
165.5381970538092
 20
583.89674463230381
 30
0.0
 40
1.0000255999999981
 50
89.589474000000749
 51
270.41051999999962
  0
ARC
  5
63D5
  8
AM_0
 10
294.81535705380941
 20
593.94678463230366
 30
0.0
 40
1.6800077
 50
269.999989999999
 51
90.00000299999769
  0
ARC
  5
63D6
  8
AM_0
 10
291.33531705380938
 20
593.89674463230358
 30
0.0
 40
1.0000040999999991
 50
269.999989999999
 51
90.00000299999769
  0
ARC
  5
63D7
  8
AM_0
 10
291.33531705380938
 20
523.89674463230358
 30
0.0
 40
1.0000040999999991
 50
269.999989999999
 51
90.00000299999769
  0
ARC
  5
63D8
  8
AM_0
 10
294.81535705380941
 20
523.85670463230383
 30
0.0
 40
1.6800077
 50
269.999989999999
 51
90.00000299999769
  0
ARC
  5
63D9
  8
AM_0
 10
156.54533705380939
 20
553.89674463230381
 30
0.0
 40
1.0000056999999991
 50
90.00000299999769
 51
270.0
  0
ARC
  5
63DA
  8
AM_0
 10
172.9881470538094
 20
543.89674463230369
 30
0.0
 40
1.0000259
 50
89.587534000000232
 51
270.4124599999987
  0
ARC
  5
63DB
  8
AM_0
 10
172.9881470538094
 20
533.89674463230369
 30
0.0
 40
1.0000259
 50
89.587534000000232
 51
270.4124599999987
  0
ARC
  5
63DC
  8
AM_0
 10
155.31907705380951
 20
543.88673463230384
 30
0.0
 40
1.3300148000000001
 50
89.729417999999583
 51
270.27059000000321
  0
ARC
  5
63DD
  8
AM_0
 10
172.9881470538094
 20
553.89674463230381
 30
0.0
 40
1.0000259
 50
89.587534000000232
 51
270.4124599999987
  0
ARC
  5
63DE
  8
AM_0
 10
172.9881470538094
 20
523.89674463230358
 30
0.0
 40
1.0000259
 50
89.587534000000232
 51
270.4124599999987
  0
ARC
  5
63DF
  8
AM_0
 10
155.2571270538094
 20
553.89674463230381
 30
0.0
 40
1.2700266
 50
89.629321000002761
 51
270.37068999999542
  0
ARC
  5
63E0
  8
AM_0
 10
156.54533705380939
 20
543.89674463230369
 30
0.0
 40
1.0000056999999991
 50
90.00000299999769
 51
270.0
  0
ARC
  5
63E1
  8
AM_0
 10
160.72850705380941
 20
606.15675463230355
 30
0.0
 40
1.5
 50
280.24788999999811
 51
349.76261999999917
  0
ARC
  5
63E2
  8
AM_0
 10
160.72850705380941
 20
511.63673463230379
 30
0.0
 40
1.5
 50
10.237378999998541
 51
79.75211000000192
  0
ARC
  5
63E3
  8
AM_0
 10
164.95482705380931
 20
507.90198463230382
 30
0.0
 40
1.9952742999999991
 50
189.9647800000009
 51
269.85141999999991
  0
ARC
  5
63E4
  8
AM_0
 10
160.5121970538093
 20
506.35438463230389
 30
0.0
 40
1.502416299999999
 50
12.391887000000411
 51
90.098617000002307
  0
ARC
  5
63E5
  8
AM_0
 10
164.89268705380931
 20
502.6237946323036
 30
0.0
 40
1.997119399999999
 50
192.0552400000017
 51
270.1986299999989
  0
ARC
  5
63E6
  8
AM_0
 10
164.66533705380951
 20
523.84669463230375
 30
0.0
 40
1.6800002000000001
 50
90.00000299999769
 51
270.0
  0
ARC
  5
63E7
  8
AM_0
 10
165.5381970538092
 20
523.89674463230358
 30
0.0
 40
1.0000255999999981
 50
89.589474000000749
 51
270.41051999999962
  0
ARC
  5
63E8
  8
AM_0
 10
165.5381970538092
 20
533.89674463230369
 30
0.0
 40
1.0000255999999981
 50
89.589474000000749
 51
270.41051999999962
  0
ARC
  5
63E9
  8
AM_0
 10
164.4496370538094
 20
533.86671463230368
 30
0.0
 40
1.460011199999999
 50
89.775247999997958
 51
270.22473999999698
  0
ARC
  5
63EA
  8
AM_0
 10
215.3217070538094
 20
493.50672463230359
 30
0.0
 40
1.5
 50
1.5000027000022329
 51
90.00000299999769
  0
ARC
  5
63EB
  8
AM_0
 10
290.0115270538094
 20
490.39674463230358
 30
0.0
 40
1.5
 50
269.999989999999
 51
326.99999999999892
  0
ARC
  5
63EC
  8
AM_0
 10
278.50895705380952
 20
487.39674463230341
 30
0.0
 40
1.5
 50
90.00000299999769
 51
178.4999999999973
  0
ARC
  5
63ED
  8
AM_0
 10
292.51530705380952
 20
621.28675463230388
 30
0.0
 40
1.5
 50
12.12979199999535
 51
90.00000299999769
  0
ARC
  5
63EE
  8
AM_0
 10
292.22300705380951
 20
622.64674463230381
 30
0.0
 40
1.5
 50
12.12979199999535
 51
90.00000299999769
  0
ARC
  5
63EF
  8
AM_0
 10
292.07896705380938
 20
623.31678463230378
 30
0.0
 40
1.5
 50
12.12979199999535
 51
90.00000299999769
  0
ARC
  5
63F0
  8
AM_0
 10
295.03532705380928
 20
533.86671463230368
 30
0.0
 40
1.460011199999999
 50
269.77524999999667
 51
90.224749999996845
  0
ARC
  5
63F1
  8
AM_0
 10
291.33531705380938
 20
533.89674463230369
 30
0.0
 40
1.0000255999999981
 50
269.5894700000033
 51
90.410530999997775
  0
ARC
  5
63F2
  8
AM_0
 10
295.03532705380928
 20
583.92677463230382
 30
0.0
 40
1.460011199999999
 50
269.77524999999667
 51
90.224749999996845
  0
ARC
  5
63F3
  8
AM_0
 10
291.33531705380938
 20
583.89674463230381
 30
0.0
 40
1.0000255999999981
 50
269.5894700000033
 51
90.410530999997775
  0
ARC
  5
63F4
  8
AM_0
 10
227.6603270538094
 20
573.91175463230365
 30
0.0
 40
1.3350147999999991
 50
269.7304299999999
 51
90.269556000001344
  0
ARC
  5
63F5
  8
AM_0
 10
226.4340670538096
 20
573.89674463230358
 30
0.0
 40
1.0000056999999991
 50
269.999989999999
 51
90.00000299999769
  0
ARC
  5
63F6
  8
AM_0
 10
226.4340670538096
 20
563.89674463230381
 30
0.0
 40
1.0000056999999991
 50
269.999989999999
 51
90.00000299999769
  0
ARC
  5
63F7
  8
AM_0
 10
227.72227705380939
 20
563.90675463230377
 30
0.0
 40
1.2700266
 50
269.62931999999989
 51
90.370670000004722
  0
ARC
  5
63F8
  8
AM_0
 10
226.4340670538096
 20
553.89674463230381
 30
0.0
 40
1.0000056999999991
 50
269.999989999999
 51
90.00000299999769
  0
ARC
  5
63F9
  8
AM_0
 10
227.72227705380939
 20
553.89674463230381
 30
0.0
 40
1.2700266
 50
269.62931999999989
 51
90.370670000004722
  0
ARC
  5
63FA
  8
AM_0
 10
226.4340670538096
 20
543.89674463230369
 30
0.0
 40
1.0000056999999991
 50
269.999989999999
 51
90.00000299999769
  0
ARC
  5
63FB
  8
AM_0
 10
227.6603270538094
 20
543.88673463230384
 30
0.0
 40
1.3300148000000001
 50
269.7294199999987
 51
90.270567000000995
  0
ARC
  5
63FC
  8
AM_0
 10
276.99534705380933
 20
531.39674463230369
 30
0.0
 40
1.5
 50
90.00000299999769
 51
180.00001000000091
  0
ARC
  5
63FD
  8
AM_0
 10
276.99534705380933
 20
526.39674463230381
 30
0.0
 40
1.5
 50
179.999989999999
 51
270.0
  0
ARC
  5
63FE
  8
AM_0
 10
258.99534705380933
 20
531.39674463230369
 30
0.0
 40
1.5
 50
0.0
 51
90.00000299999769
  0
ARC
  5
63FF
  8
AM_0
 10
258.99534705380933
 20
526.39674463230381
 30
0.0
 40
1.5
 50
269.999989999999
 51
0.0000006832495047
  0
ARC
  5
6400
  8
AM_0
 10
276.99534705380933
 20
531.39674463230369
 30
0.0
 40
1.02
 50
90.00000299999769
 51
180.00001000000091
  0
ARC
  5
6401
  8
AM_0
 10
258.99534705380933
 20
531.39674463230369
 30
0.0
 40
1.02
 50
0.0
 51
90.00000299999769
  0
ARC
  5
6402
  8
AM_0
 10
259.01530705380952
 20
526.53675463230365
 30
0.0
 40
1.0
 50
269.999989999999
 51
0.0000006832495047
  0
ARC
  5
6403
  8
AM_0
 10
276.97532705380928
 20
526.53675463230365
 30
0.0
 40
1.0
 50
179.999989999999
 51
270.0
  0
CIRCLE
  5
6404
  8
AM_0
 10
265.49534705380933
 20
530.39674463230381
 30
0.0
 40
1.1000000000000001
  0
CIRCLE
  5
6405
  8
AM_0
 10
265.49534705380933
 20
530.39674463230381
 30
0.0
 40
1.149999999999999
  0
CIRCLE
  5
6406
  8
AM_0
 10
270.49534705380933
 20
530.39674463230381
 30
0.0
 40
1.0
  0
ARC
  5
6407
  8
AM_0
 10
276.99534705380933
 20
586.39674463230358
 30
0.0
 40
1.5
 50
179.999989999999
 51
270.0
  0
ARC
  5
6408
  8
AM_0
 10
276.99534705380933
 20
591.39674463230381
 30
0.0
 40
1.5
 50
90.00000299999769
 51
180.00001000000091
  0
ARC
  5
6409
  8
AM_0
 10
258.99534705380933
 20
586.39674463230358
 30
0.0
 40
1.5
 50
269.999989999999
 51
0.0000006832495047
  0
ARC
  5
640A
  8
AM_0
 10
258.99534705380933
 20
591.39674463230381
 30
0.0
 40
1.5
 50
0.0
 51
90.00000299999769
  0
ARC
  5
640B
  8
AM_0
 10
276.99534705380933
 20
586.39674463230358
 30
0.0
 40
1.02
 50
179.999989999999
 51
270.0
  0
ARC
  5
640C
  8
AM_0
 10
258.99534705380933
 20
586.39674463230358
 30
0.0
 40
1.02
 50
269.999989999999
 51
0.0000006832429909
  0
ARC
  5
640D
  8
AM_0
 10
259.01530705380952
 20
591.25672463230364
 30
0.0
 40
1.0
 50
0.0
 51
90.00000299999769
  0
ARC
  5
640E
  8
AM_0
 10
276.97532705380928
 20
591.25672463230364
 30
0.0
 40
1.0
 50
90.00000299999769
 51
180.00001000000091
  0
CIRCLE
  5
640F
  8
AM_0
 10
270.49534705380933
 20
587.39674463230381
 30
0.0
 40
1.0
  0
CIRCLE
  5
6410
  8
AM_0
 10
265.49534705380933
 20
587.39674463230381
 30
0.0
 40
1.149999999999999
  0
CIRCLE
  5
6411
  8
AM_0
 10
265.49534705380933
 20
587.39674463230381
 30
0.0
 40
1.1000000000000001
  0
ARC
  5
6412
  8
AM_0
 10
156.6959770538094
 20
499.22669463230358
 30
0.0
 40
2.0
 50
194.15074999999919
 51
269.999989999999
  0
ARC
  5
6413
  8
AM_0
 10
170.73808705380969
 20
495.72669463230369
 30
0.0
 40
1.5
 50
21.46170899999715
 51
90.00000299999769
  0
LINE
  5
6414
  8
AM_0
 10
277.02149690285017
 20
484.89674463230381
 30
0.0
 11
277.33942285654439
 21
497.03675463230383
 31
0.0
  0
LINE
  5
6415
  8
AM_0
 10
216.96906490760961
 20
484.89674463230381
 30
0.0
 11
216.651222926179
 21
497.03675463230383
 31
0.0
  0
LINE
  5
6416
  8
AM_0
 10
213.4953070538096
 20
482.89674463230381
 30
0.0
 11
280.49530705380971
 21
482.89674463230381
 31
0.0
  0
LINE
  5
6417
  8
AM_0
 10
213.4953070538096
 20
481.89674463230358
 30
0.0
 11
213.4953070538096
 21
482.89674463230381
 31
0.0
  0
LINE
  5
6418
  8
AM_0
 10
280.49530705380971
 20
481.89674463230358
 30
0.0
 11
280.49530705380971
 21
482.89674463230381
 31
0.0
  0
LINE
  5
6419
  8
AM_0
 10
198.9953070538096
 20
443.89674463230369
 30
0.0
 11
200.2548921900719
 21
479.96654362570871
 31
0.0
  0
LINE
  5
641A
  8
AM_0
 10
202.2536738441103
 20
481.89674463230358
 30
0.0
 11
291.73694026350933
 21
481.89674463230358
 31
0.0
  0
ARC
  5
641B
  8
AM_0
 10
202.2536738441103
 20
479.89674463230392
 30
0.0
 40
2.0
 50
90.0
 51
178.0000000000029
1001
GENIUS_GENODEF_13
1002
{
1000
HIER
1070
     0
1002
}
1002
{
1000
MANEDIT
1070
     0
1002
}
1002
{
1000
NOSEL
1070
     0
1002
}
1002
{
1000
BEHIND
1070
     0
1002
}
1002
{
1000
OTHER
1070
     0
1002
}
1002
{
1000
REACTOR
1002
}
1001
GENIUS_GENOBJ-N-FIL_13
1002
{
1000
OWNER
1000
GEN
1002
}
  0
LINE
  5
641C
  8
AM_0
 10
293.73572191754749
 20
479.96654362570871
 30
0.0
 11
294.99530705380982
 21
443.89674463230369
 31
0.0
  0
ARC
  5
641D
  8
AM_0
 10
291.73694026350933
 20
479.89674463230392
 30
0.0
 40
2.0
 50
1.9999999999971021
 51
90.0
1001
GENIUS_GENOBJ-N-FIL_13
1002
{
1000
OWNER
1000
GEN
1002
}
1001
GENIUS_GENODEF_13
1002
{
1000
HIER
1070
     0
1002
}
1002
{
1000
MANEDIT
1070
     0
1002
}
1002
{
1000
NOSEL
1070
     0
1002
}
1002
{
1000
BEHIND
1070
     0
1002
}
1002
{
1000
OTHER
1070
     0
1002
}
1002
{
1000
REACTOR
1002
}
  0
LINE
  5
641E
  8
AM_0
 10
294.99530705380982
 20
443.89674463230369
 30
0.0
 11
198.9953070538092
 21
443.89674463230369
 31
0.0
  0
LINE
  5
641F
  8
AM_0
 10
199.1000693622849
 20
446.89674463230341
 30
0.0
 11
197.9953070538096
 21
446.89674463230341
 31
0.0
  0
LINE
  5
6420
  8
AM_0
 10
200.21753398602081
 20
478.89674463230341
 30
0.0
 11
197.9953070538096
 21
478.89674463230341
 31
0.0
  0
LINE
  5
6421
  8
ﾁｭｳｼﾝｾﾝ1
 10
203.99530705381031
 20
433.63203713230382
 30
0.0
 11
203.99530705381039
 21
446.63203713230382
 31
0.0
  0
LINE
  5
6422
  8
ﾁｭｳｼﾝｾﾝ
 10
246.99530705380971
 20
489.18877530553272
 30
0.0
 11
246.99530705380971
 21
431.44622199149433
 31
0.0
  0
LINE
  5
6423
  8
AM_0
 10
195.4953070538096
 20
449.39674463230352
 30
0.0
 11
197.9953070538096
 21
449.3967446323033
 31
0.0
  0
LINE
  5
6424
  8
AM_0
 10
197.9953070538096
 20
476.39674463230318
 30
0.0
 11
195.4953070538096
 21
476.39674463230341
 31
0.0
  0
LINE
  5
6425
  8
AM_0
 10
184.59663595746369
 20
473.39674463230358
 30
0.0
 11
184.59663595746369
 21
452.39674463230358
 31
0.0
  0
LINE
  5
6426
  8
AM_0
 10
169.59663595746369
 20
454.86511957828822
 30
0.0
 11
169.59663595746369
 21
470.92836968631929
 31
0.0
  0
LINE
  5
6427
  8
AM_0
 10
182.59663595746369
 20
474.89674463230341
 30
0.0
 11
182.59663595746369
 21
450.89674463230341
 31
0.0
  0
LINE
  5
6428
  8
AM_0
 10
173.09663595746369
 20
462.89674463230341
 30
0.0
 11
173.59663595746369
 21
463.39674463230341
 31
0.0
  0
LINE
  5
6429
  8
AM_0
 10
180.09663595746369
 20
451.19674463230342
 30
0.0
 11
180.09663595746369
 21
474.59674463230323
 31
0.0
  0
LINE
  5
642A
  8
AM_0
 10
189.9953070538096
 20
451.39674463230341
 30
0.0
 11
189.9953070538096
 21
474.39674463230352
 31
0.0
  0
LINE
  5
642B
  8
AM_0
 10
184.0966359574636
 20
463.59674463230539
 30
0.0
 11
184.0966359574636
 21
462.1967446323024
 31
0.0
  0
LINE
  5
642C
  8
AM_0
 10
186.1962716840344
 20
471.99674463230338
 30
0.0
 11
185.44627168403559
 21
453.79674463230327
 31
0.0
  0
LINE
  5
642D
  8
AM_0
 10
185.2453070538096
 20
471.99674463230338
 30
0.0
 11
184.59663595746369
 21
456.25565936098729
 31
0.0
  0
LINE
  5
642E
  8
AM_0
 10
185.99399964438169
 20
472.71240334466751
 30
0.0
 11
185.24673960097371
 21
453.0843728711364
 31
0.0
  0
LINE
  5
642F
  8
AM_0
 10
185.44483913687151
 20
472.7091163934715
 30
0.0
 11
184.69627168403559
 21
453.04674463230339
 31
0.0
  0
LINE
  5
6430
  8
AM_0
 10
182.59663595746369
 20
450.89674463230341
 30
0.0
 11
180.39663595746359
 21
450.89674463230341
 31
0.0
  0
ARC
  5
6431
  8
AM_0
 10
194.49530705380971
 20
450.39674463230341
 30
0.0
 40
0.5
 50
0.0
 51
90.000000000013017
  0
ARC
  5
6432
  8
AM_0
 10
195.49530705380971
 20
449.89674463230341
 30
0.0
 40
0.5
 50
180.0
 51
270.0
  0
LINE
  5
6433
  8
AM_0
 10
194.9953070538096
 20
450.39674463230341
 30
0.0
 11
194.9953070538096
 21
449.89674463230341
 31
0.0
  0
LINE
  5
6434
  8
AM_0
 10
185.9953070538096
 20
453.79674463230327
 30
0.0
 11
189.4953070538096
 21
453.79674463230327
 31
0.0
  0
LINE
  5
6435
  8
AM_0
 10
194.9953070538096
 20
452.04067331089652
 30
0.0
 11
194.9953070538096
 21
461.75281595371138
 31
0.0
  0
LINE
  5
6436
  8
AM_0
 10
190.4953070538096
 20
450.89674463230341
 30
0.0
 11
194.4953070538096
 21
450.89674463230341
 31
0.0
  0
LINE
  5
6437
  8
AM_0
 10
194.4953070538096
 20
451.54067331089652
 30
0.0
 11
189.9953070538096
 21
451.54067331089652
 31
0.0
  0
ARC
  5
6438
  8
AM_0
 10
194.49530705380971
 20
452.04067331089652
 30
0.0
 40
0.5
 50
270.0
 51
0.0
  0
ARC
  5
6439
  8
AM_0
 10
189.4953070538096
 20
453.29674463230361
 30
0.0
 40
0.5
 50
0.0
 51
90.0
  0
ARC
  5
643A
  8
AM_0
 10
190.4953070538096
 20
451.39674463230341
 30
0.0
 40
0.5
 50
180.0
 51
270.0
  0
LINE
  5
643B
  8
AM_0
 10
194.4953070538096
 20
462.25281595371138
 30
0.0
 11
189.9953070538096
 21
462.25281595371138
 31
0.0
  0
ARC
  5
643C
  8
AM_0
 10
194.4953070538096
 20
461.7528159537116
 30
0.0
 40
0.5
 50
0.0
 51
90.0
  0
LINE
  5
643D
  8
AM_0
 10
184.0966359574636
 20
456.75157388001111
 30
0.0
 11
184.0966359574636
 21
457.92381706644431
 31
0.0
  0
LINE
  5
643E
  8
AM_0
 10
185.5230041124606
 20
453.79674463230327
 30
0.0
 11
185.9953070538096
 21
453.79674463230327
 31
0.0
  0
LINE
  5
643F
  8
AM_0
 10
185.42641161792139
 20
453.72262686556672
 30
0.0
 11
185.44627168403559
 21
453.79674463230327
 31
0.0
  0
ARC
  5
6440
  8
AM_0
 10
185.5230041124606
 20
453.69674463230348
 30
0.0
 40
0.1000000000000346
 50
90.0
 51
164.99980499355539
  0
ARC
  5
6441
  8
AM_0
 10
183.79663595746359
 20
453.60991165179553
 30
0.0
 40
0.3000000000000043
 50
0.0
 51
90.0
  0
LINE
  5
6442
  8
AM_0
 10
182.59663595746369
 20
451.49674463230338
 30
0.0
 11
183.8165916606207
 21
451.57807501251438
 31
0.0
  0
LINE
  5
6443
  8
AM_0
 10
182.59663595746369
 20
452.65299666814349
 30
0.0
 11
183.79663595746351
 21
452.65299666814349
 31
0.0
  0
LINE
  5
6444
  8
AM_0
 10
184.0966359574636
 20
451.89674463230358
 30
0.0
 11
182.59663595746369
 21
451.89674463230358
 31
0.0
  0
ARC
  5
6445
  8
AM_0
 10
184.0966359574636
 20
452.39674463230358
 30
0.0
 40
0.5
 50
270.0
 51
0.0
  0
LINE
  5
6446
  8
AM_0
 10
184.0966359574636
 20
451.87741055987158
 30
0.0
 11
184.0966359574636
 21
451.89674463230358
 31
0.0
  0
LINE
  5
6447
  8
AM_0
 10
184.0966359574636
 20
451.59674463230363
 30
0.0
 11
184.0966359574636
 21
451.87741055987158
 31
0.0
  0
LINE
  5
6448
  8
AM_0
 10
183.8165916606207
 20
451.57807501251438
 30
0.0
 11
184.0966359574636
 21
451.59674463230363
 31
0.0
  0
ARC
  5
6449
  8
AM_0
 10
183.79663595746359
 20
451.87741055987158
 30
0.0
 40
0.3000000000000007
 50
273.81407483428171
 51
0.0
  0
LINE
  5
644A
  8
AM_0
 10
185.16857462538451
 20
453.04674463230339
 30
0.0
 11
185.24530705381039
 21
453.04674463230339
 31
0.0
  0
LINE
  5
644B
  8
AM_0
 10
185.24530705381039
 20
453.04674463230339
 30
0.0
 11
185.2651671199236
 21
453.12086239903988
 31
0.0
  0
LINE
  5
644C
  8
AM_0
 10
184.6764116179213
 20
453.12086239903988
 30
0.0
 11
184.69627168403559
 21
453.04674463230339
 31
0.0
  0
LINE
  5
644D
  8
AM_0
 10
184.69627168403559
 20
453.04674463230339
 30
0.0
 11
184.7730041124606
 21
453.04674463230339
 31
0.0
  0
LINE
  5
644E
  8
AM_0
 10
185.2651671199236
 20
453.12086239903988
 30
0.0
 11
185.42641161792139
 21
453.72262686556672
 31
0.0
  0
LINE
  5
644F
  8
AM_0
 10
184.7730041124606
 20
453.04674463230339
 30
0.0
 11
185.16857462538451
 21
453.04674463230339
 31
0.0
  0
LINE
  5
6450
  8
AM_0
 10
184.5966359574646
 20
453.41858516386429
 30
0.0
 11
184.6764116179213
 21
453.12086239903988
 31
0.0
  0
ARC
  5
6451
  8
AM_0
 10
185.16857462538451
 20
453.14674463230341
 30
0.0
 40
0.0999999999999866
 50
270.0
 51
344.99980499343371
  0
ARC
  5
6452
  8
AM_0
 10
184.7730041124606
 20
453.14674463230341
 30
0.0
 40
0.1000000000000014
 50
195.00019500656629
 51
270.0
  0
LINE
  5
6453
  8
AM_0
 10
184.0966359574636
 20
452.95299666814333
 30
0.0
 11
184.0966359574636
 21
453.60991165179553
 31
0.0
  0
ARC
  5
6454
  8
AM_0
 10
183.79663595746359
 20
452.95299666814361
 30
0.0
 40
0.3000000000000007
 50
270.0
 51
0.0
  0
LINE
  5
6455
  8
AM_0
 10
182.59663595746369
 20
456.45157388001132
 30
0.0
 11
183.79663595746351
 21
456.45157388001132
 31
0.0
  0
LINE
  5
6456
  8
AM_0
 10
183.79663595746351
 20
453.90991165179531
 30
0.0
 11
182.59663595746369
 21
453.90991165179531
 31
0.0
  0
LINE
  5
6457
  8
AM_0
 10
185.44627168403559
 20
453.79674463230327
 30
0.0
 11
185.5230041124606
 21
453.79674463230327
 31
0.0
  0
ARC
  5
6458
  8
AM_0
 10
183.79663595746359
 20
456.75157388001162
 30
0.0
 40
0.3000000000000007
 50
270.0
 51
0.0
  0
LINE
  5
6459
  8
AM_0
 10
183.79663595746351
 20
458.2238170664445
 30
0.0
 11
182.59663595746369
 21
458.2238170664445
 31
0.0
  0
ARC
  5
645A
  8
AM_0
 10
183.79663595746359
 20
457.9238170664446
 30
0.0
 40
0.3000000000000043
 50
0.0
 51
90.0
  0
LINE
  5
645B
  8
AM_0
 10
183.79663595746351
 20
461.89674463230239
 30
0.0
 11
182.59663595746369
 21
461.89674463230239
 31
0.0
  0
ARC
  5
645C
  8
AM_0
 10
183.79663595746359
 20
462.19674463230251
 30
0.0
 40
0.3000000000000007
 50
270.0
 51
0.0
  0
LINE
  5
645D
  8
AM_0
 10
173.59663595746369
 20
452.76346480365629
 30
0.0
 11
180.09663595746369
 21
452.76346480365629
 31
0.0
  0
LINE
  5
645E
  8
AM_0
 10
173.59663595746369
 20
452.2634648036564
 30
0.0
 11
180.09663595746369
 21
452.2634648036564
 31
0.0
  0
LINE
  5
645F
  8
AM_0
 10
180.09663595746369
 20
462.39674463230341
 30
0.0
 11
173.59663595746369
 21
462.39674463230341
 31
0.0
  0
LINE
  5
6460
  8
AM_0
 10
173.09663595746369
 20
461.89674463230352
 30
0.0
 11
180.09663595746369
 21
461.89674463230352
 31
0.0
  0
LINE
  5
6461
  8
AM_0
 10
179.79663595746351
 20
451.89674463230358
 30
0.0
 11
172.9586858926456
 21
451.89674463230358
 31
0.0
  0
LINE
  5
6462
  8
AM_0
 10
180.09663595746369
 20
461.55005656376221
 30
0.0
 11
173.59663595746369
 21
461.55005656376221
 31
0.0
  0
LINE
  5
6463
  8
AM_0
 10
180.09663595746369
 20
453.24343270084438
 30
0.0
 11
173.59663595746369
 21
453.24343270084438
 31
0.0
  0
ARC
  5
6464
  8
AM_0
 10
180.39663595746359
 20
451.19674463230342
 30
0.0
 40
0.2999999999999971
 50
180.0
 51
270.0
  0
ARC
  5
6465
  8
AM_0
 10
179.79663595746359
 20
451.59674463230363
 30
0.0
 40
0.2999999999999971
 50
0.0
 51
90.0
  0
ARC
  5
6466
  8
AM_0
 10
181.72163595746369
 20
457.39674463230352
 30
0.0
 40
9.124999999999984
 50
152.92493329271929
 51
207.07506670728071
  0
LINE
  5
6467
  8
AM_0
 10
172.3185014929812
 20
452.12852335270583
 30
0.0
 11
169.95645155779911
 21
454.09689829869092
 31
0.0
  0
LINE
  5
6468
  8
AM_0
 10
173.09663595746369
 20
452.47517721581141
 30
0.0
 11
173.59663595746369
 21
451.89674463230358
 31
0.0
  0
ARC
  5
6469
  8
AM_0
 10
172.9586858926456
 20
452.89674463230358
 30
0.0
 40
1.0
 50
230.19442890774391
 51
270.0
  0
LINE
  5
646A
  8
AM_0
 10
173.59663595746369
 20
452.2634648036564
 30
0.0
 11
173.09663595746369
 21
452.47517721581141
 31
0.0
  0
LINE
  5
646B
  8
AM_0
 10
173.09663595746369
 20
452.93745248878258
 30
0.0
 11
173.59663595746369
 21
452.2634648036564
 31
0.0
  0
LINE
  5
646C
  8
AM_0
 10
173.59663595746369
 20
452.76346480365629
 30
0.0
 11
173.09663595746369
 21
452.93745248878258
 31
0.0
  0
LINE
  5
646D
  8
AM_0
 10
173.09663595746369
 20
453.47517721581153
 30
0.0
 11
173.59663595746369
 21
452.76346480365629
 31
0.0
  0
LINE
  5
646E
  8
AM_0
 10
173.59663595746369
 20
453.24343270084438
 30
0.0
 11
173.09663595746369
 21
453.47517721581153
 31
0.0
  0
ARC
  5
646F
  8
AM_0
 10
170.59663595746369
 20
454.86511957828873
 30
0.0
 40
1.0000000000000291
 50
180.0
 51
230.19442890773479
  0
LINE
  5
6470
  8
AM_0
 10
173.59663595746369
 20
462.39674463230341
 30
0.0
 11
173.09663595746369
 21
462.89674463230341
 31
0.0
  0
LINE
  5
6471
  8
AM_0
 10
173.09663595746369
 20
461.89674463230352
 30
0.0
 11
173.59663595746369
 21
462.39674463230341
 31
0.0
  0
LINE
  5
6472
  8
AM_0
 10
173.59663595746369
 20
461.55005656376221
 30
0.0
 11
173.09663595746369
 21
461.89674463230352
 31
0.0
  0
LINE
  5
6473
  8
AM_0
 10
180.39663595746359
 20
474.89674463230341
 30
0.0
 11
182.59663595746369
 21
474.89674463230341
 31
0.0
  0
ARC
  5
6474
  8
AM_0
 10
194.4953070538096
 20
475.39674463230341
 30
0.0
 40
0.5
 50
269.99999999998693
 51
0.0
  0
LINE
  5
6475
  8
AM_0
 10
189.4953070538096
 20
471.99674463230338
 30
0.0
 11
186.2730041124606
 21
471.99674463230338
 31
0.0
  0
LINE
  5
6476
  8
AM_0
 10
194.9953070538096
 20
464.04067331089652
 30
0.0
 11
194.9953070538096
 21
473.75281595371172
 31
0.0
  0
LINE
  5
6477
  8
AM_0
 10
189.9953070538096
 20
463.54067331089652
 30
0.0
 11
194.4953070538096
 21
463.54067331089652
 31
0.0
  0
ARC
  5
6478
  8
AM_0
 10
194.4953070538096
 20
464.04067331089652
 30
0.0
 40
0.5
 50
270.0
 51
0.0
  0
LINE
  5
6479
  8
AM_0
 10
189.9953070538096
 20
474.2528159537116
 30
0.0
 11
194.4953070538096
 21
474.2528159537116
 31
0.0
  0
LINE
  5
647A
  8
AM_0
 10
194.4953070538096
 20
474.89674463230341
 30
0.0
 11
190.4953070538096
 21
474.89674463230341
 31
0.0
  0
ARC
  5
647B
  8
AM_0
 10
194.4953070538096
 20
473.75281595371172
 30
0.0
 40
0.5
 50
0.0
 51
90.0
  0
ARC
  5
647C
  8
AM_0
 10
189.4953070538096
 20
472.49674463230338
 30
0.0
 40
0.5
 50
270.0
 51
0.0
  0
ARC
  5
647D
  8
AM_0
 10
190.4953070538096
 20
474.39674463230352
 30
0.0
 40
0.5
 50
90.0
 51
180.0
  0
ARC
  5
647E
  8
AM_0
 10
183.79663595746359
 20
469.04191538459543
 30
0.0
 40
0.3000000000000114
 50
0.0
 51
90.0
  0
LINE
  5
647F
  8
AM_0
 10
182.59663595746369
 20
463.8967446323054
 30
0.0
 11
183.79663595746351
 21
463.8967446323054
 31
0.0
  0
ARC
  5
6480
  8
AM_0
 10
183.79663595746359
 20
463.59674463230562
 30
0.0
 40
0.2999999999999971
 50
0.0
 51
90.0
  0
LINE
  5
6481
  8
AM_0
 10
182.59663595746369
 20
467.56967219816238
 30
0.0
 11
183.79663595746351
 21
467.56967219816238
 31
0.0
  0
ARC
  5
6482
  8
AM_0
 10
183.79663595746359
 20
467.86967219816262
 30
0.0
 40
0.3000000000000007
 50
270.0
 51
0.0
  0
LINE
  5
6483
  8
AM_0
 10
184.0966359574636
 20
467.86967219816262
 30
0.0
 11
184.0966359574636
 21
469.04191538459543
 31
0.0
  0
LINE
  5
6484
  8
AM_0
 10
185.5230041124606
 20
472.74674463230349
 30
0.0
 11
185.91857462538459
 21
472.74674463230349
 31
0.0
  0
LINE
  5
6485
  8
AM_0
 10
185.5230041124606
 20
472.74674463230349
 30
0.0
 11
185.91857462538459
 21
472.74674463230349
 31
0.0
  0
LINE
  5
6486
  8
AM_0
 10
186.0151671199236
 20
472.672626865567
 30
0.0
 11
186.1764116179213
 21
472.07086239903992
 31
0.0
  0
LINE
  5
6487
  8
AM_0
 10
186.0151671199236
 20
472.672626865567
 30
0.0
 11
186.1764116179213
 21
472.07086239903992
 31
0.0
  0
ARC
  5
6488
  8
AM_0
 10
186.2730041124606
 20
472.09674463230363
 30
0.0
 40
0.0999999999999943
 50
195.00019500651879
 51
270.0
  0
ARC
  5
6489
  8
AM_0
 10
185.91857462538459
 20
472.64674463230341
 30
0.0
 40
0.0999999999999943
 50
15.000195006505431
 51
90.0
  0
LINE
  5
648A
  8
AM_0
 10
184.5957893689224
 20
472.3717446323036
 30
0.0
 11
184.6764116179213
 21
472.07086239903992
 31
0.0
  0
LINE
  5
648B
  8
AM_0
 10
185.2480177060155
 20
472.03600916540148
 30
0.0
 11
185.42641161792139
 21
472.672626865567
 31
0.0
  0
LINE
  5
648C
  8
AM_0
 10
185.2651671199236
 20
472.07086239903992
 30
0.0
 11
185.42641161792139
 21
472.672626865567
 31
0.0
  0
LINE
  5
648D
  8
AM_0
 10
184.0966359574636
 20
472.18357761281243
 30
0.0
 11
184.0966359574636
 21
472.84049259646349
 31
0.0
  0
LINE
  5
648E
  8
AM_0
 10
184.59663595746369
 20
472.36858516386542
 30
0.0
 11
184.6764116179213
 21
472.07086239903992
 31
0.0
  0
LINE
  5
648F
  8
AM_0
 10
182.59663595746369
 20
471.88357761281242
 30
0.0
 11
183.79663595746351
 21
471.88357761281242
 31
0.0
  0
LINE
  5
6490
  8
AM_0
 10
183.79663595746351
 20
469.3419153845955
 30
0.0
 11
182.59663595746369
 21
469.34191538459618
 31
0.0
  0
LINE
  5
6491
  8
AM_0
 10
185.2012068908997
 20
471.99674463230338
 30
0.0
 11
185.2480177060155
 21
472.03600916540148
 31
0.0
  0
LINE
  5
6492
  8
AM_0
 10
184.7730041124606
 20
471.99674463230338
 30
0.0
 11
185.2012068908997
 21
471.99674463230338
 31
0.0
  0
LINE
  5
6493
  8
AM_0
 10
184.7730041124606
 20
471.99674463230338
 30
0.0
 11
185.16857462538451
 21
471.99674463230338
 31
0.0
  0
ARC
  5
6494
  8
AM_0
 10
184.7730041124606
 20
472.09674463230363
 30
0.0
 40
0.0999999999999943
 50
195.00019500651879
 51
270.0
  0
ARC
  5
6495
  8
AM_0
 10
185.16857462538451
 20
472.09674463230363
 30
0.0
 40
0.0999999999999608
 50
270.0
 51
344.99980499348112
  0
ARC
  5
6496
  8
AM_0
 10
183.79663595746359
 20
472.18357761281243
 30
0.0
 40
0.3000000000000007
 50
270.0
 51
0.0
  0
LINE
  5
6497
  8
AM_0
 10
182.59663595746369
 20
473.89674463230358
 30
0.0
 11
184.0966359574636
 21
473.89674463230358
 31
0.0
  0
LINE
  5
6498
  8
AM_0
 10
183.79663595746351
 20
473.14049259646339
 30
0.0
 11
182.59663595746369
 21
473.14049259646339
 31
0.0
  0
LINE
  5
6499
  8
AM_0
 10
183.8165916606207
 20
474.21541425209352
 30
0.0
 11
182.59663595746369
 21
474.29674463230327
 31
0.0
  0
ARC
  5
649A
  8
AM_0
 10
184.0966359574636
 20
473.39674463230358
 30
0.0
 40
0.5
 50
0.0
 51
90.0
  0
ARC
  5
649B
  8
AM_0
 10
185.5230041124606
 20
472.64674463230341
 30
0.0
 40
0.0999999999999606
 50
90.0
 51
164.99980499349451
  0
ARC
  5
649C
  8
AM_0
 10
183.79663595746359
 20
472.84049259646349
 30
0.0
 40
0.2999999999999971
 50
0.0
 51
90.0
  0
LINE
  5
649D
  8
AM_0
 10
184.0966359574636
 20
473.89674463230358
 30
0.0
 11
184.0966359574636
 21
473.91607870473649
 31
0.0
  0
ARC
  5
649E
  8
AM_0
 10
183.79663595746359
 20
473.91607870473649
 30
0.0
 40
0.3000000000000043
 50
0.0
 51
86.185925165718274
  0
ARC
  5
649F
  8
AM_0
 10
195.4953070538096
 20
475.89674463230341
 30
0.0
 40
0.5
 50
90.0
 51
180.0
  0
LINE
  5
64A0
  8
AM_0
 10
194.9953070538096
 20
475.89674463230341
 30
0.0
 11
194.9953070538096
 21
475.39674463230341
 31
0.0
  0
LINE
  5
64A1
  8
AM_0
 10
173.59663595746369
 20
472.55005656376238
 30
0.0
 11
180.09663595746369
 21
472.55005656376238
 31
0.0
  0
LINE
  5
64A2
  8
AM_0
 10
173.59663595746369
 20
464.24343270084438
 30
0.0
 11
180.09663595746369
 21
464.24343270084438
 31
0.0
  0
LINE
  5
64A3
  8
AM_0
 10
172.9586858926456
 20
473.89674463230358
 30
0.0
 11
179.79663595746351
 21
473.89674463230358
 31
0.0
  0
LINE
  5
64A4
  8
AM_0
 10
180.09663595746369
 20
463.89674463230341
 30
0.0
 11
173.09663595746369
 21
463.89674463230341
 31
0.0
  0
LINE
  5
64A5
  8
AM_0
 10
173.59663595746369
 20
463.39674463230341
 30
0.0
 11
180.09663595746369
 21
463.39674463230341
 31
0.0
  0
LINE
  5
64A6
  8
AM_0
 10
180.09663595746369
 20
473.5300244609511
 30
0.0
 11
173.59663595746369
 21
473.5300244609511
 31
0.0
  0
LINE
  5
64A7
  8
AM_0
 10
180.09663595746369
 20
473.0300244609511
 30
0.0
 11
173.59663595746369
 21
473.0300244609511
 31
0.0
  0
ARC
  5
64A8
  8
AM_0
 10
179.79663595746359
 20
474.19674463230348
 30
0.0
 40
0.3000000000000043
 50
270.0
 51
0.0
  0
ARC
  5
64A9
  8
AM_0
 10
180.39663595746359
 20
474.59674463230363
 30
0.0
 40
0.2999999999999971
 50
90.0
 51
180.0
  0
ARC
  5
64AA
  8
AM_0
 10
181.72163595746369
 20
468.39674463230358
 30
0.0
 40
9.124999999999984
 50
152.92493329271929
 51
207.07506670728071
  0
LINE
  5
64AB
  8
AM_0
 10
173.09663595746369
 20
463.89674463230341
 30
0.0
 11
173.59663595746369
 21
464.24343270084438
 31
0.0
  0
LINE
  5
64AC
  8
AM_0
 10
173.59663595746369
 20
463.39674463230341
 30
0.0
 11
173.09663595746369
 21
463.89674463230341
 31
0.0
  0
LINE
  5
64AD
  8
AM_0
 10
169.95645155779911
 20
471.69659096591681
 30
0.0
 11
172.3185014929812
 21
473.66496591190088
 31
0.0
  0
LINE
  5
64AE
  8
AM_0
 10
173.59663595746369
 20
473.89674463230358
 30
0.0
 11
173.09663595746369
 21
473.31831204879637
 31
0.0
  0
ARC
  5
64AF
  8
AM_0
 10
172.9586858926456
 20
472.89674463230358
 30
0.0
 40
1.0000000000000411
 50
90.0
 51
129.805571092256
  0
LINE
  5
64B0
  8
AM_0
 10
173.09663595746369
 20
472.31831204879649
 30
0.0
 11
173.59663595746369
 21
472.55005656376238
 31
0.0
  0
LINE
  5
64B1
  8
AM_0
 10
173.59663595746369
 20
473.0300244609511
 30
0.0
 11
173.09663595746369
 21
472.31831204879649
 31
0.0
  0
LINE
  5
64B2
  8
AM_0
 10
173.09663595746369
 20
472.85603677582452
 30
0.0
 11
173.59663595746369
 21
473.0300244609511
 31
0.0
  0
LINE
  5
64B3
  8
AM_0
 10
173.59663595746369
 20
473.5300244609511
 30
0.0
 11
173.09663595746369
 21
472.85603677582452
 31
0.0
  0
LINE
  5
64B4
  8
AM_0
 10
173.09663595746369
 20
473.31831204879637
 30
0.0
 11
173.59663595746369
 21
473.5300244609511
 31
0.0
  0
ARC
  5
64B5
  8
AM_0
 10
170.59663595746369
 20
470.92836968631929
 30
0.0
 40
1.0
 50
129.80557109226521
 51
180.0
  0
LINE
  5
64B6
  8
AM_0
 10
294.99530705380971
 20
439.89674463230369
 30
0.0
 11
274.18080215427727
 21
439.89674463230369
 31
0.0
  0
LINE
  5
64B7
  8
AM_0
 10
219.80981195334209
 20
439.89674463230369
 30
0.0
 11
198.99530705381031
 21
439.89674463230369
 31
0.0
  0
LINE
  5
64B8
  8
AM_0
 10
288.85952538464869
 20
435.89674463230369
 30
0.0
 11
205.1310887229705
 21
435.89674463230369
 31
0.0
  0
LINE
  5
64B9
  8
AM_0
 10
207.9026620261167
 20
437.8378071201758
 30
0.0
 11
207.99530705381031
 21
438.89674463230392
 31
0.0
  0
LINE
  5
64BA
  8
AM_0
 10
200.08795208150369
 20
437.8378071201758
 30
0.0
 11
199.99530705381031
 21
438.89674463230392
 31
0.0
  0
ARC
  5
64BB
  8
AM_0
 10
203.99530705381031
 20
442.29674463230373
 30
0.0
 40
6.5
 50
241.82726586813479
 51
298.17273413186518
  0
ARC
  5
64BC
  8
AM_0
 10
201.6818635984506
 20
437.97725630857218
 30
0.0
 40
1.6000000000000001
 50
184.99999999999969
 51
241.82726586813479
  0
LINE
  5
64BD
  8
AM_0
 10
206.29530705381021
 20
436.21727097087552
 30
0.0
 11
203.99530705381031
 21
438.50683064967092
 31
0.0
  0
LINE
  5
64BE
  8
AM_0
 10
204.3068070538103
 20
438.19674463230371
 30
0.0
 11
203.6838070538102
 21
438.19674463230371
 31
0.0
  0
LINE
  5
64BF
  8
AM_0
 10
201.6953070538103
 20
436.21727097087552
 30
0.0
 11
203.99530705381031
 21
438.50683064967092
 31
0.0
  0
LINE
  5
64C0
  8
AM_0
 10
204.3068070538103
 20
435.80421294196913
 30
0.0
 11
204.3068070538103
 21
438.19674463230371
 31
0.0
  0
LINE
  5
64C1
  8
AM_0
 10
203.6838070538102
 20
435.80421294196913
 30
0.0
 11
203.6838070538102
 21
438.19674463230371
 31
0.0
  0
ARC
  5
64C2
  8
AM_0
 10
206.3087505091699
 20
437.97725630857218
 30
0.0
 40
1.6000000000000001
 50
298.17273413186518
 51
355.00000000000023
  0
LINE
  5
64C3
  8
AM_0
 10
294.99530705380982
 20
439.89674463230369
 30
0.0
 11
294.99530705380982
 21
443.89674463230369
 31
0.0
  0
LINE
  5
64C4
  8
AM_0
 10
198.9953070538092
 20
443.89674463230369
 30
0.0
 11
198.99530705381039
 21
439.89674463230369
 31
0.0
  0
LINE
  5
64C5
  8
AM_0N
 10
207.79530705381021
 20
439.89674463230369
 30
0.0
 11
207.79530705381021
 21
438.89674463230392
 31
0.0
  0
LINE
  5
64C6
  8
AM_0N
 10
204.1953070538103
 20
438.89674463230392
 30
0.0
 11
204.55927728807649
 21
439.89674463230369
 31
0.0
  0
LINE
  5
64C7
  8
AM_0N
 10
203.79530705381021
 20
438.89674463230392
 30
0.0
 11
204.1592772880764
 21
439.89674463230369
 31
0.0
  0
LINE
  5
64C8
  8
AM_0N
 10
199.99530705381031
 20
438.89674463230392
 30
0.0
 11
207.99530705381031
 21
438.89674463230392
 31
0.0
  0
LINE
  5
64C9
  8
AM_0N
 10
200.1953070538103
 20
438.89674463230392
 30
0.0
 11
200.1953070538103
 21
439.89674463230369
 31
0.0
  0
LINE
  5
64CA
  8
AM_0
 10
219.80981195334189
 20
435.89674463230369
 30
0.0
 11
219.80981195334189
 21
439.89674463230369
 31
0.0
  0
LINE
  5
64CB
  8
AM_0
 10
218.15295770384949
 20
439.89674463230369
 30
0.0
 11
219.80981195334189
 21
435.89674463230369
 31
0.0
  0
LINE
  5
64CC
  8
AM_0
 10
274.18080215427727
 20
435.89674463230369
 30
0.0
 11
274.18080215427727
 21
439.89674463230369
 31
0.0
  0
LINE
  5
64CD
  8
AM_0
 10
275.83765640376993
 20
439.89674463230369
 30
0.0
 11
274.18080215427727
 21
435.89674463230369
 31
0.0
  0
LINE
  5
64CE
  8
AM_0
 10
213.4953070538096
 20
484.89674463230381
 30
0.0
 11
280.49530705380971
 21
484.89674463230381
 31
0.0
  0
LINE
  5
64CF
  8
AM_0
 10
213.4953070538096
 20
484.89674463230381
 30
0.0
 11
213.4953070538096
 21
482.89674463230381
 31
0.0
  0
LINE
  5
64D0
  8
AM_0
 10
280.49530705380971
 20
484.89674463230381
 30
0.0
 11
280.49530705380971
 21
482.89674463230381
 31
0.0
  0
LINE
  5
64D1
  8
ﾁｭｳｼﾝｾﾝ1
 10
289.99530705380892
 20
433.63203713230382
 30
0.0
 11
289.99530705380892
 21
446.63203713230382
 31
0.0
  0
LINE
  5
64D2
  8
AM_0
 10
286.08795208150258
 20
437.8378071201758
 30
0.0
 11
285.99530705380897
 21
438.89674463230392
 31
0.0
  0
LINE
  5
64D3
  8
AM_0
 10
293.90266202611559
 20
437.8378071201758
 30
0.0
 11
293.99530705380892
 21
438.89674463230392
 31
0.0
  0
ARC
  5
64D4
  8
AM_0
 10
289.99530705380931
 20
442.29674463230373
 30
0.0
 40
6.5
 50
241.82726586813479
 51
298.17273413186518
  0
ARC
  5
64D5
  8
AM_0
 10
292.30875050916899
 20
437.97725630857212
 30
0.0
 40
1.6000000000000001
 50
298.17273413186518
 51
355.00000000000023
  0
LINE
  5
64D6
  8
AM_0
 10
287.69530705380919
 20
436.21727097087552
 30
0.0
 11
289.99530705380897
 21
438.50683064967092
 31
0.0
  0
LINE
  5
64D7
  8
AM_0
 10
289.68380705380912
 20
438.19674463230371
 30
0.0
 11
290.30680705380922
 21
438.19674463230371
 31
0.0
  0
LINE
  5
64D8
  8
AM_0
 10
292.29530705380921
 20
436.21727097087552
 30
0.0
 11
289.99530705380897
 21
438.50683064967092
 31
0.0
  0
LINE
  5
64D9
  8
AM_0
 10
289.68380705380912
 20
435.80421294196913
 30
0.0
 11
289.68380705380912
 21
438.19674463230371
 31
0.0
  0
LINE
  5
64DA
  8
AM_0
 10
290.30680705380922
 20
435.80421294196913
 30
0.0
 11
290.30680705380922
 21
438.19674463230371
 31
0.0
  0
ARC
  5
64DB
  8
AM_0
 10
287.68186359844958
 20
437.97725630857212
 30
0.0
 40
1.6000000000000001
 50
184.99999999999969
 51
241.82726586813479
  0
LINE
  5
64DC
  8
AM_0N
 10
286.19530705380907
 20
439.89674463230369
 30
0.0
 11
286.19530705380907
 21
438.89674463230392
 31
0.0
  0
LINE
  5
64DD
  8
AM_0N
 10
289.79530705380921
 20
438.89674463230392
 30
0.0
 11
289.43133681954299
 21
439.89674463230369
 31
0.0
  0
LINE
  5
64DE
  8
AM_0N
 10
290.19530705380907
 20
438.89674463230392
 30
0.0
 11
289.83133681954291
 21
439.89674463230369
 31
0.0
  0
LINE
  5
64DF
  8
AM_0N
 10
293.99530705380897
 20
438.89674463230392
 30
0.0
 11
285.99530705380897
 21
438.89674463230392
 31
0.0
  0
LINE
  5
64E0
  8
AM_0N
 10
293.79530705380921
 20
438.89674463230392
 30
0.0
 11
293.79530705380921
 21
439.89674463230369
 31
0.0
  0
LINE
  5
64E1
  8
AM_0
 10
197.9953070538096
 20
446.89674463230341
 30
0.0
 11
197.9953070538096
 21
478.89674463230341
 31
0.0
  0
ARC
  5
64E2
  8
AM_0
 10
170.5684674227515
 20
515.89674463230381
 30
0.0
 40
56.0
 50
209.07393874564249
 51
269.00563148839018
1001
GENIUS_GENOBJ-N-FIL_13
1002
{
1000
OWNER
1000
GEN
1002
}
1001
GENIUS_GENODEF_13
1002
{
1000
HIER
1070
     0
1002
}
1002
{
1000
MANEDIT
1070
     0
1002
}
1002
{
1000
NOSEL
1070
     0
1002
}
1002
{
1000
BEHIND
1070
     0
1002
}
1002
{
1000
OTHER
1070
     0
1002
}
1002
{
1000
REACTOR
1002
}
  0
ARC
  5
64E3
  8
AM_0
 10
170.56846742275141
 20
515.89674463230381
 30
0.0
 40
50.0
 50
209.07393874564249
 51
268.88629304213589
1001
GENIUS_GENOBJ-N-FIL_13
1002
{
1000
OWNER
1000
GEN
1002
}
1001
GENIUS_GENODEF_13
1002
{
1000
HIER
1070
     0
1002
}
1002
{
1000
MANEDIT
1070
     0
1002
}
1002
{
1000
NOSEL
1070
     0
1002
}
1002
{
1000
BEHIND
1070
     0
1002
}
1002
{
1000
OTHER
1070
     0
1002
}
1002
{
1000
REACTOR
1002
}
  0
TEXT
  5
675D
  8
AM_0
 10
535.69800550052526
 20
572.13050751943717
 30
0.0
 40
10.0
  1
VX04-015BW~VX04-030BW
  0
ENDSEC
  0
EOF
