  0
SECTION
  2
HEADER
  9
$ACADVER
  1
AC1009
  9
$INSBASE
 10
0.0
 20
0.0
 30
0.0
  9
$EXTMIN
 10
88.142214003883055
 20
186.59118125598729
 30
-250.41841640509659
  9
$EXTMAX
 10
737.81334871532545
 20
640.05375291387031
 30
8206587.2096418813
  9
$LIMMIN
 10
0.0
 20
0.0
  9
$LIMMAX
 10
853.5
 20
555.00000000000011
  9
$ORTHOMODE
 70
     0
  9
$REGENMODE
 70
     1
  9
$FILLMODE
 70
     1
  9
$QTEXTMODE
 70
     0
  9
$MIRRTEXT
 70
     1
  9
$DRAGMODE
 70
     2
  9
$LTSCALE
 40
3.0
  9
$OSMODE
 70
   551
  9
$ATTMODE
 70
     1
  9
$TEXTSIZE
 40
2.5
  9
$TRACEWID
 40
1.0
  9
$TEXTSTYLE
  7
STANDARD
  9
$CLAYER
  8
AM_0
  9
$CELTYPE
  6
BYLAYER
  9
$CECOLOR
 62
   256
  9
$DIMSCALE
 40
1.0
  9
$DIMASZ
 40
2.5
  9
$DIMEXO
 40
1.0
  9
$DIMDLI
 40
8.0
  9
$DIMRND
 40
0.0
  9
$DIMDLE
 40
0.0
  9
$DIMEXE
 40
0.6
  9
$DIMTP
 40
0.1
  9
$DIMTM
 40
0.1
  9
$DIMTXT
 40
2.5
  9
$DIMCEN
 40
0.0
  9
$DIMTSZ
 40
0.0
  9
$DIMTOL
 70
     0
  9
$DIMLIM
 70
     0
  9
$DIMTIH
 70
     0
  9
$DIMTOH
 70
     0
  9
$DIMSE1
 70
     0
  9
$DIMSE2
 70
     0
  9
$DIMTAD
 70
     1
  9
$DIMZIN
 70
     8
  9
$DIMBLK
  1

  9
$DIMASO
 70
     1
  9
$DIMSHO
 70
     1
  9
$DIMPOST
  1

  9
$DIMAPOST
  1
"
  9
$DIMALT
 70
     0
  9
$DIMALTD
 70
     2
  9
$DIMALTF
 40
0.0393701
  9
$DIMLFAC
 40
1.0
  9
$DIMTOFL
 70
     1
  9
$DIMTVP
 40
0.0
  9
$DIMTIX
 70
     0
  9
$DIMSOXD
 70
     0
  9
$DIMSAH
 70
     0
  9
$DIMBLK1
  1

  9
$DIMBLK2
  1

  9
$DIMSTYLE
  2
AM_ISO
  9
$DIMCLRD
 70
   256
  9
$DIMCLRE
 70
   256
  9
$DIMCLRT
 70
     4
  9
$DIMTFAC
 40
0.71
  9
$DIMGAP
 40
0.8
  9
$LUNITS
 70
     2
  9
$LUPREC
 70
     2
  9
$SKETCHINC
 40
1.0
  9
$FILLETRAD
 40
15.0
  9
$AUNITS
 70
     0
  9
$AUPREC
 70
     0
  9
$MENU
  1
.
  9
$ELEVATION
 40
0.0
  9
$PELEVATION
 40
0.0
  9
$THICKNESS
 40
0.0
  9
$LIMCHECK
 70
     0
  9
$BLIPMODE
 70
     0
  9
$CHAMFERA
 40
6.0
  9
$CHAMFERB
 40
3.0
  9
$SKPOLY
 70
     0
  9
$TDCREATE
 40
2452065.7887456599
  9
$TDUPDATE
 40
2458541.6088691899
  9
$TDINDWG
 40
0.1281995486
  9
$TDUSRTIMER
 40
0.128199537
  9
$USRTIMER
 70
     1
  9
$ANGBASE
 50
0.0
  9
$ANGDIR
 70
     0
  9
$PDMODE
 70
     0
  9
$PDSIZE
 40
0.0
  9
$PLINEWID
 40
0.0
  9
$COORDS
 70
     1
  9
$SPLFRAME
 70
     0
  9
$SPLINETYPE
 70
     6
  9
$SPLINESEGS
 70
     8
  9
$ATTDIA
 70
     1
  9
$ATTREQ
 70
     1
  9
$HANDLING
 70
     1
  9
$HANDSEED
  5
7298
  9
$SURFTAB1
 70
     6
  9
$SURFTAB2
 70
     6
  9
$SURFTYPE
 70
     6
  9
$SURFU
 70
     6
  9
$SURFV
 70
     6
  9
$UCSNAME
  2

  9
$UCSORG
 10
0.0
 20
0.0
 30
0.0
  9
$UCSXDIR
 10
1.0
 20
0.0
 30
0.0
  9
$UCSYDIR
 10
0.0
 20
1.0
 30
0.0
  9
$PUCSNAME
  2

  9
$PUCSORG
 10
0.0
 20
0.0
 30
0.0
  9
$PUCSXDIR
 10
1.0
 20
0.0
 30
0.0
  9
$PUCSYDIR
 10
0.0
 20
1.0
 30
0.0
  9
$USERI1
 70
     0
  9
$USERI2
 70
     0
  9
$USERI3
 70
     0
  9
$USERI4
 70
     0
  9
$USERI5
 70
     0
  9
$USERR1
 40
0.0
  9
$USERR2
 40
0.0
  9
$USERR3
 40
0.0
  9
$USERR4
 40
0.0
  9
$USERR5
 40
0.0
  9
$WORLDVIEW
 70
     1
  9
$SHADEDGE
 70
     3
  9
$SHADEDIF
 70
    70
  9
$TILEMODE
 70
     1
  9
$MAXACTVP
 70
    64
  9
$PLIMCHECK
 70
     0
  9
$PEXTMIN
 10
1.0000000000000000E+020
 20
1.0000000000000000E+020
 30
1.0000000000000000E+020
  9
$PEXTMAX
 10
-1.0000000000000000E+020
 20
-1.0000000000000000E+020
 30
-1.0000000000000000E+020
  9
$PLIMMIN
 10
0.0
 20
0.0
  9
$PLIMMAX
 10
420.0
 20
297.0
  9
$UNITMODE
 70
     0
  9
$VISRETAIN
 70
     1
  9
$PLINEGEN
 70
     0
  9
$PSLTSCALE
 70
     1
  0
ENDSEC
  0
SECTION
  2
TABLES
  0
TABLE
  2
VPORT
 70
     1
  0
VPORT
  2
*ACTIVE
 70
     0
 10
0.0
 20
0.0
 11
1.0
 21
1.0
 12
412.97778135960419
 22
413.3224670849288
 13
0.0
 23
0.0
 14
7.5
 24
7.5
 15
30.0
 25
30.0
 16
0.0
 26
0.0
 36
1.0
 17
0.0
 27
0.0
 37
0.0
 40
456.57558702395539
 41
1.7571592210767459
 42
50.0
 43
0.0
 44
0.0
 50
0.0
 51
0.0
 71
     0
 72
   100
 73
     1
 74
     3
 75
     0
 76
     0
 77
     0
 78
     0
  0
ENDTAB
  0
TABLE
  2
LTYPE
 70
    27
  0
LTYPE
  2
CONTINUOUS
 70
     0
  3
Solid line
 72
    65
 73
     0
 40
0.0
  0
LTYPE
  2
AM_ISO02W050
 70
     0
  3
__ __ __ __ __ __ __ __ __ __ __ __ __ __ __
 72
    65
 73
     2
 40
7.5
 49
6.0
 49
-1.5
  0
LTYPE
  2
AM_ISO08W050
 70
     0
  3
____ . ____ . ____ . ____ . ____ . ____ . ____
 72
    65
 73
     4
 40
18.0
 49
12.0
 49
-1.5
 49
3.0
 49
-1.5
  0
LTYPE
  2
AM_ISO09W050
 70
     0
  3
_____ . . _____ . . _____ . . ____ .. ____
 72
    65
 73
     6
 40
22.5
 49
12.0
 49
-1.5
 49
3.0
 49
-1.5
 49
3.0
 49
-1.5
  0
LTYPE
  2
AMCONSTR
 70
     0
  3
_______________________
 72
    65
 73
     2
 40
9999.0
 49
9999.0
 49
0.0
  0
LTYPE
  2
AM_ISO08W050X2
 70
     0
  3
__ . __ . __ . __ . __ . __
 72
    65
 73
     4
 40
9.0
 49
6.0
 49
-0.75
 49
1.5
 49
-0.75
  0
LTYPE
  2
AM_ISO02W050X2
 70
     0
  3
 _ _ _ _ _ _ _ _ _ _ _ _
 72
    65
 73
     2
 40
3.75
 49
3.0
 49
-0.75
  0
LTYPE
  2
AMZIGZAG
 70
     0
  3
/\/-/\/-/\/-/\/-/\/-/\/
 72
    65
 73
     2
 40
11.0001
 49
0.0001
 49
-11.0
  0
LTYPE
  2
ACISOWELD
 70
     0
  3
_ _ _ _ _
 72
    65
 73
     2
 40
2.0
 49
2.0
 49
-1.0
  0
LTYPE
  2
ACISOTGB
 70
     0
  3
__ . . __ . .
 72
    65
 73
     6
 40
9.0
 49
4.0
 49
-1.0
 49
1.0
 49
-1.0
 49
1.0
 49
-1.0
  0
LTYPE
  2
ACISOTGL
 70
     0
  3
_ _ _ _ _
 72
    65
 73
     2
 40
3.0
 49
2.0
 49
-1.0
  0
LTYPE
  2
CENTER
 70
     0
  3
__ . __
 72
    65
 73
     4
 40
7.0
 49
4.0
 49
-1.0
 49
1.0
 49
-1.0
  0
LTYPE
  2
HIDDEN
 70
     0
  3
Hidden __ __ __ __ __ __ __ __ __ __ __ __ __ _
 72
    65
 73
     2
 40
9.5249999999999986
 49
6.3499999999999979
 49
-3.174999999999998
  0
LTYPE
  2
PHANTOM2
 70
     0
  3
Phantom (.5x) ___ _ _ ___ _ _ ___ _ _ ___ _ _
 72
    65
 73
     6
 40
31.75
 49
15.875
 49
-3.174999999999998
 49
3.174999999999998
 49
-3.174999999999998
 49
3.174999999999998
 49
-3.174999999999998
  0
LTYPE
  2
ACANSTGBM
 70
     0
  3
__ . . __ . .
 72
    65
 73
     6
 40
9.0
 49
4.0
 49
-1.0
 49
1.0
 49
-1.0
 49
1.0
 49
-1.0
  0
LTYPE
  2
ACANSTGLM
 70
     0
  3
_ _ _ _ _
 72
    65
 73
     2
 40
3.0
 49
2.0
 49
-1.0
  0
LTYPE
  2
GEN7
 70
     0
  3
____ . ____ . ____ . ____ . ____ . ____ . ____
 72
    65
 73
     4
 40
14.25
 49
9.75
 49
-1.5
 49
1.5
 49
-1.5
  0
LTYPE
  2
GEN3B
 70
     0
  3
 - - - - -
 72
    65
 73
     2
 40
1.0
 49
0.5
 49
-0.5
  0
LTYPE
  2
GEN7A
 70
     0
  3
__ . __ . __
 72
    65
 73
     4
 40
7.375
 49
4.75
 49
-0.875
 49
0.875
 49
-0.875
  0
LTYPE
  2
ACJISTGB
 70
     0
  3
__ . . __ . .
 72
    65
 73
     6
 40
9.0
 49
4.0
 49
-1.0
 49
1.0
 49
-1.0
 49
1.0
 49
-1.0
  0
LTYPE
  2
ACJISTGL
 70
     0
  3
_ _ _ _ _
 72
    65
 73
     2
 40
3.0
 49
2.0
 49
-1.0
  0
LTYPE
  2
CENTER2
 70
     0
  3
Center (.5x) ___ _ ___ _ ___ _ ___ _ ___ _ ___
 72
    65
 73
     4
 40
1.125
 49
0.75
 49
-0.125
 49
0.125
 49
-0.125
  0
LTYPE
  2
HIDDEN2
 70
     0
  3
Hidden (.5x) _ _ _ _ _ _ _ _ _ _ _ _ _ _ _ _ _
 72
    65
 73
     2
 40
0.1875
 49
0.125
 49
-0.0625
  0
LTYPE
  2
AMZIGZAG2
 70
     0
  3
/\/-/\/-/\/-/\/-/\/-/\/
 72
    65
 73
     2
 40
0.4401
 49
0.0001
 49
-0.4400000000000001
  0
LTYPE
  2
ACANSTGB
 70
     0
  3
__ . . __ . .
 72
    65
 73
     6
 40
0.35433070866
 49
0.15748031496
 49
-0.03937007874
 49
0.03937007874
 49
-0.03937007874
 49
0.03937007874
 49
-0.03937007874
  0
LTYPE
  2
ACANSTGL
 70
     0
  3
_ _ _ _ _
 72
    65
 73
     2
 40
0.11811023622
 49
0.07874015748
 49
-0.03937007874
  0
ENDTAB
  0
TABLE
  2
LAYER
 70
     8
  0
LAYER
  2
0
 70
     0
 62
     7
  6
CONTINUOUS
  0
LAYER
  2
AM_0
 70
     0
 62
     7
  6
CONTINUOUS
  0
LAYER
  2
AM_5
 70
     0
 62
     2
  6
CONTINUOUS
  0
LAYER
  2
DEFPOINTS
 70
     0
 62
     7
  6
CONTINUOUS
  0
LAYER
  2
ｶｸﾚｾﾝ2
 70
     0
 62
     3
  6
GEN3B
  0
LAYER
  2
ﾁｭｳｼﾝｾﾝ
 70
     0
 62
     1
  6
GEN7
  0
LAYER
  2
ﾁｭｳｼﾝｾﾝ1
 70
     0
 62
     1
  6
GEN7A
  0
LAYER
  2
AM_0N
 70
     0
 62
     7
  6
CONTINUOUS
  0
ENDTAB
  0
TABLE
  2
STYLE
 70
    10
  0
STYLE
  2
STANDARD
 70
     0
 40
0.0
 41
0.8299999999999999
 50
0.0
 71
     0
 42
2.5
  3
txt.shx
  4
bigfont.shx
  0
STYLE
  2
ANNOTATIVE
 70
     0
 40
0.0
 41
1.0
 50
0.0
 71
     0
 42
0.2
  3
txt
  4

  0
STYLE
  2

 70
     1
 40
0.0
 41
1.0
 50
0.0
 71
     0
 42
2.5
  3
ltypeshp.shx
  4

  0
STYLE
  2
ACISOTS
 70
     0
 40
1.0
 41
1.0
 50
0.0
 71
     0
 42
2.5
  3
isocp.shx
  4
extfont.shx
  0
STYLE
  2
ACISOGDT
 70
     0
 40
0.0
 41
1.0
 50
0.0
 71
     0
 42
2.5
  3
amgdt.shx
  4

  0
STYLE
  2
ACANSTS
 70
     0
 40
1.0
 41
1.0
 50
0.0
 71
     0
 42
2.5
  3
romans.shx
  4
bigfont.shx
  0
STYLE
  2
ACANSGDT
 70
     0
 40
0.0
 41
1.0
 50
0.0
 71
     0
 42
2.5
  3
amgdt.shx
  4

  0
STYLE
  2
ACJISTS
 70
     0
 40
1.0
 41
1.0
 50
0.0
 71
     0
 42
2.5
  3
isocp.shx
  4
bigfont.shx
  0
STYLE
  2
ACJISGDT
 70
     0
 40
0.0
 41
1.0
 50
0.0
 71
     0
 42
2.5
  3
amgdt.shx
  4

  0
STYLE
  2

 70
     1
 40
0.0
 41
1.0
 50
0.0
 71
     0
 42
2.5
  3
genltshp.shx
  4

  0
ENDTAB
  0
TABLE
  2
VIEW
 70
     6
  0
VIEW
  2
AM_VIEW1
 70
     0
 40
277.50000000000011
 10
249.64779005524869
 20
416.25
 41
499.29558011049721
 11
0.0
 21
0.0
 31
1.0
 12
0.0
 22
0.0
 32
0.0
 42
50.0
 43
0.0
 44
0.0
 50
0.0
 71
     0
  0
VIEW
  2
AM_VIEW2
 70
     0
 40
277.50000000000011
 10
603.85220994475117
 20
416.25
 41
499.29558011049721
 11
0.0
 21
0.0
 31
1.0
 12
0.0
 22
0.0
 32
0.0
 42
50.0
 43
0.0
 44
0.0
 50
0.0
 71
     0
  0
VIEW
  2
AM_VIEW3
 70
     0
 40
277.50000000000011
 10
249.64779005524869
 20
138.75
 41
499.29558011049721
 11
0.0
 21
0.0
 31
1.0
 12
0.0
 22
0.0
 32
0.0
 42
50.0
 43
0.0
 44
0.0
 50
0.0
 71
     0
  0
VIEW
  2
AM_VIEW4
 70
     0
 40
277.50000000000011
 10
603.85220994475117
 20
138.75
 41
499.29558011049721
 11
0.0
 21
0.0
 31
1.0
 12
0.0
 22
0.0
 32
0.0
 42
50.0
 43
0.0
 44
0.0
 50
0.0
 71
     0
  0
VIEW
  2
AM_VIEW5
 70
     0
 40
277.50000000000011
 10
426.75
 20
277.50000000000011
 41
499.2955801104971
 11
0.0
 21
0.0
 31
1.0
 12
0.0
 22
0.0
 32
0.0
 42
50.0
 43
0.0
 44
0.0
 50
0.0
 71
     0
  0
VIEW
  2
AM_VIEW6
 70
     0
 40
554.99445000000014
 10
426.75
 20
277.5
 41
998.5811743093924
 11
0.0
 21
0.0
 31
1.0
 12
0.0
 22
0.0
 32
0.0
 42
50.0
 43
0.0
 44
0.0
 50
0.0
 71
     0
  0
ENDTAB
  0
TABLE
  2
UCS
 70
     0
  0
ENDTAB
  0
TABLE
  2
APPID
 70
    98
  0
APPID
  2
ACAD
 70
     0
  0
APPID
  2
ACADANNOTATIVE
 70
     0
  0
APPID
  2
MCAD_NO_VIS
 70
     0
  0
APPID
  2
ACAD_TEMP_GRAPHIC
 70
     0
  0
APPID
  2
ACATTRIBSERVICES
 70
     0
  0
APPID
  2
GENIUS_GENREC_14
 70
     0
  0
APPID
  2
GENIUS_GENOBJ-N-REC_13
 70
     0
  0
APPID
  2
GENIUS_GENODEF_13
 70
     0
  0
APPID
  2
GENIUS_GENOLIS_13
 70
     0
  0
APPID
  2
GENIUS_GENOBJ-N-TIT_13
 70
     0
  0
APPID
  2
GENIUS_GENOENT_13
 70
     0
  0
APPID
  2
GENIUS_GENTITLE_13
 70
     0
  0
APPID
  2
GENIUS_GENOREF_13
 70
     0
  0
APPID
  2
GENIUS_GENSCREG_15
 70
     0
  0
APPID
  2
GENIUS_GENOBJ-N-SDF_13
 70
     0
  0
APPID
  2
GENIUS_GENFIL_13
 70
     0
  0
APPID
  2
GENIUS_GENOBJ-N-CHA_13
 70
     0
  0
APPID
  2
GENIUS_GENDTOL_13
 70
     0
  0
APPID
  2
GENIUS_GENOBJ-N-FIL_13
 70
     0
  0
APPID
  2
AD_DRAW
 70
     0
  0
APPID
  2
DESIGNERASSEMBLIES
 70
     0
  0
APPID
  2
ASURF_PCURVE_APPNAME
 70
     0
  0
APPID
  2
GENIUS_GE3SECT_13
 70
     0
  0
APPID
  2
GENIUS_GENCFG_13
 70
     0
  0
APPID
  2
GENIUS_GE3CFG0_13
 70
     0
  0
APPID
  2
GENIUS_GENCFG0_13
 70
     0
  0
APPID
  2
GENIUS_GENCFG1_13
 70
     0
  0
APPID
  2
GENIUS_GENCFG2_13
 70
     0
  0
APPID
  2
GENIUS_GENCFG3_13
 70
     0
  0
APPID
  2
GENIUS_GENCFG4_13
 70
     0
  0
APPID
  2
GENIUS_GEVCFG0_13
 70
     0
  0
APPID
  2
GENIUS_GENHINW_13
 70
     0
  0
APPID
  2
GENIUS_FIRSTVISTXT_14
 70
     0
  0
APPID
  2
GENIUS_GENOBJ-N-LEADER_13
 70
     0
  0
APPID
  2
GEV_VCCNULL_SWITCH_OFF
 70
     0
  0
APPID
  2
GENIUS_GEFCFG0_13
 70
     0
  0
APPID
  2
GENIUS_GENZVEED_13
 70
     0
  0
APPID
  2
GENIUS_GENSCREG_13
 70
     0
  0
APPID
  2
GENIUS_DUMCFG0_13
 70
     0
  0
APPID
  2
GEVID936201362
 70
     0
  0
APPID
  2
GEVDC
 70
     0
  0
APPID
  2
GEVCON
 70
     0
  0
APPID
  2
VCC
 70
     0
  0
APPID
  2
GEVPT
 70
     0
  0
APPID
  2
GEVIT
 70
     0
  0
APPID
  2
GENBH
 70
     0
  0
APPID
  2
GEVMK
 70
     0
  0
APPID
  2
GENIUS_GENBH_13
 70
     0
  0
APPID
  2
GENIUS_GENOBJ-NBEHI-BHF_13
 70
     0
  0
APPID
  2
GENIUS_GENOBJ-NBEHI-BHB_13
 70
     0
  0
APPID
  2
GENIUS_GENOBJ-F-DESC_13
 70
     0
  0
APPID
  2
GENIUS_GEFDESC_14
 70
     0
  0
APPID
  2
GENIUS_GENOBJ-F-PART_13
 70
     0
  0
APPID
  2
GENIUS_GEFSTDP_13
 70
     0
  0
APPID
  2
GENIUS_GEFPARTINS_13
 70
     0
  0
APPID
  2
GENIUS_GENTRA_14
 70
     0
  0
APPID
  2
GENIUS_GENINF13_13
 70
     0
  0
APPID
  2
GENIUS_GENOBJ-N-INFOPT_13
 70
     0
  0
APPID
  2
GENIUS_GENOBJ-N-RSSYM_13
 70
     0
  0
APPID
  2
GENIUS_GENSYMENT_13
 70
     0
  0
APPID
  2
GENIUS_GENSCSYM_13
 70
     0
  0
APPID
  2
GENIUS_GEFINFNAM_13
 70
     0
  0
APPID
  2
GENIUS_GENOBJ-N-CEN_13
 70
     0
  0
APPID
  2
GENIUS_GENOBJ-N-CRS_13
 70
     0
  0
APPID
  2
GENIUS_GENOBJ-N-CRC_13
 70
     0
  0
APPID
  2
GENIUS_GENCRC_14
 70
     0
  0
APPID
  2
GEVID942827039
 70
     0
  0
APPID
  2
GEVID942827040
 70
     0
  0
APPID
  2
GEVID942827041
 70
     0
  0
APPID
  2
GENIUS_GENOBJ-F-SCPASSM_13
 70
     0
  0
APPID
  2
GENIUS_GENDIMSH_14
 70
     0
  0
APPID
  2
GEVID942827042
 70
     0
  0
APPID
  2
GEVID946020473
 70
     0
  0
APPID
  2
GEVID946020474
 70
     0
  0
APPID
  2
GEVID946020475
 70
     0
  0
APPID
  2
GENIUS_GENOBJ-N-HTC_13
 70
     0
  0
APPID
  2
GENIUS_GENHATCH_13
 70
     0
  0
APPID
  2
GEVID948854295
 70
     0
  0
APPID
  2
GEVID939402019
 70
     0
  0
APPID
  2
GEVID952919491
 70
     0
  0
APPID
  2
GEVID952919492
 70
     0
  0
APPID
  2
GENIUS_GEFWELD_13
 70
     0
  0
APPID
  2
GENIUS_GENOBJ-F-WELS_13
 70
     0
  0
APPID
  2
GEVID952919493
 70
     0
  0
APPID
  2
GENIUS_GENOBJ-N-RSBK_13
 70
     0
  0
APPID
  2
GENIUS_GENOBJ-N-LIB_13
 70
     0
  0
APPID
  2
GENIUS_GENSCALE_13
 70
     0
  0
APPID
  2
GEVID986376691
 70
     0
  0
APPID
  2
DCO15
 70
     0
  0
APPID
  2
ACADM_DIM_EDIT
 70
     0
  0
APPID
  2
AMDT_DM_ADJ
 70
     0
  0
APPID
  2
ACAD_PSEXT
 70
     0
  0
APPID
  2
ACAD_DSTYLE_DIMJAG
 70
     0
  0
APPID
  2
ACAD_DSTYLE_DIMBREAK
 70
     0
  0
APPID
  2
ACAD_NAV_VCDISPLAY
 70
     0
  0
APPID
  2
ACADANNOPO
 70
     0
  0
APPID
  2
ACAD_EXEMPT_FROM_CAD_STANDARDS
 70
     0
  0
APPID
  2
ACAD_MLEADERVER
 70
     0
  0
ENDTAB
  0
TABLE
  2
DIMSTYLE
 70
    22
  0
DIMSTYLE
  2
STANDARD
 70
     0
  3

  4

  5

  6

  7

 40
1.0
 41
0.18
 42
0.0625
 43
0.38
 44
0.18
 45
0.0
 46
0.0
 47
0.0
 48
0.0
140
0.18
141
0.09
142
0.0
143
25.399999999999999
144
1.0
145
0.0
146
1.0
147
0.09
 71
     0
 72
     0
 73
     1
 74
     1
 75
     0
 76
     0
 77
     0
 78
     0
170
     0
171
     2
172
     0
173
     0
174
     0
175
     0
176
     0
177
     0
178
     0
  0
DIMSTYLE
  2
ANNOTATIVE
 70
     0
  3

  4

  5

  6

  7

 40
1.0
 41
0.18
 42
0.0625
 43
0.38
 44
0.18
 45
0.0
 46
0.0
 47
0.0
 48
0.0
140
0.18
141
0.09
142
0.0
143
25.399999999999999
144
1.0
145
0.0
146
1.0
147
0.09
 71
     0
 72
     0
 73
     1
 74
     1
 75
     0
 76
     0
 77
     0
 78
     0
170
     0
171
     2
172
     0
173
     0
174
     0
175
     0
176
     0
177
     0
178
     0
  0
DIMSTYLE
  2
AM_ISO
 70
     0
  3

  4
"
  5

  6

  7

 40
1.0
 41
2.5
 42
1.0
 43
8.0
 44
0.6
 45
0.0
 46
0.0
 47
0.1
 48
0.1
140
2.5
141
0.0
142
0.0
143
0.0393701
144
1.0
145
0.0
146
0.71
147
0.8
 71
     0
 72
     0
 73
     0
 74
     0
 75
     0
 76
     0
 77
     1
 78
     8
170
     0
171
     2
172
     1
173
     0
174
     0
175
     0
176
   256
177
   256
178
     4
  0
DIMSTYLE
  2
AM_ISO$3
 70
     0
  3

  4
"
  5

  6

  7

 40
1.0
 41
2.5
 42
1.0
 43
8.0
 44
0.6
 45
0.0
 46
0.0
 47
0.1
 48
0.1
140
2.5
141
0.0
142
0.0
143
0.0393701
144
1.0
145
0.0
146
0.71
147
0.8
 71
     0
 72
     0
 73
     0
 74
     1
 75
     0
 76
     0
 77
     1
 78
     8
170
     0
171
     2
172
     0
173
     0
174
     0
175
     0
176
   256
177
   256
178
     4
  0
DIMSTYLE
  2
AM_ISO$4
 70
     0
  3

  4
"
  5

  6

  7

 40
1.0
 41
2.5
 42
1.0
 43
8.0
 44
0.6
 45
0.0
 46
0.0
 47
0.1
 48
0.1
140
2.5
141
0.0
142
0.0
143
0.0393701
144
1.0
145
0.0
146
0.71
147
0.8
 71
     0
 72
     0
 73
     0
 74
     1
 75
     0
 76
     0
 77
     1
 78
     8
170
     0
171
     2
172
     0
173
     0
174
     0
175
     0
176
   256
177
   256
178
     4
  0
DIMSTYLE
  2
AM_ISO$6
 70
     0
  3

  4
"
  5

  6

  7

 40
1.0
 41
2.5
 42
1.0
 43
8.0
 44
0.6
 45
0.0
 46
0.0
 47
0.1
 48
0.1
140
2.5
141
0.0
142
0.0
143
0.0393701
144
1.0
145
0.0
146
0.71
147
0.8
 71
     0
 72
     0
 73
     0
 74
     0
 75
     0
 76
     0
 77
     0
 78
     8
170
     0
171
     2
172
     1
173
     0
174
     0
175
     0
176
   256
177
   256
178
     4
  0
DIMSTYLE
  2
AM_ISO$7
 70
     0
  3

  4
"
  5

  6

  7

 40
1.0
 41
2.5
 42
1.0
 43
8.0
 44
0.6
 45
0.0
 46
0.0
 47
0.1
 48
0.1
140
2.5
141
0.0
142
0.0
143
0.0393701
144
1.0
145
0.0
146
0.71
147
0.8
 71
     0
 72
     0
 73
     0
 74
     0
 75
     0
 76
     0
 77
     1
 78
     8
170
     0
171
     2
172
     1
173
     0
174
     0
175
     0
176
   256
177
   256
178
     4
  0
DIMSTYLE
  2
AM_ISO$SF
 70
     0
  3

  4
"
  5

  6

  7

 40
1.0
 41
2.5
 42
1.0
 43
10.0
 44
1.0
 45
0.0
 46
0.0
 47
0.1
 48
0.1
140
3.5
141
0.0
142
0.0
143
0.0393701
144
1.0
145
0.0
146
0.71
147
1.5
 71
     0
 72
     0
 73
     0
 74
     0
 75
     1
 76
     1
 77
     1
 78
     8
170
     0
171
     2
172
     1
173
     0
174
     0
175
     0
176
   256
177
   256
178
     2
  0
DIMSTYLE
  2
AM_ISO$SH
 70
     0
  3

  4
"
  5

  6

  7

 40
1.0
 41
2.5
 42
1.0
 43
10.0
 44
1.0
 45
0.0
 46
0.0
 47
0.1
 48
0.1
140
3.5
141
0.0
142
0.0
143
0.0393701
144
2.0
145
0.0
146
0.71
147
1.5
 71
     0
 72
     0
 73
     0
 74
     0
 75
     1
 76
     1
 77
     1
 78
     8
170
     0
171
     2
172
     1
173
     1
174
     0
175
     0
176
   256
177
   256
178
     2
  0
DIMSTYLE
  2
AM_JIS
 70
     0
  3

  4
"
  5

  6

  7

 40
1.0
 41
2.5
 42
1.0
 43
7.0
 44
1.0
 45
0.0
 46
0.0
 47
0.1
 48
0.1000000001
140
2.5
141
0.0
142
0.0
143
0.0393701
144
1.0
145
0.0
146
0.71
147
1.0
 71
     0
 72
     0
 73
     0
 74
     0
 75
     0
 76
     0
 77
     3
 78
     8
170
     0
171
     2
172
     1
173
     0
174
     0
175
     0
176
   256
177
   256
178
     4
  0
DIMSTYLE
  2
AM_JIS$3
 70
     0
  3

  4
"
  5

  6

  7

 40
1.0
 41
2.5
 42
1.0
 43
7.0
 44
1.0
 45
0.0
 46
0.0
 47
0.1
 48
0.1000000001
140
2.5
141
0.0
142
0.0
143
0.0393701
144
1.0
145
0.0
146
0.71
147
1.0
 71
     0
 72
     0
 73
     0
 74
     1
 75
     0
 76
     0
 77
     3
 78
     8
170
     0
171
     2
172
     0
173
     0
174
     0
175
     0
176
   256
177
   256
178
     4
  0
DIMSTYLE
  2
AM_JIS$4
 70
     0
  3

  4
"
  5

  6

  7

 40
1.0
 41
2.5
 42
1.0
 43
7.0
 44
1.0
 45
0.0
 46
0.0
 47
0.1
 48
0.1000000001
140
2.5
141
0.0
142
0.0
143
0.0393701
144
1.0
145
0.0
146
0.71
147
1.0
 71
     0
 72
     0
 73
     0
 74
     0
 75
     0
 76
     0
 77
     3
 78
     8
170
     0
171
     2
172
     0
173
     0
174
     0
175
     0
176
   256
177
   256
178
     4
  0
DIMSTYLE
  2
AM_JIS$6
 70
     0
  3

  4
"
  5

  6

  7

 40
1.0
 41
2.5
 42
1.0
 43
7.0
 44
1.0
 45
0.0
 46
0.0
 47
0.1
 48
0.1000000001
140
2.5
141
0.0
142
0.0
143
0.0393701
144
1.0
145
0.0
146
0.71
147
1.0
 71
     0
 72
     0
 73
     0
 74
     0
 75
     0
 76
     0
 77
     0
 78
     8
170
     0
171
     2
172
     1
173
     0
174
     0
175
     0
176
   256
177
   256
178
     4
  0
DIMSTYLE
  2
AM_JIS$7
 70
     0
  3

  4
"
  5

  6

  7

 40
1.0
 41
2.5
 42
1.0
 43
7.0
 44
1.0
 45
0.0
 46
0.0
 47
0.1
 48
0.1000000001
140
2.5
141
0.0
142
0.0
143
0.0393701
144
1.0
145
0.0
146
0.71
147
1.0
 71
     0
 72
     0
 73
     0
 74
     0
 75
     0
 76
     0
 77
     3
 78
     8
170
     0
171
     2
172
     1
173
     0
174
     0
175
     0
176
   256
177
   256
178
     4
  0
DIMSTYLE
  2
AM_JIS$SF
 70
     0
  3

  4
"
  5

  6

  7

 40
1.0
 41
2.5
 42
1.0
 43
10.0
 44
1.0
 45
0.0
 46
0.0
 47
0.1
 48
0.1
140
3.5
141
0.0
142
0.0
143
0.0393701
144
1.0
145
0.0
146
0.71
147
1.5
 71
     0
 72
     0
 73
     0
 74
     0
 75
     1
 76
     1
 77
     3
 78
     8
170
     0
171
     2
172
     1
173
     0
174
     0
175
     0
176
   256
177
   256
178
     4
  0
DIMSTYLE
  2
AM_JIS$SH
 70
     0
  3

  4
"
  5

  6

  7

 40
1.0
 41
2.5
 42
1.0
 43
10.0
 44
1.0
 45
0.0
 46
0.0
 47
0.1
 48
0.1
140
3.5
141
0.0
142
0.0
143
0.0393701
144
1.0
145
0.0
146
0.71
147
1.5
 71
     0
 72
     0
 73
     0
 74
     0
 75
     1
 76
     0
 77
     3
 78
     8
170
     0
171
     2
172
     1
173
     1
174
     0
175
     0
176
   256
177
   256
178
     4
  0
DIMSTYLE
  2
AM_ANSI
 70
     0
  3

  4
mm
  5

  6

  7

 40
1.0
 41
0.12
 42
0.05
 43
0.5
 44
0.1
 45
0.0
 46
0.0
 47
0.1
 48
0.1
140
0.12
141
0.0
142
0.0
143
25.399999999999999
144
1.0
145
0.0
146
0.71
147
0.06
 71
     0
 72
     0
 73
     1
 74
     1
 75
     0
 76
     0
 77
     0
 78
     7
170
     0
171
     2
172
     0
173
     0
174
     0
175
     0
176
   256
177
   256
178
     2
  0
DIMSTYLE
  2
AM_ANSI$3
 70
     0
  3

  4
mm
  5

  6

  7

 40
1.0
 41
0.12
 42
0.05
 43
0.5
 44
0.1
 45
0.0
 46
0.0
 47
0.1
 48
0.1
140
0.12
141
0.0
142
0.0
143
25.399999999999999
144
1.0
145
0.0
146
0.71
147
0.06
 71
     0
 72
     0
 73
     1
 74
     1
 75
     0
 76
     0
 77
     0
 78
     7
170
     0
171
     2
172
     0
173
     0
174
     0
175
     0
176
   256
177
   256
178
     2
  0
DIMSTYLE
  2
AM_ANSI$4
 70
     0
  3

  4
mm
  5

  6

  7

 40
1.0
 41
0.12
 42
0.05
 43
0.5
 44
0.1
 45
0.0
 46
0.0
 47
0.1
 48
0.1
140
0.12
141
0.0
142
0.0
143
25.399999999999999
144
1.0
145
0.0
146
0.71
147
0.06
 71
     0
 72
     0
 73
     1
 74
     1
 75
     0
 76
     0
 77
     0
 78
     7
170
     0
171
     2
172
     0
173
     0
174
     0
175
     0
176
   256
177
   256
178
     2
  0
DIMSTYLE
  2
AM_ANSI$7
 70
     0
  3

  4
mm
  5

  6

  7

 40
1.0
 41
0.12
 42
0.05
 43
0.5
 44
0.1
 45
0.0
 46
0.0
 47
0.1
 48
0.1
140
0.12
141
0.0
142
0.0
143
25.399999999999999
144
1.0
145
0.0
146
0.71
147
0.06
 71
     0
 72
     0
 73
     1
 74
     1
 75
     0
 76
     0
 77
     0
 78
     7
170
     0
171
     2
172
     0
173
     0
174
     0
175
     0
176
   256
177
   256
178
     2
  0
DIMSTYLE
  2
AM_ANSI$SF
 70
     0
  3

  4
mm
  5

  6

  7

 40
1.0
 41
0.12
 42
0.05
 43
0.5
 44
0.1
 45
0.0
 46
0.0
 47
0.1
 48
0.1
140
0.12
141
0.0
142
0.0
143
25.399999999999999
144
1.0
145
0.0
146
0.71
147
0.06
 71
     0
 72
     0
 73
     1
 74
     1
 75
     1
 76
     1
 77
     0
 78
     7
170
     0
171
     2
172
     0
173
     0
174
     0
175
     0
176
   256
177
   256
178
     2
  0
DIMSTYLE
  2
AM_ANSI$SH
 70
     0
  3

  4
mm
  5

  6
GENAXEH
  7

 40
1.0
 41
0.12
 42
0.05
 43
0.5
 44
0.1
 45
0.0
 46
0.0
 47
0.1
 48
0.1
140
0.12
141
0.0
142
0.0
143
25.399999999999999
144
1.0
145
0.0
146
0.71
147
0.06
 71
     0
 72
     0
 73
     1
 74
     1
 75
     1
 76
     1
 77
     0
 78
     7
170
     0
171
     2
172
     0
173
     1
174
     0
175
     0
176
   256
177
   256
178
     2
  0
ENDTAB
  0
ENDSEC
  0
SECTION
  2
BLOCKS
  0
BLOCK
  8
0
  2
$MODEL_SPACE
 70
     0
 10
0.0
 20
0.0
 30
0.0
  3
$MODEL_SPACE
  1

  0
ENDBLK
  5
7112
  8
0
  0
BLOCK
 67
     1
  8
0
  2
$PAPER_SPACE
 70
     0
 10
0.0
 20
0.0
 30
0.0
  3
$PAPER_SPACE
  1

  0
ENDBLK
  5
710E
 67
     1
  8
0
  0
BLOCK
  8
0
  2
GENAXEH
 70
     0
 10
0.0
 20
0.0
 30
0.0
  3
GENAXEH
  1

  0
LINE
  5
73
  8
0
 10
-1.0
 20
0.0
 30
0.0
 11
1.0
 21
0.0
 31
0.0
  0
ENDBLK
  5
75
  8
0
  0
BLOCK
  8
0
  2
_OPEN30
 70
     0
 10
0.0
 20
0.0
 30
0.0
  3
_OPEN30
  1

  0
LINE
  5
31A
  8
0
 62
     0
 10
-1.0
 20
0.26794919
 30
0.0
 11
0.0
 21
0.0
 31
0.0
  0
LINE
  5
31B
  8
0
 62
     0
 10
0.0
 20
0.0
 30
0.0
 11
-1.0
 21
-0.26794919
 31
0.0
  0
LINE
  5
31C
  8
0
 62
     0
 10
0.0
 20
0.0
 30
0.0
 11
-1.0
 21
0.0
 31
0.0
  0
ENDBLK
  5
31E
  8
0
  0
BLOCK
  8
0
  2
_NONE
 70
     0
 10
0.0
 20
0.0
 30
0.0
  3
_NONE
  1

  0
ENDBLK
  5
579
  8
0
  0
BLOCK
  8
0
  2
*U5
 70
     1
 10
0.0
 20
0.0
 30
0.0
  3
*U5
  1

  0
TEXT
  5
701D
  8
AM_0
 10
570.12473711674545
 20
555.6190792655882
 30
0.0
 40
10.0
  1
ＶＸ０４－０４０～０５０ＢＷ
 41
0.8299999999999999
  0
ENDBLK
  5
701F
  8
0
  0
BLOCK
  8
0
  2
_ACMFILLEDHALF
 70
     0
 10
0.0
 20
0.0
 30
0.0
  3
_ACMFILLEDHALF
  1

  0
TRACE
  5
7212
  8
AM_0
 62
     0
 10
-0.8
 20
0.0
 30
0.0
 11
-1.0
 21
0.166666666
 31
0.0
 12
0.0
 22
0.0
 32
0.0
 13
0.0
 23
0.0
 33
0.0
  0
LINE
  5
7213
  8
AM_0
 62
     0
 10
-1.0
 20
0.0
 30
0.0
 11
-0.8
 21
0.0
 31
0.0
  0
ENDBLK
  5
7211
  8
0
  0
ENDSEC
  0
SECTION
  2
ENTITIES
  0
LINE
  5
3412
  8
ﾁｭｳｼﾝｾﾝ
 10
461.88555549313492
 20
286.15584797791888
 30
0.0
 11
325.41276290347389
 21
286.15584797791888
 31
0.0
  0
LINE
  5
342B
  8
AM_0
 10
357.44967290347398
 20
316.67336297791888
 30
0.0
 11
360.44967290347398
 21
316.67336297791888
 31
0.0
  0
LINE
  5
342C
  8
AM_0
 10
357.44967290347398
 20
305.12633897791892
 30
0.0
 11
360.44967290347398
 21
305.12633897791892
 31
0.0
  0
LINE
  5
342D
  8
AM_0
 10
357.44967290347398
 20
308.01308297791888
 30
0.0
 11
360.44967290347398
 21
308.01308297791888
 31
0.0
  0
LINE
  5
342E
  8
AM_0
 10
357.44967290347398
 20
313.7865829779189
 30
0.0
 11
360.44967290347398
 21
313.7865829779189
 31
0.0
  0
LINE
  5
342F
  8
AM_0
 10
361.44963290347403
 20
306.12635297791888
 30
0.0
 11
361.44963290347403
 21
315.67337297791892
 31
0.0
  0
LINE
  5
3430
  8
AM_0
 10
357.44967290347398
 20
317.67335297791891
 30
0.0
 11
357.44967290347398
 21
304.12633997791892
 31
0.0
  0
LINE
  5
3432
  8
AM_0
 10
356.44968290347401
 20
317.67335297791891
 30
0.0
 11
357.44967290347398
 21
317.67335297791891
 31
0.0
  0
LINE
  5
3433
  8
AM_0
 10
356.44968290347401
 20
304.12633997791892
 30
0.0
 11
357.44967290347398
 21
304.12633997791892
 31
0.0
  0
LINE
  5
343F
  8
AM_0
 10
316.44972290347403
 20
191.1558619779189
 30
0.0
 11
341.44968290347401
 21
191.1558619779189
 31
0.0
  0
LINE
  5
3440
  8
AM_0
 10
318.44967290347398
 20
203.15587697791889
 30
0.0
 11
337.39902290347402
 21
203.15587697791889
 31
0.0
  0
LINE
  5
3441
  8
AM_0
 10
385.44969290347382
 20
191.1558619779189
 30
0.0
 11
410.44968290347379
 21
191.1558619779189
 31
0.0
  0
LINE
  5
3443
  8
AM_0
 10
345.44967290347398
 20
337.1558629779189
 30
0.0
 11
345.44967290347398
 21
222.0130099779189
 31
0.0
  0
LINE
  5
3444
  8
AM_0
 10
345.44967290347398
 20
337.1558629779189
 30
0.0
 11
389.58057290347398
 21
336.00023297791893
 31
0.0
  0
LINE
  5
3445
  8
AM_0
 10
399.01392290347388
 20
319.89389297791888
 30
0.0
 11
404.71119290347377
 21
319.39544297791889
 31
0.0
  0
LINE
  5
3446
  8
AM_0
 10
407.4496829034739
 20
316.40687297791891
 30
0.0
 11
407.4496829034739
 21
206.90042897791901
 31
0.0
  0
LINE
  5
3447
  8
AM_0
 10
316.44972290347403
 20
201.15586097791899
 30
0.0
 11
316.44972290347403
 21
191.1558619779189
 31
0.0
  0
LINE
  5
3448
  8
AM_0
 10
342.44967290347398
 20
192.155845977919
 30
0.0
 11
384.44967290347398
 21
192.155845977919
 31
0.0
  0
LINE
  5
3449
  8
AM_0
 10
410.44968290347379
 20
201.15586097791899
 30
0.0
 11
410.44968290347379
 21
191.1558619779189
 31
0.0
  0
LINE
  5
3451
  8
AM_0
 10
348.44967290347398
 20
273.37212797791898
 30
0.0
 11
348.44967290347398
 21
236.68033697791901
 31
0.0
  0
LINE
  5
3452
  8
AM_0
 10
386.4496829034739
 20
203.15587697791889
 30
0.0
 11
408.44967290347392
 21
203.15587697791889
 31
0.0
  0
LINE
  5
3455
  8
AM_0
 10
359.4496829034739
 20
317.683312977919
 30
0.0
 11
394.44969290347382
 21
317.683312977919
 31
0.0
  0
LINE
  5
3457
  8
AM_0
 10
341.44968290347401
 20
191.1558619779189
 30
0.0
 11
341.44968290347401
 21
191.1558619779189
 31
0.0
  0
LINE
  5
3458
  8
AM_0
 10
381.44967290347398
 20
295.9466809779189
 30
0.0
 11
381.44967290347398
 21
208.1558629779189
 31
0.0
  0
LINE
  5
345A
  8
AM_0
 10
394.44969290347382
 20
331.00196297791888
 30
0.0
 11
394.44969290347382
 21
222.19666397791889
 31
0.0
  0
LINE
  5
345E
  8
AM_0
 10
381.44967290347398
 20
218.1966799779189
 30
0.0
 11
390.44967290347398
 21
218.1966799779189
 31
0.0
  0
LINE
  5
3463
  8
AM_0
 10
389.44968290347401
 20
303.94665197791892
 30
0.0
 11
394.44969290347382
 21
303.94665197791892
 31
0.0
  0
LINE
  5
3467
  8
AM_0
 10
385.44969290347382
 20
191.1558619779189
 30
0.0
 11
385.44969290347382
 21
191.1558619779189
 31
0.0
  0
LINE
  5
3468
  8
AM_0
 10
342.29019290347401
 20
207.11833997791899
 30
0.0
 11
348.34086290347409
 21
235.6428169779189
 31
0.0
  0
LINE
  5
3469
  8
AM_0
 10
356.44968290347401
 20
322.6826329779189
 30
0.0
 11
356.44968290347401
 21
299.78060597791892
 31
0.0
  0
LINE
  5
346C
  8
AM_0
 10
359.4496829034739
 20
336.71072297791892
 30
0.0
 11
359.4496829034739
 21
317.683312977919
 31
0.0
  0
LINE
  5
346D
  8
AM_0
 10
359.4496829034739
 20
336.710692977919
 30
0.0
 11
373.03167290347398
 21
317.683312977919
 31
0.0
  0
LINE
  5
346E
  8
AM_0
 10
359.4496829034739
 20
299.50457297791888
 30
0.0
 11
359.4496829034739
 21
273.37212797791898
 31
0.0
  0
LINE
  5
346F
  8
AM_0
 10
372.27930290347382
 20
299.50457297791888
 30
0.0
 11
359.4496829034739
 21
273.37212797791898
 31
0.0
  0
LINE
  5
3470
  8
AM_0
 10
348.44967290347398
 20
273.37212797791898
 30
0.0
 11
359.4496829034739
 21
273.37212797791898
 31
0.0
  0
LINE
  5
3471
  8
AM_0
 10
359.4496829034739
 20
299.50457297791888
 30
0.0
 11
382.28439290347382
 21
299.50457297791888
 31
0.0
  0
LINE
  5
3472
  8
AM_0
 10
340.44972290347403
 20
337.1558629779189
 30
0.0
 11
345.44967290347398
 21
337.1558629779189
 31
0.0
  0
LINE
  5
3473
  8
AM_0
 10
308.44968290347401
 20
202.65586097791891
 30
0.0
 11
316.91160290347398
 21
202.43427497791899
 31
0.0
  0
LINE
  5
3474
  8
AM_0
 10
333.44967290347398
 20
315.65588297791891
 30
0.0
 11
333.44967290347398
 21
301.023190977919
 31
0.0
  0
LINE
  5
3475
  8
AM_0
 10
308.44968290347401
 20
329.65586297791901
 30
0.0
 11
336.5020529034739
 21
330.39044297791901
 31
0.0
  0
LINE
  5
3476
  8
AM_0
 10
338.4496829034739
 20
335.15588297791891
 30
0.0
 11
338.4496829034739
 21
319.65584297791901
 31
0.0
  0
LINE
  5
3477
  8
ﾁｭｳｼﾝｾﾝ
 10
88.144541663140345
 20
266.15587997791903
 30
0.0
 11
332.06357009927268
 21
266.15587997791903
 31
0.0
  0
LINE
  5
3478
  8
AM_0
 10
333.44967290347398
 20
210.52587197791891
 30
0.0
 11
337.92966290347402
 21
210.52587197791891
 31
0.0
  0
LINE
  5
3479
  8
AM_0
 10
335.44968290347401
 20
203.55880097791891
 30
0.0
 11
336.44967290347398
 21
203.55880097791891
 31
0.0
  0
LINE
  5
347A
  8
AM_0
 10
333.44967290347398
 20
299.02318997791889
 30
0.0
 11
337.890362903474
 21
299.02318997791889
 31
0.0
  0
LINE
  5
347B
  8
AM_0
 10
335.44968290347401
 20
308.54387297791902
 30
0.0
 11
338.4496829034739
 21
308.54387297791902
 31
0.0
  0
LINE
  5
347C
  8
AM_0
 10
335.44968290347401
 20
317.65586297791901
 30
0.0
 11
336.44967290347398
 21
317.65586297791901
 31
0.0
  0
LINE
  5
347D
  8
AM_0
 10
333.44967290347398
 20
208.52585597791901
 30
0.0
 11
333.44967290347398
 21
203.15587697791889
 31
0.0
  0
LINE
  5
347E
  8
AM_0
 10
338.4496829034739
 20
308.54387297791902
 30
0.0
 11
338.4496829034739
 21
205.55881697791889
 31
0.0
  0
LINE
  5
347F
  8
AM_0
 10
308.44968290347401
 20
317.65586297791901
 30
0.0
 11
334.44972290347403
 21
317.65586297791901
 31
0.0
  0
LINE
  5
3480
  8
AM_0
 10
308.44968290347401
 20
303.30379997791891
 30
0.0
 11
333.44967290347398
 21
303.30379997791891
 31
0.0
  0
LINE
  5
3481
  8
AM_0
 10
308.44968290347401
 20
229.0079449779189
 30
0.0
 11
338.4496829034739
 21
229.0079449779189
 31
0.0
  0
LINE
  5
3482
  8
AM_0
 10
308.44968290347401
 20
214.65586097791891
 30
0.0
 11
338.4496829034739
 21
214.65586097791891
 31
0.0
  0
LINE
  5
3495
  8
AM_0
 10
308.44968290347401
 20
329.65586297791901
 30
0.0
 11
308.44968290347401
 21
202.65581597791891
 31
0.0
  0
ARC
  5
3582
  8
AM_0
 10
360.44967290347398
 20
309.013102977919
 30
0.0
 40
1.0000000199999981
 50
270.0
 51
0.0
  0
ARC
  5
3583
  8
AM_0
 10
360.44967290347398
 20
312.78662297791902
 30
0.0
 40
1.0000000199999981
 50
0.0
 51
90.00000299999769
  0
ARC
  5
3584
  8
AM_0
 10
360.44967290347398
 20
314.78657297791892
 30
0.0
 40
1.0000000199999981
 50
270.0
 51
0.0
  0
ARC
  5
3585
  8
AM_0
 10
360.44967290347398
 20
307.01309297791892
 30
0.0
 40
1.0000000199999981
 50
0.0
 51
90.00000299999769
  0
ARC
  5
3586
  8
AM_0
 10
360.44967290347398
 20
306.12635297791888
 30
0.0
 40
1.0000000199999981
 50
270.0
 51
0.0
  0
ARC
  5
3587
  8
AM_0
 10
360.44967290347398
 20
315.67337297791892
 30
0.0
 40
1.0000000199999981
 50
0.0
 51
90.00000299999769
  0
ARC
  5
3589
  8
AM_0
 10
404.44968290347401
 20
316.40687297791891
 30
0.0
 40
3.0
 50
0.0
 51
84.999996999998885
  0
ARC
  5
358A
  8
AM_0
 10
399.44967290347398
 20
324.87488297791901
 30
0.0
 40
5.0000001000000003
 50
179.999989999999
 51
265.0
  0
ARC
  5
3595
  8
AM_0
 10
357.44967290347398
 20
322.6826329779189
 30
0.0
 40
1.0000000199999981
 50
90.00000299999769
 51
180.00001000000091
  0
ARC
  5
3596
  8
AM_0
 10
384.44967290347398
 20
191.1558619779189
 30
0.0
 40
1.0000000199999981
 50
0.0
 51
90.00000299999769
  0
ARC
  5
3597
  8
AM_0
 10
343.44972290347403
 20
236.68033697791901
 30
0.0
 40
5.0000001000000003
 50
348.0238700000001
 51
0.0
  0
ARC
  5
359C
  8
AM_0
 10
390.44967290347398
 20
222.19666397791889
 30
0.0
 40
4.0000001999999979
 50
270.0
 51
0.0
  0
ARC
  5
35A0
  8
AM_0
 10
389.44968290347401
 20
331.00196297791888
 30
0.0
 40
5.0000001000000003
 50
0.0
 51
88.499997000000647
  0
ARC
  5
35A1
  8
AM_0
 10
412.44969290347382
 20
206.90042897791901
 30
0.0
 40
5.0000001000000003
 50
179.999989999999
 51
235.15011000000041
  0
ARC
  5
35A2
  8
AM_0
 10
408.44967290347392
 20
201.15586097791899
 30
0.0
 40
2.00000007
 50
0.0
 51
90.00000299999769
  0
ARC
  5
35A3
  8
AM_0
 10
318.44967290347398
 20
201.15586097791899
 30
0.0
 40
2.00000007
 50
90.00000299999769
 51
180.00001000000091
  0
ARC
  5
35A4
  8
AM_0
 10
342.44967290347398
 20
191.1558619779189
 30
0.0
 40
1.0000000199999981
 50
90.00000299999769
 51
180.00001000000091
  0
ARC
  5
35A7
  8
AM_0
 10
386.4496829034739
 20
208.1558629779189
 30
0.0
 40
5.0000001000000003
 50
180.00001000000091
 51
270.0
  0
ARC
  5
35AF
  8
AM_0
 10
389.44968290347401
 20
295.9466809779189
 30
0.0
 40
8.0000000999999976
 50
90.00000299999769
 51
180.00001000000091
  0
ARC
  5
35B0
  8
AM_0
 10
337.39902290347402
 20
208.1558629779189
 30
0.0
 40
5.0000001000000003
 50
270.0
 51
348.0238700000001
  0
ARC
  5
35BF
  8
AM_0
 10
357.44967290347398
 20
299.78060597791892
 30
0.0
 40
1.0000000199999981
 50
179.999989999999
 51
270.0
  0
ARC
  5
35C0
  8
AM_0
 10
357.44967290347398
 20
296.78060597791892
 30
0.0
 40
2.00000007
 50
0.0
 51
90.00000299999769
  0
ARC
  5
35C1
  8
AM_0
 10
357.44967290347398
 20
325.6826329779189
 30
0.0
 40
2.00000007
 50
270.0
 51
0.0
  0
ARC
  5
35C2
  8
AM_0
 10
340.44972290347403
 20
335.15588297791891
 30
0.0
 40
2.00000007
 50
90.00000299999769
 51
180.00001000000091
  0
ARC
  5
35C3
  8
AM_0
 10
336.44967290347398
 20
319.65584297791901
 30
0.0
 40
2.00000007
 50
270.0
 51
0.0
  0
ARC
  5
35C4
  8
AM_0
 10
335.44968290347401
 20
315.65588297791891
 30
0.0
 40
2.00000007
 50
90.00000299999769
 51
180.00001000000091
  0
ARC
  5
35C5
  8
AM_0
 10
335.44968290347401
 20
310.54388297791888
 30
0.0
 40
2.00000007
 50
179.999989999999
 51
270.0
  0
ARC
  5
35C6
  8
AM_0
 10
331.44972290347403
 20
301.023190977919
 30
0.0
 40
2.00000007
 50
270.0
 51
0.0
  0
ARC
  5
35C7
  8
AM_0
 10
336.44967290347398
 20
205.55881697791889
 30
0.0
 40
2.00000007
 50
270.0
 51
0.0
  0
ARC
  5
35C8
  8
AM_0
 10
335.44968290347401
 20
201.55879997791899
 30
0.0
 40
2.00000007
 50
90.00000299999769
 51
127.01006999999861
  0
ARC
  5
35C9
  8
AM_0
 10
331.44972290347403
 20
208.52585597791901
 30
0.0
 40
2.00000007
 50
0.0
 51
90.00000299999769
  0
ARC
  5
35D0
  8
AM_0
 10
336.44967290347398
 20
332.38976297791891
 30
0.0
 40
2.00000007
 50
271.50000000000267
 51
0.0
  0
LINE
  5
3F5E
  8
ﾁｭｳｼﾝｾﾝ
 10
607.74105837180332
 20
286.15584797791888
 30
0.0
 11
704.65246385839646
 21
286.15584797791888
 31
0.0
  0
LINE
  5
3F63
  8
ﾁｭｳｼﾝｾﾝ
 10
656.1967611151
 20
377.93840276717452
 30
0.0
 11
656.1967611151
 21
186.92157497791879
 31
0.0
  0
LINE
  5
3F65
  8
AM_0
 10
598.63893211510015
 20
305.1757429779189
 30
0.0
 11
603.21933211509975
 21
308.69045297791882
 31
0.0
  0
LINE
  5
3F66
  8
AM_0
 10
603.21933211509975
 20
308.69042297791867
 30
0.0
 11
602.46573211509985
 21
314.41454297791881
 31
0.0
  0
LINE
  5
3F67
  8
AM_0
 10
602.46573211509985
 20
314.41451297791872
 30
0.0
 11
597.13173211509991
 21
316.6239529779188
 31
0.0
  0
LINE
  5
3F68
  8
AM_0
 10
597.13176211509995
 20
316.6239529779188
 30
0.0
 11
592.55130211510004
 21
313.10927297791881
 31
0.0
  0
LINE
  5
3F69
  8
AM_0
 10
592.55130211510004
 20
313.10927297791881
 30
0.0
 11
593.30487211510012
 21
307.38515297791872
 31
0.0
  0
LINE
  5
3F6A
  8
AM_0
 10
593.30487211510012
 20
307.38515297791872
 30
0.0
 11
598.6389021151
 21
305.17571297791881
 31
0.0
  0
LINE
  5
3F6B
  8
AM_0
 10
709.17423811510014
 20
308.69033297791879
 30
0.0
 11
713.75466811509989
 21
305.17565297791879
 31
0.0
  0
LINE
  5
3F6C
  8
AM_0
 10
709.92781111509964
 20
314.41445297791893
 30
0.0
 11
709.1742081151001
 21
308.69033297791879
 31
0.0
  0
LINE
  5
3F6D
  8
AM_0
 10
715.26185611509993
 20
316.6238929779189
 30
0.0
 11
709.92782611509995
 21
314.41448297791879
 31
0.0
  0
LINE
  5
3F6E
  8
AM_0
 10
719.84228611510014
 20
313.10918297791881
 30
0.0
 11
715.26185611509993
 21
316.62386297791892
 31
0.0
  0
LINE
  5
3F6F
  8
AM_0
 10
713.75466811509989
 20
305.17568297791871
 30
0.0
 11
719.08869811509965
 21
307.38509297791887
 31
0.0
  0
LINE
  5
3F70
  8
AM_0
 10
679.74359011510035
 20
201.76540397791879
 30
0.0
 11
678.99000511510008
 21
196.04129597791891
 31
0.0
  0
LINE
  5
3F71
  8
AM_0
 10
678.99002011510004
 20
196.0412809779188
 30
0.0
 11
683.57044711509968
 21
192.5266039779188
 31
0.0
  0
LINE
  5
3F72
  8
AM_0
 10
685.07765011510003
 20
203.9748289779188
 30
0.0
 11
679.74362011510004
 21
201.76540397791879
 31
0.0
  0
LINE
  5
3F73
  8
AM_0
 10
689.65806511509993
 20
200.4601189779188
 30
0.0
 11
685.07763511509995
 21
203.97481397791881
 31
0.0
  0
LINE
  5
3F74
  8
AM_0
 10
683.57044711509968
 20
192.52661897791879
 30
0.0
 11
688.90447711509989
 21
194.7360439779188
 31
0.0
  0
LINE
  5
3F75
  8
AM_0
 10
688.90444711509997
 20
194.73602897791881
 30
0.0
 11
689.65805011509985
 21
200.46013697791881
 31
0.0
  0
LINE
  5
3F76
  8
AM_0
 10
633.40351711510004
 20
196.04131097791881
 30
0.0
 11
632.64991411510005
 21
201.76541897791881
 31
0.0
  0
LINE
  5
3F77
  8
AM_0
 10
628.82307211509976
 20
192.52661897791879
 30
0.0
 11
633.40351711510004
 21
196.04129597791891
 31
0.0
  0
LINE
  5
3F78
  8
AM_0
 10
632.64994411510008
 20
201.76538897791889
 30
0.0
 11
627.31592911509995
 21
203.97481397791881
 31
0.0
  0
LINE
  5
3F79
  8
AM_0
 10
627.31589911509991
 20
203.9748289779188
 30
0.0
 11
622.73548411509955
 21
200.46013697791881
 31
0.0
  0
LINE
  5
3F7A
  8
AM_0
 10
623.48908711510001
 20
194.73601397791879
 30
0.0
 11
628.82310211510014
 21
192.52658597791881
 31
0.0
  0
LINE
  5
3F7B
  8
AM_0
 10
622.73545411509986
 20
200.4601519779188
 30
0.0
 11
623.48905711510008
 21
194.7360439779188
 31
0.0
  0
LINE
  5
3F8D
  8
AM_0
 10
719.84222311509996
 20
313.10924297791888
 30
0.0
 11
719.08863811509991
 21
307.38515297791872
 31
0.0
  0
LINE
  5
3F97
  8
AM_0
 10
734.19676111509978
 20
203.1558589779188
 30
0.0
 11
723.42834511510011
 21
305.78603297791881
 31
0.0
  0
LINE
  5
3F98
  8
AM_0
 10
702.19677511510008
 20
194.1558589779188
 30
0.0
 11
698.19676111509989
 21
194.1558589779188
 31
0.0
  0
LINE
  5
3F99
  8
AM_0
 10
703.19676211510046
 20
192.15587597791881
 30
0.0
 11
609.19680211510001
 21
192.15587597791881
 31
0.0
  0
LINE
  5
3F9A
  8
AM_0
 10
614.1967581150999
 20
194.1558589779188
 30
0.0
 11
610.19675911510012
 21
194.1558589779188
 31
0.0
  0
LINE
  5
3F9B
  8
AM_0
 10
695.19676111509978
 20
203.1558589779188
 30
0.0
 11
695.19676111509978
 21
197.1558589779188
 31
0.0
  0
LINE
  5
3F9C
  8
AM_0
 10
704.19676111509978
 20
191.1558589779188
 30
0.0
 11
704.19676111509978
 21
201.1558759779189
 31
0.0
  0
LINE
  5
3F9D
  8
ﾁｭｳｼﾝｾﾝ1
 10
591.19677211509986
 20
207.7013149779188
 30
0.0
 11
591.19677211509986
 21
186.6104029779188
 31
0.0
  0
LINE
  5
3F9E
  8
ﾁｭｳｼﾝｾﾝ1
 10
721.1967771151003
 20
207.7013149779188
 30
0.0
 11
721.1967771151003
 21
186.6104029779188
 31
0.0
  0
LINE
  5
3F9F
  8
AM_0
 10
622.19675911510012
 20
208.15585997791879
 30
0.0
 11
690.19677511509997
 21
208.15585997791879
 31
0.0
  0
LINE
  5
3FAF
  8
ｶｸﾚｾﾝ2
 10
597.19680211510001
 20
203.1558589779188
 30
0.0
 11
597.19680211510001
 21
191.1558589779188
 31
0.0
  0
LINE
  5
3FB0
  8
ｶｸﾚｾﾝ2
 10
585.19680211510001
 20
203.1558589779188
 30
0.0
 11
585.19680211510001
 21
191.1558589779188
 31
0.0
  0
LINE
  5
3FB1
  8
AM_0
 10
578.19675211510014
 20
191.1558589779188
 30
0.0
 11
578.19675211510014
 21
203.1558589779188
 31
0.0
  0
LINE
  5
3FB2
  8
AM_0
 10
578.19675211510014
 20
191.1558589779188
 30
0.0
 11
608.19675211510014
 21
191.1558589779188
 31
0.0
  0
LINE
  5
3FB3
  8
AM_0
 10
606.19680211510001
 20
203.1558589779188
 30
0.0
 11
580.19676211509989
 21
203.1558589779188
 31
0.0
  0
LINE
  5
3FB8
  8
ｶｸﾚｾﾝ2
 10
715.19676211510046
 20
203.1558589779188
 30
0.0
 11
715.19676211510046
 21
191.1558589779188
 31
0.0
  0
LINE
  5
3FBD
  8
AM_0
 10
578.19675211510014
 20
203.1558589779188
 30
0.0
 11
588.96519211509985
 21
305.78603297791881
 31
0.0
  0
LINE
  5
3FBF
  8
ｶｸﾚｾﾝ2
 10
727.19677711509996
 20
203.1558589779188
 30
0.0
 11
727.19677711509996
 21
191.1558589779188
 31
0.0
  0
LINE
  5
3FC0
  8
AM_0
 10
734.19676111509978
 20
191.1558589779188
 30
0.0
 11
704.19676111509978
 21
191.1558589779188
 31
0.0
  0
LINE
  5
3FC1
  8
AM_0
 10
706.19676211510046
 20
203.1558589779188
 30
0.0
 11
732.19677811509985
 21
203.1558589779188
 31
0.0
  0
LINE
  5
3FC3
  8
AM_0
 10
617.19675811509967
 20
203.1558589779188
 30
0.0
 11
617.19675811509967
 21
197.1558589779188
 31
0.0
  0
LINE
  5
3FC4
  8
AM_0
 10
608.19675211510014
 20
191.1558589779188
 30
0.0
 11
608.19675211510014
 21
201.1558759779189
 31
0.0
  0
LINE
  5
3FC5
  8
AM_0
 10
709.19676211510046
 20
301.4084029779188
 30
0.0
 11
709.19676211510046
 21
240.1558459779188
 31
0.0
  0
LINE
  5
3FC6
  8
AM_0
 10
734.19676111509978
 20
191.1558589779188
 30
0.0
 11
734.19676111509978
 21
203.1558589779188
 31
0.0
  0
LINE
  5
3FC8
  8
AM_0
 10
603.19680211510001
 20
301.4084029779188
 30
0.0
 11
603.19680211510001
 21
240.1558459779188
 31
0.0
  0
LINE
  5
3FC9
  8
AM_0
 10
608.19675211510014
 20
271.15584797791888
 30
0.0
 11
608.19675211510014
 21
208.15585997791879
 31
0.0
  0
LINE
  5
3FCA
  8
AM_0
 10
704.19676111509978
 20
271.15584797791888
 30
0.0
 11
704.19676111509978
 21
208.15585997791879
 31
0.0
  0
LINE
  5
3FDE
  8
ﾁｭｳｼﾝｾﾝ
 10
730.37115121302895
 20
266.15584697791883
 30
0.0
 11
530.18202097174719
 21
266.15584697791883
 31
0.0
  0
CIRCLE
  5
3FDF
  8
AM_0
 10
597.88530211509999
 20
310.89983297791889
 30
0.0
 40
4.9999998000000003
  0
CIRCLE
  5
3FE0
  8
AM_0
 10
714.50823811509997
 20
310.89977297791887
 30
0.0
 40
4.9999998000000003
  0
CIRCLE
  5
3FE1
  8
AM_0
 10
684.32400211510014
 20
198.2507239779188
 30
0.0
 40
4.9999998000000003
  0
CIRCLE
  5
3FE2
  8
AM_0
 10
628.06946911509988
 20
198.2507239779188
 30
0.0
 40
4.9999998000000003
  0
ARC
  5
3FF2
  8
AM_0
 10
716.78489611509985
 20
297.02783297791882
 30
0.0
 40
3.0
 50
27.000573000003559
 51
84.294260999995842
  0
ARC
  5
3FF5
  8
AM_0
 10
595.60863211510025
 20
297.02783297791882
 30
0.0
 40
3.0
 50
95.705737999992436
 51
152.999419999997
  0
ARC
  5
3FF6
  8
AM_0
 10
603.19680211510001
 20
208.15585997791879
 30
0.0
 40
5.0000001000000003
 50
270.0
 51
0.0
  0
ARC
  5
3FF7
  8
AM_0
 10
608.19675211510014
 20
301.4084029779188
 30
0.0
 40
5.0000001000000003
 50
138.71941000000211
 51
180.00001000000091
  0
ARC
  5
3FF8
  8
AM_0
 10
610.6953231151
 20
316.6892029779188
 30
0.0
 40
3.0
 50
132.00064999999441
 51
189.2943400000016
  0
ARC
  5
3FF9
  8
AM_0
 10
704.19676111509978
 20
301.4084029779188
 30
0.0
 40
5.0000001000000003
 50
0.0
 51
41.280591000003277
  0
ARC
  5
3FFA
  8
AM_0
 10
703.19676211510046
 20
191.1558589779188
 30
0.0
 40
1.0000000199999981
 50
0.0
 51
90.00000299999769
  0
ARC
  5
3FFB
  8
AM_0
 10
609.19680211510001
 20
191.1558589779188
 30
0.0
 40
1.0000000199999981
 50
90.00000299999769
 51
180.00001000000091
  0
ARC
  5
3FFC
  8
AM_0
 10
614.1967581150999
 20
197.1558589779188
 30
0.0
 40
3.0
 50
270.0
 51
0.0
  0
ARC
  5
3FFD
  8
AM_0
 10
610.19675911510012
 20
192.15587597791881
 30
0.0
 40
2.00000007
 50
90.00000299999769
 51
180.00001000000091
  0
ARC
  5
3FFE
  8
AM_0
 10
701.26400611509996
 20
321.9922729779189
 30
0.0
 40
5.0000001000000003
 50
334.93703000000107
 51
64.582444000007499
  0
ARC
  5
4002
  8
AM_0
 10
656.1967611151
 20
266.15584697791883
 30
0.0
 40
71.000000999999983
 50
5.9898141999989969
 51
27.000573000003559
  0
ARC
  5
4003
  8
AM_0
 10
580.19676211509989
 20
201.1558759779189
 30
0.0
 40
2.00000007
 50
90.00000299999769
 51
180.00001000000091
  0
ARC
  5
4005
  8
AM_0
 10
656.1967611151
 20
271.15584797791888
 30
0.0
 40
48.0
 50
0.0
 51
77.663515021271778
  0
ARC
  5
4006
  8
AM_0
 10
656.1967611151
 20
271.15584797791888
 30
0.0
 40
48.0
 50
102.33648497872819
 51
180.00001000000091
  0
ARC
  5
4008
  8
AM_0
 10
593.91849211509987
 20
313.94360297791872
 30
0.0
 40
13.9999986
 50
266.80063999999248
 51
25.062968999998159
  0
ARC
  5
4009
  8
AM_0
 10
709.19676211510046
 20
208.15585997791879
 30
0.0
 40
5.0000001000000003
 50
179.999989999999
 51
270.0
  0
ARC
  5
400A
  8
AM_0
 10
698.19676111509989
 20
197.1558589779188
 30
0.0
 40
3.0
 50
179.999989999999
 51
270.0
  0
ARC
  5
4010
  8
AM_0
 10
606.19680211510001
 20
201.1558759779189
 30
0.0
 40
2.00000007
 50
0.0
 51
90.00000299999769
  0
ARC
  5
4011
  8
AM_0
 10
718.4750361150999
 20
313.94360297791872
 30
0.0
 40
13.9999986
 50
154.93704000000471
 51
273.19937000000078
  0
ARC
  5
4013
  8
AM_0
 10
732.19677811509985
 20
201.1558759779189
 30
0.0
 40
2.00000007
 50
0.0
 51
90.00000299999769
  0
ARC
  5
4014
  8
AM_0
 10
622.19675911510012
 20
203.1558589779188
 30
0.0
 40
5.0000001000000003
 50
90.00000299999769
 51
180.00001000000091
  0
ARC
  5
4015
  8
AM_0
 10
656.1967611151
 20
266.15584697791883
 30
0.0
 40
71.000000999999983
 50
47.99935899999911
 51
132.00064999999441
  0
ARC
  5
4016
  8
AM_0
 10
706.19676211510046
 20
201.1558759779189
 30
0.0
 40
2.00000007
 50
90.00000299999769
 51
180.00001000000091
  0
ARC
  5
4017
  8
AM_0
 10
690.19677511509997
 20
203.1558589779188
 30
0.0
 40
5.0000001000000003
 50
0.0
 51
90.00000299999769
  0
ARC
  5
4018
  8
AM_0
 10
656.1967611151
 20
266.15584697791883
 30
0.0
 40
71.000000999999983
 50
152.999419999997
 51
174.01019000000019
  0
ARC
  5
401B
  8
AM_0
 10
637.19675911510012
 20
240.1558459779188
 30
0.0
 40
34.000002000000002
 50
179.999989999999
 51
211.46696999999929
  0
ARC
  5
401C
  8
AM_0
 10
719.53543111509998
 20
294.97319297791898
 30
0.0
 40
5.0000001000000003
 50
5.9898155000026119
 51
93.199358999991276
  0
ARC
  5
401D
  8
AM_0
 10
702.19677511510008
 20
192.15587597791881
 30
0.0
 40
2.00000007
 50
0.0
 51
90.00000299999769
  0
ARC
  5
401E
  8
AM_0
 10
675.19677511509997
 20
240.1558459779188
 30
0.0
 40
34.000002000000002
 50
328.53302000000161
 51
0.0
  0
ARC
  5
401F
  8
AM_0
 10
409.44966290347412
 20
315.54260297791882
 30
0.0
 40
2.00000007
 50
179.999989999999
 51
240.0000100000054
  0
ARC
  5
4020
  8
AM_0
 10
409.44966290347412
 20
256.76909597791882
 30
0.0
 40
2.00000007
 50
120.0000000000001
 51
180.00001000000091
  0
ARC
  5
4021
  8
AM_0
 10
608.85600211509984
 20
303.69899297791892
 30
0.0
 40
20.000000700000001
 50
121.7361700000021
 51
174.01019000000019
  0
ARC
  5
4022
  8
AM_0
 10
703.5375351150999
 20
303.69899297791892
 30
0.0
 40
20.000000700000001
 50
5.9898155000026119
 51
58.263835999999969
  0
ARC
  5
4023
  8
AM_0
 10
611.12952811510013
 20
321.9922729779189
 30
0.0
 40
5.0000001000000003
 50
115.41756000000269
 51
205.06296999999901
  0
ARC
  5
4024
  8
AM_0
 10
656.1967611151
 20
227.15586197791879
 30
0.0
 40
110.000004
 50
58.263835999999969
 51
121.7361700000021
  0
ARC
  5
4025
  8
AM_0
 10
701.69822611509994
 20
316.6892029779188
 30
0.0
 40
3.0
 50
350.70566999999772
 51
47.99935899999911
  0
ARC
  5
4026
  8
AM_0
 10
592.85811211509974
 20
294.97319297791898
 30
0.0
 40
5.0000001000000003
 50
86.800639000002249
 51
174.01019000000019
  0
LINE
  5
404B
  8
AM_0
 10
413.44963290347363
 20
319.65584497791889
 30
0.0
 11
418.4496329034738
 21
314.655844977919
 31
0.0
  0
LINE
  5
404C
  8
AM_0
 10
408.94963290347363
 20
319.65584497791889
 30
0.0
 11
413.44963290347363
 21
319.65584497791889
 31
0.0
  0
LINE
  5
404D
  8
AM_0
 10
408.44963290347363
 20
319.15584497791878
 30
0.0
 11
408.44963290347329
 21
253.15584497791929
 31
0.0
  0
LINE
  5
404E
  8
AM_0
 10
418.4496329034738
 20
314.655844977919
 30
0.0
 11
418.4496329034738
 21
257.65584497791889
 31
0.0
  0
LINE
  5
404F
  8
AM_0
 10
408.94963290347363
 20
252.6558449779188
 30
0.0
 11
413.44963290347363
 21
252.6558449779188
 31
0.0
  0
LINE
  5
4050
  8
AM_0
 10
413.44963290347363
 20
252.6558449779188
 30
0.0
 11
418.4496329034738
 21
257.65584497791889
 31
0.0
  0
LINE
  5
4051
  8
AM_0
 10
408.94963290347363
 20
319.65584497791889
 30
0.0
 11
408.44963290347363
 21
319.15584497791878
 31
0.0
1001
GENIUS_GENFIL_13
1070
     0
1040
0.5
1040
0.5
1040
20.0
1040
0.0
1002
{
1002
}
1001
GENIUS_GENOBJ-N-CHA_13
1002
{
1000
OWNER
1000
GEN
1002
}
1001
GENIUS_GENODEF_13
1002
{
1000
HIER
1070
     0
1002
}
1002
{
1000
MANEDIT
1070
     0
1002
}
1002
{
1000
NOSEL
1070
     0
1002
}
1002
{
1000
BEHIND
1070
     0
1002
}
1002
{
1000
OTHER
1070
     0
1002
}
1002
{
1000
REACTOR
1002
}
  0
LINE
  5
4052
  8
AM_0
 10
408.44963290347363
 20
253.1558449779188
 30
0.0
 11
408.94963290347363
 21
252.6558449779188
 31
0.0
1001
GENIUS_GENFIL_13
1070
     0
1040
0.5
1040
0.5
1040
20.0
1040
0.0
1002
{
1002
}
1001
GENIUS_GENOBJ-N-CHA_13
1002
{
1000
OWNER
1000
GEN
1002
}
1001
GENIUS_GENODEF_13
1002
{
1000
HIER
1070
     0
1002
}
1002
{
1000
MANEDIT
1070
     0
1002
}
1002
{
1000
NOSEL
1070
     0
1002
}
1002
{
1000
BEHIND
1070
     0
1002
}
1002
{
1000
OTHER
1070
     0
1002
}
1002
{
1000
REACTOR
1002
}
  0
LINE
  5
4053
  8
AM_0
 10
413.44963290347363
 20
319.65584497791889
 30
0.0
 11
413.44963290347363
 21
252.6558449779188
 31
0.0
  0
CIRCLE
  5
4054
  8
AM_0
 10
656.1967611151
 20
286.15584797791888
 30
0.0
 40
33.499999999999893
  0
CIRCLE
  5
4055
  8
AM_0
 10
656.1967611151
 20
286.15584797791888
 30
0.0
 40
28.49999999999994
  0
LINE
  5
4472
  8
ﾁｭｳｼﾝｾﾝ1
 10
398.4496829034739
 20
207.7013329779189
 30
0.0
 11
398.4496829034739
 21
186.61042097791889
 31
0.0
  0
LINE
  5
4473
  8
ｶｸﾚｾﾝ2
 10
404.44971290347382
 20
203.15587697791889
 30
0.0
 11
404.44971290347382
 21
191.15587697791889
 31
0.0
  0
LINE
  5
4474
  8
ｶｸﾚｾﾝ2
 10
392.44971290347382
 20
203.15587697791889
 30
0.0
 11
392.44971290347382
 21
191.15587697791889
 31
0.0
  0
LINE
  5
4475
  8
ﾁｭｳｼﾝｾﾝ1
 10
328.44972290347403
 20
207.7013329779189
 30
0.0
 11
328.44972290347403
 21
186.61042097791889
 31
0.0
  0
LINE
  5
4476
  8
ｶｸﾚｾﾝ2
 10
334.44975290347389
 20
203.15587697791889
 30
0.0
 11
334.44975290347389
 21
191.15587697791889
 31
0.0
  0
LINE
  5
4477
  8
ｶｸﾚｾﾝ2
 10
322.44975290347389
 20
203.15587697791889
 30
0.0
 11
322.44975290347389
 21
191.15587697791889
 31
0.0
  0
LINE
  5
4BB5
  8
AM_0
 10
420.44964290347377
 20
303.15589397791882
 30
0.0
 11
420.44964290347377
 21
300.15589397791871
 31
0.0
  0
LINE
  5
4BB6
  8
AM_0
 10
420.44964290347377
 20
303.15589397791882
 30
0.0
 11
452.44968290347367
 21
303.15589397791882
 31
0.0
  0
LINE
  5
4BB7
  8
AM_0
 10
418.4496329034738
 20
272.15587697791869
 30
0.0
 11
452.44968290347367
 21
272.15587697791869
 31
0.0
  0
LINE
  5
4BB8
  8
AM_0
 10
418.44963290347351
 20
300.15589397791871
 30
0.0
 11
452.44968290347367
 21
300.15589397791871
 31
0.0
  0
LINE
  5
4BB9
  8
AM_0
 10
452.44968290347367
 20
303.15589397791882
 30
0.0
 11
452.44968290347367
 21
272.15587697791869
 31
0.0
  0
LINE
  5
4BBA
  8
AM_0
 10
652.19675911510001
 20
303.15589397791882
 30
0.0
 11
660.19674511509982
 21
303.15589397791882
 31
0.0
  0
LINE
  5
4BBB
  8
AM_0
 10
652.19675911510001
 20
296.15587397791882
 30
0.0
 11
660.19674511509982
 21
296.15587397791882
 31
0.0
  0
LINE
  5
4BBC
  8
AM_0
 10
660.19674511509982
 20
296.15587397791882
 30
0.0
 11
660.19674511509982
 21
303.15589397791882
 31
0.0
  0
LINE
  5
4BBD
  8
AM_0
 10
652.19675911510001
 20
296.15587397791882
 30
0.0
 11
652.19675911510001
 21
303.15589397791882
 31
0.0
  0
CIRCLE
  5
4BBE
  8
AM_5
 10
656.1967611151
 20
286.15584797791888
 30
0.0
 40
4.0000001999999979
  0
ARC
  5
4BBF
  8
AM_0
 10
656.1967611151
 20
286.15584797791888
 30
0.0
 40
14.000001299999999
 50
106.60154000000141
 51
73.398451999997818
  0
CIRCLE
  5
4BC0
  8
AM_0
 10
656.1967611151
 20
286.15584797791888
 30
0.0
 40
3.0
  0
LINE
  5
4E4C
  8
AM_0
 10
580.1967611151
 20
232.65397755033129
 30
0.0
 11
580.1967611151
 21
299.65397755033132
 31
0.0
  0
LINE
  5
4E4D
  8
AM_0
 10
579.1967611151
 20
299.65397755033132
 30
0.0
 11
582.19676111509989
 21
299.65397755033132
 31
0.0
  0
LINE
  5
4E4E
  8
AM_0
 10
541.19676111509966
 20
220.15397755033129
 30
0.0
 11
577.2665601085049
 21
221.41356268659371
 31
0.0
  0
LINE
  5
4E4F
  8
AM_0
 10
579.1967611151
 20
223.4123443406319
 30
0.0
 11
579.1967611151
 21
308.89561076003088
 31
0.0
  0
ARC
  5
4E50
  8
AM_0
 10
577.1967611151
 20
223.4123443406319
 30
0.0
 40
2.0
 50
271.9999999999971
 51
0.0
1001
GENIUS_GENODEF_13
1002
{
1000
HIER
1070
     0
1002
}
1002
{
1000
MANEDIT
1070
     0
1002
}
1002
{
1000
NOSEL
1070
     0
1002
}
1002
{
1000
BEHIND
1070
     0
1002
}
1002
{
1000
OTHER
1070
     0
1002
}
1002
{
1000
REACTOR
1002
}
1001
GENIUS_GENOBJ-N-FIL_13
1002
{
1000
OWNER
1000
GEN
1002
}
  0
LINE
  5
4E51
  8
AM_0
 10
577.2665601085049
 20
310.8943924140691
 30
0.0
 11
541.19676111509978
 21
312.15397755033138
 31
0.0
  0
ARC
  5
4E52
  8
AM_0
 10
577.1967611151
 20
308.89561076003088
 30
0.0
 40
2.0
 50
0.0
 51
88.000000000002899
1001
GENIUS_GENOBJ-N-FIL_13
1002
{
1000
OWNER
1000
GEN
1002
}
1001
GENIUS_GENODEF_13
1002
{
1000
HIER
1070
     0
1002
}
1002
{
1000
MANEDIT
1070
     0
1002
}
1002
{
1000
NOSEL
1070
     0
1002
}
1002
{
1000
BEHIND
1070
     0
1002
}
1002
{
1000
OTHER
1070
     0
1002
}
1002
{
1000
REACTOR
1002
}
  0
LINE
  5
4E53
  8
AM_0
 10
541.19676111509978
 20
312.15397755033138
 30
0.0
 11
541.19676111509966
 21
220.15397755033109
 31
0.0
  0
LINE
  5
4E54
  8
ﾁｭｳｼﾝｾﾝ1
 10
530.19676111509955
 20
225.153977550332
 30
0.0
 11
546.02428412763663
 21
225.15397755033189
 31
0.0
  0
LINE
  5
4E55
  8
AM_0
 10
537.19676111509978
 20
312.15397755033138
 30
0.0
 11
537.19676111509978
 21
291.339472650799
 31
0.0
  0
LINE
  5
4E56
  8
AM_0
 10
537.19676111509966
 20
240.9684824498637
 30
0.0
 11
537.19676111509966
 21
220.15397755033209
 31
0.0
  0
LINE
  5
4E57
  8
AM_0
 10
533.19676111509978
 20
306.0181958811707
 30
0.0
 11
533.19676111509966
 21
226.28975921949191
 31
0.0
  0
LINE
  5
4E58
  8
AM_0
 10
535.13782360297205
 20
229.06133252263839
 30
0.0
 11
536.19676111509989
 21
229.15397755033189
 31
0.0
  0
LINE
  5
4E59
  8
AM_0
 10
535.13782360297205
 20
221.24662257802541
 30
0.0
 11
536.19676111509989
 21
221.15397755033189
 31
0.0
  0
ARC
  5
4E5A
  8
AM_0
 10
539.59676111509987
 20
225.15397755033189
 30
0.0
 40
6.5
 50
151.82726586813479
 51
208.1727341318651
  0
ARC
  5
4E5B
  8
AM_0
 10
535.27727279136855
 20
222.84053409497221
 30
0.0
 40
1.6000000000000001
 50
208.1727341318651
 51
265.00000000000028
  0
LINE
  5
4E5C
  8
AM_0
 10
533.51728745367166
 20
227.45397755033181
 30
0.0
 11
535.80684713246717
 21
225.15397755033189
 31
0.0
  0
LINE
  5
4E5D
  8
AM_0
 10
535.49676111509984
 20
225.46547755033191
 30
0.0
 11
535.49676111509984
 21
224.84247755033189
 31
0.0
  0
LINE
  5
4E5E
  8
AM_0
 10
533.51728745367166
 20
222.8539775503319
 30
0.0
 11
535.80684713246717
 21
225.15397755033189
 31
0.0
  0
LINE
  5
4E5F
  8
AM_0
 10
533.10422942476521
 20
225.46547755033191
 30
0.0
 11
535.49676111509984
 21
225.46547755033191
 31
0.0
  0
LINE
  5
4E60
  8
AM_0
 10
533.10422942476521
 20
224.84247755033189
 30
0.0
 11
535.49676111509984
 21
224.84247755033189
 31
0.0
  0
ARC
  5
4E61
  8
AM_0
 10
535.27727279136855
 20
227.46742100569151
 30
0.0
 40
1.6000000000000001
 50
94.99999999999973
 51
151.82726586813479
  0
LINE
  5
4E62
  8
AM_0
 10
537.19676111509978
 20
312.15397755033138
 30
0.0
 11
541.19676111509978
 21
312.15397755033138
 31
0.0
  0
LINE
  5
4E63
  8
AM_0
 10
536.19676111509955
 20
311.15397755033121
 30
0.0
 11
537.19676111510012
 21
312.15397755033138
 31
0.0
  0
LINE
  5
4E64
  8
AM_0
 10
541.19676111509966
 20
220.15397755033109
 30
0.0
 11
537.19676111509966
 21
220.15397755033209
 31
0.0
  0
LINE
  5
4E65
  8
AM_0N
 10
537.19676111509966
 20
228.95397755033201
 30
0.0
 11
536.19676111509989
 21
228.95397755033201
 31
0.0
  0
LINE
  5
4E66
  8
AM_0N
 10
536.19676111509989
 20
225.3539775503319
 30
0.0
 11
537.19676111509966
 21
225.7179477845981
 31
0.0
  0
LINE
  5
4E67
  8
AM_0N
 10
536.19676111509989
 20
224.95397755033201
 30
0.0
 11
537.19676111509966
 21
225.31794778459809
 31
0.0
  0
LINE
  5
4E68
  8
AM_0N
 10
536.19676111509989
 20
221.15397755033189
 30
0.0
 11
536.19676111509989
 21
229.15397755033189
 31
0.0
  0
LINE
  5
4E69
  8
AM_0N
 10
536.19676111509989
 20
221.3539775503319
 30
0.0
 11
537.19676111509966
 21
221.3539775503319
 31
0.0
  0
LINE
  5
4E6A
  8
AM_0
 10
533.19676111509966
 20
240.96848244986359
 30
0.0
 11
537.19676111509966
 21
240.9684824498637
 31
0.0
  0
LINE
  5
4E6B
  8
AM_0
 10
537.19676111509966
 20
239.3116282003711
 30
0.0
 11
533.19676111509966
 21
240.96848244986359
 31
0.0
  0
LINE
  5
4E6C
  8
AM_0
 10
533.19676111509978
 20
291.339472650799
 30
0.0
 11
537.19676111509978
 21
291.339472650799
 31
0.0
  0
LINE
  5
4E6D
  8
AM_0
 10
537.19676111509978
 20
292.99632690029148
 30
0.0
 11
533.19676111509978
 21
291.339472650799
 31
0.0
  0
LINE
  5
4E6E
  8
ﾁｭｳｼﾝｾﾝ1
 10
530.1967611151
 20
307.15397755033052
 30
0.0
 11
546.02428412763663
 21
307.15397755033069
 31
0.0
  0
LINE
  5
4E6F
  8
AM_0
 10
535.13782360297205
 20
303.24662257802419
 30
0.0
 11
536.19676111509989
 21
303.15397755033081
 31
0.0
  0
LINE
  5
4E70
  8
AM_0
 10
535.13782360297205
 20
311.06133252263709
 30
0.0
 11
536.19676111509989
 21
311.15397755033069
 31
0.0
  0
ARC
  5
4E71
  8
AM_0
 10
539.59676111509987
 20
307.15397755033069
 30
0.0
 40
6.5
 50
151.82726586813479
 51
208.1727341318651
  0
ARC
  5
4E72
  8
AM_0
 10
535.27727279136855
 20
309.46742100569043
 30
0.0
 40
1.6000000000000001
 50
94.99999999999973
 51
151.82726586813479
  0
LINE
  5
4E73
  8
AM_0
 10
533.51728745367166
 20
304.8539775503308
 30
0.0
 11
535.80684713246717
 21
307.15397755033069
 31
0.0
  0
LINE
  5
4E74
  8
AM_0
 10
535.49676111509984
 20
306.84247755033073
 30
0.0
 11
535.49676111509984
 21
307.46547755033077
 31
0.0
  0
LINE
  5
4E75
  8
AM_0
 10
533.51728745367166
 20
309.45397755033071
 30
0.0
 11
535.80684713246717
 21
307.15397755033069
 31
0.0
  0
LINE
  5
4E76
  8
AM_0
 10
533.10422942476521
 20
306.84247755033073
 30
0.0
 11
535.49676111509984
 21
306.84247755033073
 31
0.0
  0
LINE
  5
4E77
  8
AM_0
 10
533.10422942476521
 20
307.46547755033077
 30
0.0
 11
535.49676111509984
 21
307.46547755033077
 31
0.0
  0
ARC
  5
4E78
  8
AM_0
 10
535.27727279136855
 20
304.84053409497102
 30
0.0
 40
1.6000000000000001
 50
208.1727341318651
 51
265.00000000000028
  0
LINE
  5
4E79
  8
AM_0N
 10
537.19676111509966
 20
303.35397755033068
 30
0.0
 11
536.19676111509989
 21
303.35397755033068
 31
0.0
  0
LINE
  5
4E7A
  8
AM_0N
 10
536.19676111509989
 20
306.95397755033082
 30
0.0
 11
537.19676111509966
 21
306.5900073160646
 31
0.0
  0
LINE
  5
4E7B
  8
AM_0N
 10
536.19676111509989
 20
307.35397755033068
 30
0.0
 11
537.19676111509966
 21
306.99000731606452
 31
0.0
  0
LINE
  5
4E7C
  8
AM_0N
 10
536.19676111509989
 20
311.15397755033069
 30
0.0
 11
536.19676111509989
 21
303.15397755033081
 31
0.0
  0
LINE
  5
4E7D
  8
AM_0N
 10
536.19676111509989
 20
310.95397755033082
 30
0.0
 11
537.19676111509966
 21
310.95397755033082
 31
0.0
  0
LINE
  5
4E7E
  8
AM_0
 10
587.96663607025755
 20
296.26915025108798
 30
0.0
 11
582.19676111509989
 21
296.1147926777237
 31
0.0
  0
LINE
  5
4E80
  8
AM_0
 10
582.19676111509989
 20
241.27852295445999
 30
0.0
 11
582.19676111509989
 21
299.65397755033132
 31
0.0
  0
LINE
  5
4E81
  8
AM_0
 10
579.1967611151
 20
232.6539775503314
 30
0.0
 11
581.29183329424632
 21
232.6539775503314
 31
0.0
  0
LINE
  5
5AA0
  8
ﾁｭｳｼﾝｾﾝ1
 10
168.46618573789851
 20
281.15587397791899
 30
0.0
 11
206.44967290347401
 21
281.15587397791899
 31
0.0
  0
LINE
  5
5AA1
  8
AM_0
 10
153.94968290347401
 20
323.5983202897275
 30
0.0
 11
153.94968290347401
 21
247.87437507050009
 31
0.0
  0
LINE
  5
5AA2
  8
AM_0
 10
153.94968290347401
 20
241.71629805685521
 30
0.0
 11
153.94968290347401
 21
208.71346496370609
 31
0.0
  0
LINE
  5
5AA3
  8
AM_0
 10
198.44967290347401
 20
219.80587997791889
 30
0.0
 11
163.44966290347401
 21
221.83588097791889
 31
0.0
  0
LINE
  5
5AA4
  8
AM_0
 10
198.44967290347401
 20
312.50588897791891
 30
0.0
 11
163.44966290347401
 21
310.47587897791902
 31
0.0
  0
LINE
  5
5AA5
  8
AM_0
 10
153.94968290347401
 20
208.71346496370609
 30
0.0
 11
156.2696729034738
 21
208.65586997791891
 31
0.0
  0
LINE
  5
5AA6
  8
AM_0
 10
301.44972290347403
 20
202.6558849779189
 30
0.0
 11
308.44968290347401
 21
202.6558849779189
 31
0.0
  0
LINE
  5
5AA7
  8
AM_0
 10
301.44972290347403
 20
214.1158789779189
 30
0.0
 11
308.44968290347401
 21
214.1158789779189
 31
0.0
  0
LINE
  5
5AA8
  8
AM_0
 10
198.44967290347401
 20
219.80587997791889
 30
0.0
 11
300.4496729034741
 21
219.80587997791889
 31
0.0
  0
LINE
  5
5AA9
  8
AM_0
 10
300.15969290347402
 20
215.12587397791901
 30
0.0
 11
297.74973290347401
 21
215.12587397791901
 31
0.0
  0
LINE
  5
5AAA
  8
AM_0
 10
297.24966290347402
 20
207.23587397791891
 30
0.0
 11
298.68966290347402
 21
213.93586997791891
 31
0.0
  0
LINE
  5
5AAB
  8
AM_0
 10
295.15968290347399
 20
205.65588797791901
 30
0.0
 11
300.4496729034741
 21
205.65588797791901
 31
0.0
  0
LINE
  5
5AAC
  8
AM_0
 10
158.1296729034741
 20
232.78586297791901
 30
0.0
 11
201.44967290347401
 21
232.78586297791901
 31
0.0
  0
LINE
  5
5AAD
  8
AM_0
 10
201.44967290347401
 20
230.15587097791899
 30
0.0
 11
158.99973290347401
 21
230.15587097791899
 31
0.0
  0
LINE
  5
5AAE
  8
AM_0
 10
158.1296729034741
 20
229.4358859779189
 30
0.0
 11
201.44967290347401
 21
229.4358859779189
 31
0.0
  0
LINE
  5
5AAF
  8
AM_0
 10
153.94968290347401
 20
231.8558689779189
 30
0.0
 11
156.61971290347401
 21
231.8558689779189
 31
0.0
  0
LINE
  5
5AB0
  8
AM_0
 10
159.61971290347401
 20
207.89587697791899
 30
0.0
 11
172.94967290347401
 21
207.89587697791899
 31
0.0
  0
LINE
  5
5AB1
  8
AM_0
 10
176.44968290347401
 20
204.2958709779189
 30
0.0
 11
293.25966290347401
 21
204.2958709779189
 31
0.0
  0
LINE
  5
5AB2
  8
AM_0
 10
159.55965290347399
 20
202.8558829779189
 30
0.0
 11
173.0596529034739
 21
202.8558829779189
 31
0.0
  0
LINE
  5
5AB3
  8
AM_0
 10
159.6797129034739
 20
213.17586197791891
 30
0.0
 11
172.94967290347401
 21
213.17586197791891
 31
0.0
  0
LINE
  5
5AB4
  8
AM_0
 10
157.16964290347411
 20
217.80588197791889
 30
0.0
 11
157.709672903474
 21
214.8158749779189
 31
0.0
  0
LINE
  5
5AB5
  8
AM_0
 10
153.94968290347401
 20
217.8058669779189
 30
0.0
 11
163.44972290347411
 21
217.8058669779189
 31
0.0
  0
LINE
  5
5AB6
  8
AM_0
 10
163.44972290347411
 20
217.8058669779189
 30
0.0
 11
163.44972290347411
 21
231.8558689779189
 31
0.0
  0
LINE
  5
5AB7
  8
AM_0
 10
295.18965290347398
 20
205.775881977919
 30
0.0
 11
298.64967290347403
 21
218.69587997791891
 31
0.0
  0
LINE
  5
5AB8
  8
AM_0
 10
157.61964290347419
 20
204.3658789779189
 30
0.0
 11
156.72963290347411
 21
207.90586997791891
 31
0.0
  0
LINE
  5
5AB9
  8
AM_0
 10
157.6396829034741
 20
206.025880977919
 30
0.0
 11
156.7196429034741
 21
209.9058859779189
 31
0.0
  0
LINE
  5
5ABA
  8
AM_0
 10
231.4496729034741
 20
202.24586897791889
 30
0.0
 11
231.4496729034741
 21
204.2958709779189
 31
0.0
  0
LINE
  5
5ABB
  8
AM_0
 10
174.44967290347401
 20
204.26588597791891
 30
0.0
 11
174.44967290347401
 21
211.67585897791889
 31
0.0
  0
LINE
  5
5ABC
  8
AM_0
 10
155.27967290347411
 20
209.03587697791889
 30
0.0
 11
156.92970290347401
 21
209.03587697791889
 31
0.0
  0
LINE
  5
5ABD
  8
AM_0
 10
198.44967290347401
 20
312.50585897791888
 30
0.0
 11
300.4496729034741
 21
312.50585897791888
 31
0.0
  0
LINE
  5
5ABE
  8
AM_0
 10
300.4496729034741
 20
328.65587897791892
 30
0.0
 11
300.4496729034741
 21
203.65587197791891
 31
0.0
  0
LINE
  5
5ABF
  8
AM_0
 10
301.44972290347403
 20
329.65586897791889
 30
0.0
 11
308.44968290347401
 21
329.65586897791889
 31
0.0
  0
LINE
  5
5AC0
  8
AM_0
 10
300.4496729034741
 20
303.30586697791892
 30
0.0
 11
308.44968290347401
 21
303.30586697791892
 31
0.0
  0
LINE
  5
5AC1
  8
AM_0
 10
301.44972290347403
 20
318.19583897791892
 30
0.0
 11
308.44968290347401
 21
318.19583897791892
 31
0.0
  0
LINE
  5
5AC2
  8
AM_0
 10
300.4496729034741
 20
229.00587797791891
 30
0.0
 11
308.44968290347401
 21
229.00587797791891
 31
0.0
  0
LINE
  5
5AC3
  8
AM_0
 10
153.94968290347401
 20
323.59832028972738
 30
0.0
 11
156.2696129034741
 21
323.65589897791892
 31
0.0
  0
LINE
  5
5AC4
  8
AM_0
 10
163.44972290347411
 20
314.50586897791902
 30
0.0
 11
163.44972290347411
 21
300.46587197791888
 31
0.0
  0
LINE
  5
5AC5
  8
AM_0
 10
153.94968290347401
 20
300.46587197791888
 30
0.0
 11
163.44972290347411
 21
300.46587197791888
 31
0.0
  0
LINE
  5
5AC6
  8
AM_0
 10
153.94968290347401
 20
308.845888977919
 30
0.0
 11
163.44972290347411
 21
308.845888977919
 31
0.0
  0
LINE
  5
5AC7
  8
AM_0
 10
153.94968290347401
 20
314.50586897791902
 30
0.0
 11
163.44972290347411
 21
314.50586897791902
 31
0.0
  0
LINE
  5
5AC8
  8
AM_0
 10
178.74135123680611
 20
252.15588797791889
 30
0.0
 11
158.99973290347401
 21
252.15588797791901
 31
0.0
  0
LINE
  5
5AC9
  8
AM_0
 10
176.44968290347401
 20
328.01588897791891
 30
0.0
 11
293.25966290347401
 21
328.01588897791891
 31
0.0
  0
LINE
  5
5ACA
  8
AM_0
 10
159.6797129034739
 20
319.13588897791891
 30
0.0
 11
172.94967290347401
 21
319.13588897791891
 31
0.0
  0
LINE
  5
5ACB
  8
AM_0
 10
157.16970290347399
 20
314.50589897791889
 30
0.0
 11
157.709672903474
 21
317.49590897791887
 31
0.0
  0
LINE
  5
5ACC
  8
AM_0
 10
159.61971290347401
 20
324.42584897791892
 30
0.0
 11
172.94967290347401
 21
324.42584897791892
 31
0.0
  0
LINE
  5
5ACD
  8
AM_0
 10
159.58968290347411
 20
327.8258689779189
 30
0.0
 11
172.94967290347401
 21
327.8258689779189
 31
0.0
  0
LINE
  5
5ACE
  8
AM_0
 10
159.55965290347399
 20
329.45585897791892
 30
0.0
 11
173.0596529034739
 21
329.45585897791892
 31
0.0
  0
LINE
  5
5ACF
  8
AM_0
 10
176.44968290347401
 20
332.07587897791888
 30
0.0
 11
229.44972290347411
 21
332.07587897791888
 31
0.0
  0
LINE
  5
5AD0
  8
AM_0
 10
176.44968290347401
 20
331.39586897791901
 30
0.0
 11
229.44972290347411
 21
331.39586897791901
 31
0.0
  0
LINE
  5
5AD1
  8
AM_0
 10
176.44968290347401
 20
330.04589897791902
 30
0.0
 11
229.44972290347411
 21
330.04589897791902
 31
0.0
  0
LINE
  5
5AD2
  8
AM_0
 10
155.239652903474
 20
317.19587897791888
 30
0.0
 11
157.64967290347411
 21
317.19587897791888
 31
0.0
  0
LINE
  5
5AD3
  8
AM_0
 10
157.65963290347381
 20
322.84589897791892
 30
0.0
 11
156.69960290347399
 21
318.37589897791889
 31
0.0
  0
LINE
  5
5AD4
  8
AM_0
 10
155.25966290347401
 20
321.25586897791902
 30
0.0
 11
157.31973290347401
 21
321.25586897791902
 31
0.0
  0
LINE
  5
5AD5
  8
AM_0
 10
201.44967290347401
 20
302.15587397791887
 30
0.0
 11
167.99973290347401
 21
302.15587397791887
 31
0.0
  0
LINE
  5
5AD6
  8
AM_0
 10
201.44967290347401
 20
300.15587297791888
 30
0.0
 11
167.99973290347401
 21
300.15587297791888
 31
0.0
  0
LINE
  5
5AD7
  8
AM_0
 10
175.05100300712809
 20
292.15587497791881
 30
0.0
 11
167.99942610180841
 21
292.15587497791881
 31
0.0
  0
LINE
  5
5AD8
  8
AM_0
 10
157.6396829034741
 20
326.28587897791891
 30
0.0
 11
156.7197029034738
 21
322.40588897791901
 31
0.0
  0
LINE
  5
5AD9
  8
AM_0
 10
172.6510018071283
 20
290.15587397791899
 30
0.0
 11
167.99973290347401
 21
290.15587397791899
 31
0.0
  0
LINE
  5
5ADA
  8
AM_0
 10
155.27967290347411
 20
323.27585897791892
 30
0.0
 11
156.92970290347401
 21
323.27585897791892
 31
0.0
  0
LINE
  5
5ADB
  8
AM_0
 10
157.61964290347419
 20
327.94586897791891
 30
0.0
 11
156.72963290347411
 21
324.41588897791888
 31
0.0
  0
LINE
  5
5ADC
  8
AM_0
 10
172.0510018071281
 20
282.15587297791888
 30
0.0
 11
158.99973290347401
 21
282.15587297791888
 31
0.0
  0
LINE
  5
5ADD
  8
AM_0
 10
174.44967290347401
 20
328.04585897791901
 30
0.0
 11
174.44967290347401
 21
320.63588897791891
 31
0.0
  0
LINE
  5
5ADE
  8
AM_0
 10
172.0510018071281
 20
280.15587497791893
 30
0.0
 11
158.99973290347401
 21
280.15587497791893
 31
0.0
  0
LINE
  5
5ADF
  8
AM_0
 10
172.65100180712781
 20
272.15587397791899
 30
0.0
 11
158.99973290347401
 21
272.15587397791899
 31
0.0
  0
LINE
  5
5AE0
  8
AM_0
 10
231.4496729034741
 20
330.0758689779189
 30
0.0
 11
231.4496729034741
 21
328.01588897791891
 31
0.0
  0
LINE
  5
5AE1
  8
AM_0
 10
175.41305174230999
 20
270.15587297791888
 30
0.0
 11
158.99973290347401
 21
270.15587297791888
 31
0.0
  0
LINE
  5
5AE2
  8
AM_0
 10
295.18965290347398
 20
326.53586897791888
 30
0.0
 11
298.64967290347403
 21
313.61588897791893
 31
0.0
  0
LINE
  5
5AE3
  8
AM_0
 10
295.15968290347399
 20
326.655868977919
 30
0.0
 11
300.4496729034741
 21
326.655868977919
 31
0.0
  0
LINE
  5
5AE4
  8
AM_0
 10
300.15969290347402
 20
317.19587897791888
 30
0.0
 11
297.74973290347401
 21
317.19587897791888
 31
0.0
  0
LINE
  5
5AE5
  8
AM_0
 10
297.24972290347398
 20
325.07588897791902
 30
0.0
 11
298.68972290347398
 21
318.37589897791889
 31
0.0
  0
LINE
  5
5AE6
  8
AM_0
 10
176.44968290347401
 20
200.23587197791889
 30
0.0
 11
229.44972290347411
 21
200.23587197791889
 31
0.0
  0
LINE
  5
5AE7
  8
AM_0
 10
159.58968290347411
 20
204.48588797791899
 30
0.0
 11
172.94967290347401
 21
204.48588797791899
 31
0.0
  0
LINE
  5
5AE8
  8
AM_0
 10
153.94968290347401
 20
223.46586797791889
 30
0.0
 11
163.44972290347411
 21
223.46586797791889
 31
0.0
  0
LINE
  5
5AE9
  8
AM_0
 10
176.44968290347401
 20
200.9158819779189
 30
0.0
 11
229.44972290347411
 21
200.9158819779189
 31
0.0
  0
LINE
  5
5AEA
  8
AM_0
 10
155.25966290347401
 20
211.0558639779189
 30
0.0
 11
157.31973290347401
 21
211.0558639779189
 31
0.0
  0
LINE
  5
5AEB
  8
AM_0
 10
155.239652903474
 20
215.12587397791901
 30
0.0
 11
157.64967290347411
 21
215.12587397791901
 31
0.0
  0
LINE
  5
5AEC
  8
AM_0
 10
157.659692903474
 20
209.47587797791891
 30
0.0
 11
156.69966290347401
 21
213.93586997791891
 31
0.0
  0
LINE
  5
5AED
  8
AM_0
 10
176.44968290347401
 20
202.26587297791889
 30
0.0
 11
229.44972290347411
 21
202.26587297791889
 31
0.0
  0
LINE
  5
5AEE
  8
AM_0
 10
157.90968290347399
 20
239.66586797791899
 30
0.0
 11
179.14967790347299
 21
239.66586797791891
 31
0.0
  0
LINE
  5
5AEF
  8
AM_0
 10
201.44967290347401
 20
232.15587197791899
 30
0.0
 11
159.4397129034742
 21
232.15587197791891
 31
0.0
  0
LINE
  5
5AF0
  8
AM_0
 10
167.1296729034741
 20
302.87587397791901
 30
0.0
 11
201.44967290347401
 21
302.87587397791901
 31
0.0
  0
LINE
  5
5AF1
  8
AM_0
 10
167.1296729034741
 20
299.52586997791889
 30
0.0
 11
201.44967290347401
 21
299.52586997791889
 31
0.0
  0
LINE
  5
5AF2
  8
AM_0
 10
166.90968290347399
 20
292.64586497791902
 30
0.0
 11
182.5510018071281
 21
292.64586497791902
 31
0.0
  0
LINE
  5
5AF3
  8
AM_0
 10
185.0510018071281
 20
292.64586497791902
 30
0.0
 11
192.44967290347401
 21
292.64586497791902
 31
0.0
  0
LINE
  5
5AF4
  8
AM_0
 10
166.90968290347399
 20
289.71586997791889
 30
0.0
 11
172.20198817741439
 21
289.71586997791883
 31
0.0
  0
LINE
  5
5AF5
  8
AM_0
 10
157.77969290347411
 20
282.4958689779188
 30
0.0
 11
172.0510018071281
 21
282.4958689779188
 31
0.0
  0
LINE
  5
5AF6
  8
AM_0
 10
157.77969290347411
 20
279.8358649779189
 30
0.0
 11
172.0510018071281
 21
279.8358649779189
 31
0.0
  0
LINE
  5
5AF7
  8
AM_0
 10
157.71969290347391
 20
272.42586197791888
 30
0.0
 11
172.3270162071276
 21
272.42586197791888
 31
0.0
  0
LINE
  5
5AF8
  8
AM_0
 10
157.71969290347391
 20
269.89586297791902
 30
0.0
 11
182.5510018071281
 21
269.89586297791902
 31
0.0
  0
LINE
  5
5AF9
  8
AM_0
 10
157.71969290347391
 20
262.4258779779189
 30
0.0
 11
200.4496729034741
 21
262.4258779779189
 31
0.0
  0
LINE
  5
5AFA
  8
AM_0
 10
200.4496729034741
 20
260.15587397791887
 30
0.0
 11
158.99973290347401
 21
260.15587397791887
 31
0.0
  0
LINE
  5
5AFB
  8
AM_0
 10
200.4496729034741
 20
262.15587197791888
 30
0.0
 11
158.99973290347401
 21
262.15587197791888
 31
0.0
  0
LINE
  5
5AFC
  8
AM_0
 10
157.77969290347411
 20
252.47587997791891
 30
0.0
 11
179.00801123680569
 21
252.47587997791891
 31
0.0
  0
LINE
  5
5AFD
  8
AM_0
 10
173.44967290347401
 20
250.15587197791891
 30
0.0
 11
158.99973290347401
 21
250.15587197791891
 31
0.0
  0
LINE
  5
5AFE
  8
AM_0
 10
157.77969290347411
 20
249.8158609779189
 30
0.0
 11
173.44967290347401
 21
249.8158609779189
 31
0.0
  0
LINE
  5
5AFF
  8
AM_0
 10
173.44967290347401
 20
242.15587097791891
 30
0.0
 11
158.99973290347401
 21
242.15587097791891
 31
0.0
  0
LINE
  5
5B00
  8
AM_0
 10
157.90968290347399
 20
242.5958749779189
 30
0.0
 11
173.44967290347401
 21
242.5958749779189
 31
0.0
  0
LINE
  5
5B01
  8
AM_0
 10
178.7413279034738
 20
240.15588797791901
 30
0.0
 11
158.99973290347401
 21
240.15588797791901
 31
0.0
  0
LINE
  5
5B02
  8
AM_0
 10
157.71969290347391
 20
259.88588297791893
 30
0.0
 11
200.4496729034741
 21
259.88588297791893
 31
0.0
  0
ARC
  5
5B03
  8
AM_0
 10
166.59036290347399
 20
224.93675597791889
 30
0.0
 40
1.00423602
 50
314.93782999999922
 51
5.6649239000010914
  0
ARC
  5
5B04
  8
AM_0
 10
301.44990290347403
 20
203.6560549779189
 30
0.0
 40
1.0001800499999991
 50
180.01030999999901
 51
269.98967999999991
  0
ARC
  5
5B05
  8
AM_0
 10
293.25435290347411
 20
206.30125697791891
 30
0.0
 40
2.0053919100000002
 50
270.15274999999968
 51
344.81207000000018
  0
ARC
  5
5B06
  8
AM_0
 10
301.44918290347402
 20
215.11534397791891
 30
0.0
 40
0.99947604
 50
179.97008999999869
 51
270.02992000000029
  0
ARC
  5
5B07
  8
AM_0
 10
159.67074290347409
 20
317.14343897791889
 30
0.0
 40
1.9924480200000001
 50
89.742108000000741
 51
169.81178999999909
  0
ARC
  5
5B08
  8
AM_0
 10
159.6145229034741
 20
322.42658897791893
 30
0.0
 40
1.9992880199999981
 50
89.851814999999618
 51
167.89433000000099
  0
ARC
  5
5B09
  8
AM_0
 10
155.23398290347399
 20
318.69608897791892
 30
0.0
 40
1.5002480099999991
 50
270.21662000000089
 51
347.67499999999922
  0
ARC
  5
5B0A
  8
AM_0
 10
159.5817629034741
 20
325.83134897791888
 30
0.0
 40
1.9945160699999991
 50
89.771334999999524
 51
166.8280399999995
  0
ARC
  5
5B0B
  8
AM_0
 10
155.25813290347401
 20
322.7596789779189
 30
0.0
 40
1.5037760099999991
 50
270.0598400000012
 51
346.39312999999879
  0
ARC
  5
5B0C
  8
AM_0
 10
155.2709729034741
 20
324.77906897791888
 30
0.0
 40
1.503232049999998
 50
270.33131999999961
 51
346.01803000000137
  0
ARC
  5
5B0D
  8
AM_0
 10
159.55623290347401
 20
327.45905897791891
 30
0.0
 40
1.996816109999999
 50
89.901436000000672
 51
165.88941000000139
  0
ARC
  5
5B0E
  8
AM_0
 10
176.44509290347401
 20
326.02049897791892
 30
0.0
 40
1.9953641399999991
 50
89.866758999999234
 51
180.13323000000119
  0
ARC
  5
5B0F
  8
AM_0
 10
176.44587290347411
 20
328.04966897791888
 30
0.0
 40
1.99618809
 50
89.890486999999737
 51
180.10951000000031
  0
ARC
  5
5B10
  8
AM_0
 10
176.44326290347399
 20
329.40233897791887
 30
0.0
 40
1.993556189999999
 50
89.814515000000938
 51
180.1854899999997
  0
ARC
  5
5B11
  8
AM_0
 10
176.4452129034741
 20
330.0771289779189
 30
0.0
 40
1.998724049999999
 50
89.871136999999536
 51
165.55095999999921
  0
ARC
  5
5B12
  8
AM_0
 10
172.943012903474
 20
320.6425789779189
 30
0.0
 40
1.5066999599999991
 50
270.25416000000098
 51
359.74583999999908
  0
ARC
  5
5B13
  8
AM_0
 10
172.94685290347411
 20
325.928698977919
 30
0.0
 40
1.5028360199999991
 50
270.10793999999891
 51
359.89206000000121
  0
ARC
  5
5B14
  8
AM_0
 10
172.94484290347421
 20
329.33072897791891
 30
0.0
 40
1.5048719999999991
 50
270.1851800000012
 51
359.81481999999869
  0
ARC
  5
5B15
  8
AM_0
 10
173.056292903474
 20
330.958888977919
 30
0.0
 40
1.50301605
 50
270.12944999999991
 51
345.2365400000013
  0
ARC
  5
5B16
  8
AM_0
 10
229.44876290347401
 20
328.04492897791891
 30
0.0
 40
2.0009239199999991
 50
0.0264629989995744
 51
89.973535999999072
  0
ARC
  5
5B17
  8
AM_0
 10
229.45137290347401
 20
329.39756897791881
 30
0.0
 40
1.9982920200000001
 50
359.95103000000051
 51
90.048974999998521
  0
ARC
  5
5B18
  8
AM_0
 10
229.44789290347401
 20
330.0740689779189
 30
0.0
 40
2.0018279999999979
 50
0.0523009999990686
 51
89.947697000000545
  0
ARC
  5
5B19
  8
AM_0
 10
300.09993290347398
 20
314.0082589779189
 30
0.0
 40
1.50239199
 50
195.14001000000141
 51
269.99063999999998
  0
ARC
  5
5B1A
  8
AM_0
 10
293.2592429034741
 20
326.01689897791903
 30
0.0
 40
1.99898796
 50
15.04780099999898
 51
89.987372999998755
  0
ARC
  5
5B1B
  8
AM_0
 10
301.44474290347421
 20
328.66082897791892
 30
0.0
 40
0.9950640599999999
 50
89.714938000000473
 51
180.28506000000129
  0
ARC
  5
5B1C
  8
AM_0
 10
301.44405290347402
 20
317.20148897791893
 30
0.0
 40
0.99440004
 50
89.676491000000041
 51
180.32351000000091
  0
ARC
  5
5B1D
  8
AM_0
 10
300.15555290347402
 20
318.69632897791888
 30
0.0
 40
1.5004760399999979
 50
192.3322299999987
 51
270.15827999999971
  0
ARC
  5
5B1E
  8
AM_0
 10
295.29714290347403
 20
324.6593989779189
 30
0.0
 40
1.9964880300000001
 50
12.04087499999966
 51
89.926440999999343
  0
ARC
  5
5B1F
  8
AM_0
 10
162.60798290347401
 20
307.74867797791887
 30
0.0
 40
5.004112499999998
 50
279.6835699999998
 51
354.57834000000122
  0
ARC
  5
5B20
  8
AM_0
 10
163.07046290347401
 20
303.82295897791892
 30
0.0
 40
6.0049157999999991
 50
45.227306999999072
 51
86.379093999999796
  0
ARC
  5
5B21
  8
AM_0
 10
166.5936629034741
 20
307.37614997791889
 30
0.0
 40
1.001108069999999
 50
354.25024999999829
 51
45.146993999999637
  0
ARC
  5
5B22
  8
AM_0
 10
295.29213290347411
 20
207.65848097791891
 30
0.0
 40
2.0026238699999981
 50
270.21534000000139
 51
347.8173399999996
  0
ARC
  5
5B23
  8
AM_0
 10
300.156752903474
 20
213.62655797791891
 30
0.0
 40
1.499328059999999
 50
89.888151000000079
 51
168.09384000000071
  0
ARC
  5
5B24
  8
AM_0
 10
163.07967290347409
 20
228.50305397791891
 30
0.0
 40
6.0085923000000001
 50
273.53094999999939
 51
314.61478000000108
  0
ARC
  5
5B25
  8
AM_0
 10
162.613052903474
 20
224.5677979779189
 30
0.0
 40
4.9985837999999987
 50
5.3731199000009289
 51
80.36497600000034
  0
ARC
  5
5B26
  8
AM_0
 10
159.67575290347381
 20
215.1743029779189
 30
0.0
 40
1.998444029999999
 50
190.3324000000008
 51
270.11369000000047
  0
ARC
  5
5B27
  8
AM_0
 10
159.614582903474
 20
209.89525097791901
 30
0.0
 40
1.9993920899999991
 50
192.1080400000011
 51
270.14581999999967
  0
ARC
  5
5B28
  8
AM_0
 10
155.23281290347401
 20
213.62678897791889
 30
0.0
 40
1.499099999999999
 50
11.89856000000028
 51
89.736658000000475
  0
ARC
  5
5B29
  8
AM_0
 10
159.5866829034739
 20
206.48663597791889
 30
0.0
 40
2.0007560699999991
 50
193.31416000000041
 51
270.0864499999999
  0
ARC
  5
5B2A
  8
AM_0
 10
155.26308290347399
 20
209.55836897791889
 30
0.0
 40
1.497512039999999
 50
13.41823300000142
 51
90.128792999998822
  0
ARC
  5
5B2B
  8
AM_0
 10
155.27748290347401
 20
207.5377519779189
 30
0.0
 40
1.498128089999998
 50
14.224575000000939
 51
89.916113999998927
  0
ARC
  5
5B2C
  8
AM_0
 10
159.56118290347399
 20
204.85901297791901
 30
0.0
 40
2.0031319199999991
 50
194.2515899999988
 51
269.9575499999994
  0
ARC
  5
5B2D
  8
AM_0
 10
176.45016290347411
 20
206.29631297791889
 30
0.0
 40
2.000452109999999
 50
180.01290000000029
 51
269.98709999999971
  0
ARC
  5
5B2E
  8
AM_0
 10
176.45100290347409
 20
204.26718497791899
 30
0.0
 40
2.0013120899999981
 50
180.03755999999879
 51
269.9624400000011
  0
ARC
  5
5B2F
  8
AM_0
 10
176.44833290347401
 20
202.91449097791889
 30
0.0
 40
1.9986199799999991
 50
179.96046999999851
 51
270.03953000000138
  0
ARC
  5
5B30
  8
AM_0
 10
176.44362290347411
 20
202.24592897791891
 30
0.0
 40
2.0000761200000001
 50
194.7749800000019
 51
270.17352999999849
  0
ARC
  5
5B31
  8
AM_0
 10
172.94814290347401
 20
211.67430497791889
 30
0.0
 40
1.5015680099999991
 50
0.0598050030010001
 51
89.940196999999216
  0
ARC
  5
5B32
  8
AM_0
 10
172.94697290347401
 20
206.39316197791891
 30
0.0
 40
1.50271599
 50
0.1034359999993177
 51
89.896566000000206
  0
ARC
  5
5B33
  8
AM_0
 10
172.94997290347419
 20
202.9861159779189
 30
0.0
 40
1.49975601
 50
359.99059000000068
 51
90.009407999999681
  0
ARC
  5
5B34
  8
AM_0
 10
173.06124290347401
 20
201.3592249779189
 30
0.0
 40
1.49664405
 50
14.57573999999874
 51
90.058277999998381
  0
ARC
  5
5B35
  8
AM_0
 10
229.4436929034741
 20
204.27189797791891
 30
0.0
 40
2.0060480100000002
 50
270.17248999999867
 51
359.82751000000121
  0
ARC
  5
5B36
  8
AM_0
 10
229.44630290347411
 20
202.9192369779189
 30
0.0
 40
2.0033560499999989
 50
270.09594000000141
 51
359.90405999999848
  0
ARC
  5
5B37
  8
AM_0
 10
229.447772903474
 20
202.24775897791889
 30
0.0
 40
2.0019000299999989
 50
270.05438000000072
 51
359.94561999999922
  0
ARC
  5
5B38
  8
AM_0
 10
300.09507290347409
 20
218.3098939779189
 30
0.0
 40
1.49599605
 50
89.821706999999776
 51
165.0476599999985
  0
ARC
  5
5B39
  8
AM_0
 10
175.44492290347389
 20
301.15587497791893
 30
0.0
 40
1.000011959999999
 50
89.726507999999697
 51
270.27347999999972
  0
ARC
  5
5B3A
  8
AM_0
 10
157.71390290347401
 20
271.16087897791903
 30
0.0
 40
1.26501207
 50
89.737716000001527
 51
270.26227999999981
  0
ARC
  5
5B3B
  8
AM_0
 10
157.77969290347411
 20
281.1658819779189
 30
0.0
 40
1.330008059999999
 50
90.000003000000945
 51
270.0
  0
ARC
  5
5B3C
  8
AM_0
 10
166.90968290347399
 20
291.18086897791892
 30
0.0
 40
1.465004009999999
 50
90.000003000000945
 51
270.0
  0
ARC
  5
5B3D
  8
AM_0
 10
167.12283290347409
 20
301.20085697791887
 30
0.0
 40
1.6750160999999979
 50
89.766540000000646
 51
270.23345999999941
  0
ARC
  5
5B3E
  8
AM_0
 10
158.99973290347401
 20
271.15587197791888
 30
0.0
 40
1.0000000199999981
 50
90.000003000000945
 51
270.0
  0
ARC
  5
5B3F
  8
AM_0
 10
158.99973290347401
 20
281.15587397791887
 30
0.0
 40
1.0000000199999981
 50
90.000003000000945
 51
270.0
  0
ARC
  5
5B40
  8
AM_0
 10
167.994962903474
 20
301.15587497791893
 30
0.0
 40
1.000011959999999
 50
89.728447999999375
 51
270.27153999999882
  0
ARC
  5
5B41
  8
AM_0
 10
167.994962903474
 20
291.15587297791888
 30
0.0
 40
1.000011959999999
 50
89.728447999999375
 51
270.27153999999882
  0
ARC
  5
5B42
  8
AM_0
 10
297.26967290347409
 20
301.20085697791887
 30
0.0
 40
1.675004159999999
 50
276.1690557384461
 51
83.83094426155381
  0
ARC
  5
5B43
  8
AM_0
 10
297.26967290347409
 20
231.11088797791899
 30
0.0
 40
1.675004159999999
 50
276.16905573844969
 51
83.830944261550229
  0
ARC
  5
5B44
  8
AM_0
 10
158.99973290347401
 20
261.15588797791889
 30
0.0
 40
1.0000000199999981
 50
90.000003000000945
 51
270.0
  0
ARC
  5
5B45
  8
AM_0
 10
175.44492290347389
 20
251.1558739779189
 30
0.0
 40
1.000011959999999
 50
89.726507999999697
 51
227.40544825727639
  0
ARC
  5
5B46
  8
AM_0
 10
175.44492290347389
 20
241.15587197791891
 30
0.0
 40
1.000011959999999
 50
132.59438434211481
 51
270.27347999999972
  0
ARC
  5
5B47
  8
AM_0
 10
157.77969290347411
 20
251.1458779779189
 30
0.0
 40
1.330008059999999
 50
90.000003000000945
 51
270.0
  0
ARC
  5
5B48
  8
AM_0
 10
157.90968290347399
 20
241.130878977919
 30
0.0
 40
1.465004009999999
 50
90.000003000000945
 51
270.0
  0
ARC
  5
5B49
  8
AM_0
 10
158.994962903474
 20
231.15588797791901
 30
0.0
 40
1.000011959999999
 50
89.728462000000377
 51
270.27153999999882
  0
ARC
  5
5B4A
  8
AM_0
 10
175.44492290347389
 20
231.15588797791901
 30
0.0
 40
1.000011959999999
 50
89.726507999999697
 51
270.27347999999972
  0
ARC
  5
5B4B
  8
AM_0
 10
157.71390290347401
 20
261.15588797791889
 30
0.0
 40
1.2700120500000001
 50
89.738748000000555
 51
270.26124000000118
  0
ARC
  5
5B4C
  8
AM_0
 10
158.12283290347409
 20
231.11088797791899
 30
0.0
 40
1.6750160999999979
 50
89.764983000000569
 51
270.23500999999908
  0
ARC
  5
5B4D
  8
AM_0
 10
158.99973290347401
 20
251.1558739779189
 30
0.0
 40
1.0000000199999981
 50
90.000003000000945
 51
270.0
  0
ARC
  5
5B4E
  8
AM_0
 10
158.994962903474
 20
241.15587197791891
 30
0.0
 40
1.000011959999999
 50
89.728462000000377
 51
270.27153999999882
  0
LINE
  5
5B50
  8
ﾁｭｳｼﾝｾﾝ
 10
249.4496729034741
 20
317.1558739779191
 30
0.0
 11
249.4496729034741
 21
215.1558739779189
 31
0.0
  0
LINE
  5
5B51
  8
AM_0
 10
293.44967290347421
 20
220.15587397791899
 30
0.0
 11
205.44967290347401
 21
220.15587397791899
 31
0.0
  0
ARC
  5
5B52
  8
AM_0
 10
223.52074071533951
 20
225.15587397791899
 30
0.0
 40
5.0
 50
225.0
 51
270.0
1001
GENIUS_GENOBJ-N-FIL_13
1002
{
1000
OWNER
1000
GEN
1002
}
1001
GENIUS_GENODEF_13
1002
{
1000
HIER
1070
     0
1002
}
1002
{
1000
MANEDIT
1070
     0
1002
}
1002
{
1000
NOSEL
1070
     0
1002
}
1002
{
1000
BEHIND
1070
     0
1002
}
1002
{
1000
OTHER
1070
     0
1002
}
1002
{
1000
REACTOR
1002
}
  0
LINE
  5
5B53
  8
AM_0
 10
274.72175084211642
 20
225.15587397791899
 30
0.0
 11
224.1775949648318
 21
225.15587397791899
 31
0.0
  0
ARC
  5
5B54
  8
AM_0
 10
274.72175084211642
 20
230.1558739779189
 30
0.0
 40
5.0
 50
270.0
 51
315.0
1001
GENIUS_GENOBJ-N-FIL_13
1002
{
1000
OWNER
1000
GEN
1002
}
1001
GENIUS_GENODEF_13
1002
{
1000
HIER
1070
     0
1002
}
1002
{
1000
MANEDIT
1070
     0
1002
}
1002
{
1000
NOSEL
1070
     0
1002
}
1002
{
1000
BEHIND
1070
     0
1002
}
1002
{
1000
OTHER
1070
     0
1002
}
1002
{
1000
REACTOR
1002
}
  0
ARC
  5
5B55
  8
AM_0
 10
293.44967290347421
 20
224.15587397791899
 30
0.0
 40
4.0
 50
270.0
 51
0.0
1001
GENIUS_GENOBJ-N-FIL_13
1002
{
1000
OWNER
1000
GEN
1002
}
1001
GENIUS_GENODEF_13
1002
{
1000
HIER
1070
     0
1002
}
1002
{
1000
MANEDIT
1070
     0
1002
}
1002
{
1000
NOSEL
1070
     0
1002
}
1002
{
1000
BEHIND
1070
     0
1002
}
1002
{
1000
OTHER
1070
     0
1002
}
1002
{
1000
REACTOR
1002
}
  0
LINE
  5
5B56
  8
AM_0
 10
293.44967290347398
 20
312.15587397791921
 30
0.0
 11
205.44967290347401
 21
312.15587397791921
 31
0.0
  0
ARC
  5
5B57
  8
AM_0
 10
275.37860509160862
 20
307.15587397791921
 30
0.0
 40
5.0
 50
45.0
 51
90.0
1001
GENIUS_GENOBJ-N-FIL_13
1002
{
1000
OWNER
1000
GEN
1002
}
1001
GENIUS_GENODEF_13
1002
{
1000
HIER
1070
     0
1002
}
1002
{
1000
MANEDIT
1070
     0
1002
}
1002
{
1000
NOSEL
1070
     0
1002
}
1002
{
1000
BEHIND
1070
     0
1002
}
1002
{
1000
OTHER
1070
     0
1002
}
1002
{
1000
REACTOR
1002
}
  0
ARC
  5
5B58
  8
AM_0
 10
223.5207407153398
 20
307.15587397791921
 30
0.0
 40
5.0
 50
90.0
 51
135.0
1001
GENIUS_GENODEF_13
1002
{
1000
HIER
1070
     0
1002
}
1002
{
1000
MANEDIT
1070
     0
1002
}
1002
{
1000
NOSEL
1070
     0
1002
}
1002
{
1000
BEHIND
1070
     0
1002
}
1002
{
1000
OTHER
1070
     0
1002
}
1002
{
1000
REACTOR
1002
}
1001
GENIUS_GENOBJ-N-FIL_13
1002
{
1000
OWNER
1000
GEN
1002
}
  0
LINE
  5
5B59
  8
AM_0
 10
274.72175084211619
 20
307.15587397791921
 30
0.0
 11
224.177594964832
 21
307.15587397791921
 31
0.0
  0
ARC
  5
5B5A
  8
AM_0
 10
224.177594964832
 20
302.15587397791921
 30
0.0
 40
5.0
 50
90.0
 51
135.0
1001
GENIUS_GENODEF_13
1002
{
1000
HIER
1070
     0
1002
}
1002
{
1000
MANEDIT
1070
     0
1002
}
1002
{
1000
NOSEL
1070
     0
1002
}
1002
{
1000
BEHIND
1070
     0
1002
}
1002
{
1000
OTHER
1070
     0
1002
}
1002
{
1000
REACTOR
1002
}
1001
GENIUS_GENOBJ-N-FIL_13
1002
{
1000
OWNER
1000
GEN
1002
}
  0
ARC
  5
5B5B
  8
AM_0
 10
205.44967290347401
 20
308.15587397791921
 30
0.0
 40
4.0
 50
90.0
 51
180.0
1001
GENIUS_GENODEF_13
1002
{
1000
HIER
1070
     0
1002
}
1002
{
1000
MANEDIT
1070
     0
1002
}
1002
{
1000
NOSEL
1070
     0
1002
}
1002
{
1000
BEHIND
1070
     0
1002
}
1002
{
1000
OTHER
1070
     0
1002
}
1002
{
1000
REACTOR
1002
}
1001
GENIUS_GENOBJ-N-FIL_13
1002
{
1000
OWNER
1000
GEN
1002
}
  0
LINE
  5
5B5C
  8
AM_0
 10
201.44967290347401
 20
308.15587397791921
 30
0.0
 11
201.44967290347401
 21
224.15587397791899
 31
0.0
  0
ARC
  5
5B5D
  8
AM_0
 10
206.44967290347401
 20
242.22694178978429
 30
0.0
 40
5.0
 50
180.0
 51
225.0
1001
GENIUS_GENOBJ-N-FIL_13
1002
{
1000
OWNER
1000
GEN
1002
}
1001
GENIUS_GENODEF_13
1002
{
1000
HIER
1070
     0
1002
}
1002
{
1000
MANEDIT
1070
     0
1002
}
1002
{
1000
NOSEL
1070
     0
1002
}
1002
{
1000
BEHIND
1070
     0
1002
}
1002
{
1000
OTHER
1070
     0
1002
}
1002
{
1000
REACTOR
1002
}
  0
ARC
  5
5B5E
  8
AM_0
 10
206.44967290347401
 20
290.08480616605391
 30
0.0
 40
5.0
 50
135.0
 51
180.0
1001
GENIUS_GENOBJ-N-FIL_13
1002
{
1000
OWNER
1000
GEN
1002
}
1001
GENIUS_GENODEF_13
1002
{
1000
HIER
1070
     0
1002
}
1002
{
1000
MANEDIT
1070
     0
1002
}
1002
{
1000
NOSEL
1070
     0
1002
}
1002
{
1000
BEHIND
1070
     0
1002
}
1002
{
1000
OTHER
1070
     0
1002
}
1002
{
1000
REACTOR
1002
}
  0
LINE
  5
5B5F
  8
AM_0
 10
206.44967290347401
 20
289.42795191656131
 30
0.0
 11
206.44967290347401
 21
242.88379603927669
 31
0.0
  0
ARC
  5
5B60
  8
AM_0
 10
211.44967290347401
 20
242.88379603927669
 30
0.0
 40
5.0
 50
180.0
 51
225.0
1001
GENIUS_GENOBJ-N-FIL_13
1002
{
1000
OWNER
1000
GEN
1002
}
1001
GENIUS_GENODEF_13
1002
{
1000
HIER
1070
     0
1002
}
1002
{
1000
MANEDIT
1070
     0
1002
}
1002
{
1000
NOSEL
1070
     0
1002
}
1002
{
1000
BEHIND
1070
     0
1002
}
1002
{
1000
OTHER
1070
     0
1002
}
1002
{
1000
REACTOR
1002
}
  0
ARC
  5
5B61
  8
AM_0
 10
205.44967290347401
 20
224.15587397791899
 30
0.0
 40
4.0
 50
180.0
 51
270.0
1001
GENIUS_GENODEF_13
1002
{
1000
HIER
1070
     0
1002
}
1002
{
1000
MANEDIT
1070
     0
1002
}
1002
{
1000
NOSEL
1070
     0
1002
}
1002
{
1000
BEHIND
1070
     0
1002
}
1002
{
1000
OTHER
1070
     0
1002
}
1002
{
1000
REACTOR
1002
}
1001
GENIUS_GENOBJ-N-FIL_13
1002
{
1000
OWNER
1000
GEN
1002
}
  0
LINE
  5
5B62
  8
AM_0
 10
297.4496729034741
 20
308.15587397791921
 30
0.0
 11
297.44967290347421
 21
224.15587397791899
 31
0.0
  0
ARC
  5
5B63
  8
AM_0
 10
292.44967290347421
 20
290.08480616605368
 30
0.0
 40
5.0
 50
0.0
 51
45.0
1001
GENIUS_GENOBJ-N-FIL_13
1002
{
1000
OWNER
1000
GEN
1002
}
1001
GENIUS_GENODEF_13
1002
{
1000
HIER
1070
     0
1002
}
1002
{
1000
MANEDIT
1070
     0
1002
}
1002
{
1000
NOSEL
1070
     0
1002
}
1002
{
1000
BEHIND
1070
     0
1002
}
1002
{
1000
OTHER
1070
     0
1002
}
1002
{
1000
REACTOR
1002
}
  0
ARC
  5
5B64
  8
AM_0
 10
292.44967290347421
 20
242.22694178978449
 30
0.0
 40
5.0
 50
315.0
 51
0.0
1001
GENIUS_GENOBJ-N-FIL_13
1002
{
1000
OWNER
1000
GEN
1002
}
1001
GENIUS_GENODEF_13
1002
{
1000
HIER
1070
     0
1002
}
1002
{
1000
MANEDIT
1070
     0
1002
}
1002
{
1000
NOSEL
1070
     0
1002
}
1002
{
1000
BEHIND
1070
     0
1002
}
1002
{
1000
OTHER
1070
     0
1002
}
1002
{
1000
REACTOR
1002
}
  0
LINE
  5
5B65
  8
AM_0
 10
278.91413899754127
 20
310.69140788385181
 30
0.0
 11
295.98520680940692
 21
293.6203400719865
 31
0.0
  0
LINE
  5
5B66
  8
AM_0
 10
278.2572847480489
 20
305.69140788385192
 30
0.0
 11
290.98520680940652
 21
292.96348582249431
 31
0.0
  0
ARC
  5
5B67
  8
AM_0
 10
274.72175084211619
 20
302.15587397791921
 30
0.0
 40
5.0
 50
45.0
 51
90.0
1001
GENIUS_GENOBJ-N-FIL_13
1002
{
1000
OWNER
1000
GEN
1002
}
1001
GENIUS_GENODEF_13
1002
{
1000
HIER
1070
     0
1002
}
1002
{
1000
MANEDIT
1070
     0
1002
}
1002
{
1000
NOSEL
1070
     0
1002
}
1002
{
1000
BEHIND
1070
     0
1002
}
1002
{
1000
OTHER
1070
     0
1002
}
1002
{
1000
REACTOR
1002
}
  0
LINE
  5
5B68
  8
AM_0
 10
292.44967290347398
 20
289.42795191656148
 30
0.0
 11
292.44967290347421
 21
242.88379603927669
 31
0.0
  0
ARC
  5
5B69
  8
AM_0
 10
287.44967290347398
 20
289.42795191656148
 30
0.0
 40
5.0
 50
0.0
 51
45.0
1001
GENIUS_GENODEF_13
1002
{
1000
HIER
1070
     0
1002
}
1002
{
1000
MANEDIT
1070
     0
1002
}
1002
{
1000
NOSEL
1070
     0
1002
}
1002
{
1000
BEHIND
1070
     0
1002
}
1002
{
1000
OTHER
1070
     0
1002
}
1002
{
1000
REACTOR
1002
}
1001
GENIUS_GENOBJ-N-FIL_13
1002
{
1000
OWNER
1000
GEN
1002
}
  0
ARC
  5
5B6A
  8
AM_0
 10
293.44967290347398
 20
308.15587397791921
 30
0.0
 40
4.0
 50
0.0
 51
90.0
1001
GENIUS_GENODEF_13
1002
{
1000
HIER
1070
     0
1002
}
1002
{
1000
MANEDIT
1070
     0
1002
}
1002
{
1000
NOSEL
1070
     0
1002
}
1002
{
1000
BEHIND
1070
     0
1002
}
1002
{
1000
OTHER
1070
     0
1002
}
1002
{
1000
REACTOR
1002
}
1001
GENIUS_GENOBJ-N-FIL_13
1002
{
1000
OWNER
1000
GEN
1002
}
  0
LINE
  5
5B6B
  8
ﾁｭｳｼﾝｾﾝ1
 10
292.44967290347569
 20
301.15587397791882
 30
0.0
 11
292.44967290347631
 21
313.15587397791882
 31
0.0
  0
LINE
  5
5B6C
  8
ﾁｭｳｼﾝｾﾝ1
 10
298.44967290347603
 20
307.15587397791847
 30
0.0
 11
286.44967290347603
 21
307.15587397791921
 31
0.0
  0
LINE
  5
5B6D
  8
AM_0
 10
197.94967290347401
 20
294.65587397791921
 30
0.0
 11
200.4496729034741
 21
294.65587397791933
 31
0.0
  0
LINE
  5
5B6E
  8
AM_0
 10
200.4496729034741
 20
267.65587397791921
 30
0.0
 11
197.94967290347401
 21
267.65587397791921
 31
0.0
  0
LINE
  5
5B6F
  8
AM_0
 10
187.0510018071281
 20
270.65587397791921
 30
0.0
 11
187.0510018071281
 21
291.65587397791921
 31
0.0
  0
LINE
  5
5B70
  8
AM_0
 10
172.0510018071281
 20
289.18749903193418
 30
0.0
 11
172.0510018071281
 21
273.12424892390322
 31
0.0
  0
LINE
  5
5B71
  8
AM_0
 10
185.0510018071281
 20
269.15587397791921
 30
0.0
 11
185.0510018071281
 21
293.15587397791921
 31
0.0
  0
LINE
  5
5B72
  8
AM_0
 10
175.5510018071281
 20
281.15587397791921
 30
0.0
 11
176.0510018071281
 21
280.65587397791921
 31
0.0
  0
LINE
  5
5B73
  8
AM_0
 10
182.5510018071281
 20
292.85587397791909
 30
0.0
 11
182.5510018071281
 21
269.45587397791923
 31
0.0
  0
LINE
  5
5B74
  8
AM_0
 10
192.44967290347401
 20
292.65587397791921
 30
0.0
 11
192.44967290347401
 21
269.65587397791921
 31
0.0
  0
LINE
  5
5B75
  8
AM_0
 10
186.5510018071281
 20
280.45587397791718
 30
0.0
 11
186.5510018071281
 21
281.85587397792028
 31
0.0
  0
LINE
  5
5B76
  8
AM_0
 10
188.65063753369921
 20
272.05587397791919
 30
0.0
 11
187.90063753370009
 21
290.25587397791929
 31
0.0
  0
LINE
  5
5B77
  8
AM_0
 10
187.69967290347401
 20
272.05587397791919
 30
0.0
 11
187.0510018071281
 21
287.79695924923521
 31
0.0
  0
LINE
  5
5B78
  8
AM_0
 10
188.4483654940461
 20
271.34021526555517
 30
0.0
 11
187.7011054506381
 21
290.96824573908629
 31
0.0
  0
LINE
  5
5B79
  8
AM_0
 10
187.89920498653601
 20
271.34350221675118
 30
0.0
 11
187.15063753370009
 21
291.00587397791912
 31
0.0
  0
LINE
  5
5B7A
  8
AM_0
 10
185.0510018071281
 20
293.15587397791921
 30
0.0
 11
182.85100180712811
 21
293.15587397791921
 31
0.0
  0
ARC
  5
5B7B
  8
AM_0
 10
196.94967290347421
 20
293.65587397791921
 30
0.0
 40
0.5
 50
269.99999999998693
 51
0.0
  0
ARC
  5
5B7C
  8
AM_0
 10
197.94967290347421
 20
294.15587397791921
 30
0.0
 40
0.5
 50
90.0
 51
180.0
  0
LINE
  5
5B7D
  8
AM_0
 10
197.44967290347401
 20
293.65587397791921
 30
0.0
 11
197.44967290347401
 21
294.15587397791921
 31
0.0
  0
LINE
  5
5B7E
  8
AM_0
 10
188.44967290347401
 20
290.25587397791929
 30
0.0
 11
191.94967290347401
 21
290.25587397791912
 31
0.0
  0
LINE
  5
5B7F
  8
AM_0
 10
197.44967290347401
 20
292.01194529932621
 30
0.0
 11
197.44967290347401
 21
282.29980265651119
 31
0.0
  0
LINE
  5
5B80
  8
AM_0
 10
192.94967290347401
 20
293.15587397791921
 30
0.0
 11
196.94967290347401
 21
293.15587397791921
 31
0.0
  0
LINE
  5
5B81
  8
AM_0
 10
196.94967290347401
 20
292.51194529932621
 30
0.0
 11
192.44967290347401
 21
292.51194529932621
 31
0.0
  0
ARC
  5
5B82
  8
AM_0
 10
196.94967290347421
 20
292.01194529932621
 30
0.0
 40
0.5
 50
0.0
 51
90.0
  0
ARC
  5
5B83
  8
AM_0
 10
191.94967290347401
 20
290.75587397791912
 30
0.0
 40
0.5
 50
270.0
 51
0.0
  0
ARC
  5
5B84
  8
AM_0
 10
192.94967290347401
 20
292.65587397791921
 30
0.0
 40
0.5
 50
90.0
 51
180.0
  0
LINE
  5
5B85
  8
AM_0
 10
196.94967290347401
 20
281.79980265651108
 30
0.0
 11
192.44967290347401
 21
281.79980265651108
 31
0.0
  0
ARC
  5
5B86
  8
AM_0
 10
196.94967290347401
 20
282.29980265651119
 30
0.0
 40
0.5
 50
270.0
 51
0.0
  0
LINE
  5
5B87
  8
AM_0
 10
186.5510018071281
 20
287.30104473021117
 30
0.0
 11
186.5510018071281
 21
286.1288015437782
 31
0.0
  0
LINE
  5
5B88
  8
AM_0
 10
187.97736996212501
 20
290.25587397791929
 30
0.0
 11
188.44967290347401
 21
290.25587397791929
 31
0.0
  0
LINE
  5
5B89
  8
AM_0
 10
187.8807774675858
 20
290.32999174465579
 30
0.0
 11
187.90063753370009
 21
290.25587397791929
 31
0.0
  0
ARC
  5
5B8A
  8
AM_0
 10
187.97736996212501
 20
290.35587397791898
 30
0.0
 40
0.1000000000000346
 50
195.00019500644461
 51
270.0
  0
ARC
  5
5B8B
  8
AM_0
 10
186.25100180712809
 20
290.44270695842721
 30
0.0
 40
0.3000000000000043
 50
270.0
 51
0.0
  0
LINE
  5
5B8C
  8
AM_0
 10
185.0510018071281
 20
292.55587397791919
 30
0.0
 11
186.27095751028509
 21
292.4745435977083
 31
0.0
  0
LINE
  5
5B8D
  8
AM_0
 10
185.0510018071281
 20
291.39962194207919
 30
0.0
 11
186.25100180712809
 21
291.39962194207919
 31
0.0
  0
LINE
  5
5B8E
  8
AM_0
 10
186.5510018071281
 20
292.15587397791921
 30
0.0
 11
185.0510018071281
 21
292.15587397791921
 31
0.0
  0
ARC
  5
5B8F
  8
AM_0
 10
186.5510018071281
 20
291.65587397791921
 30
0.0
 40
0.5
 50
0.0
 51
90.0
  0
LINE
  5
5B90
  8
AM_0
 10
186.5510018071281
 20
292.1752080503511
 30
0.0
 11
186.5510018071281
 21
292.15587397791921
 31
0.0
  0
ARC
  5
5B91
  8
AM_0
 10
186.25100180712809
 20
292.1752080503511
 30
0.0
 40
0.3000000000000007
 50
0.0
 51
86.18592516571853
  0
LINE
  5
5B92
  8
AM_0
 10
187.62294047504901
 20
291.00587397791912
 30
0.0
 11
187.699672903475
 21
291.00587397791912
 31
0.0
  0
LINE
  5
5B93
  8
AM_0
 10
187.699672903475
 20
291.00587397791912
 30
0.0
 11
187.7195329695883
 21
290.93175621118269
 31
0.0
  0
LINE
  5
5B94
  8
AM_0
 10
187.13077746758611
 20
290.93175621118269
 30
0.0
 11
187.15063753370009
 21
291.00587397791912
 31
0.0
  0
LINE
  5
5B95
  8
AM_0
 10
187.15063753370009
 20
291.00587397791912
 30
0.0
 11
187.2273699621251
 21
291.00587397791912
 31
0.0
  0
LINE
  5
5B96
  8
AM_0
 10
187.7195329695883
 20
290.93175621118269
 30
0.0
 11
187.8807774675858
 21
290.32999174465579
 31
0.0
  0
LINE
  5
5B97
  8
AM_0
 10
187.2273699621251
 20
291.00587397791912
 30
0.0
 11
187.62294047504901
 21
291.00587397791912
 31
0.0
  0
LINE
  5
5B98
  8
AM_0
 10
187.0510018071291
 20
290.63403344635827
 30
0.0
 11
187.13077746758611
 21
290.93175621118269
 31
0.0
  0
ARC
  5
5B99
  8
AM_0
 10
187.62294047504901
 20
290.90587397791921
 30
0.0
 40
0.0999999999999866
 50
15.00019500657257
 51
90.0
  0
ARC
  5
5B9A
  8
AM_0
 10
187.2273699621251
 20
290.90587397791921
 30
0.0
 40
0.1000000000000014
 50
90.0
 51
164.9998049934274
  0
LINE
  5
5B9B
  8
AM_0
 10
186.5510018071281
 20
291.09962194207912
 30
0.0
 11
186.5510018071281
 21
290.44270695842721
 31
0.0
  0
ARC
  5
5B9C
  8
AM_0
 10
186.25100180712809
 20
291.09962194207912
 30
0.0
 40
0.3000000000000007
 50
0.0
 51
90.0
  0
LINE
  5
5B9D
  8
AM_0
 10
185.0510018071281
 20
287.60104473021119
 30
0.0
 11
186.25100180712809
 21
287.60104473021119
 31
0.0
  0
LINE
  5
5B9E
  8
AM_0
 10
186.25100180712809
 20
290.1427069584272
 30
0.0
 11
185.0510018071281
 21
290.1427069584272
 31
0.0
  0
LINE
  5
5B9F
  8
AM_0
 10
187.90063753370009
 20
290.25587397791929
 30
0.0
 11
187.97736996212501
 21
290.25587397791929
 31
0.0
  0
ARC
  5
5BA0
  8
AM_0
 10
186.25100180712809
 20
287.30104473021117
 30
0.0
 40
0.3000000000000007
 50
0.0
 51
90.0
  0
LINE
  5
5BA1
  8
AM_0
 10
186.25100180712809
 20
285.82880154377818
 30
0.0
 11
185.0510018071281
 21
285.82880154377818
 31
0.0
  0
ARC
  5
5BA2
  8
AM_0
 10
186.25100180712809
 20
286.1288015437782
 30
0.0
 40
0.3000000000000043
 50
270.0
 51
0.0
  0
LINE
  5
5BA3
  8
AM_0
 10
186.25100180712809
 20
282.15587397792018
 30
0.0
 11
185.0510018071281
 21
282.15587397792018
 31
0.0
  0
ARC
  5
5BA4
  8
AM_0
 10
186.25100180712809
 20
281.85587397792028
 30
0.0
 40
0.3000000000000007
 50
0.0
 51
90.0
  0
LINE
  5
5BA5
  8
AM_0
 10
176.0510018071281
 20
291.28915380656611
 30
0.0
 11
182.5510018071281
 21
291.28915380656611
 31
0.0
  0
LINE
  5
5BA6
  8
AM_0
 10
176.0510018071281
 20
291.78915380656599
 30
0.0
 11
182.5510018071281
 21
291.78915380656599
 31
0.0
  0
LINE
  5
5BA7
  8
AM_0
 10
182.5510018071281
 20
281.65587397791921
 30
0.0
 11
176.0510018071281
 21
281.65587397791921
 31
0.0
  0
LINE
  5
5BA8
  8
AM_0
 10
175.5510018071281
 20
282.15587397791921
 30
0.0
 11
182.5510018071281
 21
282.15587397791921
 31
0.0
  0
LINE
  5
5BA9
  8
AM_0
 10
182.2510018071282
 20
292.15587397791921
 30
0.0
 11
175.41305174230999
 21
292.15587397791921
 31
0.0
  0
LINE
  5
5BAA
  8
AM_0
 10
182.5510018071281
 20
282.50256204646018
 30
0.0
 11
176.0510018071281
 21
282.50256204646018
 31
0.0
  0
LINE
  5
5BAB
  8
AM_0
 10
182.5510018071281
 20
290.8091859093783
 30
0.0
 11
176.0510018071281
 21
290.8091859093783
 31
0.0
  0
ARC
  5
5BAC
  8
AM_0
 10
182.85100180712811
 20
292.85587397791909
 30
0.0
 40
0.2999999999999971
 50
90.0
 51
180.0
  0
ARC
  5
5BAD
  8
AM_0
 10
182.2510018071282
 20
292.45587397791923
 30
0.0
 40
0.2999999999999971
 50
270.0
 51
0.0
  0
ARC
  5
5BAE
  8
AM_0
 10
184.1760018071281
 20
286.65587397791921
 30
0.0
 40
9.124999999999984
 50
152.92493329271929
 51
207.07506670728071
  0
LINE
  5
5BAF
  8
AM_0
 10
174.7728673426457
 20
291.92409525751668
 30
0.0
 11
172.4108174074635
 21
289.95572031153171
 31
0.0
  0
LINE
  5
5BB0
  8
AM_0
 10
175.5510018071281
 20
291.57744139441121
 30
0.0
 11
176.0510018071281
 21
292.15587397791921
 31
0.0
  0
ARC
  5
5BB1
  8
AM_0
 10
175.41305174230999
 20
291.15587397791921
 30
0.0
 40
1.0
 50
90.0
 51
129.805571092256
  0
LINE
  5
5BB2
  8
AM_0
 10
176.0510018071281
 20
291.78915380656599
 30
0.0
 11
175.5510018071281
 21
291.57744139441121
 31
0.0
  0
LINE
  5
5BB3
  8
AM_0
 10
175.5510018071281
 20
291.11516612144021
 30
0.0
 11
176.0510018071281
 21
291.78915380656599
 31
0.0
  0
LINE
  5
5BB4
  8
AM_0
 10
176.0510018071281
 20
291.28915380656611
 30
0.0
 11
175.5510018071281
 21
291.11516612144021
 31
0.0
  0
LINE
  5
5BB5
  8
AM_0
 10
175.5510018071281
 20
290.5774413944111
 30
0.0
 11
176.0510018071281
 21
291.28915380656611
 31
0.0
  0
LINE
  5
5BB6
  8
AM_0
 10
176.0510018071281
 20
290.8091859093783
 30
0.0
 11
175.5510018071281
 21
290.5774413944111
 31
0.0
  0
ARC
  5
5BB7
  8
AM_0
 10
173.0510018071281
 20
289.18749903193418
 30
0.0
 40
1.0000000000000291
 50
129.80557109226771
 51
180.0
  0
LINE
  5
5BB8
  8
AM_0
 10
176.0510018071281
 20
281.65587397791921
 30
0.0
 11
175.5510018071281
 21
281.15587397791921
 31
0.0
  0
LINE
  5
5BB9
  8
AM_0
 10
175.5510018071281
 20
282.15587397791921
 30
0.0
 11
176.0510018071281
 21
281.65587397791921
 31
0.0
  0
LINE
  5
5BBA
  8
AM_0
 10
176.0510018071281
 20
282.50256204646018
 30
0.0
 11
175.5510018071281
 21
282.15587397791921
 31
0.0
  0
LINE
  5
5BBB
  8
AM_0
 10
182.85100180712811
 20
269.15587397791921
 30
0.0
 11
185.0510018071281
 21
269.15587397791921
 31
0.0
  0
ARC
  5
5BBC
  8
AM_0
 10
196.94967290347401
 20
268.65587397791921
 30
0.0
 40
0.5
 50
0.0
 51
90.000000000006537
  0
LINE
  5
5BBD
  8
AM_0
 10
191.94967290347401
 20
272.05587397791919
 30
0.0
 11
188.72736996212501
 21
272.05587397791919
 31
0.0
  0
LINE
  5
5BBE
  8
AM_0
 10
197.44967290347401
 20
280.01194529932621
 30
0.0
 11
197.44967290347401
 21
270.29980265651108
 31
0.0
  0
LINE
  5
5BBF
  8
AM_0
 10
192.44967290347401
 20
280.5119452993261
 30
0.0
 11
196.94967290347401
 21
280.5119452993261
 31
0.0
  0
ARC
  5
5BC0
  8
AM_0
 10
196.94967290347401
 20
280.01194529932621
 30
0.0
 40
0.5
 50
0.0
 51
90.0
  0
LINE
  5
5BC1
  8
AM_0
 10
192.44967290347401
 20
269.79980265651119
 30
0.0
 11
196.94967290347401
 21
269.79980265651119
 31
0.0
  0
LINE
  5
5BC2
  8
AM_0
 10
196.94967290347401
 20
269.15587397791921
 30
0.0
 11
192.94967290347401
 21
269.15587397791921
 31
0.0
  0
ARC
  5
5BC3
  8
AM_0
 10
196.94967290347401
 20
270.29980265651108
 30
0.0
 40
0.5
 50
270.0
 51
0.0
  0
ARC
  5
5BC4
  8
AM_0
 10
191.94967290347401
 20
271.55587397791919
 30
0.0
 40
0.5
 50
0.0
 51
90.0
  0
ARC
  5
5BC5
  8
AM_0
 10
192.94967290347401
 20
269.65587397791921
 30
0.0
 40
0.5
 50
180.0
 51
270.0
  0
ARC
  5
5BC6
  8
AM_0
 10
186.25100180712809
 20
275.01070322562708
 30
0.0
 40
0.3000000000000114
 50
270.0
 51
0.0
  0
LINE
  5
5BC7
  8
AM_0
 10
185.0510018071281
 20
280.15587397791722
 30
0.0
 11
186.25100180712809
 21
280.15587397791722
 31
0.0
  0
ARC
  5
5BC8
  8
AM_0
 10
186.25100180712809
 20
280.45587397791712
 30
0.0
 40
0.2999999999999971
 50
270.0
 51
0.0
  0
LINE
  5
5BC9
  8
AM_0
 10
185.0510018071281
 20
276.48294641206019
 30
0.0
 11
186.25100180712809
 21
276.48294641206019
 31
0.0
  0
ARC
  5
5BCA
  8
AM_0
 10
186.25100180712809
 20
276.18294641206012
 30
0.0
 40
0.3000000000000007
 50
0.0
 51
90.0
  0
LINE
  5
5BCB
  8
AM_0
 10
186.5510018071281
 20
276.18294641206018
 30
0.0
 11
186.5510018071281
 21
275.01070322562731
 31
0.0
  0
LINE
  5
5BCC
  8
AM_0
 10
187.97736996212501
 20
271.30587397791919
 30
0.0
 11
188.37294047504901
 21
271.30587397791919
 31
0.0
  0
LINE
  5
5BCD
  8
AM_0
 10
187.97736996212501
 20
271.30587397791919
 30
0.0
 11
188.37294047504901
 21
271.30587397791919
 31
0.0
  0
LINE
  5
5BCE
  8
AM_0
 10
188.4695329695883
 20
271.37999174465568
 30
0.0
 11
188.63077746758611
 21
271.98175621118281
 31
0.0
  0
LINE
  5
5BCF
  8
AM_0
 10
188.4695329695883
 20
271.37999174465568
 30
0.0
 11
188.63077746758611
 21
271.98175621118281
 31
0.0
  0
ARC
  5
5BD0
  8
AM_0
 10
188.72736996212501
 20
271.95587397791923
 30
0.0
 40
0.0999999999999943
 50
90.0
 51
164.9998049934874
  0
ARC
  5
5BD1
  8
AM_0
 10
188.37294047504901
 20
271.40587397791921
 30
0.0
 40
0.0999999999999943
 50
270.0
 51
344.99980499349448
  0
LINE
  5
5BD2
  8
AM_0
 10
187.05015521858689
 20
271.68087397791902
 30
0.0
 11
187.13077746758611
 21
271.98175621118281
 31
0.0
  0
LINE
  5
5BD3
  8
AM_0
 10
187.7023835556802
 20
272.01660944482109
 30
0.0
 11
187.88077746758611
 21
271.37999174465568
 31
0.0
  0
LINE
  5
5BD4
  8
AM_0
 10
187.7195329695883
 20
271.98175621118281
 30
0.0
 11
187.88077746758611
 21
271.37999174465568
 31
0.0
  0
LINE
  5
5BD5
  8
AM_0
 10
186.5510018071281
 20
271.86904099741031
 30
0.0
 11
186.5510018071281
 21
271.21212601375919
 31
0.0
  0
LINE
  5
5BD6
  8
AM_0
 10
187.0510018071281
 20
271.68403344635709
 30
0.0
 11
187.13077746758611
 21
271.98175621118281
 31
0.0
  0
LINE
  5
5BD7
  8
AM_0
 10
185.0510018071281
 20
272.16904099741021
 30
0.0
 11
186.25100180712809
 21
272.16904099741021
 31
0.0
  0
LINE
  5
5BD8
  8
AM_0
 10
186.25100180712809
 20
274.71070322562719
 30
0.0
 11
185.0510018071281
 21
274.71070322562628
 31
0.0
  0
LINE
  5
5BD9
  8
AM_0
 10
187.65557274056411
 20
272.05587397791919
 30
0.0
 11
187.7023835556802
 21
272.01660944482109
 31
0.0
  0
LINE
  5
5BDA
  8
AM_0
 10
187.2273699621251
 20
272.05587397791919
 30
0.0
 11
187.65557274056411
 21
272.05587397791919
 31
0.0
  0
LINE
  5
5BDB
  8
AM_0
 10
187.2273699621251
 20
272.05587397791919
 30
0.0
 11
187.62294047504901
 21
272.05587397791919
 31
0.0
  0
ARC
  5
5BDC
  8
AM_0
 10
187.2273699621251
 20
271.95587397791923
 30
0.0
 40
0.0999999999999943
 50
90.0
 51
164.9998049934874
  0
ARC
  5
5BDD
  8
AM_0
 10
187.62294047504901
 20
271.95587397791923
 30
0.0
 40
0.0999999999999608
 50
15.00019500651257
 51
90.0
  0
ARC
  5
5BDE
  8
AM_0
 10
186.25100180712809
 20
271.86904099741008
 30
0.0
 40
0.3000000000000007
 50
0.0
 51
90.0
  0
LINE
  5
5BDF
  8
AM_0
 10
185.0510018071281
 20
270.15587397791921
 30
0.0
 11
186.5510018071281
 21
270.15587397791921
 31
0.0
  0
LINE
  5
5BE0
  8
AM_0
 10
186.25100180712809
 20
270.91212601375918
 30
0.0
 11
185.0510018071281
 21
270.91212601375918
 31
0.0
  0
LINE
  5
5BE1
  8
AM_0
 10
186.27095751028509
 20
269.8372043581291
 30
0.0
 11
185.0510018071281
 21
269.75587397791918
 31
0.0
  0
ARC
  5
5BE2
  8
AM_0
 10
186.5510018071281
 20
270.65587397791921
 30
0.0
 40
0.5
 50
270.0
 51
0.0
  0
ARC
  5
5BE3
  8
AM_0
 10
187.97736996212501
 20
271.40587397791921
 30
0.0
 40
0.0999999999999606
 50
195.00019500650541
 51
270.0
  0
ARC
  5
5BE4
  8
AM_0
 10
186.25100180712809
 20
271.21212601375919
 30
0.0
 40
0.2999999999999971
 50
270.0
 51
0.0
  0
LINE
  5
5BE5
  8
AM_0
 10
186.5510018071281
 20
270.15587397791921
 30
0.0
 11
186.5510018071281
 21
270.13653990548607
 31
0.0
  0
ARC
  5
5BE6
  8
AM_0
 10
186.25100180712809
 20
270.13653990548607
 30
0.0
 40
0.3000000000000043
 50
273.81407483428148
 51
0.0
  0
ARC
  5
5BE7
  8
AM_0
 10
197.94967290347401
 20
268.15587397791921
 30
0.0
 40
0.5
 50
180.0
 51
270.0
  0
LINE
  5
5BE8
  8
AM_0
 10
197.44967290347401
 20
268.15587397791921
 30
0.0
 11
197.44967290347401
 21
268.65587397791921
 31
0.0
  0
LINE
  5
5BE9
  8
AM_0
 10
176.0510018071281
 20
271.50256204646013
 30
0.0
 11
182.5510018071281
 21
271.50256204646013
 31
0.0
  0
LINE
  5
5BEA
  8
AM_0
 10
176.0510018071281
 20
279.8091859093783
 30
0.0
 11
182.5510018071281
 21
279.8091859093783
 31
0.0
  0
LINE
  5
5BEB
  8
AM_0
 10
175.41305174230999
 20
270.15587397791921
 30
0.0
 11
182.2510018071282
 21
270.15587397791921
 31
0.0
  0
LINE
  5
5BEC
  8
AM_0
 10
182.5510018071281
 20
280.15587397791921
 30
0.0
 11
175.5510018071281
 21
280.15587397791921
 31
0.0
  0
LINE
  5
5BED
  8
AM_0
 10
176.0510018071281
 20
280.65587397791921
 30
0.0
 11
182.5510018071281
 21
280.65587397791921
 31
0.0
  0
LINE
  5
5BEE
  8
AM_0
 10
182.5510018071281
 20
270.52259414927119
 30
0.0
 11
176.0510018071281
 21
270.52259414927119
 31
0.0
  0
LINE
  5
5BEF
  8
AM_0
 10
182.5510018071281
 20
271.02259414927119
 30
0.0
 11
176.0510018071281
 21
271.02259414927119
 31
0.0
  0
ARC
  5
5BF0
  8
AM_0
 10
182.2510018071282
 20
269.85587397791909
 30
0.0
 40
0.3000000000000043
 50
0.0
 51
90.0
  0
ARC
  5
5BF1
  8
AM_0
 10
182.85100180712811
 20
269.45587397791923
 30
0.0
 40
0.2999999999999971
 50
180.0
 51
270.0
  0
ARC
  5
5BF2
  8
AM_0
 10
184.1760018071281
 20
275.65587397791921
 30
0.0
 40
9.124999999999984
 50
152.92493329271929
 51
207.07506670728071
  0
LINE
  5
5BF3
  8
AM_0
 10
175.5510018071281
 20
280.15587397791921
 30
0.0
 11
176.0510018071281
 21
279.8091859093783
 31
0.0
  0
LINE
  5
5BF4
  8
AM_0
 10
176.0510018071281
 20
280.65587397791921
 30
0.0
 11
175.5510018071281
 21
280.15587397791921
 31
0.0
  0
LINE
  5
5BF5
  8
AM_0
 10
172.4108174074635
 20
272.35602764430581
 30
0.0
 11
174.7728673426457
 21
270.3876526983218
 31
0.0
  0
LINE
  5
5BF6
  8
AM_0
 10
176.0510018071281
 20
270.15587397791921
 30
0.0
 11
175.5510018071281
 21
270.73430656142631
 31
0.0
  0
ARC
  5
5BF7
  8
AM_0
 10
175.41305174230999
 20
271.15587397791921
 30
0.0
 40
1.0000000000000411
 50
230.19442890774391
 51
270.0
  0
LINE
  5
5BF8
  8
AM_0
 10
175.5510018071281
 20
271.73430656142619
 30
0.0
 11
176.0510018071281
 21
271.50256204646013
 31
0.0
  0
LINE
  5
5BF9
  8
AM_0
 10
176.0510018071281
 20
271.02259414927119
 30
0.0
 11
175.5510018071281
 21
271.73430656142619
 31
0.0
  0
LINE
  5
5BFA
  8
AM_0
 10
175.5510018071281
 20
271.19658183439822
 30
0.0
 11
176.0510018071281
 21
271.02259414927119
 31
0.0
  0
LINE
  5
5BFB
  8
AM_0
 10
176.0510018071281
 20
270.52259414927119
 30
0.0
 11
175.5510018071281
 21
271.19658183439822
 31
0.0
  0
LINE
  5
5BFC
  8
AM_0
 10
175.5510018071281
 20
270.73430656142631
 30
0.0
 11
176.0510018071281
 21
270.52259414927119
 31
0.0
  0
ARC
  5
5BFD
  8
AM_0
 10
173.0510018071281
 20
273.12424892390311
 30
0.0
 40
1.0
 50
180.0
 51
230.19442890773229
  0
CIRCLE
  5
5BFE
  8
AM_0
 10
206.4496729034725
 20
307.15587397791882
 30
0.0
 40
4.0
  0
LINE
  5
5BFF
  8
AM_0
 10
206.13817290347239
 20
304.87706557219451
 30
0.0
 11
206.7611729034725
 21
304.87706557219451
 31
0.0
  0
LINE
  5
5C00
  8
AM_0
 10
206.13817290347239
 20
309.43468238364318
 30
0.0
 11
206.7611729034725
 21
309.43468238364318
 31
0.0
  0
LINE
  5
5C01
  8
AM_0
 10
206.13817290347239
 20
304.87706557219451
 30
0.0
 11
206.13817290347239
 21
306.84437397791879
 31
0.0
  0
LINE
  5
5C02
  8
AM_0
 10
206.13817290347239
 20
307.46737397791878
 30
0.0
 11
206.13817290347239
 21
309.43468238364318
 31
0.0
  0
LINE
  5
5C03
  8
AM_0
 10
206.13817290347239
 20
307.46737397791878
 30
0.0
 11
204.170864497748
 21
307.46737397791878
 31
0.0
  0
LINE
  5
5C04
  8
AM_0
 10
206.13817290347239
 20
306.84437397791879
 30
0.0
 11
204.170864497748
 21
306.84437397791879
 31
0.0
  0
LINE
  5
5C05
  8
AM_0
 10
204.170864497748
 20
307.46737397791878
 30
0.0
 11
204.170864497748
 21
306.84437397791879
 31
0.0
  0
LINE
  5
5C06
  8
AM_0
 10
206.7611729034725
 20
304.87706557219451
 30
0.0
 11
206.7611729034725
 21
306.84437397791879
 31
0.0
  0
LINE
  5
5C07
  8
AM_0
 10
206.7611729034725
 20
307.46737397791878
 30
0.0
 11
206.7611729034725
 21
309.43468238364318
 31
0.0
  0
LINE
  5
5C08
  8
AM_0
 10
208.7284813091967
 20
306.84437397791879
 30
0.0
 11
206.7611729034725
 21
306.84437397791879
 31
0.0
  0
LINE
  5
5C09
  8
AM_0
 10
208.7284813091967
 20
307.46737397791878
 30
0.0
 11
206.7611729034725
 21
307.46737397791878
 31
0.0
  0
LINE
  5
5C0A
  8
AM_0
 10
208.7284813091967
 20
307.46737397791878
 30
0.0
 11
208.7284813091967
 21
306.84437397791879
 31
0.0
  0
CIRCLE
  5
5C0B
  8
AM_0
 10
292.44967290347603
 20
307.15587397791882
 30
0.0
 40
4.0
  0
LINE
  5
5C0C
  8
AM_0
 10
292.138172903476
 20
304.8770655721944
 30
0.0
 11
292.76117290347588
 21
304.8770655721944
 31
0.0
  0
LINE
  5
5C0D
  8
AM_0
 10
292.138172903476
 20
309.43468238364312
 30
0.0
 11
292.76117290347588
 21
309.43468238364312
 31
0.0
  0
LINE
  5
5C0E
  8
AM_0
 10
292.138172903476
 20
304.8770655721944
 30
0.0
 11
292.138172903476
 21
306.84437397791868
 31
0.0
  0
LINE
  5
5C0F
  8
AM_0
 10
292.138172903476
 20
307.46737397791878
 30
0.0
 11
292.138172903476
 21
309.43468238364312
 31
0.0
  0
LINE
  5
5C10
  8
AM_0
 10
292.138172903476
 20
307.46737397791878
 30
0.0
 11
290.17086449775161
 21
307.46737397791878
 31
0.0
  0
LINE
  5
5C11
  8
AM_0
 10
292.138172903476
 20
306.84437397791868
 30
0.0
 11
290.17086449775161
 21
306.84437397791868
 31
0.0
  0
LINE
  5
5C12
  8
AM_0
 10
290.17086449775161
 20
307.46737397791878
 30
0.0
 11
290.17086449775161
 21
306.84437397791868
 31
0.0
  0
LINE
  5
5C13
  8
AM_0
 10
292.76117290347588
 20
304.8770655721944
 30
0.0
 11
292.76117290347588
 21
306.84437397791868
 31
0.0
  0
LINE
  5
5C14
  8
AM_0
 10
292.76117290347588
 20
307.46737397791878
 30
0.0
 11
292.76117290347588
 21
309.43468238364312
 31
0.0
  0
LINE
  5
5C15
  8
AM_0
 10
294.72848130920028
 20
306.84437397791868
 30
0.0
 11
292.76117290347588
 21
306.84437397791868
 31
0.0
  0
LINE
  5
5C16
  8
AM_0
 10
294.72848130920028
 20
307.46737397791878
 30
0.0
 11
292.76117290347588
 21
307.46737397791878
 31
0.0
  0
LINE
  5
5C17
  8
AM_0
 10
294.72848130920028
 20
307.46737397791878
 30
0.0
 11
294.72848130920028
 21
306.84437397791868
 31
0.0
  0
LINE
  5
5C18
  8
AM_0
 10
219.98520680940709
 20
310.69140788385198
 30
0.0
 11
202.91413899754139
 21
293.62034007198667
 31
0.0
  0
LINE
  5
5C19
  8
AM_0
 10
220.64206105889929
 20
305.69140788385192
 30
0.0
 11
207.91413899754139
 21
292.96348582249402
 31
0.0
  0
ARC
  5
5C1A
  8
AM_0
 10
211.44967290347401
 20
289.42795191656131
 30
0.0
 40
5.0
 50
135.0
 51
180.0
1001
GENIUS_GENOBJ-N-FIL_13
1002
{
1000
OWNER
1000
GEN
1002
}
1001
GENIUS_GENODEF_13
1002
{
1000
HIER
1070
     0
1002
}
1002
{
1000
MANEDIT
1070
     0
1002
}
1002
{
1000
NOSEL
1070
     0
1002
}
1002
{
1000
BEHIND
1070
     0
1002
}
1002
{
1000
OTHER
1070
     0
1002
}
1002
{
1000
REACTOR
1002
}
  0
LINE
  5
5C1B
  8
AM_0
 10
278.91413899754127
 20
221.62034007198631
 30
0.0
 11
295.98520680940692
 21
238.6914078838517
 31
0.0
  0
ARC
  5
5C1C
  8
AM_0
 10
275.37860509160868
 20
225.15587397791899
 30
0.0
 40
5.0
 50
270.0
 51
315.0
1001
GENIUS_GENODEF_13
1002
{
1000
HIER
1070
     0
1002
}
1002
{
1000
MANEDIT
1070
     0
1002
}
1002
{
1000
NOSEL
1070
     0
1002
}
1002
{
1000
BEHIND
1070
     0
1002
}
1002
{
1000
OTHER
1070
     0
1002
}
1002
{
1000
REACTOR
1002
}
1001
GENIUS_GENOBJ-N-FIL_13
1002
{
1000
OWNER
1000
GEN
1002
}
  0
LINE
  5
5C1D
  8
AM_0
 10
278.25728474804907
 20
226.62034007198631
 30
0.0
 11
290.9852068094068
 21
239.34826213334389
 31
0.0
  0
ARC
  5
5C1E
  8
AM_0
 10
287.44967290347421
 20
242.88379603927669
 30
0.0
 40
5.0
 50
315.0
 51
0.0
1001
GENIUS_GENOBJ-N-FIL_13
1002
{
1000
OWNER
1000
GEN
1002
}
1001
GENIUS_GENODEF_13
1002
{
1000
HIER
1070
     0
1002
}
1002
{
1000
MANEDIT
1070
     0
1002
}
1002
{
1000
NOSEL
1070
     0
1002
}
1002
{
1000
BEHIND
1070
     0
1002
}
1002
{
1000
OTHER
1070
     0
1002
}
1002
{
1000
REACTOR
1002
}
  0
LINE
  5
5C1F
  8
AM_0
 10
219.9852068094068
 20
221.62034007198631
 30
0.0
 11
202.91413899754139
 21
238.6914078838515
 31
0.0
  0
LINE
  5
5C20
  8
AM_0
 10
220.642061058899
 20
226.62034007198631
 30
0.0
 11
207.91413899754139
 21
239.34826213334389
 31
0.0
  0
ARC
  5
5C21
  8
AM_0
 10
224.1775949648318
 20
230.1558739779189
 30
0.0
 40
5.0
 50
225.0
 51
270.0
1001
GENIUS_GENOBJ-N-FIL_13
1002
{
1000
OWNER
1000
GEN
1002
}
1001
GENIUS_GENODEF_13
1002
{
1000
HIER
1070
     0
1002
}
1002
{
1000
MANEDIT
1070
     0
1002
}
1002
{
1000
NOSEL
1070
     0
1002
}
1002
{
1000
BEHIND
1070
     0
1002
}
1002
{
1000
OTHER
1070
     0
1002
}
1002
{
1000
REACTOR
1002
}
  0
CIRCLE
  5
5C22
  8
AM_0
 10
206.44967290347219
 20
225.15587397791941
 30
0.0
 40
4.0
  0
LINE
  5
5C23
  8
AM_0
 10
206.13817290347239
 20
227.4346823836438
 30
0.0
 11
206.7611729034723
 21
227.4346823836438
 31
0.0
  0
LINE
  5
5C24
  8
AM_0
 10
206.13817290347239
 20
222.87706557219511
 30
0.0
 11
206.7611729034723
 21
222.87706557219511
 31
0.0
  0
LINE
  5
5C25
  8
AM_0
 10
206.13817290347239
 20
227.4346823836438
 30
0.0
 11
206.13817290347239
 21
225.46737397791949
 31
0.0
  0
LINE
  5
5C26
  8
AM_0
 10
206.13817290347239
 20
224.84437397791939
 30
0.0
 11
206.13817290347239
 21
222.87706557219511
 31
0.0
  0
LINE
  5
5C27
  8
AM_0
 10
206.13817290347239
 20
224.84437397791939
 30
0.0
 11
204.170864497748
 21
224.84437397791939
 31
0.0
  0
LINE
  5
5C28
  8
AM_0
 10
206.13817290347239
 20
225.46737397791949
 30
0.0
 11
204.170864497748
 21
225.46737397791949
 31
0.0
  0
LINE
  5
5C29
  8
AM_0
 10
204.170864497748
 20
224.84437397791939
 30
0.0
 11
204.170864497748
 21
225.46737397791949
 31
0.0
  0
LINE
  5
5C2A
  8
AM_0
 10
206.7611729034723
 20
227.4346823836438
 30
0.0
 11
206.7611729034723
 21
225.46737397791949
 31
0.0
  0
LINE
  5
5C2B
  8
AM_0
 10
206.7611729034723
 20
224.84437397791939
 30
0.0
 11
206.7611729034723
 21
222.87706557219511
 31
0.0
  0
LINE
  5
5C2C
  8
AM_0
 10
208.7284813091967
 20
225.46737397791949
 30
0.0
 11
206.7611729034723
 21
225.46737397791949
 31
0.0
  0
LINE
  5
5C2D
  8
AM_0
 10
208.7284813091967
 20
224.84437397791939
 30
0.0
 11
206.7611729034723
 21
224.84437397791939
 31
0.0
  0
LINE
  5
5C2E
  8
AM_0
 10
208.7284813091967
 20
224.84437397791939
 30
0.0
 11
208.7284813091967
 21
225.46737397791949
 31
0.0
  0
CIRCLE
  5
5C2F
  8
AM_0
 10
292.4496729034758
 20
225.15587397791921
 30
0.0
 40
4.0
  0
LINE
  5
5C30
  8
AM_0
 10
292.13817290347578
 20
227.43468238364369
 30
0.0
 11
292.76117290347582
 21
227.43468238364369
 31
0.0
  0
LINE
  5
5C31
  8
AM_0
 10
292.13817290347578
 20
222.87706557219491
 30
0.0
 11
292.76117290347582
 21
222.87706557219491
 31
0.0
  0
LINE
  5
5C32
  8
AM_0
 10
292.13817290347578
 20
227.43468238364369
 30
0.0
 11
292.13817290347578
 21
225.46737397791921
 31
0.0
  0
LINE
  5
5C33
  8
AM_0
 10
292.13817290347578
 20
224.84437397791919
 30
0.0
 11
292.13817290347578
 21
222.87706557219491
 31
0.0
  0
LINE
  5
5C34
  8
AM_0
 10
292.13817290347578
 20
224.84437397791919
 30
0.0
 11
290.17086449775138
 21
224.84437397791919
 31
0.0
  0
LINE
  5
5C35
  8
AM_0
 10
292.13817290347578
 20
225.46737397791921
 30
0.0
 11
290.17086449775138
 21
225.46737397791921
 31
0.0
  0
LINE
  5
5C36
  8
AM_0
 10
290.17086449775138
 20
224.84437397791919
 30
0.0
 11
290.17086449775138
 21
225.46737397791921
 31
0.0
  0
LINE
  5
5C37
  8
AM_0
 10
292.76117290347582
 20
227.43468238364369
 30
0.0
 11
292.76117290347582
 21
225.46737397791921
 31
0.0
  0
LINE
  5
5C38
  8
AM_0
 10
292.76117290347582
 20
224.84437397791919
 30
0.0
 11
292.76117290347582
 21
222.87706557219491
 31
0.0
  0
LINE
  5
5C39
  8
AM_0
 10
294.72848130920028
 20
225.46737397791921
 30
0.0
 11
292.76117290347582
 21
225.46737397791921
 31
0.0
  0
LINE
  5
5C3A
  8
AM_0
 10
294.72848130920028
 20
224.84437397791919
 30
0.0
 11
292.76117290347582
 21
224.84437397791919
 31
0.0
  0
LINE
  5
5C3B
  8
AM_0
 10
294.72848130920028
 20
224.84437397791919
 30
0.0
 11
294.72848130920028
 21
225.46737397791921
 31
0.0
  0
LINE
  5
5C3C
  8
AM_0
 10
201.44967290347401
 20
235.1558739779191
 30
0.0
 11
200.4496729034741
 21
235.1558739779191
 31
0.0
  0
LINE
  5
5C3D
  8
AM_0
 10
201.44967290347401
 20
297.15587397791921
 30
0.0
 11
200.4496729034741
 21
297.1558739779191
 31
0.0
  0
LINE
  5
5C3E
  8
AM_0
 10
200.4496729034741
 20
235.1558739779191
 30
0.0
 11
200.4496729034741
 21
297.1558739779191
 31
0.0
  0
LINE
  5
5C3F
  8
ﾁｭｳｼﾝｾﾝ1
 10
206.44967290347199
 20
301.15587397791882
 30
0.0
 11
206.4496729034727
 21
313.15587397791882
 31
0.0
  0
LINE
  5
5C40
  8
ﾁｭｳｼﾝｾﾝ1
 10
212.44967290347239
 20
307.15587397791847
 30
0.0
 11
200.4496729034725
 21
307.15587397791921
 31
0.0
  0
LINE
  5
5C41
  8
ﾁｭｳｼﾝｾﾝ1
 10
206.44967290347199
 20
219.15587397791941
 30
0.0
 11
206.4496729034727
 21
231.1558739779195
 31
0.0
  0
LINE
  5
5C42
  8
ﾁｭｳｼﾝｾﾝ1
 10
212.44967290347211
 20
225.15587397791921
 30
0.0
 11
200.44967290347211
 21
225.15587397791981
 31
0.0
  0
LINE
  5
5C43
  8
ﾁｭｳｼﾝｾﾝ1
 10
292.44967290347552
 20
219.15587397791921
 30
0.0
 11
292.44967290347608
 21
231.15587397791921
 31
0.0
  0
LINE
  5
5C44
  8
ﾁｭｳｼﾝｾﾝ1
 10
298.4496729034758
 20
225.15587397791899
 30
0.0
 11
286.4496729034758
 21
225.1558739779197
 31
0.0
  0
LINE
  5
5C48
  8
AM_0
 10
186.43009568345221
 20
269.89586297791902
 30
0.0
 11
192.44967290347401
 21
269.89586297791908
 31
0.0
  0
LINE
  5
5C49
  8
ﾁｭｳｼﾝｾﾝ1
 10
170.44967290347401
 20
246.15587397791899
 30
0.0
 11
203.7476190419645
 21
246.15587397791899
 31
0.0
  0
LINE
  5
5C4A
  8
AM_0
 10
190.3246729034752
 20
239.7658199217949
 30
0.0
 11
190.33538250801999
 21
239.55587397791899
 31
0.0
  0
LINE
  5
5C4B
  8
AM_0
 10
190.33538250801999
 20
239.55587397791899
 30
0.0
 11
190.3716878952211
 21
238.844160604032
 31
0.0
  0
LINE
  5
5C4C
  8
AM_0
 10
190.3246729034752
 20
243.5231514694359
 30
0.0
 11
190.57069912615509
 21
239.55587397791899
 31
0.0
  0
LINE
  5
5C4D
  8
AM_0
 10
191.04300206750409
 20
239.55587397791899
 30
0.0
 11
190.64743155458021
 21
239.55587397791899
 31
0.0
  0
LINE
  5
5C4E
  8
AM_0
 10
190.55083906004089
 20
239.48175621118349
 30
0.0
 11
190.3895945620431
 21
238.8799917446554
 31
0.0
  0
LINE
  5
5C4F
  8
AM_0
 10
190.57069912615509
 20
239.55587397791899
 30
0.0
 11
190.55083906004089
 21
239.48175621118349
 31
0.0
  0
LINE
  5
5C50
  8
AM_0
 10
188.8246729034752
 20
237.1558739779191
 30
0.0
 11
188.8246729034752
 21
237.45587397791999
 31
0.0
  0
LINE
  5
5C51
  8
AM_0
 10
178.32467290347401
 20
246.15587397791899
 30
0.0
 11
178.32467290347401
 21
240.83689894550989
 31
0.0
  0
LINE
  5
5C52
  8
AM_0
 10
188.8246729034752
 20
237.65587397792001
 30
0.0
 11
190.1246729034751
 21
237.65587397792001
 31
0.0
  0
LINE
  5
5C53
  8
AM_0
 10
189.82467290347401
 20
237.62737024655399
 30
0.0
 11
189.8246729034752
 21
237.65587397792001
 31
0.0
  0
LINE
  5
5C54
  8
AM_0
 10
180.82467290347211
 20
238.62368276978299
 30
0.0
 11
186.824672903475
 21
238.62368276978299
 31
0.0
  0
LINE
  5
5C55
  8
AM_0
 10
186.824672903475
 20
238.1236827697831
 30
0.0
 11
180.82467290347111
 21
238.1236827697831
 31
0.0
  0
LINE
  5
5C56
  8
AM_0
 10
180.82467290347111
 20
238.1236827697831
 30
0.0
 11
181.32467290347111
 21
237.65587397791899
 31
0.0
  0
LINE
  5
5C57
  8
AM_0
 10
181.32467290347111
 20
238.1236827697831
 30
0.0
 11
180.82467290347211
 21
238.62368276978299
 31
0.0
  0
LINE
  5
5C58
  8
AM_0
 10
180.82467290347211
 20
239.29465804575199
 30
0.0
 11
181.32467290347111
 21
238.62368276978299
 31
0.0
  0
LINE
  5
5C59
  8
AM_0
 10
181.32467290347111
 20
239.34413628642901
 30
0.0
 11
180.82467290347211
 21
239.29465804575199
 31
0.0
  0
LINE
  5
5C5A
  8
AM_0
 10
186.824672903475
 20
245.065680142861
 30
0.0
 11
186.824672903475
 21
246.15587397791899
 31
0.0
  0
LINE
  5
5C5B
  8
AM_0
 10
180.82467290347111
 20
245.1558739779191
 30
0.0
 11
186.824672903475
 21
245.1558739779191
 31
0.0
  0
LINE
  5
5C5C
  8
AM_0
 10
181.32467290347111
 20
244.467611669409
 30
0.0
 11
180.82467290347111
 21
245.1558739779191
 31
0.0
  0
LINE
  5
5C5D
  8
AM_0
 10
180.82467290347111
 20
245.1558739779191
 30
0.0
 11
181.32467290347211
 21
245.6558739779191
 31
0.0
  0
LINE
  5
5C5E
  8
AM_0
 10
180.82467290347211
 20
246.15587397791899
 30
0.0
 11
181.32467290347211
 21
245.6558739779191
 31
0.0
  0
LINE
  5
5C5F
  8
AM_0
 10
181.32467290347211
 20
245.6558739779191
 30
0.0
 11
186.824672903475
 21
245.6558739779191
 31
0.0
  0
LINE
  5
5C60
  8
AM_0
 10
181.32467290347111
 20
244.467611669409
 30
0.0
 11
186.824672903475
 21
244.467611669409
 31
0.0
  0
LINE
  5
5C61
  8
AM_0
 10
181.32467290347111
 20
239.34413628642901
 30
0.0
 11
186.824672903475
 21
239.34413628643
 31
0.0
  0
LINE
  5
5C62
  8
AM_0
 10
189.82467290347401
 20
245.70587397791999
 30
0.0
 11
189.8246729034752
 21
246.15587397791899
 31
0.0
  0
LINE
  5
5C63
  8
AM_0
 10
188.8246729034752
 20
237.45587397791999
 30
0.0
 11
188.8246729034752
 21
246.155873977921
 31
0.0
  0
LINE
  5
5C64
  8
AM_0
 10
189.52467290347411
 20
239.19836928988701
 30
0.0
 11
188.8246729034752
 21
239.19836928988701
 31
0.0
  0
LINE
  5
5C65
  8
AM_0
 10
189.82467290347401
 20
238.493258432597
 30
0.0
 11
189.82467290347401
 21
238.898369289887
 31
0.0
  0
LINE
  5
5C66
  8
AM_0
 10
188.8246729034752
 20
238.19325843259699
 30
0.0
 11
189.52467290347411
 21
238.19325843259699
 31
0.0
  0
LINE
  5
5C67
  8
AM_0
 10
189.52467290347411
 20
242.571969475288
 30
0.0
 11
188.8246729034752
 21
242.571969475288
 31
0.0
  0
LINE
  5
5C68
  8
AM_0
 10
189.82467290347401
 20
241.47205320899599
 30
0.0
 11
189.82467290347401
 21
242.27196947528799
 31
0.0
  0
LINE
  5
5C69
  8
AM_0
 10
188.8246729034752
 20
241.172053208996
 30
0.0
 11
189.52467290347411
 21
241.172053208996
 31
0.0
  0
LINE
  5
5C6A
  8
AM_0
 10
188.8246729034752
 20
245.4058739779191
 30
0.0
 11
189.52467290347411
 21
245.4058739779191
 31
0.0
  0
LINE
  5
5C6B
  8
AM_0
 10
190.3246729034752
 20
246.15587397791899
 30
0.0
 11
190.3246729034752
 21
237.85587397792
 31
0.0
  0
LINE
  5
5C6C
  8
AM_0
 10
187.02467290347411
 20
237.1558739779191
 30
0.0
 11
188.8246729034752
 21
237.1558739779191
 31
0.0
  0
LINE
  5
5C6D
  8
AM_0
 10
178.44056226367519
 20
240.516806745678
 30
0.0
 11
180.67474973666501
 21
237.83578177808531
 31
0.0
  0
LINE
  5
5C6E
  8
AM_0
 10
189.55452401918069
 20
237.328859089491
 30
0.0
 11
188.8246729034752
 21
237.25587397792
 31
0.0
  0
LINE
  5
5C6F
  8
AM_0
 10
186.6246729034751
 20
237.65587397791899
 30
0.0
 11
181.058860376464
 21
237.655873977917
 31
0.0
  0
LINE
  5
5C70
  8
AM_0
 10
186.824672903475
 20
245.065680142861
 30
0.0
 11
186.824672903475
 21
237.45587397791891
 31
0.0
  0
LINE
  5
5C71
  8
AM_0
 10
186.824672903475
 20
237.45587397791891
 30
0.0
 11
186.82467290347401
 21
237.355873977919
 31
0.0
  0
LINE
  5
5C72
  8
AM_0
 10
194.44967290347401
 20
237.8558739779192
 30
0.0
 11
194.44967290347401
 21
244.467611669409
 31
0.0
  0
LINE
  5
5C73
  8
AM_0
 10
190.949672903475
 20
246.15587397791899
 30
0.0
 11
191.32242676148499
 21
238.83973563039899
 31
0.0
  0
LINE
  5
5C74
  8
AM_0
 10
191.49870827325
 20
246.15587397791899
 30
0.0
 11
191.8716878952211
 21
238.844160604032
 31
0.0
  0
LINE
  5
5C75
  8
AM_0
 10
191.13959456204319
 20
239.4817562111825
 30
0.0
 11
191.11973449593
 21
239.55587397791899
 31
0.0
  0
LINE
  5
5C76
  8
AM_0
 10
192.07069912615509
 20
239.55587397791899
 30
0.0
 11
192.05083906004089
 21
239.48175621118349
 31
0.0
  0
LINE
  5
5C77
  8
AM_0
 10
191.7930020675042
 20
238.80587397791891
 30
0.0
 11
191.39743155458021
 21
238.80587397791891
 31
0.0
  0
LINE
  5
5C78
  8
AM_0
 10
191.300839060041
 20
238.8799917446556
 30
0.0
 11
191.13959456204319
 21
239.4817562111825
 31
0.0
  0
LINE
  5
5C79
  8
AM_0
 10
192.05083906004089
 20
239.48175621118349
 30
0.0
 11
191.8895945620431
 21
238.8799917446554
 31
0.0
  0
LINE
  5
5C7A
  8
AM_0
 10
190.71044296712711
 20
246.15587397791899
 30
0.0
 11
191.11973449593
 21
239.55587397791899
 31
0.0
  0
LINE
  5
5C7B
  8
AM_0
 10
191.66140759735211
 20
246.15587397791899
 30
0.0
 11
192.07069912615509
 21
239.55587397791899
 31
0.0
  0
LINE
  5
5C7C
  8
AM_0
 10
192.14743155458021
 20
239.55587397791899
 30
0.0
 11
193.94967290347401
 21
239.55587397791899
 31
0.0
  0
LINE
  5
5C7D
  8
AM_0
 10
194.44967290347401
 20
244.467611669409
 30
0.0
 11
194.44967290347401
 21
246.15587397792001
 31
0.0
  0
LINE
  5
5C7E
  8
AM_0
 10
194.649672903474
 20
237.65587397791899
 30
0.0
 11
198.24967290347399
 21
237.65587397791899
 31
0.0
  0
LINE
  5
5C7F
  8
AM_0
 10
198.24967290347411
 20
244.467611669409
 30
0.0
 11
194.44967290347401
 21
244.467611669409
 31
0.0
  0
LINE
  5
5C80
  8
AM_0
 10
194.44967290347401
 20
239.34413628643
 30
0.0
 11
198.24967290347411
 21
239.34413628643
 31
0.0
  0
LINE
  5
5C81
  8
AM_0
 10
173.44967290347401
 20
246.15587397791899
 30
0.0
 11
173.44967290347401
 21
241.90587397791899
 31
0.0
  0
LINE
  5
5C82
  8
AM_0
 10
178.32467290347401
 20
241.85473761428301
 30
0.0
 11
173.44967290347401
 21
241.90587397791899
 31
0.0
  0
LINE
  5
5C83
  8
AM_0
 10
173.4496729034741
 20
250.40587397791899
 30
0.0
 11
178.3246729034741
 21
250.45701034155601
 31
0.0
  0
LINE
  5
5C84
  8
AM_0
 10
173.4496729034741
 20
250.40587397791899
 30
0.0
 11
173.44967290347401
 21
246.15587397791899
 31
0.0
  0
LINE
  5
5C85
  8
AM_0
 10
198.24967290347411
 20
252.967611669409
 30
0.0
 11
194.4496729034741
 21
252.967611669409
 31
0.0
  0
LINE
  5
5C86
  8
AM_0
 10
194.44967290347401
 20
247.84413628643
 30
0.0
 11
198.24967290347411
 21
247.84413628643
 31
0.0
  0
LINE
  5
5C87
  8
AM_0
 10
198.24967290347411
 20
254.65587397791899
 30
0.0
 11
194.649672903474
 21
254.65587397791899
 31
0.0
  0
LINE
  5
5C88
  8
AM_0
 10
194.44967290347401
 20
246.15587397792001
 30
0.0
 11
194.44967290347401
 21
247.84413628643
 31
0.0
  0
LINE
  5
5C89
  8
AM_0
 10
193.9496729034741
 20
252.75587397791901
 30
0.0
 11
191.40140533190009
 21
252.75587397791901
 31
0.0
  0
LINE
  5
5C8A
  8
AM_0
 10
191.3246729034741
 20
252.75587397791901
 30
0.0
 11
191.66140759735211
 21
246.15587397791899
 31
0.0
  0
LINE
  5
5C8B
  8
AM_0
 10
190.37370827324909
 20
252.75587397791901
 30
0.0
 11
190.71044296712711
 21
246.15587397791899
 31
0.0
  0
LINE
  5
5C8C
  8
AM_0
 10
191.14356833936321
 20
253.43175621118249
 30
0.0
 11
191.304812837361
 21
252.8299917446555
 31
0.0
  0
LINE
  5
5C8D
  8
AM_0
 10
190.39356833936321
 20
252.8299917446555
 30
0.0
 11
190.55481283736091
 21
253.4317562111824
 31
0.0
  0
LINE
  5
5C8E
  8
AM_0
 10
190.65140533190009
 20
253.50587397791901
 30
0.0
 11
191.04697584482409
 21
253.50587397791901
 31
0.0
  0
LINE
  5
5C8F
  8
AM_0
 10
191.304812837361
 20
252.8299917446555
 30
0.0
 11
191.3246729034741
 21
252.75587397791901
 31
0.0
  0
LINE
  5
5C90
  8
AM_0
 10
190.37370827324909
 20
252.75587397791901
 30
0.0
 11
190.39356833936321
 21
252.8299917446555
 31
0.0
  0
LINE
  5
5C91
  8
AM_0
 10
191.1256616725411
 20
253.467587351806
 30
0.0
 11
191.49870827325
 21
246.15587397791899
 31
0.0
  0
LINE
  5
5C92
  8
AM_0
 10
190.57640053880499
 20
253.47201232544001
 30
0.0
 11
190.949672903475
 21
246.15587397791899
 31
0.0
  0
LINE
  5
5C93
  8
AM_0
 10
194.44967290347401
 20
247.84413628643
 30
0.0
 11
194.4496729034741
 21
254.45587397791971
 31
0.0
  0
LINE
  5
5C94
  8
AM_0
 10
186.8246729034741
 20
254.95587397791999
 30
0.0
 11
186.824672903475
 21
254.85587397792011
 31
0.0
  0
LINE
  5
5C95
  8
AM_0
 10
186.824672903475
 20
254.85587397792011
 30
0.0
 11
186.824672903475
 21
247.246067812978
 31
0.0
  0
LINE
  5
5C96
  8
AM_0
 10
181.058860376464
 20
254.655873977922
 30
0.0
 11
186.6246729034751
 21
254.65587397792001
 31
0.0
  0
LINE
  5
5C97
  8
AM_0
 10
188.8246729034752
 20
255.05587397791899
 30
0.0
 11
189.55452401918069
 21
254.98288886634799
 31
0.0
  0
LINE
  5
5C98
  8
AM_0
 10
180.67474973666501
 20
254.47596617775369
 30
0.0
 11
178.44056226367519
 21
251.794941210161
 31
0.0
  0
LINE
  5
5C99
  8
AM_0
 10
188.8246729034752
 20
255.1558739779189
 30
0.0
 11
187.02467290347411
 21
255.1558739779189
 31
0.0
  0
LINE
  5
5C9A
  8
AM_0
 10
190.3246729034752
 20
254.455873977919
 30
0.0
 11
190.3246729034752
 21
246.15587397791899
 31
0.0
  0
LINE
  5
5C9B
  8
AM_0
 10
189.52467290347411
 20
246.9058739779189
 30
0.0
 11
188.8246729034752
 21
246.9058739779189
 31
0.0
  0
LINE
  5
5C9C
  8
AM_0
 10
189.52467290347411
 20
251.13969474684299
 30
0.0
 11
188.8246729034752
 21
251.13969474684299
 31
0.0
  0
LINE
  5
5C9D
  8
AM_0
 10
189.8246729034741
 20
250.03977848055101
 30
0.0
 11
189.8246729034741
 21
250.83969474684301
 31
0.0
  0
LINE
  5
5C9E
  8
AM_0
 10
188.8246729034752
 20
249.739778480551
 30
0.0
 11
189.52467290347411
 21
249.739778480551
 31
0.0
  0
LINE
  5
5C9F
  8
AM_0
 10
189.52467290347411
 20
254.118489523242
 30
0.0
 11
188.8246729034752
 21
254.118489523242
 31
0.0
  0
LINE
  5
5CA0
  8
AM_0
 10
189.8246729034741
 20
253.413378665952
 30
0.0
 11
189.8246729034741
 21
253.81848952324199
 31
0.0
  0
LINE
  5
5CA1
  8
AM_0
 10
188.8246729034752
 20
253.11337866595201
 30
0.0
 11
189.52467290347411
 21
253.11337866595201
 31
0.0
  0
LINE
  5
5CA2
  8
AM_0
 10
188.8246729034752
 20
246.155873977921
 30
0.0
 11
188.8246729034752
 21
254.855873977919
 31
0.0
  0
LINE
  5
5CA3
  8
AM_0
 10
189.8246729034752
 20
246.15587397791899
 30
0.0
 11
189.82467290347401
 21
246.605873977919
 31
0.0
  0
LINE
  5
5CA4
  8
AM_0
 10
186.824672903475
 20
252.967611669409
 30
0.0
 11
181.32467290347111
 21
252.967611669409
 31
0.0
  0
LINE
  5
5CA5
  8
AM_0
 10
186.824672903475
 20
247.84413628643
 30
0.0
 11
181.32467290347111
 21
247.84413628642901
 31
0.0
  0
LINE
  5
5CA6
  8
AM_0
 10
186.824672903475
 20
246.6558739779189
 30
0.0
 11
181.32467290347211
 21
246.6558739779189
 31
0.0
  0
LINE
  5
5CA7
  8
AM_0
 10
181.32467290347211
 20
246.6558739779189
 30
0.0
 11
180.82467290347211
 21
246.15587397791899
 31
0.0
  0
LINE
  5
5CA8
  8
AM_0
 10
181.32467290347211
 20
246.6558739779189
 30
0.0
 11
180.82467290347111
 21
247.15587397791899
 31
0.0
  0
LINE
  5
5CA9
  8
AM_0
 10
180.82467290347111
 20
247.15587397791899
 30
0.0
 11
181.32467290347111
 21
247.84413628642901
 31
0.0
  0
LINE
  5
5CAA
  8
AM_0
 10
186.824672903475
 20
247.15587397791899
 30
0.0
 11
180.82467290347111
 21
247.15587397791899
 31
0.0
  0
LINE
  5
5CAB
  8
AM_0
 10
186.824672903475
 20
246.15587397791899
 30
0.0
 11
186.824672903475
 21
247.246067812978
 31
0.0
  0
LINE
  5
5CAC
  8
AM_0
 10
180.82467290347211
 20
253.01708991008701
 30
0.0
 11
181.32467290347111
 21
252.967611669409
 31
0.0
  0
LINE
  5
5CAD
  8
AM_0
 10
181.32467290347111
 20
253.68806518605601
 30
0.0
 11
180.82467290347211
 21
253.01708991008701
 31
0.0
  0
LINE
  5
5CAE
  8
AM_0
 10
180.82467290347211
 20
253.68806518605601
 30
0.0
 11
181.32467290347111
 21
254.18806518605601
 31
0.0
  0
LINE
  5
5CAF
  8
AM_0
 10
181.32467290347111
 20
254.65587397791899
 30
0.0
 11
180.82467290347111
 21
254.18806518605601
 31
0.0
  0
LINE
  5
5CB0
  8
AM_0
 10
180.82467290347111
 20
254.18806518605601
 30
0.0
 11
186.824672903475
 21
254.18806518605601
 31
0.0
  0
LINE
  5
5CB1
  8
AM_0
 10
186.824672903475
 20
253.68806518605601
 30
0.0
 11
180.82467290347211
 21
253.68806518605601
 31
0.0
  0
LINE
  5
5CB2
  8
AM_0
 10
189.8246729034752
 20
254.65587397791899
 30
0.0
 11
189.8246729034741
 21
254.684377709285
 31
0.0
  0
LINE
  5
5CB3
  8
AM_0
 10
190.1246729034751
 20
254.65587397791899
 30
0.0
 11
188.8246729034752
 21
254.65587397791899
 31
0.0
  0
LINE
  5
5CB4
  8
AM_0
 10
178.3246729034741
 20
251.47484901032911
 30
0.0
 11
178.32467290347401
 21
246.15587397791899
 31
0.0
  0
LINE
  5
5CB5
  8
AM_0
 10
188.8246729034752
 20
254.855873977919
 30
0.0
 11
188.8246729034752
 21
255.1558739779189
 31
0.0
  0
ARC
  5
5CB6
  8
AM_0
 10
191.04300206750409
 20
239.45587397791911
 30
0.0
 40
0.0999999999999643
 50
15.00019500651257
 51
90.0
  0
ARC
  5
5CB7
  8
AM_0
 10
187.637172903471
 20
241.90587397791899
 30
0.0
 40
6.8125000000000382
 50
157.91171016505771
 51
202.08828983494229
  0
ARC
  5
5CB8
  8
AM_0
 10
198.24967290347399
 20
237.455873977919
 30
0.0
 40
0.1999999999999993
 50
0.0
 51
90.0
  0
ARC
  5
5CB9
  8
AM_0
 10
198.24967290347399
 20
254.855873977919
 30
0.0
 40
0.2000000000000028
 50
270.0
 51
0.0
  0
ARC
  5
5CBA
  8
AM_0
 10
187.637172903471
 20
250.40587397791899
 30
0.0
 40
6.8125000000000382
 50
157.91171016505771
 51
202.08828983494229
  0
ARC
  5
5CBB
  8
AM_0
 10
190.29300206750409
 20
238.9058739779191
 30
0.0
 40
0.1000000000000547
 50
288.4639767573006
 51
344.99980499348737
  0
ARC
  5
5CBC
  8
AM_0
 10
190.64743155458021
 20
239.45587397791999
 30
0.0
 40
0.1000000000000014
 50
90.0
 51
164.9998049934843
  0
ARC
  5
5CBD
  8
AM_0
 10
181.058860376464
 20
238.155873977917
 30
0.0
 40
0.499999999999975
 50
219.8055710921868
 51
270.0
  0
ARC
  5
5CBE
  8
AM_0
 10
178.82467290347401
 20
240.83689894551
 30
0.0
 40
0.5
 50
180.00000000000969
 51
219.80557109223059
  0
ARC
  5
5CBF
  8
AM_0
 10
189.52467290347411
 20
238.89836928988711
 30
0.0
 40
0.3000000000000007
 50
0.0
 51
90.0
  0
ARC
  5
5CC0
  8
AM_0
 10
189.52467290347411
 20
238.493258432597
 30
0.0
 40
0.3000000000000043
 50
270.0
 51
0.0
  0
ARC
  5
5CC1
  8
AM_0
 10
189.52467290347411
 20
242.27196947528799
 30
0.0
 40
0.3000000000000007
 50
0.0
 51
90.0
  0
ARC
  5
5CC2
  8
AM_0
 10
189.52467290347411
 20
241.47205320899599
 30
0.0
 40
0.2999999999999971
 50
270.0
 51
0.0
  0
ARC
  5
5CC3
  8
AM_0
 10
189.52467290347411
 20
245.70587397791999
 30
0.0
 40
0.2999999999999971
 50
270.0
 51
0.0
  0
ARC
  5
5CC4
  8
AM_0
 10
189.52467290347411
 20
237.62737024655411
 30
0.0
 40
0.3000000000000302
 50
275.71059313755637
 51
0.0
  0
ARC
  5
5CC5
  8
AM_0
 10
187.02467290347411
 20
237.355873977919
 30
0.0
 40
0.1999999999999993
 50
180.0
 51
270.0
  0
ARC
  5
5CC6
  8
AM_0
 10
190.1246729034751
 20
237.85587397792
 30
0.0
 40
0.1999999999999957
 50
270.0
 51
0.0
  0
ARC
  5
5CC7
  8
AM_0
 10
186.6246729034751
 20
237.45587397791911
 30
0.0
 40
0.1999999999999993
 50
359.99999999997061
 51
90.0
  0
ARC
  5
5CC8
  8
AM_0
 10
192.14743155458021
 20
239.45587397791999
 30
0.0
 40
0.1000000000000014
 50
90.0
 51
164.9998049934843
  0
ARC
  5
5CC9
  8
AM_0
 10
191.7930020675042
 20
238.9058739779191
 30
0.0
 40
0.1000000000000014
 50
270.0
 51
344.99980499348737
  0
ARC
  5
5CCA
  8
AM_0
 10
191.39743155458021
 20
238.9058739779191
 30
0.0
 40
0.1000000000000311
 50
195.00019500644461
 51
270.0
  0
ARC
  5
5CCB
  8
AM_0
 10
193.94967290347401
 20
239.05587397791899
 30
0.0
 40
0.5
 50
359.99999999997721
 51
90.0
  0
ARC
  5
5CCC
  8
AM_0
 10
198.24967290347399
 20
244.26761166940901
 30
0.0
 40
0.1999999999999993
 50
0.0
 51
90.0
  0
ARC
  5
5CCD
  8
AM_0
 10
198.24967290347399
 20
239.54413628642999
 30
0.0
 40
0.2000000000000028
 50
270.0
 51
0.0
  0
ARC
  5
5CCE
  8
AM_0
 10
194.649672903474
 20
237.855873977919
 30
0.0
 40
0.1999999999999993
 50
179.99999999994131
 51
270.0
  0
ARC
  5
5CCF
  8
AM_0
 10
194.649672903474
 20
254.45587397791991
 30
0.0
 40
0.2000000000000028
 50
90.0
 51
180.00000000005531
  0
ARC
  5
5CD0
  8
AM_0
 10
198.24967290347399
 20
252.76761166940901
 30
0.0
 40
0.1999999999999993
 50
0.0
 51
90.0
  0
ARC
  5
5CD1
  8
AM_0
 10
198.24967290347399
 20
248.04413628642899
 30
0.0
 40
0.2000000000000028
 50
270.0
 51
0.0
  0
ARC
  5
5CD2
  8
AM_0
 10
193.94967290347401
 20
253.25587397791901
 30
0.0
 40
0.5
 50
270.0
 51
0.0000000000227982
  0
ARC
  5
5CD3
  8
AM_0
 10
190.65140533190009
 20
253.40587397791899
 30
0.0
 40
0.1000000000000014
 50
90.0
 51
164.99980499355539
  0
ARC
  5
5CD4
  8
AM_0
 10
191.04697584482409
 20
253.40587397791899
 30
0.0
 40
0.0999999999999608
 50
15.00019500651571
 51
90.0
  0
ARC
  5
5CD5
  8
AM_0
 10
191.40140533190009
 20
252.855873977919
 30
0.0
 40
0.0999999999999608
 50
195.00019500651561
 51
270.0
  0
ARC
  5
5CD6
  8
AM_0
 10
190.29697584482409
 20
252.855873977919
 30
0.0
 40
0.0999999999999803
 50
286.07948273872381
 51
344.99980499348419
  0
ARC
  5
5CD7
  8
AM_0
 10
186.6246729034751
 20
254.85587397792
 30
0.0
 40
0.1999999999999957
 50
270.0
 51
0.000000000029312
  0
ARC
  5
5CD8
  8
AM_0
 10
190.1246729034751
 20
254.45587397791911
 30
0.0
 40
0.1999999999999993
 50
0.0
 51
90.0
  0
ARC
  5
5CD9
  8
AM_0
 10
187.02467290347411
 20
254.95587397791999
 30
0.0
 40
0.2000000000000028
 50
90.0
 51
180.0
  0
ARC
  5
5CDA
  8
AM_0
 10
189.52467290347411
 20
254.684377709285
 30
0.0
 40
0.3000000000000007
 50
0.0
 51
84.289406862443656
  0
ARC
  5
5CDB
  8
AM_0
 10
189.52467290347411
 20
246.605873977919
 30
0.0
 40
0.3000000000000007
 50
0.0
 51
90.0
  0
ARC
  5
5CDC
  8
AM_0
 10
189.52467290347411
 20
250.83969474684309
 30
0.0
 40
0.3000000000000007
 50
0.0
 51
90.0
  0
ARC
  5
5CDD
  8
AM_0
 10
189.52467290347411
 20
250.03977848055101
 30
0.0
 40
0.2999999999999971
 50
270.0
 51
0.0
  0
ARC
  5
5CDE
  8
AM_0
 10
189.52467290347411
 20
253.81848952324199
 30
0.0
 40
0.3000000000000007
 50
0.0
 51
90.0
  0
ARC
  5
5CDF
  8
AM_0
 10
189.52467290347411
 20
253.413378665952
 30
0.0
 40
0.3000000000000043
 50
270.0
 51
0.0
  0
ARC
  5
5CE0
  8
AM_0
 10
178.82467290347401
 20
251.474849010329
 30
0.0
 40
0.5000000000000059
 50
140.19442890776941
 51
179.99999999998701
  0
ARC
  5
5CE1
  8
AM_0
 10
181.058860376464
 20
254.15587397792211
 30
0.0
 40
0.5
 50
90.0
 51
140.19442890781301
  0
LINE
  5
5CE2
  8
AM_0
 10
198.64967290347411
 20
237.15587397791899
 30
0.0
 11
200.4496729034741
 21
237.15587397791899
 31
0.0
  0
LINE
  5
5CE3
  8
AM_0
 10
198.44967290347401
 20
237.355873977919
 30
0.0
 11
198.44967290347401
 21
254.95587397791999
 31
0.0
  0
LINE
  5
5CE4
  8
AM_0
 10
200.4496729034741
 20
255.1558739779189
 30
0.0
 11
198.64967290347411
 21
255.1558739779189
 31
0.0
  0
ARC
  5
5CE5
  8
AM_0
 10
198.64967290347411
 20
237.355873977919
 30
0.0
 40
0.1999999999999993
 50
180.0
 51
270.0
  0
ARC
  5
5CE6
  8
AM_0
 10
198.64967290347411
 20
254.95587397791999
 30
0.0
 40
0.2000000000000028
 50
90.0
 51
180.0
  0
LINE
  5
5CE7
  8
AM_0
 10
145.94968290347489
 20
318.21727748669088
 30
0.0
 11
145.94968290347441
 21
280.49499057193373
 31
0.0
  0
LINE
  5
5CE8
  8
AM_0
 10
136.94968290347401
 20
320.15587397791887
 30
0.0
 11
136.94968290347401
 21
241.1155094983709
 31
0.0
  0
LINE
  5
5CE9
  8
AM_0
 10
136.94968290347401
 20
233.94958836755441
 30
0.0
 11
136.94968290347401
 21
212.15587397791899
 31
0.0
  0
LINE
  5
5CEA
  8
AM_0
 10
136.94968290347401
 20
320.15587397791887
 30
0.0
 11
153.94968290347401
 21
319.15587397791899
 31
0.0
  0
LINE
  5
5CEB
  8
AM_0
 10
136.94968290347401
 20
212.1558739779191
 30
0.0
 11
153.94968290347401
 21
213.1558739779189
 31
0.0
  0
LINE
  5
5CEC
  8
AM_0
 10
145.9496829034747
 20
309.74977717601053
 30
0.0
 11
153.94968290347401
 21
309.7497771760103
 31
0.0
  0
LINE
  5
5CED
  8
AM_0
 10
145.94968290347489
 20
318.21727748669088
 30
0.0
 11
153.94968290347401
 21
318.21727748669088
 31
0.0
  0
LINE
  5
5CEE
  8
AM_0
 10
142.4496829034747
 20
300.79674694317907
 30
0.0
 11
145.9496829034747
 21
300.79674694317907
 31
0.0
  0
LINE
  5
5CEF
  8
AM_0
 10
142.4496829034747
 20
309.29674694317907
 30
0.0
 11
145.9496829034747
 21
309.29674694317907
 31
0.0
  0
LINE
  5
5CF0
  8
AM_0
 10
141.9496829034747
 20
308.79674694317907
 30
0.0
 11
141.9496829034747
 21
301.29674694317907
 31
0.0
  0
ARC
  5
5CF1
  8
AM_0
 10
142.4496829034747
 20
308.79674694317907
 30
0.0
 40
0.5
 50
90.0
 51
180.0
  0
ARC
  5
5CF2
  8
AM_0
 10
142.4496829034747
 20
301.29674694317907
 30
0.0
 40
0.5
 50
180.0
 51
270.0
  0
LINE
  5
5CF3
  8
AM_0
 10
136.94968290347401
 20
308.42806847105908
 30
0.0
 11
141.9496829034747
 21
308.42806847105919
 31
0.0
  0
LINE
  5
5CF4
  8
AM_0
 10
136.94968290347401
 20
298.69298597276321
 30
0.0
 11
145.9496829034747
 21
298.69298597276321
 31
0.0
  0
LINE
  5
5CF5
  8
AM_0
 10
145.9496829034747
 20
222.5619707798275
 30
0.0
 11
153.94968290347401
 21
222.56197077982759
 31
0.0
  0
LINE
  5
5CF6
  8
AM_0
 10
145.94968290347489
 20
214.09447046914701
 30
0.0
 11
153.94968290347401
 21
214.09447046914701
 31
0.0
  0
LINE
  5
5CF7
  8
AM_0
 10
142.4496829034747
 20
231.5150010126589
 30
0.0
 11
145.9496829034747
 21
231.5150010126589
 31
0.0
  0
LINE
  5
5CF8
  8
AM_0
 10
142.4496829034747
 20
223.0150010126589
 30
0.0
 11
145.9496829034747
 21
223.0150010126589
 31
0.0
  0
LINE
  5
5CF9
  8
AM_0
 10
141.9496829034747
 20
223.5150010126589
 30
0.0
 11
141.9496829034747
 21
231.0150010126589
 31
0.0
  0
ARC
  5
5CFA
  8
AM_0
 10
142.4496829034747
 20
223.5150010126589
 30
0.0
 40
0.5
 50
180.0
 51
270.0
  0
ARC
  5
5CFB
  8
AM_0
 10
142.4496829034747
 20
231.0150010126589
 30
0.0
 40
0.5
 50
90.0
 51
180.0
  0
LINE
  5
5CFC
  8
AM_0
 10
136.94968290347401
 20
223.88367948477881
 30
0.0
 11
141.9496829034747
 21
223.88367948477881
 31
0.0
  0
LINE
  5
5CFD
  8
AM_0
 10
136.94968290347401
 20
233.61876198307479
 30
0.0
 11
145.9496829034747
 21
233.61876198307479
 31
0.0
  0
LINE
  5
5CFE
  8
AM_0
 10
145.94968290347441
 20
280.49499057193373
 30
0.0
 11
153.94968290347401
 21
280.49499057193373
 31
0.0
  0
LINE
  5
5CFF
  8
AM_0
 10
145.94968290347489
 20
214.09447046914701
 30
0.0
 11
145.9496829034747
 21
239.02015523924899
 31
0.0
  0
LINE
  5
5D00
  8
AM_0
 10
145.94968290347461
 20
245.49641131521341
 30
0.0
 11
145.94968290347441
 21
251.81675738390419
 31
0.0
  0
LINE
  5
5D01
  8
AM_0
 10
145.94968290347441
 20
251.81675738390419
 30
0.0
 11
153.94968290347401
 21
251.8167573839043
 31
0.0
  0
LINE
  5
5D02
  8
AM_0
 10
165.8611002248258
 20
243.15583947791879
 30
0.0
 11
173.44967290347401
 21
243.15583947791879
 31
0.0
  0
ARC
  5
5D03
  8
AM_0
 10
165.8611002248258
 20
193.15583947791879
 30
0.0
 40
50.0
 50
90.0
 51
122.4712801930125
1001
GENIUS_GENOBJ-N-FIL_13
1002
{
1000
OWNER
1000
GEN
1002
}
1001
GENIUS_GENODEF_13
1002
{
1000
HIER
1070
     0
1002
}
1002
{
1000
MANEDIT
1070
     0
1002
}
1002
{
1000
NOSEL
1070
     0
1002
}
1002
{
1000
BEHIND
1070
     0
1002
}
1002
{
1000
OTHER
1070
     0
1002
}
1002
{
1000
REACTOR
1002
}
  0
LINE
  5
5D04
  8
AM_0
 10
165.86110022482569
 20
249.15583947791859
 30
0.0
 11
173.44967290347401
 21
249.15583947791851
 31
0.0
  0
ARC
  5
5D05
  8
AM_0
 10
165.86110022482509
 20
193.15583947791851
 30
0.0
 40
56.0
 50
90.0
 51
122.4712801930125
1001
GENIUS_GENODEF_13
1002
{
1000
HIER
1070
     0
1002
}
1002
{
1000
MANEDIT
1070
     0
1002
}
1002
{
1000
NOSEL
1070
     0
1002
}
1002
{
1000
BEHIND
1070
     0
1002
}
1002
{
1000
OTHER
1070
     0
1002
}
1002
{
1000
REACTOR
1002
}
1001
GENIUS_GENOBJ-N-FIL_13
1002
{
1000
OWNER
1000
GEN
1002
}
  0
LINE
  5
5D06
  8
AM_0
 10
102.03909815213839
 20
302.14625032284488
 30
0.0
 11
102.03909815213839
 21
295.63464542388613
 31
0.0
  0
LINE
  5
5D07
  8
AM_0
 10
98.949682903473786
 20
255.15583947791879
 30
0.0
 11
98.949682903473786
 21
249.6558394779189
 31
0.0
  0
LINE
  5
5D08
  8
AM_0
 10
104.4496829034738
 20
262.6558394779189
 30
0.0
 11
104.4496829034738
 21
269.65583947791868
 31
0.0
  0
LINE
  5
5D09
  8
AM_0
 10
116.1496829034738
 20
249.6558394779189
 30
0.0
 11
98.949682903473786
 21
249.6558394779189
 31
0.0
  0
LINE
  5
5D0A
  8
AM_0
 10
130.94968290347381
 20
212.15583947791879
 30
0.0
 11
130.94968290347381
 21
230.20494202217901
 31
0.0
  0
LINE
  5
5D0B
  8
AM_0
 10
130.94968290347381
 20
237.31680613479639
 30
0.0
 11
130.94968290347381
 21
320.1558394779189
 31
0.0
  0
LINE
  5
5D0C
  8
AM_0
 10
98.949682903473786
 20
264.6558394779189
 30
0.0
 11
99.849682903473891
 21
264.6558394779189
 31
0.0
  0
LINE
  5
5D0D
  8
AM_0
 10
116.4496829034738
 20
257.65583947791879
 30
0.0
 11
116.4496829034738
 21
260.24034916252282
 31
0.0
  0
LINE
  5
5D0E
  8
AM_0
 10
96.749682903473513
 20
267.65583947791879
 30
0.0
 11
96.749682903473513
 21
264.6558394779189
 31
0.0
  0
LINE
  5
5D0F
  8
AM_0
 10
99.849682903473891
 20
264.38348774333531
 30
0.0
 11
99.849682903473891
 21
267.92819121250261
 31
0.0
  0
LINE
  5
5D10
  8
AM_0
 10
96.449682903473786
 20
267.35583947791878
 30
0.0
 11
99.849682903473891
 21
267.35583947791878
 31
0.0
  0
LINE
  5
5D11
  8
AM_0
 10
103.84968290347381
 20
263.77426961751161
 30
0.0
 11
103.84968290347381
 21
262.6558394779189
 31
0.0
  0
LINE
  5
5D12
  8
AM_0
 10
103.84968290347381
 20
264.6558394779189
 30
0.0
 11
103.84968290347381
 21
264.55583947791882
 31
0.0
  0
LINE
  5
5D13
  8
AM_0
 10
103.84968290347381
 20
264.55583947791882
 30
0.0
 11
103.84968290347381
 21
263.77426961751161
 31
0.0
  0
LINE
  5
5D14
  8
AM_0
 10
98.949682903473786
 20
249.6558394779189
 30
0.0
 11
98.949682903473786
 21
241.4183054684965
 31
0.0
  0
LINE
  5
5D15
  8
AM_0
 10
116.3032362940671
 20
260.5939025531161
 30
0.0
 11
115.9481691678788
 21
260.94896967930441
 31
0.0
  0
LINE
  5
5D16
  8
AM_0
 10
98.949682903473786
 20
267.65583947791879
 30
0.0
 11
98.949682903473786
 21
290.89337348734108
 31
0.0
  0
LINE
  5
5D17
  8
AM_0
 10
130.94968290347381
 20
311.15583947791902
 30
0.0
 11
107.1796742028412
 21
311.1558394779189
 31
0.0
  0
LINE
  5
5D18
  8
AM_0
 10
98.949682903473786
 20
256.08224265363992
 30
0.0
 11
98.949682903473786
 21
264.6558394779189
 31
0.0
  0
LINE
  5
5D19
  8
AM_0
 10
136.94968290347401
 20
320.1558394779189
 30
0.0
 11
130.94968290347381
 21
320.1558394779189
 31
0.0
  0
LINE
  5
5D1A
  8
AM_0
 10
130.94968290347381
 20
212.15583947791879
 30
0.0
 11
136.94968290347381
 21
212.15583947791879
 31
0.0
  0
LINE
  5
5D1B
  8
AM_0
 10
130.94968290347381
 20
221.15583947791879
 30
0.0
 11
121.4496829034738
 21
221.15583947791879
 31
0.0
  0
LINE
  5
5D1C
  8
AM_0
 10
98.995259644437269
 20
291.41431802034202
 30
0.0
 11
101.56470309209951
 21
305.9863559316056
 31
0.0
  0
LINE
  5
5D1D
  8
AM_0
 10
98.949682903473786
 20
256.08224265363992
 30
0.0
 11
98.949682903473786
 21
255.15583947791879
 31
0.0
  0
LINE
  5
5D1E
  8
AM_0
 10
121.4496829034738
 20
221.22446192830469
 30
0.0
 11
118.88689560457691
 21
221.22446192830469
 31
0.0
  0
LINE
  5
5D1F
  8
AM_0
 10
104.9935214111749
 20
221.15583947791879
 30
0.0
 11
105.9496829034738
 21
221.15583947791879
 31
0.0
  0
LINE
  5
5D20
  8
AM_0
 10
98.995259644437269
 20
240.8973609354957
 30
0.0
 11
102.03909815213839
 21
223.63489494491799
 31
0.0
  0
LINE
  5
5D21
  8
AM_0
 10
98.949682903473786
 20
241.15583947791879
 30
0.0
 11
98.995259644437269
 21
240.8973609354957
 31
0.0
  0
LINE
  5
5D22
  8
AM_0
 10
98.949682903473786
 20
241.4183054684965
 30
0.0
 11
98.949682903473786
 21
241.15583947791879
 31
0.0
  0
LINE
  5
5D23
  8
AM_0
 10
98.449644235466835
 20
319.65583947791879
 30
0.0
 11
98.449621783068309
 21
346.65583947791879
 31
0.0
  0
LINE
  5
5D24
  8
AM_0
 10
98.449621783068309
 20
346.65583947791879
 30
0.0
 11
106.4496217830708
 21
346.65583947791879
 31
0.0
  0
LINE
  5
5D25
  8
AM_0
 10
106.4496217830708
 20
346.65583947791879
 30
0.0
 11
107.9496171278917
 21
352.25389831590741
 31
0.0
  0
LINE
  5
5D26
  8
AM_0
 10
107.9496171278917
 20
352.25389831590741
 30
0.0
 11
107.9496023645315
 21
370.00749059579761
 31
0.0
  0
LINE
  5
5D27
  8
AM_0
 10
98.449621783068309
 20
346.65583947791879
 30
0.0
 11
96.949617127859227
 21
352.25393306274867
 31
0.0
  0
LINE
  5
5D28
  8
AM_0
 10
96.949617127859227
 20
352.25393306274867
 30
0.0
 11
96.949602364535181
 21
370.00748144852417
 31
0.0
  0
LINE
  5
5D29
  8
AM_0
 10
102.4496442354682
 20
370.00748144852417
 30
0.0
 11
102.4496442354682
 21
352.25393306274867
 31
0.0
  0
LINE
  5
5D2A
  8
AM_0
 10
106.4496217830708
 20
346.65583947791879
 30
0.0
 11
106.4496442354698
 21
319.65583947791879
 31
0.0
  0
LINE
  5
5D2B
  8
AM_0
 10
116.4496829034738
 20
295.63464542388613
 30
0.0
 11
116.4496829034738
 21
249.9558394779188
 31
0.0
  0
LINE
  5
5D2C
  8
AM_0
 10
104.4496829034738
 20
260.24034916252282
 30
0.0
 11
104.4496829034738
 21
257.65583947791879
 31
0.0
  0
LINE
  5
5D2D
  8
AM_0
 10
104.9511966390689
 20
260.94896967930441
 30
0.0
 11
104.59612951288069
 21
260.5939025531161
 31
0.0
  0
LINE
  5
5D2E
  8
AM_0
 10
115.9496829034738
 20
257.15583947791879
 30
0.0
 11
104.9496829034738
 21
257.15583947791879
 31
0.0
  0
LINE
  5
5D2F
  8
AM_0
 10
95.949645066972849
 20
318.65583407271168
 30
0.0
 11
95.949672093008289
 21
313.6558340727118
 31
0.0
  0
LINE
  5
5D30
  8
AM_0
 10
108.9496450671045
 20
318.65584488312589
 30
0.0
 11
108.9496709949242
 21
313.85902222975523
 31
0.0
  0
LINE
  5
5D31
  8
AM_0
 10
99.570186155554651
 20
311.65583947791879
 30
0.0
 11
98.998624254189522
 21
312.31242329997912
 31
0.0
  0
LINE
  5
5D32
  8
AM_0
 10
96.949672092993765
 20
312.65583947791879
 30
0.0
 11
107.9496709949242
 21
312.65583947791879
 31
0.0
  0
LINE
  5
5D33
  8
AM_0
 10
108.9496709949242
 20
313.85902222975523
 30
0.0
 11
108.9496709949242
 21
313.65583947791879
 31
0.0
  0
LINE
  5
5D34
  8
AM_0
 10
108.9496709949242
 20
313.85902222975523
 30
0.0
 11
108.9496720931399
 21
313.65584488312578
 31
0.0
  0
LINE
  5
5D35
  8
AM_0
 10
96.949645066958269
 20
319.65583947791879
 30
0.0
 11
107.94964506711899
 21
319.65583947791879
 31
0.0
  0
LINE
  5
5D36
  8
AM_0
 10
106.95711886563591
 20
311.68642654820422
 30
0.0
 11
114.07991859898149
 21
294.70518722945752
 31
0.0
  0
LINE
  5
5D37
  8
AM_0
 10
99.570186155554651
 20
311.65583947791879
 30
0.0
 11
106.146901230865
 21
292.96129884751662
 31
0.0
  0
LINE
  5
5D38
  8
AM_0
 10
103.84968290347381
 20
264.6558394779189
 30
0.0
 11
103.84968290347381
 21
264.55583947791882
 31
0.0
  0
LINE
  5
5D39
  8
AM_0
 10
103.84968290347381
 20
264.55583947791882
 30
0.0
 11
103.84968290347381
 21
263.77426961751161
 31
0.0
  0
LINE
  5
5D3A
  8
AM_0
 10
103.84968290347381
 20
262.6558394779189
 30
0.0
 11
104.4496829034738
 21
262.6558394779189
 31
0.0
  0
LINE
  5
5D3B
  8
AM_0
 10
101.1496829034738
 20
263.77426961751161
 30
0.0
 11
101.1496829034738
 21
268.53740933832597
 31
0.0
  0
LINE
  5
5D3C
  8
AM_0
 10
100.9886386742164
 20
263.4875779891687
 30
0.0
 11
100.0560856247091
 21
264.02598774333518
 31
0.0
  0
LINE
  5
5D3D
  8
AM_0
 10
103.84968290347381
 20
269.65583947791868
 30
0.0
 11
103.84968290347381
 21
264.6558394779189
 31
0.0
  0
LINE
  5
5D3E
  8
AM_0
 10
101.42213449550439
 20
262.98041299737588
 30
0.0
 11
103.5772313114432
 21
262.98041299737588
 31
0.0
  0
LINE
  5
5D3F
  8
AM_0
 10
101.42213449550439
 20
264.56812623764739
 30
0.0
 11
103.5772313114432
 21
264.56812623764739
 31
0.0
  0
LINE
  5
5D40
  8
AM_0
 10
99.849682903473891
 20
267.65583947791879
 30
0.0
 11
96.749682903473513
 21
267.65583947791879
 31
0.0
  0
LINE
  5
5D41
  8
AM_0
 10
96.749682903473513
 20
267.65583947791879
 30
0.0
 11
96.449682903473786
 21
267.35583947791878
 31
0.0
  0
LINE
  5
5D42
  8
AM_0
 10
96.449682903473786
 20
267.35583947791878
 30
0.0
 11
96.449682903473786
 21
264.95583947791891
 31
0.0
  0
LINE
  5
5D43
  8
AM_0
 10
96.749682903473513
 20
264.6558394779189
 30
0.0
 11
98.949682903473786
 21
264.6558394779189
 31
0.0
  0
LINE
  5
5D44
  8
AM_0
 10
96.449682903473786
 20
264.95583947791891
 30
0.0
 11
96.749682903473513
 21
264.6558394779189
 31
0.0
  0
LINE
  5
5D45
  8
AM_0
 10
99.849682903473891
 20
264.95583947791891
 30
0.0
 11
96.449682903473786
 21
264.95583947791891
 31
0.0
  0
ARC
  5
5D46
  8
AM_0
 10
98.449682903473771
 20
266.15583947791879
 30
0.0
 40
18.000000000000082
 50
344.79096035988943
 51
15.209039640107409
  0
ARC
  5
5D47
  8
AM_0
 10
102.5569060874472
 20
263.77426961751161
 30
0.0
 40
1.292776816026465
 50
322.11555894630482
 51
0.0
  0
ARC
  5
5D48
  8
AM_0
 10
122.4496829034737
 20
266.15583947791879
 30
0.0
 40
17.999999999999918
 50
164.7909603598894
 51
195.20903964011049
  0
ARC
  5
5D49
  8
AM_0
 10
102.4496093095147
 20
361.65583947791879
 30
0.0
 40
10.0
 50
56.63303467623782
 51
123.3670606147022
  0
ARC
  5
5D4A
  8
AM_0
 10
99.699623300001775
 20
365.57483308891841
 30
0.0
 40
5.2164151124522951
 50
58.18448044842868
 51
121.8155195515713
  0
ARC
  5
5D4B
  8
AM_0
 10
105.19963067363641
 20
365.57395819815832
 30
0.0
 40
5.217140387381062
 50
58.190058295973543
 51
121.81013228735971
  0
ARC
  5
5D4C
  8
AM_0
 10
99.699630681663862
 20
353.62188707709163
 30
0.0
 40
3.0714610092699122
 50
206.44737672421749
 51
333.55262327578248
  0
ARC
  5
5D4D
  8
AM_0
 10
105.19963931303499
 20
353.62014687239622
 30
0.0
 40
3.070669812974502
 50
206.41845794673139
 51
333.58081810520707
  0
ARC
  5
5D4E
  8
AM_0
 10
105.9121127795336
 20
266.15583947791879
 30
0.0
 40
4.762429876059711
 50
160.52575999458611
 51
199.4742400054138
  0
ARC
  5
5D4F
  8
AM_0
 10
102.44245971950041
 20
263.77426961751161
 30
0.0
 40
1.292776816026556
 50
142.11555894629771
 51
217.8844410536951
  0
ARC
  5
5D50
  8
AM_0
 10
99.087253027414377
 20
266.15583947791879
 30
0.0
 40
4.762429876059584
 50
340.52575999458628
 51
19.474240005409651
  0
ARC
  5
5D51
  8
AM_0
 10
102.5569060874472
 20
263.77426961751161
 30
0.0
 40
1.2927768160265021
 50
0.0
 51
37.884441053702282
  0
ARC
  5
5D52
  8
AM_0
 10
116.1496829034738
 20
249.9558394779188
 30
0.0
 40
0.2999999999999972
 50
270.0
 51
0.0
  0
ARC
  5
5D53
  8
AM_0
 10
116.30172255847221
 20
261.3025230698978
 30
0.0
 40
0.4999999999998723
 50
164.7909603598988
 51
225.00000000001839
  0
ARC
  5
5D54
  8
AM_0
 10
101.9496829034738
 20
241.4183054684965
 30
0.0
 40
3.0
 50
180.0
 51
190.00000000000171
  0
ARC
  5
5D55
  8
AM_0
 10
101.9496829034738
 20
290.89337348734108
 30
0.0
 40
2.999999999999992
 50
169.9999999999981
 51
180.0
  0
ARC
  5
5D56
  8
AM_0
 10
104.9935214111749
 20
224.15583947791879
 30
0.0
 40
2.9999999999999631
 50
190.00000000000171
 51
270.0
  0
ARC
  5
5D57
  8
AM_0
 10
104.9496829034738
 20
257.65583947791879
 30
0.0
 40
0.5
 50
180.0
 51
270.0
  0
ARC
  5
5D58
  8
AM_0
 10
115.9496829034738
 20
257.65583947791879
 30
0.0
 40
0.5
 50
270.0
 51
0.0
  0
ARC
  5
5D59
  8
AM_0
 10
115.9496829034738
 20
260.24034916252282
 30
0.0
 40
0.5
 50
0.0
 51
45.0
  0
ARC
  5
5D5A
  8
AM_0
 10
104.59764324847561
 20
261.3025230698978
 30
0.0
 40
0.5000000000001048
 50
314.99999999998619
 51
15.209039640101111
  0
ARC
  5
5D5B
  8
AM_0
 10
104.9496829034738
 20
260.24034916252282
 30
0.0
 40
0.499999999999984
 50
134.99999999999079
 51
180.0
  0
ARC
  5
5D5C
  8
AM_0
 10
96.949645066958269
 20
318.65583947791879
 30
0.0
 40
1.0
 50
90.0
 51
180.00030969555451
  0
ARC
  5
5D5D
  8
AM_0
 10
107.94964506711899
 20
318.65583947791879
 30
0.0
 40
0.9999999999999992
 50
0.0003096955479991
 51
90.0
  0
ARC
  5
5D5E
  8
AM_0
 10
96.949672092993765
 20
313.65583947791879
 30
0.0
 40
0.9999999999999992
 50
180.00030969555451
 51
270.0
  0
ARC
  5
5D5F
  8
AM_0
 10
107.9496709949242
 20
313.65583947791879
 30
0.0
 40
1.0
 50
270.0
 51
0.0
  0
ARC
  5
5D60
  8
AM_0
 10
107.4299127820093
 20
312.05583947791882
 30
0.0
 40
0.5999999999999944
 50
90.0
 51
218.00194433773009
  0
ARC
  5
5D61
  8
AM_0
 10
98.244371190152833
 20
311.65583947791879
 30
0.0
 40
0.9999999999999468
 50
41.03985310957956
 51
90.0
  0
ARC
  5
5D62
  8
AM_0
 10
100.26248834594431
 20
264.38348774333531
 30
0.0
 40
0.4128054424705854
 50
180.0
 51
239.99999999999949
  0
ARC
  5
5D63
  8
AM_0
 10
100.5758332317457
 20
262.77257798916872
 30
0.0
 40
0.8256108849411369
 50
28.217424594175291
 51
59.999999999996653
  0
LINE
  5
5D64
  8
AM_0
 10
99.739417233105314
 20
295.63464542388613
 30
0.0
 11
105.2064213828741
 21
295.63464542388613
 31
0.0
  0
LINE
  5
5D65
  8
AM_0
 10
113.6900563247879
 20
295.63464542388613
 30
0.0
 11
116.4496829034738
 21
295.63464542388613
 31
0.0
  0
LINE
  5
5D66
  8
AM_0
 10
103.8496829034741
 20
269.65583947791879
 30
0.0
 11
104.449682903474
 21
269.65583947791868
 31
0.0
  0
LINE
  5
5D67
  8
AM_0
 10
100.9886386742166
 20
268.82410096666911
 30
0.0
 11
100.0560856247093
 21
268.28569121250263
 31
0.0
  0
LINE
  5
5D68
  8
AM_0
 10
101.42213449550469
 20
269.33126595846193
 30
0.0
 11
103.5772313114435
 21
269.33126595846159
 31
0.0
  0
LINE
  5
5D69
  8
AM_0
 10
101.42213449550439
 20
267.7435527181903
 30
0.0
 11
103.5772313114435
 21
267.74355271819007
 31
0.0
  0
ARC
  5
5D6A
  8
AM_0
 10
102.5569060874475
 20
268.53740933832597
 30
0.0
 40
1.292776816026465
 50
359.99999999999352
 51
37.88444105369058
  0
ARC
  5
5D6B
  8
AM_0
 10
102.44245971950041
 20
268.53740933832597
 30
0.0
 40
1.292776816026556
 50
142.11555894629771
 51
217.8844410536951
  0
ARC
  5
5D6C
  8
AM_0
 10
102.5569060874475
 20
268.53740933832597
 30
0.0
 40
1.2927768160265021
 50
322.11555894629322
 51
359.99999999999352
  0
ARC
  5
5D6D
  8
AM_0
 10
100.2624883459446
 20
267.92819121250261
 30
0.0
 40
0.4128054424705854
 50
119.99999999999331
 51
179.99999999999341
  0
ARC
  5
5D6E
  8
AM_0
 10
100.5758332317459
 20
269.53910096666908
 30
0.0
 40
0.8256108849411369
 50
300.00000000000051
 51
331.7825754058203
  0
LINE
  5
5D6F
  8
AM_0
 10
116.4496829034744
 20
274.65583947791828
 30
0.0
 11
116.4496829034742
 21
272.07132979331419
 31
0.0
  0
LINE
  5
5D70
  8
AM_0
 10
116.3032362940676
 20
271.71777640272097
 30
0.0
 11
115.9481691678793
 21
271.36270927653288
 31
0.0
  0
LINE
  5
5D71
  8
AM_0
 10
104.4496829034742
 20
272.07132979331499
 30
0.0
 11
104.4496829034744
 21
274.65583947791907
 31
0.0
  0
LINE
  5
5D72
  8
AM_0
 10
104.9511966390691
 20
271.36270927653362
 30
0.0
 11
104.59612951288111
 21
271.71777640272171
 31
0.0
  0
LINE
  5
5D73
  8
AM_0
 10
115.9496829034744
 20
275.15583947791828
 30
0.0
 11
115.469105017627
 21
275.15583947791828
 31
0.0
  0
LINE
  5
5D74
  8
AM_0
 10
105.43026078932159
 20
275.15583947791902
 30
0.0
 11
104.9496829034744
 21
275.15583947791902
 31
0.0
  0
ARC
  5
5D75
  8
AM_0
 10
116.30172255847241
 20
271.00915588593938
 30
0.0
 40
0.4999999999998723
 50
134.99999999997701
 51
195.20903964009699
  0
ARC
  5
5D76
  8
AM_0
 10
104.9496829034744
 20
274.65583947791902
 30
0.0
 40
0.5
 50
89.999999999996732
 51
179.99999999999659
  0
ARC
  5
5D77
  8
AM_0
 10
115.9496829034744
 20
274.65583947791828
 30
0.0
 40
0.5
 50
359.99999999999682
 51
89.999999999996732
  0
ARC
  5
5D78
  8
AM_0
 10
115.9496829034742
 20
272.07132979331431
 30
0.0
 40
0.5
 50
314.9999999999954
 51
359.99999999999682
  0
ARC
  5
5D79
  8
AM_0
 10
104.5976432484758
 20
271.00915588594012
 30
0.0
 40
0.5000000000001048
 50
344.79096035989579
 51
45.000000000009209
  0
ARC
  5
5D7A
  8
AM_0
 10
104.9496829034742
 20
272.07132979331499
 30
0.0
 40
0.499999999999984
 50
179.99999999999659
 51
225.0000000000046
  0
LINE
  5
5D7B
  8
AM_0
 10
106.43026078932191
 20
291.30199087574073
 30
0.0
 11
106.43026078932159
 21
276.15583947791902
 31
0.0
  0
ARC
  5
5D7C
  8
AM_0
 10
105.43026078932159
 20
276.15583947791902
 30
0.0
 40
1.0
 50
269.99999999999682
 51
0.0
1001
GENIUS_GENODEF_13
1002
{
1000
HIER
1070
     0
1002
}
1002
{
1000
MANEDIT
1070
     0
1002
}
1002
{
1000
NOSEL
1070
     0
1002
}
1002
{
1000
BEHIND
1070
     0
1002
}
1002
{
1000
OTHER
1070
     0
1002
}
1002
{
1000
REACTOR
1002
}
1001
GENIUS_GENOBJ-N-FIL_13
1002
{
1000
OWNER
1000
GEN
1002
}
  0
ARC
  5
5D7D
  8
AM_0
 10
101.43026078932191
 20
291.30199087574073
 30
0.0
 40
5.0
 50
0.0
 51
19.381805699020159
1001
GENIUS_GENOBJ-N-FIL_13
1002
{
1000
OWNER
1000
GEN
1002
}
1001
GENIUS_GENODEF_13
1002
{
1000
HIER
1070
     0
1002
}
1002
{
1000
MANEDIT
1070
     0
1002
}
1002
{
1000
NOSEL
1070
     0
1002
}
1002
{
1000
BEHIND
1070
     0
1002
}
1002
{
1000
OTHER
1070
     0
1002
}
1002
{
1000
REACTOR
1002
}
  0
LINE
  5
5D7E
  8
AM_0
 10
114.469105017627
 20
292.77117634065741
 30
0.0
 11
114.469105017627
 21
276.15583947791828
 31
0.0
  0
ARC
  5
5D7F
  8
AM_0
 10
115.469105017627
 20
276.15583947791828
 30
0.0
 40
1.0
 50
180.0
 51
269.99999999999352
1001
GENIUS_GENOBJ-N-FIL_13
1002
{
1000
OWNER
1000
GEN
1002
}
1001
GENIUS_GENODEF_13
1002
{
1000
HIER
1070
     0
1002
}
1002
{
1000
MANEDIT
1070
     0
1002
}
1002
{
1000
NOSEL
1070
     0
1002
}
1002
{
1000
BEHIND
1070
     0
1002
}
1002
{
1000
OTHER
1070
     0
1002
}
1002
{
1000
REACTOR
1002
}
  0
ARC
  5
5D80
  8
AM_0
 10
109.469105017627
 20
292.77117634065741
 30
0.0
 40
5.0
 50
0.0
 51
22.755667319206839
1001
GENIUS_GENODEF_13
1002
{
1000
HIER
1070
     0
1002
}
1002
{
1000
MANEDIT
1070
     0
1002
}
1002
{
1000
NOSEL
1070
     0
1002
}
1002
{
1000
BEHIND
1070
     0
1002
}
1002
{
1000
OTHER
1070
     0
1002
}
1002
{
1000
REACTOR
1002
}
1001
GENIUS_GENOBJ-N-FIL_13
1002
{
1000
OWNER
1000
GEN
1002
}
  0
LINE
  5
5D81
  8
AM_0
 10
105.1762217501318
 20
271.13768416547077
 30
0.0
 11
115.72314405681711
 21
271.13768416547077
 31
0.0
  0
LINE
  5
5D82
  8
AM_0
 10
105.1762217501316
 20
261.17399479036709
 30
0.0
 11
115.7231440568162
 21
261.17399479036709
 31
0.0
  0
LINE
  5
5D83
  8
AM_0
 10
102.03909815213839
 20
230.1654286329927
 30
0.0
 11
102.03909815213839
 21
249.6558394779189
 31
0.0
  0
LINE
  5
5D84
  8
AM_0
 10
104.9935214111749
 20
221.15583947791879
 30
0.0
 11
104.9935214111749
 21
249.6558394779189
 31
0.0
  0
LINE
  5
5D9F
  8
AM_0
 10
114.7485359678508
 20
219.89508632396451
 30
0.0
 11
139.01726089867859
 21
235.33887268123399
 31
0.0
  0
LINE
  5
5DA0
  8
AM_0
 10
111.527275248713
 20
224.95705030836231
 30
0.0
 11
135.79600017954019
 21
240.40083666563149
 31
0.0
  0
POLYLINE
  5
5DA1
  8
AM_0
 66
     1
 10
0.0
 20
0.0
 30
0.0
 70
     8
  0
VERTEX
  5
7020
  8
AM_0
 10
111.527
 20
224.95699999999999
 30
0.0
 70
    32
  0
VERTEX
  5
7021
  8
AM_0
 10
111.45099999999999
 20
224.90799999999999
 30
0.0
 70
    32
  0
VERTEX
  5
7022
  8
AM_0
 10
111.376
 20
224.857
 30
0.0
 70
    32
  0
VERTEX
  5
7023
  8
AM_0
 10
111.30200000000001
 20
224.804
 30
0.0
 70
    32
  0
VERTEX
  5
7024
  8
AM_0
 10
111.229
 20
224.75
 30
0.0
 70
    32
  0
VERTEX
  5
7025
  8
AM_0
 10
111.158
 20
224.69499999999999
 30
0.0
 70
    32
  0
VERTEX
  5
7026
  8
AM_0
 10
111.087
 20
224.63900000000001
 30
0.0
 70
    32
  0
VERTEX
  5
7027
  8
AM_0
 10
111.018
 20
224.58099999999999
 30
0.0
 70
    32
  0
VERTEX
  5
7028
  8
AM_0
 10
110.95
 20
224.52099999999999
 30
0.0
 70
    32
  0
VERTEX
  5
7029
  8
AM_0
 10
110.883
 20
224.46100000000001
 30
0.0
 70
    32
  0
VERTEX
  5
702A
  8
AM_0
 10
110.818
 20
224.399
 30
0.0
 70
    32
  0
VERTEX
  5
702B
  8
AM_0
 10
110.754
 20
224.33600000000001
 30
0.0
 70
    32
  0
VERTEX
  5
702C
  8
AM_0
 10
110.69199999999999
 20
224.27199999999999
 30
0.0
 70
    32
  0
VERTEX
  5
702D
  8
AM_0
 10
110.631
 20
224.20699999999999
 30
0.0
 70
    32
  0
VERTEX
  5
702E
  8
AM_0
 10
110.571
 20
224.14099999999999
 30
0.0
 70
    32
  0
VERTEX
  5
702F
  8
AM_0
 10
110.51300000000001
 20
224.07300000000001
 30
0.0
 70
    32
  0
VERTEX
  5
7030
  8
AM_0
 10
110.45699999999999
 20
224.005
 30
0.0
 70
    32
  0
VERTEX
  5
7031
  8
AM_0
 10
110.402
 20
223.93600000000001
 30
0.0
 70
    32
  0
VERTEX
  5
7032
  8
AM_0
 10
110.349
 20
223.86600000000001
 30
0.0
 70
    32
  0
VERTEX
  5
7033
  8
AM_0
 10
110.298
 20
223.79499999999999
 30
0.0
 70
    32
  0
VERTEX
  5
7034
  8
AM_0
 10
110.248
 20
223.72300000000001
 30
0.0
 70
    32
  0
VERTEX
  5
7035
  8
AM_0
 10
110.2
 20
223.65000000000001
 30
0.0
 70
    32
  0
VERTEX
  5
7036
  8
AM_0
 10
110.154
 20
223.577
 30
0.0
 70
    32
  0
VERTEX
  5
7037
  8
AM_0
 10
110.10899999999999
 20
223.50299999999999
 30
0.0
 70
    32
  0
VERTEX
  5
7038
  8
AM_0
 10
110.06699999999999
 20
223.428
 30
0.0
 70
    32
  0
VERTEX
  5
7039
  8
AM_0
 10
110.026
 20
223.35300000000001
 30
0.0
 70
    32
  0
VERTEX
  5
703A
  8
AM_0
 10
109.98699999999999
 20
223.27699999999999
 30
0.0
 70
    32
  0
VERTEX
  5
703B
  8
AM_0
 10
109.95
 20
223.20099999999999
 30
0.0
 70
    32
  0
VERTEX
  5
703C
  8
AM_0
 10
109.91500000000001
 20
223.124
 30
0.0
 70
    32
  0
VERTEX
  5
703D
  8
AM_0
 10
109.88200000000001
 20
223.047
 30
0.0
 70
    32
  0
VERTEX
  5
703E
  8
AM_0
 10
109.851
 20
222.96899999999999
 30
0.0
 70
    32
  0
VERTEX
  5
703F
  8
AM_0
 10
109.822
 20
222.89099999999999
 30
0.0
 70
    32
  0
VERTEX
  5
7040
  8
AM_0
 10
109.795
 20
222.81299999999999
 30
0.0
 70
    32
  0
VERTEX
  5
7041
  8
AM_0
 10
109.76900000000001
 20
222.73400000000001
 30
0.0
 70
    32
  0
VERTEX
  5
7042
  8
AM_0
 10
109.746
 20
222.65600000000001
 30
0.0
 70
    32
  0
VERTEX
  5
7043
  8
AM_0
 10
109.72499999999999
 20
222.577
 30
0.0
 70
    32
  0
VERTEX
  5
7044
  8
AM_0
 10
109.706
 20
222.49799999999999
 30
0.0
 70
    32
  0
VERTEX
  5
7045
  8
AM_0
 10
109.68899999999999
 20
222.41900000000001
 30
0.0
 70
    32
  0
VERTEX
  5
7046
  8
AM_0
 10
109.67400000000001
 20
222.34
 30
0.0
 70
    32
  0
VERTEX
  5
7047
  8
AM_0
 10
109.66200000000001
 20
222.261
 30
0.0
 70
    32
  0
VERTEX
  5
7048
  8
AM_0
 10
109.651
 20
222.18299999999999
 30
0.0
 70
    32
  0
VERTEX
  5
7049
  8
AM_0
 10
109.642
 20
222.10400000000001
 30
0.0
 70
    32
  0
VERTEX
  5
704A
  8
AM_0
 10
109.636
 20
222.02600000000001
 30
0.0
 70
    32
  0
VERTEX
  5
704B
  8
AM_0
 10
109.63200000000001
 20
221.947
 30
0.0
 70
    32
  0
VERTEX
  5
704C
  8
AM_0
 10
109.629
 20
221.87
 30
0.0
 70
    32
  0
VERTEX
  5
704D
  8
AM_0
 10
109.629
 20
221.792
 30
0.0
 70
    32
  0
VERTEX
  5
704E
  8
AM_0
 10
109.631
 20
221.715
 30
0.0
 70
    32
  0
VERTEX
  5
704F
  8
AM_0
 10
109.63500000000001
 20
221.63800000000001
 30
0.0
 70
    32
  0
VERTEX
  5
7050
  8
AM_0
 10
109.64100000000001
 20
221.56200000000001
 30
0.0
 70
    32
  0
VERTEX
  5
7051
  8
AM_0
 10
109.65000000000001
 20
221.48599999999999
 30
0.0
 70
    32
  0
VERTEX
  5
7052
  8
AM_0
 10
109.66
 20
221.411
 30
0.0
 70
    32
  0
VERTEX
  5
7053
  8
AM_0
 10
109.673
 20
221.33600000000001
 30
0.0
 70
    32
  0
VERTEX
  5
7054
  8
AM_0
 10
109.687
 20
221.262
 30
0.0
 70
    32
  0
VERTEX
  5
7055
  8
AM_0
 10
109.70399999999999
 20
221.18899999999999
 30
0.0
 70
    32
  0
VERTEX
  5
7056
  8
AM_0
 10
109.72199999999999
 20
221.11699999999999
 30
0.0
 70
    32
  0
VERTEX
  5
7057
  8
AM_0
 10
109.74299999999999
 20
221.04499999999999
 30
0.0
 70
    32
  0
VERTEX
  5
7058
  8
AM_0
 10
109.76600000000001
 20
220.97399999999999
 30
0.0
 70
    32
  0
VERTEX
  5
7059
  8
AM_0
 10
109.791
 20
220.904
 30
0.0
 70
    32
  0
VERTEX
  5
705A
  8
AM_0
 10
109.818
 20
220.83500000000001
 30
0.0
 70
    32
  0
VERTEX
  5
705B
  8
AM_0
 10
109.84699999999999
 20
220.767
 30
0.0
 70
    32
  0
VERTEX
  5
705C
  8
AM_0
 10
109.878
 20
220.69999999999999
 30
0.0
 70
    32
  0
VERTEX
  5
705D
  8
AM_0
 10
109.91
 20
220.63399999999999
 30
0.0
 70
    32
  0
VERTEX
  5
705E
  8
AM_0
 10
109.94499999999999
 20
220.56899999999999
 30
0.0
 70
    32
  0
VERTEX
  5
705F
  8
AM_0
 10
109.982
 20
220.505
 30
0.0
 70
    32
  0
VERTEX
  5
7060
  8
AM_0
 10
110.02
 20
220.44200000000001
 30
0.0
 70
    32
  0
VERTEX
  5
7061
  8
AM_0
 10
110.06100000000001
 20
220.381
 30
0.0
 70
    32
  0
VERTEX
  5
7062
  8
AM_0
 10
110.10299999999999
 20
220.31999999999999
 30
0.0
 70
    32
  0
VERTEX
  5
7063
  8
AM_0
 10
110.14700000000001
 20
220.261
 30
0.0
 70
    32
  0
VERTEX
  5
7064
  8
AM_0
 10
110.193
 20
220.20400000000001
 30
0.0
 70
    32
  0
VERTEX
  5
7065
  8
AM_0
 10
110.241
 20
220.14699999999999
 30
0.0
 70
    32
  0
VERTEX
  5
7066
  8
AM_0
 10
110.29000000000001
 20
220.09200000000001
 30
0.0
 70
    32
  0
VERTEX
  5
7067
  8
AM_0
 10
110.342
 20
220.03899999999999
 30
0.0
 70
    32
  0
VERTEX
  5
7068
  8
AM_0
 10
110.395
 20
219.98699999999999
 30
0.0
 70
    32
  0
VERTEX
  5
7069
  8
AM_0
 10
110.449
 20
219.93600000000001
 30
0.0
 70
    32
  0
VERTEX
  5
706A
  8
AM_0
 10
110.505
 20
219.887
 30
0.0
 70
    32
  0
VERTEX
  5
706B
  8
AM_0
 10
110.563
 20
219.839
 30
0.0
 70
    32
  0
VERTEX
  5
706C
  8
AM_0
 10
110.622
 20
219.79300000000001
 30
0.0
 70
    32
  0
VERTEX
  5
706D
  8
AM_0
 10
110.68300000000001
 20
219.74799999999999
 30
0.0
 70
    32
  0
VERTEX
  5
706E
  8
AM_0
 10
110.745
 20
219.70599999999999
 30
0.0
 70
    32
  0
VERTEX
  5
706F
  8
AM_0
 10
110.809
 20
219.66399999999999
 30
0.0
 70
    32
  0
VERTEX
  5
7070
  8
AM_0
 10
110.874
 20
219.625
 30
0.0
 70
    32
  0
VERTEX
  5
7071
  8
AM_0
 10
110.941
 20
219.58699999999999
 30
0.0
 70
    32
  0
VERTEX
  5
7072
  8
AM_0
 10
111.008
 20
219.55099999999999
 30
0.0
 70
    32
  0
VERTEX
  5
7073
  8
AM_0
 10
111.077
 20
219.51599999999999
 30
0.0
 70
    32
  0
VERTEX
  5
7074
  8
AM_0
 10
111.148
 20
219.483
 30
0.0
 70
    32
  0
VERTEX
  5
7075
  8
AM_0
 10
111.21899999999999
 20
219.452
 30
0.0
 70
    32
  0
VERTEX
  5
7076
  8
AM_0
 10
111.292
 20
219.423
 30
0.0
 70
    32
  0
VERTEX
  5
7077
  8
AM_0
 10
111.366
 20
219.39599999999999
 30
0.0
 70
    32
  0
VERTEX
  5
7078
  8
AM_0
 10
111.441
 20
219.37
 30
0.0
 70
    32
  0
VERTEX
  5
7079
  8
AM_0
 10
111.517
 20
219.34700000000001
 30
0.0
 70
    32
  0
VERTEX
  5
707A
  8
AM_0
 10
111.593
 20
219.32499999999999
 30
0.0
 70
    32
  0
VERTEX
  5
707B
  8
AM_0
 10
111.67100000000001
 20
219.30500000000001
 30
0.0
 70
    32
  0
VERTEX
  5
707C
  8
AM_0
 10
111.75
 20
219.28700000000001
 30
0.0
 70
    32
  0
VERTEX
  5
707D
  8
AM_0
 10
111.82899999999999
 20
219.27099999999999
 30
0.0
 70
    32
  0
VERTEX
  5
707E
  8
AM_0
 10
111.91
 20
219.256
 30
0.0
 70
    32
  0
VERTEX
  5
707F
  8
AM_0
 10
111.991
 20
219.244
 30
0.0
 70
    32
  0
VERTEX
  5
7080
  8
AM_0
 10
112.072
 20
219.23400000000001
 30
0.0
 70
    32
  0
VERTEX
  5
7081
  8
AM_0
 10
112.155
 20
219.22499999999999
 30
0.0
 70
    32
  0
VERTEX
  5
7082
  8
AM_0
 10
112.238
 20
219.21799999999999
 30
0.0
 70
    32
  0
VERTEX
  5
7083
  8
AM_0
 10
112.321
 20
219.214
 30
0.0
 70
    32
  0
VERTEX
  5
7084
  8
AM_0
 10
112.405
 20
219.21100000000001
 30
0.0
 70
    32
  0
VERTEX
  5
7085
  8
AM_0
 10
112.48999999999999
 20
219.21000000000001
 30
0.0
 70
    32
  0
VERTEX
  5
7086
  8
AM_0
 10
112.574
 20
219.21100000000001
 30
0.0
 70
    32
  0
VERTEX
  5
7087
  8
AM_0
 10
112.66
 20
219.214
 30
0.0
 70
    32
  0
VERTEX
  5
7088
  8
AM_0
 10
112.745
 20
219.21899999999999
 30
0.0
 70
    32
  0
VERTEX
  5
7089
  8
AM_0
 10
112.831
 20
219.226
 30
0.0
 70
    32
  0
VERTEX
  5
708A
  8
AM_0
 10
112.917
 20
219.23500000000001
 30
0.0
 70
    32
  0
VERTEX
  5
708B
  8
AM_0
 10
113.003
 20
219.24600000000001
 30
0.0
 70
    32
  0
VERTEX
  5
708C
  8
AM_0
 10
113.089
 20
219.25899999999999
 30
0.0
 70
    32
  0
VERTEX
  5
708D
  8
AM_0
 10
113.175
 20
219.273
 30
0.0
 70
    32
  0
VERTEX
  5
708E
  8
AM_0
 10
113.261
 20
219.28999999999999
 30
0.0
 70
    32
  0
VERTEX
  5
708F
  8
AM_0
 10
113.34699999999999
 20
219.30799999999999
 30
0.0
 70
    32
  0
VERTEX
  5
7090
  8
AM_0
 10
113.43300000000001
 20
219.32900000000001
 30
0.0
 70
    32
  0
VERTEX
  5
7091
  8
AM_0
 10
113.51900000000001
 20
219.351
 30
0.0
 70
    32
  0
VERTEX
  5
7092
  8
AM_0
 10
113.604
 20
219.375
 30
0.0
 70
    32
  0
VERTEX
  5
7093
  8
AM_0
 10
113.68899999999999
 20
219.40100000000001
 30
0.0
 70
    32
  0
VERTEX
  5
7094
  8
AM_0
 10
113.774
 20
219.428
 30
0.0
 70
    32
  0
VERTEX
  5
7095
  8
AM_0
 10
113.85899999999999
 20
219.458
 30
0.0
 70
    32
  0
VERTEX
  5
7096
  8
AM_0
 10
113.943
 20
219.489
 30
0.0
 70
    32
  0
VERTEX
  5
7097
  8
AM_0
 10
114.026
 20
219.52199999999999
 30
0.0
 70
    32
  0
VERTEX
  5
7098
  8
AM_0
 10
114.10899999999999
 20
219.55699999999999
 30
0.0
 70
    32
  0
VERTEX
  5
7099
  8
AM_0
 10
114.19199999999999
 20
219.59299999999999
 30
0.0
 70
    32
  0
VERTEX
  5
709A
  8
AM_0
 10
114.274
 20
219.631
 30
0.0
 70
    32
  0
VERTEX
  5
709B
  8
AM_0
 10
114.355
 20
219.67099999999999
 30
0.0
 70
    32
  0
VERTEX
  5
709C
  8
AM_0
 10
114.435
 20
219.71299999999999
 30
0.0
 70
    32
  0
VERTEX
  5
709D
  8
AM_0
 10
114.515
 20
219.756
 30
0.0
 70
    32
  0
VERTEX
  5
709E
  8
AM_0
 10
114.59399999999999
 20
219.80099999999999
 30
0.0
 70
    32
  0
VERTEX
  5
709F
  8
AM_0
 10
114.672
 20
219.84700000000001
 30
0.0
 70
    32
  0
VERTEX
  5
70A0
  8
AM_0
 10
114.749
 20
219.89500000000001
 30
0.0
 70
    32
  0
SEQEND
  5
70A1
  8
AM_0
  0
LINE
  5
5DA2
  8
AM_0
 10
129.94968290347381
 20
319.95583947791891
 30
0.0
 11
129.94968290347381
 21
312.35583947791878
 31
0.0
1001
GENIUS_GENOREF_13
1005
0
  0
LINE
  5
5DA3
  8
AM_0
 10
129.94968290347381
 20
312.35583947791878
 30
0.0
 11
130.94968290347381
 21
312.35583947791878
 31
0.0
1001
GENIUS_GENOREF_13
1005
0
  0
LINE
  5
5DA4
  8
AM_0
 10
130.94968290347381
 20
315.9558394779188
 30
0.0
 11
129.94968290347381
 21
315.5918692436527
 31
0.0
1001
GENIUS_GENOREF_13
1005
0
  0
LINE
  5
5DA5
  8
AM_0
 10
130.94968290347381
 20
316.35583947791878
 30
0.0
 11
129.94968290347381
 21
315.99186924365262
 31
0.0
1001
GENIUS_GENOREF_13
1005
0
  0
LINE
  5
5DA6
  8
AM_0
 10
130.94968290347381
 20
319.95583947791891
 30
0.0
 11
129.94968290347381
 21
319.95583947791891
 31
0.0
1001
GENIUS_GENOREF_13
1005
0
  0
LINE
  5
5DA7
  8
AM_0N
 10
128.89074539134589
 20
312.24848450561228
 30
0.0
 11
129.94968290347381
 21
312.1558394779189
 31
0.0
  0
LINE
  5
5DA8
  8
AM_0N
 10
128.89074539134589
 20
320.06319445022541
 30
0.0
 11
129.94968290347381
 21
320.15583947791879
 31
0.0
  0
ARC
  5
5DA9
  8
AM_0N
 10
133.34968290347391
 20
316.15583947791879
 30
0.0
 40
6.5
 50
151.82726586813479
 51
208.1727341318651
  0
ARC
  5
5DAA
  8
AM_0N
 10
129.0301945797423
 20
318.46928293327852
 30
0.0
 40
1.6000000000000001
 50
94.99999999999973
 51
151.82726586813479
  0
ARC
  5
5DAB
  8
AM_0N
 10
129.0301945797423
 20
313.84239602255923
 30
0.0
 40
1.6000000000000001
 50
208.1727341318651
 51
265.00000000000028
  0
LINE
  5
5DAC
  8
AM_0N
 10
129.94968290347381
 20
320.15583947791879
 30
0.0
 11
129.94968290347381
 21
312.1558394779189
 31
0.0
  0
LINE
  5
5DB7
  8
AM_0
 10
109.9996829034739
 20
237.1547830895467
 30
0.0
 11
114.8996829034738
 21
237.1547830895467
 31
0.0
  0
LINE
  5
5DB8
  8
AM_0
 10
109.9996829034739
 20
235.94176277111421
 30
0.0
 11
114.8996829034738
 21
235.94176277111421
 31
0.0
  0
LINE
  5
5DB9
  8
AM_0
 10
109.1996829034738
 20
236.3547830895468
 30
0.0
 11
109.1996829034738
 21
230.71365166910039
 31
0.0
  0
LINE
  5
5DBA
  8
AM_0
 10
109.1996829034738
 20
228.88224580016771
 30
0.0
 11
109.1996829034738
 21
230.71365166910039
 31
0.0
  0
LINE
  5
5DBB
  8
AM_0
 10
105.34968290347391
 20
222.19254914024469
 30
0.0
 11
105.34968290347391
 21
228.8151135183717
 31
0.0
  0
LINE
  5
5DBC
  8
AM_0
 10
115.6996829034738
 20
228.88224580016771
 30
0.0
 11
115.6996829034738
 21
230.71365166910039
 31
0.0
  0
LINE
  5
5DBD
  8
AM_0
 10
115.6996829034738
 20
236.3547830895468
 30
0.0
 11
115.6996829034738
 21
230.71365166910039
 31
0.0
  0
LINE
  5
5DBE
  8
AM_0
 10
119.54968290347379
 20
222.9503719953363
 30
0.0
 11
119.54968290347379
 21
222.19254914024469
 31
0.0
  0
LINE
  5
5DBF
  8
AM_0
 10
112.4496829034738
 20
227.0720323124211
 30
0.0
 11
105.9496829034738
 21
224.80626284482949
 31
0.0
  0
LINE
  5
5DC0
  8
AM_0
 10
114.0010306692036
 20
226.53126363531231
 30
0.0
 11
112.4496829034738
 21
227.0720323124211
 31
0.0
  0
LINE
  5
5DC1
  8
AM_0
 10
112.2522265296038
 20
225.41838450426329
 30
0.0
 11
105.9496829034738
 21
223.2214443633018
 31
0.0
  0
LINE
  5
5DC2
  8
AM_0
 10
118.9496829034738
 20
222.56855252023931
 30
0.0
 11
118.9496829034738
 21
221.9371216959847
 31
0.0
  0
LINE
  5
5DC3
  8
AM_0
 10
118.9496829034738
 20
221.9371216959847
 30
0.0
 11
118.9496829034738
 21
219.917879077864
 31
0.0
  0
LINE
  5
5DC4
  8
AM_0
 10
112.4496406416476
 20
217.6520948786484
 30
0.0
 11
118.9496829034738
 21
219.917879077864
 31
0.0
  0
LINE
  5
5DC5
  8
AM_0
 10
105.9496829034738
 20
219.917879077864
 30
0.0
 11
105.9496829034738
 21
221.9371216959847
 31
0.0
  0
LINE
  5
5DC6
  8
AM_0
 10
105.9496829034738
 20
219.917879077864
 30
0.0
 11
112.4496406416476
 21
217.65212434189621
 31
0.0
  0
LINE
  5
5DC7
  8
AM_0
 10
105.9496829034738
 20
221.9371216959847
 30
0.0
 11
105.9496829034738
 21
224.80626284482949
 31
0.0
  0
LINE
  5
5DC8
  8
AM_0
 10
112.4612488560396
 20
225.72582180976221
 30
0.0
 11
112.4496829034738
 21
227.0720323124211
 31
0.0
  0
ARC
  5
5DC9
  8
AM_0
 10
109.7534957545424
 20
222.90625157158431
 30
0.0
 40
6.001601094213977
 50
95.294644622325137
 51
137.2036378052704
  0
ARC
  5
5DCA
  8
AM_0
 10
109.7534957545424
 20
224.7376574405171
 30
0.0
 40
6.0016010942139628
 50
95.294644622325137
 51
137.2036378052704
  0
ARC
  5
5DCB
  8
AM_0
 10
106.219414588671
 20
223.4031372286685
 30
0.0
 40
1.4906229315522701
 50
234.30512237790029
 51
259.57476505017542
  0
ARC
  5
5DCC
  8
AM_0
 10
115.1458700524055
 20
224.7376574405171
 30
0.0
 40
6.0016010942138758
 50
53.236790438343668
 51
84.705355377678401
  0
ARC
  5
5DCD
  8
AM_0
 10
115.1458700524055
 20
222.90625157158431
 30
0.0
 40
6.0016010942138758
 50
70.204787517104947
 51
84.705355377678401
  0
ARC
  5
5DCE
  8
AM_0
 10
118.6799512182767
 20
223.4031372286685
 30
0.0
 40
1.490622931552253
 50
280.42523494982129
 51
305.69487762209508
  0
ARC
  5
5DCF
  8
AM_0
 10
112.18223106077011
 20
231.23094465250551
 30
8206336.7530117426
 40
12.9134744604336
 50
271.18655406403752
 51
287.92670513354841
  0
LINE
  5
5DD0
  8
AM_0
 10
116.1569999901687
 20
218.9444058966898
 30
8206336.7530117426
 11
116.56958075737001
 21
219.09764758208249
 31
8206336.7530117426
  0
LINE
  5
5DD1
  8
AM_0
 10
116.56958075737001
 20
219.09764758208249
 30
8206336.7530117426
 11
116.9720725016266
 21
219.27661694478829
 31
8206336.7530117426
  0
ARC
  5
5DD2
  8
AM_0
 10
114.4683108608706
 20
224.56141750851069
 30
8206336.7530117426
 40
5.8479004225482916
 50
295.35002817212489
 51
303.5670510400584
  0
LINE
  5
5DD3
  8
AM_0
 10
117.7016879368805
 20
219.6887168162483
 30
8206336.7530117426
 11
118.0162308161318
 21
219.92099027141879
 31
8206336.7530117426
  0
LINE
  5
5DD4
  8
AM_0
 10
118.0162308161318
 20
219.92099027141879
 30
8206336.7530117426
 11
118.3054199643292
 21
220.18386114745741
 31
8206336.7530117426
  0
ARC
  5
5DD5
  8
AM_0
 10
116.4265370009509
 20
222.0495455376649
 30
8206336.7530117426
 40
2.647825416060579
 50
315.20195107610522
 51
327.6690874537353
  0
LINE
  5
5DD6
  8
AM_0
 10
118.6638790807967
 20
220.63346649619589
 30
8206336.7530117426
 11
118.7927950370762
 21
220.87299826143209
 31
8206336.7530117426
  0
LINE
  5
5DD7
  8
AM_0
 10
118.7927950370762
 20
220.87299826143209
 30
8206336.7530117426
 11
118.88689560457691
 21
221.12765724991641
 31
8206336.7530117426
  0
ARC
  5
5DD8
  8
AM_0
 10
117.2880753656279
 20
221.58274591451959
 30
8206336.7530117426
 40
1.6623272388802151
 50
344.11151119415172
 51
352.55958186686092
  0
LINE
  5
5DD9
  8
AM_0
 10
118.9364059079557
 20
221.36748265162501
 30
8206336.7530117426
 11
118.9463105723969
 21
221.46834840534561
 31
8206336.7530117426
  0
LINE
  5
5DDA
  8
AM_0
 10
118.9463105723969
 20
221.46834840534561
 30
8206336.7530117426
 11
118.9496829034738
 21
221.56964711908449
 31
8206336.7530117426
  0
ARC
  5
5DDB
  8
AM_0
 10
117.35458948480429
 20
221.5666709675863
 30
8206336.7530117426
 40
1.595096195143147
 50
0.1069032823798393
 51
11.47976002760999
  0
LINE
  5
5DDC
  8
AM_0
 10
118.9177758938628
 20
221.88412981892799
 30
8206336.7530117426
 11
118.8771439836777
 21
222.04470369445241
 31
8206336.7530117426
  0
LINE
  5
5DDD
  8
AM_0
 10
118.8771439836777
 20
222.04470369445241
 30
8206336.7530117426
 11
118.82150391914411
 21
222.2006719878751
 31
8206336.7530117426
  0
ARC
  5
5DDE
  8
AM_0
 10
116.9460296254904
 20
221.42528920649011
 30
8206336.7530117426
 40
2.029438908620818
 50
22.461811304460369
 51
29.330593568206702
  0
ARC
  5
5DDF
  8
AM_0
 10
112.7171347461931
 20
231.23094465255849
 30
8206336.7530117426
 40
12.91347446048893
 50
252.0732948664546
 51
268.81307083254751
  0
LINE
  5
5DE0
  8
AM_0
 10
108.7423658167789
 20
218.9444058966898
 30
8206336.7530117426
 11
108.32978504957779
 21
219.09764758208249
 31
8206336.7530117426
  0
LINE
  5
5DE1
  8
AM_0
 10
108.32978504957779
 20
219.09764758208249
 30
8206336.7530117426
 11
107.9272933053212
 21
219.27661694478829
 31
8206336.7530117426
  0
ARC
  5
5DE2
  8
AM_0
 10
110.431054946082
 20
224.5614175085193
 30
8206336.7530117426
 40
5.8479004225582418
 50
236.43294895995061
 51
244.649971827868
  0
LINE
  5
5DE3
  8
AM_0
 10
107.1976778700671
 20
219.6887168162483
 30
8206336.7530117426
 11
106.8831349908159
 21
219.92099027141879
 31
8206336.7530117426
  0
LINE
  5
5DE4
  8
AM_0
 10
106.8831349908159
 20
219.92099027141879
 30
8206336.7530117426
 11
106.5939458426185
 21
220.18386114745741
 31
8206336.7530117426
  0
ARC
  5
5DE5
  8
AM_0
 10
108.4728288059964
 20
222.0495455376643
 30
8206336.7530117426
 40
2.6478254160599781
 50
212.3309125462558
 51
224.79804892389021
  0
LINE
  5
5DE6
  8
AM_0
 10
106.235486726151
 20
220.63346649619589
 30
8206336.7530117426
 11
106.10657076987169
 21
220.87299826143209
 31
8206336.7530117426
  0
LINE
  5
5DE7
  8
AM_0
 10
106.10657076987169
 20
220.87299826143209
 30
8206336.7530117426
 11
106.01247020237091
 21
221.12765724991641
 31
8206336.7530117426
  0
ARC
  5
5DE8
  8
AM_0
 10
107.6112904413495
 20
221.58274591452621
 30
8206336.7530117426
 40
1.6623272389105701
 50
187.4404181332275
 51
195.8884888057874
  0
LINE
  5
5DE9
  8
AM_0
 10
105.9629598989918
 20
221.36748265162501
 30
8206336.7530117426
 11
105.9530552345509
 21
221.46834840534561
 31
8206336.7530117426
  0
LINE
  5
5DEA
  8
AM_0
 10
105.9530552345509
 20
221.46834840534561
 30
8206336.7530117426
 11
105.9496829034738
 21
221.56964711908449
 31
8206336.7530117426
  0
ARC
  5
5DEB
  8
AM_0
 10
107.54477632214051
 20
221.5666709675863
 30
8206336.7530117426
 40
1.5950961951403351
 50
168.52023997237021
 51
179.8930967176201
  0
LINE
  5
5DEC
  8
AM_0
 10
105.9815899130849
 20
221.88412981892799
 30
8206336.7530117426
 11
106.0222218232702
 21
222.04470369445241
 31
8206336.7530117426
  0
LINE
  5
5DED
  8
AM_0
 10
106.0222218232702
 20
222.04470369445241
 30
8206336.7530117426
 11
106.07786188780339
 21
222.2006719878751
 31
8206336.7530117426
  0
ARC
  5
5DEE
  8
AM_0
 10
107.95333618146699
 20
221.42528920648411
 30
8206336.7530117426
 40
2.02943890863216
 50
147.8557105642179
 51
157.53818869548999
  0
LINE
  5
5DEF
  8
AM_0
 10
106.23498813846069
 20
222.50505875919731
 30
8206336.7530117426
 11
106.3572768849952
 21
222.68236935191919
 31
8206336.7530117426
  0
LINE
  5
5DF0
  8
AM_0
 10
106.3572768849952
 20
222.68236935191919
 30
8206336.7530117426
 11
106.4941304853334
 21
222.8487512743086
 31
8206336.7530117426
  0
ARC
  5
5DF1
  8
AM_0
 10
108.992288471526
 20
220.60573958848749
 30
8206336.7530117426
 40
3.3573642558870951
 50
129.0813784716793
 51
138.08040406443399
  0
LINE
  5
5DF2
  8
AM_0
 10
106.8757269665097
 20
223.2118980913786
 30
8206336.7530117426
 11
107.29486558391
 21
223.51459456900429
 31
8206336.7530117426
  0
LINE
  5
5DF3
  8
AM_0
 10
107.29486558391
 20
223.51459456900429
 30
8206336.7530117426
 11
107.7440192638076
 21
223.77194627025889
 31
8206336.7530117426
  0
ARC
  5
5DF4
  8
AM_0
 10
111.0752449468341
 20
217.24433597599349
 30
8206336.7530117426
 40
7.3284896605682359
 50
109.0382363849769
 51
117.03651703470091
  0
LINE
  5
5DF5
  8
AM_0
 10
108.6846984020562
 20
224.17196529072339
 30
8206336.7530117426
 11
109.3611962966237
 21
224.37884514034181
 31
8206336.7530117426
  0
LINE
  5
5DF6
  8
AM_0
 10
109.3611962966237
 20
224.37884514034181
 30
8206336.7530117426
 11
110.05096285932341
 21
224.536658572844
 31
8206336.7530117426
  0
ARC
  5
5DF7
  8
AM_0
 10
112.35983417618721
 20
212.59655872992309
 30
8206336.7530117426
 40
12.16128574685901
 50
96.390354906716382
 51
100.944276276251
  0
LINE
  5
5DF8
  8
AM_0
 10
111.0062631147582
 20
224.68228239044171
 30
8206336.7530117426
 11
111.1112268879221
 21
224.69229136380869
 31
8206336.7530117426
  0
ARC
  5
5DF9
  8
AM_0
 10
109.9996829034739
 20
236.3547830895468
 30
0.0
 40
0.7999999999998977
 50
90.0
 51
180.0
  0
ARC
  5
5DFA
  8
AM_0
 10
109.9996829034739
 20
235.1417627711142
 30
0.0
 40
0.7999999999999972
 50
90.0
 51
180.0
  0
ARC
  5
5DFB
  8
AM_0
 10
114.8996829034738
 20
236.3547830895468
 30
0.0
 40
0.8000000000000112
 50
0.0
 51
90.0
  0
ARC
  5
5DFC
  8
AM_0
 10
114.8996829034738
 20
235.1417627711142
 30
0.0
 40
0.8000000000000112
 50
0.0
 51
90.0
  0
LINE
  5
5FB1
  8
AM_0
 10
659.39676111509982
 20
355.61276891608412
 30
0.0
 11
659.39676111509982
 21
369.33959606283832
 31
0.0
  0
LINE
  5
5FB2
  8
AM_0
 10
652.99676111509996
 20
355.61276891608412
 30
0.0
 11
652.99676111509996
 21
369.33959606283832
 31
0.0
  0
LINE
  5
5FB3
  8
AM_0
 10
652.1967611151
 20
346.65584697791883
 30
0.0
 11
660.1967611151
 21
346.65584697791883
 31
0.0
  0
LINE
  5
5FB4
  8
AM_0
 10
660.1967611151
 20
337.08311464985638
 30
0.0
 11
660.1967611151
 21
346.65584697791883
 31
0.0
  0
LINE
  5
5FB5
  8
AM_0
 10
660.1967611151
 20
346.65584697791883
 30
0.0
 11
662.59676111509998
 21
355.61276891608412
 31
0.0
  0
LINE
  5
5FB6
  8
AM_0
 10
662.59676111509998
 20
355.61276891608412
 30
0.0
 11
662.59676111509998
 21
369.33959606283832
 31
0.0
  0
LINE
  5
5FB7
  8
AM_0
 10
649.79676111510003
 20
369.33959606283832
 30
0.0
 11
649.79676111510003
 21
355.61276891608412
 31
0.0
  0
LINE
  5
5FB8
  8
AM_0
 10
649.79676111510003
 20
355.61276891608412
 30
0.0
 11
652.1967611151
 21
346.65584697791883
 31
0.0
  0
LINE
  5
5FB9
  8
AM_0
 10
652.1967611151
 20
346.65584697791883
 30
0.0
 11
652.1967611151
 21
337.08311464985638
 31
0.0
  0
ARC
  5
5FBA
  8
AM_0
 10
656.1967611151
 20
361.65584697791883
 30
0.0
 40
9.9999999999999964
 50
50.208180500442623
 51
90.0
  0
ARC
  5
5FBB
  8
AM_0
 10
651.39676111509982
 20
356.05151761039002
 30
0.0
 40
1.659066127903009
 50
195.33458427584509
 51
344.66541572415468
  0
ARC
  5
5FBC
  8
AM_0
 10
656.1967611151
 20
359.20283550502847
 30
0.0
 40
4.8092180355079419
 50
228.2878371051452
 51
311.71216289485483
  0
ARC
  5
5FBD
  8
AM_0
 10
660.99676111510007
 20
356.05123973674381
 30
0.0
 40
1.6589926644111621
 50
195.32532916095269
 51
344.67467083904228
  0
ARC
  5
5FBE
  8
AM_0
 10
656.1967611151
 20
359.1246151679552
 30
0.0
 40
10.704477319459491
 50
72.606031891266454
 51
107.3939681087335
  0
ARC
  5
5FBF
  8
AM_0
 10
651.39676111509982
 20
366.96983066636392
 30
0.0
 40
2.8593334947723461
 50
55.973867765119778
 51
124.02613223488019
  0
ARC
  5
5FC0
  8
AM_0
 10
660.99676111510007
 20
366.9728975877664
 30
0.0
 40
2.856792199637066
 50
55.939448481710848
 51
124.060551518289
  0
ARC
  5
5FC1
  8
AM_0
 10
656.1967611151
 20
361.65584697791883
 30
0.0
 40
10.0
 50
90.0
 51
129.79181949955731
  0
LINE
  5
6858
  8
ﾁｭｳｼﾝｾﾝ
 10
88.144541663140345
 20
562.04803927435955
 30
0.0
 11
458.66937290347391
 21
562.04803927435955
 31
0.0
  0
LINE
  5
6859
  8
AM_0
 10
356.4496829034739
 20
511.9808092743595
 30
0.0
 11
356.4496829034739
 21
491.33608927435961
 31
0.0
  0
LINE
  5
685A
  8
AM_0
 10
357.44968290347413
 20
510.51009927435962
 30
0.0
 11
357.44968290347413
 21
496.96304927435961
 31
0.0
  0
LINE
  5
685B
  8
AM_0
 10
356.4496829034739
 20
496.96304927435961
 30
0.0
 11
357.44968290347413
 21
496.96304927435961
 31
0.0
  0
LINE
  5
685C
  8
AM_0
 10
356.4496829034739
 20
510.51009927435962
 30
0.0
 11
357.44968290347413
 21
510.51009927435962
 31
0.0
  0
LINE
  5
685D
  8
AM_0
 10
361.44965290347398
 20
498.96304927435961
 30
0.0
 11
361.44965290347398
 21
508.51006927435981
 31
0.0
  0
LINE
  5
685E
  8
AM_0
 10
357.44968290347413
 20
506.62331927435952
 30
0.0
 11
360.4496829034739
 21
506.62331927435952
 31
0.0
  0
LINE
  5
685F
  8
AM_0
 10
357.44968290347413
 20
500.8498192743595
 30
0.0
 11
360.4496829034739
 21
500.8498192743595
 31
0.0
  0
LINE
  5
6860
  8
AM_0
 10
357.44968290347413
 20
497.96304927435961
 30
0.0
 11
360.4496829034739
 21
497.96304927435961
 31
0.0
  0
LINE
  5
6861
  8
AM_0
 10
357.44968290347413
 20
509.5100992743595
 30
0.0
 11
360.4496829034739
 21
509.5100992743595
 31
0.0
  0
LINE
  5
6862
  8
AM_0
 10
316.4496829034739
 20
637.26177927435958
 30
0.0
 11
316.4496829034739
 21
625.8099092743596
 31
0.0
  0
LINE
  5
6863
  8
AM_0
 10
410.44968290347367
 20
636.47619927435994
 30
0.0
 11
410.44968290347367
 21
613.61986927435964
 31
0.0
  0
LINE
  5
6864
  8
AM_0
 10
348.44971290347399
 20
640.04803927435955
 30
0.0
 11
408.50204290347398
 21
638.47552927435925
 31
0.0
  0
LINE
  5
6865
  8
AM_0
 10
318.39734290347388
 20
639.26107927435964
 30
0.0
 11
348.44968290347413
 21
640.04803927435955
 31
0.0
  0
LINE
  5
6866
  8
AM_0
 10
345.4496829034739
 20
633.04803927435955
 30
0.0
 11
345.4496829034739
 21
491.04803927435961
 31
0.0
  0
LINE
  5
6867
  8
AM_0
 10
407.4496829034739
 20
611.59298927435964
 30
0.0
 11
407.4496829034739
 21
512.50307927435972
 31
0.0
  0
LINE
  5
6868
  8
AM_0
 10
407.44971290347371
 20
611.59301927435945
 30
0.0
 11
408.50204290347398
 21
611.62057927435956
 31
0.0
  0
LINE
  5
6869
  8
AM_0
 10
410.44968290347367
 20
487.61986927435981
 30
0.0
 11
410.44968290347367
 21
510.47619927435971
 31
0.0
  0
LINE
  5
686A
  8
AM_0
 10
316.4496829034739
 20
486.83431927435959
 30
0.0
 11
316.4496829034739
 21
498.28616927435962
 31
0.0
  0
LINE
  5
686B
  8
AM_0
 10
348.44971290347399
 20
484.04806927435959
 30
0.0
 11
408.50204290347398
 21
485.62057927435973
 31
0.0
  0
LINE
  5
686C
  8
AM_0
 10
318.39734290347388
 20
484.83495927435951
 30
0.0
 11
348.44968290347413
 21
484.04803927435972
 31
0.0
  0
LINE
  5
686D
  8
AM_0
 10
348.44968290347413
 20
636.19204927435953
 30
0.0
 11
341.4496829034739
 21
639.86474927435961
 31
0.0
  0
LINE
  5
686E
  8
AM_0
 10
345.85272290347399
 20
633.03747927435961
 30
0.0
 11
341.44971290347388
 21
635.3475992743596
 31
0.0
  0
LINE
  5
686F
  8
AM_0
 10
341.4496829034739
 20
639.86471927435957
 30
0.0
 11
341.4496829034739
 21
635.34762927435975
 31
0.0
  0
LINE
  5
6870
  8
AM_0
 10
408.50204290347398
 20
512.47549927435955
 30
0.0
 11
407.4496829034739
 21
512.50304927435946
 31
0.0
  0
LINE
  5
6871
  8
AM_0
 10
394.44971290347382
 20
511.79702927435972
 30
0.0
 11
394.44971290347382
 21
612.29903927435953
 31
0.0
  0
LINE
  5
6872
  8
AM_0
 10
402.8854729034739
 20
610.44732927435962
 30
0.0
 11
398.18796290347399
 21
610.85830927435961
 31
0.0
  0
LINE
  5
6873
  8
AM_0
 10
402.8854729034739
 20
513.64870927435925
 30
0.0
 11
398.18796290347399
 21
513.23772927435982
 31
0.0
  0
LINE
  5
6874
  8
AM_0
 10
391.71118290347403
 20
508.8084692743596
 30
0.0
 11
386.0138929034739
 21
508.31002927435969
 31
0.0
  0
LINE
  5
6875
  8
AM_0
 10
381.4496829034739
 20
490.04482927435959
 30
0.0
 11
381.4496829034739
 21
503.32900927435952
 31
0.0
  0
LINE
  5
6876
  8
AM_0
 10
348.44968290347413
 20
632.96947927435963
 30
0.0
 11
348.44968290347413
 21
636.19204927435953
 31
0.0
  0
LINE
  5
6877
  8
AM_0
 10
341.4496829034739
 20
484.23135927435959
 30
0.0
 11
341.4496829034739
 21
488.74844927435959
 31
0.0
  0
LINE
  5
6878
  8
AM_0
 10
345.85269290347412
 20
491.05859927435961
 30
0.0
 11
341.4496829034739
 21
488.7484792743594
 31
0.0
  0
LINE
  5
6879
  8
AM_0
 10
348.44968290347413
 20
487.9040192743596
 30
0.0
 11
341.4496829034739
 21
484.23135927435959
 31
0.0
  0
LINE
  5
687A
  8
AM_0
 10
348.44968290347413
 20
491.12658927435962
 30
0.0
 11
348.44968290347413
 21
487.9040192743596
 31
0.0
  0
LINE
  5
687B
  8
AM_0
 10
358.18555290347399
 20
491.38152927435959
 30
0.0
 11
345.44971290347388
 21
491.04803927435961
 31
0.0
  0
LINE
  5
687C
  8
AM_0
 10
358.18555290347399
 20
632.71453927435925
 30
0.0
 11
345.44971290347388
 21
633.04803927435955
 31
0.0
  0
LINE
  5
687D
  8
AM_0
 10
356.4496829034739
 20
511.9808092743595
 30
0.0
 11
359.4496829034739
 21
511.9808092743595
 31
0.0
  0
LINE
  5
687E
  8
AM_0
 10
359.44971290347399
 20
511.9808092743595
 30
0.0
 11
359.44971290347399
 21
612.11526927435955
 31
0.0
  0
LINE
  5
687F
  8
AM_0
 10
359.44971290347399
 20
511.9808092743595
 30
0.0
 11
373.03168290347378
 21
514.53918927435961
 31
0.0
  0
LINE
  5
6880
  8
AM_0
 10
360.54611290347412
 20
492.04476927435962
 30
0.0
 11
371.18289290347411
 21
498.15798927435969
 31
0.0
  0
LINE
  5
6881
  8
AM_0
 10
381.4496829034739
 20
620.76702927435963
 30
0.0
 11
381.4496829034739
 21
634.05123927435955
 31
0.0
  0
LINE
  5
6882
  8
AM_0
 10
391.52826290347377
 20
515.02352927435948
 30
0.0
 11
373.03168290347378
 21
514.53918927435961
 31
0.0
  0
LINE
  5
6883
  8
AM_0
 10
378.52823290347391
 20
498.95174927435983
 30
0.0
 11
373.54349290347398
 21
498.82122927435961
 31
0.0
  0
LINE
  5
6884
  8
AM_0
 10
391.71118290347403
 20
615.28762927435969
 30
0.0
 11
386.01392290347383
 21
615.78606927435953
 31
0.0
  0
LINE
  5
6885
  8
AM_0
 10
360.54614290347382
 20
632.05126927435936
 30
0.0
 11
371.18289290347411
 21
625.93807927435955
 31
0.0
  0
LINE
  5
6886
  8
AM_0
 10
359.44971290347399
 20
612.1152992743597
 30
0.0
 11
373.03168290347378
 21
609.55691927435964
 31
0.0
  0
LINE
  5
6887
  8
AM_0
 10
391.52826290347377
 20
609.07253927435954
 30
0.0
 11
373.03165290347403
 21
609.55688927435961
 31
0.0
  0
LINE
  5
6888
  8
AM_0
 10
378.52823290347391
 20
625.14431927435976
 30
0.0
 11
373.54349290347398
 21
625.27483927435958
 31
0.0
  0
LINE
  5
6889
  8
AM_0
 10
357.44968290347413
 20
614.58599927435955
 30
0.0
 11
360.4496829034739
 21
614.58599927435955
 31
0.0
  0
LINE
  5
688A
  8
AM_0
 10
357.44968290347413
 20
626.13299927435946
 30
0.0
 11
360.4496829034739
 21
626.13299927435946
 31
0.0
  0
LINE
  5
688B
  8
AM_0
 10
357.44968290347413
 20
623.24624927435957
 30
0.0
 11
360.4496829034739
 21
623.24624927435957
 31
0.0
  0
LINE
  5
688C
  8
AM_0
 10
357.44968290347413
 20
617.47274927435956
 30
0.0
 11
360.4496829034739
 21
617.47274927435956
 31
0.0
  0
LINE
  5
688D
  8
AM_0
 10
361.44965290347398
 20
625.1330292743595
 30
0.0
 11
361.44965290347398
 21
615.58599927435955
 31
0.0
  0
LINE
  5
688E
  8
AM_0
 10
356.4496829034739
 20
613.58596927435985
 30
0.0
 11
357.44968290347413
 21
613.58596927435985
 31
0.0
  0
LINE
  5
688F
  8
AM_0
 10
356.4496829034739
 20
627.13302927435961
 30
0.0
 11
357.44968290347413
 21
627.13302927435961
 31
0.0
  0
LINE
  5
6890
  8
AM_0
 10
357.44968290347413
 20
613.58596927435985
 30
0.0
 11
357.44968290347413
 21
627.13302927435961
 31
0.0
  0
LINE
  5
6891
  8
AM_0
 10
356.4496829034739
 20
612.11526927435955
 30
0.0
 11
356.4496829034739
 21
632.75997927435981
 31
0.0
  0
LINE
  5
6892
  8
AM_0
 10
356.4496829034739
 20
612.11526927435955
 30
0.0
 11
359.4496829034739
 21
612.11526927435955
 31
0.0
  0
LINE
  5
6893
  8
AM_0
 10
345.44971290347388
 20
491.04803927435961
 30
0.0
 11
340.39737290347392
 21
491.18032927435951
 31
0.0
  0
LINE
  5
6894
  8
AM_0
 10
345.4496829034739
 20
633.04803927435955
 30
0.0
 11
340.39737290347392
 21
632.91573927435957
 31
0.0
  0
LINE
  5
6895
  8
AM_0
 10
338.44971290347399
 20
493.17965927435949
 30
0.0
 11
338.44971290347399
 21
630.91640927435947
 31
0.0
  0
LINE
  5
6896
  8
AM_0
 10
308.44971290347388
 20
498.5480392743595
 30
0.0
 11
308.44971290347388
 21
625.54803927435955
 31
0.0
  0
LINE
  5
6897
  8
AM_0
 10
333.689512903474
 20
497.88711927435958
 30
0.0
 11
308.44974290347392
 21
498.5480392743595
 31
0.0
  0
LINE
  5
6898
  8
AM_0
 10
335.4496829034739
 20
496.83675927435962
 30
0.0
 11
336.44971290347399
 21
496.83675927435962
 31
0.0
  0
LINE
  5
6899
  8
AM_0
 10
333.4496829034739
 20
498.83675927435939
 30
0.0
 11
333.4496829034739
 21
508.0079992743598
 31
0.0
  0
LINE
  5
689A
  8
AM_0
 10
333.4496829034739
 20
625.25933927435949
 30
0.0
 11
333.4496829034739
 21
616.08807927435953
 31
0.0
  0
LINE
  5
689B
  8
AM_0
 10
333.689512903474
 20
626.20895927435959
 30
0.0
 11
308.44974290347392
 21
625.54803927435955
 31
0.0
  0
LINE
  5
689C
  8
AM_0
 10
335.4496829034739
 20
627.2593392743596
 30
0.0
 11
336.44971290347399
 21
627.2593392743596
 31
0.0
  0
LINE
  5
689D
  8
AM_0
 10
308.44971290347388
 20
510.0079992743598
 30
0.0
 11
338.44971290347399
 21
510.0079992743598
 31
0.0
  0
LINE
  5
689E
  8
AM_0
 10
308.44971290347388
 20
524.89800927435965
 30
0.0
 11
338.44971290347399
 21
524.89800927435965
 31
0.0
  0
LINE
  5
689F
  8
AM_0
 10
308.44971290347388
 20
599.19805927435959
 30
0.0
 11
338.44971290347399
 21
599.19805927435959
 31
0.0
  0
LINE
  5
68A0
  8
AM_0
 10
308.44971290347388
 20
614.08807927435976
 30
0.0
 11
338.44971290347399
 21
614.08807927435976
 31
0.0
  0
LINE
  5
68A1
  8
AM_0
 10
420.4496829034739
 20
566.04800927435963
 30
0.0
 11
452.44968290347367
 21
566.04800927435963
 31
0.0
  0
LINE
  5
68A2
  8
AM_0
 10
420.4496829034739
 20
566.04800927435963
 30
0.0
 11
420.4496829034739
 21
558.04803927435955
 31
0.0
  0
LINE
  5
68A3
  8
AM_0
 10
418.44963290347363
 20
548.04803927435955
 30
0.0
 11
452.44968290347367
 21
548.04803927435955
 31
0.0
  0
LINE
  5
68A4
  8
AM_0
 10
418.44963290347363
 20
576.04803927435955
 30
0.0
 11
452.44968290347367
 21
576.04803927435955
 31
0.0
  0
LINE
  5
68A5
  8
AM_0
 10
452.44968290347367
 20
576.04803927435955
 30
0.0
 11
452.44968290347367
 21
548.04803927435955
 31
0.0
  0
LINE
  5
68A6
  8
AM_0
 10
420.4496829034739
 20
558.04803927435955
 30
0.0
 11
452.44968290347367
 21
558.04803927435955
 31
0.0
  0
ARC
  5
68A7
  8
AM_0
 10
360.4496829034739
 20
508.51006927435981
 30
0.0
 40
1.0
 50
0.0
 51
90.00000299999769
  0
ARC
  5
68A8
  8
AM_0
 10
360.4496829034739
 20
505.62331927435952
 30
0.0
 40
1.0
 50
0.0
 51
90.00000299999769
  0
ARC
  5
68A9
  8
AM_0
 10
360.4496829034739
 20
499.8498192743595
 30
0.0
 40
1.0
 50
0.0
 51
90.00000299999769
  0
ARC
  5
68AA
  8
AM_0
 10
360.4496829034739
 20
498.96304927435961
 30
0.0
 40
1.0
 50
269.999989999999
 51
0.0000006832495047
  0
ARC
  5
68AB
  8
AM_0
 10
360.4496829034739
 20
501.84978927435952
 30
0.0
 40
1.0
 50
269.999989999999
 51
0.0000006832495047
  0
ARC
  5
68AC
  8
AM_0
 10
360.4496829034739
 20
507.62331927435969
 30
0.0
 40
1.0
 50
269.999989999999
 51
0.0000006832495047
  0
ARC
  5
68AD
  8
AM_0
 10
408.4496829034739
 20
636.47619927435994
 30
0.0
 40
2.0
 50
0.0
 51
88.499997000000747
  0
ARC
  5
68AE
  8
AM_0
 10
318.4496829034739
 20
637.26177927435958
 30
0.0
 40
2.0
 50
91.500001000001546
 51
180.00001000000091
  0
ARC
  5
68AF
  8
AM_0
 10
408.4496829034739
 20
613.61986927435964
 30
0.0
 40
2.0
 50
271.50000000000267
 51
0.0
  0
ARC
  5
68B0
  8
AM_0
 10
328.44968290347413
 20
627.04803927435955
 30
0.0
 40
6.0
 50
359.45751000000109
 51
190.86121000000489
  0
CIRCLE
  5
68B1
  8
AM_0
 10
398.4496829034739
 20
627.04803927435955
 30
0.0
 40
6.0
  0
ARC
  5
68B2
  8
AM_0
 10
408.4496829034739
 20
487.61986927435981
 30
0.0
 40
2.0
 50
271.50000000000267
 51
0.0
  0
ARC
  5
68B3
  8
AM_0
 10
318.4496829034739
 20
486.83431927435959
 30
0.0
 40
2.0
 50
180.00001000000091
 51
268.49999999999721
  0
ARC
  5
68B4
  8
AM_0
 10
408.4496829034739
 20
510.47619927435971
 30
0.0
 40
2.0
 50
0.0
 51
88.499997000000747
  0
CIRCLE
  5
68B5
  8
AM_0
 10
398.4496829034739
 20
497.04803927435961
 30
0.0
 40
6.0
  0
ARC
  5
68B6
  8
AM_0
 10
402.44968290347362
 20
605.46636927435986
 30
0.0
 40
5.0
 50
0.0
 51
85.000004000004452
  0
ARC
  5
68B7
  8
AM_0
 10
402.44968290347362
 20
518.62966927435934
 30
0.0
 40
5.0
 50
274.99999999999972
 51
0.0
  0
ARC
  5
68B8
  8
AM_0
 10
386.4496829034739
 20
503.32900927435952
 30
0.0
 40
5.0
 50
95.00000199999856
 51
180.00001000000091
  0
ARC
  5
68B9
  8
AM_0
 10
386.4496829034739
 20
620.76702927435963
 30
0.0
 40
5.0
 50
180.00001000000091
 51
265.00001000000071
  0
ARC
  5
68BA
  8
AM_0
 10
386.4496829034739
 20
490.04482927435959
 30
0.0
 40
5.0
 50
180.00001000000091
 51
271.50000000000267
  0
ARC
  5
68BB
  8
AM_0
 10
386.4496829034739
 20
634.05123927435955
 30
0.0
 40
5.0
 50
88.499997000000747
 51
180.00001000000091
  0
ARC
  5
68BC
  8
AM_0
 10
378.44968290347413
 20
501.95071927435959
 30
0.0
 40
3.0
 50
271.50000000000267
 51
0.0
  0
ARC
  5
68BD
  8
AM_0
 10
358.05466290347402
 20
496.37981927435959
 30
0.0
 40
5.0
 50
271.50000000000267
 51
299.88701999999472
  0
ARC
  5
68BE
  8
AM_0
 10
373.6743529034739
 20
493.82293927435961
 30
0.0
 40
5.0
 50
91.500001000001546
 51
119.88701999999461
  0
ARC
  5
68BF
  8
AM_0
 10
391.44971290347382
 20
518.02248927435983
 30
0.0
 40
3.0
 50
271.50000000000267
 51
0.0
  0
ARC
  5
68C0
  8
AM_0
 10
391.44971290347382
 20
511.79702927435972
 30
0.0
 40
3.0
 50
274.99999999999972
 51
0.0
  0
ARC
  5
68C1
  8
AM_0
 10
398.62372290347378
 20
508.25674927435972
 30
0.0
 40
5.0
 50
95.00000199999856
 51
153.73433000000119
  0
ARC
  5
68C2
  8
AM_0
 10
398.62372290347378
 20
615.83929927435963
 30
0.0
 40
5.0
 50
206.26566999999881
 51
265.00001000000071
  0
ARC
  5
68C3
  8
AM_0
 10
391.44971290347382
 20
606.07357927435976
 30
0.0
 40
3.0
 50
0.0
 51
88.499997000000747
  0
ARC
  5
68C4
  8
AM_0
 10
358.05466290347402
 20
627.71624927435948
 30
0.0
 40
5.0
 50
60.112980000005322
 51
88.499997000000747
  0
ARC
  5
68C5
  8
AM_0
 10
391.44971290347382
 20
612.29903927435953
 30
0.0
 40
3.0
 50
0.0
 51
85.000004000004452
  0
ARC
  5
68C6
  8
AM_0
 10
373.6743529034739
 20
630.27312927435958
 30
0.0
 40
5.0
 50
240.11298000000519
 51
268.49999999999721
  0
ARC
  5
68C7
  8
AM_0
 10
378.44968290347413
 20
622.14535927435975
 30
0.0
 40
3.0
 50
0.0
 51
88.499997000000747
  0
ARC
  5
68C8
  8
AM_0
 10
360.4496829034739
 20
616.47274927435944
 30
0.0
 40
1.0
 50
0.0
 51
90.00000299999769
  0
ARC
  5
68C9
  8
AM_0
 10
360.4496829034739
 20
622.24627927435961
 30
0.0
 40
1.0
 50
0.0
 51
90.00000299999769
  0
ARC
  5
68CA
  8
AM_0
 10
360.4496829034739
 20
625.1330292743595
 30
0.0
 40
1.0
 50
0.0
 51
90.00000299999769
  0
ARC
  5
68CB
  8
AM_0
 10
360.4496829034739
 20
624.24624927435946
 30
0.0
 40
1.0
 50
269.999989999999
 51
0.0000006832495047
  0
ARC
  5
68CC
  8
AM_0
 10
360.4496829034739
 20
618.47274927435944
 30
0.0
 40
1.0
 50
269.999989999999
 51
0.0000006832495047
  0
ARC
  5
68CD
  8
AM_0
 10
360.4496829034739
 20
615.58599927435955
 30
0.0
 40
1.0
 50
269.999989999999
 51
0.0000006832495047
  0
ARC
  5
68CE
  8
AM_0
 10
460.93842290347391
 20
562.04803927435955
 30
0.0
 40
101.4887199999999
 50
151.89333000000309
 51
208.10666999999691
  0
ARC
  5
68CF
  8
AM_0
 10
340.44971290347411
 20
493.17965927435949
 30
0.0
 40
2.0
 50
180.00001000000091
 51
268.49999999999721
  0
ARC
  5
68D0
  8
AM_0
 10
340.44971290347411
 20
630.91640927435947
 30
0.0
 40
2.0
 50
91.500001000001546
 51
180.00001000000091
  0
ARC
  5
68D1
  8
AM_0
 10
335.4496829034739
 20
498.83675927435939
 30
0.0
 40
2.0
 50
180.00001000000091
 51
270.0
  0
ARC
  5
68D2
  8
AM_0
 10
336.44971290347399
 20
494.83675927435939
 30
0.0
 40
2.0
 50
0.0
 51
90.00000299999769
  0
ARC
  5
68D3
  8
AM_0
 10
336.44971290347399
 20
629.25933927435949
 30
0.0
 40
2.0
 50
270.0
 51
0.0
  0
ARC
  5
68D4
  8
AM_0
 10
335.4496829034739
 20
625.25933927435949
 30
0.0
 40
2.0
 50
90.00000299999769
 51
180.00001000000091
  0
ARC
  5
68D5
  8
AM_0
 10
331.4496829034739
 20
508.0079992743598
 30
0.0
 40
2.0
 50
0.0
 51
90.00000299999769
  0
ARC
  5
68D6
  8
AM_0
 10
331.4496829034739
 20
616.08807927435953
 30
0.0
 40
2.0
 50
270.0
 51
0.0
  0
ARC
  5
68D7
  8
AM_0
 10
328.44968290347413
 20
497.04803927435961
 30
0.0
 40
6.0
 50
169.138789999995
 51
0.5425729200004824
  0
ARC
  5
68D8
  8
AM_0
 10
420.4496829034739
 20
562.04800927435963
 30
0.0
 40
3.9999962
 50
90.00000299999769
 51
120.00085842361619
  0
ARC
  5
68D9
  8
AM_0
 10
420.4496829034739
 20
562.04800927435963
 30
0.0
 40
3.9999962
 50
239.99914157638381
 51
270.0
  0
LINE
  5
6A48
  8
ﾁｭｳｼﾝｾﾝ1
 10
388.4496829034739
 20
627.04803927435955
 30
0.0
 11
408.4496829034739
 21
627.04803927435955
 31
0.0
  0
LINE
  5
6A49
  8
ﾁｭｳｼﾝｾﾝ1
 10
398.4496829034739
 20
637.04803927435955
 30
0.0
 11
398.4496829034739
 21
617.04803927435955
 31
0.0
  0
LINE
  5
6B19
  8
ﾁｭｳｼﾝｾﾝ1
 10
318.44968290347413
 20
627.04803927435955
 30
0.0
 11
338.44968290347413
 21
627.04803927435955
 31
0.0
  0
LINE
  5
6B1A
  8
ﾁｭｳｼﾝｾﾝ1
 10
328.44968290347413
 20
637.04803927435955
 30
0.0
 11
328.44968290347413
 21
617.04803927435955
 31
0.0
  0
LINE
  5
6B1B
  8
ﾁｭｳｼﾝｾﾝ1
 10
318.44968290347413
 20
497.04803927435961
 30
0.0
 11
338.44968290347413
 21
497.04803927435961
 31
0.0
  0
LINE
  5
6B1C
  8
ﾁｭｳｼﾝｾﾝ1
 10
328.44968290347413
 20
507.04803927435961
 30
0.0
 11
328.44968290347413
 21
487.04803927435961
 31
0.0
  0
LINE
  5
6B1D
  8
ﾁｭｳｼﾝｾﾝ1
 10
388.4496829034739
 20
497.04803927435961
 30
0.0
 11
408.4496829034739
 21
497.04803927435961
 31
0.0
  0
LINE
  5
6B1E
  8
ﾁｭｳｼﾝｾﾝ1
 10
398.4496829034739
 20
507.04803927435961
 30
0.0
 11
398.4496829034739
 21
487.04803927435961
 31
0.0
  0
ARC
  5
6B1F
  8
AM_0
 10
409.44966290347412
 20
591.43479427435955
 30
0.0
 40
2.00000007
 50
179.999989999999
 51
240.00001000000699
  0
ARC
  5
6B20
  8
AM_0
 10
409.44966290347412
 20
532.66128727435955
 30
0.0
 40
2.00000007
 50
120.0000000000005
 51
180.00001000000091
  0
LINE
  5
6B21
  8
AM_0
 10
413.44963290347363
 20
595.54803627435945
 30
0.0
 11
418.4496329034738
 21
590.54803627435945
 31
0.0
  0
LINE
  5
6B22
  8
AM_0
 10
408.94963290347363
 20
595.54803627435945
 30
0.0
 11
413.44963290347363
 21
595.54803627435945
 31
0.0
  0
LINE
  5
6B23
  8
AM_0
 10
408.44963290347363
 20
595.04803627435945
 30
0.0
 11
408.44963290347329
 21
529.04803627436002
 31
0.0
  0
LINE
  5
6B24
  8
AM_0
 10
418.4496329034738
 20
590.54803627435945
 30
0.0
 11
418.4496329034738
 21
533.54803627435979
 31
0.0
  0
LINE
  5
6B25
  8
AM_0
 10
408.94963290347363
 20
528.54803627435945
 30
0.0
 11
413.44963290347363
 21
528.54803627435945
 31
0.0
  0
LINE
  5
6B26
  8
AM_0
 10
413.44963290347363
 20
528.54803627435945
 30
0.0
 11
418.4496329034738
 21
533.54803627435979
 31
0.0
  0
LINE
  5
6B27
  8
AM_0
 10
408.94963290347363
 20
595.54803627435945
 30
0.0
 11
408.44963290347363
 21
595.04803627435945
 31
0.0
1001
GENIUS_GENFIL_13
1070
     0
1040
0.5
1040
0.5
1040
20.0
1040
0.0
1002
{
1002
}
1001
GENIUS_GENOBJ-N-CHA_13
1002
{
1000
OWNER
1000
GEN
1002
}
1001
GENIUS_GENODEF_13
1002
{
1000
HIER
1070
     0
1002
}
1002
{
1000
MANEDIT
1070
     0
1002
}
1002
{
1000
NOSEL
1070
     0
1002
}
1002
{
1000
BEHIND
1070
     0
1002
}
1002
{
1000
OTHER
1070
     0
1002
}
1002
{
1000
REACTOR
1002
}
  0
LINE
  5
6B28
  8
AM_0
 10
408.44963290347363
 20
529.04803627435945
 30
0.0
 11
408.94963290347363
 21
528.54803627435945
 31
0.0
1001
GENIUS_GENFIL_13
1070
     0
1040
0.5
1040
0.5
1040
20.0
1040
0.0
1002
{
1002
}
1001
GENIUS_GENOBJ-N-CHA_13
1002
{
1000
OWNER
1000
GEN
1002
}
1001
GENIUS_GENODEF_13
1002
{
1000
HIER
1070
     0
1002
}
1002
{
1000
MANEDIT
1070
     0
1002
}
1002
{
1000
NOSEL
1070
     0
1002
}
1002
{
1000
BEHIND
1070
     0
1002
}
1002
{
1000
OTHER
1070
     0
1002
}
1002
{
1000
REACTOR
1002
}
  0
LINE
  5
6B29
  8
AM_0
 10
413.44963290347363
 20
595.54803627435945
 30
0.0
 11
413.44963290347363
 21
528.54803627435945
 31
0.0
  0
LINE
  5
6D78
  8
AM_0
 10
145.44971290347519
 20
509.98663576558789
 30
0.0
 11
145.4497129034747
 21
547.70892268034515
 31
0.0
  0
LINE
  5
6D79
  8
AM_0
 10
136.44971290347419
 20
508.04803927435989
 30
0.0
 11
136.44971290347419
 21
616.04803927436001
 31
0.0
  0
LINE
  5
6D7A
  8
AM_0
 10
136.44971290347419
 20
508.04803927435989
 30
0.0
 11
153.44971290347431
 21
509.04803927435972
 31
0.0
  0
LINE
  5
6D7B
  8
AM_0
 10
136.44971290347419
 20
616.04803927435989
 30
0.0
 11
153.44971290347431
 21
615.04803927435989
 31
0.0
  0
LINE
  5
6D7C
  8
AM_0
 10
145.4497129034749
 20
518.45413607626836
 30
0.0
 11
153.44971290347431
 21
518.45413607626836
 31
0.0
  0
LINE
  5
6D7D
  8
AM_0
 10
145.44971290347519
 20
509.98663576558789
 30
0.0
 11
153.44971290347431
 21
509.98663576558789
 31
0.0
  0
LINE
  5
6D7E
  8
AM_0
 10
141.9497129034749
 20
527.40716630909981
 30
0.0
 11
145.4497129034749
 21
527.40716630909981
 31
0.0
  0
LINE
  5
6D7F
  8
AM_0
 10
141.9497129034749
 20
518.90716630909981
 30
0.0
 11
145.44971290347519
 21
518.90716630909981
 31
0.0
  0
LINE
  5
6D80
  8
AM_0
 10
141.4497129034749
 20
519.40716630909981
 30
0.0
 11
141.4497129034749
 21
526.90716630909981
 31
0.0
  0
ARC
  5
6D81
  8
AM_0
 10
141.94971290347499
 20
519.40716630909981
 30
0.0
 40
0.5
 50
180.0
 51
270.0
  0
ARC
  5
6D82
  8
AM_0
 10
141.94971290347499
 20
526.90716630909981
 30
0.0
 40
0.5
 50
90.0
 51
180.0
  0
LINE
  5
6D83
  8
AM_0
 10
136.44971290347419
 20
519.7758447812198
 30
0.0
 11
141.4497129034749
 21
519.77584478121969
 31
0.0
  0
LINE
  5
6D84
  8
AM_0
 10
136.44971290347419
 20
529.51092727951573
 30
0.0
 11
145.4497129034749
 21
529.51092727951584
 31
0.0
  0
LINE
  5
6D85
  8
AM_0
 10
145.44971290347519
 20
614.10944278313195
 30
0.0
 11
145.4497129034747
 21
576.38715586837907
 31
0.0
  0
LINE
  5
6D86
  8
AM_0
 10
145.4497129034749
 20
605.64194247245143
 30
0.0
 11
153.44971290347431
 21
605.64194247245143
 31
0.0
  0
LINE
  5
6D87
  8
AM_0
 10
145.44971290347519
 20
614.10944278313195
 30
0.0
 11
153.44971290347431
 21
614.10944278313195
 31
0.0
  0
LINE
  5
6D88
  8
AM_0
 10
141.9497129034749
 20
596.68891223961987
 30
0.0
 11
145.4497129034749
 21
596.68891223961987
 31
0.0
  0
LINE
  5
6D89
  8
AM_0
 10
141.9497129034749
 20
605.18891223961987
 30
0.0
 11
145.44971290347519
 21
605.18891223961987
 31
0.0
  0
LINE
  5
6D8A
  8
AM_0
 10
141.4497129034749
 20
604.68891223961998
 30
0.0
 11
141.4497129034749
 21
597.18891223961987
 31
0.0
  0
ARC
  5
6D8B
  8
AM_0
 10
141.94971290347499
 20
604.68891223961998
 30
0.0
 40
0.5
 50
90.0
 51
180.0
  0
ARC
  5
6D8C
  8
AM_0
 10
141.94971290347499
 20
597.18891223961975
 30
0.0
 40
0.5
 50
180.0
 51
270.0
  0
LINE
  5
6D8D
  8
AM_0
 10
136.44971290347419
 20
604.32023376749987
 30
0.0
 11
141.4497129034749
 21
604.32023376749999
 31
0.0
  0
LINE
  5
6D8E
  8
AM_0
 10
136.44971290347419
 20
594.58515126920406
 30
0.0
 11
145.4497129034749
 21
594.58515126920406
 31
0.0
  0
LINE
  5
6D8F
  8
AM_0
 10
130.44971290347431
 20
616.04803927436001
 30
0.0
 11
130.44971290347431
 21
508.04803927435989
 31
0.0
  0
LINE
  5
6D90
  8
AM_0
 10
136.44971290347419
 20
508.04803927435989
 30
0.0
 11
130.44971290347431
 21
508.04803927435989
 31
0.0
  0
LINE
  5
6D91
  8
AM_0
 10
130.44971290347431
 20
616.04803927436001
 30
0.0
 11
136.44971290347399
 21
616.04803927436001
 31
0.0
  0
LINE
  5
6D92
  8
AM_0
 10
129.44971290347431
 20
558.24803927435994
 30
0.0
 11
129.44971290347431
 21
565.84803927435985
 31
0.0
  0
LINE
  5
6D93
  8
AM_0
 10
129.44971290347431
 20
565.84803927435985
 30
0.0
 11
130.44971290347431
 21
565.84803927435985
 31
0.0
  0
LINE
  5
6D94
  8
AM_0
 10
130.44971290347431
 20
562.24803927435994
 30
0.0
 11
129.44971290347431
 21
562.61200950862587
 31
0.0
  0
LINE
  5
6D95
  8
AM_0
 10
130.44971290347431
 20
561.84803927435985
 30
0.0
 11
129.44971290347431
 21
562.21200950862624
 31
0.0
  0
LINE
  5
6D96
  8
AM_0
 10
130.44971290347431
 20
558.24803927435994
 30
0.0
 11
129.44971290347431
 21
558.24803927435994
 31
0.0
  0
LINE
  5
6D97
  8
AM_0
 10
128.39077539134621
 20
565.95539424666651
 30
0.0
 11
129.44971290347431
 21
566.04803927435989
 31
0.0
  0
LINE
  5
6D98
  8
AM_0
 10
128.39077539134621
 20
558.1406843020535
 30
0.0
 11
129.44971290347431
 21
558.04803927435989
 31
0.0
  0
ARC
  5
6D99
  8
AM_0
 10
132.8497129034742
 20
562.04803927436001
 30
0.0
 40
6.5
 50
151.82726586813479
 51
208.1727341318651
  0
ARC
  5
6D9A
  8
AM_0
 10
128.53022457974279
 20
559.73459581900022
 30
0.0
 40
1.6000000000000001
 50
208.1727341318651
 51
265.0
  0
ARC
  5
6D9B
  8
AM_0
 10
128.53022457974279
 20
564.36148272971946
 30
0.0
 40
1.6000000000000001
 50
95.0
 51
151.82726586813479
  0
LINE
  5
6D9C
  8
AM_0
 10
129.44971290347431
 20
558.04803927435989
 30
0.0
 11
129.44971290347431
 21
566.04803927435989
 31
0.0
  0
LINE
  5
6D9D
  8
AM_0
 10
153.44971290347431
 20
547.70892268034515
 30
0.0
 11
145.4497129034749
 21
547.70892268034515
 31
0.0
  0
LINE
  5
6D9E
  8
AM_0
 10
153.44971290347399
 20
576.3871558683793
 30
0.0
 11
145.4497129034747
 21
576.3871558683793
 31
0.0
  0
LINE
  5
6D9F
  8
AM_0
 10
115.9497129034738
 20
528.04803927436092
 30
0.0
 11
115.9497129034738
 21
517.04803927435989
 31
0.0
  0
LINE
  5
6DA0
  8
AM_0
 10
130.4497129034738
 20
517.04803927435989
 30
0.0
 11
115.9497129034738
 21
517.04803927435989
 31
0.0
  0
LINE
  5
6DA1
  8
AM_0
 10
103.94971290347431
 20
522.04803927436092
 30
0.0
 11
103.94971290347399
 21
519.04803927436092
 31
0.0
  0
LINE
  5
6DA2
  8
AM_0
 10
103.94971290347399
 20
519.04803927436092
 30
0.0
 11
115.9497129034738
 21
519.04803927436092
 31
0.0
  0
LINE
  5
6DA3
  8
AM_0
 10
103.9497129034738
 20
520.04803927436114
 30
0.0
 11
103.9497129034738
 21
522.22570768050764
 31
0.0
  0
LINE
  5
6DA4
  8
AM_0
 10
98.449712903473795
 20
522.04803927436114
 30
0.0
 11
99.349712903473929
 21
522.04803927436114
 31
0.0
  0
LINE
  5
6DA5
  8
AM_0
 10
98.249712903473565
 20
525.04803927436114
 30
0.0
 11
98.249712903473565
 21
522.04803927436114
 31
0.0
  0
LINE
  5
6DA6
  8
AM_0
 10
99.349712903473929
 20
521.77568753977744
 30
0.0
 11
99.349712903473929
 21
525.32039100894485
 31
0.0
  0
LINE
  5
6DA7
  8
AM_0
 10
97.949712903473824
 20
524.74803927436119
 30
0.0
 11
99.349712903472081
 21
524.74803927436119
 31
0.0
  0
LINE
  5
6DA8
  8
AM_0
 10
103.3497129034739
 20
521.16646941395402
 30
0.0
 11
103.3497129034739
 21
520.04803927436114
 31
0.0
  0
LINE
  5
6DA9
  8
AM_0
 10
103.3497129034739
 20
522.04803927436114
 30
0.0
 11
103.3497129034739
 21
521.94803927436112
 31
0.0
  0
LINE
  5
6DAA
  8
AM_0
 10
103.3497129034739
 20
521.94803927436112
 30
0.0
 11
103.3497129034739
 21
521.16646941395402
 31
0.0
  0
LINE
  5
6DAB
  8
AM_0
 10
103.3497129034739
 20
522.04803927436114
 30
0.0
 11
103.3497129034739
 21
521.94803927436112
 31
0.0
  0
LINE
  5
6DAC
  8
AM_0
 10
103.3497129034739
 20
522.4318019506909
 30
0.0
 11
103.3497129034739
 21
521.16646941395402
 31
0.0
  0
LINE
  5
6DAD
  8
AM_0
 10
103.3497129034739
 20
520.04803927436114
 30
0.0
 11
103.9497129034738
 21
520.04803927436114
 31
0.0
  0
LINE
  5
6DAE
  8
AM_0
 10
100.6497129034741
 20
521.16646941395402
 30
0.0
 11
100.6497129034741
 21
524.59800060635405
 31
0.0
  0
LINE
  5
6DAF
  8
AM_0
 10
100.4886686742164
 20
520.87977778561094
 30
0.0
 11
99.556115624709378
 21
521.41818753977759
 31
0.0
  0
LINE
  5
6DB0
  8
AM_0
 10
100.9221644955045
 20
520.37261279381823
 30
0.0
 11
103.07726131144349
 21
520.37261279381823
 31
0.0
  0
LINE
  5
6DB1
  8
AM_0
 10
100.9221644955045
 20
521.96032603408958
 30
0.0
 11
103.07726131144349
 21
521.9603260340898
 31
0.0
  0
LINE
  5
6DB2
  8
AM_0
 10
99.349712903472565
 20
525.04803927436114
 30
0.0
 11
98.249712903473565
 21
525.04803927436114
 31
0.0
  0
LINE
  5
6DB3
  8
AM_0
 10
98.249712903473565
 20
525.04803927436114
 30
0.0
 11
97.949712903473824
 21
524.74803927436119
 31
0.0
  0
LINE
  5
6DB4
  8
AM_0
 10
97.949712903473824
 20
524.74803927436119
 30
0.0
 11
97.949712903473824
 21
522.3480392743611
 31
0.0
  0
LINE
  5
6DB5
  8
AM_0
 10
98.249712903473565
 20
522.04803927436114
 30
0.0
 11
99.349712903472081
 21
522.04803927436114
 31
0.0
  0
LINE
  5
6DB6
  8
AM_0
 10
97.949712903473824
 20
522.3480392743611
 30
0.0
 11
98.249712903473565
 21
522.04803927436114
 31
0.0
  0
LINE
  5
6DB7
  8
AM_0
 10
99.349712903472081
 20
522.3480392743611
 30
0.0
 11
97.949712903473824
 21
522.3480392743611
 31
0.0
  0
ARC
  5
6DB8
  8
AM_0
 10
102.0569360874473
 20
521.16646941395402
 30
0.0
 40
1.292776816026465
 50
322.11555894629771
 51
0.0
  0
ARC
  5
6DB9
  8
AM_0
 10
105.4121427795336
 20
523.54803927436114
 30
0.0
 40
4.762429876059711
 50
168.45024695876941
 51
199.4742400054138
  0
ARC
  5
6DBA
  8
AM_0
 10
101.9424897195005
 20
521.16646941395402
 30
0.0
 40
1.292776816026556
 50
142.11555894629771
 51
217.88444105370229
  0
ARC
  5
6DBB
  8
AM_0
 10
98.587283027414401
 20
523.54803927436114
 30
0.0
 40
4.762429876059584
 50
340.52575999458628
 51
347.08714779821958
  0
ARC
  5
6DBC
  8
AM_0
 10
102.0569360874473
 20
521.16646941395402
 30
0.0
 40
1.2927768160265021
 50
0.0
 51
37.884441053702282
  0
ARC
  5
6DBD
  8
AM_0
 10
99.762518345944372
 20
521.77568753977755
 30
0.0
 40
0.4128054424705854
 50
180.0
 51
239.99999999999949
  0
ARC
  5
6DBE
  8
AM_0
 10
100.0758632317459
 20
520.16477778561102
 30
0.0
 40
0.8256108849411369
 50
28.217424594182571
 51
59.999999999999439
  0
LINE
  5
6DBF
  8
AM_0
 10
99.564805435997101
 20
525.68290807383096
 30
0.0
 11
99.556115624709378
 21
525.6778910089447
 31
0.0
  0
ARC
  5
6DC0
  8
AM_0
 10
99.762518345944599
 20
525.32039100894497
 30
0.0
 40
0.4128054424705854
 50
119.9999999999916
 51
179.99999999999341
  0
CIRCLE
  5
6DC1
  8
AM_0
 10
101.949674235468
 20
562.04803927436024
 30
0.0
 40
5.5
  0
LINE
  5
6DC2
  8
AM_0
 10
96.449674235468024
 20
558.87261279381721
 30
0.0
 11
101.94967423546851
 21
555.69718631327419
 31
0.0
  0
LINE
  5
6DC3
  8
AM_0
 10
101.94967423546851
 20
555.69718631327419
 30
0.0
 11
107.449674235468
 21
558.87261279381744
 31
0.0
  0
LINE
  5
6DC4
  8
AM_0
 10
107.449674235468
 20
558.87261279381744
 30
0.0
 11
107.449674235468
 21
565.22346575490315
 31
0.0
  0
LINE
  5
6DC5
  8
AM_0
 10
107.449674235468
 20
565.22346575490315
 30
0.0
 11
101.949674235468
 21
568.39889223544606
 31
0.0
  0
LINE
  5
6DC6
  8
AM_0
 10
101.949674235468
 20
568.39889223544606
 30
0.0
 11
96.449674235468024
 21
565.22346575490258
 31
0.0
  0
LINE
  5
6DC7
  8
AM_0
 10
96.449674235468024
 20
565.22346575490258
 30
0.0
 11
96.449674235468024
 21
558.87261279381721
 31
0.0
  0
CIRCLE
  5
6DC8
  8
AM_0
 10
101.949674235468
 20
562.04803927436024
 30
0.0
 40
6.4999856554771771
  0
LINE
  5
6DC9
  8
AM_0
 10
113.01496646583909
 20
528.04803927436092
 30
0.0
 11
115.9497129034738
 21
528.04803927436092
 31
0.0
  0
LINE
  5
6DCA
  8
AM_0
 10
113.9691350176271
 20
526.54803927436092
 30
0.0
 11
115.9497129034738
 21
526.54803927436092
 31
0.0
  0
LINE
  5
6DCB
  8
AM_0
 10
105.2707420473328
 20
522.04803927436092
 30
0.0
 11
115.9497129034738
 21
522.04803927436092
 31
0.0
  0
ARC
  5
6DCC
  8
AM_0
 10
105.2707420473326
 20
527.04803927436092
 30
0.0
 40
5.0
 50
225.0
 51
270.0
1001
GENIUS_GENODEF_13
1002
{
1000
HIER
1070
     0
1002
}
1002
{
1000
MANEDIT
1070
     0
1002
}
1002
{
1000
NOSEL
1070
     0
1002
}
1002
{
1000
BEHIND
1070
     0
1002
}
1002
{
1000
OTHER
1070
     0
1002
}
1002
{
1000
REACTOR
1002
}
1001
GENIUS_GENOBJ-N-FIL_13
1002
{
1000
OWNER
1000
GEN
1002
}
  0
LINE
  5
6DCD
  8
AM_0
 10
113.9691350176268
 20
522.04803927436092
 30
0.0
 11
113.9691350176271
 21
526.54803927436092
 31
0.0
  0
LINE
  5
6DCE
  8
AM_0
 10
100.449674235468
 20
555.72349869646769
 30
0.0
 11
100.44967423546819
 21
534.8360644206515
 31
0.0
  0
LINE
  5
6DCF
  8
AM_0
 10
103.449674235468
 20
555.72349869646769
 30
0.0
 11
103.449674235468
 21
534.8360644206515
 31
0.0
  0
LINE
  5
6DD0
  8
AM_0
 10
98.199674235468009
 20
556.73886669085823
 30
0.0
 11
98.199674235468009
 21
529.11910708622565
 31
0.0
  0
ARC
  5
6DD1
  8
AM_0
 10
103.199674235468
 20
529.11910708622565
 30
0.0
 40
5.0
 50
180.0
 51
225.0
1001
GENIUS_GENOBJ-N-FIL_13
1002
{
1000
OWNER
1000
GEN
1002
}
1001
GENIUS_GENODEF_13
1002
{
1000
HIER
1070
     0
1002
}
1002
{
1000
MANEDIT
1070
     0
1002
}
1002
{
1000
NOSEL
1070
     0
1002
}
1002
{
1000
BEHIND
1070
     0
1002
}
1002
{
1000
OTHER
1070
     0
1002
}
1002
{
1000
REACTOR
1002
}
  0
LINE
  5
6DD2
  8
AM_0
 10
105.699674235468
 20
556.73886669085823
 30
0.0
 11
105.699674235468
 21
532.57895761761245
 31
0.0
  0
ARC
  5
6DD3
  8
AM_0
 10
110.699674235468
 20
541.00355764368555
 30
0.0
 40
5.0
 50
180.0
 51
212.46094411513889
1001
GENIUS_GENODEF_13
1002
{
1000
HIER
1070
     0
1002
}
1002
{
1000
MANEDIT
1070
     0
1002
}
1002
{
1000
NOSEL
1070
     0
1002
}
1002
{
1000
BEHIND
1070
     0
1002
}
1002
{
1000
OTHER
1070
     0
1002
}
1002
{
1000
REACTOR
1002
}
1001
GENIUS_GENOBJ-N-FIL_13
1002
{
1000
OWNER
1000
GEN
1002
}
  0
ARC
  5
6DD4
  8
AM_0
 10
110.699674235468
 20
532.57895761761245
 30
0.0
 40
5.0
 50
180.0
 51
224.2123722808945
1001
GENIUS_GENOBJ-N-FIL_13
1002
{
1000
OWNER
1000
GEN
1002
}
1001
GENIUS_GENODEF_13
1002
{
1000
HIER
1070
     0
1002
}
1002
{
1000
MANEDIT
1070
     0
1002
}
1002
{
1000
NOSEL
1070
     0
1002
}
1002
{
1000
BEHIND
1070
     0
1002
}
1002
{
1000
OTHER
1070
     0
1002
}
1002
{
1000
REACTOR
1002
}
  0
LINE
  5
6DD5
  8
AM_0
 10
113.9691350176268
 20
526.54803927436092
 30
0.0
 11
106.48088672470099
 21
538.31993473071975
 31
0.0
  0
LINE
  5
6DD6
  8
AM_0
 10
113.9691350176268
 20
522.04803927436092
 30
0.0
 11
107.1158739996166
 21
529.09235814685167
 31
0.0
  0
LINE
  5
6DD7
  8
AM_0
 10
99.664140329535371
 20
525.58357318029266
 30
0.0
 11
101.73520814139999
 21
523.51250536842815
 31
0.0
  0
ARC
  5
6DD8
  8
AM_0
 10
101.949674235468
 20
534.8360644206515
 30
0.0
 40
1.5
 50
180.0
 51
0.0
  0
LINE
  5
6DD9
  8
AM_0
 10
115.94971290347431
 20
596.04803927435933
 30
0.0
 11
115.9497129034747
 21
607.04803927436012
 31
0.0
  0
LINE
  5
6DDA
  8
AM_0
 10
130.4497129034747
 20
607.04803927436001
 30
0.0
 11
115.9497129034747
 21
607.04803927436012
 31
0.0
  0
LINE
  5
6DDB
  8
AM_0
 10
103.9497129034749
 20
602.04803927435955
 30
0.0
 11
103.9497129034749
 21
605.04803927435955
 31
0.0
  0
LINE
  5
6DDC
  8
AM_0
 10
103.9497129034749
 20
605.04803927435955
 30
0.0
 11
115.9497129034747
 21
605.04803927435933
 31
0.0
  0
LINE
  5
6DDD
  8
AM_0
 10
103.9497129034747
 20
604.04803927435933
 30
0.0
 11
103.9497129034747
 21
601.87037086821294
 31
0.0
  0
LINE
  5
6DDE
  8
AM_0
 10
98.449712903474733
 20
602.04803927435955
 30
0.0
 11
99.349712903474824
 21
602.04803927435955
 31
0.0
  0
LINE
  5
6DDF
  8
AM_0
 10
98.249712903474475
 20
599.04803927435955
 30
0.0
 11
98.249712903474475
 21
602.04803927435955
 31
0.0
  0
LINE
  5
6DE0
  8
AM_0
 10
99.349712903474824
 20
602.32039100894315
 30
0.0
 11
99.349712903474824
 21
598.77568753977584
 31
0.0
  0
LINE
  5
6DE1
  8
AM_0
 10
97.949712903474719
 20
599.34803927435962
 30
0.0
 11
99.349712903474597
 21
599.34803927435939
 31
0.0
  0
LINE
  5
6DE2
  8
AM_0
 10
103.3497129034748
 20
602.92960913476645
 30
0.0
 11
103.3497129034748
 21
604.04803927435955
 31
0.0
  0
LINE
  5
6DE3
  8
AM_0
 10
103.3497129034748
 20
602.04803927435955
 30
0.0
 11
103.3497129034748
 21
602.14803927435935
 31
0.0
  0
LINE
  5
6DE4
  8
AM_0
 10
103.3497129034748
 20
602.14803927435935
 30
0.0
 11
103.3497129034748
 21
602.92960913476645
 31
0.0
  0
LINE
  5
6DE5
  8
AM_0
 10
103.3497129034748
 20
602.04803927435955
 30
0.0
 11
103.3497129034748
 21
602.14803927435935
 31
0.0
  0
LINE
  5
6DE6
  8
AM_0
 10
103.3497129034748
 20
601.66427659802969
 30
0.0
 11
103.3497129034748
 21
602.92960913476645
 31
0.0
  0
LINE
  5
6DE7
  8
AM_0
 10
103.3497129034748
 20
604.04803927435955
 30
0.0
 11
103.9497129034747
 21
604.04803927435933
 31
0.0
  0
LINE
  5
6DE8
  8
AM_0
 10
100.64971290347501
 20
602.92960913476645
 30
0.0
 11
100.64971290347469
 21
599.49807794236642
 31
0.0
  0
LINE
  5
6DE9
  8
AM_0
 10
100.48866867421729
 20
603.21630076310976
 30
0.0
 11
99.556115624710273
 21
602.67789100894311
 31
0.0
  0
LINE
  5
6DEA
  8
AM_0
 10
100.9221644955054
 20
603.72346575490235
 30
0.0
 11
103.0772613114444
 21
603.72346575490235
 31
0.0
  0
LINE
  5
6DEB
  8
AM_0
 10
100.9221644955054
 20
602.13575251463101
 30
0.0
 11
103.0772613114444
 21
602.13575251463067
 31
0.0
  0
LINE
  5
6DEC
  8
AM_0
 10
99.349712903474824
 20
599.04803927435955
 30
0.0
 11
98.249712903474475
 21
599.04803927435955
 31
0.0
  0
LINE
  5
6DED
  8
AM_0
 10
98.249712903474475
 20
599.04803927435955
 30
0.0
 11
97.949712903474719
 21
599.34803927435962
 31
0.0
  0
LINE
  5
6DEE
  8
AM_0
 10
97.949712903474719
 20
599.34803927435962
 30
0.0
 11
97.949712903474719
 21
601.74803927435948
 31
0.0
  0
LINE
  5
6DEF
  8
AM_0
 10
98.249712903474475
 20
602.04803927435955
 30
0.0
 11
99.349712903474824
 21
602.04803927435955
 31
0.0
  0
LINE
  5
6DF0
  8
AM_0
 10
97.949712903474719
 20
601.74803927435948
 30
0.0
 11
98.249712903474475
 21
602.04803927435955
 31
0.0
  0
LINE
  5
6DF1
  8
AM_0
 10
99.349712903474824
 20
601.74803927435937
 30
0.0
 11
97.949712903474719
 21
601.74803927435948
 31
0.0
  0
ARC
  5
6DF2
  8
AM_0
 10
102.05693608744819
 20
602.92960913476645
 30
0.0
 40
1.292776816026465
 50
0.0
 51
37.884441053702282
  0
ARC
  5
6DF3
  8
AM_0
 10
105.41214277953431
 20
600.54803927435933
 30
0.0
 40
4.762429876059711
 50
160.52575999458611
 51
191.5497530412305
  0
ARC
  5
6DF4
  8
AM_0
 10
101.9424897195014
 20
602.92960913476645
 30
0.0
 40
1.292776816026556
 50
142.11555894629771
 51
217.88444105370229
  0
ARC
  5
6DF5
  8
AM_0
 10
98.587283027415097
 20
600.54803927435955
 30
0.0
 40
4.762429876059584
 50
12.912852201780369
 51
19.474240005413812
  0
ARC
  5
6DF6
  8
AM_0
 10
102.05693608744819
 20
602.92960913476645
 30
0.0
 40
1.2927768160265021
 50
322.11555894629771
 51
0.0
  0
ARC
  5
6DF7
  8
AM_0
 10
99.762518345945281
 20
602.32039100894315
 30
0.0
 40
0.4128054424705854
 50
120.0000000000005
 51
180.0
  0
ARC
  5
6DF8
  8
AM_0
 10
100.0758632317466
 20
603.93130076310945
 30
0.0
 40
0.8256108849411369
 50
300.00000000000051
 51
331.7825754058174
  0
LINE
  5
6DF9
  8
AM_0
 10
99.564805435997982
 20
598.41317047488963
 30
0.0
 11
99.556115624710273
 21
598.41818753977577
 31
0.0
  0
ARC
  5
6DFA
  8
AM_0
 10
99.762518345945281
 20
598.77568753977562
 30
0.0
 40
0.4128054424705854
 50
180.00000000000659
 51
240.00000000000841
  0
LINE
  5
6DFB
  8
AM_0
 10
113.0149664658401
 20
596.04803927435933
 30
0.0
 11
115.94971290347431
 21
596.04803927435933
 31
0.0
  0
LINE
  5
6DFC
  8
AM_0
 10
113.96913501762771
 20
597.54803927435933
 30
0.0
 11
115.94971290347451
 21
597.54803927435933
 31
0.0
  0
LINE
  5
6DFD
  8
AM_0
 10
105.2707420473337
 20
602.04803927435955
 30
0.0
 11
115.94971290347451
 21
602.04803927435933
 31
0.0
  0
ARC
  5
6DFE
  8
AM_0
 10
105.2707420473333
 20
597.04803927435955
 30
0.0
 40
5.0
 50
90.0
 51
135.0
1001
GENIUS_GENODEF_13
1002
{
1000
HIER
1070
     0
1002
}
1002
{
1000
MANEDIT
1070
     0
1002
}
1002
{
1000
NOSEL
1070
     0
1002
}
1002
{
1000
BEHIND
1070
     0
1002
}
1002
{
1000
OTHER
1070
     0
1002
}
1002
{
1000
REACTOR
1002
}
1001
GENIUS_GENOBJ-N-FIL_13
1002
{
1000
OWNER
1000
GEN
1002
}
  0
LINE
  5
6DFF
  8
AM_0
 10
113.96913501762771
 20
602.04803927435933
 30
0.0
 11
113.96913501762771
 21
597.54803927435933
 31
0.0
  0
LINE
  5
6E00
  8
AM_0
 10
100.44967423546851
 20
568.37257985225278
 30
0.0
 11
100.4496742354689
 21
589.26001412806897
 31
0.0
  0
LINE
  5
6E01
  8
AM_0
 10
103.44967423546819
 20
568.37257985225278
 30
0.0
 11
103.4496742354689
 21
589.26001412806897
 31
0.0
  0
LINE
  5
6E02
  8
AM_0
 10
98.199674235468493
 20
567.35721185786247
 30
0.0
 11
98.199674235468905
 21
594.97697146249493
 31
0.0
  0
ARC
  5
6E03
  8
AM_0
 10
103.19967423546871
 20
594.97697146249493
 30
0.0
 40
5.0
 50
135.0
 51
180.0
1001
GENIUS_GENOBJ-N-FIL_13
1002
{
1000
OWNER
1000
GEN
1002
}
1001
GENIUS_GENODEF_13
1002
{
1000
HIER
1070
     0
1002
}
1002
{
1000
MANEDIT
1070
     0
1002
}
1002
{
1000
NOSEL
1070
     0
1002
}
1002
{
1000
BEHIND
1070
     0
1002
}
1002
{
1000
OTHER
1070
     0
1002
}
1002
{
1000
REACTOR
1002
}
  0
LINE
  5
6E04
  8
AM_0
 10
105.69967423546851
 20
567.35721185786224
 30
0.0
 11
105.6996742354689
 21
591.51712093110802
 31
0.0
  0
ARC
  5
6E05
  8
AM_0
 10
110.69967423546839
 20
583.09252090503492
 30
0.0
 40
5.0
 50
147.53905588486111
 51
180.0
1001
GENIUS_GENODEF_13
1002
{
1000
HIER
1070
     0
1002
}
1002
{
1000
MANEDIT
1070
     0
1002
}
1002
{
1000
NOSEL
1070
     0
1002
}
1002
{
1000
BEHIND
1070
     0
1002
}
1002
{
1000
OTHER
1070
     0
1002
}
1002
{
1000
REACTOR
1002
}
1001
GENIUS_GENOBJ-N-FIL_13
1002
{
1000
OWNER
1000
GEN
1002
}
  0
ARC
  5
6E06
  8
AM_0
 10
110.69967423546871
 20
591.51712093110791
 30
0.0
 40
5.0
 50
135.7876277191055
 51
180.0
1001
GENIUS_GENOBJ-N-FIL_13
1002
{
1000
OWNER
1000
GEN
1002
}
1001
GENIUS_GENODEF_13
1002
{
1000
HIER
1070
     0
1002
}
1002
{
1000
MANEDIT
1070
     0
1002
}
1002
{
1000
NOSEL
1070
     0
1002
}
1002
{
1000
BEHIND
1070
     0
1002
}
1002
{
1000
OTHER
1070
     0
1002
}
1002
{
1000
REACTOR
1002
}
  0
LINE
  5
6E07
  8
AM_0
 10
113.96913501762749
 20
597.54803927435933
 30
0.0
 11
106.48088672470141
 21
585.77614381800061
 31
0.0
  0
LINE
  5
6E08
  8
AM_0
 10
113.96913501762771
 20
602.04803927435933
 30
0.0
 11
107.11587399961751
 21
595.00372040186892
 31
0.0
  0
LINE
  5
6E09
  8
AM_0
 10
99.664140329536039
 20
598.51250536842792
 30
0.0
 11
101.7352081414009
 21
600.58357318029232
 31
0.0
  0
ARC
  5
6E0A
  8
AM_0
 10
101.94967423546871
 20
589.26001412806897
 30
0.0
 40
1.5
 50
0.0
 51
180.0
  0
LINE
  5
6E0B
  8
AM_0
 10
124.0792059764545
 20
491.83551739354158
 30
0.0
 11
108.9491188123766
 21
519.04803927436092
 31
0.0
  0
LINE
  5
6E0C
  8
AM_0
 10
129.32316604387881
 20
494.75114473791513
 30
0.0
 11
116.9261541350912
 21
517.04803927435989
 31
0.0
  0
LINE
  5
6E0D
  8
AM_0
 10
300.44971290347388
 20
599.19805927435993
 30
0.0
 11
308.44971290347388
 21
599.19805927435993
 31
0.0
  0
LINE
  5
6E0E
  8
AM_0
 10
301.44971290347388
 20
510.0079992743598
 30
0.0
 11
308.44971290347388
 21
510.00799927435997
 31
0.0
  0
LINE
  5
6E0F
  8
AM_0
 10
300.44971290347388
 20
524.89800927435977
 30
0.0
 11
308.44971290347388
 21
524.89800927435977
 31
0.0
  0
LINE
  5
6E10
  8
AM_0
 10
301.44971290347388
 20
498.54803927435961
 30
0.0
 11
308.44971290347388
 21
498.54803927435972
 31
0.0
  0
LINE
  5
6E11
  8
AM_0
 10
301.44971290347388
 20
614.08806927435955
 30
0.0
 11
308.44971290347388
 21
614.08806927435955
 31
0.0
  0
LINE
  5
6E12
  8
AM_0
 10
301.44971290347388
 20
625.54803927435978
 30
0.0
 11
308.44971290347388
 21
625.54803927435955
 31
0.0
  0
LINE
  5
6E13
  8
AM_0
 10
153.44971290347419
 20
504.61797927435998
 30
0.0
 11
156.26966290347369
 21
504.55797927435958
 31
0.0
  0
LINE
  5
6E14
  8
AM_0
 10
194.44971290347411
 20
515.69805927435971
 30
0.0
 11
300.44971290347388
 21
515.69805927435971
 31
0.0
  0
LINE
  5
6E15
  8
AM_0
 10
295.15967290347402
 20
501.54803927435961
 30
0.0
 11
300.44971290347388
 21
501.54803927435961
 31
0.0
  0
LINE
  5
6E16
  8
AM_0
 10
167.11970290347401
 20
528.68804927435963
 30
0.0
 11
261.46967290347402
 21
528.68804927435963
 31
0.0
  0
LINE
  5
6E17
  8
AM_0
 10
249.44971290347411
 20
526.04803927435967
 30
0.0
 11
167.9854229034741
 21
526.04803927435967
 31
0.0
  0
LINE
  5
6E18
  8
AM_0
 10
249.44971290347411
 20
525.32806927435945
 30
0.0
 11
297.26972290347402
 21
525.32806927435945
 31
0.0
  0
LINE
  5
6E19
  8
AM_0
 10
167.11970290347401
 20
525.32806927435945
 30
0.0
 11
249.44971290347411
 21
525.32806927435945
 31
0.0
  0
LINE
  5
6E1A
  8
AM_0
 10
167.14734290347391
 20
503.78802927435981
 30
0.0
 11
172.9497129034738
 21
503.78802927435981
 31
0.0
  0
LINE
  5
6E1B
  8
AM_0
 10
176.44971290347391
 20
500.18804927435968
 30
0.0
 11
293.25971290347388
 21
500.18804927435968
 31
0.0
  0
LINE
  5
6E1C
  8
AM_0
 10
167.20960290347409
 20
509.0680592743596
 30
0.0
 11
172.9497129034738
 21
509.0680592743596
 31
0.0
  0
LINE
  5
6E1D
  8
AM_0
 10
163.44971290347391
 20
513.69805927435948
 30
0.0
 11
163.44971290347391
 21
527.7479892743595
 31
0.0
  0
LINE
  5
6E1E
  8
AM_0
 10
153.44971290347419
 20
513.69805927435948
 30
0.0
 11
163.44971290347391
 21
513.69805927435948
 31
0.0
  0
LINE
  5
6E1F
  8
AM_0
 10
295.18970290347391
 20
501.67794927435961
 30
0.0
 11
298.64972290347401
 21
514.58806927435955
 31
0.0
  0
LINE
  5
6E20
  8
AM_0
 10
157.21100290347411
 20
501.8890392743595
 30
0.0
 11
156.729742903474
 21
503.7980392743595
 31
0.0
  0
LINE
  5
6E21
  8
AM_0
 10
157.639722903474
 20
501.91796927435962
 30
0.0
 11
156.71967290347391
 21
505.79806927435959
 31
0.0
  0
LINE
  5
6E22
  8
AM_0
 10
174.44971290347399
 20
500.15899927435959
 30
0.0
 11
174.44971290347399
 21
507.5680592743596
 31
0.0
  0
LINE
  5
6E23
  8
AM_0
 10
155.2797329034739
 20
504.92803927435961
 30
0.0
 11
156.92969290347409
 21
504.92803927435961
 31
0.0
  0
LINE
  5
6E24
  8
AM_0
 10
194.44971290347411
 20
608.39800927435977
 30
0.0
 11
300.44971290347388
 21
608.39800927435977
 31
0.0
  0
LINE
  5
6E25
  8
AM_0
 10
300.44971290347388
 20
499.54803927435938
 30
0.0
 11
300.44971290347388
 21
624.54803927435978
 31
0.0
  0
LINE
  5
6E26
  8
AM_0
 10
153.44971290347419
 20
619.47802927435976
 30
0.0
 11
156.26972290347419
 21
619.54803927435955
 31
0.0
  0
LINE
  5
6E27
  8
AM_0
 10
153.44971290347419
 20
504.61797927435998
 30
0.0
 11
153.44971290347419
 21
619.47802927435976
 31
0.0
  0
LINE
  5
6E28
  8
AM_0
 10
293.78968290347387
 20
526.04803927435967
 30
0.0
 11
249.44971290347411
 21
526.04803927435967
 31
0.0
  0
LINE
  5
6E29
  8
AM_0
 10
163.44971290347391
 20
610.39800927435954
 30
0.0
 11
163.44971290347391
 21
596.35808927435949
 31
0.0
  0
LINE
  5
6E2A
  8
AM_0
 10
153.44971290347419
 20
596.35808927435949
 30
0.0
 11
163.44971290347391
 21
596.35808927435949
 31
0.0
  0
LINE
  5
6E2B
  8
AM_0
 10
153.44971290347419
 20
604.73797927435976
 30
0.0
 11
163.44971290347391
 21
604.73797927435976
 31
0.0
  0
LINE
  5
6E2C
  8
AM_0
 10
153.44971290347419
 20
610.39800927435954
 30
0.0
 11
163.44971290347391
 21
610.39800927435954
 31
0.0
  0
LINE
  5
6E2D
  8
AM_0
 10
228.891792903474
 20
548.04803927435955
 30
0.0
 11
158.9997029034738
 21
548.04803927435955
 31
0.0
  0
LINE
  5
6E2E
  8
AM_0
 10
176.44971290347391
 20
623.90801927435962
 30
0.0
 11
293.25971290347388
 21
623.90801927435962
 31
0.0
  0
LINE
  5
6E2F
  8
AM_0
 10
167.4040029034739
 20
615.03802927435993
 30
0.0
 11
172.9497129034738
 21
615.03802927435993
 31
0.0
  0
LINE
  5
6E30
  8
AM_0
 10
164.65900290347381
 20
609.04134927435962
 30
0.0
 11
165.44398290347411
 21
613.38802927435961
 31
0.0
  0
LINE
  5
6E31
  8
AM_0
 10
167.34015290347381
 20
620.3180592743596
 30
0.0
 11
172.9497129034738
 21
620.3180592743596
 31
0.0
  0
LINE
  5
6E32
  8
AM_0
 10
159.57972290347391
 20
623.71807927435975
 30
0.0
 11
172.9497129034738
 21
623.71807927435975
 31
0.0
  0
LINE
  5
6E33
  8
AM_0
 10
159.55970290347409
 20
625.34807927435975
 30
0.0
 11
173.05970290347409
 21
625.34807927435975
 31
0.0
  0
LINE
  5
6E34
  8
AM_0
 10
176.44971290347391
 20
627.96807927435952
 30
0.0
 11
294.53333290347388
 21
627.96807927435952
 31
0.0
  0
LINE
  5
6E35
  8
AM_0
 10
176.44971290347391
 20
627.29803927435978
 30
0.0
 11
294.67737290347401
 21
627.29803927435978
 31
0.0
  0
LINE
  5
6E36
  8
AM_0
 10
176.44971290347391
 20
625.93804927435986
 30
0.0
 11
294.96967290347402
 21
625.93804927435986
 31
0.0
  0
LINE
  5
6E37
  8
AM_0
 10
162.96399290347381
 20
613.08806927435955
 30
0.0
 11
165.38398290347391
 21
613.08806927435955
 31
0.0
  0
LINE
  5
6E38
  8
AM_0
 10
165.39393290347391
 20
618.73806927435953
 30
0.0
 11
164.43390290347409
 21
614.26797927435962
 31
0.0
  0
LINE
  5
6E39
  8
AM_0
 10
155.2597129034738
 20
617.14800927435954
 30
0.0
 11
165.05250290347391
 21
617.14800927435954
 31
0.0
  0
LINE
  5
6E3A
  8
AM_0
 10
293.78968290347387
 20
598.04803927435955
 30
0.0
 11
167.99970290347409
 21
598.04803927435955
 31
0.0
  0
LINE
  5
6E3B
  8
AM_0
 10
293.78968290347387
 20
596.04803927435978
 30
0.0
 11
279.44971290347388
 21
596.04803927435978
 31
0.0
  0
LINE
  5
6E3C
  8
AM_0
 10
293.79682290347409
 20
588.04803927435978
 30
0.0
 11
279.44971290347388
 21
588.04803927435978
 31
0.0
  0
LINE
  5
6E3D
  8
AM_0
 10
157.639722903474
 20
622.17806927435993
 30
0.0
 11
156.71967290347391
 21
618.30801927435994
 31
0.0
  0
LINE
  5
6E3E
  8
AM_0
 10
293.782542903474
 20
586.04803927435955
 30
0.0
 11
167.99970290347409
 21
586.04803927435955
 31
0.0
  0
LINE
  5
6E3F
  8
AM_0
 10
155.2797329034739
 20
619.16802927435981
 30
0.0
 11
156.92969290347409
 21
619.16802927435981
 31
0.0
  0
LINE
  5
6E40
  8
AM_0
 10
157.61970290347381
 20
623.83797927435955
 30
0.0
 11
156.729742903474
 21
620.30807927435956
 31
0.0
  0
LINE
  5
6E41
  8
AM_0
 10
228.88843290347421
 20
578.04803927435955
 30
0.0
 11
158.9997029034738
 21
578.04803927435955
 31
0.0
  0
LINE
  5
6E42
  8
AM_0
 10
174.44971290347399
 20
623.93804927435986
 30
0.0
 11
174.44971290347399
 21
616.53802927435993
 31
0.0
  0
LINE
  5
6E43
  8
AM_0
 10
228.88843290347421
 20
576.04803927435955
 30
0.0
 11
158.9997029034738
 21
576.04803927435955
 31
0.0
  0
LINE
  5
6E44
  8
AM_0
 10
228.891792903474
 20
568.04803927435955
 30
0.0
 11
158.9997029034738
 21
568.04803927435955
 31
0.0
  0
LINE
  5
6E45
  8
AM_0
 10
228.891792903474
 20
566.04803927435978
 30
0.0
 11
158.9997029034738
 21
566.04803927435978
 31
0.0
  0
LINE
  5
6E46
  8
AM_0
 10
295.18970290347391
 20
622.42806927435959
 30
0.0
 11
298.64972290347401
 21
609.50799927435958
 31
0.0
  0
LINE
  5
6E47
  8
AM_0
 10
296.91010290347401
 20
622.54803927435955
 30
0.0
 11
300.44971290347388
 21
622.54803927435955
 31
0.0
  0
LINE
  5
6E48
  8
AM_0
 10
300.15967290347402
 20
613.08806927435955
 30
0.0
 11
297.73969290347401
 21
613.08806927435955
 31
0.0
  0
LINE
  5
6E49
  8
AM_0
 10
295.99991290347401
 20
626.7831992743595
 30
0.0
 11
298.68973290347401
 21
614.26797927435962
 31
0.0
  0
LINE
  5
6E4A
  8
AM_0
 10
153.44971290347419
 20
527.7479892743595
 30
0.0
 11
163.44971290347391
 21
527.7479892743595
 31
0.0
  0
LINE
  5
6E4B
  8
AM_0
 10
159.15034290347401
 20
500.37798927435972
 30
0.0
 11
173.1924529034743
 21
500.37798927435972
 31
0.0
  0
LINE
  5
6E4C
  8
AM_0
 10
153.44971290347419
 20
519.35808927435971
 30
0.0
 11
163.44971290347391
 21
519.35808927435971
 31
0.0
  0
LINE
  5
6E4D
  8
AM_0
 10
155.2597129034738
 20
506.94805927435948
 30
0.0
 11
165.05250290347391
 21
506.94805927435948
 31
0.0
  0
LINE
  5
6E4E
  8
AM_0
 10
176.44971290347391
 20
498.15801927435967
 30
0.0
 11
217.77607290347399
 21
498.15801927435967
 31
0.0
  0
LINE
  5
6E4F
  8
AM_0
 10
166.90973290347381
 20
535.56805927435948
 30
0.0
 11
261.44971290347388
 21
535.56805927435948
 31
0.0
  0
LINE
  5
6E50
  8
AM_0
 10
261.44971290347388
 20
528.04803927435955
 30
0.0
 11
167.9854229034741
 21
528.04803927435955
 31
0.0
  0
LINE
  5
6E51
  8
AM_0
 10
167.11970290347401
 20
598.77801927435962
 30
0.0
 11
297.26972290347402
 21
598.77801927435962
 31
0.0
  0
LINE
  5
6E52
  8
AM_0
 10
167.11970290347401
 20
595.41802927435992
 30
0.0
 11
261.46967290347402
 21
595.41802927435992
 31
0.0
  0
LINE
  5
6E53
  8
AM_0
 10
166.90973290347381
 20
588.53802927435959
 30
0.0
 11
261.44971290347388
 21
588.53802927435959
 31
0.0
  0
LINE
  5
6E54
  8
AM_0
 10
166.90973290347381
 20
585.61797927435964
 30
0.0
 11
297.48395290347389
 21
585.61797927435964
 31
0.0
  0
LINE
  5
6E55
  8
AM_0
 10
157.7797329034741
 20
578.39800927435954
 30
0.0
 11
230.12098290347399
 21
578.39800927435954
 31
0.0
  0
LINE
  5
6E56
  8
AM_0
 10
157.7797329034741
 20
575.7280892743596
 30
0.0
 11
230.10840290347389
 21
575.7280892743596
 31
0.0
  0
LINE
  5
6E57
  8
AM_0
 10
157.7197329034737
 20
568.32806927435945
 30
0.0
 11
230.1848229034739
 21
568.32806927435945
 31
0.0
  0
LINE
  5
6E58
  8
AM_0
 10
157.7197329034737
 20
565.78802927435959
 30
0.0
 11
230.1848229034739
 21
565.78802927435959
 31
0.0
  0
LINE
  5
6E59
  8
AM_0
 10
157.7197329034737
 20
558.3180592743596
 30
0.0
 11
230.1848229034739
 21
558.3180592743596
 31
0.0
  0
LINE
  5
6E5A
  8
AM_0
 10
228.891792903474
 20
556.04803927435955
 30
0.0
 11
158.9997029034738
 21
556.04803927435955
 31
0.0
  0
LINE
  5
6E5B
  8
AM_0
 10
228.891792903474
 20
558.04803927435978
 30
0.0
 11
158.9997029034738
 21
558.04803927435978
 31
0.0
  0
LINE
  5
6E5C
  8
AM_0
 10
157.7797329034741
 20
548.36797927435998
 30
0.0
 11
230.12098290347399
 21
548.36797927435998
 31
0.0
  0
LINE
  5
6E5D
  8
AM_0
 10
228.891792903474
 20
546.04803927435978
 30
0.0
 11
158.9997029034738
 21
546.04803927435978
 31
0.0
  0
LINE
  5
6E5E
  8
AM_0
 10
157.7797329034741
 20
545.70806927435967
 30
0.0
 11
230.12098290347399
 21
545.70806927435967
 31
0.0
  0
LINE
  5
6E5F
  8
AM_0
 10
293.782542903474
 20
538.04803927435978
 30
0.0
 11
167.9854229034741
 21
538.04803927435978
 31
0.0
  0
LINE
  5
6E60
  8
AM_0
 10
166.90973290347381
 20
538.48797927435965
 30
0.0
 11
297.48395290347389
 21
538.48797927435965
 31
0.0
  0
LINE
  5
6E61
  8
AM_0
 10
293.782542903474
 20
536.04803927435955
 30
0.0
 11
279.44971290347388
 21
536.04803927435955
 31
0.0
  0
LINE
  5
6E62
  8
AM_0
 10
293.78968290347387
 20
528.04803927435955
 30
0.0
 11
279.44971290347388
 21
528.04803927435955
 31
0.0
  0
LINE
  5
6E63
  8
AM_0
 10
157.7197329034737
 20
555.77801927435985
 30
0.0
 11
230.1848229034739
 21
555.77801927435985
 31
0.0
  0
LINE
  5
6E64
  8
AM_0
 10
164.6589429034739
 20
515.05465927435955
 30
0.0
 11
165.44398290347411
 21
510.70797927435962
 31
0.0
  0
LINE
  5
6E65
  8
AM_0
 10
162.96399290347381
 20
511.0079992743598
 30
0.0
 11
165.38398290347391
 21
511.0079992743598
 31
0.0
  0
LINE
  5
6E66
  8
AM_0
 10
165.39399290347399
 20
505.35802927435958
 30
0.0
 11
164.43397290347369
 21
509.8279992743598
 31
0.0
  0
LINE
  5
6E67
  8
AM_0
 10
280.96332290347408
 20
492.04803927435972
 30
0.0
 11
292.46589290347401
 21
492.04803927435972
 31
0.0
  0
LINE
  5
6E68
  8
AM_0
 10
299.44974290347409
 20
501.54800927435957
 30
0.0
 11
293.7239429034741
 21
492.73104927435969
 31
0.0
  0
LINE
  5
6E69
  8
AM_0
 10
262.94971290347388
 20
534.54803927435955
 30
0.0
 11
262.94971290347388
 21
529.54803927435978
 31
0.0
  0
LINE
  5
6E6A
  8
AM_0
 10
277.94971290347388
 20
534.54803927435955
 30
0.0
 11
277.94971290347388
 21
529.54803927435978
 31
0.0
  0
LINE
  5
6E6B
  8
AM_0
 10
261.44971290347388
 20
536.04803927435955
 30
0.0
 11
167.9854229034741
 21
536.04803927435955
 31
0.0
  0
LINE
  5
6E6C
  8
AM_0
 10
262.46967290347408
 20
534.54803927435955
 30
0.0
 11
262.46967290347408
 21
529.68804927435986
 31
0.0
  0
LINE
  5
6E6D
  8
AM_0
 10
278.42969290347401
 20
534.54803927435955
 30
0.0
 11
278.42969290347401
 21
529.68804927435986
 31
0.0
  0
LINE
  5
6E6E
  8
AM_0
 10
279.44971290347388
 20
535.56805927435948
 30
0.0
 11
297.48395290347389
 21
535.56805927435948
 31
0.0
  0
LINE
  5
6E6F
  8
AM_0
 10
279.42969290347389
 20
528.68804927435963
 30
0.0
 11
297.26972290347402
 21
528.68804927435963
 31
0.0
  0
LINE
  5
6E70
  8
AM_0
 10
278.42969290347401
 20
589.54803927435955
 30
0.0
 11
278.42969290347401
 21
594.40801927435962
 31
0.0
  0
LINE
  5
6E71
  8
AM_0
 10
262.46967290347408
 20
589.54803927435955
 30
0.0
 11
262.46967290347408
 21
594.40801927435962
 31
0.0
  0
LINE
  5
6E72
  8
AM_0
 10
277.94971290347388
 20
589.54803927435955
 30
0.0
 11
277.94971290347388
 21
594.54803927435955
 31
0.0
  0
LINE
  5
6E73
  8
AM_0
 10
262.94971290347388
 20
589.54803927435955
 30
0.0
 11
262.94971290347388
 21
594.54803927435955
 31
0.0
  0
LINE
  5
6E74
  8
AM_0
 10
261.44971290347388
 20
596.04803927435978
 30
0.0
 11
167.99970290347409
 21
596.04803927435978
 31
0.0
  0
LINE
  5
6E75
  8
AM_0
 10
279.42969290347389
 20
595.41802927435992
 30
0.0
 11
297.26972290347402
 21
595.41802927435992
 31
0.0
  0
LINE
  5
6E76
  8
AM_0
 10
279.44971290347388
 20
588.53802927435959
 30
0.0
 11
297.49543290347401
 21
588.53802927435959
 31
0.0
  0
LINE
  5
6E77
  8
AM_0
 10
261.44971290347388
 20
588.04803927435978
 30
0.0
 11
167.99970290347409
 21
588.04803927435978
 31
0.0
  0
LINE
  5
6E78
  8
AM_0
 10
234.44971290347391
 20
582.54803927435978
 30
0.0
 11
234.44971290347391
 21
541.54803927435978
 31
0.0
  0
LINE
  5
6E79
  8
AM_0
 10
297.44971290347388
 20
582.54803927435978
 30
0.0
 11
297.44971290347388
 21
541.54803927435978
 31
0.0
  0
LINE
  5
6E7A
  8
AM_0
 10
234.44971290347391
 20
582.54803927435978
 30
0.0
 11
297.44971290347388
 21
582.54803927435978
 31
0.0
  0
LINE
  5
6E7B
  8
AM_0
 10
234.44971290347391
 20
541.54803927435978
 30
0.0
 11
297.44971290347388
 21
541.54803927435978
 31
0.0
  0
LINE
  5
6E7C
  8
AM_0
 10
234.44971290347391
 20
575.04803927435978
 30
0.0
 11
297.44971290347388
 21
575.04803927435978
 31
0.0
  0
LINE
  5
6E7D
  8
AM_0
 10
194.44971290347411
 20
608.39794927435969
 30
0.0
 11
163.44971290347391
 21
606.36794927435949
 31
0.0
  0
LINE
  5
6E7E
  8
AM_0
 10
194.44971290347411
 20
515.69799927435963
 30
0.0
 11
163.44971290347391
 21
517.72799927435972
 31
0.0
  0
ARC
  5
6E7F
  8
AM_0
 10
166.5905229034739
 20
520.83770927435955
 30
0.0
 40
1.0032491999999991
 50
314.98118999999519
 51
5.167643400001003
  0
ARC
  5
6E80
  8
AM_0
 10
301.44953290347399
 20
624.54827927435963
 30
0.0
 40
0.99980682
 50
89.988930999997422
 51
180.0110699999974
  0
ARC
  5
6E81
  8
AM_0
 10
293.25098290347393
 20
502.19427927435981
 30
0.0
 40
2.0062942999999991
 50
270.24932999999891
 51
345.08844000000403
  0
ARC
  5
6E82
  8
AM_0
 10
301.44880290347402
 20
613.08892927435977
 30
0.0
 40
0.9990923399999999
 50
89.947921999999295
 51
180.05208000000431
  0
ARC
  5
6E83
  8
AM_0
 10
175.4425129034739
 20
567.04803927435978
 30
0.0
 40
1.0000259
 50
89.587534000000232
 51
270.4124599999987
  0
ARC
  5
6E84
  8
AM_0
 10
167.40919290347381
 20
613.04278927435962
 30
0.0
 40
1.9952742999999991
 50
90.148580000000095
 51
170.03521999999899
  0
ARC
  5
6E85
  8
AM_0
 10
167.34705290347381
 20
618.32097927435962
 30
0.0
 40
1.997119399999999
 50
89.801366999998493
 51
167.94475999999821
  0
ARC
  5
6E86
  8
AM_0
 10
162.96656290347391
 20
614.59038927435961
 30
0.0
 40
1.502416299999999
 50
269.90137999999558
 51
347.60813000000093
  0
ARC
  5
6E87
  8
AM_0
 10
159.57996290347401
 20
621.72576927435955
 30
0.0
 40
1.9922863
 50
90.007721000000544
 51
166.8783899999971
  0
ARC
  5
6E88
  8
AM_0
 10
155.2549529034743
 20
618.65288927435961
 30
0.0
 40
1.5048382
 50
270.18264000000067
 51
346.75308000000138
  0
ARC
  5
6E89
  8
AM_0
 10
155.26929290347411
 20
620.67339927435978
 30
0.0
 40
1.505448699999999
 50
270.39686999999992
 51
345.95247000000012
  0
ARC
  5
6E8A
  8
AM_0
 10
159.55457290347411
 20
623.35345927435958
 30
0.0
 40
1.994612099999999
 50
89.851991999995732
 51
165.93885999999711
  0
ARC
  5
6E8B
  8
AM_0
 10
176.44300290347391
 20
621.91472927435962
 30
0.0
 40
1.9933081999999991
 50
89.807323000004203
 51
180.19266999999849
  0
ARC
  5
6E8C
  8
AM_0
 10
176.4438529034739
 20
623.9439092743595
 30
0.0
 40
1.994130499999996
 50
89.831105999995955
 51
180.16889000000049
  0
ARC
  5
6E8D
  8
AM_0
 10
176.446232903474
 20
625.3015792743596
 30
0.0
 40
1.996488899999999
 50
89.899148000001659
 51
180.10084999999879
  0
ARC
  5
6E8E
  8
AM_0
 10
176.44349290347421
 20
625.97149927435964
 30
0.0
 40
1.9964978999999961
 50
89.821482000000245
 51
165.6006099999997
  0
ARC
  5
6E8F
  8
AM_0
 10
172.94599290347409
 20
616.54180927435948
 30
0.0
 40
1.5037541000000001
 50
270.14287000000093
 51
359.85713999999848
  0
ARC
  5
6E90
  8
AM_0
 10
172.94483290347389
 20
621.82293927435956
 30
0.0
 40
1.504891299999997
 50
270.18592999999731
 51
359.81406999999621
  0
ARC
  5
6E91
  8
AM_0
 10
172.94282290347391
 20
625.22491927435954
 30
0.0
 40
1.506942899999999
 50
270.2633699999991
 51
359.73663000000079
  0
ARC
  5
6E92
  8
AM_0
 10
173.05463290347399
 20
626.85320927435964
 30
0.0
 40
1.505230099999999
 50
270.19421
 51
345.17177999999871
  0
ARC
  5
6E93
  8
AM_0
 10
300.09986290347388
 20
609.90032927435959
 30
0.0
 40
1.5022733999999991
 50
195.1365099999966
 51
269.99411999999722
  0
ARC
  5
6E94
  8
AM_0
 10
293.25916290347402
 20
621.90887927435995
 30
0.0
 40
1.9991226
 50
15.05079100000003
 51
89.984388999999666
  0
ARC
  5
6E95
  8
AM_0
 10
301.44269290347393
 20
499.54107927435967
 30
0.0
 40
0.99304521
 50
179.5973099999994
 51
270.40268000000009
  0
ARC
  5
6E96
  8
AM_0
 10
301.44202290347391
 20
511.00042927435982
 30
0.0
 40
0.99237448
 50
179.55801999999801
 51
270.4419699999965
  0
ARC
  5
6E97
  8
AM_0
 10
300.155402903474
 20
614.58831927435961
 30
0.0
 40
1.500286
 50
192.32631000000171
 51
270.16416999999529
  0
ARC
  5
6E98
  8
AM_0
 10
162.6052929034739
 20
603.64226927435993
 30
0.0
 40
5.0059714
 50
279.71098000000478
 51
354.67888000000482
  0
ARC
  5
6E99
  8
AM_0
 10
163.07068290347371
 20
599.71551927435985
 30
0.0
 40
6.0044340999999992
 50
45.225578000003388
 51
86.380822000002652
  0
ARC
  5
6E9A
  8
AM_0
 10
166.5916829034739
 20
603.26873927435975
 30
0.0
 40
1.002184699999999
 50
354.8038600000034
 51
45.047307000000579
  0
ARC
  5
6E9B
  8
AM_0
 10
163.0694029034739
 20
524.39336927435966
 30
0.0
 40
6.0073843
 50
273.62974000000389
 51
314.7638500000042
  0
ARC
  5
6E9C
  8
AM_0
 10
162.6125529034739
 20
520.45952927435962
 30
0.0
 40
4.9991421999999961
 50
5.3780268999992682
 51
80.360064999999054
  0
ARC
  5
6E9D
  8
AM_0
 10
159.58655290347409
 20
502.37859927435949
 30
0.0
 40
2.0005671999999981
 50
193.3095900000024
 51
269.80430999999942
  0
ARC
  5
6E9E
  8
AM_0
 10
155.2629529034738
 20
505.45037927435999
 30
0.0
 40
1.497715799999999
 50
13.424378999996071
 51
90.122644999997888
  0
ARC
  5
6E9F
  8
AM_0
 10
155.27741290347399
 20
503.42974927435961
 30
0.0
 40
1.4982997
 50
14.229739999998021
 51
89.910950000001222
  0
ARC
  5
6EA0
  8
AM_0
 10
176.4497729034739
 20
502.1880492743598
 30
0.0
 40
2.0000371999999991
 50
180.0010599999959
 51
269.99892999999639
  0
ARC
  5
6EA1
  8
AM_0
 10
176.4506329034738
 20
500.15899927435959
 30
0.0
 40
2.0009109999999981
 50
180.00001000000091
 51
269.97390999999652
  0
ARC
  5
6EA2
  8
AM_0
 10
172.947762903474
 20
507.56609927435949
 30
0.0
 40
1.501982699999999
 50
0.0755872020005832
 51
89.924413000004819
  0
ARC
  5
6EA3
  8
AM_0
 10
172.94660290347409
 20
502.28484927435949
 30
0.0
 40
1.503128599999999
 50
0.1191296500022061
 51
89.880869999998822
  0
ARC
  5
6EA4
  8
AM_0
 10
300.09333290347388
 20
514.20428927435955
 30
0.0
 40
1.4937901
 50
89.756423999995178
 51
165.1129200000008
  0
ARC
  5
6EA5
  8
AM_0
 10
175.4425129034739
 20
577.04803927435955
 30
0.0
 40
1.0000259
 50
89.587534000000232
 51
270.4124599999987
  0
ARC
  5
6EA6
  8
AM_0
 10
175.4425129034739
 20
587.04803927435978
 30
0.0
 40
1.0000259
 50
89.587534000000232
 51
270.4124599999987
  0
ARC
  5
6EA7
  8
AM_0
 10
175.4425129034739
 20
597.04803927435955
 30
0.0
 40
1.0000259
 50
89.587534000000232
 51
270.4124599999987
  0
ARC
  5
6EA8
  8
AM_0
 10
157.71149290347401
 20
567.05804927435975
 30
0.0
 40
1.2700266
 50
89.629328000002715
 51
270.37065999999629
  0
ARC
  5
6EA9
  8
AM_0
 10
157.77344290347409
 20
577.06304927435986
 30
0.0
 40
1.3350147999999991
 50
89.730434999997087
 51
270.2695700000001
  0
ARC
  5
6EAA
  8
AM_0
 10
166.9040029034739
 20
587.07806927435979
 30
0.0
 40
1.460011199999999
 50
89.775247999997958
 51
270.22473999999698
  0
ARC
  5
6EAB
  8
AM_0
 10
167.11970290347401
 20
597.09807927435963
 30
0.0
 40
1.6800002000000001
 50
90.00000299999769
 51
270.0
  0
ARC
  5
6EAC
  8
AM_0
 10
158.9997029034738
 20
567.04803927435978
 30
0.0
 40
1.0000056999999991
 50
90.00000299999769
 51
270.0
  0
ARC
  5
6EAD
  8
AM_0
 10
158.9997029034738
 20
577.04803927435955
 30
0.0
 40
1.0000056999999991
 50
90.00000299999769
 51
270.0
  0
ARC
  5
6EAE
  8
AM_0
 10
167.99256290347361
 20
597.04803927435955
 30
0.0
 40
1.0000255999999981
 50
89.589474000000749
 51
270.41051999999962
  0
ARC
  5
6EAF
  8
AM_0
 10
167.99256290347361
 20
587.04803927435978
 30
0.0
 40
1.0000255999999981
 50
89.589474000000749
 51
270.41051999999962
  0
ARC
  5
6EB0
  8
AM_0
 10
297.26972290347402
 20
597.09807927435963
 30
0.0
 40
1.6800077
 50
269.999989999999
 51
90.00000299999769
  0
ARC
  5
6EB1
  8
AM_0
 10
293.78968290347387
 20
597.04803927435955
 30
0.0
 40
1.0000040999999991
 50
269.999989999999
 51
90.00000299999769
  0
ARC
  5
6EB2
  8
AM_0
 10
293.78968290347387
 20
527.04803927435955
 30
0.0
 40
1.0000040999999991
 50
269.999989999999
 51
90.00000299999769
  0
ARC
  5
6EB3
  8
AM_0
 10
297.26972290347402
 20
527.0079992743598
 30
0.0
 40
1.6800077
 50
269.999989999999
 51
90.00000299999769
  0
ARC
  5
6EB4
  8
AM_0
 10
158.9997029034738
 20
557.04803927435955
 30
0.0
 40
1.0000056999999991
 50
90.00000299999769
 51
270.0
  0
ARC
  5
6EB5
  8
AM_0
 10
175.4425129034739
 20
547.04803927435955
 30
0.0
 40
1.0000259
 50
89.587534000000232
 51
270.4124599999987
  0
ARC
  5
6EB6
  8
AM_0
 10
175.4425129034739
 20
537.04803927435955
 30
0.0
 40
1.0000259
 50
89.587534000000232
 51
270.4124599999987
  0
ARC
  5
6EB7
  8
AM_0
 10
157.77344290347409
 20
547.03802927435959
 30
0.0
 40
1.3300148000000001
 50
89.729417999999583
 51
270.27059000000321
  0
ARC
  5
6EB8
  8
AM_0
 10
175.4425129034739
 20
557.04803927435955
 30
0.0
 40
1.0000259
 50
89.587534000000232
 51
270.4124599999987
  0
ARC
  5
6EB9
  8
AM_0
 10
175.4425129034739
 20
527.04803927435955
 30
0.0
 40
1.0000259
 50
89.587534000000232
 51
270.4124599999987
  0
ARC
  5
6EBA
  8
AM_0
 10
157.71149290347401
 20
557.04803927435955
 30
0.0
 40
1.2700266
 50
89.629321000002761
 51
270.37068999999542
  0
ARC
  5
6EBB
  8
AM_0
 10
158.9997029034738
 20
547.04803927435955
 30
0.0
 40
1.0000056999999991
 50
90.00000299999769
 51
270.0
  0
ARC
  5
6EBC
  8
AM_0
 10
163.18287290347391
 20
609.30804927435975
 30
0.0
 40
1.5
 50
280.24788999999811
 51
349.76261999999917
  0
ARC
  5
6EBD
  8
AM_0
 10
163.18287290347391
 20
514.78802927435981
 30
0.0
 40
1.5
 50
10.237378999998541
 51
79.75211000000192
  0
ARC
  5
6EBE
  8
AM_0
 10
167.40919290347381
 20
511.05327927435968
 30
0.0
 40
1.9952742999999991
 50
189.9647800000009
 51
269.85141999999991
  0
ARC
  5
6EBF
  8
AM_0
 10
162.96656290347391
 20
509.50567927435981
 30
0.0
 40
1.502416299999999
 50
12.391887000000411
 51
90.098617000002307
  0
ARC
  5
6EC0
  8
AM_0
 10
167.34705290347381
 20
505.77508927435957
 30
0.0
 40
1.997119399999999
 50
192.0552400000017
 51
270.1986299999989
  0
ARC
  5
6EC1
  8
AM_0
 10
167.11970290347401
 20
526.99798927435961
 30
0.0
 40
1.6800002000000001
 50
90.00000299999769
 51
270.0
  0
ARC
  5
6EC2
  8
AM_0
 10
167.99256290347361
 20
527.04803927435955
 30
0.0
 40
1.0000255999999981
 50
89.589474000000749
 51
270.41051999999962
  0
ARC
  5
6EC3
  8
AM_0
 10
167.99256290347361
 20
537.04803927435955
 30
0.0
 40
1.0000255999999981
 50
89.589474000000749
 51
270.41051999999962
  0
ARC
  5
6EC4
  8
AM_0
 10
166.9040029034739
 20
537.01800927435966
 30
0.0
 40
1.460011199999999
 50
89.775247999997958
 51
270.22473999999698
  0
ARC
  5
6EC5
  8
AM_0
 10
217.77607290347399
 20
496.65801927435962
 30
0.0
 40
1.5
 50
1.5000027000022329
 51
90.00000299999769
  0
ARC
  5
6EC6
  8
AM_0
 10
292.46589290347401
 20
493.5480392743595
 30
0.0
 40
1.5
 50
269.999989999999
 51
326.99999999999892
  0
ARC
  5
6EC7
  8
AM_0
 10
280.96332290347408
 20
490.54803927435938
 30
0.0
 40
1.5
 50
90.00000299999769
 51
178.4999999999973
  0
ARC
  5
6EC8
  8
AM_0
 10
294.96967290347402
 20
624.43804927435986
 30
0.0
 40
1.5
 50
12.12979199999535
 51
90.00000299999769
  0
ARC
  5
6EC9
  8
AM_0
 10
294.67737290347401
 20
625.79803927435955
 30
0.0
 40
1.5
 50
12.12979199999535
 51
90.00000299999769
  0
ARC
  5
6ECA
  8
AM_0
 10
294.53333290347388
 20
626.46807927435975
 30
0.0
 40
1.5
 50
12.12979199999535
 51
90.00000299999769
  0
ARC
  5
6ECB
  8
AM_0
 10
297.48969290347401
 20
537.01800927435966
 30
0.0
 40
1.460011199999999
 50
269.77524999999667
 51
90.224749999996845
  0
ARC
  5
6ECC
  8
AM_0
 10
293.78968290347387
 20
537.04803927435955
 30
0.0
 40
1.0000255999999981
 50
269.5894700000033
 51
90.410530999997775
  0
ARC
  5
6ECD
  8
AM_0
 10
297.48969290347401
 20
587.07806927435979
 30
0.0
 40
1.460011199999999
 50
269.77524999999667
 51
90.224749999996845
  0
ARC
  5
6ECE
  8
AM_0
 10
293.78968290347387
 20
587.04803927435978
 30
0.0
 40
1.0000255999999981
 50
269.5894700000033
 51
90.410530999997775
  0
ARC
  5
6ECF
  8
AM_0
 10
230.11469290347389
 20
577.06304927435986
 30
0.0
 40
1.3350147999999991
 50
269.7304299999999
 51
90.269556000001344
  0
ARC
  5
6ED0
  8
AM_0
 10
228.88843290347421
 20
577.04803927435955
 30
0.0
 40
1.0000056999999991
 50
269.999989999999
 51
90.00000299999769
  0
ARC
  5
6ED1
  8
AM_0
 10
228.88843290347421
 20
567.04803927435978
 30
0.0
 40
1.0000056999999991
 50
269.999989999999
 51
90.00000299999769
  0
ARC
  5
6ED2
  8
AM_0
 10
230.176642903474
 20
567.05804927435975
 30
0.0
 40
1.2700266
 50
269.62931999999989
 51
90.370670000004722
  0
ARC
  5
6ED3
  8
AM_0
 10
228.88843290347421
 20
557.04803927435955
 30
0.0
 40
1.0000056999999991
 50
269.999989999999
 51
90.00000299999769
  0
ARC
  5
6ED4
  8
AM_0
 10
230.176642903474
 20
557.04803927435955
 30
0.0
 40
1.2700266
 50
269.62931999999989
 51
90.370670000004722
  0
ARC
  5
6ED5
  8
AM_0
 10
228.88843290347421
 20
547.04803927435955
 30
0.0
 40
1.0000056999999991
 50
269.999989999999
 51
90.00000299999769
  0
ARC
  5
6ED6
  8
AM_0
 10
230.11469290347389
 20
547.03802927435959
 30
0.0
 40
1.3300148000000001
 50
269.7294199999987
 51
90.270567000000995
  0
ARC
  5
6ED7
  8
AM_0
 10
279.44971290347388
 20
534.54803927435955
 30
0.0
 40
1.5
 50
90.00000299999769
 51
180.00001000000091
  0
ARC
  5
6ED8
  8
AM_0
 10
279.44971290347388
 20
529.54803927435978
 30
0.0
 40
1.5
 50
179.999989999999
 51
270.0
  0
ARC
  5
6ED9
  8
AM_0
 10
261.44971290347388
 20
534.54803927435955
 30
0.0
 40
1.5
 50
0.0
 51
90.00000299999769
  0
ARC
  5
6EDA
  8
AM_0
 10
261.44971290347388
 20
529.54803927435978
 30
0.0
 40
1.5
 50
269.999989999999
 51
0.0000006832495047
  0
ARC
  5
6EDB
  8
AM_0
 10
279.44971290347388
 20
534.54803927435955
 30
0.0
 40
1.02
 50
90.00000299999769
 51
180.00001000000091
  0
ARC
  5
6EDC
  8
AM_0
 10
261.44971290347388
 20
534.54803927435955
 30
0.0
 40
1.02
 50
0.0
 51
90.00000299999769
  0
ARC
  5
6EDD
  8
AM_0
 10
261.46967290347402
 20
529.68804927435986
 30
0.0
 40
1.0
 50
269.999989999999
 51
0.0000006832495047
  0
ARC
  5
6EDE
  8
AM_0
 10
279.42969290347389
 20
529.68804927435986
 30
0.0
 40
1.0
 50
179.999989999999
 51
270.0
  0
CIRCLE
  5
6EDF
  8
AM_0
 10
267.94971290347388
 20
533.54803927435978
 30
0.0
 40
1.1000000000000001
  0
CIRCLE
  5
6EE0
  8
AM_0
 10
267.94971290347388
 20
533.54803927435978
 30
0.0
 40
1.149999999999999
  0
CIRCLE
  5
6EE1
  8
AM_0
 10
272.94971290347388
 20
533.54803927435978
 30
0.0
 40
1.0
  0
ARC
  5
6EE2
  8
AM_0
 10
279.44971290347388
 20
589.54803927435955
 30
0.0
 40
1.5
 50
179.999989999999
 51
270.0
  0
ARC
  5
6EE3
  8
AM_0
 10
279.44971290347388
 20
594.54803927435955
 30
0.0
 40
1.5
 50
90.00000299999769
 51
180.00001000000091
  0
ARC
  5
6EE4
  8
AM_0
 10
261.44971290347388
 20
589.54803927435955
 30
0.0
 40
1.5
 50
269.999989999999
 51
0.0000006832495047
  0
ARC
  5
6EE5
  8
AM_0
 10
261.44971290347388
 20
594.54803927435955
 30
0.0
 40
1.5
 50
0.0
 51
90.00000299999769
  0
ARC
  5
6EE6
  8
AM_0
 10
279.44971290347388
 20
589.54803927435955
 30
0.0
 40
1.02
 50
179.999989999999
 51
270.0
  0
ARC
  5
6EE7
  8
AM_0
 10
261.44971290347388
 20
589.54803927435955
 30
0.0
 40
1.02
 50
269.999989999999
 51
0.0000006832429909
  0
ARC
  5
6EE8
  8
AM_0
 10
261.46967290347402
 20
594.40801927435962
 30
0.0
 40
1.0
 50
0.0
 51
90.00000299999769
  0
ARC
  5
6EE9
  8
AM_0
 10
279.42969290347389
 20
594.40801927435962
 30
0.0
 40
1.0
 50
90.00000299999769
 51
180.00001000000091
  0
CIRCLE
  5
6EEA
  8
AM_0
 10
272.94971290347388
 20
590.54803927435955
 30
0.0
 40
1.0
  0
CIRCLE
  5
6EEB
  8
AM_0
 10
267.94971290347388
 20
590.54803927435955
 30
0.0
 40
1.149999999999999
  0
CIRCLE
  5
6EEC
  8
AM_0
 10
267.94971290347388
 20
590.54803927435955
 30
0.0
 40
1.1000000000000001
  0
ARC
  5
6EED
  8
AM_0
 10
159.15034290347401
 20
502.37798927435961
 30
0.0
 40
2.0
 50
194.15074999999919
 51
269.999989999999
  0
ARC
  5
6EEE
  8
AM_0
 10
173.1924529034743
 20
498.87798927435961
 30
0.0
 40
1.5
 50
21.46170899999715
 51
90.00000299999769
  0
LINE
  5
6EEF
  8
AM_0
 10
279.47586275251479
 20
488.04803927435972
 30
0.0
 11
279.793788706209
 21
500.18804927435968
 31
0.0
  0
LINE
  5
6EF0
  8
AM_0
 10
219.4234307572741
 20
488.04803927435972
 30
0.0
 11
219.10558877584359
 21
500.18804927435968
 31
0.0
  0
LINE
  5
6EF1
  8
AM_0
 10
215.94967290347421
 20
486.04803927435961
 30
0.0
 11
282.94967290347421
 21
486.04803927435961
 31
0.0
  0
LINE
  5
6EF2
  8
AM_0
 10
215.94967290347421
 20
485.04803927435961
 30
0.0
 11
215.94967290347421
 21
486.04803927435961
 31
0.0
  0
LINE
  5
6EF3
  8
AM_0
 10
282.94967290347421
 20
485.04803927435961
 30
0.0
 11
282.94967290347421
 21
486.04803927435961
 31
0.0
  0
LINE
  5
6EF4
  8
AM_0
 10
201.44967290347421
 20
447.04803927435961
 30
0.0
 11
202.70925803973651
 21
483.11783826776468
 31
0.0
  0
LINE
  5
6EF5
  8
AM_0
 10
204.70803969377479
 20
485.04803927435961
 30
0.0
 11
294.19130611317382
 21
485.04803927435961
 31
0.0
  0
ARC
  5
6EF6
  8
AM_0
 10
204.70803969377479
 20
483.04803927435972
 30
0.0
 40
2.0
 50
90.0
 51
178.0000000000029
1001
GENIUS_GENODEF_13
1002
{
1000
HIER
1070
     0
1002
}
1002
{
1000
MANEDIT
1070
     0
1002
}
1002
{
1000
NOSEL
1070
     0
1002
}
1002
{
1000
BEHIND
1070
     0
1002
}
1002
{
1000
OTHER
1070
     0
1002
}
1002
{
1000
REACTOR
1002
}
1001
GENIUS_GENOBJ-N-FIL_13
1002
{
1000
OWNER
1000
GEN
1002
}
  0
LINE
  5
6EF7
  8
AM_0
 10
296.19008776721211
 20
483.11783826776468
 30
0.0
 11
297.44967290347438
 21
447.04803927435961
 31
0.0
  0
ARC
  5
6EF8
  8
AM_0
 10
294.19130611317382
 20
483.04803927435972
 30
0.0
 40
2.0
 50
1.9999999999971021
 51
90.0
1001
GENIUS_GENOBJ-N-FIL_13
1002
{
1000
OWNER
1000
GEN
1002
}
1001
GENIUS_GENODEF_13
1002
{
1000
HIER
1070
     0
1002
}
1002
{
1000
MANEDIT
1070
     0
1002
}
1002
{
1000
NOSEL
1070
     0
1002
}
1002
{
1000
BEHIND
1070
     0
1002
}
1002
{
1000
OTHER
1070
     0
1002
}
1002
{
1000
REACTOR
1002
}
  0
LINE
  5
6EF9
  8
AM_0
 10
297.44967290347438
 20
447.04803927435961
 30
0.0
 11
201.4496729034739
 21
447.04803927435961
 31
0.0
  0
LINE
  5
6EFA
  8
AM_0
 10
201.5544352119496
 20
450.0480392743595
 30
0.0
 11
200.4496729034741
 21
450.0480392743595
 31
0.0
  0
LINE
  5
6EFB
  8
AM_0
 10
202.67189983568539
 20
482.04803927435938
 30
0.0
 11
200.4496729034741
 21
482.04803927435938
 31
0.0
  0
LINE
  5
6EFC
  8
ﾁｭｳｼﾝｾﾝ1
 10
206.44967290347481
 20
436.78333177435962
 30
0.0
 11
206.449672903475
 21
449.78333177435962
 31
0.0
  0
LINE
  5
6EFD
  8
ﾁｭｳｼﾝｾﾝ
 10
249.44967290347429
 20
492.34006994758869
 30
0.0
 11
249.44967290347429
 21
434.5975166335503
 31
0.0
  0
LINE
  5
6EFE
  8
AM_0
 10
197.9496729034741
 20
452.54803927435938
 30
0.0
 11
200.4496729034741
 21
452.54803927435933
 31
0.0
  0
LINE
  5
6EFF
  8
AM_0
 10
200.4496729034741
 20
479.54803927435921
 30
0.0
 11
197.9496729034741
 21
479.5480392743595
 31
0.0
  0
LINE
  5
6F00
  8
AM_0
 10
187.0510018071281
 20
476.54803927435961
 30
0.0
 11
187.0510018071281
 21
455.54803927435961
 31
0.0
  0
LINE
  5
6F01
  8
AM_0
 10
172.05100180712819
 20
458.01641422034419
 30
0.0
 11
172.05100180712819
 21
474.07966432837532
 31
0.0
  0
LINE
  5
6F02
  8
AM_0
 10
185.0510018071283
 20
478.04803927435938
 30
0.0
 11
185.0510018071283
 21
454.0480392743595
 31
0.0
  0
LINE
  5
6F03
  8
AM_0
 10
175.5510018071283
 20
466.04803927435938
 30
0.0
 11
176.05100180712819
 21
466.5480392743595
 31
0.0
  0
LINE
  5
6F04
  8
AM_0
 10
182.5510018071281
 20
454.34803927435951
 30
0.0
 11
182.5510018071281
 21
477.7480392743592
 31
0.0
  0
LINE
  5
6F05
  8
AM_0
 10
192.4496729034741
 20
454.5480392743595
 30
0.0
 11
192.4496729034741
 21
477.54803927435938
 31
0.0
  0
LINE
  5
6F06
  8
AM_0
 10
186.5510018071281
 20
466.7480392743613
 30
0.0
 11
186.5510018071281
 21
465.34803927435831
 31
0.0
  0
LINE
  5
6F07
  8
AM_0
 10
188.65063753369901
 20
475.14803927435941
 30
0.0
 11
187.90063753370021
 21
456.9480392743593
 31
0.0
  0
LINE
  5
6F08
  8
AM_0
 10
187.6996729034741
 20
475.14803927435941
 30
0.0
 11
187.0510018071281
 21
459.40695400304332
 31
0.0
  0
LINE
  5
6F09
  8
AM_0
 10
188.44836549404619
 20
475.86369798672342
 30
0.0
 11
187.70110545063821
 21
456.23566751319248
 31
0.0
  0
LINE
  5
6F0A
  8
AM_0
 10
187.89920498653609
 20
475.86041103552742
 30
0.0
 11
187.15063753370021
 21
456.1980392743593
 31
0.0
  0
LINE
  5
6F0B
  8
AM_0
 10
185.0510018071283
 20
454.0480392743595
 30
0.0
 11
182.85100180712811
 21
454.0480392743595
 31
0.0
  0
ARC
  5
6F0C
  8
AM_0
 10
196.94967290347421
 20
453.54803927435938
 30
0.0
 40
0.5
 50
0.0
 51
90.000000000013017
  0
ARC
  5
6F0D
  8
AM_0
 10
197.94967290347421
 20
453.04803927435938
 30
0.0
 40
0.5
 50
180.0
 51
270.0
  0
LINE
  5
6F0E
  8
AM_0
 10
197.4496729034741
 20
453.54803927435938
 30
0.0
 11
197.4496729034741
 21
453.04803927435938
 31
0.0
  0
LINE
  5
6F0F
  8
AM_0
 10
188.4496729034741
 20
456.9480392743593
 30
0.0
 11
191.9496729034741
 21
456.9480392743593
 31
0.0
  0
LINE
  5
6F10
  8
AM_0
 10
197.4496729034741
 20
455.19196795295238
 30
0.0
 11
197.4496729034741
 21
464.90411059576729
 31
0.0
  0
LINE
  5
6F11
  8
AM_0
 10
192.9496729034741
 20
454.0480392743595
 30
0.0
 11
196.9496729034741
 21
454.0480392743595
 31
0.0
  0
LINE
  5
6F12
  8
AM_0
 10
196.9496729034741
 20
454.6919679529525
 30
0.0
 11
192.4496729034741
 21
454.6919679529525
 31
0.0
  0
ARC
  5
6F13
  8
AM_0
 10
196.94967290347421
 20
455.19196795295238
 30
0.0
 40
0.5
 50
270.0
 51
0.0
  0
ARC
  5
6F14
  8
AM_0
 10
191.9496729034741
 20
456.44803927435959
 30
0.0
 40
0.5
 50
0.0
 51
90.0
  0
ARC
  5
6F15
  8
AM_0
 10
192.9496729034741
 20
454.5480392743595
 30
0.0
 40
0.5
 50
180.0
 51
270.0
  0
LINE
  5
6F16
  8
AM_0
 10
196.9496729034741
 20
465.40411059576729
 30
0.0
 11
192.4496729034741
 21
465.40411059576729
 31
0.0
  0
ARC
  5
6F17
  8
AM_0
 10
196.9496729034741
 20
464.90411059576752
 30
0.0
 40
0.5
 50
0.0
 51
90.0
  0
LINE
  5
6F18
  8
AM_0
 10
186.5510018071281
 20
459.90286852206719
 30
0.0
 11
186.5510018071281
 21
461.07511170850017
 31
0.0
  0
LINE
  5
6F19
  8
AM_0
 10
187.9773699621251
 20
456.9480392743593
 30
0.0
 11
188.4496729034741
 21
456.9480392743593
 31
0.0
  0
LINE
  5
6F1A
  8
AM_0
 10
187.8807774675858
 20
456.87392150762258
 30
0.0
 11
187.90063753370021
 21
456.9480392743593
 31
0.0
  0
ARC
  5
6F1B
  8
AM_0
 10
187.9773699621251
 20
456.84803927435951
 30
0.0
 40
0.1000000000000346
 50
90.0
 51
164.99980499355539
  0
ARC
  5
6F1C
  8
AM_0
 10
186.25100180712809
 20
456.76120629385139
 30
0.0
 40
0.3000000000000043
 50
0.0
 51
90.0
  0
LINE
  5
6F1D
  8
AM_0
 10
185.0510018071283
 20
454.64803927435929
 30
0.0
 11
186.2709575102852
 21
454.72936965457041
 31
0.0
  0
LINE
  5
6F1E
  8
AM_0
 10
185.0510018071283
 20
455.80429131019929
 30
0.0
 11
186.25100180712809
 21
455.80429131019929
 31
0.0
  0
LINE
  5
6F1F
  8
AM_0
 10
186.5510018071281
 20
455.0480392743595
 30
0.0
 11
185.0510018071283
 21
455.0480392743595
 31
0.0
  0
ARC
  5
6F20
  8
AM_0
 10
186.5510018071281
 20
455.54803927435961
 30
0.0
 40
0.5
 50
270.0
 51
0.0
  0
LINE
  5
6F21
  8
AM_0
 10
186.5510018071281
 20
455.02870520192738
 30
0.0
 11
186.5510018071281
 21
455.0480392743595
 31
0.0
  0
LINE
  5
6F22
  8
AM_0
 10
186.5510018071281
 20
454.7480392743596
 30
0.0
 11
186.5510018071281
 21
455.02870520192738
 31
0.0
  0
LINE
  5
6F23
  8
AM_0
 10
186.2709575102852
 20
454.72936965457041
 30
0.0
 11
186.5510018071281
 21
454.7480392743596
 31
0.0
  0
ARC
  5
6F24
  8
AM_0
 10
186.25100180712809
 20
455.02870520192738
 30
0.0
 40
0.3000000000000007
 50
273.81407483428171
 51
0.0
  0
LINE
  5
6F25
  8
AM_0
 10
187.62294047504909
 20
456.1980392743593
 30
0.0
 11
187.699672903475
 21
456.1980392743593
 31
0.0
  0
LINE
  5
6F26
  8
AM_0
 10
187.699672903475
 20
456.1980392743593
 30
0.0
 11
187.7195329695881
 21
456.2721570410958
 31
0.0
  0
LINE
  5
6F27
  8
AM_0
 10
187.130777467586
 20
456.2721570410958
 30
0.0
 11
187.15063753370021
 21
456.1980392743593
 31
0.0
  0
LINE
  5
6F28
  8
AM_0
 10
187.15063753370021
 20
456.1980392743593
 30
0.0
 11
187.22736996212521
 21
456.1980392743593
 31
0.0
  0
LINE
  5
6F29
  8
AM_0
 10
187.7195329695881
 20
456.2721570410958
 30
0.0
 11
187.8807774675858
 21
456.87392150762258
 31
0.0
  0
LINE
  5
6F2A
  8
AM_0
 10
187.22736996212521
 20
456.1980392743593
 30
0.0
 11
187.62294047504909
 21
456.1980392743593
 31
0.0
  0
LINE
  5
6F2B
  8
AM_0
 10
187.05100180712921
 20
456.56987980592038
 30
0.0
 11
187.130777467586
 21
456.2721570410958
 31
0.0
  0
ARC
  5
6F2C
  8
AM_0
 10
187.62294047504909
 20
456.2980392743595
 30
0.0
 40
0.0999999999999866
 50
270.0
 51
344.99980499343371
  0
ARC
  5
6F2D
  8
AM_0
 10
187.22736996212521
 20
456.2980392743595
 30
0.0
 40
0.1000000000000014
 50
195.00019500656629
 51
270.0
  0
LINE
  5
6F2E
  8
AM_0
 10
186.5510018071281
 20
456.1042913101993
 30
0.0
 11
186.5510018071281
 21
456.76120629385139
 31
0.0
  0
ARC
  5
6F2F
  8
AM_0
 10
186.25100180712809
 20
456.10429131019959
 30
0.0
 40
0.3000000000000007
 50
270.0
 51
0.0
  0
LINE
  5
6F30
  8
AM_0
 10
185.0510018071283
 20
459.6028685220673
 30
0.0
 11
186.25100180712809
 21
459.6028685220673
 31
0.0
  0
LINE
  5
6F31
  8
AM_0
 10
186.25100180712809
 20
457.0612062938514
 30
0.0
 11
185.0510018071283
 21
457.0612062938514
 31
0.0
  0
LINE
  5
6F32
  8
AM_0
 10
187.90063753370021
 20
456.9480392743593
 30
0.0
 11
187.9773699621251
 21
456.9480392743593
 31
0.0
  0
ARC
  5
6F33
  8
AM_0
 10
186.25100180712809
 20
459.90286852206759
 30
0.0
 40
0.3000000000000007
 50
270.0
 51
0.0
  0
LINE
  5
6F34
  8
AM_0
 10
186.25100180712809
 20
461.37511170850053
 30
0.0
 11
185.0510018071283
 21
461.37511170850053
 31
0.0
  0
ARC
  5
6F35
  8
AM_0
 10
186.25100180712809
 20
461.07511170850057
 30
0.0
 40
0.3000000000000043
 50
0.0
 51
90.0
  0
LINE
  5
6F36
  8
AM_0
 10
186.25100180712809
 20
465.0480392743583
 30
0.0
 11
185.0510018071283
 21
465.0480392743583
 31
0.0
  0
ARC
  5
6F37
  8
AM_0
 10
186.25100180712809
 20
465.3480392743586
 30
0.0
 40
0.3000000000000007
 50
270.0
 51
0.0
  0
LINE
  5
6F38
  8
AM_0
 10
176.05100180712819
 20
455.91475944571232
 30
0.0
 11
182.5510018071281
 21
455.91475944571232
 31
0.0
  0
LINE
  5
6F39
  8
AM_0
 10
176.05100180712819
 20
455.41475944571232
 30
0.0
 11
182.5510018071281
 21
455.41475944571232
 31
0.0
  0
LINE
  5
6F3A
  8
AM_0
 10
182.5510018071281
 20
465.54803927435938
 30
0.0
 11
176.05100180712819
 21
465.54803927435938
 31
0.0
  0
LINE
  5
6F3B
  8
AM_0
 10
175.5510018071283
 20
465.04803927435938
 30
0.0
 11
182.5510018071281
 21
465.04803927435938
 31
0.0
  0
LINE
  5
6F3C
  8
AM_0
 10
182.25100180712809
 20
455.0480392743595
 30
0.0
 11
175.4130517423101
 21
455.0480392743595
 31
0.0
  0
LINE
  5
6F3D
  8
AM_0
 10
182.5510018071281
 20
464.7013512058183
 30
0.0
 11
176.05100180712819
 21
464.7013512058183
 31
0.0
  0
LINE
  5
6F3E
  8
AM_0
 10
182.5510018071281
 20
456.39472734290041
 30
0.0
 11
176.05100180712819
 21
456.39472734290041
 31
0.0
  0
ARC
  5
6F3F
  8
AM_0
 10
182.85100180712811
 20
454.34803927435951
 30
0.0
 40
0.2999999999999971
 50
180.0
 51
270.0
  0
ARC
  5
6F40
  8
AM_0
 10
182.2510018071282
 20
454.7480392743596
 30
0.0
 40
0.2999999999999971
 50
0.0
 51
90.0
  0
ARC
  5
6F41
  8
AM_0
 10
184.1760018071281
 20
460.54803927435938
 30
0.0
 40
9.124999999999984
 50
152.92493329271929
 51
207.07506670728071
  0
LINE
  5
6F42
  8
AM_0
 10
174.77286734264581
 20
455.27981799476191
 30
0.0
 11
172.4108174074637
 21
457.24819294074678
 31
0.0
  0
LINE
  5
6F43
  8
AM_0
 10
175.5510018071283
 20
455.6264718578675
 30
0.0
 11
176.05100180712819
 21
455.0480392743595
 31
0.0
  0
ARC
  5
6F44
  8
AM_0
 10
175.4130517423101
 20
456.0480392743595
 30
0.0
 40
1.0
 50
230.19442890774391
 51
270.0
  0
LINE
  5
6F45
  8
AM_0
 10
176.05100180712819
 20
455.41475944571232
 30
0.0
 11
175.5510018071283
 21
455.6264718578675
 31
0.0
  0
LINE
  5
6F46
  8
AM_0
 10
175.5510018071283
 20
456.0887471308385
 30
0.0
 11
176.05100180712819
 21
455.41475944571232
 31
0.0
  0
LINE
  5
6F47
  8
AM_0
 10
176.05100180712819
 20
455.91475944571232
 30
0.0
 11
175.5510018071283
 21
456.0887471308385
 31
0.0
  0
LINE
  5
6F48
  8
AM_0
 10
175.5510018071283
 20
456.6264718578675
 30
0.0
 11
176.05100180712819
 21
455.91475944571232
 31
0.0
  0
LINE
  5
6F49
  8
AM_0
 10
176.05100180712819
 20
456.39472734290041
 30
0.0
 11
175.5510018071283
 21
456.6264718578675
 31
0.0
  0
ARC
  5
6F4A
  8
AM_0
 10
173.05100180712819
 20
458.01641422034447
 30
0.0
 40
1.0000000000000291
 50
180.0
 51
230.19442890773479
  0
LINE
  5
6F4B
  8
AM_0
 10
176.05100180712819
 20
465.54803927435938
 30
0.0
 11
175.5510018071283
 21
466.04803927435938
 31
0.0
  0
LINE
  5
6F4C
  8
AM_0
 10
175.5510018071283
 20
465.04803927435938
 30
0.0
 11
176.05100180712819
 21
465.54803927435938
 31
0.0
  0
LINE
  5
6F4D
  8
AM_0
 10
176.05100180712819
 20
464.7013512058183
 30
0.0
 11
175.5510018071283
 21
465.04803927435938
 31
0.0
  0
LINE
  5
6F4E
  8
AM_0
 10
182.85100180712811
 20
478.04803927435938
 30
0.0
 11
185.0510018071283
 21
478.04803927435938
 31
0.0
  0
ARC
  5
6F4F
  8
AM_0
 10
196.9496729034741
 20
478.54803927435938
 30
0.0
 40
0.5
 50
269.99999999998693
 51
0.0
  0
LINE
  5
6F50
  8
AM_0
 10
191.9496729034741
 20
475.14803927435941
 30
0.0
 11
188.72736996212521
 21
475.14803927435941
 31
0.0
  0
LINE
  5
6F51
  8
AM_0
 10
197.4496729034741
 20
467.1919679529525
 30
0.0
 11
197.4496729034741
 21
476.90411059576758
 31
0.0
  0
LINE
  5
6F52
  8
AM_0
 10
192.4496729034741
 20
466.69196795295261
 30
0.0
 11
196.9496729034741
 21
466.69196795295261
 31
0.0
  0
ARC
  5
6F53
  8
AM_0
 10
196.9496729034741
 20
467.1919679529525
 30
0.0
 40
0.5
 50
270.0
 51
0.0
  0
LINE
  5
6F54
  8
AM_0
 10
192.4496729034741
 20
477.40411059576752
 30
0.0
 11
196.9496729034741
 21
477.40411059576752
 31
0.0
  0
LINE
  5
6F55
  8
AM_0
 10
196.9496729034741
 20
478.04803927435938
 30
0.0
 11
192.9496729034741
 21
478.04803927435938
 31
0.0
  0
ARC
  5
6F56
  8
AM_0
 10
196.9496729034741
 20
476.90411059576758
 30
0.0
 40
0.5
 50
0.0
 51
90.0
  0
ARC
  5
6F57
  8
AM_0
 10
191.9496729034741
 20
475.64803927435929
 30
0.0
 40
0.5
 50
270.0
 51
0.0
  0
ARC
  5
6F58
  8
AM_0
 10
192.9496729034741
 20
477.54803927435938
 30
0.0
 40
0.5
 50
90.0
 51
180.0
  0
ARC
  5
6F59
  8
AM_0
 10
186.25100180712809
 20
472.19321002665129
 30
0.0
 40
0.3000000000000114
 50
0.0
 51
90.0
  0
LINE
  5
6F5A
  8
AM_0
 10
185.0510018071283
 20
467.04803927436132
 30
0.0
 11
186.25100180712809
 21
467.04803927436132
 31
0.0
  0
ARC
  5
6F5B
  8
AM_0
 10
186.25100180712809
 20
466.74803927436159
 30
0.0
 40
0.2999999999999971
 50
0.0
 51
90.0
  0
LINE
  5
6F5C
  8
AM_0
 10
185.0510018071283
 20
470.72096684021841
 30
0.0
 11
186.25100180712809
 21
470.72096684021841
 31
0.0
  0
ARC
  5
6F5D
  8
AM_0
 10
186.25100180712809
 20
471.02096684021848
 30
0.0
 40
0.3000000000000007
 50
270.0
 51
0.0
  0
LINE
  5
6F5E
  8
AM_0
 10
186.5510018071281
 20
471.02096684021848
 30
0.0
 11
186.5510018071281
 21
472.19321002665129
 31
0.0
  0
LINE
  5
6F5F
  8
AM_0
 10
187.9773699621251
 20
475.89803927435929
 30
0.0
 11
188.37294047504909
 21
475.89803927435929
 31
0.0
  0
LINE
  5
6F60
  8
AM_0
 10
187.9773699621251
 20
475.89803927435929
 30
0.0
 11
188.37294047504909
 21
475.89803927435929
 31
0.0
  0
LINE
  5
6F61
  8
AM_0
 10
188.4695329695881
 20
475.82392150762308
 30
0.0
 11
188.630777467586
 21
475.22215704109573
 31
0.0
  0
LINE
  5
6F62
  8
AM_0
 10
188.4695329695881
 20
475.82392150762308
 30
0.0
 11
188.630777467586
 21
475.22215704109573
 31
0.0
  0
ARC
  5
6F63
  8
AM_0
 10
188.72736996212521
 20
475.2480392743596
 30
0.0
 40
0.0999999999999943
 50
195.00019500651879
 51
270.0
  0
ARC
  5
6F64
  8
AM_0
 10
188.37294047504909
 20
475.79803927435938
 30
0.0
 40
0.0999999999999943
 50
15.000195006505431
 51
90.0
  0
LINE
  5
6F65
  8
AM_0
 10
187.05015521858709
 20
475.52303927435952
 30
0.0
 11
187.130777467586
 21
475.22215704109573
 31
0.0
  0
LINE
  5
6F66
  8
AM_0
 10
187.70238355568
 20
475.18730380745751
 30
0.0
 11
187.8807774675858
 21
475.82392150762308
 31
0.0
  0
LINE
  5
6F67
  8
AM_0
 10
187.7195329695881
 20
475.22215704109573
 30
0.0
 11
187.8807774675858
 21
475.82392150762308
 31
0.0
  0
LINE
  5
6F68
  8
AM_0
 10
186.5510018071281
 20
475.3348722548684
 30
0.0
 11
186.5510018071281
 21
475.99178723851941
 31
0.0
  0
LINE
  5
6F69
  8
AM_0
 10
187.0510018071281
 20
475.51987980592139
 30
0.0
 11
187.130777467586
 21
475.22215704109573
 31
0.0
  0
LINE
  5
6F6A
  8
AM_0
 10
185.0510018071283
 20
475.03487225486839
 30
0.0
 11
186.25100180712809
 21
475.03487225486839
 31
0.0
  0
LINE
  5
6F6B
  8
AM_0
 10
186.25100180712809
 20
472.49321002665152
 30
0.0
 11
185.0510018071283
 21
472.49321002665221
 31
0.0
  0
LINE
  5
6F6C
  8
AM_0
 10
187.6555727405642
 20
475.14803927435941
 30
0.0
 11
187.70238355568
 21
475.18730380745751
 31
0.0
  0
LINE
  5
6F6D
  8
AM_0
 10
187.22736996212521
 20
475.14803927435941
 30
0.0
 11
187.6555727405642
 21
475.14803927435941
 31
0.0
  0
LINE
  5
6F6E
  8
AM_0
 10
187.22736996212521
 20
475.14803927435941
 30
0.0
 11
187.62294047504909
 21
475.14803927435941
 31
0.0
  0
ARC
  5
6F6F
  8
AM_0
 10
187.22736996212521
 20
475.2480392743596
 30
0.0
 40
0.0999999999999943
 50
195.00019500651879
 51
270.0
  0
ARC
  5
6F70
  8
AM_0
 10
187.62294047504909
 20
475.2480392743596
 30
0.0
 40
0.0999999999999608
 50
270.0
 51
344.99980499348112
  0
ARC
  5
6F71
  8
AM_0
 10
186.25100180712809
 20
475.3348722548684
 30
0.0
 40
0.3000000000000007
 50
270.0
 51
0.0
  0
LINE
  5
6F72
  8
AM_0
 10
185.0510018071283
 20
477.0480392743595
 30
0.0
 11
186.5510018071281
 21
477.0480392743595
 31
0.0
  0
LINE
  5
6F73
  8
AM_0
 10
186.25100180712809
 20
476.29178723851942
 30
0.0
 11
185.0510018071283
 21
476.29178723851942
 31
0.0
  0
LINE
  5
6F74
  8
AM_0
 10
186.2709575102852
 20
477.36670889414933
 30
0.0
 11
185.0510018071283
 21
477.4480392743593
 31
0.0
  0
ARC
  5
6F75
  8
AM_0
 10
186.5510018071281
 20
476.54803927435961
 30
0.0
 40
0.5
 50
0.0
 51
90.0
  0
ARC
  5
6F76
  8
AM_0
 10
187.9773699621251
 20
475.79803927435938
 30
0.0
 40
0.0999999999999606
 50
90.0
 51
164.99980499349451
  0
ARC
  5
6F77
  8
AM_0
 10
186.25100180712809
 20
475.99178723851941
 30
0.0
 40
0.2999999999999971
 50
0.0
 51
90.0
  0
LINE
  5
6F78
  8
AM_0
 10
186.5510018071281
 20
477.0480392743595
 30
0.0
 11
186.5510018071281
 21
477.06737334679252
 31
0.0
  0
ARC
  5
6F79
  8
AM_0
 10
186.25100180712809
 20
477.06737334679252
 30
0.0
 40
0.3000000000000043
 50
0.0
 51
86.185925165718274
  0
ARC
  5
6F7A
  8
AM_0
 10
197.9496729034741
 20
479.0480392743595
 30
0.0
 40
0.5
 50
90.0
 51
180.0
  0
LINE
  5
6F7B
  8
AM_0
 10
197.4496729034741
 20
479.0480392743595
 30
0.0
 11
197.4496729034741
 21
478.54803927435938
 31
0.0
  0
LINE
  5
6F7C
  8
AM_0
 10
176.05100180712819
 20
475.70135120581841
 30
0.0
 11
182.5510018071281
 21
475.70135120581841
 31
0.0
  0
LINE
  5
6F7D
  8
AM_0
 10
176.05100180712819
 20
467.39472734290041
 30
0.0
 11
182.5510018071281
 21
467.39472734290041
 31
0.0
  0
LINE
  5
6F7E
  8
AM_0
 10
175.4130517423101
 20
477.0480392743595
 30
0.0
 11
182.25100180712809
 21
477.0480392743595
 31
0.0
  0
LINE
  5
6F7F
  8
AM_0
 10
182.5510018071281
 20
467.0480392743595
 30
0.0
 11
175.5510018071283
 21
467.0480392743595
 31
0.0
  0
LINE
  5
6F80
  8
AM_0
 10
176.05100180712819
 20
466.5480392743595
 30
0.0
 11
182.5510018071281
 21
466.5480392743595
 31
0.0
  0
LINE
  5
6F81
  8
AM_0
 10
182.5510018071281
 20
476.6813191030073
 30
0.0
 11
176.05100180712819
 21
476.6813191030073
 31
0.0
  0
LINE
  5
6F82
  8
AM_0
 10
182.5510018071281
 20
476.18131910300718
 30
0.0
 11
176.05100180712819
 21
476.18131910300718
 31
0.0
  0
ARC
  5
6F83
  8
AM_0
 10
182.2510018071282
 20
477.34803927435951
 30
0.0
 40
0.3000000000000043
 50
270.0
 51
0.0
  0
ARC
  5
6F84
  8
AM_0
 10
182.85100180712811
 20
477.7480392743596
 30
0.0
 40
0.2999999999999971
 50
90.0
 51
180.0
  0
ARC
  5
6F85
  8
AM_0
 10
184.1760018071281
 20
471.5480392743595
 30
0.0
 40
9.124999999999984
 50
152.92493329271929
 51
207.07506670728071
  0
LINE
  5
6F86
  8
AM_0
 10
175.5510018071283
 20
467.0480392743595
 30
0.0
 11
176.05100180712819
 21
467.39472734290041
 31
0.0
  0
LINE
  5
6F87
  8
AM_0
 10
176.05100180712819
 20
466.5480392743595
 30
0.0
 11
175.5510018071283
 21
467.0480392743595
 31
0.0
  0
LINE
  5
6F88
  8
AM_0
 10
172.4108174074637
 20
474.84788560797273
 30
0.0
 11
174.77286734264581
 21
476.81626055395679
 31
0.0
  0
LINE
  5
6F89
  8
AM_0
 10
176.05100180712819
 20
477.0480392743595
 30
0.0
 11
175.5510018071283
 21
476.46960669085252
 31
0.0
  0
ARC
  5
6F8A
  8
AM_0
 10
175.4130517423101
 20
476.0480392743595
 30
0.0
 40
1.0000000000000411
 50
90.0
 51
129.805571092256
  0
LINE
  5
6F8B
  8
AM_0
 10
175.5510018071283
 20
475.46960669085229
 30
0.0
 11
176.05100180712819
 21
475.70135120581841
 31
0.0
  0
LINE
  5
6F8C
  8
AM_0
 10
176.05100180712819
 20
476.18131910300718
 30
0.0
 11
175.5510018071283
 21
475.46960669085229
 31
0.0
  0
LINE
  5
6F8D
  8
AM_0
 10
175.5510018071283
 20
476.00733141788038
 30
0.0
 11
176.05100180712819
 21
476.18131910300718
 31
0.0
  0
LINE
  5
6F8E
  8
AM_0
 10
176.05100180712819
 20
476.6813191030073
 30
0.0
 11
175.5510018071283
 21
476.00733141788038
 31
0.0
  0
LINE
  5
6F8F
  8
AM_0
 10
175.5510018071283
 20
476.46960669085252
 30
0.0
 11
176.05100180712819
 21
476.6813191030073
 31
0.0
  0
ARC
  5
6F90
  8
AM_0
 10
173.05100180712819
 20
474.07966432837532
 30
0.0
 40
1.0
 50
129.80557109226521
 51
180.0
  0
LINE
  5
6F91
  8
AM_0
 10
297.44967290347432
 20
443.04803927435961
 30
0.0
 11
276.63516800394189
 21
443.04803927435961
 31
0.0
  0
LINE
  5
6F92
  8
AM_0
 10
222.26417780300659
 20
443.04803927435961
 30
0.0
 11
201.44967290347481
 21
443.04803927435961
 31
0.0
  0
LINE
  5
6F93
  8
AM_0
 10
291.31389123431319
 20
439.04803927435961
 30
0.0
 11
207.585454572635
 21
439.04803927435961
 31
0.0
  0
LINE
  5
6F94
  8
AM_0
 10
210.3570278757812
 20
440.98910176223183
 30
0.0
 11
210.44967290347481
 21
442.04803927435972
 31
0.0
  0
LINE
  5
6F95
  8
AM_0
 10
202.54231793116821
 20
440.98910176223183
 30
0.0
 11
202.44967290347481
 21
442.04803927435972
 31
0.0
  0
ARC
  5
6F96
  8
AM_0
 10
206.44967290347481
 20
445.4480392743597
 30
0.0
 40
6.5
 50
241.82726586813479
 51
298.17273413186518
  0
ARC
  5
6F97
  8
AM_0
 10
204.13622944811519
 20
441.12855095062821
 30
0.0
 40
1.6000000000000001
 50
184.99999999999969
 51
241.82726586813479
  0
LINE
  5
6F98
  8
AM_0
 10
208.74967290347479
 20
439.36856561293138
 30
0.0
 11
206.44967290347481
 21
441.65812529172678
 31
0.0
  0
LINE
  5
6F99
  8
AM_0
 10
206.7611729034748
 20
441.34803927435962
 30
0.0
 11
206.13817290347481
 21
441.34803927435962
 31
0.0
  0
LINE
  5
6F9A
  8
AM_0
 10
204.14967290347491
 20
439.36856561293138
 30
0.0
 11
206.44967290347481
 21
441.65812529172678
 31
0.0
  0
LINE
  5
6F9B
  8
AM_0
 10
206.7611729034748
 20
438.9555075840251
 30
0.0
 11
206.7611729034748
 21
441.34803927435962
 31
0.0
  0
LINE
  5
6F9C
  8
AM_0
 10
206.13817290347481
 20
438.9555075840251
 30
0.0
 11
206.13817290347481
 21
441.34803927435962
 31
0.0
  0
ARC
  5
6F9D
  8
AM_0
 10
208.76311635883451
 20
441.12855095062821
 30
0.0
 40
1.6000000000000001
 50
298.17273413186518
 51
355.00000000000023
  0
LINE
  5
6F9E
  8
AM_0
 10
297.44967290347438
 20
443.04803927435961
 30
0.0
 11
297.44967290347438
 21
447.04803927435961
 31
0.0
  0
LINE
  5
6F9F
  8
AM_0
 10
201.4496729034739
 20
447.04803927435961
 30
0.0
 11
201.44967290347509
 21
443.04803927435961
 31
0.0
  0
LINE
  5
6FA0
  8
AM_0N
 10
210.24967290347479
 20
443.04803927435961
 30
0.0
 11
210.24967290347479
 21
442.04803927435972
 31
0.0
  0
LINE
  5
6FA1
  8
AM_0N
 10
206.64967290347491
 20
442.04803927435972
 30
0.0
 11
207.01364313774101
 21
443.04803927435961
 31
0.0
  0
LINE
  5
6FA2
  8
AM_0N
 10
206.24967290347479
 20
442.04803927435972
 30
0.0
 11
206.61364313774089
 21
443.04803927435961
 31
0.0
  0
LINE
  5
6FA3
  8
AM_0N
 10
202.44967290347481
 20
442.04803927435972
 30
0.0
 11
210.44967290347481
 21
442.04803927435972
 31
0.0
  0
LINE
  5
6FA4
  8
AM_0N
 10
202.64967290347491
 20
442.04803927435972
 30
0.0
 11
202.64967290347491
 21
443.04803927435961
 31
0.0
  0
LINE
  5
6FA5
  8
AM_0
 10
222.26417780300639
 20
439.04803927435961
 30
0.0
 11
222.26417780300639
 21
443.04803927435961
 31
0.0
  0
LINE
  5
6FA6
  8
AM_0
 10
220.60732355351399
 20
443.04803927435961
 30
0.0
 11
222.26417780300639
 21
439.04803927435961
 31
0.0
  0
LINE
  5
6FA7
  8
AM_0
 10
276.63516800394189
 20
439.04803927435961
 30
0.0
 11
276.63516800394189
 21
443.04803927435961
 31
0.0
  0
LINE
  5
6FA8
  8
AM_0
 10
278.29202225343442
 20
443.04803927435961
 30
0.0
 11
276.63516800394189
 21
439.04803927435961
 31
0.0
  0
LINE
  5
6FA9
  8
AM_0
 10
215.94967290347421
 20
488.04803927435972
 30
0.0
 11
282.94967290347421
 21
488.04803927435972
 31
0.0
  0
LINE
  5
6FAA
  8
AM_0
 10
215.94967290347421
 20
488.04803927435972
 30
0.0
 11
215.94967290347421
 21
486.04803927435961
 31
0.0
  0
LINE
  5
6FAB
  8
AM_0
 10
282.94967290347421
 20
488.04803927435972
 30
0.0
 11
282.94967290347421
 21
486.04803927435961
 31
0.0
  0
LINE
  5
6FAC
  8
ﾁｭｳｼﾝｾﾝ1
 10
292.4496729034737
 20
436.78333177435962
 30
0.0
 11
292.4496729034737
 21
449.78333177435962
 31
0.0
  0
LINE
  5
6FAD
  8
AM_0
 10
288.54231793116719
 20
440.98910176223183
 30
0.0
 11
288.4496729034737
 21
442.04803927435972
 31
0.0
  0
LINE
  5
6FAE
  8
AM_0
 10
296.3570278757802
 20
440.98910176223183
 30
0.0
 11
296.4496729034737
 21
442.04803927435972
 31
0.0
  0
ARC
  5
6FAF
  8
AM_0
 10
292.44967290347381
 20
445.44803927435959
 30
0.0
 40
6.5
 50
241.82726586813479
 51
298.17273413186518
  0
ARC
  5
6FB0
  8
AM_0
 10
294.76311635883349
 20
441.1285509506281
 30
0.0
 40
1.6000000000000001
 50
298.17273413186518
 51
355.00000000000023
  0
LINE
  5
6FB1
  8
AM_0
 10
290.14967290347369
 20
439.36856561293138
 30
0.0
 11
292.4496729034737
 21
441.65812529172678
 31
0.0
  0
LINE
  5
6FB2
  8
AM_0
 10
292.13817290347367
 20
441.34803927435962
 30
0.0
 11
292.76117290347372
 21
441.34803927435962
 31
0.0
  0
LINE
  5
6FB3
  8
AM_0
 10
294.74967290347371
 20
439.36856561293138
 30
0.0
 11
292.4496729034737
 21
441.65812529172678
 31
0.0
  0
LINE
  5
6FB4
  8
AM_0
 10
292.13817290347367
 20
438.9555075840251
 30
0.0
 11
292.13817290347367
 21
441.34803927435962
 31
0.0
  0
LINE
  5
6FB5
  8
AM_0
 10
292.76117290347372
 20
438.9555075840251
 30
0.0
 11
292.76117290347372
 21
441.34803927435962
 31
0.0
  0
ARC
  5
6FB6
  8
AM_0
 10
290.13622944811419
 20
441.1285509506281
 30
0.0
 40
1.6000000000000001
 50
184.99999999999969
 51
241.82726586813479
  0
LINE
  5
6FB7
  8
AM_0N
 10
288.64967290347357
 20
443.04803927435961
 30
0.0
 11
288.64967290347357
 21
442.04803927435972
 31
0.0
  0
LINE
  5
6FB8
  8
AM_0N
 10
292.24967290347371
 20
442.04803927435972
 30
0.0
 11
291.88570266920749
 21
443.04803927435961
 31
0.0
  0
LINE
  5
6FB9
  8
AM_0N
 10
292.64967290347357
 20
442.04803927435972
 30
0.0
 11
292.28570266920752
 21
443.04803927435961
 31
0.0
  0
LINE
  5
6FBA
  8
AM_0N
 10
296.4496729034737
 20
442.04803927435972
 30
0.0
 11
288.4496729034737
 21
442.04803927435972
 31
0.0
  0
LINE
  5
6FBB
  8
AM_0N
 10
296.24967290347359
 20
442.04803927435972
 30
0.0
 11
296.24967290347359
 21
443.04803927435961
 31
0.0
  0
LINE
  5
6FBC
  8
AM_0
 10
200.4496729034741
 20
450.0480392743595
 30
0.0
 11
200.4496729034741
 21
482.04803927435938
 31
0.0
  0
ARC
  5
6FBD
  8
AM_0
 10
173.02283327241599
 20
519.04803927435955
 30
0.0
 40
56.0
 50
209.07393874564249
 51
269.00563148839018
1001
GENIUS_GENOBJ-N-FIL_13
1002
{
1000
OWNER
1000
GEN
1002
}
1001
GENIUS_GENODEF_13
1002
{
1000
HIER
1070
     0
1002
}
1002
{
1000
MANEDIT
1070
     0
1002
}
1002
{
1000
NOSEL
1070
     0
1002
}
1002
{
1000
BEHIND
1070
     0
1002
}
1002
{
1000
OTHER
1070
     0
1002
}
1002
{
1000
REACTOR
1002
}
  0
ARC
  5
6FBE
  8
AM_0
 10
173.02283327241591
 20
519.04803927435955
 30
0.0
 40
50.0
 50
209.07393874564249
 51
268.88629304213589
1001
GENIUS_GENOBJ-N-FIL_13
1002
{
1000
OWNER
1000
GEN
1002
}
1001
GENIUS_GENODEF_13
1002
{
1000
HIER
1070
     0
1002
}
1002
{
1000
MANEDIT
1070
     0
1002
}
1002
{
1000
NOSEL
1070
     0
1002
}
1002
{
1000
BEHIND
1070
     0
1002
}
1002
{
1000
OTHER
1070
     0
1002
}
1002
{
1000
REACTOR
1002
}
  0
TEXT
  5
7237
  8
AM_0
 10
527.79236703418951
 20
577.4109837328341
 30
0.0
 40
10.0
  1
VX04-040BW~VX04-050BW
  0
ENDSEC
  0
EOF
