  0
SECTION
  2
HEADER
  9
$ACADVER
  1
AC1009
  9
$INSBASE
 10
0.0
 20
0.0
 30
0.0
  9
$EXTMIN
 10
76.095590759878405
 20
178.60730714437429
 30
-250.41841640509659
  9
$EXTMAX
 10
751.03207584253039
 20
659.62510948468662
 30
8206587.2096418813
  9
$LIMMIN
 10
0.0
 20
0.0
  9
$LIMMAX
 10
853.5
 20
555.00000000000011
  9
$ORTHOMODE
 70
     0
  9
$REGENMODE
 70
     1
  9
$FILLMODE
 70
     1
  9
$QTEXTMODE
 70
     0
  9
$MIRRTEXT
 70
     1
  9
$DRAGMODE
 70
     2
  9
$LTSCALE
 40
3.0
  9
$OSMODE
 70
   551
  9
$ATTMODE
 70
     1
  9
$TEXTSIZE
 40
2.5
  9
$TRACEWID
 40
1.0
  9
$TEXTSTYLE
  7
STANDARD
  9
$CLAYER
  8
AM_0
  9
$CELTYPE
  6
BYLAYER
  9
$CECOLOR
 62
   256
  9
$DIMSCALE
 40
1.0
  9
$DIMASZ
 40
2.5
  9
$DIMEXO
 40
1.0
  9
$DIMDLI
 40
8.0
  9
$DIMRND
 40
0.0
  9
$DIMDLE
 40
0.0
  9
$DIMEXE
 40
0.6
  9
$DIMTP
 40
0.1
  9
$DIMTM
 40
0.1
  9
$DIMTXT
 40
2.5
  9
$DIMCEN
 40
0.0
  9
$DIMTSZ
 40
0.0
  9
$DIMTOL
 70
     0
  9
$DIMLIM
 70
     0
  9
$DIMTIH
 70
     0
  9
$DIMTOH
 70
     0
  9
$DIMSE1
 70
     0
  9
$DIMSE2
 70
     0
  9
$DIMTAD
 70
     1
  9
$DIMZIN
 70
     8
  9
$DIMBLK
  1

  9
$DIMASO
 70
     1
  9
$DIMSHO
 70
     1
  9
$DIMPOST
  1

  9
$DIMAPOST
  1
"
  9
$DIMALT
 70
     0
  9
$DIMALTD
 70
     2
  9
$DIMALTF
 40
0.0393701
  9
$DIMLFAC
 40
1.0
  9
$DIMTOFL
 70
     1
  9
$DIMTVP
 40
0.0
  9
$DIMTIX
 70
     0
  9
$DIMSOXD
 70
     0
  9
$DIMSAH
 70
     0
  9
$DIMBLK1
  1

  9
$DIMBLK2
  1

  9
$DIMSTYLE
  2
AM_ISO
  9
$DIMCLRD
 70
   256
  9
$DIMCLRE
 70
   256
  9
$DIMCLRT
 70
     4
  9
$DIMTFAC
 40
0.71
  9
$DIMGAP
 40
0.8
  9
$LUNITS
 70
     2
  9
$LUPREC
 70
     2
  9
$SKETCHINC
 40
1.0
  9
$FILLETRAD
 40
56.0
  9
$AUNITS
 70
     0
  9
$AUPREC
 70
     0
  9
$MENU
  1
.
  9
$ELEVATION
 40
0.0
  9
$PELEVATION
 40
0.0
  9
$THICKNESS
 40
0.0
  9
$LIMCHECK
 70
     0
  9
$BLIPMODE
 70
     0
  9
$CHAMFERA
 40
6.0
  9
$CHAMFERB
 40
3.0
  9
$SKPOLY
 70
     0
  9
$TDCREATE
 40
2452065.7887456599
  9
$TDUPDATE
 40
2458541.6092026271
  9
$TDINDWG
 40
0.1602730671
  9
$TDUSRTIMER
 40
0.160273044
  9
$USRTIMER
 70
     1
  9
$ANGBASE
 50
0.0
  9
$ANGDIR
 70
     0
  9
$PDMODE
 70
     0
  9
$PDSIZE
 40
0.0
  9
$PLINEWID
 40
0.0
  9
$COORDS
 70
     1
  9
$SPLFRAME
 70
     0
  9
$SPLINETYPE
 70
     6
  9
$SPLINESEGS
 70
     8
  9
$ATTDIA
 70
     1
  9
$ATTREQ
 70
     1
  9
$HANDLING
 70
     1
  9
$HANDSEED
  5
7C34
  9
$SURFTAB1
 70
     6
  9
$SURFTAB2
 70
     6
  9
$SURFTYPE
 70
     6
  9
$SURFU
 70
     6
  9
$SURFV
 70
     6
  9
$UCSNAME
  2

  9
$UCSORG
 10
0.0
 20
0.0
 30
0.0
  9
$UCSXDIR
 10
1.0
 20
0.0
 30
0.0
  9
$UCSYDIR
 10
0.0
 20
1.0
 30
0.0
  9
$PUCSNAME
  2

  9
$PUCSORG
 10
0.0
 20
0.0
 30
0.0
  9
$PUCSXDIR
 10
1.0
 20
0.0
 30
0.0
  9
$PUCSYDIR
 10
0.0
 20
1.0
 30
0.0
  9
$USERI1
 70
     0
  9
$USERI2
 70
     0
  9
$USERI3
 70
     0
  9
$USERI4
 70
     0
  9
$USERI5
 70
     0
  9
$USERR1
 40
0.0
  9
$USERR2
 40
0.0
  9
$USERR3
 40
0.0
  9
$USERR4
 40
0.0
  9
$USERR5
 40
0.0
  9
$WORLDVIEW
 70
     1
  9
$SHADEDGE
 70
     3
  9
$SHADEDIF
 70
    70
  9
$TILEMODE
 70
     1
  9
$MAXACTVP
 70
    64
  9
$PLIMCHECK
 70
     0
  9
$PEXTMIN
 10
1.0000000000000000E+020
 20
1.0000000000000000E+020
 30
1.0000000000000000E+020
  9
$PEXTMAX
 10
-1.0000000000000000E+020
 20
-1.0000000000000000E+020
 30
-1.0000000000000000E+020
  9
$PLIMMIN
 10
0.0
 20
0.0
  9
$PLIMMAX
 10
420.0
 20
297.0
  9
$UNITMODE
 70
     0
  9
$VISRETAIN
 70
     1
  9
$PLINEGEN
 70
     0
  9
$PSLTSCALE
 70
     1
  0
ENDSEC
  0
SECTION
  2
TABLES
  0
TABLE
  2
VPORT
 70
     1
  0
VPORT
  2
*ACTIVE
 70
     0
 10
0.0
 20
0.0
 11
1.0
 21
1.0
 12
413.5638333012044
 22
419.11620831453052
 13
0.0
 23
0.0
 14
7.5
 24
7.5
 15
30.0
 25
30.0
 16
0.0
 26
0.0
 36
1.0
 17
0.0
 27
0.0
 37
0.0
 40
484.31998404974229
 41
1.7571592210767459
 42
50.0
 43
0.0
 44
0.0
 50
0.0
 51
0.0
 71
     0
 72
   100
 73
     1
 74
     3
 75
     0
 76
     0
 77
     0
 78
     0
  0
ENDTAB
  0
TABLE
  2
LTYPE
 70
    27
  0
LTYPE
  2
CONTINUOUS
 70
     0
  3
Solid line
 72
    65
 73
     0
 40
0.0
  0
LTYPE
  2
AM_ISO02W050
 70
     0
  3
__ __ __ __ __ __ __ __ __ __ __ __ __ __ __
 72
    65
 73
     2
 40
7.5
 49
6.0
 49
-1.5
  0
LTYPE
  2
AM_ISO08W050
 70
     0
  3
____ . ____ . ____ . ____ . ____ . ____ . ____
 72
    65
 73
     4
 40
18.0
 49
12.0
 49
-1.5
 49
3.0
 49
-1.5
  0
LTYPE
  2
AM_ISO09W050
 70
     0
  3
_____ . . _____ . . _____ . . ____ .. ____
 72
    65
 73
     6
 40
22.5
 49
12.0
 49
-1.5
 49
3.0
 49
-1.5
 49
3.0
 49
-1.5
  0
LTYPE
  2
AMCONSTR
 70
     0
  3
_______________________
 72
    65
 73
     2
 40
9999.0
 49
9999.0
 49
0.0
  0
LTYPE
  2
AM_ISO08W050X2
 70
     0
  3
__ . __ . __ . __ . __ . __
 72
    65
 73
     4
 40
9.0
 49
6.0
 49
-0.75
 49
1.5
 49
-0.75
  0
LTYPE
  2
AM_ISO02W050X2
 70
     0
  3
 _ _ _ _ _ _ _ _ _ _ _ _
 72
    65
 73
     2
 40
3.75
 49
3.0
 49
-0.75
  0
LTYPE
  2
AMZIGZAG
 70
     0
  3
/\/-/\/-/\/-/\/-/\/-/\/
 72
    65
 73
     2
 40
11.0001
 49
0.0001
 49
-11.0
  0
LTYPE
  2
ACISOWELD
 70
     0
  3
_ _ _ _ _
 72
    65
 73
     2
 40
2.0
 49
2.0
 49
-1.0
  0
LTYPE
  2
ACISOTGB
 70
     0
  3
__ . . __ . .
 72
    65
 73
     6
 40
9.0
 49
4.0
 49
-1.0
 49
1.0
 49
-1.0
 49
1.0
 49
-1.0
  0
LTYPE
  2
ACISOTGL
 70
     0
  3
_ _ _ _ _
 72
    65
 73
     2
 40
3.0
 49
2.0
 49
-1.0
  0
LTYPE
  2
CENTER
 70
     0
  3
__ . __
 72
    65
 73
     4
 40
7.0
 49
4.0
 49
-1.0
 49
1.0
 49
-1.0
  0
LTYPE
  2
HIDDEN
 70
     0
  3
Hidden __ __ __ __ __ __ __ __ __ __ __ __ __ _
 72
    65
 73
     2
 40
9.5249999999999986
 49
6.3499999999999979
 49
-3.174999999999998
  0
LTYPE
  2
PHANTOM2
 70
     0
  3
Phantom (.5x) ___ _ _ ___ _ _ ___ _ _ ___ _ _
 72
    65
 73
     6
 40
31.75
 49
15.875
 49
-3.174999999999998
 49
3.174999999999998
 49
-3.174999999999998
 49
3.174999999999998
 49
-3.174999999999998
  0
LTYPE
  2
ACANSTGBM
 70
     0
  3
__ . . __ . .
 72
    65
 73
     6
 40
9.0
 49
4.0
 49
-1.0
 49
1.0
 49
-1.0
 49
1.0
 49
-1.0
  0
LTYPE
  2
ACANSTGLM
 70
     0
  3
_ _ _ _ _
 72
    65
 73
     2
 40
3.0
 49
2.0
 49
-1.0
  0
LTYPE
  2
GEN7
 70
     0
  3
____ . ____ . ____ . ____ . ____ . ____ . ____
 72
    65
 73
     4
 40
14.25
 49
9.75
 49
-1.5
 49
1.5
 49
-1.5
  0
LTYPE
  2
GEN3B
 70
     0
  3
 - - - - -
 72
    65
 73
     2
 40
1.0
 49
0.5
 49
-0.5
  0
LTYPE
  2
GEN7A
 70
     0
  3
__ . __ . __
 72
    65
 73
     4
 40
7.375
 49
4.75
 49
-0.875
 49
0.875
 49
-0.875
  0
LTYPE
  2
ACJISTGB
 70
     0
  3
__ . . __ . .
 72
    65
 73
     6
 40
9.0
 49
4.0
 49
-1.0
 49
1.0
 49
-1.0
 49
1.0
 49
-1.0
  0
LTYPE
  2
ACJISTGL
 70
     0
  3
_ _ _ _ _
 72
    65
 73
     2
 40
3.0
 49
2.0
 49
-1.0
  0
LTYPE
  2
CENTER2
 70
     0
  3
Center (.5x) ___ _ ___ _ ___ _ ___ _ ___ _ ___
 72
    65
 73
     4
 40
1.125
 49
0.75
 49
-0.125
 49
0.125
 49
-0.125
  0
LTYPE
  2
HIDDEN2
 70
     0
  3
Hidden (.5x) _ _ _ _ _ _ _ _ _ _ _ _ _ _ _ _ _
 72
    65
 73
     2
 40
0.1875
 49
0.125
 49
-0.0625
  0
LTYPE
  2
AMZIGZAG2
 70
     0
  3
/\/-/\/-/\/-/\/-/\/-/\/
 72
    65
 73
     2
 40
0.4401
 49
0.0001
 49
-0.4400000000000001
  0
LTYPE
  2
ACANSTGB
 70
     0
  3
__ . . __ . .
 72
    65
 73
     6
 40
0.35433070866
 49
0.15748031496
 49
-0.03937007874
 49
0.03937007874
 49
-0.03937007874
 49
0.03937007874
 49
-0.03937007874
  0
LTYPE
  2
ACANSTGL
 70
     0
  3
_ _ _ _ _
 72
    65
 73
     2
 40
0.11811023622
 49
0.07874015748
 49
-0.03937007874
  0
ENDTAB
  0
TABLE
  2
LAYER
 70
     8
  0
LAYER
  2
0
 70
     0
 62
     7
  6
CONTINUOUS
  0
LAYER
  2
AM_0
 70
     0
 62
     7
  6
CONTINUOUS
  0
LAYER
  2
AM_5
 70
     0
 62
     2
  6
CONTINUOUS
  0
LAYER
  2
DEFPOINTS
 70
     0
 62
     7
  6
CONTINUOUS
  0
LAYER
  2
ｶｸﾚｾﾝ2
 70
     0
 62
     3
  6
GEN3B
  0
LAYER
  2
ﾁｭｳｼﾝｾﾝ
 70
     0
 62
     1
  6
GEN7
  0
LAYER
  2
ﾁｭｳｼﾝｾﾝ1
 70
     0
 62
     1
  6
GEN7A
  0
LAYER
  2
AM_0N
 70
     0
 62
     7
  6
CONTINUOUS
  0
ENDTAB
  0
TABLE
  2
STYLE
 70
    10
  0
STYLE
  2
STANDARD
 70
     0
 40
0.0
 41
0.8299999999999999
 50
0.0
 71
     0
 42
2.5
  3
txt.shx
  4
bigfont.shx
  0
STYLE
  2
ANNOTATIVE
 70
     0
 40
0.0
 41
1.0
 50
0.0
 71
     0
 42
0.2
  3
txt
  4

  0
STYLE
  2

 70
     1
 40
0.0
 41
1.0
 50
0.0
 71
     0
 42
2.5
  3
ltypeshp.shx
  4

  0
STYLE
  2
ACISOTS
 70
     0
 40
1.0
 41
1.0
 50
0.0
 71
     0
 42
2.5
  3
isocp.shx
  4
extfont.shx
  0
STYLE
  2
ACISOGDT
 70
     0
 40
0.0
 41
1.0
 50
0.0
 71
     0
 42
2.5
  3
amgdt.shx
  4

  0
STYLE
  2
ACANSTS
 70
     0
 40
1.0
 41
1.0
 50
0.0
 71
     0
 42
2.5
  3
romans.shx
  4
bigfont.shx
  0
STYLE
  2
ACANSGDT
 70
     0
 40
0.0
 41
1.0
 50
0.0
 71
     0
 42
2.5
  3
amgdt.shx
  4

  0
STYLE
  2
ACJISTS
 70
     0
 40
1.0
 41
1.0
 50
0.0
 71
     0
 42
2.5
  3
isocp.shx
  4
bigfont.shx
  0
STYLE
  2
ACJISGDT
 70
     0
 40
0.0
 41
1.0
 50
0.0
 71
     0
 42
2.5
  3
amgdt.shx
  4

  0
STYLE
  2

 70
     1
 40
0.0
 41
1.0
 50
0.0
 71
     0
 42
2.5
  3
genltshp.shx
  4

  0
ENDTAB
  0
TABLE
  2
VIEW
 70
     6
  0
VIEW
  2
AM_VIEW1
 70
     0
 40
277.50000000000011
 10
249.64779005524869
 20
416.25
 41
499.29558011049721
 11
0.0
 21
0.0
 31
1.0
 12
0.0
 22
0.0
 32
0.0
 42
50.0
 43
0.0
 44
0.0
 50
0.0
 71
     0
  0
VIEW
  2
AM_VIEW2
 70
     0
 40
277.50000000000011
 10
603.85220994475117
 20
416.25
 41
499.29558011049721
 11
0.0
 21
0.0
 31
1.0
 12
0.0
 22
0.0
 32
0.0
 42
50.0
 43
0.0
 44
0.0
 50
0.0
 71
     0
  0
VIEW
  2
AM_VIEW3
 70
     0
 40
277.50000000000011
 10
249.64779005524869
 20
138.75
 41
499.29558011049721
 11
0.0
 21
0.0
 31
1.0
 12
0.0
 22
0.0
 32
0.0
 42
50.0
 43
0.0
 44
0.0
 50
0.0
 71
     0
  0
VIEW
  2
AM_VIEW4
 70
     0
 40
277.50000000000011
 10
603.85220994475117
 20
138.75
 41
499.29558011049721
 11
0.0
 21
0.0
 31
1.0
 12
0.0
 22
0.0
 32
0.0
 42
50.0
 43
0.0
 44
0.0
 50
0.0
 71
     0
  0
VIEW
  2
AM_VIEW5
 70
     0
 40
277.50000000000011
 10
426.75
 20
277.50000000000011
 41
499.2955801104971
 11
0.0
 21
0.0
 31
1.0
 12
0.0
 22
0.0
 32
0.0
 42
50.0
 43
0.0
 44
0.0
 50
0.0
 71
     0
  0
VIEW
  2
AM_VIEW6
 70
     0
 40
554.99445000000014
 10
426.75
 20
277.5
 41
998.5811743093924
 11
0.0
 21
0.0
 31
1.0
 12
0.0
 22
0.0
 32
0.0
 42
50.0
 43
0.0
 44
0.0
 50
0.0
 71
     0
  0
ENDTAB
  0
TABLE
  2
UCS
 70
     0
  0
ENDTAB
  0
TABLE
  2
APPID
 70
    98
  0
APPID
  2
ACAD
 70
     0
  0
APPID
  2
ACADANNOTATIVE
 70
     0
  0
APPID
  2
MCAD_NO_VIS
 70
     0
  0
APPID
  2
ACAD_TEMP_GRAPHIC
 70
     0
  0
APPID
  2
ACATTRIBSERVICES
 70
     0
  0
APPID
  2
GENIUS_GENREC_14
 70
     0
  0
APPID
  2
GENIUS_GENOBJ-N-REC_13
 70
     0
  0
APPID
  2
GENIUS_GENODEF_13
 70
     0
  0
APPID
  2
GENIUS_GENOLIS_13
 70
     0
  0
APPID
  2
GENIUS_GENOBJ-N-TIT_13
 70
     0
  0
APPID
  2
GENIUS_GENOENT_13
 70
     0
  0
APPID
  2
GENIUS_GENTITLE_13
 70
     0
  0
APPID
  2
GENIUS_GENOREF_13
 70
     0
  0
APPID
  2
GENIUS_GENSCREG_15
 70
     0
  0
APPID
  2
GENIUS_GENOBJ-N-SDF_13
 70
     0
  0
APPID
  2
GENIUS_GENFIL_13
 70
     0
  0
APPID
  2
GENIUS_GENOBJ-N-CHA_13
 70
     0
  0
APPID
  2
GENIUS_GENDTOL_13
 70
     0
  0
APPID
  2
GENIUS_GENOBJ-N-FIL_13
 70
     0
  0
APPID
  2
AD_DRAW
 70
     0
  0
APPID
  2
DESIGNERASSEMBLIES
 70
     0
  0
APPID
  2
ASURF_PCURVE_APPNAME
 70
     0
  0
APPID
  2
GENIUS_GE3SECT_13
 70
     0
  0
APPID
  2
GENIUS_GENCFG_13
 70
     0
  0
APPID
  2
GENIUS_GE3CFG0_13
 70
     0
  0
APPID
  2
GENIUS_GENCFG0_13
 70
     0
  0
APPID
  2
GENIUS_GENCFG1_13
 70
     0
  0
APPID
  2
GENIUS_GENCFG2_13
 70
     0
  0
APPID
  2
GENIUS_GENCFG3_13
 70
     0
  0
APPID
  2
GENIUS_GENCFG4_13
 70
     0
  0
APPID
  2
GENIUS_GEVCFG0_13
 70
     0
  0
APPID
  2
GENIUS_GENHINW_13
 70
     0
  0
APPID
  2
GENIUS_FIRSTVISTXT_14
 70
     0
  0
APPID
  2
GENIUS_GENOBJ-N-LEADER_13
 70
     0
  0
APPID
  2
GEV_VCCNULL_SWITCH_OFF
 70
     0
  0
APPID
  2
GENIUS_GEFCFG0_13
 70
     0
  0
APPID
  2
GENIUS_GENZVEED_13
 70
     0
  0
APPID
  2
GENIUS_GENSCREG_13
 70
     0
  0
APPID
  2
GENIUS_DUMCFG0_13
 70
     0
  0
APPID
  2
GEVID936201362
 70
     0
  0
APPID
  2
GEVDC
 70
     0
  0
APPID
  2
GEVCON
 70
     0
  0
APPID
  2
VCC
 70
     0
  0
APPID
  2
GEVPT
 70
     0
  0
APPID
  2
GEVIT
 70
     0
  0
APPID
  2
GENBH
 70
     0
  0
APPID
  2
GEVMK
 70
     0
  0
APPID
  2
GENIUS_GENBH_13
 70
     0
  0
APPID
  2
GENIUS_GENOBJ-NBEHI-BHF_13
 70
     0
  0
APPID
  2
GENIUS_GENOBJ-NBEHI-BHB_13
 70
     0
  0
APPID
  2
GENIUS_GENOBJ-F-DESC_13
 70
     0
  0
APPID
  2
GENIUS_GEFDESC_14
 70
     0
  0
APPID
  2
GENIUS_GENOBJ-F-PART_13
 70
     0
  0
APPID
  2
GENIUS_GEFSTDP_13
 70
     0
  0
APPID
  2
GENIUS_GEFPARTINS_13
 70
     0
  0
APPID
  2
GENIUS_GENTRA_14
 70
     0
  0
APPID
  2
GENIUS_GENINF13_13
 70
     0
  0
APPID
  2
GENIUS_GENOBJ-N-INFOPT_13
 70
     0
  0
APPID
  2
GENIUS_GENOBJ-N-RSSYM_13
 70
     0
  0
APPID
  2
GENIUS_GENSYMENT_13
 70
     0
  0
APPID
  2
GENIUS_GENSCSYM_13
 70
     0
  0
APPID
  2
GENIUS_GEFINFNAM_13
 70
     0
  0
APPID
  2
GENIUS_GENOBJ-N-CEN_13
 70
     0
  0
APPID
  2
GENIUS_GENOBJ-N-CRS_13
 70
     0
  0
APPID
  2
GENIUS_GENOBJ-N-CRC_13
 70
     0
  0
APPID
  2
GENIUS_GENCRC_14
 70
     0
  0
APPID
  2
GEVID942827039
 70
     0
  0
APPID
  2
GEVID942827040
 70
     0
  0
APPID
  2
GEVID942827041
 70
     0
  0
APPID
  2
GENIUS_GENOBJ-F-SCPASSM_13
 70
     0
  0
APPID
  2
GENIUS_GENDIMSH_14
 70
     0
  0
APPID
  2
GEVID942827042
 70
     0
  0
APPID
  2
GEVID946020473
 70
     0
  0
APPID
  2
GEVID946020474
 70
     0
  0
APPID
  2
GEVID946020475
 70
     0
  0
APPID
  2
GENIUS_GENOBJ-N-HTC_13
 70
     0
  0
APPID
  2
GENIUS_GENHATCH_13
 70
     0
  0
APPID
  2
GEVID948854295
 70
     0
  0
APPID
  2
GEVID939402019
 70
     0
  0
APPID
  2
GEVID952919491
 70
     0
  0
APPID
  2
GEVID952919492
 70
     0
  0
APPID
  2
GENIUS_GEFWELD_13
 70
     0
  0
APPID
  2
GENIUS_GENOBJ-F-WELS_13
 70
     0
  0
APPID
  2
GEVID952919493
 70
     0
  0
APPID
  2
GENIUS_GENOBJ-N-RSBK_13
 70
     0
  0
APPID
  2
GENIUS_GENOBJ-N-LIB_13
 70
     0
  0
APPID
  2
GENIUS_GENSCALE_13
 70
     0
  0
APPID
  2
GEVID986376691
 70
     0
  0
APPID
  2
DCO15
 70
     0
  0
APPID
  2
ACADM_DIM_EDIT
 70
     0
  0
APPID
  2
AMDT_DM_ADJ
 70
     0
  0
APPID
  2
ACAD_PSEXT
 70
     0
  0
APPID
  2
ACAD_DSTYLE_DIMJAG
 70
     0
  0
APPID
  2
ACAD_DSTYLE_DIMBREAK
 70
     0
  0
APPID
  2
ACAD_NAV_VCDISPLAY
 70
     0
  0
APPID
  2
ACADANNOPO
 70
     0
  0
APPID
  2
ACAD_EXEMPT_FROM_CAD_STANDARDS
 70
     0
  0
APPID
  2
ACAD_MLEADERVER
 70
     0
  0
ENDTAB
  0
TABLE
  2
DIMSTYLE
 70
    22
  0
DIMSTYLE
  2
STANDARD
 70
     0
  3

  4

  5

  6

  7

 40
1.0
 41
0.18
 42
0.0625
 43
0.38
 44
0.18
 45
0.0
 46
0.0
 47
0.0
 48
0.0
140
0.18
141
0.09
142
0.0
143
25.399999999999999
144
1.0
145
0.0
146
1.0
147
0.09
 71
     0
 72
     0
 73
     1
 74
     1
 75
     0
 76
     0
 77
     0
 78
     0
170
     0
171
     2
172
     0
173
     0
174
     0
175
     0
176
     0
177
     0
178
     0
  0
DIMSTYLE
  2
ANNOTATIVE
 70
     0
  3

  4

  5

  6

  7

 40
1.0
 41
0.18
 42
0.0625
 43
0.38
 44
0.18
 45
0.0
 46
0.0
 47
0.0
 48
0.0
140
0.18
141
0.09
142
0.0
143
25.399999999999999
144
1.0
145
0.0
146
1.0
147
0.09
 71
     0
 72
     0
 73
     1
 74
     1
 75
     0
 76
     0
 77
     0
 78
     0
170
     0
171
     2
172
     0
173
     0
174
     0
175
     0
176
     0
177
     0
178
     0
  0
DIMSTYLE
  2
AM_ISO
 70
     0
  3

  4
"
  5

  6

  7

 40
1.0
 41
2.5
 42
1.0
 43
8.0
 44
0.6
 45
0.0
 46
0.0
 47
0.1
 48
0.1
140
2.5
141
0.0
142
0.0
143
0.0393701
144
1.0
145
0.0
146
0.71
147
0.8
 71
     0
 72
     0
 73
     0
 74
     0
 75
     0
 76
     0
 77
     1
 78
     8
170
     0
171
     2
172
     1
173
     0
174
     0
175
     0
176
   256
177
   256
178
     4
  0
DIMSTYLE
  2
AM_ISO$3
 70
     0
  3

  4
"
  5

  6

  7

 40
1.0
 41
2.5
 42
1.0
 43
8.0
 44
0.6
 45
0.0
 46
0.0
 47
0.1
 48
0.1
140
2.5
141
0.0
142
0.0
143
0.0393701
144
1.0
145
0.0
146
0.71
147
0.8
 71
     0
 72
     0
 73
     0
 74
     1
 75
     0
 76
     0
 77
     1
 78
     8
170
     0
171
     2
172
     0
173
     0
174
     0
175
     0
176
   256
177
   256
178
     4
  0
DIMSTYLE
  2
AM_ISO$4
 70
     0
  3

  4
"
  5

  6

  7

 40
1.0
 41
2.5
 42
1.0
 43
8.0
 44
0.6
 45
0.0
 46
0.0
 47
0.1
 48
0.1
140
2.5
141
0.0
142
0.0
143
0.0393701
144
1.0
145
0.0
146
0.71
147
0.8
 71
     0
 72
     0
 73
     0
 74
     1
 75
     0
 76
     0
 77
     1
 78
     8
170
     0
171
     2
172
     0
173
     0
174
     0
175
     0
176
   256
177
   256
178
     4
  0
DIMSTYLE
  2
AM_ISO$6
 70
     0
  3

  4
"
  5

  6

  7

 40
1.0
 41
2.5
 42
1.0
 43
8.0
 44
0.6
 45
0.0
 46
0.0
 47
0.1
 48
0.1
140
2.5
141
0.0
142
0.0
143
0.0393701
144
1.0
145
0.0
146
0.71
147
0.8
 71
     0
 72
     0
 73
     0
 74
     0
 75
     0
 76
     0
 77
     0
 78
     8
170
     0
171
     2
172
     1
173
     0
174
     0
175
     0
176
   256
177
   256
178
     4
  0
DIMSTYLE
  2
AM_ISO$7
 70
     0
  3

  4
"
  5

  6

  7

 40
1.0
 41
2.5
 42
1.0
 43
8.0
 44
0.6
 45
0.0
 46
0.0
 47
0.1
 48
0.1
140
2.5
141
0.0
142
0.0
143
0.0393701
144
1.0
145
0.0
146
0.71
147
0.8
 71
     0
 72
     0
 73
     0
 74
     0
 75
     0
 76
     0
 77
     1
 78
     8
170
     0
171
     2
172
     1
173
     0
174
     0
175
     0
176
   256
177
   256
178
     4
  0
DIMSTYLE
  2
AM_ISO$SF
 70
     0
  3

  4
"
  5

  6

  7

 40
1.0
 41
2.5
 42
1.0
 43
10.0
 44
1.0
 45
0.0
 46
0.0
 47
0.1
 48
0.1
140
3.5
141
0.0
142
0.0
143
0.0393701
144
1.0
145
0.0
146
0.71
147
1.5
 71
     0
 72
     0
 73
     0
 74
     0
 75
     1
 76
     1
 77
     1
 78
     8
170
     0
171
     2
172
     1
173
     0
174
     0
175
     0
176
   256
177
   256
178
     2
  0
DIMSTYLE
  2
AM_ISO$SH
 70
     0
  3

  4
"
  5

  6

  7

 40
1.0
 41
2.5
 42
1.0
 43
10.0
 44
1.0
 45
0.0
 46
0.0
 47
0.1
 48
0.1
140
3.5
141
0.0
142
0.0
143
0.0393701
144
2.0
145
0.0
146
0.71
147
1.5
 71
     0
 72
     0
 73
     0
 74
     0
 75
     1
 76
     1
 77
     1
 78
     8
170
     0
171
     2
172
     1
173
     1
174
     0
175
     0
176
   256
177
   256
178
     2
  0
DIMSTYLE
  2
AM_JIS
 70
     0
  3

  4
"
  5

  6

  7

 40
1.0
 41
2.5
 42
1.0
 43
7.0
 44
1.0
 45
0.0
 46
0.0
 47
0.1
 48
0.1000000001
140
2.5
141
0.0
142
0.0
143
0.0393701
144
1.0
145
0.0
146
0.71
147
1.0
 71
     0
 72
     0
 73
     0
 74
     0
 75
     0
 76
     0
 77
     3
 78
     8
170
     0
171
     2
172
     1
173
     0
174
     0
175
     0
176
   256
177
   256
178
     4
  0
DIMSTYLE
  2
AM_JIS$3
 70
     0
  3

  4
"
  5

  6

  7

 40
1.0
 41
2.5
 42
1.0
 43
7.0
 44
1.0
 45
0.0
 46
0.0
 47
0.1
 48
0.1000000001
140
2.5
141
0.0
142
0.0
143
0.0393701
144
1.0
145
0.0
146
0.71
147
1.0
 71
     0
 72
     0
 73
     0
 74
     1
 75
     0
 76
     0
 77
     3
 78
     8
170
     0
171
     2
172
     0
173
     0
174
     0
175
     0
176
   256
177
   256
178
     4
  0
DIMSTYLE
  2
AM_JIS$4
 70
     0
  3

  4
"
  5

  6

  7

 40
1.0
 41
2.5
 42
1.0
 43
7.0
 44
1.0
 45
0.0
 46
0.0
 47
0.1
 48
0.1000000001
140
2.5
141
0.0
142
0.0
143
0.0393701
144
1.0
145
0.0
146
0.71
147
1.0
 71
     0
 72
     0
 73
     0
 74
     0
 75
     0
 76
     0
 77
     3
 78
     8
170
     0
171
     2
172
     0
173
     0
174
     0
175
     0
176
   256
177
   256
178
     4
  0
DIMSTYLE
  2
AM_JIS$6
 70
     0
  3

  4
"
  5

  6

  7

 40
1.0
 41
2.5
 42
1.0
 43
7.0
 44
1.0
 45
0.0
 46
0.0
 47
0.1
 48
0.1000000001
140
2.5
141
0.0
142
0.0
143
0.0393701
144
1.0
145
0.0
146
0.71
147
1.0
 71
     0
 72
     0
 73
     0
 74
     0
 75
     0
 76
     0
 77
     0
 78
     8
170
     0
171
     2
172
     1
173
     0
174
     0
175
     0
176
   256
177
   256
178
     4
  0
DIMSTYLE
  2
AM_JIS$7
 70
     0
  3

  4
"
  5

  6

  7

 40
1.0
 41
2.5
 42
1.0
 43
7.0
 44
1.0
 45
0.0
 46
0.0
 47
0.1
 48
0.1000000001
140
2.5
141
0.0
142
0.0
143
0.0393701
144
1.0
145
0.0
146
0.71
147
1.0
 71
     0
 72
     0
 73
     0
 74
     0
 75
     0
 76
     0
 77
     3
 78
     8
170
     0
171
     2
172
     1
173
     0
174
     0
175
     0
176
   256
177
   256
178
     4
  0
DIMSTYLE
  2
AM_JIS$SF
 70
     0
  3

  4
"
  5

  6

  7

 40
1.0
 41
2.5
 42
1.0
 43
10.0
 44
1.0
 45
0.0
 46
0.0
 47
0.1
 48
0.1
140
3.5
141
0.0
142
0.0
143
0.0393701
144
1.0
145
0.0
146
0.71
147
1.5
 71
     0
 72
     0
 73
     0
 74
     0
 75
     1
 76
     1
 77
     3
 78
     8
170
     0
171
     2
172
     1
173
     0
174
     0
175
     0
176
   256
177
   256
178
     4
  0
DIMSTYLE
  2
AM_JIS$SH
 70
     0
  3

  4
"
  5

  6

  7

 40
1.0
 41
2.5
 42
1.0
 43
10.0
 44
1.0
 45
0.0
 46
0.0
 47
0.1
 48
0.1
140
3.5
141
0.0
142
0.0
143
0.0393701
144
1.0
145
0.0
146
0.71
147
1.5
 71
     0
 72
     0
 73
     0
 74
     0
 75
     1
 76
     0
 77
     3
 78
     8
170
     0
171
     2
172
     1
173
     1
174
     0
175
     0
176
   256
177
   256
178
     4
  0
DIMSTYLE
  2
AM_ANSI
 70
     0
  3

  4
mm
  5

  6

  7

 40
1.0
 41
0.12
 42
0.05
 43
0.5
 44
0.1
 45
0.0
 46
0.0
 47
0.1
 48
0.1
140
0.12
141
0.0
142
0.0
143
25.399999999999999
144
1.0
145
0.0
146
0.71
147
0.06
 71
     0
 72
     0
 73
     1
 74
     1
 75
     0
 76
     0
 77
     0
 78
     7
170
     0
171
     2
172
     0
173
     0
174
     0
175
     0
176
   256
177
   256
178
     2
  0
DIMSTYLE
  2
AM_ANSI$3
 70
     0
  3

  4
mm
  5

  6

  7

 40
1.0
 41
0.12
 42
0.05
 43
0.5
 44
0.1
 45
0.0
 46
0.0
 47
0.1
 48
0.1
140
0.12
141
0.0
142
0.0
143
25.399999999999999
144
1.0
145
0.0
146
0.71
147
0.06
 71
     0
 72
     0
 73
     1
 74
     1
 75
     0
 76
     0
 77
     0
 78
     7
170
     0
171
     2
172
     0
173
     0
174
     0
175
     0
176
   256
177
   256
178
     2
  0
DIMSTYLE
  2
AM_ANSI$4
 70
     0
  3

  4
mm
  5

  6

  7

 40
1.0
 41
0.12
 42
0.05
 43
0.5
 44
0.1
 45
0.0
 46
0.0
 47
0.1
 48
0.1
140
0.12
141
0.0
142
0.0
143
25.399999999999999
144
1.0
145
0.0
146
0.71
147
0.06
 71
     0
 72
     0
 73
     1
 74
     1
 75
     0
 76
     0
 77
     0
 78
     7
170
     0
171
     2
172
     0
173
     0
174
     0
175
     0
176
   256
177
   256
178
     2
  0
DIMSTYLE
  2
AM_ANSI$7
 70
     0
  3

  4
mm
  5

  6

  7

 40
1.0
 41
0.12
 42
0.05
 43
0.5
 44
0.1
 45
0.0
 46
0.0
 47
0.1
 48
0.1
140
0.12
141
0.0
142
0.0
143
25.399999999999999
144
1.0
145
0.0
146
0.71
147
0.06
 71
     0
 72
     0
 73
     1
 74
     1
 75
     0
 76
     0
 77
     0
 78
     7
170
     0
171
     2
172
     0
173
     0
174
     0
175
     0
176
   256
177
   256
178
     2
  0
DIMSTYLE
  2
AM_ANSI$SF
 70
     0
  3

  4
mm
  5

  6

  7

 40
1.0
 41
0.12
 42
0.05
 43
0.5
 44
0.1
 45
0.0
 46
0.0
 47
0.1
 48
0.1
140
0.12
141
0.0
142
0.0
143
25.399999999999999
144
1.0
145
0.0
146
0.71
147
0.06
 71
     0
 72
     0
 73
     1
 74
     1
 75
     1
 76
     1
 77
     0
 78
     7
170
     0
171
     2
172
     0
173
     0
174
     0
175
     0
176
   256
177
   256
178
     2
  0
DIMSTYLE
  2
AM_ANSI$SH
 70
     0
  3

  4
mm
  5

  6
GENAXEH
  7

 40
1.0
 41
0.12
 42
0.05
 43
0.5
 44
0.1
 45
0.0
 46
0.0
 47
0.1
 48
0.1
140
0.12
141
0.0
142
0.0
143
25.399999999999999
144
1.0
145
0.0
146
0.71
147
0.06
 71
     0
 72
     0
 73
     1
 74
     1
 75
     1
 76
     1
 77
     0
 78
     7
170
     0
171
     2
172
     0
173
     1
174
     0
175
     0
176
   256
177
   256
178
     2
  0
ENDTAB
  0
ENDSEC
  0
SECTION
  2
BLOCKS
  0
BLOCK
  8
0
  2
$MODEL_SPACE
 70
     0
 10
0.0
 20
0.0
 30
0.0
  3
$MODEL_SPACE
  1

  0
ENDBLK
  5
7AAE
  8
0
  0
BLOCK
 67
     1
  8
0
  2
$PAPER_SPACE
 70
     0
 10
0.0
 20
0.0
 30
0.0
  3
$PAPER_SPACE
  1

  0
ENDBLK
  5
7AAA
 67
     1
  8
0
  0
BLOCK
  8
0
  2
GENAXEH
 70
     0
 10
0.0
 20
0.0
 30
0.0
  3
GENAXEH
  1

  0
LINE
  5
73
  8
0
 10
-1.0
 20
0.0
 30
0.0
 11
1.0
 21
0.0
 31
0.0
  0
ENDBLK
  5
75
  8
0
  0
BLOCK
  8
0
  2
_OPEN30
 70
     0
 10
0.0
 20
0.0
 30
0.0
  3
_OPEN30
  1

  0
LINE
  5
31A
  8
0
 62
     0
 10
-1.0
 20
0.26794919
 30
0.0
 11
0.0
 21
0.0
 31
0.0
  0
LINE
  5
31B
  8
0
 62
     0
 10
0.0
 20
0.0
 30
0.0
 11
-1.0
 21
-0.26794919
 31
0.0
  0
LINE
  5
31C
  8
0
 62
     0
 10
0.0
 20
0.0
 30
0.0
 11
-1.0
 21
0.0
 31
0.0
  0
ENDBLK
  5
31E
  8
0
  0
BLOCK
  8
0
  2
_NONE
 70
     0
 10
0.0
 20
0.0
 30
0.0
  3
_NONE
  1

  0
ENDBLK
  5
579
  8
0
  0
BLOCK
  8
0
  2
*U5
 70
     1
 10
0.0
 20
0.0
 30
0.0
  3
*U5
  1

  0
TEXT
  5
79B9
  8
AM_0
 10
581.15459900360747
 20
563.18498683592111
 30
0.0
 40
10.0
  1
ＶＸ０４－０６０～１００ＢＷ
 41
0.8299999999999999
  0
ENDBLK
  5
79BB
  8
0
  0
BLOCK
  8
0
  2
_ACMFILLEDHALF
 70
     0
 10
0.0
 20
0.0
 30
0.0
  3
_ACMFILLEDHALF
  1

  0
TRACE
  5
7BAE
  8
AM_0
 62
     0
 10
-0.8
 20
0.0
 30
0.0
 11
-1.0
 21
0.166666666
 31
0.0
 12
0.0
 22
0.0
 32
0.0
 13
0.0
 23
0.0
 33
0.0
  0
LINE
  5
7BAF
  8
AM_0
 62
     0
 10
-1.0
 20
0.0
 30
0.0
 11
-0.8
 21
0.0
 31
0.0
  0
ENDBLK
  5
7BAD
  8
0
  0
ENDSEC
  0
SECTION
  2
ENTITIES
  0
CIRCLE
  5
4054
  8
AM_0
 10
660.98921697739308
 20
289.1544395224646
 30
0.0
 40
33.499999999999893
  0
CIRCLE
  5
4055
  8
AM_0
 10
660.98921697739308
 20
289.1544395224646
 30
0.0
 40
28.49999999999994
  0
LINE
  5
5215
  8
AM_0
 10
461.13417112141332
 20
306.15447052246458
 30
0.0
 11
461.13417112141332
 21
275.15443852246472
 31
0.0
  0
LINE
  5
5216
  8
AM_0
 10
424.13414112141311
 20
303.15447052246458
 30
0.0
 11
461.13417112141332
 21
303.15447052246458
 31
0.0
  0
LINE
  5
5218
  8
AM_0
 10
424.13414112141328
 20
275.15443852246472
 30
0.0
 11
461.13417112141332
 21
275.15443852246472
 31
0.0
  0
LINE
  5
5219
  8
ﾁｭｳｼﾝｾﾝ
 10
314.49312112141342
 20
289.1544395224646
 30
0.0
 11
466.08195112141351
 21
289.1544395224646
 31
0.0
  0
LINE
  5
521A
  8
AM_0
 10
429.13413112141342
 20
306.15447052246458
 30
0.0
 11
461.13417112141332
 21
306.15447052246458
 31
0.0
  0
LINE
  5
521B
  8
AM_0
 10
429.13413112141342
 20
306.15447052246458
 30
0.0
 11
429.13413112141342
 21
303.15447052246458
 31
0.0
  0
LINE
  5
521D
  8
AM_0
 10
656.98921497739309
 20
306.15447052246458
 30
0.0
 11
664.98920097739312
 21
306.15447052246458
 31
0.0
  0
LINE
  5
521E
  8
AM_0
 10
664.98920097739312
 20
299.15443852246477
 30
0.0
 11
664.98920097739312
 21
306.15447052246458
 31
0.0
  0
LINE
  5
521F
  8
AM_0
 10
656.98921497739309
 20
299.15443852246477
 30
0.0
 11
656.98921497739309
 21
306.15447052246458
 31
0.0
  0
LINE
  5
5220
  8
AM_0
 10
656.98921497739309
 20
299.15443852246477
 30
0.0
 11
664.98920097739312
 21
299.15443852246477
 31
0.0
  0
LINE
  5
5221
  8
AM_0
 10
413.13414112141328
 20
200.02742152246461
 30
0.0
 11
413.13414112141328
 21
325.40545552246482
 31
0.0
  0
LINE
  5
5222
  8
AM_0
 10
717.98921697739297
 20
198.1544375224646
 30
0.0
 11
748.98921897739308
 21
198.1544375224646
 31
0.0
  0
LINE
  5
5223
  8
AM_0
 10
570.98921397739309
 20
183.1544525224646
 30
0.0
 11
570.98921397739309
 21
198.1544375224646
 31
0.0
  0
LINE
  5
5224
  8
AM_0
 10
713.9892179773932
 20
185.15443552246461
 30
0.0
 11
607.98924597739313
 21
185.15443552246461
 31
0.0
  0
LINE
  5
5227
  8
AM_0
 10
389.13414112141328
 20
183.1544375224646
 30
0.0
 11
389.13414112141328
 21
183.1544375224646
 31
0.0
  0
LINE
  5
5228
  8
AM_0
 10
334.13418112141352
 20
184.15443652246461
 30
0.0
 11
388.13418112141352
 21
184.15443652246461
 31
0.0
  0
LINE
  5
5229
  8
AM_0
 10
308.13417112141337
 20
198.1544375224646
 30
0.0
 11
333.64848112141351
 21
198.1544375224646
 31
0.0
  0
LINE
  5
522A
  8
AM_0
 10
416.13414112141328
 20
196.1544515224646
 30
0.0
 11
416.13414112141328
 21
183.1544375224646
 31
0.0
  0
LINE
  5
522B
  8
AM_0
 10
306.1341611214134
 20
183.1544375224646
 30
0.0
 11
333.13413112141347
 21
183.1544375224646
 31
0.0
  0
LINE
  5
522C
  8
AM_0
 10
388.13418112141352
 20
198.1544375224646
 30
0.0
 11
414.13413112141347
 21
198.1544375224646
 31
0.0
  0
LINE
  5
5231
  8
AM_0
 10
750.9892109773931
 20
198.1544375224646
 30
0.0
 11
741.37705197739297
 21
275.8940615224646
 31
0.0
  0
LINE
  5
5232
  8
AM_0
 10
570.98918397739305
 20
198.1544375224646
 30
0.0
 11
580.60136697739313
 21
275.8940615224646
 31
0.0
  0
LINE
  5
5233
  8
AM_0
 10
393.13413112141347
 20
320.38771552246459
 30
0.0
 11
401.13414112141328
 21
320.38771552246459
 31
0.0
  0
LINE
  5
5234
  8
AM_0
 10
383.13414112141328
 20
210.7677335224646
 30
0.0
 11
396.13413112141347
 21
210.7677335224646
 31
0.0
  0
LINE
  5
5235
  8
AM_0
 10
702.98921697739308
 20
190.1544515224646
 30
0.0
 11
702.98921697739308
 21
191.1544505224646
 31
0.0
  0
LINE
  5
5236
  8
AM_0
 10
714.98921697739308
 20
203.1544505224646
 30
0.0
 11
714.98921697739308
 21
274.1544395224646
 31
0.0
  0
LINE
  5
5237
  8
AM_0
 10
618.98921397739309
 20
190.1544515224646
 30
0.0
 11
618.98921397739309
 21
191.1544505224646
 31
0.0
  0
LINE
  5
5238
  8
AM_0
 10
383.13414112141328
 20
203.15443552246469
 30
0.0
 11
383.13414112141328
 21
310.38774652246468
 31
0.0
  0
LINE
  5
5239
  8
AM_0
 10
389.13414112141328
 20
183.1544375224646
 30
0.0
 11
416.13414112141328
 21
183.1544375224646
 31
0.0
  0
LINE
  5
523E
  8
AM_0
 10
343.13418112141352
 20
235.62326452246461
 30
0.0
 11
343.13418112141352
 21
270.94310452246469
 31
0.0
  0
LINE
  5
523F
  8
AM_0
 10
405.69837112141317
 20
328.80499552246459
 30
0.0
 11
410.39565112141332
 21
328.39402552246469
 31
0.0
  0
LINE
  5
5240
  8
AM_0
 10
600.98921397739298
 20
236.9544395224647
 30
0.0
 11
600.98921397739298
 21
318.40441552246472
 31
0.0
  0
LINE
  5
5241
  8
AM_0
 10
720.98921697739297
 20
236.9544395224647
 30
0.0
 11
720.98921697739297
 21
318.40441552246472
 31
0.0
  0
LINE
  5
5242
  8
AM_0
 10
606.98921397739309
 20
203.1544505224646
 30
0.0
 11
606.98921397739309
 21
274.1544395224646
 31
0.0
  0
LINE
  5
5243
  8
AM_0
 10
623.98921497739309
 20
196.1544515224646
 30
0.0
 11
697.98921897739319
 21
196.1544515224646
 31
0.0
  0
LINE
  5
5244
  8
AM_0
 10
605.98921497739298
 20
183.1544525224646
 30
0.0
 11
605.98921497739298
 21
196.1544515224646
 31
0.0
  0
LINE
  5
5245
  8
AM_0
 10
605.98921497739298
 20
183.1544525224646
 30
0.0
 11
570.98921397739309
 21
183.1544525224646
 31
0.0
  0
LINE
  5
5246
  8
AM_0
 10
715.989203977393
 20
183.1544525224646
 30
0.0
 11
750.9892109773931
 21
183.1544525224646
 31
0.0
  0
LINE
  5
5247
  8
AM_0
 10
715.989203977393
 20
183.1544525224646
 30
0.0
 11
715.989203977393
 21
196.1544515224646
 31
0.0
  0
LINE
  5
5248
  8
AM_0
 10
750.9892109773931
 20
183.1544525224646
 30
0.0
 11
750.9892109773931
 21
198.1544375224646
 31
0.0
  0
LINE
  5
5249
  8
AM_0
 10
401.13414112141328
 20
215.76774952246461
 30
0.0
 11
401.13414112141328
 21
340.48630552246448
 31
0.0
  0
LINE
  5
524A
  8
AM_0
 10
306.1341611214134
 20
196.1544515224646
 30
0.0
 11
306.1341611214134
 21
183.1544375224646
 31
0.0
  0
LINE
  5
524B
  8
ﾁｭｳｼﾝｾﾝ
 10
604.82331657804764
 20
289.1544395224646
 30
0.0
 11
717.15511737673842
 21
289.1544395224646
 31
0.0
  0
LINE
  5
524C
  8
ﾁｭｳｼﾝｾﾝ
 10
660.98921697739308
 20
179.61970852246461
 30
0.0
 11
660.98921697739308
 21
374.08805320172922
 31
0.0
  0
LINE
  5
524D
  8
ﾁｭｳｼﾝｾﾝ
 10
533.76822172223979
 20
265.95445552246463
 30
0.0
 11
748.4992589773932
 21
265.95445552246463
 31
0.0
  0
LINE
  5
5250
  8
AM_0
 10
603.98921397739309
 20
198.1544375224646
 30
0.0
 11
572.98922397739295
 21
198.1544375224646
 31
0.0
  0
LINE
  5
5251
  8
AM_0
 10
340.13418112141341
 20
346.95445552246463
 30
0.0
 11
396.26505112141342
 21
345.4846355224646
 31
0.0
  0
LINE
  5
5255
  8
AM_0
 10
343.0470311214134
 20
234.69378952246461
 30
0.0
 11
336.59622112141329
 21
200.5967585224646
 31
0.0
  0
LINE
  5
5256
  8
AM_0
 10
333.13413112141347
 20
183.1544375224646
 30
0.0
 11
333.13413112141347
 21
183.1544375224646
 31
0.0
  0
LINE
  5
5257
  8
AM_0
 10
340.13418112141341
 20
346.95445552246463
 30
0.0
 11
340.13418112141341
 21
219.29730652246451
 31
0.0
  0
LINE
  5
5258
  8
AM_0
 10
296.63418112141352
 20
329.45446552246472
 30
0.0
 11
318.72126112141342
 21
330.2257655224646
 31
0.0
  0
LINE
  5
5259
  8
AM_0
 10
296.63418112141352
 20
202.4544545224646
 30
0.0
 11
318.8609711214134
 21
201.6782705224646
 31
0.0
  0
LINE
  5
525A
  8
ﾁｭｳｼﾝｾﾝ
 10
76.129344658530371
 20
265.95445552246463
 30
0.0
 11
318.99735244177879
 21
265.95445552246463
 31
0.0
  0
LINE
  5
525B
  8
AM_0
 10
340.13421112141339
 20
346.95445552246463
 30
0.0
 11
335.0643611214133
 21
346.77742552246463
 31
0.0
  0
LINE
  5
525C
  8
AM_0
 10
319.27722112141339
 20
201.63452452246469
 30
0.0
 11
320.65509112141342
 21
201.3915725224646
 31
0.0
  0
LINE
  5
525D
  8
AM_0
 10
319.41504112141342
 20
330.29863552246462
 30
0.0
 11
320.65509112141342
 21
330.5173055224646
 31
0.0
  0
LINE
  5
525E
  8
AM_0
 10
327.95967112141341
 20
341.77375552246463
 30
0.0
 11
328.60482112141329
 21
341.79628552246459
 31
0.0
  0
LINE
  5
525F
  8
AM_0
 10
323.13417112141337
 20
336.77677552246467
 30
0.0
 11
323.13417112141337
 21
198.1544375224646
 31
0.0
  0
LINE
  5
5260
  8
AM_0
 10
296.63418112141352
 20
317.45446552246477
 30
0.0
 11
323.13417112141337
 21
317.45446552246477
 31
0.0
  0
LINE
  5
5261
  8
AM_0
 10
296.63418112141352
 20
303.10237552246463
 30
0.0
 11
323.13417112141337
 21
303.10237552246463
 31
0.0
  0
LINE
  5
5262
  8
AM_0
 10
296.63418112141352
 20
228.80652052246461
 30
0.0
 11
323.13417112141337
 21
228.80652052246461
 31
0.0
  0
LINE
  5
5263
  8
AM_0
 10
296.63418112141352
 20
214.4544395224647
 30
0.0
 11
323.13417112141337
 21
214.4544395224647
 31
0.0
  0
LINE
  5
5264
  8
AM_0
 10
333.13413112141347
 20
344.77864552246461
 30
0.0
 11
333.13413112141347
 21
322.28854552246457
 31
0.0
  0
LINE
  5
5265
  8
AM_0
 10
325.13418112141352
 20
299.10365752246457
 30
0.0
 11
331.13418112141352
 21
299.10365752246457
 31
0.0
  0
LINE
  5
5266
  8
AM_0
 10
325.13418112141352
 20
320.28853552246483
 30
0.0
 11
331.13418112141352
 21
320.28853552246483
 31
0.0
  0
LINE
  5
5267
  8
AM_0
 10
324.04956112141338
 20
292.62654652246482
 30
0.0
 11
331.13418112141352
 21
292.62654652246482
 31
0.0
  0
LINE
  5
5268
  8
AM_0
 10
325.13418112141352
 20
204.41046352246471
 30
0.0
 11
331.13418112141352
 21
204.41046352246471
 31
0.0
  0
LINE
  5
5269
  8
AM_0
 10
333.13413112141347
 20
297.10365952246462
 30
0.0
 11
333.13413112141347
 21
206.41046452246459
 31
0.0
  0
LINE
  5
526A
  8
AM_0
 10
296.63418112141352
 20
329.45443552246462
 30
0.0
 11
296.63418112141352
 21
202.45439452246461
 31
0.0
  0
LINE
  5
526B
  8
AM_0
 10
375.13413112141347
 20
306.45445852246462
 30
0.0
 11
375.13413112141347
 21
289.1544395224646
 31
0.0
  0
LINE
  5
526C
  8
AM_0
 10
570.98921397739309
 20
198.1544375224646
 30
0.0
 11
578.78035197739314
 21
305.36412652246457
 31
0.0
  0
LINE
  5
526D
  8
AM_0
 10
734.79511197739305
 20
318.30844552246458
 30
0.0
 11
699.23609097739313
 21
337.35595552246463
 31
0.0
  0
LINE
  5
526E
  8
AM_0
 10
750.9892109773931
 20
198.1544375224646
 30
0.0
 11
743.19806697739295
 21
305.36412652246457
 31
0.0
  0
LINE
  5
526F
  8
AM_0
 10
587.18333697739308
 20
318.30847552246462
 30
0.0
 11
622.74232797739307
 21
337.35598552246478
 31
0.0
  0
ARC
  5
5353
  8
AM_0
 10
660.98921697739308
 20
289.1544395224646
 30
0.0
 40
14.000001299999999
 50
106.6015400000021
 51
73.398451999998059
  0
CIRCLE
  5
5354
  8
AM_5
 10
660.98921697739308
 20
289.1544395224646
 30
0.0
 40
4.0000001999999979
  0
CIRCLE
  5
5355
  8
AM_0
 10
660.98921697739308
 20
289.1544395224646
 30
0.0
 40
3.0
  0
ARC
  5
5356
  8
AM_0
 10
396.13413112141347
 20
340.48630552246448
 30
0.0
 40
5.0000001000000003
 50
0.0
 51
88.499997000000747
  0
ARC
  5
5357
  8
AM_0
 10
715.989203977393
 20
318.40441552246472
 30
0.0
 40
5.0000001000000003
 50
0.0
 51
43.640500000001239
  0
ARC
  5
5358
  8
AM_0
 10
660.98921697739308
 20
265.95445552246463
 30
0.0
 40
81.000003000000007
 50
7.0485985999995844
 51
172.95139999999981
  0
ARC
  5
5359
  8
AM_0
 10
748.98921897739308
 20
196.1544515224646
 30
0.0
 40
2.00000007
 50
0.0
 51
90.00000299999769
  0
ARC
  5
535A
  8
AM_0
 10
406.13418112141329
 20
333.78598552246473
 30
0.0
 40
5.0000001000000003
 50
179.9999899999998
 51
265.00000000000028
  0
ARC
  5
535B
  8
AM_0
 10
613.98924597739313
 20
190.1544515224646
 30
0.0
 40
5.0000001000000003
 50
270.0
 51
0.0
  0
ARC
  5
535C
  8
AM_0
 10
607.98924597739313
 20
183.1544525224646
 30
0.0
 40
2.00000007
 50
90.00000299999769
 51
180.0000100000002
  0
ARC
  5
535D
  8
AM_0
 10
603.98921397739309
 20
196.1544515224646
 30
0.0
 40
2.00000007
 50
0.0
 51
90.00000299999769
  0
ARC
  5
535E
  8
AM_0
 10
707.98921797739297
 20
190.1544515224646
 30
0.0
 40
5.0000001000000003
 50
179.9999899999998
 51
270.0
  0
ARC
  5
535F
  8
AM_0
 10
572.98922397739295
 20
196.1544515224646
 30
0.0
 40
2.00000007
 50
90.00000299999769
 51
180.0000100000002
  0
ARC
  5
5360
  8
AM_0
 10
396.13413112141347
 20
215.76774952246461
 30
0.0
 40
5.0000001000000003
 50
270.0
 51
0.0
  0
ARC
  5
5361
  8
AM_0
 10
388.13418112141352
 20
203.15443552246469
 30
0.0
 40
5.0000001000000003
 50
179.9999899999998
 51
270.0
  0
ARC
  5
5362
  8
AM_0
 10
605.98921497739298
 20
318.40441552246472
 30
0.0
 40
5.0000001000000003
 50
136.35948999999869
 51
180.0000100000002
  0
ARC
  5
5363
  8
AM_0
 10
660.98921697739308
 20
274.1544395224646
 30
0.0
 40
54.000003000000007
 50
0.0
 51
180.0000100000002
  0
ARC
  5
5364
  8
AM_0
 10
410.13414112141328
 20
325.40545552246482
 30
0.0
 40
3.0
 50
0.0
 51
84.999996999998729
  0
ARC
  5
5365
  8
AM_0
 10
334.13418112141352
 20
183.1544375224646
 30
0.0
 40
1.0000000199999981
 50
90.00000299999769
 51
180.0000100000002
  0
ARC
  5
5366
  8
AM_0
 10
333.64848112141351
 20
201.1544375224646
 30
0.0
 40
3.0
 50
270.0
 51
349.28687999999983
  0
ARC
  5
5367
  8
AM_0
 10
414.13413112141347
 20
196.1544515224646
 30
0.0
 40
2.00000007
 50
0.0
 51
90.00000299999769
  0
ARC
  5
5368
  8
AM_0
 10
308.13417112141337
 20
196.1544515224646
 30
0.0
 40
2.00000007
 50
90.00000299999769
 51
180.0000100000002
  0
ARC
  5
5369
  8
AM_0
 10
660.98921697739308
 20
236.9544395224647
 30
0.0
 40
60.000002999999992
 50
334.15806999999887
 51
0.0
  0
ARC
  5
536A
  8
AM_0
 10
660.98921697739308
 20
236.9544395224647
 30
0.0
 40
60.000002999999992
 50
180.0000100000002
 51
205.8419300000011
  0
ARC
  5
536B
  8
AM_0
 10
393.13413112141347
 20
310.38774652246468
 30
0.0
 40
10.000000200000001
 50
90.00000299999769
 51
180.0000100000002
  0
ARC
  5
536C
  8
AM_0
 10
717.98921697739297
 20
196.1544515224646
 30
0.0
 40
2.00000007
 50
90.00000299999769
 51
180.0000100000002
  0
ARC
  5
536D
  8
AM_0
 10
713.9892179773932
 20
183.1544525224646
 30
0.0
 40
2.00000007
 50
0.0
 51
90.00000299999769
  0
ARC
  5
536E
  8
AM_0
 10
697.98921897739319
 20
191.1544505224646
 30
0.0
 40
5.0000001000000003
 50
0.0
 51
90.00000299999769
  0
ARC
  5
5370
  8
AM_0
 10
623.98921497739309
 20
191.1544505224646
 30
0.0
 40
5.0000001000000003
 50
90.00000299999769
 51
180.0000100000002
  0
ARC
  5
5371
  8
AM_0
 10
415.13418112141341
 20
200.02742152246461
 30
0.0
 40
2.00000007
 50
179.9999899999998
 51
255.52248999999699
  0
ARC
  5
5372
  8
AM_0
 10
660.98921697739308
 20
265.95444052246472
 30
0.0
 40
81.000003000000007
 50
265.9727499999974
 51
274.02725000000248
  0
ARC
  5
5373
  8
AM_0
 10
601.98924597739313
 20
203.1544505224646
 30
0.0
 40
5.0000001000000003
 50
270.0
 51
0.0
  0
ARC
  5
5374
  8
AM_0
 10
719.98921797739308
 20
203.1544505224646
 30
0.0
 40
5.0000001000000003
 50
179.9999899999998
 51
270.0
  0
ARC
  5
5376
  8
AM_0
 10
414.13413112141347
 20
319.20715552246469
 30
0.0
 40
1.0000000199999981
 50
179.9999899999998
 51
270.00057295777901
  0
ARC
  5
5378
  8
AM_0
 10
414.13413112141347
 20
259.10172052246457
 30
0.0
 40
1.0000000199999981
 50
89.999427042250289
 51
180.0000100000002
  0
ARC
  5
5379
  8
AM_0
 10
338.13414112141351
 20
235.62326452246461
 30
0.0
 40
5.0000001000000003
 50
349.28687999999983
 51
0.0
  0
ARC
  5
537A
  8
AM_0
 10
388.13418112141352
 20
183.1544375224646
 30
0.0
 40
1.0000000199999981
 50
0.0
 51
90.00000299999769
  0
ARC
  5
537B
  8
AM_0
 10
318.54678112141352
 20
335.22271552246463
 30
0.0
 40
5.0000001000000003
 50
271.9999999999971
 51
279.99999999999852
  0
ARC
  5
537C
  8
AM_0
 10
318.75630112141329
 20
198.6801185224646
 30
0.0
 40
3.0
 50
79.999998000000929
 51
88.000000000002842
  0
ARC
  5
537D
  8
AM_0
 10
320.13417112141337
 20
198.4371515224646
 30
0.0
 40
3.0
 50
0.0
 51
79.999998000000929
  0
ARC
  5
537E
  8
AM_0
 10
328.43037112141337
 20
346.79323552246461
 30
0.0
 40
5.0000001000000003
 50
271.9999999999971
 51
343.27365999999847
  0
ARC
  5
537F
  8
AM_0
 10
335.13414112141339
 20
344.77864552246461
 30
0.0
 40
2.00000007
 50
91.999998000000545
 51
163.27364999999961
  0
ARC
  5
5380
  8
AM_0
 10
320.13417112141337
 20
333.47176552246458
 30
0.0
 40
3.0
 50
279.99999999999852
 51
0.0
  0
ARC
  5
5381
  8
AM_0
 10
328.13418112141352
 20
336.77677552246467
 30
0.0
 40
5.0000001000000003
 50
91.999998000000545
 51
180.0000100000002
  0
ARC
  5
5382
  8
AM_0
 10
331.13418112141352
 20
206.41046452246459
 30
0.0
 40
2.00000007
 50
270.0
 51
0.0
  0
ARC
  5
5383
  8
AM_0
 10
325.13418112141352
 20
202.41048052246461
 30
0.0
 40
2.00000007
 50
90.00000299999769
 51
180.0000100000002
  0
ARC
  5
5384
  8
AM_0
 10
325.13418112141352
 20
301.10365852246463
 30
0.0
 40
2.00000007
 50
179.9999899999998
 51
270.0
  0
ARC
  5
5385
  8
AM_0
 10
325.13418112141352
 20
318.28852552246462
 30
0.0
 40
2.00000007
 50
90.00000299999769
 51
180.0000100000002
  0
ARC
  5
5386
  8
AM_0
 10
331.13418112141352
 20
322.28854552246457
 30
0.0
 40
2.00000007
 50
270.0
 51
0.0
  0
ARC
  5
5387
  8
AM_0
 10
331.13418112141352
 20
297.10365952246462
 30
0.0
 40
2.00000007
 50
0.0
 51
90.00000299999769
  0
ARC
  5
5388
  8
AM_0
 10
331.13418112141352
 20
290.62654552246482
 30
0.0
 40
2.00000007
 50
0.0
 51
90.00000299999769
  0
ARC
  5
5389
  8
AM_0
 10
594.73826997739309
 20
304.20445852246462
 30
0.0
 40
16.000000499999999
 50
118.1761400000033
 51
175.8435099999997
  0
ARC
  5
538A
  8
AM_0
 10
727.24016397739308
 20
304.20445852246462
 30
0.0
 40
16.000000499999999
 50
4.1564915999999901
 51
61.82385999999665
  0
POLYLINE
  5
542A
  8
AM_0
 66
     1
 10
0.0
 20
0.0
 30
0.0
  0
VERTEX
  5
542B
  8
AM_0
  6
CONTINUOUS
 10
343.13412112141339
 20
198.1544375224646
 30
0.0
 42
0.12791153
  0
VERTEX
  5
542C
  8
AM_0
  6
CONTINUOUS
 10
349.2282311214135
 20
199.8198545224646
 30
0.0
 42
0.075873116
  0
VERTEX
  5
542D
  8
AM_0
  6
CONTINUOUS
 10
354.20961112141327
 20
203.7787535224646
 30
0.0
 42
0.04391337
  0
VERTEX
  5
542E
  8
AM_0
  6
CONTINUOUS
 10
358.15038112141332
 20
208.79586952246461
 30
0.0
 42
0.028464649
  0
VERTEX
  5
542F
  8
AM_0
  6
CONTINUOUS
 10
361.34253112141351
 20
214.3224935224647
 30
0.0
 42
0.020370658
  0
VERTEX
  5
5430
  8
AM_0
  6
CONTINUOUS
 10
363.98925112141342
 20
220.1348405224646
 30
0.0
 42
0.01565625
  0
VERTEX
  5
5431
  8
AM_0
  6
CONTINUOUS
 10
366.21426112141341
 20
226.1214605224647
 30
0.0
 42
0.012688908
  0
VERTEX
  5
5432
  8
AM_0
  6
CONTINUOUS
 10
368.09865112141341
 20
232.2245615224646
 30
0.0
 42
0.010707695
  0
VERTEX
  5
5433
  8
AM_0
  6
CONTINUOUS
 10
369.69696112141349
 20
238.40998552246469
 30
0.0
 42
0.009324549
  0
VERTEX
  5
5434
  8
AM_0
  6
CONTINUOUS
 10
371.0469011214135
 20
244.6539035224645
 30
0.0
 42
0.0083349477
  0
VERTEX
  5
5435
  8
AM_0
  6
CONTINUOUS
 10
372.17628112141341
 20
250.9429055224646
 30
0.0
 42
0.0076122067
  0
VERTEX
  5
5436
  8
AM_0
  6
CONTINUOUS
 10
373.1049611214134
 20
257.26507852246448
 30
0.0
 42
0.0070829649
  0
VERTEX
  5
5437
  8
AM_0
  6
CONTINUOUS
 10
373.84770112141342
 20
263.61183952246461
 30
0.0
 42
0.0067007814
  0
VERTEX
  5
5438
  8
AM_0
  6
CONTINUOUS
 10
374.41548112141339
 20
269.97688852246472
 30
0.0
 42
0.0064353086
  0
VERTEX
  5
5439
  8
AM_0
  6
CONTINUOUS
 10
374.81601112141328
 20
276.35487652246462
 30
0.0
 42
0.0062673647
  0
VERTEX
  5
543A
  8
AM_0
  6
CONTINUOUS
 10
375.0545711214134
 20
282.74102752246472
 30
0.0
 42
0.0061857305
  0
VERTEX
  5
543B
  8
AM_0
  6
CONTINUOUS
 10
375.13413112141347
 20
289.13102152246478
 30
0.0
  0
SEQEND
  5
543C
  8
AM_0
  0
POLYLINE
  5
543D
  8
AM_0
 66
     1
 10
0.0
 20
0.0
 30
0.0
  0
VERTEX
  5
543E
  8
AM_0
  6
CONTINUOUS
 10
375.13413112141347
 20
306.45445552246463
 30
0.0
 42
0.029628731
  0
VERTEX
  5
543F
  8
AM_0
  6
CONTINUOUS
 10
374.94249112141352
 20
309.68374852246473
 30
0.0
 42
0.029327543
  0
VERTEX
  5
5440
  8
AM_0
  6
CONTINUOUS
 10
374.37279112141351
 20
312.86468752246458
 30
0.0
 42
0.028837186
  0
VERTEX
  5
5441
  8
AM_0
  6
CONTINUOUS
 10
373.43694112141333
 20
315.96040552246461
 30
0.0
 42
0.028139479
  0
VERTEX
  5
5442
  8
AM_0
  6
CONTINUOUS
 10
372.15456112141328
 20
318.9309455224647
 30
0.0
 42
0.027280614
  0
VERTEX
  5
5443
  8
AM_0
  6
CONTINUOUS
 10
370.55208112141332
 20
321.74035552246482
 30
0.0
 42
0.026363464
  0
VERTEX
  5
5444
  8
AM_0
  6
CONTINUOUS
 10
368.65746112141352
 20
324.36277552246457
 30
0.0
 42
0.025439158
  0
VERTEX
  5
5445
  8
AM_0
  6
CONTINUOUS
 10
366.4998911214135
 20
326.77738552246473
 30
0.0
 42
0.024503424
  0
VERTEX
  5
5446
  8
AM_0
  6
CONTINUOUS
 10
364.11348112141337
 20
328.96390552246459
 30
0.0
 42
0.023638789
  0
VERTEX
  5
5447
  8
AM_0
  6
CONTINUOUS
 10
361.52793112141342
 20
330.91102552246468
 30
0.0
 42
0.022857682
  0
VERTEX
  5
5448
  8
AM_0
  6
CONTINUOUS
 10
358.77267112141328
 20
332.60983552246472
 30
0.0
 42
0.022175457
  0
VERTEX
  5
5449
  8
AM_0
  6
CONTINUOUS
 10
355.8756011214133
 20
334.05415552246461
 30
0.0
 42
0.021601125
  0
VERTEX
  5
544A
  8
AM_0
  6
CONTINUOUS
 10
352.8631811214135
 20
335.23984552246458
 30
0.0
 42
0.021139333
  0
VERTEX
  5
544B
  8
AM_0
  6
CONTINUOUS
 10
349.76034112141349
 20
336.16420552246461
 30
0.0
 42
0.020791974
  0
VERTEX
  5
544C
  8
AM_0
  6
CONTINUOUS
 10
346.59093112141329
 20
336.82555552246458
 30
0.0
 42
0.020559394
  0
VERTEX
  5
544D
  8
AM_0
  6
CONTINUOUS
 10
343.3778111214134
 20
337.22296552246462
 30
0.0
 42
0.020441745
  0
VERTEX
  5
544E
  8
AM_0
  6
CONTINUOUS
 10
340.1431511214135
 20
337.35595552246463
 30
0.0
  0
SEQEND
  5
544F
  8
AM_0
  0
POLYLINE
  5
5450
  8
AM_0
 66
     1
 10
0.0
 20
0.0
 30
0.0
  0
VERTEX
  5
5451
  8
AM_0
  6
CONTINUOUS
 10
373.2131711214135
 20
308.33319052246469
 30
0.0
 42
0.032705737
  0
VERTEX
  5
5452
  8
AM_0
  6
CONTINUOUS
 10
371.26704112141329
 20
309.08170552246457
 30
0.0
 42
0.016814103
  0
VERTEX
  5
5453
  8
AM_0
  6
CONTINUOUS
 10
369.25620112141348
 20
309.6439025224646
 30
0.0
 42
0.010836057
  0
VERTEX
  5
5454
  8
AM_0
  6
CONTINUOUS
 10
367.21680112141343
 20
310.09674052246459
 30
0.0
 42
0.007863161
  0
VERTEX
  5
5455
  8
AM_0
  6
CONTINUOUS
 10
365.16243112141342
 20
310.47386452246462
 30
0.0
 42
0.0061455438
  0
VERTEX
  5
5456
  8
AM_0
  6
CONTINUOUS
 10
363.09816112141351
 20
310.79375152246467
 30
0.0
 42
0.0050541015
  0
VERTEX
  5
5457
  8
AM_0
  6
CONTINUOUS
 10
361.02651112141331
 20
311.06765752246469
 30
0.0
 42
0.0043145835
  0
VERTEX
  5
5458
  8
AM_0
  6
CONTINUOUS
 10
358.94877112141342
 20
311.30299252246482
 30
0.0
 42
0.0037842963
  0
VERTEX
  5
5459
  8
AM_0
  6
CONTINUOUS
 10
356.86962112141327
 20
311.50452952246468
 30
0.0
 42
0.003403486
  0
VERTEX
  5
545A
  8
AM_0
  6
CONTINUOUS
 10
354.78558112141337
 20
311.6763965224647
 30
0.0
 42
0.0031173927
  0
VERTEX
  5
545B
  8
AM_0
  6
CONTINUOUS
 10
352.69908112141343
 20
311.82114352246469
 30
0.0
 42
0.0029018743
  0
VERTEX
  5
545C
  8
AM_0
  6
CONTINUOUS
 10
350.61099112141352
 20
311.94079252246462
 30
0.0
 42
0.0027404553
  0
VERTEX
  5
545D
  8
AM_0
  6
CONTINUOUS
 10
348.52167112141319
 20
312.03690052246458
 30
0.0
 42
0.0026217012
  0
VERTEX
  5
545E
  8
AM_0
  6
CONTINUOUS
 10
346.43136112141332
 20
312.11061652246462
 30
0.0
 42
0.0025380412
  0
VERTEX
  5
545F
  8
AM_0
  6
CONTINUOUS
 10
344.34036112141331
 20
312.1627745224647
 30
0.0
 42
0.0024845601
  0
VERTEX
  5
5460
  8
AM_0
  6
CONTINUOUS
 10
342.24897112141332
 20
312.19394452246462
 30
0.0
 42
0.002458447
  0
VERTEX
  5
5461
  8
AM_0
  6
CONTINUOUS
 10
340.15728112141352
 20
312.2044475224647
 30
0.0
  0
SEQEND
  5
5462
  8
AM_0
  0
LINE
  5
587A
  8
AM_0
 10
419.13414112141322
 20
322.6544395224646
 30
0.0
 11
424.13414112141311
 21
317.65443952246483
 31
0.0
  0
LINE
  5
587B
  8
AM_0
 10
414.63414112141328
 20
322.6544395224646
 30
0.0
 11
419.13414112141328
 21
322.6544395224646
 31
0.0
  0
LINE
  5
587C
  8
AM_0
 10
414.13414112141322
 20
322.1544395224646
 30
0.0
 11
414.13414112141288
 21
256.15443952246511
 31
0.0
  0
LINE
  5
587D
  8
AM_0
 10
424.13414112141311
 20
317.65443952246483
 30
0.0
 11
424.13414112141328
 21
260.65443952246471
 31
0.0
  0
LINE
  5
587E
  8
AM_0
 10
414.63414112141328
 20
255.6544395224646
 30
0.0
 11
419.13414112141322
 21
255.6544395224646
 31
0.0
  0
LINE
  5
587F
  8
AM_0
 10
419.13414112141322
 20
255.6544395224646
 30
0.0
 11
424.13414112141328
 21
260.65443952246471
 31
0.0
  0
LINE
  5
5880
  8
AM_0
 10
414.63414112141328
 20
322.6544395224646
 30
0.0
 11
414.13414112141322
 21
322.1544395224646
 31
0.0
1001
GENIUS_GENFIL_13
1070
     0
1040
0.5
1040
0.5
1040
20.0
1040
0.0
1002
{
1002
}
1001
GENIUS_GENOBJ-N-CHA_13
1002
{
1000
OWNER
1000
GEN
1002
}
1001
GENIUS_GENODEF_13
1002
{
1000
HIER
1070
     0
1002
}
1002
{
1000
MANEDIT
1070
     0
1002
}
1002
{
1000
NOSEL
1070
     0
1002
}
1002
{
1000
BEHIND
1070
     0
1002
}
1002
{
1000
OTHER
1070
     0
1002
}
1002
{
1000
REACTOR
1002
}
  0
LINE
  5
5881
  8
AM_0
 10
414.13414112141322
 20
256.1544395224646
 30
0.0
 11
414.63414112141328
 21
255.6544395224646
 31
0.0
1001
GENIUS_GENFIL_13
1070
     0
1040
0.5
1040
0.5
1040
20.0
1040
0.0
1002
{
1002
}
1001
GENIUS_GENOBJ-N-CHA_13
1002
{
1000
OWNER
1000
GEN
1002
}
1001
GENIUS_GENODEF_13
1002
{
1000
HIER
1070
     0
1002
}
1002
{
1000
MANEDIT
1070
     0
1002
}
1002
{
1000
NOSEL
1070
     0
1002
}
1002
{
1000
BEHIND
1070
     0
1002
}
1002
{
1000
OTHER
1070
     0
1002
}
1002
{
1000
REACTOR
1002
}
  0
LINE
  5
588B
  8
AM_0
 10
419.13414112141328
 20
322.6544395224646
 30
0.0
 11
419.13414112141322
 21
255.6544395224646
 31
0.0
  0
LINE
  5
588D
  8
ﾁｭｳｼﾝｾﾝ1
 10
735.98920497739323
 20
202.69989352246461
 30
0.0
 11
735.98920497739323
 21
178.6089815224646
 31
0.0
  0
LINE
  5
588E
  8
ｶｸﾚｾﾝ2
 10
729.98918997739315
 20
198.1544375224646
 30
0.0
 11
729.98918997739315
 21
183.1544525224646
 31
0.0
  0
LINE
  5
588F
  8
ｶｸﾚｾﾝ2
 10
741.98920497739323
 20
198.1544375224646
 30
0.0
 11
741.98920497739289
 21
183.1544525224646
 31
0.0
  0
LINE
  5
5890
  8
ﾁｭｳｼﾝｾﾝ1
 10
585.98921397739309
 20
202.69989352246461
 30
0.0
 11
585.98921397739309
 21
178.6089815224646
 31
0.0
  0
LINE
  5
5891
  8
ｶｸﾚｾﾝ2
 10
579.98919897739324
 20
198.1544375224646
 30
0.0
 11
579.98919897739324
 21
183.1544525224646
 31
0.0
  0
LINE
  5
5892
  8
ｶｸﾚｾﾝ2
 10
591.98921397739309
 20
198.1544375224646
 30
0.0
 11
591.98921397739309
 21
183.1544525224646
 31
0.0
  0
LINE
  5
5893
  8
ﾁｭｳｼﾝｾﾝ1
 10
321.1341611214134
 20
202.69989352246461
 30
0.0
 11
321.1341611214134
 21
178.6089815224646
 31
0.0
  0
LINE
  5
5894
  8
ｶｸﾚｾﾝ2
 10
315.13414612141361
 20
198.1544375224646
 30
0.0
 11
315.13414612141361
 21
183.1544375224646
 31
0.0
  0
LINE
  5
5895
  8
ｶｸﾚｾﾝ2
 10
327.1341611214134
 20
198.1544375224646
 30
0.0
 11
327.1341611214134
 21
183.1544375224646
 31
0.0
  0
LINE
  5
5896
  8
ﾁｭｳｼﾝｾﾝ1
 10
401.13411112141341
 20
202.69989352246461
 30
0.0
 11
401.13411112141341
 21
178.6089815224646
 31
0.0
  0
LINE
  5
5897
  8
ｶｸﾚｾﾝ2
 10
395.13409612141368
 20
198.1544375224646
 30
0.0
 11
395.13409612141351
 21
183.1544375224646
 31
0.0
  0
LINE
  5
5898
  8
ｶｸﾚｾﾝ2
 10
407.13411112141341
 20
198.1544375224646
 30
0.0
 11
407.13411112141341
 21
183.1544375224646
 31
0.0
  0
LINE
  5
5950
  8
AM_0
 10
545.98921697739286
 20
219.95258609487709
 30
0.0
 11
572.64096386716915
 21
220.88328560456739
 31
0.0
  0
LINE
  5
5953
  8
AM_0
 10
580.14285935198404
 20
310.7599146222106
 30
0.0
 11
545.98921697739286
 21
311.95258609487729
 31
0.0
  0
LINE
  5
5955
  8
AM_0
 10
545.98921697739286
 20
311.95258609487729
 30
0.0
 11
545.98921697739286
 21
219.95258609487689
 31
0.0
  0
LINE
  5
5956
  8
ﾁｭｳｼﾝｾﾝ1
 10
534.98921697739274
 20
224.9525860948778
 30
0.0
 11
550.8167399899296
 21
224.95258609487769
 31
0.0
  0
LINE
  5
5957
  8
AM_0
 10
541.98921697739286
 20
311.95258609487729
 30
0.0
 11
541.98921697739286
 21
291.13808119534468
 31
0.0
  0
LINE
  5
5958
  8
AM_0
 10
541.98921697739286
 20
240.7670909944095
 30
0.0
 11
541.98921697739286
 21
219.95258609487789
 31
0.0
  0
LINE
  5
5959
  8
AM_0
 10
537.98921697739286
 20
305.81680442571661
 30
0.0
 11
537.98921697739286
 21
226.08836776403771
 31
0.0
  0
LINE
  5
595A
  8
AM_0
 10
539.93027946526513
 20
228.8599410671842
 30
0.0
 11
540.98921697739297
 21
228.95258609487769
 31
0.0
  0
LINE
  5
595B
  8
AM_0
 10
539.93027946526513
 20
221.04523112257129
 30
0.0
 11
540.98921697739297
 21
220.95258609487769
 31
0.0
  0
ARC
  5
595C
  8
AM_0
 10
544.38921697739295
 20
224.95258609487769
 30
0.0
 40
6.5
 50
151.82726586813479
 51
208.1727341318651
  0
ARC
  5
595D
  8
AM_0
 10
540.06972865366163
 20
222.63914263951801
 30
0.0
 40
1.6000000000000001
 50
208.1727341318651
 51
265.00000000000028
  0
LINE
  5
595E
  8
AM_0
 10
538.30974331596485
 20
227.2525860948777
 30
0.0
 11
540.59930299476025
 21
224.95258609487769
 31
0.0
  0
LINE
  5
595F
  8
AM_0
 10
540.28921697739293
 20
225.26408609487771
 30
0.0
 11
540.28921697739293
 21
224.64108609487769
 31
0.0
  0
LINE
  5
5960
  8
AM_0
 10
538.30974331596485
 20
222.65258609487771
 30
0.0
 11
540.59930299476025
 21
224.95258609487769
 31
0.0
  0
LINE
  5
5961
  8
AM_0
 10
537.89668528705829
 20
225.26408609487771
 30
0.0
 11
540.28921697739293
 21
225.26408609487771
 31
0.0
  0
LINE
  5
5962
  8
AM_0
 10
537.89668528705829
 20
224.64108609487769
 30
0.0
 11
540.28921697739293
 21
224.64108609487769
 31
0.0
  0
ARC
  5
5963
  8
AM_0
 10
540.06972865366163
 20
227.26602955023739
 30
0.0
 40
1.6000000000000001
 50
94.99999999999973
 51
151.82726586813479
  0
LINE
  5
5964
  8
AM_0
 10
541.98921697739286
 20
311.95258609487729
 30
0.0
 11
545.98921697739286
 21
311.95258609487729
 31
0.0
  0
LINE
  5
5965
  8
AM_0
 10
540.98921697739274
 20
310.95258609487701
 30
0.0
 11
541.98921697739297
 21
311.95258609487729
 31
0.0
  0
LINE
  5
5966
  8
AM_0
 10
545.98921697739286
 20
219.95258609487689
 30
0.0
 11
541.98921697739286
 21
219.95258609487789
 31
0.0
  0
LINE
  5
5967
  8
AM_0N
 10
541.98921697739286
 20
228.75258609487781
 30
0.0
 11
540.98921697739297
 21
228.75258609487781
 31
0.0
  0
LINE
  5
5968
  8
AM_0N
 10
540.98921697739297
 20
225.15258609487779
 30
0.0
 11
541.98921697739286
 21
225.5165563291439
 31
0.0
  0
LINE
  5
5969
  8
AM_0N
 10
540.98921697739297
 20
224.75258609487781
 30
0.0
 11
541.98921697739286
 21
225.11655632914389
 31
0.0
  0
LINE
  5
596A
  8
AM_0N
 10
540.98921697739297
 20
220.95258609487769
 30
0.0
 11
540.98921697739297
 21
228.95258609487769
 31
0.0
  0
LINE
  5
596B
  8
AM_0N
 10
540.98921697739297
 20
221.15258609487779
 30
0.0
 11
541.98921697739286
 21
221.15258609487779
 31
0.0
  0
LINE
  5
596C
  8
AM_0
 10
537.98921697739286
 20
240.76709099440939
 30
0.0
 11
541.98921697739286
 21
240.7670909944095
 31
0.0
  0
LINE
  5
596D
  8
AM_0
 10
541.98921697739286
 20
239.11023674491699
 30
0.0
 11
537.98921697739286
 21
240.76709099440939
 31
0.0
  0
LINE
  5
596E
  8
AM_0
 10
537.98921697739286
 20
291.13808119534468
 30
0.0
 11
541.98921697739286
 21
291.13808119534468
 31
0.0
  0
LINE
  5
596F
  8
AM_0
 10
541.98921697739286
 20
292.79493544483728
 30
0.0
 11
537.98921697739286
 21
291.13808119534468
 31
0.0
  0
LINE
  5
5970
  8
ﾁｭｳｼﾝｾﾝ1
 10
534.98921697739286
 20
306.95258609487638
 30
0.0
 11
550.8167399899296
 21
306.95258609487661
 31
0.0
  0
LINE
  5
5971
  8
AM_0
 10
539.93027946526513
 20
303.0452311225701
 30
0.0
 11
540.98921697739297
 21
302.95258609487661
 31
0.0
  0
LINE
  5
5972
  8
AM_0
 10
539.93027946526513
 20
310.85994106718289
 30
0.0
 11
540.98921697739297
 21
310.95258609487661
 31
0.0
  0
ARC
  5
5973
  8
AM_0
 10
544.38921697739295
 20
306.95258609487661
 30
0.0
 40
6.5
 50
151.82726586813479
 51
208.1727341318651
  0
ARC
  5
5974
  8
AM_0
 10
540.06972865366163
 20
309.26602955023623
 30
0.0
 40
1.6000000000000001
 50
94.99999999999973
 51
151.82726586813479
  0
LINE
  5
5975
  8
AM_0
 10
538.30974331596485
 20
304.6525860948766
 30
0.0
 11
540.59930299476025
 21
306.95258609487661
 31
0.0
  0
LINE
  5
5976
  8
AM_0
 10
540.28921697739293
 20
306.64108609487653
 30
0.0
 11
540.28921697739293
 21
307.26408609487657
 31
0.0
  0
LINE
  5
5977
  8
AM_0
 10
538.30974331596485
 20
309.25258609487651
 30
0.0
 11
540.59930299476025
 21
306.95258609487661
 31
0.0
  0
LINE
  5
5978
  8
AM_0
 10
537.89668528705829
 20
306.64108609487653
 30
0.0
 11
540.28921697739293
 21
306.64108609487653
 31
0.0
  0
LINE
  5
5979
  8
AM_0
 10
537.89668528705829
 20
307.26408609487657
 30
0.0
 11
540.28921697739293
 21
307.26408609487657
 31
0.0
  0
ARC
  5
597A
  8
AM_0
 10
540.06972865366163
 20
304.63914263951688
 30
0.0
 40
1.6000000000000001
 50
208.1727341318651
 51
265.00000000000028
  0
LINE
  5
597B
  8
AM_0N
 10
541.98921697739286
 20
303.15258609487648
 30
0.0
 11
540.98921697739297
 21
303.15258609487648
 31
0.0
  0
LINE
  5
597C
  8
AM_0N
 10
540.98921697739297
 20
306.75258609487651
 30
0.0
 11
541.98921697739286
 21
306.38861586061029
 31
0.0
  0
LINE
  5
597D
  8
AM_0N
 10
540.98921697739297
 20
307.15258609487648
 30
0.0
 11
541.98921697739286
 21
306.78861586061032
 31
0.0
  0
LINE
  5
597E
  8
AM_0N
 10
540.98921697739297
 20
310.95258609487661
 30
0.0
 11
540.98921697739297
 21
302.95258609487661
 31
0.0
  0
LINE
  5
597F
  8
AM_0N
 10
540.98921697739297
 20
310.75258609487651
 30
0.0
 11
541.98921697739286
 21
310.75258609487651
 31
0.0
  0
LINE
  5
5F93
  8
ﾁｭｳｼﾝｾﾝ1
 10
156.65068395583791
 20
280.95449002246471
 30
0.0
 11
194.6341711214136
 21
280.95449002246471
 31
0.0
  0
LINE
  5
5F94
  8
AM_0
 10
142.13418112141341
 20
323.39693633427311
 30
0.0
 11
142.13418112141341
 21
247.6729911150457
 31
0.0
  0
LINE
  5
5F95
  8
AM_0
 10
186.6341711214136
 20
219.60449602246459
 30
0.0
 11
151.63416112141351
 21
221.63449702246459
 31
0.0
  0
LINE
  5
5F96
  8
AM_0
 10
186.6341711214136
 20
312.30450502246458
 30
0.0
 11
151.63416112141351
 21
310.27449502246458
 31
0.0
  0
LINE
  5
5F97
  8
AM_0
 10
142.13418112141341
 20
208.51208100825181
 30
0.0
 11
144.45417112141351
 21
208.45448602246461
 31
0.0
  0
LINE
  5
5F98
  8
AM_0
 10
289.63422112141359
 20
202.4545010224646
 30
0.0
 11
296.63418112141352
 21
202.4545010224646
 31
0.0
  0
LINE
  5
5F99
  8
AM_0
 10
289.63422112141359
 20
213.91449502246459
 30
0.0
 11
296.63418112141352
 21
213.91449502246459
 31
0.0
  0
LINE
  5
5F9A
  8
AM_0
 10
186.6341711214136
 20
219.60449602246459
 30
0.0
 11
288.6341711214136
 21
219.60449602246459
 31
0.0
  0
LINE
  5
5F9B
  8
AM_0
 10
288.34419112141359
 20
214.9244900224646
 30
0.0
 11
285.93423112141352
 21
214.9244900224646
 31
0.0
  0
LINE
  5
5F9C
  8
AM_0
 10
285.43416112141352
 20
207.03449002246461
 30
0.0
 11
286.87416112141352
 21
213.73448602246461
 31
0.0
  0
LINE
  5
5F9D
  8
AM_0
 10
283.3441811214135
 20
205.4545040224645
 30
0.0
 11
288.6341711214136
 21
205.4545040224645
 31
0.0
  0
LINE
  5
5F9E
  8
AM_0
 10
146.31417112141341
 20
232.58447902246459
 30
0.0
 11
189.6341711214136
 21
232.58447902246459
 31
0.0
  0
LINE
  5
5F9F
  8
AM_0
 10
189.6341711214136
 20
229.95448702246469
 30
0.0
 11
147.1842311214134
 21
229.9544870224646
 31
0.0
  0
LINE
  5
5FA0
  8
AM_0
 10
146.31417112141341
 20
229.2345020224646
 30
0.0
 11
189.6341711214136
 21
229.2345020224646
 31
0.0
  0
LINE
  5
5FA1
  8
AM_0
 10
142.13418112141341
 20
231.6544850224646
 30
0.0
 11
144.8042111214134
 21
231.6544850224646
 31
0.0
  0
LINE
  5
5FA2
  8
AM_0
 10
147.8042111214134
 20
207.6944930224646
 30
0.0
 11
161.1341711214136
 21
207.6944930224646
 31
0.0
  0
LINE
  5
5FA3
  8
AM_0
 10
164.63418112141341
 20
204.09448702246459
 30
0.0
 11
281.44416112141357
 21
204.09448702246459
 31
0.0
  0
LINE
  5
5FA4
  8
AM_0
 10
147.74415112141341
 20
202.65449902246459
 30
0.0
 11
161.24415112141341
 21
202.65449902246459
 31
0.0
  0
LINE
  5
5FA5
  8
AM_0
 10
147.8642111214134
 20
212.97447802246461
 30
0.0
 11
161.1341711214136
 21
212.97447802246461
 31
0.0
  0
LINE
  5
5FA6
  8
AM_0
 10
145.35414112141359
 20
217.60449802246461
 30
0.0
 11
145.89417112141359
 21
214.61449102246451
 31
0.0
  0
LINE
  5
5FA7
  8
AM_0
 10
142.13418112141341
 20
217.60448302246459
 30
0.0
 11
151.6342211214135
 21
217.60448302246459
 31
0.0
  0
LINE
  5
5FA8
  8
AM_0
 10
151.6342211214135
 20
217.60448302246459
 30
0.0
 11
151.6342211214135
 21
231.6544850224646
 31
0.0
  0
LINE
  5
5FA9
  8
AM_0
 10
283.37415112141349
 20
205.57449802246461
 30
0.0
 11
286.83417112141348
 21
218.4944960224646
 31
0.0
  0
LINE
  5
5FAA
  8
AM_0
 10
145.80414112141361
 20
204.16449502246459
 30
0.0
 11
144.9141311214135
 21
207.70448602246461
 31
0.0
  0
LINE
  5
5FAB
  8
AM_0
 10
145.8241811214134
 20
205.82449702246461
 30
0.0
 11
144.9041411214134
 21
209.7045020224646
 31
0.0
  0
LINE
  5
5FAC
  8
AM_0
 10
219.6341711214136
 20
202.04448502246461
 30
0.0
 11
219.6341711214136
 21
204.09448702246459
 31
0.0
  0
LINE
  5
5FAD
  8
AM_0
 10
162.6341711214136
 20
204.06450202246461
 30
0.0
 11
162.6341711214136
 21
211.4744750224645
 31
0.0
  0
LINE
  5
5FAE
  8
AM_0
 10
143.46417112141361
 20
208.83449302246461
 30
0.0
 11
145.1142011214134
 21
208.83449302246461
 31
0.0
  0
LINE
  5
5FAF
  8
AM_0
 10
186.6341711214136
 20
312.30447502246471
 30
0.0
 11
288.6341711214136
 21
312.30447502246471
 31
0.0
  0
LINE
  5
5FB0
  8
AM_0
 10
288.6341711214136
 20
328.45449502246458
 30
0.0
 11
288.6341711214136
 21
203.4544880224646
 31
0.0
  0
LINE
  5
5FB1
  8
AM_0
 10
289.63422112141359
 20
329.45448502246461
 30
0.0
 11
296.63418112141352
 21
329.45448502246461
 31
0.0
  0
LINE
  5
5FB2
  8
AM_0
 10
288.6341711214136
 20
303.10448302246448
 30
0.0
 11
296.63418112141352
 21
303.10448302246448
 31
0.0
  0
LINE
  5
5FB3
  8
AM_0
 10
289.63422112141359
 20
317.99445502246448
 30
0.0
 11
296.63418112141352
 21
317.99445502246448
 31
0.0
  0
LINE
  5
5FB4
  8
AM_0
 10
288.6341711214136
 20
228.80449402246461
 30
0.0
 11
296.63418112141352
 21
228.80449402246461
 31
0.0
  0
LINE
  5
5FB5
  8
AM_0
 10
142.13418112141341
 20
323.39693633427311
 30
0.0
 11
144.4541111214134
 21
323.45451502246448
 31
0.0
  0
LINE
  5
5FB6
  8
AM_0
 10
151.6342211214135
 20
314.30448502246458
 30
0.0
 11
151.6342211214135
 21
300.26448802246472
 31
0.0
  0
LINE
  5
5FB7
  8
AM_0
 10
142.13418112141341
 20
300.26448802246472
 30
0.0
 11
151.6342211214135
 21
300.26448802246472
 31
0.0
  0
LINE
  5
5FB8
  8
AM_0
 10
142.13418112141341
 20
308.64450502246461
 30
0.0
 11
151.6342211214135
 21
308.64450502246461
 31
0.0
  0
LINE
  5
5FB9
  8
AM_0
 10
142.13418112141341
 20
314.30448502246458
 30
0.0
 11
151.6342211214135
 21
314.30448502246458
 31
0.0
  0
LINE
  5
5FBA
  8
AM_0
 10
166.9258494547457
 20
251.95450402246459
 30
0.0
 11
147.1842311214134
 21
251.95450402246459
 31
0.0
  0
LINE
  5
5FBB
  8
AM_0
 10
164.63418112141341
 20
327.81450502246457
 30
0.0
 11
281.44416112141357
 21
327.81450502246457
 31
0.0
  0
LINE
  5
5FBC
  8
AM_0
 10
147.8642111214134
 20
318.93450502246458
 30
0.0
 11
161.1341711214136
 21
318.93450502246458
 31
0.0
  0
LINE
  5
5FBD
  8
AM_0
 10
145.3542011214135
 20
314.3045150224645
 30
0.0
 11
145.89417112141359
 21
317.29452502246448
 31
0.0
  0
LINE
  5
5FBE
  8
AM_0
 10
147.8042111214134
 20
324.22446502246459
 30
0.0
 11
161.1341711214136
 21
324.22446502246459
 31
0.0
  0
LINE
  5
5FBF
  8
AM_0
 10
147.77418112141351
 20
327.62448502246463
 30
0.0
 11
161.1341711214136
 21
327.62448502246463
 31
0.0
  0
LINE
  5
5FC0
  8
AM_0
 10
147.74415112141341
 20
329.25447502246459
 30
0.0
 11
161.24415112141341
 21
329.25447502246459
 31
0.0
  0
LINE
  5
5FC1
  8
AM_0
 10
164.63418112141341
 20
331.87449502246449
 30
0.0
 11
217.63422112141359
 21
331.87449502246449
 31
0.0
  0
LINE
  5
5FC2
  8
AM_0
 10
164.63418112141341
 20
331.19448502246462
 30
0.0
 11
217.63422112141359
 21
331.19448502246462
 31
0.0
  0
LINE
  5
5FC3
  8
AM_0
 10
164.63418112141341
 20
329.84451502246469
 30
0.0
 11
217.63422112141359
 21
329.84451502246469
 31
0.0
  0
LINE
  5
5FC4
  8
AM_0
 10
143.4241511214135
 20
316.99449502246472
 30
0.0
 11
145.8341711214135
 21
316.99449502246472
 31
0.0
  0
LINE
  5
5FC5
  8
AM_0
 10
145.84413112141351
 20
322.64451502246459
 30
0.0
 11
144.88410112141349
 21
318.17451502246462
 31
0.0
  0
LINE
  5
5FC6
  8
AM_0
 10
143.4441611214136
 20
321.05448502246458
 30
0.0
 11
145.5042311214134
 21
321.05448502246458
 31
0.0
  0
LINE
  5
5FC7
  8
AM_0
 10
189.6341711214136
 20
301.95449002246482
 30
0.0
 11
156.1842311214134
 21
301.95449002246471
 31
0.0
  0
LINE
  5
5FC8
  8
AM_0
 10
189.6341711214136
 20
299.95448902246483
 30
0.0
 11
156.1842311214134
 21
299.95448902246471
 31
0.0
  0
LINE
  5
5FC9
  8
AM_0
 10
163.23550122506771
 20
291.95449102246448
 30
0.0
 11
156.1839243197478
 21
291.95449102246442
 31
0.0
  0
LINE
  5
5FCA
  8
AM_0
 10
145.8241811214134
 20
326.08449502246458
 30
0.0
 11
144.90420112141351
 21
322.20450502246467
 31
0.0
  0
LINE
  5
5FCB
  8
AM_0
 10
160.83550002506769
 20
289.95449002246471
 30
0.0
 11
156.1842311214134
 21
289.95449002246471
 31
0.0
  0
LINE
  5
5FCC
  8
AM_0
 10
143.46417112141361
 20
323.07447502246458
 30
0.0
 11
145.1142011214134
 21
323.07447502246458
 31
0.0
  0
LINE
  5
5FCD
  8
AM_0
 10
145.80414112141361
 20
327.74448502246457
 30
0.0
 11
144.9141311214135
 21
324.21450502246461
 31
0.0
  0
LINE
  5
5FCE
  8
AM_0
 10
160.23550002506761
 20
281.9544890224646
 30
0.0
 11
147.1842311214134
 21
281.9544890224646
 31
0.0
  0
LINE
  5
5FCF
  8
AM_0
 10
162.6341711214136
 20
327.84447502246462
 30
0.0
 11
162.6341711214136
 21
320.43450502246458
 31
0.0
  0
LINE
  5
5FD0
  8
AM_0
 10
160.23550002506761
 20
279.95449102246448
 30
0.0
 11
147.1842311214134
 21
279.95449102246448
 31
0.0
  0
LINE
  5
5FD1
  8
AM_0
 10
160.8355000250672
 20
271.95449002246471
 30
0.0
 11
147.1842311214134
 21
271.95449002246471
 31
0.0
  0
LINE
  5
5FD2
  8
AM_0
 10
219.6341711214136
 20
329.87448502246463
 30
0.0
 11
219.6341711214136
 21
327.81450502246457
 31
0.0
  0
LINE
  5
5FD3
  8
AM_0
 10
163.59754996024941
 20
269.95448902246449
 30
0.0
 11
147.1842311214134
 21
269.95448902246449
 31
0.0
  0
LINE
  5
5FD4
  8
AM_0
 10
283.37415112141349
 20
326.33448502246472
 30
0.0
 11
286.83417112141348
 21
313.4145050224646
 31
0.0
  0
LINE
  5
5FD5
  8
AM_0
 10
283.3441811214135
 20
326.45448502246461
 30
0.0
 11
288.6341711214136
 21
326.45448502246461
 31
0.0
  0
LINE
  5
5FD6
  8
AM_0
 10
288.34419112141359
 20
316.99449502246472
 30
0.0
 11
285.93423112141352
 21
316.99449502246472
 31
0.0
  0
LINE
  5
5FD7
  8
AM_0
 10
285.43422112141349
 20
324.87450502246458
 30
0.0
 11
286.87422112141348
 21
318.17451502246462
 31
0.0
  0
LINE
  5
5FD8
  8
AM_0
 10
164.63418112141341
 20
200.03448802246459
 30
0.0
 11
217.63422112141359
 21
200.03448802246459
 31
0.0
  0
LINE
  5
5FD9
  8
AM_0
 10
147.77418112141351
 20
204.2845040224646
 30
0.0
 11
161.1341711214136
 21
204.2845040224646
 31
0.0
  0
LINE
  5
5FDA
  8
AM_0
 10
142.13418112141341
 20
223.2644840224645
 30
0.0
 11
151.6342211214135
 21
223.2644840224645
 31
0.0
  0
LINE
  5
5FDB
  8
AM_0
 10
164.63418112141341
 20
200.7144980224646
 30
0.0
 11
217.63422112141359
 21
200.7144980224646
 31
0.0
  0
LINE
  5
5FDC
  8
AM_0
 10
143.4441611214136
 20
210.8544800224646
 30
0.0
 11
145.5042311214134
 21
210.8544800224646
 31
0.0
  0
LINE
  5
5FDD
  8
AM_0
 10
143.4241511214135
 20
214.9244900224646
 30
0.0
 11
145.8341711214135
 21
214.9244900224646
 31
0.0
  0
LINE
  5
5FDE
  8
AM_0
 10
145.8441911214135
 20
209.27449402246461
 30
0.0
 11
144.88416112141351
 21
213.73448602246461
 31
0.0
  0
LINE
  5
5FDF
  8
AM_0
 10
164.63418112141341
 20
202.06448902246461
 30
0.0
 11
217.63422112141359
 21
202.06448902246461
 31
0.0
  0
LINE
  5
5FE0
  8
AM_0
 10
146.0941811214135
 20
239.46448402246469
 30
0.0
 11
167.33417612141261
 21
239.4644840224646
 31
0.0
  0
LINE
  5
5FE1
  8
AM_0
 10
189.6341711214136
 20
231.9544880224646
 30
0.0
 11
147.62421112141359
 21
231.9544880224646
 31
0.0
  0
LINE
  5
5FE2
  8
AM_0
 10
155.31417112141341
 20
302.67449002246462
 30
0.0
 11
189.6341711214136
 21
302.67449002246462
 31
0.0
  0
LINE
  5
5FE3
  8
AM_0
 10
155.31417112141341
 20
299.32448602246461
 30
0.0
 11
189.6341711214136
 21
299.32448602246461
 31
0.0
  0
LINE
  5
5FE4
  8
AM_0
 10
155.0941811214135
 20
292.44448102246457
 30
0.0
 11
170.73550002506761
 21
292.44448102246457
 31
0.0
  0
LINE
  5
5FE5
  8
AM_0
 10
173.23550002506761
 20
292.44448102246457
 30
0.0
 11
180.6341711214136
 21
292.44448102246457
 31
0.0
  0
LINE
  5
5FE6
  8
AM_0
 10
155.0941811214135
 20
289.5144860224645
 30
0.0
 11
160.38648639535401
 21
289.5144860224645
 31
0.0
  0
LINE
  5
5FE7
  8
AM_0
 10
145.96419112141359
 20
282.29448502246453
 30
0.0
 11
160.23550002506761
 21
282.29448502246453
 31
0.0
  0
LINE
  5
5FE8
  8
AM_0
 10
145.96419112141359
 20
279.63448102246451
 30
0.0
 11
160.23550002506761
 21
279.63448102246451
 31
0.0
  0
LINE
  5
5FE9
  8
AM_0
 10
145.9041911214135
 20
272.22447802246461
 30
0.0
 11
160.51151442506711
 21
272.22447802246461
 31
0.0
  0
LINE
  5
5FEA
  8
AM_0
 10
145.9041911214135
 20
269.69447902246469
 30
0.0
 11
170.73550002506761
 21
269.69447902246469
 31
0.0
  0
LINE
  5
5FEB
  8
AM_0
 10
145.9041911214135
 20
262.22449402246463
 30
0.0
 11
188.6341711214136
 21
262.22449402246463
 31
0.0
  0
LINE
  5
5FEC
  8
AM_0
 10
188.6341711214136
 20
259.9544900224646
 30
0.0
 11
147.1842311214134
 21
259.9544900224646
 31
0.0
  0
LINE
  5
5FED
  8
AM_0
 10
188.6341711214136
 20
261.95448802246449
 30
0.0
 11
147.1842311214134
 21
261.95448802246449
 31
0.0
  0
LINE
  5
5FEE
  8
AM_0
 10
145.96419112141359
 20
252.2744960224646
 30
0.0
 11
167.19250945474531
 21
252.2744960224646
 31
0.0
  0
LINE
  5
5FEF
  8
AM_0
 10
161.6341711214136
 20
249.95448802246449
 30
0.0
 11
147.1842311214134
 21
249.95448802246449
 31
0.0
  0
LINE
  5
5FF0
  8
AM_0
 10
145.96419112141359
 20
249.61447702246451
 30
0.0
 11
161.6341711214136
 21
249.6144770224646
 31
0.0
  0
LINE
  5
5FF1
  8
AM_0
 10
161.6341711214134
 20
241.9544870224646
 30
0.0
 11
147.1842311214134
 21
241.9544870224646
 31
0.0
  0
LINE
  5
5FF2
  8
AM_0
 10
146.0941811214135
 20
242.39449102246451
 30
0.0
 11
161.6341711214134
 21
242.39449102246451
 31
0.0
  0
LINE
  5
5FF3
  8
AM_0
 10
166.92582612141331
 20
239.95450402246459
 30
0.0
 11
147.1842311214134
 21
239.95450402246459
 31
0.0
  0
LINE
  5
5FF4
  8
AM_0
 10
145.9041911214135
 20
259.68449902246448
 30
0.0
 11
188.6341711214136
 21
259.68449902246448
 31
0.0
  0
ARC
  5
5FF5
  8
AM_0
 10
154.77486112141341
 20
224.73537202246459
 30
0.0
 40
1.00423602
 50
314.93782999999922
 51
5.664923900000927
  0
ARC
  5
5FF6
  8
AM_0
 10
289.63440112141359
 20
203.45467102246451
 30
0.0
 40
1.0001800499999991
 50
180.01030999999901
 51
269.98967999999991
  0
ARC
  5
5FF7
  8
AM_0
 10
281.43885112141362
 20
206.09987302246461
 30
0.0
 40
2.0053919100000002
 50
270.15274999999968
 51
344.81206999999978
  0
ARC
  5
5FF8
  8
AM_0
 10
289.63368112141359
 20
214.91396002246461
 30
0.0
 40
0.99947604
 50
179.97008999999869
 51
270.02992000000029
  0
ARC
  5
5FF9
  8
AM_0
 10
147.85524112141351
 20
316.94205502246461
 30
0.0
 40
1.9924480200000001
 50
89.742108000000741
 51
169.81178999999881
  0
ARC
  5
5FFA
  8
AM_0
 10
147.7990211214136
 20
322.22520502246448
 30
0.0
 40
1.9992880199999981
 50
89.851814999999618
 51
167.8943300000013
  0
ARC
  5
5FFB
  8
AM_0
 10
143.41848112141341
 20
318.49470502246459
 30
0.0
 40
1.5002480099999991
 50
270.21662000000089
 51
347.67499999999961
  0
ARC
  5
5FFC
  8
AM_0
 10
147.76626112141341
 20
325.62996502246472
 30
0.0
 40
1.9945160699999991
 50
89.771334999999524
 51
166.82803999999979
  0
ARC
  5
5FFD
  8
AM_0
 10
143.4426311214134
 20
322.55829502246462
 30
0.0
 40
1.5037760099999991
 50
270.0598400000012
 51
346.39312999999879
  0
ARC
  5
5FFE
  8
AM_0
 10
143.4554711214135
 20
324.57768502246472
 30
0.0
 40
1.503232049999998
 50
270.33131999999961
 51
346.01803000000137
  0
ARC
  5
5FFF
  8
AM_0
 10
147.7407311214134
 20
327.25767502246458
 30
0.0
 40
1.996816109999999
 50
89.901436000000672
 51
165.88941000000099
  0
ARC
  5
6000
  8
AM_0
 10
164.62959112141351
 20
325.8191150224647
 30
0.0
 40
1.9953641399999991
 50
89.866758999999234
 51
180.13323000000119
  0
ARC
  5
6001
  8
AM_0
 10
164.6303711214135
 20
327.84828502246472
 30
0.0
 40
1.99618809
 50
89.890486999999737
 51
180.10951000000031
  0
ARC
  5
6002
  8
AM_0
 10
164.6277611214135
 20
329.2009550224646
 30
0.0
 40
1.993556189999999
 50
89.814515000000938
 51
180.1854899999997
  0
ARC
  5
6003
  8
AM_0
 10
164.62971112141361
 20
329.87574502246463
 30
0.0
 40
1.998724049999999
 50
89.871136999999536
 51
165.55095999999921
  0
ARC
  5
6004
  8
AM_0
 10
161.12751112141359
 20
320.44119502246463
 30
0.0
 40
1.5066999599999991
 50
270.25416000000098
 51
359.74583999999908
  0
ARC
  5
6005
  8
AM_0
 10
161.1313511214135
 20
325.72731502246472
 30
0.0
 40
1.5028360199999991
 50
270.10793999999891
 51
359.89206000000121
  0
ARC
  5
6006
  8
AM_0
 10
161.1293411214136
 20
329.12934502246458
 30
0.0
 40
1.5048719999999991
 50
270.1851800000012
 51
359.81481999999869
  0
ARC
  5
6007
  8
AM_0
 10
161.24079112141351
 20
330.75750502246473
 30
0.0
 40
1.50301605
 50
270.12944999999991
 51
345.23654000000067
  0
ARC
  5
6008
  8
AM_0
 10
217.63326112141351
 20
327.84354502246458
 30
0.0
 40
2.0009239199999991
 50
0.0264629989995744
 51
89.973535999999072
  0
ARC
  5
6009
  8
AM_0
 10
217.63587112141349
 20
329.19618502246448
 30
0.0
 40
1.9982920200000001
 50
359.95103000000051
 51
90.048974999998521
  0
ARC
  5
600A
  8
AM_0
 10
217.6323911214136
 20
329.87268502246462
 30
0.0
 40
2.0018279999999979
 50
0.0523009999990686
 51
89.947697000000545
  0
ARC
  5
600B
  8
AM_0
 10
288.28443112141349
 20
313.80687502246462
 30
0.0
 40
1.50239199
 50
195.14001000000141
 51
269.99063999999998
  0
ARC
  5
600C
  8
AM_0
 10
281.44374112141361
 20
325.81551502246458
 30
0.0
 40
1.99898796
 50
15.04780099999898
 51
89.987372999998755
  0
ARC
  5
600D
  8
AM_0
 10
289.62924112141371
 20
328.45944502246448
 30
0.0
 40
0.9950640599999999
 50
89.714938000000473
 51
180.28506000000129
  0
ARC
  5
600E
  8
AM_0
 10
289.62855112141358
 20
317.00010502246471
 30
0.0
 40
0.99440004
 50
89.676491000000041
 51
180.32351000000091
  0
ARC
  5
600F
  8
AM_0
 10
288.34005112141358
 20
318.49494502246461
 30
0.0
 40
1.5004760399999979
 50
192.3322299999987
 51
270.15827999999971
  0
ARC
  5
6010
  8
AM_0
 10
283.48164112141347
 20
324.45801502246462
 30
0.0
 40
1.9964880300000001
 50
12.04087499999966
 51
89.926440999999343
  0
ARC
  5
6011
  8
AM_0
 10
150.7924811214134
 20
307.54729402246471
 30
0.0
 40
5.004112499999998
 50
279.6835699999998
 51
354.57834000000088
  0
ARC
  5
6012
  8
AM_0
 10
151.2549611214134
 20
303.62157502246458
 30
0.0
 40
6.0049157999999991
 50
45.227306999999072
 51
86.379093999999796
  0
ARC
  5
6013
  8
AM_0
 10
154.7781611214134
 20
307.17476602246461
 30
0.0
 40
1.001108069999999
 50
354.25024999999829
 51
45.146993999999637
  0
ARC
  5
6014
  8
AM_0
 10
283.4766311214135
 20
207.45709702246461
 30
0.0
 40
2.0026238699999981
 50
270.21534000000139
 51
347.8173399999996
  0
ARC
  5
6015
  8
AM_0
 10
288.34125112141351
 20
213.4251740224646
 30
0.0
 40
1.499328059999999
 50
89.888151000000079
 51
168.09384000000071
  0
ARC
  5
6016
  8
AM_0
 10
151.2641711214136
 20
228.30167002246461
 30
0.0
 40
6.0085923000000001
 50
273.53094999999939
 51
314.61478000000108
  0
ARC
  5
6017
  8
AM_0
 10
150.79755112141339
 20
224.3664140224646
 30
0.0
 40
4.9985837999999987
 50
5.3731199000009289
 51
80.36497600000034
  0
ARC
  5
6018
  8
AM_0
 10
147.8602511214134
 20
214.97291902246459
 30
0.0
 40
1.998444029999999
 50
190.3324000000004
 51
270.11369000000047
  0
ARC
  5
6019
  8
AM_0
 10
147.79908112141359
 20
209.69386702246459
 30
0.0
 40
1.9993920899999991
 50
192.10804000000149
 51
270.14581999999967
  0
ARC
  5
601A
  8
AM_0
 10
143.4173111214136
 20
213.42540502246459
 30
0.0
 40
1.499099999999999
 50
11.89856000000028
 51
89.736658000000475
  0
ARC
  5
601B
  8
AM_0
 10
147.77118112141349
 20
206.2852520224645
 30
0.0
 40
2.0007560699999991
 50
193.31416000000041
 51
270.0864499999999
  0
ARC
  5
601C
  8
AM_0
 10
143.44758112141341
 20
209.35698502246461
 30
0.0
 40
1.497512039999999
 50
13.41823300000142
 51
90.128792999998822
  0
ARC
  5
601D
  8
AM_0
 10
143.4619811214134
 20
207.3363680224646
 30
0.0
 40
1.498128089999998
 50
14.224575000000939
 51
89.916113999998927
  0
ARC
  5
601E
  8
AM_0
 10
147.74568112141341
 20
204.65762902246459
 30
0.0
 40
2.0031319199999991
 50
194.2515899999988
 51
269.9575499999994
  0
ARC
  5
601F
  8
AM_0
 10
164.63466112141359
 20
206.09492902246461
 30
0.0
 40
2.000452109999999
 50
180.01290000000029
 51
269.98709999999971
  0
ARC
  5
6020
  8
AM_0
 10
164.63550112141351
 20
204.0658010224646
 30
0.0
 40
2.0013120899999981
 50
180.03755999999879
 51
269.9624400000011
  0
ARC
  5
6021
  8
AM_0
 10
164.6328311214134
 20
202.71310702246461
 30
0.0
 40
1.9986199799999991
 50
179.96046999999851
 51
270.03953000000138
  0
ARC
  5
6022
  8
AM_0
 10
164.62812112141361
 20
202.0445450224646
 30
0.0
 40
2.0000761200000001
 50
194.77498000000151
 51
270.17352999999849
  0
ARC
  5
6023
  8
AM_0
 10
161.1326411214136
 20
211.47292102246459
 30
0.0
 40
1.5015680099999991
 50
0.0598050030010018
 51
89.940196999999216
  0
ARC
  5
6024
  8
AM_0
 10
161.1314711214136
 20
206.1917780224646
 30
0.0
 40
1.50271599
 50
0.1034359999993177
 51
89.896566000000206
  0
ARC
  5
6025
  8
AM_0
 10
161.13447112141361
 20
202.7847320224646
 30
0.0
 40
1.49975601
 50
359.99059000000068
 51
90.009407999999681
  0
ARC
  5
6026
  8
AM_0
 10
161.2457411214136
 20
201.15784102246459
 30
0.0
 40
1.49664405
 50
14.575739999999151
 51
90.058277999998381
  0
ARC
  5
6027
  8
AM_0
 10
217.62819112141361
 20
204.07051402246461
 30
0.0
 40
2.0060480100000002
 50
270.17248999999867
 51
359.82751000000133
  0
ARC
  5
6028
  8
AM_0
 10
217.63080112141361
 20
202.7178530224646
 30
0.0
 40
2.0033560499999989
 50
270.09594000000141
 51
359.90405999999848
  0
ARC
  5
6029
  8
AM_0
 10
217.63227112141351
 20
202.0463750224645
 30
0.0
 40
2.0019000299999989
 50
270.05438000000072
 51
359.94561999999922
  0
ARC
  5
602A
  8
AM_0
 10
288.2795711214136
 20
218.1085100224646
 30
0.0
 40
1.49599605
 50
89.821706999999776
 51
165.0476599999985
  0
ARC
  5
602B
  8
AM_0
 10
163.6294211214134
 20
300.95449102246448
 30
0.0
 40
1.000011959999999
 50
89.726507999999697
 51
270.27347999999972
  0
ARC
  5
602C
  8
AM_0
 10
145.89840112141351
 20
270.95949502246469
 30
0.0
 40
1.26501207
 50
89.737716000001527
 51
270.26227999999981
  0
ARC
  5
602D
  8
AM_0
 10
145.96419112141359
 20
280.96449802246462
 30
0.0
 40
1.330008059999999
 50
90.000003000000945
 51
270.0
  0
ARC
  5
602E
  8
AM_0
 10
155.0941811214135
 20
290.97948502246459
 30
0.0
 40
1.465004009999999
 50
90.000003000000945
 51
270.0
  0
ARC
  5
602F
  8
AM_0
 10
155.30733112141351
 20
300.99947302246471
 30
0.0
 40
1.6750160999999979
 50
89.766540000000646
 51
270.23345999999941
  0
ARC
  5
6030
  8
AM_0
 10
147.1842311214134
 20
270.95448802246449
 30
0.0
 40
1.0000000199999981
 50
90.000003000000945
 51
270.0
  0
ARC
  5
6031
  8
AM_0
 10
147.1842311214134
 20
280.9544900224646
 30
0.0
 40
1.0000000199999981
 50
90.000003000000945
 51
270.0
  0
ARC
  5
6032
  8
AM_0
 10
156.17946112141351
 20
300.95449102246448
 30
0.0
 40
1.000011959999999
 50
89.728447999999375
 51
270.27153999999882
  0
ARC
  5
6033
  8
AM_0
 10
156.17946112141351
 20
290.95448902246471
 30
0.0
 40
1.000011959999999
 50
89.728447999999375
 51
270.27153999999882
  0
ARC
  5
6034
  8
AM_0
 10
285.45417112141348
 20
300.99947302246471
 30
0.0
 40
1.675004159999999
 50
276.1690557384461
 51
83.83094426155381
  0
ARC
  5
6035
  8
AM_0
 10
285.45417112141348
 20
230.9095040224646
 30
0.0
 40
1.675004159999999
 50
276.16905573844969
 51
83.830944261550229
  0
ARC
  5
6036
  8
AM_0
 10
147.1842311214134
 20
260.95450402246462
 30
0.0
 40
1.0000000199999981
 50
90.000003000000945
 51
270.0
  0
ARC
  5
6037
  8
AM_0
 10
163.6294211214134
 20
250.9544900224646
 30
0.0
 40
1.000011959999999
 50
89.726507999999697
 51
227.4054482572752
  0
ARC
  5
6038
  8
AM_0
 10
163.6294211214134
 20
240.95448802246449
 30
0.0
 40
1.000011959999999
 50
132.59438434211481
 51
270.27347999999972
  0
ARC
  5
6039
  8
AM_0
 10
145.96419112141359
 20
250.9444940224646
 30
0.0
 40
1.330008059999999
 50
90.000003000000945
 51
270.0
  0
ARC
  5
603A
  8
AM_0
 10
146.0941811214135
 20
240.92949502246469
 30
0.0
 40
1.465004009999999
 50
90.000003000000945
 51
270.0
  0
ARC
  5
603B
  8
AM_0
 10
147.17946112141351
 20
230.9545040224647
 30
0.0
 40
1.000011959999999
 50
89.728462000000377
 51
270.27153999999882
  0
ARC
  5
603C
  8
AM_0
 10
163.6294211214134
 20
230.9545040224647
 30
0.0
 40
1.000011959999999
 50
89.726507999999697
 51
270.27347999999972
  0
ARC
  5
603D
  8
AM_0
 10
145.89840112141351
 20
260.95450402246462
 30
0.0
 40
1.2700120500000001
 50
89.738748000000555
 51
270.26124000000118
  0
ARC
  5
603E
  8
AM_0
 10
146.30733112141351
 20
230.9095040224646
 30
0.0
 40
1.6750160999999979
 50
89.764983000000569
 51
270.23500999999908
  0
ARC
  5
603F
  8
AM_0
 10
147.1842311214134
 20
250.9544900224646
 30
0.0
 40
1.0000000199999981
 50
90.000003000000945
 51
270.0
  0
ARC
  5
6040
  8
AM_0
 10
147.17946112141351
 20
240.95448802246449
 30
0.0
 40
1.000011959999999
 50
89.728462000000377
 51
270.27153999999882
  0
LINE
  5
6042
  8
ﾁｭｳｼﾝｾﾝ
 10
237.6341711214136
 20
316.95449002246482
 30
0.0
 11
237.6341711214136
 21
214.9544900224646
 31
0.0
  0
LINE
  5
6043
  8
AM_0
 10
281.63417112141371
 20
219.95449002246471
 30
0.0
 11
193.6341711214136
 21
219.95449002246471
 31
0.0
  0
ARC
  5
6044
  8
AM_0
 10
211.70523893327899
 20
224.95449002246471
 30
0.0
 40
5.0
 50
225.0
 51
270.0
1001
GENIUS_GENOBJ-N-FIL_13
1002
{
1000
OWNER
1000
GEN
1002
}
1001
GENIUS_GENODEF_13
1002
{
1000
HIER
1070
     0
1002
}
1002
{
1000
MANEDIT
1070
     0
1002
}
1002
{
1000
NOSEL
1070
     0
1002
}
1002
{
1000
BEHIND
1070
     0
1002
}
1002
{
1000
OTHER
1070
     0
1002
}
1002
{
1000
REACTOR
1002
}
  0
LINE
  5
6045
  8
AM_0
 10
262.90624906005598
 20
224.95449002246471
 30
0.0
 11
212.3620931827713
 21
224.95449002246471
 31
0.0
  0
ARC
  5
6046
  8
AM_0
 10
262.90624906005598
 20
229.9544900224646
 30
0.0
 40
5.0
 50
270.0
 51
315.0
1001
GENIUS_GENOBJ-N-FIL_13
1002
{
1000
OWNER
1000
GEN
1002
}
1001
GENIUS_GENODEF_13
1002
{
1000
HIER
1070
     0
1002
}
1002
{
1000
MANEDIT
1070
     0
1002
}
1002
{
1000
NOSEL
1070
     0
1002
}
1002
{
1000
BEHIND
1070
     0
1002
}
1002
{
1000
OTHER
1070
     0
1002
}
1002
{
1000
REACTOR
1002
}
  0
ARC
  5
6047
  8
AM_0
 10
281.63417112141371
 20
223.95449002246471
 30
0.0
 40
4.0
 50
270.0
 51
0.0
1001
GENIUS_GENOBJ-N-FIL_13
1002
{
1000
OWNER
1000
GEN
1002
}
1001
GENIUS_GENODEF_13
1002
{
1000
HIER
1070
     0
1002
}
1002
{
1000
MANEDIT
1070
     0
1002
}
1002
{
1000
NOSEL
1070
     0
1002
}
1002
{
1000
BEHIND
1070
     0
1002
}
1002
{
1000
OTHER
1070
     0
1002
}
1002
{
1000
REACTOR
1002
}
  0
LINE
  5
6048
  8
AM_0
 10
281.63417112141349
 20
311.95449002246488
 30
0.0
 11
193.6341711214136
 21
311.95449002246488
 31
0.0
  0
ARC
  5
6049
  8
AM_0
 10
263.56310330954813
 20
306.95449002246488
 30
0.0
 40
5.0
 50
45.0
 51
90.0
1001
GENIUS_GENOBJ-N-FIL_13
1002
{
1000
OWNER
1000
GEN
1002
}
1001
GENIUS_GENODEF_13
1002
{
1000
HIER
1070
     0
1002
}
1002
{
1000
MANEDIT
1070
     0
1002
}
1002
{
1000
NOSEL
1070
     0
1002
}
1002
{
1000
BEHIND
1070
     0
1002
}
1002
{
1000
OTHER
1070
     0
1002
}
1002
{
1000
REACTOR
1002
}
  0
ARC
  5
604A
  8
AM_0
 10
211.70523893327919
 20
306.95449002246488
 30
0.0
 40
5.0
 50
90.0
 51
135.0
1001
GENIUS_GENODEF_13
1002
{
1000
HIER
1070
     0
1002
}
1002
{
1000
MANEDIT
1070
     0
1002
}
1002
{
1000
NOSEL
1070
     0
1002
}
1002
{
1000
BEHIND
1070
     0
1002
}
1002
{
1000
OTHER
1070
     0
1002
}
1002
{
1000
REACTOR
1002
}
1001
GENIUS_GENOBJ-N-FIL_13
1002
{
1000
OWNER
1000
GEN
1002
}
  0
LINE
  5
604B
  8
AM_0
 10
262.90624906005581
 20
306.95449002246488
 30
0.0
 11
212.36209318277139
 21
306.95449002246488
 31
0.0
  0
ARC
  5
604C
  8
AM_0
 10
212.36209318277139
 20
301.95449002246488
 30
0.0
 40
5.0
 50
90.0
 51
135.0
1001
GENIUS_GENODEF_13
1002
{
1000
HIER
1070
     0
1002
}
1002
{
1000
MANEDIT
1070
     0
1002
}
1002
{
1000
NOSEL
1070
     0
1002
}
1002
{
1000
BEHIND
1070
     0
1002
}
1002
{
1000
OTHER
1070
     0
1002
}
1002
{
1000
REACTOR
1002
}
1001
GENIUS_GENOBJ-N-FIL_13
1002
{
1000
OWNER
1000
GEN
1002
}
  0
ARC
  5
604D
  8
AM_0
 10
193.6341711214136
 20
307.95449002246488
 30
0.0
 40
4.0
 50
90.0
 51
180.0
1001
GENIUS_GENODEF_13
1002
{
1000
HIER
1070
     0
1002
}
1002
{
1000
MANEDIT
1070
     0
1002
}
1002
{
1000
NOSEL
1070
     0
1002
}
1002
{
1000
BEHIND
1070
     0
1002
}
1002
{
1000
OTHER
1070
     0
1002
}
1002
{
1000
REACTOR
1002
}
1001
GENIUS_GENOBJ-N-FIL_13
1002
{
1000
OWNER
1000
GEN
1002
}
  0
LINE
  5
604E
  8
AM_0
 10
189.6341711214136
 20
307.95449002246488
 30
0.0
 11
189.6341711214136
 21
223.95449002246471
 31
0.0
  0
ARC
  5
604F
  8
AM_0
 10
194.6341711214136
 20
242.0255578343299
 30
0.0
 40
5.0
 50
180.0
 51
225.0
1001
GENIUS_GENOBJ-N-FIL_13
1002
{
1000
OWNER
1000
GEN
1002
}
1001
GENIUS_GENODEF_13
1002
{
1000
HIER
1070
     0
1002
}
1002
{
1000
MANEDIT
1070
     0
1002
}
1002
{
1000
NOSEL
1070
     0
1002
}
1002
{
1000
BEHIND
1070
     0
1002
}
1002
{
1000
OTHER
1070
     0
1002
}
1002
{
1000
REACTOR
1002
}
  0
ARC
  5
6050
  8
AM_0
 10
194.6341711214136
 20
289.88342221059958
 30
0.0
 40
5.0
 50
135.0
 51
180.0
1001
GENIUS_GENOBJ-N-FIL_13
1002
{
1000
OWNER
1000
GEN
1002
}
1001
GENIUS_GENODEF_13
1002
{
1000
HIER
1070
     0
1002
}
1002
{
1000
MANEDIT
1070
     0
1002
}
1002
{
1000
NOSEL
1070
     0
1002
}
1002
{
1000
BEHIND
1070
     0
1002
}
1002
{
1000
OTHER
1070
     0
1002
}
1002
{
1000
REACTOR
1002
}
  0
LINE
  5
6051
  8
AM_0
 10
194.6341711214136
 20
289.22656796110692
 30
0.0
 11
194.6341711214134
 21
242.68241208382241
 31
0.0
  0
ARC
  5
6052
  8
AM_0
 10
199.6341711214134
 20
242.68241208382241
 30
0.0
 40
5.0
 50
180.0
 51
225.0
1001
GENIUS_GENOBJ-N-FIL_13
1002
{
1000
OWNER
1000
GEN
1002
}
1001
GENIUS_GENODEF_13
1002
{
1000
HIER
1070
     0
1002
}
1002
{
1000
MANEDIT
1070
     0
1002
}
1002
{
1000
NOSEL
1070
     0
1002
}
1002
{
1000
BEHIND
1070
     0
1002
}
1002
{
1000
OTHER
1070
     0
1002
}
1002
{
1000
REACTOR
1002
}
  0
ARC
  5
6053
  8
AM_0
 10
193.6341711214136
 20
223.95449002246471
 30
0.0
 40
4.0
 50
180.0
 51
270.0
1001
GENIUS_GENODEF_13
1002
{
1000
HIER
1070
     0
1002
}
1002
{
1000
MANEDIT
1070
     0
1002
}
1002
{
1000
NOSEL
1070
     0
1002
}
1002
{
1000
BEHIND
1070
     0
1002
}
1002
{
1000
OTHER
1070
     0
1002
}
1002
{
1000
REACTOR
1002
}
1001
GENIUS_GENOBJ-N-FIL_13
1002
{
1000
OWNER
1000
GEN
1002
}
  0
LINE
  5
6054
  8
AM_0
 10
285.6341711214136
 20
307.95449002246488
 30
0.0
 11
285.63417112141371
 21
223.95449002246471
 31
0.0
  0
ARC
  5
6055
  8
AM_0
 10
280.63417112141371
 20
289.88342221059929
 30
0.0
 40
5.0
 50
0.0
 51
45.0
1001
GENIUS_GENOBJ-N-FIL_13
1002
{
1000
OWNER
1000
GEN
1002
}
1001
GENIUS_GENODEF_13
1002
{
1000
HIER
1070
     0
1002
}
1002
{
1000
MANEDIT
1070
     0
1002
}
1002
{
1000
NOSEL
1070
     0
1002
}
1002
{
1000
BEHIND
1070
     0
1002
}
1002
{
1000
OTHER
1070
     0
1002
}
1002
{
1000
REACTOR
1002
}
  0
ARC
  5
6056
  8
AM_0
 10
280.63417112141371
 20
242.0255578343301
 30
0.0
 40
5.0
 50
315.0
 51
0.0
1001
GENIUS_GENOBJ-N-FIL_13
1002
{
1000
OWNER
1000
GEN
1002
}
1001
GENIUS_GENODEF_13
1002
{
1000
HIER
1070
     0
1002
}
1002
{
1000
MANEDIT
1070
     0
1002
}
1002
{
1000
NOSEL
1070
     0
1002
}
1002
{
1000
BEHIND
1070
     0
1002
}
1002
{
1000
OTHER
1070
     0
1002
}
1002
{
1000
REACTOR
1002
}
  0
LINE
  5
6057
  8
AM_0
 10
267.09863721548078
 20
310.49002392839748
 30
0.0
 11
284.16970502734631
 21
293.41895611653212
 31
0.0
  0
LINE
  5
6058
  8
AM_0
 10
266.44178296598841
 20
305.49002392839748
 30
0.0
 11
279.16970502734608
 21
292.76210186703997
 31
0.0
  0
ARC
  5
6059
  8
AM_0
 10
262.90624906005581
 20
301.95449002246488
 30
0.0
 40
5.0
 50
45.0
 51
90.0
1001
GENIUS_GENOBJ-N-FIL_13
1002
{
1000
OWNER
1000
GEN
1002
}
1001
GENIUS_GENODEF_13
1002
{
1000
HIER
1070
     0
1002
}
1002
{
1000
MANEDIT
1070
     0
1002
}
1002
{
1000
NOSEL
1070
     0
1002
}
1002
{
1000
BEHIND
1070
     0
1002
}
1002
{
1000
OTHER
1070
     0
1002
}
1002
{
1000
REACTOR
1002
}
  0
LINE
  5
605A
  8
AM_0
 10
280.63417112141349
 20
289.22656796110709
 30
0.0
 11
280.63417112141371
 21
242.68241208382241
 31
0.0
  0
ARC
  5
605B
  8
AM_0
 10
275.63417112141349
 20
289.22656796110709
 30
0.0
 40
5.0
 50
0.0
 51
45.0
1001
GENIUS_GENODEF_13
1002
{
1000
HIER
1070
     0
1002
}
1002
{
1000
MANEDIT
1070
     0
1002
}
1002
{
1000
NOSEL
1070
     0
1002
}
1002
{
1000
BEHIND
1070
     0
1002
}
1002
{
1000
OTHER
1070
     0
1002
}
1002
{
1000
REACTOR
1002
}
1001
GENIUS_GENOBJ-N-FIL_13
1002
{
1000
OWNER
1000
GEN
1002
}
  0
ARC
  5
605C
  8
AM_0
 10
281.63417112141349
 20
307.95449002246488
 30
0.0
 40
4.0
 50
0.0
 51
90.0
1001
GENIUS_GENODEF_13
1002
{
1000
HIER
1070
     0
1002
}
1002
{
1000
MANEDIT
1070
     0
1002
}
1002
{
1000
NOSEL
1070
     0
1002
}
1002
{
1000
BEHIND
1070
     0
1002
}
1002
{
1000
OTHER
1070
     0
1002
}
1002
{
1000
REACTOR
1002
}
1001
GENIUS_GENOBJ-N-FIL_13
1002
{
1000
OWNER
1000
GEN
1002
}
  0
LINE
  5
605D
  8
ﾁｭｳｼﾝｾﾝ1
 10
280.63417112141508
 20
300.95449002246443
 30
0.0
 11
280.6341711214157
 21
312.95449002246443
 31
0.0
  0
LINE
  5
605E
  8
ﾁｭｳｼﾝｾﾝ1
 10
286.63417112141542
 20
306.9544900224642
 30
0.0
 11
274.63417112141542
 21
306.95449002246488
 31
0.0
  0
LINE
  5
605F
  8
AM_0
 10
186.1341711214136
 20
294.45449002246488
 30
0.0
 11
188.6341711214134
 21
294.454490022465
 31
0.0
  0
LINE
  5
6060
  8
AM_0
 10
188.6341711214136
 20
267.45449002246488
 30
0.0
 11
186.1341711214136
 21
267.45449002246488
 31
0.0
  0
LINE
  5
6061
  8
AM_0
 10
175.23550002506761
 20
270.45449002246488
 30
0.0
 11
175.23550002506761
 21
291.45449002246488
 31
0.0
  0
LINE
  5
6062
  8
AM_0
 10
160.23550002506761
 20
288.9861150764799
 30
0.0
 11
160.23550002506761
 21
272.92286496844889
 31
0.0
  0
LINE
  5
6063
  8
AM_0
 10
173.23550002506761
 20
268.95449002246488
 30
0.0
 11
173.23550002506761
 21
292.95449002246488
 31
0.0
  0
LINE
  5
6064
  8
AM_0
 10
163.73550002506761
 20
280.95449002246488
 30
0.0
 11
164.23550002506761
 21
280.45449002246488
 31
0.0
  0
LINE
  5
6065
  8
AM_0
 10
170.73550002506761
 20
292.65449002246481
 30
0.0
 11
170.73550002506761
 21
269.25449002246478
 31
0.0
  0
LINE
  5
6066
  8
AM_0
 10
180.6341711214136
 20
292.45449002246488
 30
0.0
 11
180.6341711214136
 21
269.45449002246488
 31
0.0
  0
LINE
  5
6067
  8
AM_0
 10
174.73550002506761
 20
280.2544900224629
 30
0.0
 11
174.73550002506761
 21
281.65449002246572
 31
0.0
  0
LINE
  5
6068
  8
AM_0
 10
176.8351357516386
 20
271.85449002246492
 30
0.0
 11
176.08513575163951
 21
290.05449002246479
 31
0.0
  0
LINE
  5
6069
  8
AM_0
 10
175.8841711214136
 20
271.85449002246492
 30
0.0
 11
175.23550002506761
 21
287.59557529378088
 31
0.0
  0
LINE
  5
606A
  8
AM_0
 10
176.63286371198561
 20
271.1388313101009
 30
0.0
 11
175.8856036685774
 21
290.76686178363178
 31
0.0
  0
LINE
  5
606B
  8
AM_0
 10
176.08370320447551
 20
271.14211826129679
 30
0.0
 11
175.33513575163951
 21
290.80449002246479
 31
0.0
  0
LINE
  5
606C
  8
AM_0
 10
173.23550002506761
 20
292.95449002246488
 30
0.0
 11
171.03550002506751
 21
292.95449002246488
 31
0.0
  0
ARC
  5
606D
  8
AM_0
 10
185.13417112141369
 20
293.45449002246488
 30
0.0
 40
0.5
 50
269.99999999998693
 51
0.0
  0
ARC
  5
606E
  8
AM_0
 10
186.13417112141369
 20
293.95449002246488
 30
0.0
 40
0.5
 50
90.0
 51
180.0
  0
LINE
  5
606F
  8
AM_0
 10
185.6341711214136
 20
293.45449002246488
 30
0.0
 11
185.6341711214136
 21
293.95449002246488
 31
0.0
  0
LINE
  5
6070
  8
AM_0
 10
176.6341711214136
 20
290.05449002246479
 30
0.0
 11
180.1341711214136
 21
290.05449002246479
 31
0.0
  0
LINE
  5
6071
  8
AM_0
 10
185.6341711214136
 20
291.81056134387183
 30
0.0
 11
185.6341711214136
 21
282.0984187010568
 31
0.0
  0
LINE
  5
6072
  8
AM_0
 10
181.1341711214136
 20
292.95449002246488
 30
0.0
 11
185.1341711214134
 21
292.95449002246488
 31
0.0
  0
LINE
  5
6073
  8
AM_0
 10
185.1341711214136
 20
292.31056134387183
 30
0.0
 11
180.6341711214136
 21
292.31056134387183
 31
0.0
  0
ARC
  5
6074
  8
AM_0
 10
185.13417112141369
 20
291.81056134387183
 30
0.0
 40
0.5
 50
0.0
 51
90.0
  0
ARC
  5
6075
  8
AM_0
 10
180.1341711214136
 20
290.5544900224649
 30
0.0
 40
0.5
 50
270.0
 51
0.0
  0
ARC
  5
6076
  8
AM_0
 10
181.1341711214136
 20
292.45449002246488
 30
0.0
 40
0.5
 50
90.0
 51
180.0
  0
LINE
  5
6077
  8
AM_0
 10
185.1341711214136
 20
281.5984187010568
 30
0.0
 11
180.6341711214136
 21
281.5984187010568
 31
0.0
  0
ARC
  5
6078
  8
AM_0
 10
185.1341711214136
 20
282.0984187010568
 30
0.0
 40
0.5
 50
270.0
 51
0.0
  0
LINE
  5
6079
  8
AM_0
 10
174.73550002506761
 20
287.0996607747569
 30
0.0
 11
174.73550002506761
 21
285.92741758832392
 31
0.0
  0
LINE
  5
607A
  8
AM_0
 10
176.1618681800644
 20
290.05449002246479
 30
0.0
 11
176.6341711214136
 21
290.05449002246479
 31
0.0
  0
LINE
  5
607B
  8
AM_0
 10
176.06527568552531
 20
290.1286077892014
 30
0.0
 11
176.08513575163951
 21
290.05449002246479
 31
0.0
  0
ARC
  5
607C
  8
AM_0
 10
176.1618681800646
 20
290.15449002246481
 30
0.0
 40
0.1000000000000346
 50
195.00019500644461
 51
270.0
  0
ARC
  5
607D
  8
AM_0
 10
174.4355000250676
 20
290.24132300297282
 30
0.0
 40
0.3000000000000043
 50
270.0
 51
0.0
  0
LINE
  5
607E
  8
AM_0
 10
173.23550002506761
 20
292.35449002246492
 30
0.0
 11
174.45545572822471
 21
292.27315964225397
 31
0.0
  0
LINE
  5
607F
  8
AM_0
 10
173.23550002506761
 20
291.19823798662492
 30
0.0
 11
174.4355000250676
 21
291.19823798662492
 31
0.0
  0
LINE
  5
6080
  8
AM_0
 10
174.73550002506761
 20
291.95449002246488
 30
0.0
 11
173.23550002506761
 21
291.95449002246488
 31
0.0
  0
ARC
  5
6081
  8
AM_0
 10
174.73550002506761
 20
291.45449002246488
 30
0.0
 40
0.5
 50
0.0
 51
90.0
  0
LINE
  5
6082
  8
AM_0
 10
174.73550002506761
 20
291.97382409489688
 30
0.0
 11
174.73550002506761
 21
291.95449002246488
 31
0.0
  0
ARC
  5
6083
  8
AM_0
 10
174.4355000250676
 20
291.97382409489688
 30
0.0
 40
0.3000000000000007
 50
0.0
 51
86.18592516571853
  0
LINE
  5
6084
  8
AM_0
 10
175.80743869298851
 20
290.80449002246479
 30
0.0
 11
175.8841711214146
 21
290.80449002246479
 31
0.0
  0
LINE
  5
6085
  8
AM_0
 10
175.8841711214146
 20
290.80449002246479
 30
0.0
 11
175.90403118752769
 21
290.7303722557283
 31
0.0
  0
LINE
  5
6086
  8
AM_0
 10
175.31527568552551
 20
290.7303722557283
 30
0.0
 11
175.33513575163951
 21
290.80449002246479
 31
0.0
  0
LINE
  5
6087
  8
AM_0
 10
175.33513575163951
 20
290.80449002246479
 30
0.0
 11
175.4118681800644
 21
290.80449002246479
 31
0.0
  0
LINE
  5
6088
  8
AM_0
 10
175.90403118752769
 20
290.7303722557283
 30
0.0
 11
176.06527568552531
 21
290.1286077892014
 31
0.0
  0
LINE
  5
6089
  8
AM_0
 10
175.4118681800644
 20
290.80449002246479
 30
0.0
 11
175.80743869298851
 21
290.80449002246479
 31
0.0
  0
LINE
  5
608A
  8
AM_0
 10
175.2355000250684
 20
290.43264949090388
 30
0.0
 11
175.31527568552551
 21
290.7303722557283
 31
0.0
  0
ARC
  5
608B
  8
AM_0
 10
175.8074386929886
 20
290.70449002246488
 30
0.0
 40
0.0999999999999866
 50
15.000195006572991
 51
90.0
  0
ARC
  5
608C
  8
AM_0
 10
175.4118681800646
 20
290.70449002246488
 30
0.0
 40
0.1000000000000014
 50
90.0
 51
164.99980499342701
  0
LINE
  5
608D
  8
AM_0
 10
174.73550002506761
 20
290.89823798662479
 30
0.0
 11
174.73550002506761
 21
290.24132300297282
 31
0.0
  0
ARC
  5
608E
  8
AM_0
 10
174.4355000250676
 20
290.89823798662479
 30
0.0
 40
0.3000000000000007
 50
0.0
 51
90.0
  0
LINE
  5
608F
  8
AM_0
 10
173.23550002506761
 20
287.39966077475691
 30
0.0
 11
174.4355000250676
 21
287.39966077475691
 31
0.0
  0
LINE
  5
6090
  8
AM_0
 10
174.4355000250676
 20
289.94132300297292
 30
0.0
 11
173.23550002506761
 21
289.94132300297292
 31
0.0
  0
LINE
  5
6091
  8
AM_0
 10
176.08513575163951
 20
290.05449002246479
 30
0.0
 11
176.1618681800644
 21
290.05449002246479
 31
0.0
  0
ARC
  5
6092
  8
AM_0
 10
174.4355000250676
 20
287.0996607747569
 30
0.0
 40
0.3000000000000007
 50
0.0
 51
90.0
  0
LINE
  5
6093
  8
AM_0
 10
174.4355000250676
 20
285.62741758832391
 30
0.0
 11
173.23550002506761
 21
285.62741758832391
 31
0.0
  0
ARC
  5
6094
  8
AM_0
 10
174.4355000250676
 20
285.92741758832392
 30
0.0
 40
0.3000000000000043
 50
270.0
 51
0.0
  0
LINE
  5
6095
  8
AM_0
 10
174.4355000250676
 20
281.95449002246579
 30
0.0
 11
173.23550002506761
 21
281.95449002246579
 31
0.0
  0
ARC
  5
6096
  8
AM_0
 10
174.4355000250676
 20
281.65449002246572
 30
0.0
 40
0.3000000000000007
 50
0.0
 51
90.0
  0
LINE
  5
6097
  8
AM_0
 10
164.23550002506761
 20
291.08776985111177
 30
0.0
 11
170.73550002506761
 21
291.08776985111177
 31
0.0
  0
LINE
  5
6098
  8
AM_0
 10
164.23550002506761
 20
291.58776985111177
 30
0.0
 11
170.73550002506761
 21
291.58776985111177
 31
0.0
  0
LINE
  5
6099
  8
AM_0
 10
170.73550002506761
 20
281.45449002246488
 30
0.0
 11
164.23550002506761
 21
281.45449002246488
 31
0.0
  0
LINE
  5
609A
  8
AM_0
 10
163.73550002506761
 20
281.95449002246488
 30
0.0
 11
170.73550002506761
 21
281.95449002246488
 31
0.0
  0
LINE
  5
609B
  8
AM_0
 10
170.4355000250676
 20
291.95449002246488
 30
0.0
 11
163.59754996024941
 21
291.95449002246488
 31
0.0
  0
LINE
  5
609C
  8
AM_0
 10
170.73550002506761
 20
282.30117809100591
 30
0.0
 11
164.23550002506761
 21
282.30117809100591
 31
0.0
  0
LINE
  5
609D
  8
AM_0
 10
170.73550002506761
 20
290.60780195392402
 30
0.0
 11
164.23550002506761
 21
290.60780195392402
 31
0.0
  0
ARC
  5
609E
  8
AM_0
 10
171.03550002506751
 20
292.65449002246481
 30
0.0
 40
0.2999999999999971
 50
90.0
 51
180.0
  0
ARC
  5
609F
  8
AM_0
 10
170.4355000250676
 20
292.25449002246478
 30
0.0
 40
0.2999999999999971
 50
270.0
 51
0.0
  0
ARC
  5
60A0
  8
AM_0
 10
172.36050002506761
 20
286.45449002246488
 30
0.0
 40
9.124999999999984
 50
152.92493329271841
 51
207.07506670728151
  0
LINE
  5
60A1
  8
AM_0
 10
162.95736556058509
 20
291.72271130206241
 30
0.0
 11
160.595315625403
 21
289.75433635607732
 31
0.0
  0
LINE
  5
60A2
  8
AM_0
 10
163.73550002506761
 20
291.37605743895682
 30
0.0
 11
164.23550002506761
 21
291.95449002246488
 31
0.0
  0
ARC
  5
60A3
  8
AM_0
 10
163.59754996024941
 20
290.95449002246488
 30
0.0
 40
1.0
 50
90.0
 51
129.805571092256
  0
LINE
  5
60A4
  8
AM_0
 10
164.23550002506761
 20
291.58776985111177
 30
0.0
 11
163.73550002506761
 21
291.37605743895682
 31
0.0
  0
LINE
  5
60A5
  8
AM_0
 10
163.73550002506761
 20
290.91378216598588
 30
0.0
 11
164.23550002506761
 21
291.58776985111177
 31
0.0
  0
LINE
  5
60A6
  8
AM_0
 10
164.23550002506761
 20
291.08776985111177
 30
0.0
 11
163.73550002506761
 21
290.91378216598588
 31
0.0
  0
LINE
  5
60A7
  8
AM_0
 10
163.73550002506761
 20
290.37605743895682
 30
0.0
 11
164.23550002506761
 21
291.08776985111177
 31
0.0
  0
LINE
  5
60A8
  8
AM_0
 10
164.23550002506761
 20
290.60780195392402
 30
0.0
 11
163.73550002506761
 21
290.37605743895682
 31
0.0
  0
ARC
  5
60A9
  8
AM_0
 10
161.23550002506761
 20
288.9861150764799
 30
0.0
 40
1.0000000000000291
 50
129.8055710922664
 51
180.0
  0
LINE
  5
60AA
  8
AM_0
 10
164.23550002506761
 20
281.45449002246488
 30
0.0
 11
163.73550002506761
 21
280.95449002246488
 31
0.0
  0
LINE
  5
60AB
  8
AM_0
 10
163.73550002506761
 20
281.95449002246488
 30
0.0
 11
164.23550002506761
 21
281.45449002246488
 31
0.0
  0
LINE
  5
60AC
  8
AM_0
 10
164.23550002506761
 20
282.30117809100591
 30
0.0
 11
163.73550002506761
 21
281.95449002246488
 31
0.0
  0
LINE
  5
60AD
  8
AM_0
 10
171.03550002506751
 20
268.95449002246488
 30
0.0
 11
173.23550002506761
 21
268.95449002246488
 31
0.0
  0
ARC
  5
60AE
  8
AM_0
 10
185.1341711214136
 20
268.45449002246488
 30
0.0
 40
0.5
 50
0.0
 51
90.000000000006537
  0
LINE
  5
60AF
  8
AM_0
 10
180.1341711214136
 20
271.85449002246492
 30
0.0
 11
176.9118681800644
 21
271.85449002246492
 31
0.0
  0
LINE
  5
60B0
  8
AM_0
 10
185.6341711214136
 20
279.81056134387183
 30
0.0
 11
185.6341711214136
 21
270.0984187010568
 31
0.0
  0
LINE
  5
60B1
  8
AM_0
 10
180.6341711214136
 20
280.31056134387183
 30
0.0
 11
185.1341711214136
 21
280.31056134387183
 31
0.0
  0
ARC
  5
60B2
  8
AM_0
 10
185.1341711214136
 20
279.81056134387183
 30
0.0
 40
0.5
 50
0.0
 51
90.0
  0
LINE
  5
60B3
  8
AM_0
 10
180.6341711214136
 20
269.5984187010568
 30
0.0
 11
185.1341711214136
 21
269.5984187010568
 31
0.0
  0
LINE
  5
60B4
  8
AM_0
 10
185.1341711214134
 20
268.95449002246488
 30
0.0
 11
181.1341711214136
 21
268.95449002246488
 31
0.0
  0
ARC
  5
60B5
  8
AM_0
 10
185.1341711214136
 20
270.0984187010568
 30
0.0
 40
0.5
 50
270.0
 51
0.0
  0
ARC
  5
60B6
  8
AM_0
 10
180.1341711214136
 20
271.35449002246492
 30
0.0
 40
0.5
 50
0.0
 51
90.0
  0
ARC
  5
60B7
  8
AM_0
 10
181.1341711214136
 20
269.45449002246488
 30
0.0
 40
0.5
 50
180.0
 51
270.0
  0
ARC
  5
60B8
  8
AM_0
 10
174.4355000250676
 20
274.80931927017281
 30
0.0
 40
0.3000000000000114
 50
270.0
 51
0.0
  0
LINE
  5
60B9
  8
AM_0
 10
173.23550002506761
 20
279.95449002246278
 30
0.0
 11
174.4355000250676
 21
279.95449002246278
 31
0.0
  0
ARC
  5
60BA
  8
AM_0
 10
174.4355000250676
 20
280.25449002246279
 30
0.0
 40
0.2999999999999971
 50
270.0
 51
0.0
  0
LINE
  5
60BB
  8
AM_0
 10
173.23550002506761
 20
276.28156245660591
 30
0.0
 11
174.4355000250676
 21
276.28156245660591
 31
0.0
  0
ARC
  5
60BC
  8
AM_0
 10
174.4355000250676
 20
275.98156245660579
 30
0.0
 40
0.3000000000000007
 50
0.0
 51
90.0
  0
LINE
  5
60BD
  8
AM_0
 10
174.73550002506761
 20
275.9815624566059
 30
0.0
 11
174.73550002506761
 21
274.80931927017292
 31
0.0
  0
LINE
  5
60BE
  8
AM_0
 10
176.1618681800644
 20
271.10449002246492
 30
0.0
 11
176.55743869298851
 21
271.10449002246492
 31
0.0
  0
LINE
  5
60BF
  8
AM_0
 10
176.1618681800644
 20
271.10449002246492
 30
0.0
 11
176.55743869298851
 21
271.10449002246492
 31
0.0
  0
LINE
  5
60C0
  8
AM_0
 10
176.65403118752769
 20
271.17860778920141
 30
0.0
 11
176.81527568552551
 21
271.78037225572842
 31
0.0
  0
LINE
  5
60C1
  8
AM_0
 10
176.65403118752769
 20
271.17860778920141
 30
0.0
 11
176.81527568552551
 21
271.78037225572842
 31
0.0
  0
ARC
  5
60C2
  8
AM_0
 10
176.9118681800644
 20
271.75449002246478
 30
0.0
 40
0.0999999999999943
 50
90.0
 51
164.9998049934878
  0
ARC
  5
60C3
  8
AM_0
 10
176.55743869298851
 20
271.20449002246488
 30
0.0
 40
0.0999999999999943
 50
270.0
 51
344.99980499349448
  0
LINE
  5
60C4
  8
AM_0
 10
175.2346534365264
 20
271.47949002246457
 30
0.0
 11
175.31527568552551
 21
271.78037225572842
 31
0.0
  0
LINE
  5
60C5
  8
AM_0
 10
175.88688177361951
 20
271.81522548936681
 30
0.0
 11
176.06527568552551
 21
271.17860778920141
 31
0.0
  0
LINE
  5
60C6
  8
AM_0
 10
175.90403118752769
 20
271.78037225572842
 30
0.0
 11
176.06527568552551
 21
271.17860778920141
 31
0.0
  0
LINE
  5
60C7
  8
AM_0
 10
174.73550002506761
 20
271.66765704195592
 30
0.0
 11
174.73550002506761
 21
271.01074205830491
 31
0.0
  0
LINE
  5
60C8
  8
AM_0
 10
175.23550002506761
 20
271.48264949090282
 30
0.0
 11
175.31527568552551
 21
271.78037225572842
 31
0.0
  0
LINE
  5
60C9
  8
AM_0
 10
173.23550002506761
 20
271.96765704195587
 30
0.0
 11
174.4355000250676
 21
271.96765704195587
 31
0.0
  0
LINE
  5
60CA
  8
AM_0
 10
174.4355000250676
 20
274.50931927017291
 30
0.0
 11
173.23550002506761
 21
274.50931927017172
 31
0.0
  0
LINE
  5
60CB
  8
AM_0
 10
175.84007095850359
 20
271.85449002246492
 30
0.0
 11
175.88688177361951
 21
271.81522548936681
 31
0.0
  0
LINE
  5
60CC
  8
AM_0
 10
175.4118681800644
 20
271.85449002246492
 30
0.0
 11
175.84007095850359
 21
271.85449002246492
 31
0.0
  0
LINE
  5
60CD
  8
AM_0
 10
175.4118681800644
 20
271.85449002246492
 30
0.0
 11
175.80743869298851
 21
271.85449002246492
 31
0.0
  0
ARC
  5
60CE
  8
AM_0
 10
175.4118681800644
 20
271.75449002246478
 30
0.0
 40
0.0999999999999943
 50
90.0
 51
164.9998049934878
  0
ARC
  5
60CF
  8
AM_0
 10
175.80743869298851
 20
271.75449002246478
 30
0.0
 40
0.0999999999999608
 50
15.00019500651214
 51
90.0
  0
ARC
  5
60D0
  8
AM_0
 10
174.4355000250676
 20
271.66765704195581
 30
0.0
 40
0.3000000000000007
 50
0.0
 51
90.0
  0
LINE
  5
60D1
  8
AM_0
 10
173.23550002506761
 20
269.95449002246488
 30
0.0
 11
174.73550002506761
 21
269.95449002246488
 31
0.0
  0
LINE
  5
60D2
  8
AM_0
 10
174.4355000250676
 20
270.7107420583049
 30
0.0
 11
173.23550002506761
 21
270.7107420583049
 31
0.0
  0
LINE
  5
60D3
  8
AM_0
 10
174.45545572822471
 20
269.63582040267482
 30
0.0
 11
173.23550002506761
 21
269.5544900224649
 31
0.0
  0
ARC
  5
60D4
  8
AM_0
 10
174.73550002506761
 20
270.45449002246488
 30
0.0
 40
0.5
 50
270.0
 51
0.0
  0
ARC
  5
60D5
  8
AM_0
 10
176.1618681800644
 20
271.20449002246488
 30
0.0
 40
0.0999999999999606
 50
195.00019500650541
 51
270.0
  0
ARC
  5
60D6
  8
AM_0
 10
174.4355000250676
 20
271.01074205830491
 30
0.0
 40
0.2999999999999971
 50
270.0
 51
0.0
  0
LINE
  5
60D7
  8
AM_0
 10
174.73550002506761
 20
269.95449002246488
 30
0.0
 11
174.73550002506761
 21
269.93515595003191
 31
0.0
  0
ARC
  5
60D8
  8
AM_0
 10
174.4355000250676
 20
269.93515595003191
 30
0.0
 40
0.3000000000000043
 50
273.81407483428148
 51
0.0
  0
ARC
  5
60D9
  8
AM_0
 10
186.1341711214136
 20
267.95449002246488
 30
0.0
 40
0.5
 50
180.0
 51
270.0
  0
LINE
  5
60DA
  8
AM_0
 10
185.6341711214136
 20
267.95449002246488
 30
0.0
 11
185.6341711214136
 21
268.45449002246488
 31
0.0
  0
LINE
  5
60DB
  8
AM_0
 10
164.23550002506761
 20
271.30117809100591
 30
0.0
 11
170.73550002506761
 21
271.30117809100591
 31
0.0
  0
LINE
  5
60DC
  8
AM_0
 10
164.23550002506761
 20
279.60780195392391
 30
0.0
 11
170.73550002506761
 21
279.60780195392391
 31
0.0
  0
LINE
  5
60DD
  8
AM_0
 10
163.59754996024941
 20
269.95449002246488
 30
0.0
 11
170.4355000250676
 21
269.95449002246488
 31
0.0
  0
LINE
  5
60DE
  8
AM_0
 10
170.73550002506761
 20
279.95449002246488
 30
0.0
 11
163.73550002506761
 21
279.95449002246488
 31
0.0
  0
LINE
  5
60DF
  8
AM_0
 10
164.23550002506761
 20
280.45449002246488
 30
0.0
 11
170.73550002506761
 21
280.45449002246488
 31
0.0
  0
LINE
  5
60E0
  8
AM_0
 10
170.73550002506761
 20
270.32121019381691
 30
0.0
 11
164.23550002506761
 21
270.32121019381691
 31
0.0
  0
LINE
  5
60E1
  8
AM_0
 10
170.73550002506761
 20
270.82121019381691
 30
0.0
 11
164.23550002506761
 21
270.82121019381691
 31
0.0
  0
ARC
  5
60E2
  8
AM_0
 10
170.4355000250676
 20
269.65449002246481
 30
0.0
 40
0.3000000000000043
 50
0.0
 51
90.0
  0
ARC
  5
60E3
  8
AM_0
 10
171.03550002506751
 20
269.25449002246478
 30
0.0
 40
0.2999999999999971
 50
180.0
 51
270.0
  0
ARC
  5
60E4
  8
AM_0
 10
172.36050002506761
 20
275.45449002246488
 30
0.0
 40
9.124999999999984
 50
152.92493329271841
 51
207.07506670728151
  0
LINE
  5
60E5
  8
AM_0
 10
163.73550002506761
 20
279.95449002246488
 30
0.0
 11
164.23550002506761
 21
279.60780195392391
 31
0.0
  0
LINE
  5
60E6
  8
AM_0
 10
164.23550002506761
 20
280.45449002246488
 30
0.0
 11
163.73550002506761
 21
279.95449002246488
 31
0.0
  0
LINE
  5
60E7
  8
AM_0
 10
160.595315625403
 20
272.15464368885142
 30
0.0
 11
162.95736556058509
 21
270.18626874286741
 31
0.0
  0
LINE
  5
60E8
  8
AM_0
 10
164.23550002506761
 20
269.95449002246488
 30
0.0
 11
163.73550002506761
 21
270.53292260597192
 31
0.0
  0
ARC
  5
60E9
  8
AM_0
 10
163.59754996024941
 20
270.95449002246488
 30
0.0
 40
1.0000000000000411
 50
230.19442890774391
 51
270.0
  0
LINE
  5
60EA
  8
AM_0
 10
163.73550002506761
 20
271.53292260597192
 30
0.0
 11
164.23550002506761
 21
271.30117809100591
 31
0.0
  0
LINE
  5
60EB
  8
AM_0
 10
164.23550002506761
 20
270.82121019381691
 30
0.0
 11
163.73550002506761
 21
271.53292260597192
 31
0.0
  0
LINE
  5
60EC
  8
AM_0
 10
163.73550002506761
 20
270.99519787894388
 30
0.0
 11
164.23550002506761
 21
270.82121019381691
 31
0.0
  0
LINE
  5
60ED
  8
AM_0
 10
164.23550002506761
 20
270.32121019381691
 30
0.0
 11
163.73550002506761
 21
270.99519787894388
 31
0.0
  0
LINE
  5
60EE
  8
AM_0
 10
163.73550002506761
 20
270.53292260597192
 30
0.0
 11
164.23550002506761
 21
270.32121019381691
 31
0.0
  0
ARC
  5
60EF
  8
AM_0
 10
161.23550002506761
 20
272.92286496844878
 30
0.0
 40
1.0
 50
180.0
 51
230.1944289077336
  0
CIRCLE
  5
60F0
  8
AM_0
 10
194.6341711214119
 20
306.95449002246443
 30
0.0
 40
4.0
  0
LINE
  5
60F1
  8
AM_0
 10
194.3226711214119
 20
304.67568161674018
 30
0.0
 11
194.94567112141181
 21
304.67568161674018
 31
0.0
  0
LINE
  5
60F2
  8
AM_0
 10
194.3226711214119
 20
309.2332984281889
 30
0.0
 11
194.94567112141181
 21
309.2332984281889
 31
0.0
  0
LINE
  5
60F3
  8
AM_0
 10
194.3226711214119
 20
304.67568161674018
 30
0.0
 11
194.3226711214119
 21
306.6429900224644
 31
0.0
  0
LINE
  5
60F4
  8
AM_0
 10
194.3226711214119
 20
307.26599002246439
 30
0.0
 11
194.3226711214119
 21
309.2332984281889
 31
0.0
  0
LINE
  5
60F5
  8
AM_0
 10
194.3226711214119
 20
307.26599002246439
 30
0.0
 11
192.35536271568751
 21
307.26599002246439
 31
0.0
  0
LINE
  5
60F6
  8
AM_0
 10
194.3226711214119
 20
306.6429900224644
 30
0.0
 11
192.35536271568751
 21
306.6429900224644
 31
0.0
  0
LINE
  5
60F7
  8
AM_0
 10
192.35536271568751
 20
307.26599002246439
 30
0.0
 11
192.35536271568751
 21
306.6429900224644
 31
0.0
  0
LINE
  5
60F8
  8
AM_0
 10
194.94567112141181
 20
304.67568161674018
 30
0.0
 11
194.94567112141181
 21
306.6429900224644
 31
0.0
  0
LINE
  5
60F9
  8
AM_0
 10
194.94567112141181
 20
307.26599002246439
 30
0.0
 11
194.94567112141181
 21
309.2332984281889
 31
0.0
  0
LINE
  5
60FA
  8
AM_0
 10
196.9129795271362
 20
306.6429900224644
 30
0.0
 11
194.94567112141181
 21
306.6429900224644
 31
0.0
  0
LINE
  5
60FB
  8
AM_0
 10
196.9129795271362
 20
307.26599002246439
 30
0.0
 11
194.94567112141181
 21
307.26599002246439
 31
0.0
  0
LINE
  5
60FC
  8
AM_0
 10
196.9129795271362
 20
307.26599002246439
 30
0.0
 11
196.9129795271362
 21
306.6429900224644
 31
0.0
  0
CIRCLE
  5
60FD
  8
AM_0
 10
280.63417112141542
 20
306.95449002246443
 30
0.0
 40
4.0
  0
LINE
  5
60FE
  8
AM_0
 10
280.32267112141551
 20
304.67568161674012
 30
0.0
 11
280.9456711214155
 21
304.67568161674012
 31
0.0
  0
LINE
  5
60FF
  8
AM_0
 10
280.32267112141551
 20
309.2332984281889
 30
0.0
 11
280.9456711214155
 21
309.2332984281889
 31
0.0
  0
LINE
  5
6100
  8
AM_0
 10
280.32267112141551
 20
304.67568161674012
 30
0.0
 11
280.32267112141551
 21
306.6429900224644
 31
0.0
  0
LINE
  5
6101
  8
AM_0
 10
280.32267112141551
 20
307.26599002246439
 30
0.0
 11
280.32267112141551
 21
309.2332984281889
 31
0.0
  0
LINE
  5
6102
  8
AM_0
 10
280.32267112141551
 20
307.26599002246439
 30
0.0
 11
278.35536271569111
 21
307.26599002246439
 31
0.0
  0
LINE
  5
6103
  8
AM_0
 10
280.32267112141551
 20
306.6429900224644
 30
0.0
 11
278.35536271569111
 21
306.6429900224644
 31
0.0
  0
LINE
  5
6104
  8
AM_0
 10
278.35536271569111
 20
307.26599002246439
 30
0.0
 11
278.35536271569111
 21
306.6429900224644
 31
0.0
  0
LINE
  5
6105
  8
AM_0
 10
280.9456711214155
 20
304.67568161674012
 30
0.0
 11
280.9456711214155
 21
306.6429900224644
 31
0.0
  0
LINE
  5
6106
  8
AM_0
 10
280.9456711214155
 20
307.26599002246439
 30
0.0
 11
280.9456711214155
 21
309.2332984281889
 31
0.0
  0
LINE
  5
6107
  8
AM_0
 10
282.91297952713973
 20
306.6429900224644
 30
0.0
 11
280.9456711214155
 21
306.6429900224644
 31
0.0
  0
LINE
  5
6108
  8
AM_0
 10
282.91297952713973
 20
307.26599002246439
 30
0.0
 11
280.9456711214155
 21
307.26599002246439
 31
0.0
  0
LINE
  5
6109
  8
AM_0
 10
282.91297952713973
 20
307.26599002246439
 30
0.0
 11
282.91297952713973
 21
306.6429900224644
 31
0.0
  0
LINE
  5
610A
  8
AM_0
 10
208.16970502734651
 20
310.49002392839759
 30
0.0
 11
191.09863721548081
 21
293.41895611653217
 31
0.0
  0
LINE
  5
610B
  8
AM_0
 10
208.82655927683879
 20
305.49002392839748
 30
0.0
 11
196.09863721548081
 21
292.7621018670398
 31
0.0
  0
ARC
  5
610C
  8
AM_0
 10
199.6341711214136
 20
289.22656796110692
 30
0.0
 40
5.0
 50
135.0
 51
180.0
1001
GENIUS_GENOBJ-N-FIL_13
1002
{
1000
OWNER
1000
GEN
1002
}
1001
GENIUS_GENODEF_13
1002
{
1000
HIER
1070
     0
1002
}
1002
{
1000
MANEDIT
1070
     0
1002
}
1002
{
1000
NOSEL
1070
     0
1002
}
1002
{
1000
BEHIND
1070
     0
1002
}
1002
{
1000
OTHER
1070
     0
1002
}
1002
{
1000
REACTOR
1002
}
  0
LINE
  5
610D
  8
AM_0
 10
267.09863721548078
 20
221.418956116532
 30
0.0
 11
284.16970502734631
 21
238.49002392839731
 31
0.0
  0
ARC
  5
610E
  8
AM_0
 10
263.56310330954813
 20
224.95449002246471
 30
0.0
 40
5.0
 50
270.0
 51
315.0
1001
GENIUS_GENODEF_13
1002
{
1000
HIER
1070
     0
1002
}
1002
{
1000
MANEDIT
1070
     0
1002
}
1002
{
1000
NOSEL
1070
     0
1002
}
1002
{
1000
BEHIND
1070
     0
1002
}
1002
{
1000
OTHER
1070
     0
1002
}
1002
{
1000
REACTOR
1002
}
1001
GENIUS_GENOBJ-N-FIL_13
1002
{
1000
OWNER
1000
GEN
1002
}
  0
LINE
  5
610F
  8
AM_0
 10
266.44178296598858
 20
226.418956116532
 30
0.0
 11
279.16970502734642
 21
239.14687817788959
 31
0.0
  0
ARC
  5
6110
  8
AM_0
 10
275.63417112141371
 20
242.68241208382241
 30
0.0
 40
5.0
 50
315.0
 51
0.0
1001
GENIUS_GENOBJ-N-FIL_13
1002
{
1000
OWNER
1000
GEN
1002
}
1001
GENIUS_GENODEF_13
1002
{
1000
HIER
1070
     0
1002
}
1002
{
1000
MANEDIT
1070
     0
1002
}
1002
{
1000
NOSEL
1070
     0
1002
}
1002
{
1000
BEHIND
1070
     0
1002
}
1002
{
1000
OTHER
1070
     0
1002
}
1002
{
1000
REACTOR
1002
}
  0
LINE
  5
6111
  8
AM_0
 10
208.1697050273464
 20
221.418956116532
 30
0.0
 11
191.09863721548081
 21
238.49002392839719
 31
0.0
  0
LINE
  5
6112
  8
AM_0
 10
208.82655927683859
 20
226.418956116532
 30
0.0
 11
196.09863721548081
 21
239.14687817788959
 31
0.0
  0
ARC
  5
6113
  8
AM_0
 10
212.3620931827713
 20
229.9544900224646
 30
0.0
 40
5.0
 50
225.0
 51
270.0
1001
GENIUS_GENOBJ-N-FIL_13
1002
{
1000
OWNER
1000
GEN
1002
}
1001
GENIUS_GENODEF_13
1002
{
1000
HIER
1070
     0
1002
}
1002
{
1000
MANEDIT
1070
     0
1002
}
1002
{
1000
NOSEL
1070
     0
1002
}
1002
{
1000
BEHIND
1070
     0
1002
}
1002
{
1000
OTHER
1070
     0
1002
}
1002
{
1000
REACTOR
1002
}
  0
CIRCLE
  5
6114
  8
AM_0
 10
194.63417112141181
 20
224.95449002246511
 30
0.0
 40
4.0
  0
LINE
  5
6115
  8
AM_0
 10
194.3226711214119
 20
227.2332984281895
 30
0.0
 11
194.94567112141181
 21
227.2332984281895
 31
0.0
  0
LINE
  5
6116
  8
AM_0
 10
194.3226711214119
 20
222.67568161674069
 30
0.0
 11
194.94567112141181
 21
222.67568161674069
 31
0.0
  0
LINE
  5
6117
  8
AM_0
 10
194.3226711214119
 20
227.2332984281895
 30
0.0
 11
194.3226711214119
 21
225.2659900224651
 31
0.0
  0
LINE
  5
6118
  8
AM_0
 10
194.3226711214119
 20
224.64299002246511
 30
0.0
 11
194.3226711214119
 21
222.67568161674069
 31
0.0
  0
LINE
  5
6119
  8
AM_0
 10
194.3226711214119
 20
224.64299002246511
 30
0.0
 11
192.35536271568731
 21
224.64299002246511
 31
0.0
  0
LINE
  5
611A
  8
AM_0
 10
194.3226711214119
 20
225.2659900224651
 30
0.0
 11
192.35536271568731
 21
225.2659900224651
 31
0.0
  0
LINE
  5
611B
  8
AM_0
 10
192.35536271568731
 20
224.64299002246511
 30
0.0
 11
192.35536271568731
 21
225.2659900224651
 31
0.0
  0
LINE
  5
611C
  8
AM_0
 10
194.94567112141181
 20
227.2332984281895
 30
0.0
 11
194.94567112141181
 21
225.2659900224651
 31
0.0
  0
LINE
  5
611D
  8
AM_0
 10
194.94567112141181
 20
224.64299002246511
 30
0.0
 11
194.94567112141181
 21
222.67568161674069
 31
0.0
  0
LINE
  5
611E
  8
AM_0
 10
196.91297952713609
 20
225.2659900224651
 30
0.0
 11
194.94567112141181
 21
225.2659900224651
 31
0.0
  0
LINE
  5
611F
  8
AM_0
 10
196.91297952713609
 20
224.64299002246511
 30
0.0
 11
194.94567112141181
 21
224.64299002246511
 31
0.0
  0
LINE
  5
6120
  8
AM_0
 10
196.91297952713609
 20
224.64299002246511
 30
0.0
 11
196.91297952713609
 21
225.2659900224651
 31
0.0
  0
CIRCLE
  5
6121
  8
AM_0
 10
280.63417112141531
 20
224.9544900224648
 30
0.0
 40
4.0
  0
LINE
  5
6122
  8
AM_0
 10
280.32267112141528
 20
227.23329842818941
 30
0.0
 11
280.94567112141527
 21
227.23329842818941
 31
0.0
  0
LINE
  5
6123
  8
AM_0
 10
280.32267112141528
 20
222.6756816167406
 30
0.0
 11
280.94567112141527
 21
222.6756816167406
 31
0.0
  0
LINE
  5
6124
  8
AM_0
 10
280.32267112141528
 20
227.23329842818941
 30
0.0
 11
280.32267112141528
 21
225.2659900224649
 31
0.0
  0
LINE
  5
6125
  8
AM_0
 10
280.32267112141528
 20
224.64299002246489
 30
0.0
 11
280.32267112141528
 21
222.6756816167406
 31
0.0
  0
LINE
  5
6126
  8
AM_0
 10
280.32267112141528
 20
224.64299002246489
 30
0.0
 11
278.35536271569089
 21
224.64299002246489
 31
0.0
  0
LINE
  5
6127
  8
AM_0
 10
280.32267112141528
 20
225.2659900224649
 30
0.0
 11
278.35536271569089
 21
225.2659900224649
 31
0.0
  0
LINE
  5
6128
  8
AM_0
 10
278.35536271569089
 20
224.64299002246489
 30
0.0
 11
278.35536271569089
 21
225.2659900224649
 31
0.0
  0
LINE
  5
6129
  8
AM_0
 10
280.94567112141527
 20
227.23329842818941
 30
0.0
 11
280.94567112141527
 21
225.2659900224649
 31
0.0
  0
LINE
  5
612A
  8
AM_0
 10
280.94567112141527
 20
224.64299002246489
 30
0.0
 11
280.94567112141527
 21
222.6756816167406
 31
0.0
  0
LINE
  5
612B
  8
AM_0
 10
282.91297952713973
 20
225.2659900224649
 30
0.0
 11
280.94567112141527
 21
225.2659900224649
 31
0.0
  0
LINE
  5
612C
  8
AM_0
 10
282.91297952713973
 20
224.64299002246489
 30
0.0
 11
280.94567112141527
 21
224.64299002246489
 31
0.0
  0
LINE
  5
612D
  8
AM_0
 10
282.91297952713973
 20
224.64299002246489
 30
0.0
 11
282.91297952713973
 21
225.2659900224649
 31
0.0
  0
LINE
  5
612E
  8
AM_0
 10
189.6341711214136
 20
234.9544900224648
 30
0.0
 11
188.6341711214136
 21
234.9544900224648
 31
0.0
  0
LINE
  5
612F
  8
AM_0
 10
189.6341711214136
 20
296.95449002246488
 30
0.0
 11
188.6341711214136
 21
296.95449002246482
 31
0.0
  0
LINE
  5
6130
  8
AM_0
 10
188.6341711214136
 20
234.9544900224648
 30
0.0
 11
188.6341711214136
 21
296.95449002246482
 31
0.0
  0
LINE
  5
6131
  8
ﾁｭｳｼﾝｾﾝ1
 10
194.6341711214115
 20
300.95449002246443
 30
0.0
 11
194.63417112141209
 21
312.95449002246443
 31
0.0
  0
LINE
  5
6132
  8
ﾁｭｳｼﾝｾﾝ1
 10
200.6341711214119
 20
306.9544900224642
 30
0.0
 11
188.6341711214119
 21
306.95449002246488
 31
0.0
  0
LINE
  5
6133
  8
ﾁｭｳｼﾝｾﾝ1
 10
194.63417112141141
 20
218.95449002246511
 30
0.0
 11
194.63417112141209
 21
230.95449002246511
 31
0.0
  0
LINE
  5
6134
  8
ﾁｭｳｼﾝｾﾝ1
 10
200.63417112141181
 20
224.9544900224648
 30
0.0
 11
188.63417112141181
 21
224.95449002246551
 31
0.0
  0
LINE
  5
6135
  8
ﾁｭｳｼﾝｾﾝ1
 10
280.63417112141502
 20
218.95449002246491
 30
0.0
 11
280.63417112141548
 21
230.9544900224648
 31
0.0
  0
LINE
  5
6136
  8
ﾁｭｳｼﾝｾﾝ1
 10
286.63417112141531
 20
224.95449002246471
 30
0.0
 11
274.63417112141531
 21
224.95449002246531
 31
0.0
  0
LINE
  5
613A
  8
AM_0
 10
174.6145939013918
 20
269.69447902246469
 30
0.0
 11
180.6341711214136
 21
269.6944790224648
 31
0.0
  0
LINE
  5
613B
  8
ﾁｭｳｼﾝｾﾝ1
 10
158.6341711214136
 20
245.95449002246471
 30
0.0
 11
191.932117259904
 21
245.95449002246471
 31
0.0
  0
LINE
  5
613C
  8
AM_0
 10
178.5091711214146
 20
239.5644359663406
 30
0.0
 11
178.51988072595961
 21
239.3544900224646
 31
0.0
  0
LINE
  5
613D
  8
AM_0
 10
178.51988072595961
 20
239.3544900224646
 30
0.0
 11
178.55618611316049
 21
238.64277664857761
 31
0.0
  0
LINE
  5
613E
  8
AM_0
 10
178.5091711214146
 20
243.3217675139816
 30
0.0
 11
178.7551973440946
 21
239.3544900224646
 31
0.0
  0
LINE
  5
613F
  8
AM_0
 10
179.2275002854436
 20
239.3544900224646
 30
0.0
 11
178.8319297725196
 21
239.3544900224646
 31
0.0
  0
LINE
  5
6140
  8
AM_0
 10
178.73533727798051
 20
239.28037225572919
 30
0.0
 11
178.57409277998269
 21
238.6786077892011
 31
0.0
  0
LINE
  5
6141
  8
AM_0
 10
178.7551973440946
 20
239.3544900224646
 30
0.0
 11
178.73533727798051
 21
239.28037225572919
 31
0.0
  0
LINE
  5
6142
  8
AM_0
 10
177.0091711214146
 20
236.95449002246471
 30
0.0
 11
177.0091711214146
 21
237.25449002246569
 31
0.0
  0
LINE
  5
6143
  8
AM_0
 10
166.5091711214136
 20
245.95449002246471
 30
0.0
 11
166.5091711214136
 21
240.63551499005561
 31
0.0
  0
LINE
  5
6144
  8
AM_0
 10
177.0091711214146
 20
237.45449002246571
 30
0.0
 11
178.30917112141461
 21
237.45449002246571
 31
0.0
  0
LINE
  5
6145
  8
AM_0
 10
178.0091711214136
 20
237.42598629109969
 30
0.0
 11
178.0091711214146
 21
237.45449002246571
 31
0.0
  0
LINE
  5
6146
  8
AM_0
 10
169.00917112141161
 20
238.42229881432871
 30
0.0
 11
175.0091711214146
 21
238.42229881432871
 31
0.0
  0
LINE
  5
6147
  8
AM_0
 10
175.0091711214146
 20
237.9222988143288
 30
0.0
 11
169.00917112141059
 21
237.9222988143288
 31
0.0
  0
LINE
  5
6148
  8
AM_0
 10
169.00917112141059
 20
237.9222988143288
 30
0.0
 11
169.50917112141059
 21
237.45449002246471
 31
0.0
  0
LINE
  5
6149
  8
AM_0
 10
169.50917112141059
 20
237.9222988143288
 30
0.0
 11
169.00917112141161
 21
238.42229881432871
 31
0.0
  0
LINE
  5
614A
  8
AM_0
 10
169.00917112141161
 20
239.09327409029771
 30
0.0
 11
169.50917112141059
 21
238.42229881432871
 31
0.0
  0
LINE
  5
614B
  8
AM_0
 10
169.50917112141059
 20
239.1427523309747
 30
0.0
 11
169.00917112141161
 21
239.09327409029771
 31
0.0
  0
LINE
  5
614C
  8
AM_0
 10
175.0091711214146
 20
244.86429618740669
 30
0.0
 11
175.0091711214146
 21
245.95449002246471
 31
0.0
  0
LINE
  5
614D
  8
AM_0
 10
169.00917112141059
 20
244.95449002246471
 30
0.0
 11
175.0091711214146
 21
244.95449002246471
 31
0.0
  0
LINE
  5
614E
  8
AM_0
 10
169.50917112141059
 20
244.26622771395469
 30
0.0
 11
169.00917112141059
 21
244.95449002246471
 31
0.0
  0
LINE
  5
614F
  8
AM_0
 10
169.00917112141059
 20
244.95449002246471
 30
0.0
 11
169.50917112141161
 21
245.45449002246471
 31
0.0
  0
LINE
  5
6150
  8
AM_0
 10
169.00917112141161
 20
245.95449002246471
 30
0.0
 11
169.50917112141161
 21
245.45449002246471
 31
0.0
  0
LINE
  5
6151
  8
AM_0
 10
169.50917112141161
 20
245.45449002246471
 30
0.0
 11
175.0091711214146
 21
245.45449002246471
 31
0.0
  0
LINE
  5
6152
  8
AM_0
 10
169.50917112141059
 20
244.26622771395469
 30
0.0
 11
175.0091711214146
 21
244.26622771395469
 31
0.0
  0
LINE
  5
6153
  8
AM_0
 10
169.50917112141059
 20
239.1427523309747
 30
0.0
 11
175.0091711214146
 21
239.1427523309757
 31
0.0
  0
LINE
  5
6154
  8
AM_0
 10
178.0091711214136
 20
245.50449002246569
 30
0.0
 11
178.0091711214146
 21
245.95449002246471
 31
0.0
  0
LINE
  5
6155
  8
AM_0
 10
177.0091711214146
 20
237.25449002246569
 30
0.0
 11
177.0091711214146
 21
245.9544900224667
 31
0.0
  0
LINE
  5
6156
  8
AM_0
 10
177.70917112141359
 20
238.99698533443271
 30
0.0
 11
177.0091711214146
 21
238.99698533443271
 31
0.0
  0
LINE
  5
6157
  8
AM_0
 10
178.0091711214136
 20
238.2918744771427
 30
0.0
 11
178.0091711214136
 21
238.6969853344327
 31
0.0
  0
LINE
  5
6158
  8
AM_0
 10
177.0091711214146
 20
237.99187447714269
 30
0.0
 11
177.70917112141359
 21
237.99187447714269
 31
0.0
  0
LINE
  5
6159
  8
AM_0
 10
177.70917112141359
 20
242.3705855198337
 30
0.0
 11
177.0091711214146
 21
242.3705855198337
 31
0.0
  0
LINE
  5
615A
  8
AM_0
 10
178.0091711214136
 20
241.27066925354171
 30
0.0
 11
178.0091711214136
 21
242.07058551983371
 31
0.0
  0
LINE
  5
615B
  8
AM_0
 10
177.0091711214146
 20
240.9706692535417
 30
0.0
 11
177.70917112141359
 21
240.9706692535417
 31
0.0
  0
LINE
  5
615C
  8
AM_0
 10
177.0091711214146
 20
245.20449002246471
 30
0.0
 11
177.70917112141359
 21
245.20449002246471
 31
0.0
  0
LINE
  5
615D
  8
AM_0
 10
178.5091711214146
 20
245.95449002246471
 30
0.0
 11
178.5091711214146
 21
237.65449002246569
 31
0.0
  0
LINE
  5
615E
  8
AM_0
 10
175.20917112141359
 20
236.95449002246471
 30
0.0
 11
177.0091711214146
 21
236.95449002246471
 31
0.0
  0
LINE
  5
615F
  8
AM_0
 10
166.6250604816147
 20
240.31542279022369
 30
0.0
 11
168.85924795460451
 21
237.634397822631
 31
0.0
  0
LINE
  5
6160
  8
AM_0
 10
177.73902223712011
 20
237.1274751340367
 30
0.0
 11
177.0091711214146
 21
237.0544900224657
 31
0.0
  0
LINE
  5
6161
  8
AM_0
 10
174.80917112141461
 20
237.45449002246471
 30
0.0
 11
169.2433585944035
 21
237.45449002246269
 31
0.0
  0
LINE
  5
6162
  8
AM_0
 10
175.0091711214146
 20
244.86429618740669
 30
0.0
 11
175.0091711214146
 21
237.25449002246461
 31
0.0
  0
LINE
  5
6163
  8
AM_0
 10
175.0091711214146
 20
237.25449002246461
 30
0.0
 11
175.0091711214136
 21
237.1544900224647
 31
0.0
  0
LINE
  5
6164
  8
AM_0
 10
182.6341711214136
 20
237.6544900224649
 30
0.0
 11
182.6341711214136
 21
244.26622771395469
 31
0.0
  0
LINE
  5
6165
  8
AM_0
 10
179.1341711214146
 20
245.95449002246471
 30
0.0
 11
179.5069249794245
 21
238.63835167494469
 31
0.0
  0
LINE
  5
6166
  8
AM_0
 10
179.68320649118951
 20
245.95449002246471
 30
0.0
 11
180.05618611316061
 21
238.64277664857761
 31
0.0
  0
LINE
  5
6167
  8
AM_0
 10
179.32409277998269
 20
239.28037225572811
 30
0.0
 11
179.3042327138696
 21
239.3544900224646
 31
0.0
  0
LINE
  5
6168
  8
AM_0
 10
180.25519734409451
 20
239.3544900224646
 30
0.0
 11
180.23533727798039
 21
239.28037225572919
 31
0.0
  0
LINE
  5
6169
  8
AM_0
 10
179.9775002854436
 20
238.6044900224646
 30
0.0
 11
179.5819297725196
 21
238.6044900224646
 31
0.0
  0
LINE
  5
616A
  8
AM_0
 10
179.48533727798039
 20
238.67860778920121
 30
0.0
 11
179.32409277998269
 21
239.28037225572811
 31
0.0
  0
LINE
  5
616B
  8
AM_0
 10
180.23533727798039
 20
239.28037225572919
 30
0.0
 11
180.07409277998269
 21
238.6786077892011
 31
0.0
  0
LINE
  5
616C
  8
AM_0
 10
178.89494118506661
 20
245.95449002246471
 30
0.0
 11
179.3042327138696
 21
239.3544900224646
 31
0.0
  0
LINE
  5
616D
  8
AM_0
 10
179.84590581529159
 20
245.95449002246471
 30
0.0
 11
180.25519734409451
 21
239.3544900224646
 31
0.0
  0
LINE
  5
616E
  8
AM_0
 10
180.3319297725196
 20
239.3544900224646
 30
0.0
 11
182.1341711214136
 21
239.3544900224646
 31
0.0
  0
LINE
  5
616F
  8
AM_0
 10
182.6341711214136
 20
244.26622771395469
 30
0.0
 11
182.6341711214136
 21
245.95449002246571
 31
0.0
  0
LINE
  5
6170
  8
AM_0
 10
182.83417112141359
 20
237.45449002246471
 30
0.0
 11
186.4341711214135
 21
237.45449002246471
 31
0.0
  0
LINE
  5
6171
  8
AM_0
 10
186.43417112141361
 20
244.26622771395469
 30
0.0
 11
182.6341711214136
 21
244.26622771395469
 31
0.0
  0
LINE
  5
6172
  8
AM_0
 10
182.6341711214136
 20
239.1427523309757
 30
0.0
 11
186.43417112141361
 21
239.1427523309757
 31
0.0
  0
LINE
  5
6173
  8
AM_0
 10
161.6341711214136
 20
245.95449002246471
 30
0.0
 11
161.6341711214136
 21
241.70449002246471
 31
0.0
  0
LINE
  5
6174
  8
AM_0
 10
166.5091711214136
 20
241.65335365882871
 30
0.0
 11
161.6341711214136
 21
241.70449002246471
 31
0.0
  0
LINE
  5
6175
  8
AM_0
 10
161.6341711214136
 20
250.20449002246471
 30
0.0
 11
166.5091711214136
 21
250.25562638610171
 31
0.0
  0
LINE
  5
6176
  8
AM_0
 10
161.6341711214136
 20
250.20449002246471
 30
0.0
 11
161.6341711214136
 21
245.95449002246471
 31
0.0
  0
LINE
  5
6177
  8
AM_0
 10
186.43417112141361
 20
252.76622771395469
 30
0.0
 11
182.6341711214136
 21
252.76622771395469
 31
0.0
  0
LINE
  5
6178
  8
AM_0
 10
182.6341711214136
 20
247.6427523309757
 30
0.0
 11
186.43417112141361
 21
247.6427523309757
 31
0.0
  0
LINE
  5
6179
  8
AM_0
 10
186.43417112141361
 20
254.4544900224646
 30
0.0
 11
182.83417112141359
 21
254.4544900224646
 31
0.0
  0
LINE
  5
617A
  8
AM_0
 10
182.6341711214136
 20
245.95449002246571
 30
0.0
 11
182.6341711214136
 21
247.6427523309757
 31
0.0
  0
LINE
  5
617B
  8
AM_0
 10
182.1341711214136
 20
252.55449002246471
 30
0.0
 11
179.5859035498396
 21
252.55449002246471
 31
0.0
  0
LINE
  5
617C
  8
AM_0
 10
179.5091711214136
 20
252.55449002246471
 30
0.0
 11
179.84590581529159
 21
245.95449002246471
 31
0.0
  0
LINE
  5
617D
  8
AM_0
 10
178.55820649118851
 20
252.55449002246471
 30
0.0
 11
178.89494118506661
 21
245.95449002246471
 31
0.0
  0
LINE
  5
617E
  8
AM_0
 10
179.32806655730269
 20
253.2303722557281
 30
0.0
 11
179.4893110553005
 21
252.6286077892012
 31
0.0
  0
LINE
  5
617F
  8
AM_0
 10
178.57806655730269
 20
252.6286077892012
 30
0.0
 11
178.73931105530039
 21
253.2303722557281
 31
0.0
  0
LINE
  5
6180
  8
AM_0
 10
178.8359035498396
 20
253.30449002246471
 30
0.0
 11
179.2314740627636
 21
253.30449002246471
 31
0.0
  0
LINE
  5
6181
  8
AM_0
 10
179.4893110553005
 20
252.6286077892012
 30
0.0
 11
179.5091711214136
 21
252.55449002246471
 31
0.0
  0
LINE
  5
6182
  8
AM_0
 10
178.55820649118851
 20
252.55449002246471
 30
0.0
 11
178.57806655730269
 21
252.6286077892012
 31
0.0
  0
LINE
  5
6183
  8
AM_0
 10
179.31015989048049
 20
253.2662033963517
 30
0.0
 11
179.68320649118951
 21
245.95449002246471
 31
0.0
  0
LINE
  5
6184
  8
AM_0
 10
178.76089875674469
 20
253.2706283699857
 30
0.0
 11
179.1341711214146
 21
245.95449002246471
 31
0.0
  0
LINE
  5
6185
  8
AM_0
 10
182.6341711214136
 20
247.6427523309757
 30
0.0
 11
182.6341711214136
 21
254.25449002246549
 31
0.0
  0
LINE
  5
6186
  8
AM_0
 10
175.0091711214136
 20
254.75449002246569
 30
0.0
 11
175.0091711214146
 21
254.65449002246581
 31
0.0
  0
LINE
  5
6187
  8
AM_0
 10
175.0091711214146
 20
254.65449002246581
 30
0.0
 11
175.0091711214146
 21
247.04468385752369
 31
0.0
  0
LINE
  5
6188
  8
AM_0
 10
169.2433585944035
 20
254.4544900224677
 30
0.0
 11
174.80917112141461
 21
254.45449002246571
 31
0.0
  0
LINE
  5
6189
  8
AM_0
 10
177.0091711214146
 20
254.85449002246469
 30
0.0
 11
177.73902223712011
 21
254.78150491089369
 31
0.0
  0
LINE
  5
618A
  8
AM_0
 10
168.85924795460451
 20
254.27458222229939
 30
0.0
 11
166.6250604816147
 21
251.5935572547067
 31
0.0
  0
LINE
  5
618B
  8
AM_0
 10
177.0091711214146
 20
254.95449002246471
 30
0.0
 11
175.20917112141359
 21
254.95449002246471
 31
0.0
  0
LINE
  5
618C
  8
AM_0
 10
178.5091711214146
 20
254.25449002246469
 30
0.0
 11
178.5091711214146
 21
245.95449002246471
 31
0.0
  0
LINE
  5
618D
  8
AM_0
 10
177.70917112141359
 20
246.70449002246471
 30
0.0
 11
177.0091711214146
 21
246.70449002246471
 31
0.0
  0
LINE
  5
618E
  8
AM_0
 10
177.70917112141359
 20
250.93831079138869
 30
0.0
 11
177.0091711214146
 21
250.93831079138869
 31
0.0
  0
LINE
  5
618F
  8
AM_0
 10
178.0091711214136
 20
249.8383945250967
 30
0.0
 11
178.0091711214136
 21
250.6383107913887
 31
0.0
  0
LINE
  5
6190
  8
AM_0
 10
177.0091711214146
 20
249.53839452509669
 30
0.0
 11
177.70917112141359
 21
249.53839452509669
 31
0.0
  0
LINE
  5
6191
  8
AM_0
 10
177.70917112141359
 20
253.9171055677877
 30
0.0
 11
177.0091711214146
 21
253.9171055677877
 31
0.0
  0
LINE
  5
6192
  8
AM_0
 10
178.0091711214136
 20
253.21199471049769
 30
0.0
 11
178.0091711214136
 21
253.61710556778769
 31
0.0
  0
LINE
  5
6193
  8
AM_0
 10
177.0091711214146
 20
252.91199471049771
 30
0.0
 11
177.70917112141359
 21
252.91199471049771
 31
0.0
  0
LINE
  5
6194
  8
AM_0
 10
177.0091711214146
 20
245.9544900224667
 30
0.0
 11
177.0091711214146
 21
254.6544900224647
 31
0.0
  0
LINE
  5
6195
  8
AM_0
 10
178.0091711214146
 20
245.95449002246471
 30
0.0
 11
178.0091711214136
 21
246.4044900224647
 31
0.0
  0
LINE
  5
6196
  8
AM_0
 10
175.0091711214146
 20
252.76622771395469
 30
0.0
 11
169.50917112141059
 21
252.76622771395469
 31
0.0
  0
LINE
  5
6197
  8
AM_0
 10
175.0091711214146
 20
247.6427523309757
 30
0.0
 11
169.50917112141059
 21
247.6427523309747
 31
0.0
  0
LINE
  5
6198
  8
AM_0
 10
175.0091711214146
 20
246.45449002246471
 30
0.0
 11
169.50917112141161
 21
246.45449002246471
 31
0.0
  0
LINE
  5
6199
  8
AM_0
 10
169.50917112141161
 20
246.45449002246471
 30
0.0
 11
169.00917112141161
 21
245.95449002246471
 31
0.0
  0
LINE
  5
619A
  8
AM_0
 10
169.50917112141161
 20
246.45449002246471
 30
0.0
 11
169.00917112141059
 21
246.95449002246471
 31
0.0
  0
LINE
  5
619B
  8
AM_0
 10
169.00917112141059
 20
246.95449002246471
 30
0.0
 11
169.50917112141059
 21
247.6427523309747
 31
0.0
  0
LINE
  5
619C
  8
AM_0
 10
175.0091711214146
 20
246.95449002246471
 30
0.0
 11
169.00917112141059
 21
246.95449002246471
 31
0.0
  0
LINE
  5
619D
  8
AM_0
 10
175.0091711214146
 20
245.95449002246471
 30
0.0
 11
175.0091711214146
 21
247.04468385752369
 31
0.0
  0
LINE
  5
619E
  8
AM_0
 10
169.00917112141161
 20
252.8157059546327
 30
0.0
 11
169.50917112141059
 21
252.76622771395469
 31
0.0
  0
LINE
  5
619F
  8
AM_0
 10
169.50917112141059
 20
253.4866812306017
 30
0.0
 11
169.00917112141161
 21
252.8157059546327
 31
0.0
  0
LINE
  5
61A0
  8
AM_0
 10
169.00917112141161
 20
253.4866812306017
 30
0.0
 11
169.50917112141059
 21
253.9866812306017
 31
0.0
  0
LINE
  5
61A1
  8
AM_0
 10
169.50917112141059
 20
254.45449002246471
 30
0.0
 11
169.00917112141059
 21
253.9866812306017
 31
0.0
  0
LINE
  5
61A2
  8
AM_0
 10
169.00917112141059
 20
253.9866812306017
 30
0.0
 11
175.0091711214146
 21
253.9866812306017
 31
0.0
  0
LINE
  5
61A3
  8
AM_0
 10
175.0091711214146
 20
253.4866812306017
 30
0.0
 11
169.00917112141161
 21
253.4866812306017
 31
0.0
  0
LINE
  5
61A4
  8
AM_0
 10
178.0091711214146
 20
254.45449002246471
 30
0.0
 11
178.0091711214136
 21
254.48299375383061
 31
0.0
  0
LINE
  5
61A5
  8
AM_0
 10
178.30917112141461
 20
254.4544900224646
 30
0.0
 11
177.0091711214146
 21
254.45449002246471
 31
0.0
  0
LINE
  5
61A6
  8
AM_0
 10
166.5091711214136
 20
251.2734650548748
 30
0.0
 11
166.5091711214136
 21
245.95449002246471
 31
0.0
  0
LINE
  5
61A7
  8
AM_0
 10
177.0091711214146
 20
254.6544900224647
 30
0.0
 11
177.0091711214146
 21
254.95449002246471
 31
0.0
  0
ARC
  5
61A8
  8
AM_0
 10
179.2275002854436
 20
239.25449002246469
 30
0.0
 40
0.0999999999999643
 50
15.00019500651214
 51
90.0
  0
ARC
  5
61A9
  8
AM_0
 10
175.82167112141059
 20
241.70449002246471
 30
0.0
 40
6.8125000000000382
 50
157.91171016505771
 51
202.08828983494229
  0
ARC
  5
61AA
  8
AM_0
 10
186.4341711214135
 20
237.25449002246469
 30
0.0
 40
0.1999999999999993
 50
0.0
 51
90.0
  0
ARC
  5
61AB
  8
AM_0
 10
186.4341711214135
 20
254.65449002246461
 30
0.0
 40
0.2000000000000028
 50
270.0
 51
0.0
  0
ARC
  5
61AC
  8
AM_0
 10
175.82167112141059
 20
250.20449002246471
 30
0.0
 40
6.8125000000000382
 50
157.91171016505771
 51
202.08828983494229
  0
ARC
  5
61AD
  8
AM_0
 10
178.4775002854436
 20
238.70449002246471
 30
0.0
 40
0.1000000000000547
 50
288.4639767573006
 51
344.99980499348783
  0
ARC
  5
61AE
  8
AM_0
 10
178.8319297725196
 20
239.25449002246569
 30
0.0
 40
0.1000000000000014
 50
90.0
 51
164.9998049934843
  0
ARC
  5
61AF
  8
AM_0
 10
169.2433585944035
 20
237.95449002246269
 30
0.0
 40
0.499999999999975
 50
219.8055710921868
 51
270.0
  0
ARC
  5
61B0
  8
AM_0
 10
167.0091711214136
 20
240.6355149900557
 30
0.0
 40
0.5
 50
180.00000000000969
 51
219.80557109223059
  0
ARC
  5
61B1
  8
AM_0
 10
177.70917112141359
 20
238.6969853344327
 30
0.0
 40
0.3000000000000007
 50
0.0
 51
90.0
  0
ARC
  5
61B2
  8
AM_0
 10
177.70917112141359
 20
238.2918744771427
 30
0.0
 40
0.3000000000000043
 50
270.0
 51
0.0
  0
ARC
  5
61B3
  8
AM_0
 10
177.70917112141359
 20
242.07058551983371
 30
0.0
 40
0.3000000000000007
 50
0.0
 51
90.0
  0
ARC
  5
61B4
  8
AM_0
 10
177.70917112141359
 20
241.27066925354171
 30
0.0
 40
0.2999999999999971
 50
270.0
 51
0.0
  0
ARC
  5
61B5
  8
AM_0
 10
177.70917112141359
 20
245.50449002246569
 30
0.0
 40
0.2999999999999971
 50
270.0
 51
0.0
  0
ARC
  5
61B6
  8
AM_0
 10
177.70917112141359
 20
237.42598629109969
 30
0.0
 40
0.3000000000000302
 50
275.71059313755637
 51
0.0
  0
ARC
  5
61B7
  8
AM_0
 10
175.20917112141359
 20
237.1544900224647
 30
0.0
 40
0.1999999999999993
 50
180.0
 51
270.0
  0
ARC
  5
61B8
  8
AM_0
 10
178.30917112141461
 20
237.65449002246569
 30
0.0
 40
0.1999999999999957
 50
270.0
 51
0.0
  0
ARC
  5
61B9
  8
AM_0
 10
174.80917112141461
 20
237.25449002246469
 30
0.0
 40
0.1999999999999993
 50
359.99999999997061
 51
90.0
  0
ARC
  5
61BA
  8
AM_0
 10
180.3319297725196
 20
239.2544900224656
 30
0.0
 40
0.1000000000000014
 50
90.0
 51
164.9998049934843
  0
ARC
  5
61BB
  8
AM_0
 10
179.9775002854436
 20
238.70449002246471
 30
0.0
 40
0.1000000000000014
 50
270.0
 51
344.99980499348783
  0
ARC
  5
61BC
  8
AM_0
 10
179.5819297725196
 20
238.70449002246471
 30
0.0
 40
0.1000000000000311
 50
195.00019500644461
 51
270.0
  0
ARC
  5
61BD
  8
AM_0
 10
182.1341711214136
 20
238.8544900224646
 30
0.0
 40
0.5
 50
359.99999999997721
 51
90.0
  0
ARC
  5
61BE
  8
AM_0
 10
186.4341711214135
 20
244.0662277139547
 30
0.0
 40
0.1999999999999993
 50
0.0
 51
90.0
  0
ARC
  5
61BF
  8
AM_0
 10
186.4341711214135
 20
239.34275233097571
 30
0.0
 40
0.2000000000000028
 50
270.0
 51
0.0
  0
ARC
  5
61C0
  8
AM_0
 10
182.83417112141359
 20
237.65449002246461
 30
0.0
 40
0.1999999999999993
 50
179.99999999994131
 51
270.0
  0
ARC
  5
61C1
  8
AM_0
 10
182.83417112141359
 20
254.2544900224656
 30
0.0
 40
0.2000000000000028
 50
90.0
 51
180.00000000005531
  0
ARC
  5
61C2
  8
AM_0
 10
186.4341711214135
 20
252.5662277139547
 30
0.0
 40
0.1999999999999993
 50
0.0
 51
90.0
  0
ARC
  5
61C3
  8
AM_0
 10
186.4341711214135
 20
247.84275233097469
 30
0.0
 40
0.2000000000000028
 50
270.0
 51
0.0
  0
ARC
  5
61C4
  8
AM_0
 10
182.1341711214136
 20
253.05449002246471
 30
0.0
 40
0.5
 50
270.0
 51
0.0000000000227982
  0
ARC
  5
61C5
  8
AM_0
 10
178.8359035498396
 20
253.20449002246471
 30
0.0
 40
0.1000000000000014
 50
90.0
 51
164.99980499355539
  0
ARC
  5
61C6
  8
AM_0
 10
179.2314740627636
 20
253.20449002246471
 30
0.0
 40
0.0999999999999608
 50
15.00019500651571
 51
90.0
  0
ARC
  5
61C7
  8
AM_0
 10
179.5859035498396
 20
252.6544900224647
 30
0.0
 40
0.0999999999999608
 50
195.00019500651561
 51
270.0
  0
ARC
  5
61C8
  8
AM_0
 10
178.4814740627636
 20
252.6544900224647
 30
0.0
 40
0.0999999999999803
 50
286.07948273872381
 51
344.99980499348419
  0
ARC
  5
61C9
  8
AM_0
 10
174.80917112141461
 20
254.65449002246569
 30
0.0
 40
0.1999999999999957
 50
270.0
 51
0.000000000029312
  0
ARC
  5
61CA
  8
AM_0
 10
178.30917112141461
 20
254.25449002246469
 30
0.0
 40
0.1999999999999993
 50
0.0
 51
90.0
  0
ARC
  5
61CB
  8
AM_0
 10
175.20917112141359
 20
254.75449002246569
 30
0.0
 40
0.2000000000000028
 50
90.0
 51
180.0
  0
ARC
  5
61CC
  8
AM_0
 10
177.70917112141359
 20
254.48299375383061
 30
0.0
 40
0.3000000000000007
 50
0.0
 51
84.289406862443656
  0
ARC
  5
61CD
  8
AM_0
 10
177.70917112141359
 20
246.4044900224647
 30
0.0
 40
0.3000000000000007
 50
0.0
 51
90.0
  0
ARC
  5
61CE
  8
AM_0
 10
177.70917112141359
 20
250.6383107913887
 30
0.0
 40
0.3000000000000007
 50
0.0
 51
90.0
  0
ARC
  5
61CF
  8
AM_0
 10
177.70917112141359
 20
249.8383945250967
 30
0.0
 40
0.2999999999999971
 50
270.0
 51
0.0
  0
ARC
  5
61D0
  8
AM_0
 10
177.70917112141359
 20
253.61710556778769
 30
0.0
 40
0.3000000000000007
 50
0.0
 51
90.0
  0
ARC
  5
61D1
  8
AM_0
 10
177.70917112141359
 20
253.21199471049769
 30
0.0
 40
0.3000000000000043
 50
270.0
 51
0.0
  0
ARC
  5
61D2
  8
AM_0
 10
167.0091711214136
 20
251.27346505487469
 30
0.0
 40
0.5000000000000059
 50
140.19442890776941
 51
179.99999999998701
  0
ARC
  5
61D3
  8
AM_0
 10
169.2433585944035
 20
253.9544900224677
 30
0.0
 40
0.5
 50
90.0
 51
140.19442890781301
  0
LINE
  5
61D4
  8
AM_0
 10
186.83417112141359
 20
236.95449002246471
 30
0.0
 11
188.6341711214136
 21
236.95449002246471
 31
0.0
  0
LINE
  5
61D5
  8
AM_0
 10
186.6341711214136
 20
237.15449002246461
 30
0.0
 11
186.6341711214136
 21
254.7544900224656
 31
0.0
  0
LINE
  5
61D6
  8
AM_0
 10
188.6341711214136
 20
254.9544900224646
 30
0.0
 11
186.83417112141359
 21
254.95449002246471
 31
0.0
  0
ARC
  5
61D7
  8
AM_0
 10
186.83417112141359
 20
237.15449002246461
 30
0.0
 40
0.1999999999999993
 50
180.0
 51
270.0
  0
ARC
  5
61D8
  8
AM_0
 10
186.83417112141359
 20
254.7544900224656
 30
0.0
 40
0.2000000000000028
 50
90.0
 51
180.0
  0
LINE
  5
61DA
  8
AM_0
 10
134.13418112141429
 20
318.01589353123683
 30
0.0
 11
134.134181121414
 21
280.29360661647939
 31
0.0
  0
LINE
  5
61DB
  8
AM_0
 10
125.13418112141341
 20
319.95449002246471
 30
0.0
 11
125.13418112141341
 21
240.91412554291659
 31
0.0
  0
LINE
  5
61DC
  8
AM_0
 10
125.13418112141341
 20
319.95449002246482
 30
0.0
 11
142.13418112141341
 21
318.9544900224646
 31
0.0
  0
LINE
  5
61DD
  8
AM_0
 10
125.13418112141341
 20
211.95449002246471
 30
0.0
 11
142.13418112141341
 21
212.95449002246471
 31
0.0
  0
LINE
  5
61DE
  8
AM_0
 10
134.1341811214142
 20
309.54839322055608
 30
0.0
 11
142.13418112141341
 21
309.54839322055608
 31
0.0
  0
LINE
  5
61DF
  8
AM_0
 10
134.13418112141429
 20
318.01589353123683
 30
0.0
 11
142.13418112141341
 21
318.01589353123683
 31
0.0
  0
LINE
  5
61E0
  8
AM_0
 10
130.6341811214142
 20
300.5953629877248
 30
0.0
 11
134.1341811214142
 21
300.5953629877248
 31
0.0
  0
LINE
  5
61E1
  8
AM_0
 10
130.6341811214142
 20
309.09536298772468
 30
0.0
 11
134.1341811214142
 21
309.09536298772468
 31
0.0
  0
LINE
  5
61E2
  8
AM_0
 10
130.1341811214142
 20
308.5953629877248
 30
0.0
 11
130.1341811214142
 21
301.09536298772468
 31
0.0
  0
ARC
  5
61E3
  8
AM_0
 10
130.6341811214142
 20
308.5953629877248
 30
0.0
 40
0.5
 50
90.0
 51
180.0
  0
ARC
  5
61E4
  8
AM_0
 10
130.6341811214142
 20
301.09536298772468
 30
0.0
 40
0.5
 50
180.0
 51
270.0
  0
LINE
  5
61E5
  8
AM_0
 10
125.13418112141341
 20
308.2266845156048
 30
0.0
 11
130.1341811214142
 21
308.22668451560492
 31
0.0
  0
LINE
  5
61E6
  8
AM_0
 10
125.13418112141341
 20
298.49160201730888
 30
0.0
 11
134.134181121414
 21
298.49160201730882
 31
0.0
  0
LINE
  5
61E7
  8
AM_0
 10
134.1341811214142
 20
222.3605868243732
 30
0.0
 11
142.13418112141341
 21
222.3605868243732
 31
0.0
  0
LINE
  5
61E8
  8
AM_0
 10
134.13418112141429
 20
213.89308651369271
 30
0.0
 11
142.13418112141341
 21
213.89308651369271
 31
0.0
  0
LINE
  5
61E9
  8
AM_0
 10
130.6341811214142
 20
231.3136170572046
 30
0.0
 11
134.1341811214142
 21
231.3136170572046
 31
0.0
  0
LINE
  5
61EA
  8
AM_0
 10
130.6341811214142
 20
222.8136170572046
 30
0.0
 11
134.1341811214142
 21
222.8136170572046
 31
0.0
  0
LINE
  5
61EB
  8
AM_0
 10
130.1341811214142
 20
223.3136170572046
 30
0.0
 11
130.1341811214142
 21
230.8136170572046
 31
0.0
  0
ARC
  5
61EC
  8
AM_0
 10
130.6341811214142
 20
223.3136170572046
 30
0.0
 40
0.5
 50
180.0
 51
270.0
  0
ARC
  5
61ED
  8
AM_0
 10
130.6341811214142
 20
230.8136170572046
 30
0.0
 40
0.5
 50
90.0
 51
180.0
  0
LINE
  5
61EE
  8
AM_0
 10
125.13418112141341
 20
223.68229552932451
 30
0.0
 11
130.1341811214142
 21
223.68229552932451
 31
0.0
  0
LINE
  5
61EF
  8
AM_0
 10
125.13418112141341
 20
233.4173780276204
 30
0.0
 11
134.134181121414
 21
233.41737802762049
 31
0.0
  0
LINE
  5
61F1
  8
AM_0
 10
134.134181121414
 20
280.29360661647951
 30
0.0
 11
142.13418112141341
 21
280.29360661647939
 31
0.0
  0
LINE
  5
61F2
  8
AM_0
 10
134.13418112141429
 20
213.89308651369271
 30
0.0
 11
134.134181121414
 21
238.81877128379469
 31
0.0
  0
LINE
  5
61F3
  8
AM_0
 10
134.134181121414
 20
251.61537342844991
 30
0.0
 11
142.13418112141341
 21
251.61537342845
 31
0.0
  0
LINE
  5
6507
  8
AM_0
 10
664.18921697739302
 20
355.41137746062998
 30
0.0
 11
664.18921697739302
 21
369.13820460738401
 31
0.0
  0
LINE
  5
6508
  8
AM_0
 10
657.78921697739315
 20
355.41137746062998
 30
0.0
 11
657.78921697739315
 21
369.13820460738401
 31
0.0
  0
LINE
  5
650B
  8
AM_0
 10
665.09528817310195
 20
346.85031861406998
 30
0.0
 11
667.38921697739295
 21
355.41137746062998
 31
0.0
  0
LINE
  5
650C
  8
AM_0
 10
667.38921697739295
 20
355.41137746062998
 30
0.0
 11
667.38921697739295
 21
369.13820460738401
 31
0.0
  0
LINE
  5
650D
  8
AM_0
 10
654.58921697739311
 20
369.13820460738401
 30
0.0
 11
654.58921697739311
 21
355.41137746062998
 31
0.0
  0
LINE
  5
650E
  8
AM_0
 10
654.58921697739311
 20
355.41137746062998
 30
0.0
 11
656.88314578168411
 21
346.8503186140702
 31
0.0
  0
ARC
  5
6510
  8
AM_0
 10
660.98921697739308
 20
361.45445552246463
 30
0.0
 40
9.9999999999999964
 50
50.208180500442623
 51
90.0
  0
ARC
  5
6511
  8
AM_0
 10
656.18921697739302
 20
355.85012615493582
 30
0.0
 40
1.659066127903009
 50
195.33458427584509
 51
344.66541572415468
  0
ARC
  5
6512
  8
AM_0
 10
660.98921697739308
 20
359.00144404957427
 30
0.0
 40
4.8092180355079419
 50
228.2878371051452
 51
311.71216289485483
  0
ARC
  5
6513
  8
AM_0
 10
665.78921697739327
 20
355.84984828128961
 30
0.0
 40
1.6589926644111621
 50
195.32532916095269
 51
344.67467083904228
  0
ARC
  5
6514
  8
AM_0
 10
660.98921697739308
 20
358.92322371250123
 30
0.0
 40
10.704477319459491
 50
72.606031891266454
 51
107.3939681087335
  0
ARC
  5
6515
  8
AM_0
 10
656.18921697739302
 20
366.76843921090972
 30
0.0
 40
2.8593334947723461
 50
55.973867765119778
 51
124.02613223488019
  0
ARC
  5
6516
  8
AM_0
 10
665.78921697739327
 20
366.77150613231208
 30
0.0
 40
2.856792199637066
 50
55.939448481710848
 51
124.060551518289
  0
ARC
  5
6517
  8
AM_0
 10
660.98921697739308
 20
361.45445552246463
 30
0.0
 40
10.0
 50
90.0
 51
129.79181949955731
  0
LINE
  5
6636
  8
AM_0
 10
154.04559844276531
 20
242.95445552246451
 30
0.0
 11
161.6341711214136
 21
242.95445552246451
 31
0.0
  0
LINE
  5
6638
  8
AM_0
 10
154.04559844276511
 20
248.95445552246429
 30
0.0
 11
161.6341711214136
 21
248.9544555224642
 31
0.0
  0
LINE
  5
663A
  8
AM_0
 10
90.223596370077843
 20
301.94486636739072
 30
0.0
 11
90.223596370077843
 21
295.43326146843179
 31
0.0
  0
LINE
  5
663B
  8
AM_0
 10
87.134181121413363
 20
254.95445552246451
 30
0.0
 11
87.134181121413363
 21
249.45445552246451
 31
0.0
  0
LINE
  5
663C
  8
AM_0
 10
92.634181121413349
 20
262.45445552246451
 30
0.0
 11
92.634181121413349
 21
269.4544555224644
 31
0.0
  0
LINE
  5
663D
  8
AM_0
 10
104.33418112141339
 20
249.45445552246451
 30
0.0
 11
87.134181121413363
 21
249.45445552246451
 31
0.0
  0
LINE
  5
663E
  8
AM_0
 10
119.13418112141331
 20
211.95445552246451
 30
0.0
 11
119.13418112141331
 21
230.00355806672471
 31
0.0
  0
LINE
  5
663F
  8
AM_0
 10
119.13418112141331
 20
237.11542217934209
 30
0.0
 11
119.13418112141331
 21
319.95445552246463
 31
0.0
  0
LINE
  5
6640
  8
AM_0
 10
87.134181121413363
 20
264.45445552246451
 30
0.0
 11
88.034181121413312
 21
264.45445552246451
 31
0.0
  0
LINE
  5
6641
  8
AM_0
 10
104.63418112141331
 20
257.4544555224644
 30
0.0
 11
104.63418112141331
 21
260.03896520706849
 31
0.0
  0
LINE
  5
6642
  8
AM_0
 10
84.934181121413062
 20
267.4544555224644
 30
0.0
 11
84.934181121413062
 21
264.45445552246451
 31
0.0
  0
LINE
  5
6643
  8
AM_0
 10
88.034181121413312
 20
264.18210378788092
 30
0.0
 11
88.034181121413312
 21
267.72680725704828
 31
0.0
  0
LINE
  5
6644
  8
AM_0
 10
84.634181121413235
 20
267.1544555224645
 30
0.0
 11
88.034181121413425
 21
267.1544555224645
 31
0.0
  0
LINE
  5
6645
  8
AM_0
 10
92.034181121413312
 20
263.57288566205727
 30
0.0
 11
92.034181121413312
 21
262.45445552246451
 31
0.0
  0
LINE
  5
6646
  8
AM_0
 10
92.034181121413312
 20
264.45445552246451
 30
0.0
 11
92.034181121413312
 21
264.35445552246449
 31
0.0
  0
LINE
  5
6647
  8
AM_0
 10
92.034181121413312
 20
264.35445552246449
 30
0.0
 11
92.034181121413312
 21
263.57288566205727
 31
0.0
  0
LINE
  5
6648
  8
AM_0
 10
87.134181121413363
 20
249.45445552246451
 30
0.0
 11
87.134181121413363
 21
241.21692151304211
 31
0.0
  0
LINE
  5
6649
  8
AM_0
 10
104.4877345120067
 20
260.39251859766188
 30
0.0
 11
104.13266738581839
 21
260.74758572385002
 31
0.0
  0
LINE
  5
664A
  8
AM_0
 10
87.134181121413363
 20
267.4544555224644
 30
0.0
 11
87.134181121413363
 21
290.6919895318868
 31
0.0
  0
LINE
  5
664B
  8
AM_0
 10
119.13418112141331
 20
310.95445552246463
 30
0.0
 11
95.364172420780704
 21
310.95445552246463
 31
0.0
  0
LINE
  5
664C
  8
AM_0
 10
87.134181121413363
 20
255.88085869818559
 30
0.0
 11
87.134181121413363
 21
264.45445552246451
 31
0.0
  0
LINE
  5
664D
  8
AM_0
 10
125.1341811214135
 20
319.95445552246463
 30
0.0
 11
119.13418112141331
 21
319.95445552246463
 31
0.0
  0
LINE
  5
664E
  8
AM_0
 10
119.13418112141331
 20
211.95445552246451
 30
0.0
 11
125.13418112141331
 21
211.95445552246451
 31
0.0
  0
LINE
  5
664F
  8
AM_0
 10
119.13418112141331
 20
220.95445552246451
 30
0.0
 11
109.63418112141331
 21
220.95445552246451
 31
0.0
  0
LINE
  5
6650
  8
AM_0
 10
87.179757862376732
 20
291.21293406488758
 30
0.0
 11
89.749201310038984
 21
305.78497197615133
 31
0.0
  0
LINE
  5
6651
  8
AM_0
 10
87.134181121413363
 20
255.88085869818559
 30
0.0
 11
87.134181121413363
 21
254.95445552246451
 31
0.0
  0
LINE
  5
6652
  8
AM_0
 10
109.63418112141331
 20
221.02307797285039
 30
0.0
 11
107.0713938225164
 21
221.02307797285039
 31
0.0
  0
LINE
  5
6653
  8
AM_0
 10
93.178019629114488
 20
220.95445552246451
 30
0.0
 11
94.134181121413306
 21
220.95445552246451
 31
0.0
  0
LINE
  5
6654
  8
AM_0
 10
87.179757862376732
 20
240.69597698004139
 30
0.0
 11
90.223596370077843
 21
223.43351098946371
 31
0.0
  0
LINE
  5
6655
  8
AM_0
 10
87.134181121413363
 20
240.95445552246451
 30
0.0
 11
87.179757862376732
 21
240.69597698004139
 31
0.0
  0
LINE
  5
6656
  8
AM_0
 10
87.134181121413363
 20
241.21692151304211
 30
0.0
 11
87.134181121413363
 21
240.95445552246451
 31
0.0
  0
LINE
  5
6668
  8
AM_0
 10
86.634142453406426
 20
319.4544555224644
 30
0.0
 11
86.634120001007787
 21
346.4544555224644
 31
0.0
  0
LINE
  5
6669
  8
AM_0
 10
86.634120001007787
 20
346.4544555224644
 30
0.0
 11
94.634120001010402
 21
346.4544555224644
 31
0.0
  0
LINE
  5
666A
  8
AM_0
 10
94.634120001010402
 20
346.4544555224644
 30
0.0
 11
96.134115345831347
 21
352.05251436045302
 31
0.0
  0
LINE
  5
666B
  8
AM_0
 10
96.134115345831347
 20
352.05251436045302
 30
0.0
 11
96.134100582470964
 21
369.80610664034339
 31
0.0
  0
LINE
  5
666C
  8
AM_0
 10
86.634120001007787
 20
346.4544555224644
 30
0.0
 11
85.134115345798705
 21
352.05254910729423
 31
0.0
  0
LINE
  5
666D
  8
AM_0
 10
85.134115345798705
 20
352.05254910729423
 30
0.0
 11
85.134100582474716
 21
369.80609749307001
 31
0.0
  0
LINE
  5
666E
  8
AM_0
 10
90.634142453407762
 20
369.80609749307001
 30
0.0
 11
90.634142453407762
 21
352.05254910729423
 31
0.0
  0
LINE
  5
666F
  8
AM_0
 10
94.634120001010402
 20
346.4544555224644
 30
0.0
 11
94.63414245340924
 21
319.4544555224644
 31
0.0
  0
LINE
  5
6670
  8
AM_0
 10
104.63418112141331
 20
295.43326146843179
 30
0.0
 11
104.63418112141331
 21
249.7544555224645
 31
0.0
  0
LINE
  5
6671
  8
AM_0
 10
92.634181121413349
 20
260.03896520706849
 30
0.0
 11
92.634181121413349
 21
257.4544555224644
 31
0.0
  0
LINE
  5
6672
  8
AM_0
 10
93.135694857008374
 20
260.74758572385002
 30
0.0
 11
92.780627730820115
 21
260.39251859766188
 31
0.0
  0
LINE
  5
6673
  8
AM_0
 10
104.13418112141331
 20
256.9544555224644
 30
0.0
 11
93.134181121413306
 21
256.9544555224644
 31
0.0
  0
LINE
  5
6674
  8
AM_0
 10
84.134143284912383
 20
318.45445011725741
 30
0.0
 11
84.134170310947866
 21
313.45445011725741
 31
0.0
  0
LINE
  5
6675
  8
AM_0
 10
97.134143285043933
 20
318.45446092767151
 30
0.0
 11
97.134169212863654
 21
313.65763827430089
 31
0.0
  0
LINE
  5
6676
  8
AM_0
 10
87.7546843734942
 20
311.4544555224644
 30
0.0
 11
87.183122472128943
 21
312.11103934452478
 31
0.0
  0
LINE
  5
6677
  8
AM_0
 10
85.134170310933314
 20
312.45445552246451
 30
0.0
 11
96.134169212863654
 21
312.45445552246451
 31
0.0
  0
LINE
  5
6678
  8
AM_0
 10
97.134169212863654
 20
313.65763827430089
 30
0.0
 11
97.134169212863654
 21
313.4544555224644
 31
0.0
  0
LINE
  5
6679
  8
AM_0
 10
97.134169212863654
 20
313.65763827430089
 30
0.0
 11
97.134170311079401
 21
313.45446092767151
 31
0.0
  0
LINE
  5
667A
  8
AM_0
 10
85.134143284897846
 20
319.4544555224644
 30
0.0
 11
96.134143285058613
 21
319.4544555224644
 31
0.0
  0
LINE
  5
667B
  8
AM_0
 10
95.141617083575511
 20
311.48504259274978
 30
0.0
 11
102.2644168169209
 21
294.50380327400319
 31
0.0
  0
LINE
  5
667C
  8
AM_0
 10
87.7546843734942
 20
311.4544555224644
 30
0.0
 11
94.331399448804504
 21
292.75991489206228
 31
0.0
  0
LINE
  5
667D
  8
AM_0
 10
92.034181121413312
 20
264.45445552246451
 30
0.0
 11
92.034181121413312
 21
264.35445552246449
 31
0.0
  0
LINE
  5
667E
  8
AM_0
 10
92.034181121413312
 20
264.35445552246449
 30
0.0
 11
92.034181121413312
 21
263.57288566205727
 31
0.0
  0
LINE
  5
667F
  8
AM_0
 10
92.034181121413312
 20
262.45445552246451
 30
0.0
 11
92.634181121413349
 21
262.45445552246451
 31
0.0
  0
LINE
  5
6680
  8
AM_0
 10
89.334181121413366
 20
263.57288566205727
 30
0.0
 11
89.334181121413366
 21
268.3360253828717
 31
0.0
  0
LINE
  5
6681
  8
AM_0
 10
89.173136892155853
 20
263.28619403371442
 30
0.0
 11
88.240583842648675
 21
263.8246037878809
 31
0.0
  0
LINE
  5
6682
  8
AM_0
 10
92.034181121413312
 20
269.4544555224644
 30
0.0
 11
92.034181121413312
 21
264.45445552246451
 31
0.0
  0
LINE
  5
6683
  8
AM_0
 10
89.606632713443915
 20
262.7790290419216
 30
0.0
 11
91.761729529382706
 21
262.7790290419216
 31
0.0
  0
LINE
  5
6684
  8
AM_0
 10
89.606632713443915
 20
264.36674228219312
 30
0.0
 11
91.761729529382706
 21
264.36674228219312
 31
0.0
  0
LINE
  5
6685
  8
AM_0
 10
88.034181121413425
 20
267.4544555224644
 30
0.0
 11
84.934181121413062
 21
267.4544555224644
 31
0.0
  0
LINE
  5
6686
  8
AM_0
 10
84.934181121413062
 20
267.4544555224644
 30
0.0
 11
84.634181121413235
 21
267.1544555224645
 31
0.0
  0
LINE
  5
6687
  8
AM_0
 10
84.634181121413235
 20
267.1544555224645
 30
0.0
 11
84.634181121413235
 21
264.75445552246453
 31
0.0
  0
LINE
  5
6688
  8
AM_0
 10
84.934181121413062
 20
264.45445552246451
 30
0.0
 11
87.134181121413363
 21
264.45445552246451
 31
0.0
  0
LINE
  5
6689
  8
AM_0
 10
84.634181121413235
 20
264.75445552246453
 30
0.0
 11
84.934181121413062
 21
264.45445552246451
 31
0.0
  0
LINE
  5
668A
  8
AM_0
 10
88.034181121413312
 20
264.75445552246453
 30
0.0
 11
84.634181121413235
 21
264.75445552246453
 31
0.0
  0
ARC
  5
668B
  8
AM_0
 10
86.63418112141332
 20
265.95445552246451
 30
0.0
 40
18.000000000000082
 50
344.79096035988908
 51
15.20903964010761
  0
ARC
  5
668C
  8
AM_0
 10
90.741404305386808
 20
263.57288566205727
 30
0.0
 40
1.292776816026465
 50
322.11555894630482
 51
0.0
  0
ARC
  5
668D
  8
AM_0
 10
110.63418112141331
 20
265.95445552246451
 30
0.0
 40
17.999999999999918
 50
164.790960359889
 51
195.209039640111
  0
ARC
  5
6694
  8
AM_0
 10
90.634107527454262
 20
361.45445552246451
 30
0.0
 40
10.0
 50
56.63303467623782
 51
123.3670606147022
  0
ARC
  5
6695
  8
AM_0
 10
87.884121517941239
 20
365.37344913346408
 30
0.0
 40
5.2164151124522951
 50
58.18448044842868
 51
121.8155195515713
  0
ARC
  5
6696
  8
AM_0
 10
93.384128891575855
 20
365.37257424270399
 30
0.0
 40
5.217140387381062
 50
58.190058295972818
 51
121.8101322873604
  0
ARC
  5
6697
  8
AM_0
 10
87.884128899603297
 20
353.4205031216373
 30
0.0
 40
3.0714610092699122
 50
206.44737672421749
 51
333.55262327578248
  0
ARC
  5
6698
  8
AM_0
 10
93.384137530974499
 20
353.41876291694189
 30
0.0
 40
3.070669812974502
 50
206.418457946731
 51
333.58081810520707
  0
ARC
  5
6699
  8
AM_0
 10
94.096610997472993
 20
265.95445552246451
 30
0.0
 40
4.762429876059711
 50
160.52575999458639
 51
199.47424000541341
  0
ARC
  5
669A
  8
AM_0
 10
90.626957937439883
 20
263.57288566205727
 30
0.0
 40
1.292776816026556
 50
142.1155589462972
 51
217.8844410536951
  0
ARC
  5
669B
  8
AM_0
 10
87.271751245353812
 20
265.95445552246451
 30
0.0
 40
4.762429876059584
 50
340.52575999458651
 51
19.474240005409921
  0
ARC
  5
669C
  8
AM_0
 10
90.741404305386808
 20
263.57288566205727
 30
0.0
 40
1.2927768160265021
 50
0.0
 51
37.884441053702773
  0
ARC
  5
66CB
  8
AM_0
 10
104.33418112141339
 20
249.7544555224645
 30
0.0
 40
0.2999999999999972
 50
270.0
 51
0.0
  0
ARC
  5
66CC
  8
AM_0
 10
104.4862207764116
 20
261.10113911444341
 30
0.0
 40
0.4999999999998723
 50
164.7909603598992
 51
225.00000000001839
  0
ARC
  5
66CD
  8
AM_0
 10
90.134181121413349
 20
241.21692151304211
 30
0.0
 40
3.0
 50
180.0
 51
190.00000000000171
  0
ARC
  5
66CE
  8
AM_0
 10
90.134181121413349
 20
290.6919895318868
 30
0.0
 40
2.999999999999992
 50
169.9999999999981
 51
180.0
  0
ARC
  5
66CF
  8
AM_0
 10
93.178019629114488
 20
223.9544555224644
 30
0.0
 40
2.9999999999999631
 50
190.00000000000171
 51
270.0
  0
ARC
  5
66D4
  8
AM_0
 10
93.134181121413306
 20
257.4544555224644
 30
0.0
 40
0.5
 50
180.0
 51
270.0
  0
ARC
  5
66D5
  8
AM_0
 10
104.13418112141331
 20
257.4544555224644
 30
0.0
 40
0.5
 50
270.0
 51
0.0
  0
ARC
  5
66D6
  8
AM_0
 10
104.13418112141331
 20
260.03896520706849
 30
0.0
 40
0.5
 50
0.0
 51
45.0
  0
ARC
  5
66D7
  8
AM_0
 10
92.782141466415041
 20
261.10113911444341
 30
0.0
 40
0.5000000000001048
 50
314.99999999998619
 51
15.20903964010069
  0
ARC
  5
66D8
  8
AM_0
 10
93.134181121413306
 20
260.03896520706849
 30
0.0
 40
0.499999999999984
 50
134.99999999999079
 51
180.0
  0
ARC
  5
66D9
  8
AM_0
 10
85.134143284897846
 20
318.45445552246451
 30
0.0
 40
1.0
 50
90.0
 51
180.00030969555451
  0
ARC
  5
66DA
  8
AM_0
 10
96.134143285058613
 20
318.45445552246451
 30
0.0
 40
0.9999999999999992
 50
0.0003096955479991
 51
90.0
  0
ARC
  5
66DB
  8
AM_0
 10
85.134170310933314
 20
313.4544555224644
 30
0.0
 40
0.9999999999999992
 50
180.00030969555451
 51
270.0
  0
ARC
  5
66DC
  8
AM_0
 10
96.134169212863654
 20
313.4544555224644
 30
0.0
 40
1.0
 50
270.0
 51
0.0
  0
ARC
  5
66DD
  8
AM_0
 10
95.614410999948845
 20
311.85445552246449
 30
0.0
 40
0.5999999999999944
 50
90.0
 51
218.00194433773009
  0
ARC
  5
66DE
  8
AM_0
 10
86.428869408092396
 20
311.4544555224644
 30
0.0
 40
0.9999999999999468
 50
41.03985310957902
 51
90.0
  0
ARC
  5
66DF
  8
AM_0
 10
88.446986563883911
 20
264.18210378788092
 30
0.0
 40
0.4128054424705854
 50
180.0
 51
239.99999999999869
  0
ARC
  5
66E0
  8
AM_0
 10
88.760331449685296
 20
262.57119403371439
 30
0.0
 40
0.8256108849411369
 50
28.217424594175679
 51
59.999999999996653
  0
LINE
  5
66E1
  8
AM_0
 10
87.923915451044863
 20
295.43326146843179
 30
0.0
 11
93.390919600813746
 21
295.43326146843179
 31
0.0
  0
LINE
  5
66E2
  8
AM_0
 10
101.8745545427274
 20
295.43326146843179
 30
0.0
 11
104.63418112141331
 21
295.43326146843179
 31
0.0
  0
LINE
  5
66E3
  8
AM_0
 10
92.034181121413653
 20
269.4544555224644
 30
0.0
 11
92.634181121413576
 21
269.4544555224644
 31
0.0
  0
LINE
  5
66E4
  8
AM_0
 10
89.173136892156094
 20
268.62271701121472
 30
0.0
 11
88.240583842648775
 21
268.08430725704818
 31
0.0
  0
LINE
  5
66E5
  8
AM_0
 10
89.606632713444213
 20
269.12988200300759
 30
0.0
 11
91.761729529383047
 21
269.1298820030072
 31
0.0
  0
LINE
  5
66E6
  8
AM_0
 10
89.606632713444029
 20
267.54216876273603
 30
0.0
 11
91.761729529382919
 21
267.5421687627358
 31
0.0
  0
ARC
  5
66E7
  8
AM_0
 10
90.741404305387036
 20
268.33602538287158
 30
0.0
 40
1.292776816026465
 50
359.99999999999352
 51
37.88444105369058
  0
ARC
  5
66E8
  8
AM_0
 10
90.626957937439997
 20
268.3360253828717
 30
0.0
 40
1.292776816026556
 50
142.1155589462972
 51
217.8844410536951
  0
ARC
  5
66E9
  8
AM_0
 10
90.741404305387036
 20
268.33602538287158
 30
0.0
 40
1.2927768160265021
 50
322.11555894629322
 51
359.99999999999352
  0
ARC
  5
66EA
  8
AM_0
 10
88.446986563883996
 20
267.72680725704828
 30
0.0
 40
0.4128054424705854
 50
119.999999999994
 51
179.99999999999341
  0
ARC
  5
66EB
  8
AM_0
 10
88.760331449685481
 20
269.33771701121469
 30
0.0
 40
0.8256108849411369
 50
300.00000000000119
 51
331.78257540582069
  0
LINE
  5
66EC
  8
AM_0
 10
104.6341811214139
 20
274.45445552246389
 30
0.0
 11
104.6341811214137
 21
271.86994583785992
 31
0.0
  0
LINE
  5
66ED
  8
AM_0
 10
104.48773451200699
 20
271.51639244726658
 30
0.0
 11
104.13266738581871
 21
271.16132532107849
 31
0.0
  0
LINE
  5
66EE
  8
AM_0
 10
92.63418112141369
 20
271.86994583786071
 30
0.0
 11
92.634181121413917
 21
274.45445552246468
 31
0.0
  0
LINE
  5
66EF
  8
AM_0
 10
93.135694857008716
 20
271.16132532107918
 30
0.0
 11
92.780627730820584
 21
271.51639244726738
 31
0.0
  0
LINE
  5
66F0
  8
AM_0
 10
104.1341811214139
 20
274.95445552246389
 30
0.0
 11
103.65360323556639
 21
274.954455522464
 31
0.0
  0
LINE
  5
66F1
  8
AM_0
 10
93.614759007261213
 20
274.95445552246468
 30
0.0
 11
93.134181121413917
 21
274.95445552246468
 31
0.0
  0
ARC
  5
66F2
  8
AM_0
 10
104.486220776412
 20
270.8077719304851
 30
0.0
 40
0.4999999999998723
 50
134.99999999997701
 51
195.20903964009739
  0
ARC
  5
66F3
  8
AM_0
 10
93.134181121413917
 20
274.45445552246468
 30
0.0
 40
0.5
 50
89.999999999996732
 51
179.99999999999659
  0
ARC
  5
66F4
  8
AM_0
 10
104.1341811214139
 20
274.45445552246389
 30
0.0
 40
0.5
 50
359.99999999999682
 51
89.999999999996732
  0
ARC
  5
66F5
  8
AM_0
 10
104.1341811214137
 20
271.86994583785997
 30
0.0
 40
0.5
 50
314.9999999999954
 51
359.99999999999682
  0
ARC
  5
66F6
  8
AM_0
 10
92.782141466415268
 20
270.80777193048579
 30
0.0
 40
0.5000000000001048
 50
344.79096035989579
 51
45.000000000009209
  0
ARC
  5
66F7
  8
AM_0
 10
93.134181121413675
 20
271.86994583786071
 30
0.0
 40
0.499999999999984
 50
179.99999999999659
 51
225.0000000000046
  0
LINE
  5
66F8
  8
AM_0
 10
94.614759007261313
 20
291.10060692028628
 30
0.0
 11
94.614759007261213
 21
275.95445552246468
 31
0.0
  0
ARC
  5
66F9
  8
AM_0
 10
93.614759007261213
 20
275.95445552246468
 30
0.0
 40
1.0
 50
269.99999999999682
 51
0.0
1001
GENIUS_GENODEF_13
1002
{
1000
HIER
1070
     0
1002
}
1002
{
1000
MANEDIT
1070
     0
1002
}
1002
{
1000
NOSEL
1070
     0
1002
}
1002
{
1000
BEHIND
1070
     0
1002
}
1002
{
1000
OTHER
1070
     0
1002
}
1002
{
1000
REACTOR
1002
}
1001
GENIUS_GENOBJ-N-FIL_13
1002
{
1000
OWNER
1000
GEN
1002
}
  0
ARC
  5
66FA
  8
AM_0
 10
89.614759007261313
 20
291.10060692028628
 30
0.0
 40
5.0
 50
0.0
 51
19.381805699020159
1001
GENIUS_GENOBJ-N-FIL_13
1002
{
1000
OWNER
1000
GEN
1002
}
1001
GENIUS_GENODEF_13
1002
{
1000
HIER
1070
     0
1002
}
1002
{
1000
MANEDIT
1070
     0
1002
}
1002
{
1000
NOSEL
1070
     0
1002
}
1002
{
1000
BEHIND
1070
     0
1002
}
1002
{
1000
OTHER
1070
     0
1002
}
1002
{
1000
REACTOR
1002
}
  0
LINE
  5
66FB
  8
AM_0
 10
102.65360323556661
 20
292.56979238520307
 30
0.0
 11
102.65360323556661
 21
275.954455522464
 31
0.0
  0
ARC
  5
66FC
  8
AM_0
 10
103.65360323556661
 20
275.954455522464
 30
0.0
 40
1.0
 50
180.0
 51
269.99999999999352
1001
GENIUS_GENOBJ-N-FIL_13
1002
{
1000
OWNER
1000
GEN
1002
}
1001
GENIUS_GENODEF_13
1002
{
1000
HIER
1070
     0
1002
}
1002
{
1000
MANEDIT
1070
     0
1002
}
1002
{
1000
NOSEL
1070
     0
1002
}
1002
{
1000
BEHIND
1070
     0
1002
}
1002
{
1000
OTHER
1070
     0
1002
}
1002
{
1000
REACTOR
1002
}
  0
ARC
  5
66FD
  8
AM_0
 10
97.653603235566592
 20
292.56979238520307
 30
0.0
 40
5.0
 50
0.0
 51
22.755667319207159
1001
GENIUS_GENODEF_13
1002
{
1000
HIER
1070
     0
1002
}
1002
{
1000
MANEDIT
1070
     0
1002
}
1002
{
1000
NOSEL
1070
     0
1002
}
1002
{
1000
BEHIND
1070
     0
1002
}
1002
{
1000
OTHER
1070
     0
1002
}
1002
{
1000
REACTOR
1002
}
1001
GENIUS_GENOBJ-N-FIL_13
1002
{
1000
OWNER
1000
GEN
1002
}
  0
LINE
  5
66FE
  8
AM_0
 10
93.360719968071393
 20
270.9363002100165
 30
0.0
 11
103.9076422747566
 21
270.9363002100165
 31
0.0
  0
LINE
  5
66FF
  8
AM_0
 10
93.360719968071066
 20
260.97261083491281
 30
0.0
 11
103.9076422747556
 21
260.97261083491281
 31
0.0
  0
LINE
  5
6700
  8
AM_0
 10
90.223596370077843
 20
229.9640446775384
 30
0.0
 11
90.223596370077843
 21
249.45445552246451
 31
0.0
  0
LINE
  5
6701
  8
AM_0
 10
93.178019629114488
 20
220.95445552246451
 30
0.0
 11
93.178019629114488
 21
249.45445552246451
 31
0.0
  0
LINE
  5
671C
  8
AM_0
 10
102.93303418579021
 20
219.6937023685102
 30
0.0
 11
127.20175911661801
 21
235.13748872577969
 31
0.0
  0
LINE
  5
671D
  8
AM_0
 10
99.711773466652573
 20
224.75566635290801
 30
0.0
 11
123.98049839747959
 21
240.19945271017721
 31
0.0
  0
POLYLINE
  5
671E
  8
AM_0
 66
     1
 10
0.0
 20
0.0
 30
0.0
 70
     8
  0
VERTEX
  5
79BC
  8
AM_0
 10
99.711799999999997
 20
224.756
 30
0.0
 70
    32
  0
VERTEX
  5
79BD
  8
AM_0
 10
99.635800000000003
 20
224.70599999999999
 30
0.0
 70
    32
  0
VERTEX
  5
79BE
  8
AM_0
 10
99.560699999999997
 20
224.655
 30
0.0
 70
    32
  0
VERTEX
  5
79BF
  8
AM_0
 10
99.486800000000017
 20
224.60300000000001
 30
0.0
 70
    32
  0
VERTEX
  5
79C0
  8
AM_0
 10
99.414000000000016
 20
224.54900000000001
 30
0.0
 70
    32
  0
VERTEX
  5
79C1
  8
AM_0
 10
99.342299999999994
 20
224.494
 30
0.0
 70
    32
  0
VERTEX
  5
79C2
  8
AM_0
 10
99.271799999999985
 20
224.43700000000001
 30
0.0
 70
    32
  0
VERTEX
  5
79C3
  8
AM_0
 10
99.202500000000015
 20
224.37899999999999
 30
0.0
 70
    32
  0
VERTEX
  5
79C4
  8
AM_0
 10
99.134500000000003
 20
224.31999999999999
 30
0.0
 70
    32
  0
VERTEX
  5
79C5
  8
AM_0
 10
99.067899999999995
 20
224.25999999999999
 30
0.0
 70
    32
  0
VERTEX
  5
79C6
  8
AM_0
 10
99.002600000000015
 20
224.19800000000001
 30
0.0
 70
    32
  0
VERTEX
  5
79C7
  8
AM_0
 10
98.938599999999994
 20
224.13499999999999
 30
0.0
 70
    32
  0
VERTEX
  5
79C8
  8
AM_0
 10
98.876199999999997
 20
224.071
 30
0.0
 70
    32
  0
VERTEX
  5
79C9
  8
AM_0
 10
98.815200000000004
 20
224.006
 30
0.0
 70
    32
  0
VERTEX
  5
79CA
  8
AM_0
 10
98.755700000000004
 20
223.93899999999999
 30
0.0
 70
    32
  0
VERTEX
  5
79CB
  8
AM_0
 10
98.697699999999998
 20
223.87200000000001
 30
0.0
 70
    32
  0
VERTEX
  5
79CC
  8
AM_0
 10
98.641400000000004
 20
223.804
 30
0.0
 70
    32
  0
VERTEX
  5
79CD
  8
AM_0
 10
98.586600000000004
 20
223.73500000000001
 30
0.0
 70
    32
  0
VERTEX
  5
79CE
  8
AM_0
 10
98.533500000000004
 20
223.66399999999999
 30
0.0
 70
    32
  0
VERTEX
  5
79CF
  8
AM_0
 10
98.482100000000017
 20
223.59299999999999
 30
0.0
 70
    32
  0
VERTEX
  5
79D0
  8
AM_0
 10
98.432400000000015
 20
223.52199999999999
 30
0.0
 70
    32
  0
VERTEX
  5
79D1
  8
AM_0
 10
98.384399999999999
 20
223.44900000000001
 30
0.0
 70
    32
  0
VERTEX
  5
79D2
  8
AM_0
 10
98.338200000000015
 20
223.376
 30
0.0
 70
    32
  0
VERTEX
  5
79D3
  8
AM_0
 10
98.293800000000005
 20
223.30199999999999
 30
0.0
 70
    32
  0
VERTEX
  5
79D4
  8
AM_0
 10
98.251199999999997
 20
223.227
 30
0.0
 70
    32
  0
VERTEX
  5
79D5
  8
AM_0
 10
98.210499999999996
 20
223.15199999999999
 30
0.0
 70
    32
  0
VERTEX
  5
79D6
  8
AM_0
 10
98.171600000000012
 20
223.07599999999999
 30
0.0
 70
    32
  0
VERTEX
  5
79D7
  8
AM_0
 10
98.134699999999995
 20
222.999
 30
0.0
 70
    32
  0
VERTEX
  5
79D8
  8
AM_0
 10
98.099699999999984
 20
222.923
 30
0.0
 70
    32
  0
VERTEX
  5
79D9
  8
AM_0
 10
98.066599999999994
 20
222.845
 30
0.0
 70
    32
  0
VERTEX
  5
79DA
  8
AM_0
 10
98.035399999999996
 20
222.768
 30
0.0
 70
    32
  0
VERTEX
  5
79DB
  8
AM_0
 10
98.006299999999996
 20
222.69
 30
0.0
 70
    32
  0
VERTEX
  5
79DC
  8
AM_0
 10
97.979100000000017
 20
222.61199999999999
 30
0.0
 70
    32
  0
VERTEX
  5
79DD
  8
AM_0
 10
97.953999999999994
 20
222.53299999999999
 30
0.0
 70
    32
  0
VERTEX
  5
79DE
  8
AM_0
 10
97.930899999999994
 20
222.45400000000001
 30
0.0
 70
    32
  0
VERTEX
  5
79DF
  8
AM_0
 10
97.909800000000004
 20
222.376
 30
0.0
 70
    32
  0
VERTEX
  5
79E0
  8
AM_0
 10
97.890799999999999
 20
222.297
 30
0.0
 70
    32
  0
VERTEX
  5
79E1
  8
AM_0
 10
97.873800000000003
 20
222.21799999999999
 30
0.0
 70
    32
  0
VERTEX
  5
79E2
  8
AM_0
 10
97.858999999999995
 20
222.13900000000001
 30
0.0
 70
    32
  0
VERTEX
  5
79E3
  8
AM_0
 10
97.846199999999996
 20
222.06
 30
0.0
 70
    32
  0
VERTEX
  5
79E4
  8
AM_0
 10
97.835499999999996
 20
221.98099999999999
 30
0.0
 70
    32
  0
VERTEX
  5
79E5
  8
AM_0
 10
97.826899999999995
 20
221.90299999999999
 30
0.0
 70
    32
  0
VERTEX
  5
79E6
  8
AM_0
 10
97.820400000000021
 20
221.82400000000001
 30
0.0
 70
    32
  0
VERTEX
  5
79E7
  8
AM_0
 10
97.816000000000003
 20
221.74600000000001
 30
0.0
 70
    32
  0
VERTEX
  5
79E8
  8
AM_0
 10
97.813800000000001
 20
221.66800000000001
 30
0.0
 70
    32
  0
VERTEX
  5
79E9
  8
AM_0
 10
97.813599999999994
 20
221.59100000000001
 30
0.0
 70
    32
  0
VERTEX
  5
79EA
  8
AM_0
 10
97.815600000000003
 20
221.51300000000001
 30
0.0
 70
    32
  0
VERTEX
  5
79EB
  8
AM_0
 10
97.819700000000012
 20
221.43700000000001
 30
0.0
 70
    32
  0
VERTEX
  5
79EC
  8
AM_0
 10
97.825900000000004
 20
221.36000000000001
 30
0.0
 70
    32
  0
VERTEX
  5
79ED
  8
AM_0
 10
97.834100000000007
 20
221.285
 30
0.0
 70
    32
  0
VERTEX
  5
79EE
  8
AM_0
 10
97.844499999999996
 20
221.209
 30
0.0
 70
    32
  0
VERTEX
  5
79EF
  8
AM_0
 10
97.856999999999999
 20
221.13499999999999
 30
0.0
 70
    32
  0
VERTEX
  5
79F0
  8
AM_0
 10
97.871600000000001
 20
221.06100000000001
 30
0.0
 70
    32
  0
VERTEX
  5
79F1
  8
AM_0
 10
97.888300000000001
 20
220.988
 30
0.0
 70
    32
  0
VERTEX
  5
79F2
  8
AM_0
 10
97.907000000000011
 20
220.91499999999999
 30
0.0
 70
    32
  0
VERTEX
  5
79F3
  8
AM_0
 10
97.927800000000005
 20
220.84399999999999
 30
0.0
 70
    32
  0
VERTEX
  5
79F4
  8
AM_0
 10
97.950599999999994
 20
220.773
 30
0.0
 70
    32
  0
VERTEX
  5
79F5
  8
AM_0
 10
97.975399999999993
 20
220.703
 30
0.0
 70
    32
  0
VERTEX
  5
79F6
  8
AM_0
 10
98.002300000000005
 20
220.63399999999999
 30
0.0
 70
    32
  0
VERTEX
  5
79F7
  8
AM_0
 10
98.031199999999984
 20
220.566
 30
0.0
 70
    32
  0
VERTEX
  5
79F8
  8
AM_0
 10
98.062100000000001
 20
220.49799999999999
 30
0.0
 70
    32
  0
VERTEX
  5
79F9
  8
AM_0
 10
98.094899999999996
 20
220.43199999999999
 30
0.0
 70
    32
  0
VERTEX
  5
79FA
  8
AM_0
 10
98.129599999999996
 20
220.36699999999999
 30
0.0
 70
    32
  0
VERTEX
  5
79FB
  8
AM_0
 10
98.166300000000007
 20
220.304
 30
0.0
 70
    32
  0
VERTEX
  5
79FC
  8
AM_0
 10
98.204899999999995
 20
220.24100000000001
 30
0.0
 70
    32
  0
VERTEX
  5
79FD
  8
AM_0
 10
98.245400000000004
 20
220.179
 30
0.0
 70
    32
  0
VERTEX
  5
79FE
  8
AM_0
 10
98.287700000000001
 20
220.119
 30
0.0
 70
    32
  0
VERTEX
  5
79FF
  8
AM_0
 10
98.331800000000001
 20
220.06
 30
0.0
 70
    32
  0
VERTEX
  5
7A00
  8
AM_0
 10
98.377799999999993
 20
220.00200000000001
 30
0.0
 70
    32
  0
VERTEX
  5
7A01
  8
AM_0
 10
98.425500000000014
 20
219.946
 30
0.0
 70
    32
  0
VERTEX
  5
7A02
  8
AM_0
 10
98.474999999999994
 20
219.89099999999999
 30
0.0
 70
    32
  0
VERTEX
  5
7A03
  8
AM_0
 10
98.526200000000017
 20
219.83699999999999
 30
0.0
 70
    32
  0
VERTEX
  5
7A04
  8
AM_0
 10
98.578999999999994
 20
219.785
 30
0.0
 70
    32
  0
VERTEX
  5
7A05
  8
AM_0
 10
98.633499999999998
 20
219.73400000000001
 30
0.0
 70
    32
  0
VERTEX
  5
7A06
  8
AM_0
 10
98.689700000000002
 20
219.685
 30
0.0
 70
    32
  0
VERTEX
  5
7A07
  8
AM_0
 10
98.747399999999999
 20
219.63800000000001
 30
0.0
 70
    32
  0
VERTEX
  5
7A08
  8
AM_0
 10
98.806700000000021
 20
219.59200000000001
 30
0.0
 70
    32
  0
VERTEX
  5
7A09
  8
AM_0
 10
98.867500000000007
 20
219.547
 30
0.0
 70
    32
  0
VERTEX
  5
7A0A
  8
AM_0
 10
98.929800000000014
 20
219.50399999999999
 30
0.0
 70
    32
  0
VERTEX
  5
7A0B
  8
AM_0
 10
98.993499999999997
 20
219.46299999999999
 30
0.0
 70
    32
  0
VERTEX
  5
7A0C
  8
AM_0
 10
99.058599999999998
 20
219.423
 30
0.0
 70
    32
  0
VERTEX
  5
7A0D
  8
AM_0
 10
99.125100000000003
 20
219.38499999999999
 30
0.0
 70
    32
  0
VERTEX
  5
7A0E
  8
AM_0
 10
99.192899999999995
 20
219.34899999999999
 30
0.0
 70
    32
  0
VERTEX
  5
7A0F
  8
AM_0
 10
99.261899999999997
 20
219.315
 30
0.0
 70
    32
  0
VERTEX
  5
7A10
  8
AM_0
 10
99.332300000000004
 20
219.28200000000001
 30
0.0
 70
    32
  0
VERTEX
  5
7A11
  8
AM_0
 10
99.403800000000004
 20
219.251
 30
0.0
 70
    32
  0
VERTEX
  5
7A12
  8
AM_0
 10
99.476500000000016
 20
219.22200000000001
 30
0.0
 70
    32
  0
VERTEX
  5
7A13
  8
AM_0
 10
99.550299999999993
 20
219.19499999999999
 30
0.0
 70
    32
  0
VERTEX
  5
7A14
  8
AM_0
 10
99.625100000000003
 20
219.16900000000001
 30
0.0
 70
    32
  0
VERTEX
  5
7A15
  8
AM_0
 10
99.700999999999993
 20
219.14500000000001
 30
0.0
 70
    32
  0
VERTEX
  5
7A16
  8
AM_0
 10
99.777900000000002
 20
219.124
 30
0.0
 70
    32
  0
VERTEX
  5
7A17
  8
AM_0
 10
99.855599999999995
 20
219.10400000000001
 30
0.0
 70
    32
  0
VERTEX
  5
7A18
  8
AM_0
 10
99.934299999999993
 20
219.08500000000001
 30
0.0
 70
    32
  0
VERTEX
  5
7A19
  8
AM_0
 10
100.014
 20
219.06899999999999
 30
0.0
 70
    32
  0
VERTEX
  5
7A1A
  8
AM_0
 10
100.09399999999999
 20
219.05500000000001
 30
0.0
 70
    32
  0
VERTEX
  5
7A1B
  8
AM_0
 10
100.175
 20
219.04300000000001
 30
0.0
 70
    32
  0
VERTEX
  5
7A1C
  8
AM_0
 10
100.25700000000001
 20
219.03200000000001
 30
0.0
 70
    32
  0
VERTEX
  5
7A1D
  8
AM_0
 10
100.339
 20
219.024
 30
0.0
 70
    32
  0
VERTEX
  5
7A1E
  8
AM_0
 10
100.422
 20
219.017
 30
0.0
 70
    32
  0
VERTEX
  5
7A1F
  8
AM_0
 10
100.506
 20
219.012
 30
0.0
 70
    32
  0
VERTEX
  5
7A20
  8
AM_0
 10
100.59
 20
219.00999999999999
 30
0.0
 70
    32
  0
VERTEX
  5
7A21
  8
AM_0
 10
100.67400000000001
 20
219.00899999999999
 30
0.0
 70
    32
  0
VERTEX
  5
7A22
  8
AM_0
 10
100.759
 20
219.00999999999999
 30
0.0
 70
    32
  0
VERTEX
  5
7A23
  8
AM_0
 10
100.84399999999999
 20
219.01300000000001
 30
0.0
 70
    32
  0
VERTEX
  5
7A24
  8
AM_0
 10
100.93000000000001
 20
219.018
 30
0.0
 70
    32
  0
VERTEX
  5
7A25
  8
AM_0
 10
101.015
 20
219.02500000000001
 30
0.0
 70
    32
  0
VERTEX
  5
7A26
  8
AM_0
 10
101.101
 20
219.03399999999999
 30
0.0
 70
    32
  0
VERTEX
  5
7A27
  8
AM_0
 10
101.187
 20
219.04499999999999
 30
0.0
 70
    32
  0
VERTEX
  5
7A28
  8
AM_0
 10
101.273
 20
219.05699999999999
 30
0.0
 70
    32
  0
VERTEX
  5
7A29
  8
AM_0
 10
101.35899999999999
 20
219.072
 30
0.0
 70
    32
  0
VERTEX
  5
7A2A
  8
AM_0
 10
101.44499999999999
 20
219.08799999999999
 30
0.0
 70
    32
  0
VERTEX
  5
7A2B
  8
AM_0
 10
101.532
 20
219.107
 30
0.0
 70
    32
  0
VERTEX
  5
7A2C
  8
AM_0
 10
101.617
 20
219.12700000000001
 30
0.0
 70
    32
  0
VERTEX
  5
7A2D
  8
AM_0
 10
101.703
 20
219.149
 30
0.0
 70
    32
  0
VERTEX
  5
7A2E
  8
AM_0
 10
101.789
 20
219.173
 30
0.0
 70
    32
  0
VERTEX
  5
7A2F
  8
AM_0
 10
101.874
 20
219.19900000000001
 30
0.0
 70
    32
  0
VERTEX
  5
7A30
  8
AM_0
 10
101.959
 20
219.227
 30
0.0
 70
    32
  0
VERTEX
  5
7A31
  8
AM_0
 10
102.04300000000001
 20
219.256
 30
0.0
 70
    32
  0
VERTEX
  5
7A32
  8
AM_0
 10
102.127
 20
219.28800000000001
 30
0.0
 70
    32
  0
VERTEX
  5
7A33
  8
AM_0
 10
102.211
 20
219.321
 30
0.0
 70
    32
  0
VERTEX
  5
7A34
  8
AM_0
 10
102.294
 20
219.35499999999999
 30
0.0
 70
    32
  0
VERTEX
  5
7A35
  8
AM_0
 10
102.376
 20
219.392
 30
0.0
 70
    32
  0
VERTEX
  5
7A36
  8
AM_0
 10
102.458
 20
219.43000000000001
 30
0.0
 70
    32
  0
VERTEX
  5
7A37
  8
AM_0
 10
102.539
 20
219.47
 30
0.0
 70
    32
  0
VERTEX
  5
7A38
  8
AM_0
 10
102.62
 20
219.511
 30
0.0
 70
    32
  0
VERTEX
  5
7A39
  8
AM_0
 10
102.699
 20
219.55500000000001
 30
0.0
 70
    32
  0
VERTEX
  5
7A3A
  8
AM_0
 10
102.77800000000001
 20
219.59899999999999
 30
0.0
 70
    32
  0
VERTEX
  5
7A3B
  8
AM_0
 10
102.85599999999999
 20
219.64599999999999
 30
0.0
 70
    32
  0
VERTEX
  5
7A3C
  8
AM_0
 10
102.93300000000001
 20
219.69399999999999
 30
0.0
 70
    32
  0
SEQEND
  5
7A3D
  8
AM_0
  0
LINE
  5
671F
  8
AM_0
 10
118.13418112141331
 20
319.75445552246453
 30
0.0
 11
118.13418112141331
 21
312.1544555224645
 31
0.0
1001
GENIUS_GENOREF_13
1005
0
  0
LINE
  5
6720
  8
AM_0
 10
118.13418112141331
 20
312.1544555224645
 30
0.0
 11
119.13418112141331
 21
312.1544555224645
 31
0.0
1001
GENIUS_GENOREF_13
1005
0
  0
LINE
  5
6721
  8
AM_0
 10
119.13418112141331
 20
315.75445552246453
 30
0.0
 11
118.13418112141331
 21
315.39048528819831
 31
0.0
1001
GENIUS_GENOREF_13
1005
0
  0
LINE
  5
6722
  8
AM_0
 10
119.13418112141331
 20
316.1544555224645
 30
0.0
 11
118.13418112141331
 21
315.79048528819823
 31
0.0
1001
GENIUS_GENOREF_13
1005
0
  0
LINE
  5
6723
  8
AM_0
 10
119.13418112141331
 20
319.75445552246453
 30
0.0
 11
118.13418112141331
 21
319.75445552246453
 31
0.0
1001
GENIUS_GENOREF_13
1005
0
  0
LINE
  5
6724
  8
AM_0N
 10
117.07524360928549
 20
312.04710055015801
 30
0.0
 11
118.13418112141331
 21
311.95445552246451
 31
0.0
  0
LINE
  5
6725
  8
AM_0N
 10
117.07524360928549
 20
319.86181049477108
 30
0.0
 11
118.13418112141331
 21
319.9544555224644
 31
0.0
  0
ARC
  5
6726
  8
AM_0N
 10
121.5341811214132
 20
315.95445552246451
 30
0.0
 40
6.5
 50
151.82726586813521
 51
208.17273413186479
  0
ARC
  5
6727
  8
AM_0N
 10
117.21469279768171
 20
318.26789897782419
 30
0.0
 40
1.6000000000000001
 50
94.99999999999973
 51
151.82726586813521
  0
ARC
  5
6728
  8
AM_0N
 10
117.21469279768171
 20
313.64101206710478
 30
0.0
 40
1.6000000000000001
 50
208.17273413186479
 51
265.00000000000028
  0
LINE
  5
6729
  8
AM_0N
 10
118.13418112141331
 20
319.9544555224644
 30
0.0
 11
118.13418112141331
 21
311.95445552246451
 31
0.0
  0
LINE
  5
67ED
  8
AM_0
 10
98.184181121413474
 20
236.95339913409239
 30
0.0
 11
103.08418112141339
 21
236.95339913409239
 31
0.0
  0
LINE
  5
67EE
  8
AM_0
 10
98.184181121413474
 20
235.74037881565991
 30
0.0
 11
103.08418112141339
 21
235.74037881565991
 31
0.0
  0
LINE
  5
67EF
  8
AM_0
 10
97.384181121413377
 20
236.1533991340925
 30
0.0
 11
97.384181121413377
 21
230.51226771364611
 31
0.0
  0
LINE
  5
67F0
  8
AM_0
 10
97.384181121413377
 20
228.68086184471341
 30
0.0
 11
97.384181121413377
 21
230.51226771364611
 31
0.0
  0
LINE
  5
67F1
  8
AM_0
 10
93.534181121413326
 20
221.99116518479039
 30
0.0
 11
93.534181121413326
 21
228.6137295629174
 31
0.0
  0
LINE
  5
67F2
  8
AM_0
 10
103.88418112141331
 20
228.68086184471341
 30
0.0
 11
103.88418112141331
 21
230.51226771364611
 31
0.0
  0
LINE
  5
67F3
  8
AM_0
 10
103.88418112141331
 20
236.1533991340925
 30
0.0
 11
103.88418112141331
 21
230.51226771364611
 31
0.0
  0
LINE
  5
67F4
  8
AM_0
 10
107.7341811214133
 20
222.74898803988191
 30
0.0
 11
107.7341811214133
 21
221.99116518479039
 31
0.0
  0
LINE
  5
67F5
  8
AM_0
 10
100.63418112141331
 20
226.8706483569668
 30
0.0
 11
94.134181121413306
 21
224.6048788893751
 31
0.0
  0
LINE
  5
67F6
  8
AM_0
 10
102.18552888714299
 20
226.32987967985801
 30
0.0
 11
100.63418112141331
 21
226.8706483569668
 31
0.0
  0
LINE
  5
67F7
  8
AM_0
 10
100.43672474754329
 20
225.21700054880901
 30
0.0
 11
94.134181121413306
 21
223.0200604078475
 31
0.0
  0
LINE
  5
67F9
  8
AM_0
 10
107.13418112141331
 20
222.367168564785
 30
0.0
 11
107.13418112141331
 21
221.73573774053031
 31
0.0
  0
LINE
  5
67FA
  8
AM_0
 10
107.13418112141331
 20
221.73573774053031
 30
0.0
 11
107.13418112141331
 21
219.7164951224097
 31
0.0
  0
LINE
  5
67FB
  8
AM_0
 10
100.6341388595872
 20
217.45071092319409
 30
0.0
 11
107.13418112141331
 21
219.7164951224097
 31
0.0
  0
LINE
  5
67FC
  8
AM_0
 10
94.134181121413306
 20
219.7164951224097
 30
0.0
 11
94.134181121413306
 21
221.73573774053031
 31
0.0
  0
LINE
  5
67FD
  8
AM_0
 10
94.134181121413306
 20
219.7164951224097
 30
0.0
 11
100.6341388595872
 21
217.45074038644179
 31
0.0
  0
LINE
  5
67FE
  8
AM_0
 10
94.134181121413306
 20
221.73573774053031
 30
0.0
 11
94.134181121413306
 21
224.6048788893751
 31
0.0
  0
LINE
  5
67FF
  8
AM_0
 10
100.64574707397919
 20
225.52443785430779
 30
0.0
 11
100.63418112141331
 21
226.8706483569668
 31
0.0
  0
ARC
  5
6803
  8
AM_0
 10
97.937993972481877
 20
222.70486761613
 30
0.0
 40
6.001601094213977
 50
95.294644622324995
 51
137.2036378052716
  0
ARC
  5
6804
  8
AM_0
 10
97.937993972481877
 20
224.53627348506271
 30
0.0
 40
6.0016010942139628
 50
95.294644622324995
 51
137.2036378052716
  0
ARC
  5
6805
  8
AM_0
 10
94.403912806610563
 20
223.20175327321411
 30
0.0
 40
1.4906229315522701
 50
234.30512237790029
 51
259.57476505017542
  0
ARC
  5
6806
  8
AM_0
 10
103.33036827034501
 20
224.53627348506271
 30
0.0
 40
6.0016010942138758
 50
53.236790438343071
 51
84.705355377678273
  0
ARC
  5
6807
  8
AM_0
 10
103.33036827034501
 20
222.70486761613
 30
0.0
 40
6.0016010942138758
 50
70.204787517104251
 51
84.705355377678273
  0
ARC
  5
6808
  8
AM_0
 10
106.8644494362163
 20
223.20175327321411
 30
0.0
 40
1.490622931552253
 50
280.42523494982129
 51
305.6948776220961
  0
ARC
  5
6809
  8
AM_0
 10
100.3667292787097
 20
231.0295606970511
 30
8206336.7530117426
 40
12.9134744604336
 50
271.18655406403798
 51
287.92670513354892
  0
LINE
  5
680A
  8
AM_0
 10
104.34149820810831
 20
218.7430219412355
 30
8206336.7530117426
 11
104.7540789753095
 21
218.89626362662821
 31
8206336.7530117426
  0
LINE
  5
680B
  8
AM_0
 10
104.7540789753095
 20
218.89626362662821
 30
8206336.7530117426
 11
105.15657071956601
 21
219.07523298933401
 31
8206336.7530117426
  0
ARC
  5
680C
  8
AM_0
 10
102.65280907881009
 20
224.3600335530563
 30
8206336.7530117426
 40
5.8479004225482916
 50
295.35002817212552
 51
303.5670510400584
  0
LINE
  5
680D
  8
AM_0
 10
105.88618615482
 20
219.487332860794
 30
8206336.7530117426
 11
106.2007290340713
 21
219.71960631596451
 31
8206336.7530117426
  0
LINE
  5
680E
  8
AM_0
 10
106.2007290340713
 20
219.71960631596451
 30
8206336.7530117426
 11
106.4899181822687
 21
219.9824771920031
 31
8206336.7530117426
  0
ARC
  5
680F
  8
AM_0
 10
104.61103521889051
 20
221.84816158221051
 30
8206336.7530117426
 40
2.647825416060579
 50
315.20195107610522
 51
327.66908745373422
  0
LINE
  5
6810
  8
AM_0
 10
106.8483772987363
 20
220.43208254074159
 30
8206336.7530117426
 11
106.9772932550157
 21
220.6716143059777
 31
8206336.7530117426
  0
LINE
  5
6811
  8
AM_0
 10
106.9772932550157
 20
220.6716143059777
 30
8206336.7530117426
 11
107.0713938225164
 21
220.92627329446199
 31
8206336.7530117426
  0
ARC
  5
6812
  8
AM_0
 10
105.4725735835674
 20
221.38136195906529
 30
8206336.7530117426
 40
1.6623272388802151
 50
344.11151119415149
 51
352.5595818668628
  0
LINE
  5
6813
  8
AM_0
 10
107.12090412589529
 20
221.16609869617071
 30
8206336.7530117426
 11
107.1308087903363
 21
221.2669644498913
 31
8206336.7530117426
  0
LINE
  5
6814
  8
AM_0
 10
107.1308087903363
 20
221.2669644498913
 30
8206336.7530117426
 11
107.13418112141331
 21
221.3682631636301
 31
8206336.7530117426
  0
ARC
  5
6815
  8
AM_0
 10
105.5390877027439
 20
221.365287012132
 30
8206336.7530117426
 40
1.595096195143147
 50
0.1069032823798393
 51
11.47976002760983
  0
LINE
  5
6816
  8
AM_0
 10
107.1022741118024
 20
221.68274586347371
 30
8206336.7530117426
 11
107.0616422016172
 21
221.84331973899799
 31
8206336.7530117426
  0
LINE
  5
6817
  8
AM_0
 10
107.0616422016172
 20
221.84331973899799
 30
8206336.7530117426
 11
107.0060021370835
 21
221.99928803242071
 31
8206336.7530117426
  0
ARC
  5
6818
  8
AM_0
 10
105.1305278434298
 20
221.2239052510358
 30
8206336.7530117426
 40
2.029438908620818
 50
22.461811304460682
 51
29.330593568207401
  0
ARC
  5
6825
  8
AM_0
 10
100.9016329641326
 20
231.02956069710419
 30
8206336.7530117426
 40
12.91347446048893
 50
252.0732948664546
 51
268.81307083254637
  0
LINE
  5
6826
  8
AM_0
 10
96.926864034718463
 20
218.7430219412355
 30
8206336.7530117426
 11
96.514283267517285
 21
218.89626362662821
 31
8206336.7530117426
  0
LINE
  5
6827
  8
AM_0
 10
96.514283267517285
 20
218.89626362662821
 30
8206336.7530117426
 11
96.111791523260663
 21
219.07523298933401
 31
8206336.7530117426
  0
ARC
  5
6828
  8
AM_0
 10
98.615553164021563
 20
224.36003355306499
 30
8206336.7530117426
 40
5.8479004225582418
 50
236.4329489599497
 51
244.64997182786729
  0
LINE
  5
6829
  8
AM_0
 10
95.382176088006645
 20
219.487332860794
 30
8206336.7530117426
 11
95.06763320875551
 21
219.71960631596451
 31
8206336.7530117426
  0
LINE
  5
682A
  8
AM_0
 10
95.06763320875551
 20
219.71960631596451
 30
8206336.7530117426
 11
94.778444060558058
 21
219.9824771920031
 31
8206336.7530117426
  0
ARC
  5
682B
  8
AM_0
 10
96.657327023935949
 20
221.84816158220991
 30
8206336.7530117426
 40
2.6478254160599781
 50
212.3309125462562
 51
224.79804892389021
  0
LINE
  5
682C
  8
AM_0
 10
94.419984944090515
 20
220.43208254074159
 30
8206336.7530117426
 11
94.291068987811158
 21
220.6716143059777
 31
8206336.7530117426
  0
LINE
  5
682D
  8
AM_0
 10
94.291068987811158
 20
220.6716143059777
 30
8206336.7530117426
 11
94.196968420310384
 21
220.92627329446199
 31
8206336.7530117426
  0
ARC
  5
682E
  8
AM_0
 10
95.795788659289059
 20
221.3813619590718
 30
8206336.7530117426
 40
1.6623272389105701
 50
187.44041813322769
 51
195.88848880578581
  0
LINE
  5
682F
  8
AM_0
 10
94.147458116931347
 20
221.16609869617071
 30
8206336.7530117426
 11
94.137553452490451
 21
221.2669644498913
 31
8206336.7530117426
  0
LINE
  5
6830
  8
AM_0
 10
94.137553452490451
 20
221.2669644498913
 30
8206336.7530117426
 11
94.134181121413306
 21
221.3682631636301
 31
8206336.7530117426
  0
ARC
  5
6831
  8
AM_0
 10
95.729274540079928
 20
221.365287012132
 30
8206336.7530117426
 40
1.5950961951403351
 50
168.52023997237021
 51
179.8930967176201
  0
LINE
  5
6832
  8
AM_0
 10
94.166088131024367
 20
221.68274586347371
 30
8206336.7530117426
 11
94.206720041209692
 21
221.84331973899799
 31
8206336.7530117426
  0
LINE
  5
6833
  8
AM_0
 10
94.206720041209692
 20
221.84331973899799
 30
8206336.7530117426
 11
94.262360105743056
 21
221.99928803242071
 31
8206336.7530117426
  0
ARC
  5
6834
  8
AM_0
 10
96.137834399406586
 20
221.22390525102989
 30
8206336.7530117426
 40
2.02943890863216
 50
147.8557105642179
 51
157.53818869548999
  0
LINE
  5
6835
  8
AM_0
 10
94.419486356400171
 20
222.30367480374301
 30
8206336.7530117426
 11
94.541775102934764
 21
222.48098539646489
 31
8206336.7530117426
  0
LINE
  5
6836
  8
AM_0
 10
94.541775102934764
 20
222.48098539646489
 30
8206336.7530117426
 11
94.678628703272935
 21
222.64736731885429
 31
8206336.7530117426
  0
ARC
  5
6837
  8
AM_0
 10
97.176786689465544
 20
220.40435563303311
 30
8206336.7530117426
 40
3.3573642558870951
 50
129.08137847167831
 51
138.0804040644328
  0
LINE
  5
6838
  8
AM_0
 10
95.060225184449308
 20
223.01051413592421
 30
8206336.7530117426
 11
95.479363801849445
 21
223.31321061355001
 31
8206336.7530117426
  0
LINE
  5
6839
  8
AM_0
 10
95.479363801849445
 20
223.31321061355001
 30
8206336.7530117426
 11
95.928517481747136
 21
223.5705623148045
 31
8206336.7530117426
  0
ARC
  5
683A
  8
AM_0
 10
99.259743164773582
 20
217.04295202053899
 30
8206336.7530117426
 40
7.3284896605682359
 50
109.0382363849763
 51
117.0365170347017
  0
LINE
  5
683B
  8
AM_0
 10
96.869196619995805
 20
223.97058133526909
 30
8206336.7530117426
 11
97.545694514563195
 21
224.17746118488739
 31
8206336.7530117426
  0
LINE
  5
683C
  8
AM_0
 10
97.545694514563195
 20
224.17746118488739
 30
8206336.7530117426
 11
98.235461077263011
 21
224.3352746173897
 31
8206336.7530117426
  0
ARC
  5
683D
  8
AM_0
 10
100.5443323941267
 20
212.39517477446881
 30
8206336.7530117426
 40
12.16128574685901
 50
96.390354906716382
 51
100.944276276251
  0
LINE
  5
683E
  8
AM_0
 10
99.190761332697775
 20
224.4808984349873
 30
8206336.7530117426
 11
99.295725105861621
 21
224.49090740835439
 31
8206336.7530117426
  0
ARC
  5
6869
  8
AM_0
 10
98.184181121413474
 20
236.1533991340925
 30
0.0
 40
0.7999999999998977
 50
90.0
 51
180.0
  0
ARC
  5
686A
  8
AM_0
 10
98.184181121413474
 20
234.9403788156599
 30
0.0
 40
0.7999999999999972
 50
90.0
 51
180.0
  0
ARC
  5
686B
  8
AM_0
 10
103.08418112141339
 20
236.1533991340925
 30
0.0
 40
0.8000000000000112
 50
0.0
 51
90.0
  0
ARC
  5
686C
  8
AM_0
 10
103.08418112141339
 20
234.9403788156599
 30
0.0
 40
0.8000000000000112
 50
0.0
 51
90.0
  0
ARC
  5
686F
  8
AM_0
 10
154.04559844276531
 20
192.95445552246451
 30
0.0
 40
50.0
 50
90.0
 51
122.47128019301221
1001
GENIUS_GENOBJ-N-FIL_13
1002
{
1000
OWNER
1000
GEN
1002
}
1001
GENIUS_GENODEF_13
1002
{
1000
HIER
1070
     0
1002
}
1002
{
1000
MANEDIT
1070
     0
1002
}
1002
{
1000
NOSEL
1070
     0
1002
}
1002
{
1000
BEHIND
1070
     0
1002
}
1002
{
1000
OTHER
1070
     0
1002
}
1002
{
1000
REACTOR
1002
}
  0
ARC
  5
6872
  8
AM_0
 10
154.04559844276471
 20
192.9544555224642
 30
0.0
 40
56.0
 50
89.99999999999946
 51
122.4712801930124
1001
GENIUS_GENODEF_13
1002
{
1000
HIER
1070
     0
1002
}
1002
{
1000
MANEDIT
1070
     0
1002
}
1002
{
1000
NOSEL
1070
     0
1002
}
1002
{
1000
BEHIND
1070
     0
1002
}
1002
{
1000
OTHER
1070
     0
1002
}
1002
{
1000
REACTOR
1002
}
1001
GENIUS_GENOBJ-N-FIL_13
1002
{
1000
OWNER
1000
GEN
1002
}
  0
LINE
  5
687C
  8
AM_0
 10
142.13418112141341
 20
241.5149141014009
 30
0.0
 11
142.13418112141341
 21
208.51208100825181
 31
0.0
  0
LINE
  5
687D
  8
AM_0
 10
134.134181121414
 20
245.29502735975899
 30
0.0
 11
134.134181121414
 21
251.61537342844991
 31
0.0
  0
LINE
  5
687E
  8
AM_0
 10
125.13418112141341
 20
233.74820441209999
 30
0.0
 11
125.13418112141341
 21
211.95449002246471
 31
0.0
  0
LINE
  5
71E6
  8
ﾁｭｳｼﾝｾﾝ
 10
76.129344658530371
 20
569.61394684469258
 30
0.0
 11
465.84120112141329
 21
569.61394684469258
 31
0.0
  0
LINE
  5
71E7
  8
AM_0
 10
461.13417112141332
 20
583.61397684469273
 30
0.0
 11
461.13417112141332
 21
555.61397684469273
 31
0.0
  0
LINE
  5
71E8
  8
AM_0
 10
424.13414112141328
 20
583.61397684469273
 30
0.0
 11
461.13417112141332
 21
583.61397684469273
 31
0.0
  0
LINE
  5
71E9
  8
AM_0
 10
424.13414112141328
 20
555.61397684469273
 30
0.0
 11
461.13417112141332
 21
555.61397684469273
 31
0.0
  0
LINE
  5
71EA
  8
AM_0
 10
429.1341711214132
 20
573.61391684469277
 30
0.0
 11
429.1341711214132
 21
565.61394684469258
 31
0.0
  0
LINE
  5
71EB
  8
AM_0
 10
308.35777112141329
 20
633.93227684469264
 30
0.0
 11
309.70790112141327
 21
633.57048684469271
 31
0.0
  0
LINE
  5
71EC
  8
AM_0
 10
306.1342011214133
 20
655.72258684469273
 30
0.0
 11
306.1342011214133
 21
636.83003684469247
 31
0.0
  0
LINE
  5
71ED
  8
AM_0
 10
416.13420112141353
 20
654.77989684469264
 30
0.0
 11
416.13420112141353
 21
627.61394684469258
 31
0.0
  0
LINE
  5
71EE
  8
AM_0
 10
343.1342011214133
 20
659.61394684469246
 30
0.0
 11
413.21272112141321
 21
657.77886684469263
 31
0.0
  0
LINE
  5
71EF
  8
AM_0
 10
309.05568112141327
 20
658.72154684469263
 30
0.0
 11
343.1342011214133
 21
659.61391684469265
 31
0.0
  0
LINE
  5
71F0
  8
AM_0
 10
343.1342011214133
 20
654.48128684469282
 30
0.0
 11
343.1342011214133
 21
651.86489684469245
 31
0.0
  0
LINE
  5
71F1
  8
AM_0
 10
306.1342011214133
 20
483.50527684469267
 30
0.0
 11
306.1342011214133
 21
502.39784684469271
 31
0.0
  0
LINE
  5
71F2
  8
AM_0
 10
308.35774112141343
 20
505.2956168446924
 30
0.0
 11
309.7078711214134
 21
505.65740684469262
 31
0.0
  0
LINE
  5
71F3
  8
AM_0
 10
416.13420112141353
 20
484.44798684469271
 30
0.0
 11
416.13420112141353
 21
511.61394684469269
 31
0.0
  0
LINE
  5
71F4
  8
AM_0
 10
343.1342011214133
 20
479.61394684469241
 30
0.0
 11
413.21272112141321
 21
481.4490268446927
 31
0.0
  0
LINE
  5
71F5
  8
AM_0
 10
309.05568112141327
 20
480.50630684469252
 30
0.0
 11
343.1342011214133
 21
479.61394684469241
 31
0.0
  0
LINE
  5
71F6
  8
AM_0
 10
340.13420112141341
 20
487.3629968446923
 30
0.0
 11
340.13420112141341
 21
651.86489684469245
 31
0.0
  0
LINE
  5
71F7
  8
AM_0
 10
413.1342011214133
 20
515.48692684469245
 30
0.0
 11
413.1342011214133
 21
623.74095684469262
 31
0.0
  0
LINE
  5
71F8
  8
AM_0
 10
339.1342011214133
 20
658.48128684469259
 30
0.0
 11
339.1342011214133
 21
655.13814684469264
 31
0.0
  0
LINE
  5
71F9
  8
AM_0
 10
429.1341711214132
 20
565.61394684469258
 30
0.0
 11
461.13417112141332
 21
565.61394684469258
 31
0.0
  0
LINE
  5
71FA
  8
AM_0
 10
429.1341711214132
 20
573.61391684469277
 30
0.0
 11
461.13417112141332
 21
573.61391684469277
 31
0.0
  0
LINE
  5
71FB
  8
AM_0
 10
401.1342011214133
 20
514.44240684469275
 30
0.0
 11
401.1342011214133
 21
624.78548684469263
 31
0.0
  0
LINE
  5
71FC
  8
AM_0
 10
410.39567112141339
 20
623.8535368446926
 30
0.0
 11
404.60023112141329
 21
624.36058684469265
 31
0.0
  0
LINE
  5
71FD
  8
AM_0
 10
410.39564112141329
 20
515.37435684469256
 30
0.0
 11
404.60023112141329
 21
514.86733684469255
 31
0.0
  0
LINE
  5
71FE
  8
AM_0
 10
396.30867112141362
 20
629.78246684469275
 30
0.0
 11
390.85499112141349
 21
629.97289684469263
 31
0.0
  0
LINE
  5
71FF
  8
AM_0
 10
396.30870112141332
 20
509.44542684469241
 30
0.0
 11
390.85499112141349
 21
509.2549968446927
 31
0.0
  0
LINE
  5
7200
  8
AM_0
 10
383.13420112141341
 20
485.79402684469272
 30
0.0
 11
383.13420112141341
 21
501.25984684469262
 31
0.0
  0
LINE
  5
7201
  8
AM_0
 10
383.13420112141341
 20
637.96803684469262
 30
0.0
 11
383.13420112141341
 21
653.43385684469274
 31
0.0
  0
LINE
  5
7202
  8
AM_0
 10
340.13420112141341
 20
487.3629968446923
 30
0.0
 11
343.1342011214133
 21
487.3629968446923
 31
0.0
  0
LINE
  5
7203
  8
AM_0
 10
340.13420112141341
 20
651.86489684469245
 30
0.0
 11
343.1342011214133
 21
651.86489684469245
 31
0.0
  0
LINE
  5
7204
  8
AM_0
 10
343.1342011214133
 20
484.74660684469262
 30
0.0
 11
343.1342011214133
 21
487.3629968446923
 31
0.0
  0
LINE
  5
7205
  8
AM_0
 10
339.1342011214133
 20
480.74660684469268
 30
0.0
 11
339.1342011214133
 21
484.08974684469263
 31
0.0
  0
LINE
  5
7206
  8
AM_0
 10
340.13420112141341
 20
487.3629968446923
 30
0.0
 11
327.95970112141327
 21
487.7881368446927
 31
0.0
  0
LINE
  5
7207
  8
AM_0
 10
340.13417112141337
 20
651.86489684469245
 30
0.0
 11
327.95967112141329
 21
651.43974684469276
 31
0.0
  0
LINE
  5
7208
  8
AM_0
 10
323.13420112141341
 20
492.78508684469273
 30
0.0
 11
323.13420112141341
 21
646.44280684469265
 31
0.0
  0
LINE
  5
7209
  8
AM_0
 10
333.13417112141337
 20
498.52376684469249
 30
0.0
 11
340.13420112141341
 21
498.52376684469249
 31
0.0
  0
LINE
  5
720A
  8
AM_0
 10
333.13417112141337
 20
640.70412684469261
 30
0.0
 11
340.13420112141341
 21
640.70412684469261
 31
0.0
  0
LINE
  5
720B
  8
AM_0
 10
323.13420112141341
 20
628.92244684469244
 30
0.0
 11
333.13417112141337
 21
628.92244684469244
 31
0.0
  0
LINE
  5
720C
  8
AM_0
 10
323.13420112141341
 20
510.30544684469248
 30
0.0
 11
333.13417112141337
 21
510.30544684469248
 31
0.0
  0
LINE
  5
720D
  8
AM_0
 10
333.13417112141337
 20
498.52376684469249
 30
0.0
 11
333.13417112141337
 21
640.70412684469261
 31
0.0
  0
LINE
  5
720E
  8
AM_0
 10
296.63420112141341
 20
506.11394684469252
 30
0.0
 11
296.63420112141341
 21
633.11394684469246
 31
0.0
  0
LINE
  5
720F
  8
AM_0
 10
296.63420112141341
 20
621.65395684469274
 30
0.0
 11
323.13417112141337
 21
621.65395684469274
 31
0.0
  0
LINE
  5
7210
  8
AM_0
 10
296.63420112141341
 20
606.76186684469246
 30
0.0
 11
323.13417112141337
 21
606.76186684469246
 31
0.0
  0
LINE
  5
7211
  8
AM_0
 10
296.63420112141341
 20
633.11394684469246
 30
0.0
 11
320.23891112141342
 21
633.93825684469255
 31
0.0
  0
LINE
  5
7212
  8
AM_0
 10
296.63423112141339
 20
506.11391684469271
 30
0.0
 11
320.23888112141333
 21
505.28963684469272
 31
0.0
  0
LINE
  5
7213
  8
AM_0
 10
296.63420112141341
 20
532.46602684469246
 30
0.0
 11
323.13417112141337
 21
532.46602684469246
 31
0.0
  0
LINE
  5
7214
  8
AM_0
 10
296.63420112141341
 20
517.57393684469264
 30
0.0
 11
323.13417112141337
 21
517.57393684469264
 31
0.0
  0
LINE
  5
7215
  8
AM_0
 10
340.13420112141341
 20
489.50658684469272
 30
0.0
 11
324.53752112141342
 21
489.31178684469262
 31
0.0
  0
LINE
  5
7216
  8
AM_0
 10
340.13420112141341
 20
531.33885684469271
 30
0.0
 11
333.13417112141337
 21
531.33885684469271
 31
0.0
  0
LINE
  5
7217
  8
AM_0
 10
340.13420112141341
 20
649.72130684469266
 30
0.0
 11
324.53749112141338
 21
649.91609684469256
 31
0.0
  0
LINE
  5
7218
  8
AM_0
 10
340.13420112141341
 20
607.88902684469281
 30
0.0
 11
333.13417112141337
 21
607.88902684469281
 31
0.0
  0
CIRCLE
  5
7219
  8
AM_0
 10
401.1342011214133
 20
644.61394684469258
 30
0.0
 40
6.0
  0
ARC
  5
721A
  8
AM_0
 10
309.13420112141341
 20
655.72258684469273
 30
0.0
 40
3.0
 50
91.500001000001546
 51
180.00001000000091
  0
ARC
  5
721B
  8
AM_0
 10
413.1342011214133
 20
654.77989684469264
 30
0.0
 40
3.0
 50
0.0
 51
88.499997000000747
  0
ARC
  5
721C
  8
AM_0
 10
321.13420112141341
 20
644.61394684469258
 30
0.0
 40
6.0
 50
57.78807200000049
 51
289.4712300000017
  0
ARC
  5
721D
  8
AM_0
 10
413.1342011214133
 20
627.61394684469258
 30
0.0
 40
3.0
 50
284.47751000000278
 51
0.0
  0
ARC
  5
721E
  8
AM_0
 10
309.13420112141341
 20
636.83003684469247
 30
0.0
 40
3.0
 50
180.00001000000091
 51
254.999990000005
  0
CIRCLE
  5
721F
  8
AM_0
 10
401.1342011214133
 20
494.61394684469269
 30
0.0
 40
6.0
  0
ARC
  5
7220
  8
AM_0
 10
309.13420112141341
 20
483.50527684469267
 30
0.0
 40
3.0
 50
180.00001000000091
 51
268.50000000000369
  0
ARC
  5
7221
  8
AM_0
 10
413.1342011214133
 20
484.44798684469271
 30
0.0
 40
3.0
 50
271.49999999999608
 51
0.0
  0
ARC
  5
7222
  8
AM_0
 10
321.13420112141341
 20
494.61394684469269
 30
0.0
 40
6.0
 50
70.528778999998195
 51
302.21188000000387
  0
ARC
  5
7223
  8
AM_0
 10
413.1342011214133
 20
511.61394684469269
 30
0.0
 40
3.0
 50
0.0
 51
75.522488000002227
  0
ARC
  5
7224
  8
AM_0
 10
309.13420112141341
 20
502.39784684469271
 30
0.0
 40
3.0
 50
105.00000000000161
 51
180.00001000000091
  0
ARC
  5
7225
  8
AM_0
 10
338.13420112141341
 20
654.48128684469282
 30
0.0
 40
5.0
 50
0.0
 51
91.500001000001546
  0
ARC
  5
7226
  8
AM_0
 10
338.13420112141341
 20
649.48128684469259
 30
0.0
 40
5.0
 50
28.471238999999589
 51
70.528778999998195
  0
ARC
  5
7227
  8
AM_0
 10
340.13420112141341
 20
655.13814684469264
 30
0.0
 40
1.0
 50
180.00001000000091
 51
250.52876999999819
  0
ARC
  5
7228
  8
AM_0
 10
338.13420112141341
 20
658.48128684469259
 30
0.0
 40
1.0
 50
0.0
 51
90.00000299999769
  0
ARC
  5
7229
  8
AM_0
 10
429.1341711214132
 20
569.61391684469277
 30
0.0
 40
3.9999962
 50
90.00000299999769
 51
270.0
  0
ARC
  5
722A
  8
AM_0
 10
414.13420112141341
 20
515.48692684469245
 30
0.0
 40
1.0
 50
180.00001000000091
 51
255.52248999999699
  0
ARC
  5
722B
  8
AM_0
 10
414.13420112141341
 20
623.74095684469262
 30
0.0
 40
1.0
 50
104.47751000000289
 51
180.00001000000091
  0
ARC
  5
722C
  8
AM_0
 10
410.13420112141341
 20
518.36293684469263
 30
0.0
 40
3.0
 50
274.99999999999972
 51
0.0
  0
ARC
  5
722D
  8
AM_0
 10
410.13420112141341
 20
620.86495684469276
 30
0.0
 40
3.0
 50
0.0
 51
85.000003999997659
  0
ARC
  5
722E
  8
AM_0
 10
396.13420112141341
 20
624.78548684469263
 30
0.0
 40
5.0
 50
0.0
 51
87.999999999996405
  0
ARC
  5
722F
  8
AM_0
 10
396.13420112141341
 20
514.44240684469275
 30
0.0
 40
5.0
 50
272.00000000000358
 51
0.0
  0
ARC
  5
7230
  8
AM_0
 10
405.03602112141323
 20
629.34154684469263
 30
0.0
 40
5.0
 50
207.10380999999799
 51
265.00001000000071
  0
ARC
  5
7231
  8
AM_0
 10
405.03602112141323
 20
509.8863468446927
 30
0.0
 40
5.0
 50
95.00000199999856
 51
152.89619000000189
  0
ARC
  5
7232
  8
AM_0
 10
388.13420112141341
 20
485.79402684469272
 30
0.0
 40
5.0
 50
180.00001000000091
 51
271.49999999999608
  0
ARC
  5
7233
  8
AM_0
 10
388.13420112141341
 20
653.43385684469274
 30
0.0
 40
5.0
 50
88.499997000000747
 51
180.00001000000091
  0
ARC
  5
7234
  8
AM_0
 10
391.13420112141341
 20
637.96803684469262
 30
0.0
 40
8.0
 50
180.00001000000091
 51
267.99999999999642
  0
ARC
  5
7235
  8
AM_0
 10
391.13420112141341
 20
501.25984684469262
 30
0.0
 40
8.0
 50
91.999998000000545
 51
180.00001000000091
  0
ARC
  5
7236
  8
AM_0
 10
338.13420112141341
 20
484.74660684469262
 30
0.0
 40
5.0
 50
268.50000000000369
 51
0.0000006832495047
  0
ARC
  5
7237
  8
AM_0
 10
338.13420112141341
 20
489.74660684469262
 30
0.0
 40
5.0
 50
289.4712300000017
 51
331.5287600000031
  0
ARC
  5
7238
  8
AM_0
 10
340.13420112141341
 20
484.08974684469263
 30
0.0
 40
1.0
 50
109.4712199999996
 51
180.00001000000091
  0
ARC
  5
7239
  8
AM_0
 10
338.13420112141341
 20
480.74660684469268
 30
0.0
 40
1.0
 50
270.0
 51
0.0
  0
ARC
  5
723A
  8
AM_0
 10
328.13420112141341
 20
492.78508684469273
 30
0.0
 40
5.0
 50
180.00001000000091
 51
267.99999999999642
  0
ARC
  5
723B
  8
AM_0
 10
328.13420112141341
 20
646.44280684469265
 30
0.0
 40
5.0
 50
91.999998000000545
 51
180.00001000000091
  0
ARC
  5
723C
  8
AM_0
 10
320.13420112141341
 20
502.29146684469282
 30
0.0
 40
3.0
 50
0.0
 51
87.999999999996405
  0
ARC
  5
723D
  8
AM_0
 10
320.13420112141341
 20
636.93642684469262
 30
0.0
 40
3.0
 50
272.00000000000358
 51
0.0
  0
POLYLINE
  5
723E
  8
AM_0
 66
     1
 10
0.0
 20
0.0
 30
0.0
  0
VERTEX
  5
723F
  8
AM_0
 10
340.13420112141341
 20
531.33885684469271
 30
0.0
 42
-0.059991193
  0
VERTEX
  5
7240
  8
AM_0
 10
365.72301112141349
 20
515.40664684469255
 30
0.0
 42
-0.30883796
  0
VERTEX
  5
7241
  8
AM_0
 10
375.13417112141332
 20
499.46590684469271
 30
0.0
 42
-0.25905842
  0
VERTEX
  5
7242
  8
AM_0
 10
340.6845011214134
 20
479.67784684469262
 30
0.0
  0
SEQEND
  5
7243
  8
AM_0
  0
POLYLINE
  5
7244
  8
AM_0
 66
     1
 10
0.0
 20
0.0
 30
0.0
  0
VERTEX
  5
7245
  8
AM_0
 10
341.39774112141362
 20
489.68496684469272
 30
0.0
 42
0.021277534
  0
VERTEX
  5
7246
  8
AM_0
 10
352.22788112141342
 20
491.74148684469242
 30
0.0
 42
0.020622971
  0
VERTEX
  5
7247
  8
AM_0
 10
362.35264112141328
 20
494.55852684469278
 30
0.0
 42
0.022709
  0
VERTEX
  5
7248
  8
AM_0
 10
373.15956112141367
 20
498.60408684469252
 30
0.0
  0
SEQEND
  5
7249
  8
AM_0
  0
POLYLINE
  5
724A
  8
AM_0
 66
     1
 10
0.0
 20
0.0
 30
0.0
  0
VERTEX
  5
724B
  8
AM_0
 10
340.13420112141341
 20
607.88902684469281
 30
0.0
 42
0.059991175
  0
VERTEX
  5
724C
  8
AM_0
 10
365.72301112141349
 20
623.82123684469263
 30
0.0
 42
0.30883786
  0
VERTEX
  5
724D
  8
AM_0
 10
375.13417112141332
 20
639.76198684469261
 30
0.0
 42
0.25905849
  0
VERTEX
  5
724E
  8
AM_0
 10
340.68452112141341
 20
659.55003684469273
 30
0.0
  0
SEQEND
  5
724F
  8
AM_0
  0
POLYLINE
  5
7250
  8
AM_0
 66
     1
 10
0.0
 20
0.0
 30
0.0
  0
VERTEX
  5
7251
  8
AM_0
 10
341.39774112141362
 20
649.54292684469272
 30
0.0
 42
-0.021277534
  0
VERTEX
  5
7252
  8
AM_0
 10
352.22788112141342
 20
647.48640684469262
 30
0.0
 42
-0.020622971
  0
VERTEX
  5
7253
  8
AM_0
 10
362.35264112141328
 20
644.6693668446926
 30
0.0
 42
-0.022709
  0
VERTEX
  5
7254
  8
AM_0
 10
373.15956112141367
 20
640.62380684469281
 30
0.0
  0
SEQEND
  5
7255
  8
AM_0
  0
ARC
  5
7256
  8
AM_0
 10
414.13413112141347
 20
599.66669284469265
 30
0.0
 40
1.0000000199999981
 50
179.999989999999
 51
270.00057295778072
  0
ARC
  5
7257
  8
AM_0
 10
414.13413112141347
 20
539.5612578446927
 30
0.0
 40
1.0000000199999981
 50
89.999427042251895
 51
180.00001000000091
  0
LINE
  5
7258
  8
AM_0
 10
419.13414112141328
 20
603.11397684469273
 30
0.0
 11
424.13414112141328
 21
598.11397684469273
 31
0.0
  0
LINE
  5
7259
  8
AM_0
 10
414.63414112141328
 20
603.11397684469273
 30
0.0
 11
419.13414112141351
 21
603.11397684469273
 31
0.0
  0
LINE
  5
725A
  8
AM_0
 10
414.13414112141328
 20
602.61397684469273
 30
0.0
 11
414.13414112141288
 21
536.61397684469318
 31
0.0
  0
LINE
  5
725B
  8
AM_0
 10
424.13414112141328
 20
598.11397684469273
 30
0.0
 11
424.13414112141328
 21
541.11397684469284
 31
0.0
  0
LINE
  5
725C
  8
AM_0
 10
414.63414112141328
 20
536.11397684469273
 30
0.0
 11
419.13414112141328
 21
536.11397684469273
 31
0.0
  0
LINE
  5
725D
  8
AM_0
 10
419.13414112141328
 20
536.11397684469273
 30
0.0
 11
424.13414112141328
 21
541.11397684469284
 31
0.0
  0
LINE
  5
725E
  8
AM_0
 10
414.63414112141328
 20
603.11397684469273
 30
0.0
 11
414.13414112141328
 21
602.61397684469273
 31
0.0
1001
GENIUS_GENFIL_13
1070
     0
1040
0.5
1040
0.5
1040
20.0
1040
0.0
1002
{
1002
}
1001
GENIUS_GENOBJ-N-CHA_13
1002
{
1000
OWNER
1000
GEN
1002
}
1001
GENIUS_GENODEF_13
1002
{
1000
HIER
1070
     0
1002
}
1002
{
1000
MANEDIT
1070
     0
1002
}
1002
{
1000
NOSEL
1070
     0
1002
}
1002
{
1000
BEHIND
1070
     0
1002
}
1002
{
1000
OTHER
1070
     0
1002
}
1002
{
1000
REACTOR
1002
}
  0
LINE
  5
725F
  8
AM_0
 10
414.13414112141328
 20
536.61397684469262
 30
0.0
 11
414.63414112141328
 21
536.11397684469273
 31
0.0
1001
GENIUS_GENFIL_13
1070
     0
1040
0.5
1040
0.5
1040
20.0
1040
0.0
1002
{
1002
}
1001
GENIUS_GENOBJ-N-CHA_13
1002
{
1000
OWNER
1000
GEN
1002
}
1001
GENIUS_GENODEF_13
1002
{
1000
HIER
1070
     0
1002
}
1002
{
1000
MANEDIT
1070
     0
1002
}
1002
{
1000
NOSEL
1070
     0
1002
}
1002
{
1000
BEHIND
1070
     0
1002
}
1002
{
1000
OTHER
1070
     0
1002
}
1002
{
1000
REACTOR
1002
}
  0
LINE
  5
7260
  8
AM_0
 10
419.13414112141351
 20
603.11397684469273
 30
0.0
 11
419.13414112141328
 21
536.11397684469273
 31
0.0
  0
LINE
  5
749E
  8
ﾁｭｳｼﾝｾﾝ1
 10
391.1342011214133
 20
644.61394684469258
 30
0.0
 11
411.1342011214133
 21
644.61394684469258
 31
0.0
  0
LINE
  5
749F
  8
ﾁｭｳｼﾝｾﾝ1
 10
401.1342011214133
 20
654.61394684469246
 30
0.0
 11
401.1342011214133
 21
634.61394684469246
 31
0.0
  0
LINE
  5
74A0
  8
ﾁｭｳｼﾝｾﾝ1
 10
391.1342011214133
 20
494.61394684469269
 30
0.0
 11
411.1342011214133
 21
494.61394684469269
 31
0.0
  0
LINE
  5
74A1
  8
ﾁｭｳｼﾝｾﾝ1
 10
401.1342011214133
 20
504.61394684469241
 30
0.0
 11
401.1342011214133
 21
484.61394684469269
 31
0.0
  0
LINE
  5
74A2
  8
ﾁｭｳｼﾝｾﾝ1
 10
311.13420112141341
 20
494.61394684469269
 30
0.0
 11
331.1342011214133
 21
494.61394684469269
 31
0.0
  0
LINE
  5
74A3
  8
ﾁｭｳｼﾝｾﾝ1
 10
321.13420112141341
 20
504.61394684469241
 30
0.0
 11
321.13420112141341
 21
484.61394684469269
 31
0.0
  0
LINE
  5
74A4
  8
ﾁｭｳｼﾝｾﾝ1
 10
311.13420112141341
 20
644.61394684469258
 30
0.0
 11
331.1342011214133
 21
644.61394684469258
 31
0.0
  0
LINE
  5
74A5
  8
ﾁｭｳｼﾝｾﾝ1
 10
321.13420112141341
 20
654.61394684469246
 30
0.0
 11
321.13420112141341
 21
634.61394684469246
 31
0.0
  0
LINE
  5
76F4
  8
AM_0
 10
133.63420112141449
 20
517.55254333592075
 30
0.0
 11
133.63420112141421
 21
555.27483025067795
 31
0.0
  0
LINE
  5
76F5
  8
AM_0
 10
124.6342011214137
 20
515.61394684469269
 30
0.0
 11
124.6342011214137
 21
623.6139468446928
 31
0.0
  0
LINE
  5
76F6
  8
AM_0
 10
124.6342011214137
 20
515.61394684469269
 30
0.0
 11
141.6342011214137
 21
516.61394684469269
 31
0.0
  0
LINE
  5
76F7
  8
AM_0
 10
124.6342011214137
 20
623.6139468446928
 30
0.0
 11
141.6342011214137
 21
622.6139468446928
 31
0.0
  0
LINE
  5
76F8
  8
AM_0
 10
133.63420112141441
 20
526.02004364660115
 30
0.0
 11
141.6342011214137
 21
526.02004364660127
 31
0.0
  0
LINE
  5
76F9
  8
AM_0
 10
133.63420112141449
 20
517.55254333592075
 30
0.0
 11
141.6342011214137
 21
517.55254333592075
 31
0.0
  0
LINE
  5
76FA
  8
AM_0
 10
130.13420112141441
 20
534.97307387943272
 30
0.0
 11
133.63420112141441
 21
534.97307387943272
 31
0.0
  0
LINE
  5
76FB
  8
AM_0
 10
130.13420112141441
 20
526.47307387943272
 30
0.0
 11
133.63420112141449
 21
526.47307387943272
 31
0.0
  0
LINE
  5
76FC
  8
AM_0
 10
129.63420112141441
 20
526.97307387943272
 30
0.0
 11
129.63420112141441
 21
534.47307387943272
 31
0.0
  0
ARC
  5
76FD
  8
AM_0
 10
130.13420112141449
 20
526.97307387943272
 30
0.0
 40
0.5
 50
180.0
 51
270.0
  0
ARC
  5
76FE
  8
AM_0
 10
130.13420112141449
 20
534.47307387943272
 30
0.0
 40
0.5
 50
90.0
 51
180.0
  0
LINE
  5
76FF
  8
AM_0
 10
124.6342011214137
 20
527.34175235155271
 30
0.0
 11
129.63420112141441
 21
527.34175235155271
 31
0.0
  0
LINE
  5
7700
  8
AM_0
 10
124.6342011214137
 20
537.07683484984864
 30
0.0
 11
133.63420112141441
 21
537.07683484984875
 31
0.0
  0
LINE
  5
7701
  8
AM_0
 10
133.63420112141449
 20
621.67535035346498
 30
0.0
 11
133.63420112141421
 21
583.95306343871221
 31
0.0
  0
LINE
  5
7702
  8
AM_0
 10
133.63420112141441
 20
613.20785004278434
 30
0.0
 11
141.6342011214137
 21
613.20785004278434
 31
0.0
  0
LINE
  5
7703
  8
AM_0
 10
133.63420112141449
 20
621.67535035346498
 30
0.0
 11
141.6342011214137
 21
621.67535035346498
 31
0.0
  0
LINE
  5
7704
  8
AM_0
 10
130.13420112141441
 20
604.25481980995301
 30
0.0
 11
133.63420112141441
 21
604.25481980995301
 31
0.0
  0
LINE
  5
7705
  8
AM_0
 10
130.13420112141441
 20
612.75481980995301
 30
0.0
 11
133.63420112141449
 21
612.75481980995301
 31
0.0
  0
LINE
  5
7706
  8
AM_0
 10
129.63420112141441
 20
612.25481980995278
 30
0.0
 11
129.63420112141441
 21
604.75481980995301
 31
0.0
  0
ARC
  5
7707
  8
AM_0
 10
130.13420112141449
 20
612.25481980995266
 30
0.0
 40
0.5
 50
90.0
 51
180.0
  0
ARC
  5
7708
  8
AM_0
 10
130.13420112141449
 20
604.75481980995266
 30
0.0
 40
0.5
 50
180.0
 51
270.0
  0
LINE
  5
7709
  8
AM_0
 10
124.6342011214137
 20
611.88614133783301
 30
0.0
 11
129.63420112141441
 21
611.88614133783312
 31
0.0
  0
LINE
  5
770A
  8
AM_0
 10
124.6342011214137
 20
602.15105883953686
 30
0.0
 11
133.63420112141441
 21
602.15105883953686
 31
0.0
  0
LINE
  5
770B
  8
AM_0
 10
118.6342011214137
 20
623.61394684469303
 30
0.0
 11
118.6342011214137
 21
515.61394684469269
 31
0.0
  0
LINE
  5
770C
  8
AM_0
 10
124.6342011214137
 20
515.61394684469269
 30
0.0
 11
118.6342011214137
 21
515.61394684469269
 31
0.0
  0
LINE
  5
770D
  8
AM_0
 10
118.6342011214137
 20
623.61394684469303
 30
0.0
 11
124.6342011214135
 21
623.61394684469303
 31
0.0
  0
LINE
  5
770E
  8
AM_0
 10
117.6342011214137
 20
565.81394684469285
 30
0.0
 11
117.6342011214137
 21
573.41394684469265
 31
0.0
  0
LINE
  5
770F
  8
AM_0
 10
117.6342011214137
 20
573.41394684469265
 30
0.0
 11
118.6342011214137
 21
573.41394684469265
 31
0.0
  0
LINE
  5
7710
  8
AM_0
 10
118.6342011214137
 20
569.81394684469285
 30
0.0
 11
117.6342011214137
 21
570.17791707895901
 31
0.0
  0
LINE
  5
7711
  8
AM_0
 10
118.6342011214137
 20
569.41394684469265
 30
0.0
 11
117.6342011214137
 21
569.77791707895915
 31
0.0
  0
LINE
  5
7712
  8
AM_0
 10
118.6342011214137
 20
565.81394684469285
 30
0.0
 11
117.6342011214137
 21
565.81394684469285
 31
0.0
  0
LINE
  5
7713
  8
AM_0
 10
116.5752636092857
 20
573.52130181699931
 30
0.0
 11
117.6342011214137
 21
573.6139468446928
 31
0.0
  0
LINE
  5
7714
  8
AM_0
 10
116.5752636092857
 20
565.70659187238641
 30
0.0
 11
117.6342011214137
 21
565.61394684469269
 31
0.0
  0
ARC
  5
7715
  8
AM_0
 10
121.0342011214137
 20
569.61394684469269
 30
0.0
 40
6.5
 50
151.82726586813479
 51
208.1727341318651
  0
ARC
  5
7716
  8
AM_0
 10
116.7147127976823
 20
567.30050338933313
 30
0.0
 40
1.6000000000000001
 50
208.1727341318651
 51
265.0
  0
ARC
  5
7717
  8
AM_0
 10
116.7147127976823
 20
571.92739030005248
 30
0.0
 40
1.6000000000000001
 50
95.0
 51
151.82726586813479
  0
LINE
  5
7718
  8
AM_0
 10
117.6342011214137
 20
565.61394684469269
 30
0.0
 11
117.6342011214137
 21
573.6139468446928
 31
0.0
  0
LINE
  5
7719
  8
AM_0
 10
141.6342011214137
 20
555.27483025067829
 30
0.0
 11
133.63420112141441
 21
555.27483025067829
 31
0.0
  0
LINE
  5
771A
  8
AM_0
 10
141.6342011214135
 20
583.95306343871221
 30
0.0
 11
133.63420112141421
 21
583.95306343871221
 31
0.0
  0
LINE
  5
771B
  8
AM_0
 10
104.1342011214133
 20
535.61394684469394
 30
0.0
 11
104.1342011214133
 21
524.61394684469269
 31
0.0
  0
LINE
  5
771C
  8
AM_0
 10
118.6342011214133
 20
524.61394684469269
 30
0.0
 11
104.1342011214133
 21
524.61394684469292
 31
0.0
  0
LINE
  5
771D
  8
AM_0
 10
92.134201121413767
 20
529.61394684469371
 30
0.0
 11
92.134201121413511
 21
526.61394684469394
 31
0.0
  0
LINE
  5
771E
  8
AM_0
 10
92.134201121413511
 20
526.61394684469394
 30
0.0
 11
104.1342011214133
 21
526.61394684469394
 31
0.0
  0
LINE
  5
771F
  8
AM_0
 10
92.134201121413284
 20
527.61394684469406
 30
0.0
 11
92.134201121413284
 21
529.79161525084055
 31
0.0
  0
LINE
  5
7720
  8
AM_0
 10
86.634201121413284
 20
529.61394684469406
 30
0.0
 11
87.534201121413389
 21
529.61394684469406
 31
0.0
  0
LINE
  5
7721
  8
AM_0
 10
86.434201121413025
 20
532.61394684469406
 30
0.0
 11
86.434201121413025
 21
529.61394684469406
 31
0.0
  0
LINE
  5
7722
  8
AM_0
 10
87.534201121413389
 20
529.34159511011035
 30
0.0
 11
87.534201121413389
 21
532.88629857927776
 31
0.0
  0
LINE
  5
7723
  8
AM_0
 10
86.134201121413327
 20
532.3139468446941
 30
0.0
 11
87.53420112141157
 21
532.3139468446941
 31
0.0
  0
LINE
  5
7724
  8
AM_0
 10
91.534201121413361
 20
528.73237698428693
 30
0.0
 11
91.534201121413361
 21
527.61394684469406
 31
0.0
  0
LINE
  5
7725
  8
AM_0
 10
91.534201121413361
 20
529.61394684469406
 30
0.0
 11
91.534201121413361
 21
529.51394684469403
 31
0.0
  0
LINE
  5
7726
  8
AM_0
 10
91.534201121413361
 20
529.51394684469403
 30
0.0
 11
91.534201121413361
 21
528.73237698428693
 31
0.0
  0
LINE
  5
7727
  8
AM_0
 10
91.534201121413361
 20
529.61394684469406
 30
0.0
 11
91.534201121413361
 21
529.51394684469403
 31
0.0
  0
LINE
  5
7728
  8
AM_0
 10
91.534201121413361
 20
529.99770952102369
 30
0.0
 11
91.534201121413361
 21
528.73237698428693
 31
0.0
  0
LINE
  5
7729
  8
AM_0
 10
91.534201121413361
 20
527.61394684469406
 30
0.0
 11
92.134201121413284
 21
527.61394684469406
 31
0.0
  0
LINE
  5
772A
  8
AM_0
 10
88.834201121413557
 20
528.73237698428693
 30
0.0
 11
88.834201121413557
 21
532.16390817668696
 31
0.0
  0
LINE
  5
772B
  8
AM_0
 10
88.673156892155916
 20
528.44568535594385
 30
0.0
 11
87.740603842648852
 21
528.9840951101105
 31
0.0
  0
LINE
  5
772C
  8
AM_0
 10
89.106652713443964
 20
527.93852036415115
 30
0.0
 11
91.261749529382996
 21
527.93852036415115
 31
0.0
  0
LINE
  5
772D
  8
AM_0
 10
89.106652713443964
 20
529.5262336044226
 30
0.0
 11
91.261749529382996
 21
529.52623360442271
 31
0.0
  0
LINE
  5
772E
  8
AM_0
 10
87.534201121412011
 20
532.61394684469406
 30
0.0
 11
86.434201121413025
 21
532.61394684469406
 31
0.0
  0
LINE
  5
772F
  8
AM_0
 10
86.434201121413025
 20
532.61394684469406
 30
0.0
 11
86.134201121413327
 21
532.3139468446941
 31
0.0
  0
LINE
  5
7730
  8
AM_0
 10
86.134201121413327
 20
532.3139468446941
 30
0.0
 11
86.134201121413327
 21
529.91394684469401
 31
0.0
  0
LINE
  5
7731
  8
AM_0
 10
86.434201121413025
 20
529.61394684469406
 30
0.0
 11
87.53420112141157
 21
529.61394684469406
 31
0.0
  0
LINE
  5
7732
  8
AM_0
 10
86.134201121413327
 20
529.91394684469401
 30
0.0
 11
86.434201121413025
 21
529.61394684469406
 31
0.0
  0
LINE
  5
7733
  8
AM_0
 10
87.53420112141157
 20
529.91394684469401
 30
0.0
 11
86.134201121413327
 21
529.91394684469401
 31
0.0
  0
ARC
  5
7734
  8
AM_0
 10
90.241424305386772
 20
528.73237698428693
 30
0.0
 40
1.292776816026465
 50
322.11555894629771
 51
0.0
  0
ARC
  5
7735
  8
AM_0
 10
93.596630997473085
 20
531.11394684469406
 30
0.0
 40
4.762429876059711
 50
168.45024695876941
 51
199.4742400054138
  0
ARC
  5
7736
  8
AM_0
 10
90.12697793743996
 20
528.73237698428693
 30
0.0
 40
1.292776816026556
 50
142.11555894629771
 51
217.88444105370229
  0
ARC
  5
7737
  8
AM_0
 10
86.771771245353875
 20
531.11394684469406
 30
0.0
 40
4.762429876059584
 50
340.52575999458628
 51
347.08714779821958
  0
ARC
  5
7738
  8
AM_0
 10
90.241424305386772
 20
528.73237698428693
 30
0.0
 40
1.2927768160265021
 50
0.0
 51
37.884441053702282
  0
ARC
  5
7739
  8
AM_0
 10
87.947006563883861
 20
529.34159511011035
 30
0.0
 40
0.4128054424705854
 50
180.0
 51
239.99999999999949
  0
ARC
  5
773A
  8
AM_0
 10
88.260351449685487
 20
527.73068535594393
 30
0.0
 40
0.8256108849411369
 50
28.217424594182571
 51
59.999999999999439
  0
LINE
  5
773B
  8
AM_0
 10
87.749293653936533
 20
533.24881564416387
 30
0.0
 11
87.740603842648852
 21
533.24379857927772
 31
0.0
  0
ARC
  5
773C
  8
AM_0
 10
87.947006563884088
 20
532.88629857927776
 30
0.0
 40
0.4128054424705854
 50
119.9999999999916
 51
179.99999999999341
  0
CIRCLE
  5
773D
  8
AM_0
 10
90.134162453407484
 20
569.61394684469315
 30
0.0
 40
5.5
  0
LINE
  5
773E
  8
AM_0
 10
84.634162453407484
 20
566.43852036415012
 30
0.0
 11
90.134162453407953
 21
563.26309388360698
 31
0.0
  0
LINE
  5
773F
  8
AM_0
 10
90.134162453407953
 20
563.26309388360698
 30
0.0
 11
95.634162453407484
 21
566.43852036415035
 31
0.0
  0
LINE
  5
7740
  8
AM_0
 10
95.634162453407484
 20
566.43852036415035
 30
0.0
 11
95.634162453407484
 21
572.78937332523606
 31
0.0
  0
LINE
  5
7741
  8
AM_0
 10
95.634162453407484
 20
572.78937332523606
 30
0.0
 11
90.134162453407484
 21
575.96479980577908
 31
0.0
  0
LINE
  5
7742
  8
AM_0
 10
90.134162453407484
 20
575.96479980577908
 30
0.0
 11
84.634162453407484
 21
572.7893733252356
 31
0.0
  0
LINE
  5
7743
  8
AM_0
 10
84.634162453407484
 20
572.7893733252356
 30
0.0
 11
84.634162453407484
 21
566.43852036415012
 31
0.0
  0
CIRCLE
  5
7744
  8
AM_0
 10
90.134162453407484
 20
569.61394684469315
 30
0.0
 40
6.4999856554771771
  0
LINE
  5
7745
  8
AM_0
 10
101.1994546837786
 20
535.61394684469371
 30
0.0
 11
104.1342011214133
 21
535.61394684469371
 31
0.0
  0
LINE
  5
7746
  8
AM_0
 10
102.1536232355665
 20
534.11394684469371
 30
0.0
 11
104.1342011214133
 21
534.11394684469371
 31
0.0
  0
LINE
  5
7747
  8
AM_0
 10
93.455230265272348
 20
529.61394684469371
 30
0.0
 11
104.1342011214133
 21
529.61394684469371
 31
0.0
  0
ARC
  5
7748
  8
AM_0
 10
93.455230265272121
 20
534.61394684469371
 30
0.0
 40
5.0
 50
225.0
 51
270.0
1001
GENIUS_GENODEF_13
1002
{
1000
HIER
1070
     0
1002
}
1002
{
1000
MANEDIT
1070
     0
1002
}
1002
{
1000
NOSEL
1070
     0
1002
}
1002
{
1000
BEHIND
1070
     0
1002
}
1002
{
1000
OTHER
1070
     0
1002
}
1002
{
1000
REACTOR
1002
}
1001
GENIUS_GENOBJ-N-FIL_13
1002
{
1000
OWNER
1000
GEN
1002
}
  0
LINE
  5
7749
  8
AM_0
 10
102.1536232355663
 20
529.61394684469371
 30
0.0
 11
102.1536232355665
 21
534.11394684469371
 31
0.0
  0
LINE
  5
774A
  8
AM_0
 10
88.634162453407484
 20
563.2894062668006
 30
0.0
 11
88.634162453407697
 21
542.40197199098429
 31
0.0
  0
LINE
  5
774B
  8
AM_0
 10
91.634162453407484
 20
563.2894062668006
 30
0.0
 11
91.634162453407484
 21
542.40197199098429
 31
0.0
  0
LINE
  5
774C
  8
AM_0
 10
86.384162453407484
 20
564.30477426119126
 30
0.0
 11
86.384162453407484
 21
536.68501465655845
 31
0.0
  0
ARC
  5
774D
  8
AM_0
 10
91.384162453407484
 20
536.68501465655845
 30
0.0
 40
5.0
 50
180.0
 51
225.0
1001
GENIUS_GENOBJ-N-FIL_13
1002
{
1000
OWNER
1000
GEN
1002
}
1001
GENIUS_GENODEF_13
1002
{
1000
HIER
1070
     0
1002
}
1002
{
1000
MANEDIT
1070
     0
1002
}
1002
{
1000
NOSEL
1070
     0
1002
}
1002
{
1000
BEHIND
1070
     0
1002
}
1002
{
1000
OTHER
1070
     0
1002
}
1002
{
1000
REACTOR
1002
}
  0
LINE
  5
774E
  8
AM_0
 10
93.884162453407484
 20
564.30477426119126
 30
0.0
 11
93.884162453407484
 21
540.14486518794536
 31
0.0
  0
ARC
  5
774F
  8
AM_0
 10
98.884162453407484
 20
548.56946521401846
 30
0.0
 40
5.0
 50
180.0
 51
212.46094411513889
1001
GENIUS_GENODEF_13
1002
{
1000
HIER
1070
     0
1002
}
1002
{
1000
MANEDIT
1070
     0
1002
}
1002
{
1000
NOSEL
1070
     0
1002
}
1002
{
1000
BEHIND
1070
     0
1002
}
1002
{
1000
OTHER
1070
     0
1002
}
1002
{
1000
REACTOR
1002
}
1001
GENIUS_GENOBJ-N-FIL_13
1002
{
1000
OWNER
1000
GEN
1002
}
  0
ARC
  5
7750
  8
AM_0
 10
98.884162453407484
 20
540.14486518794536
 30
0.0
 40
5.0
 50
180.0
 51
224.2123722808945
1001
GENIUS_GENOBJ-N-FIL_13
1002
{
1000
OWNER
1000
GEN
1002
}
1001
GENIUS_GENODEF_13
1002
{
1000
HIER
1070
     0
1002
}
1002
{
1000
MANEDIT
1070
     0
1002
}
1002
{
1000
NOSEL
1070
     0
1002
}
1002
{
1000
BEHIND
1070
     0
1002
}
1002
{
1000
OTHER
1070
     0
1002
}
1002
{
1000
REACTOR
1002
}
  0
LINE
  5
7751
  8
AM_0
 10
102.1536232355663
 20
534.11394684469371
 30
0.0
 11
94.665374942640483
 21
545.88584230105278
 31
0.0
  0
LINE
  5
7752
  8
AM_0
 10
102.1536232355663
 20
529.61394684469371
 30
0.0
 11
95.300362217556057
 21
536.65826571718458
 31
0.0
  0
LINE
  5
7753
  8
AM_0
 10
87.848628547474846
 20
533.1494807506258
 30
0.0
 11
89.91969635933944
 21
531.07841293876095
 31
0.0
  0
ARC
  5
7754
  8
AM_0
 10
90.134162453407484
 20
542.40197199098429
 30
0.0
 40
1.5
 50
180.0
 51
0.0
  0
LINE
  5
7755
  8
AM_0
 10
104.1342011214137
 20
603.61394684469212
 30
0.0
 11
104.13420112141419
 21
614.61394684469315
 31
0.0
  0
LINE
  5
7756
  8
AM_0
 10
118.63420112141419
 20
614.6139468446928
 30
0.0
 11
104.13420112141419
 21
614.61394684469315
 31
0.0
  0
LINE
  5
7757
  8
AM_0
 10
92.134201121414435
 20
609.61394684469235
 30
0.0
 11
92.134201121414435
 21
612.61394684469246
 31
0.0
  0
LINE
  5
7758
  8
AM_0
 10
92.134201121414435
 20
612.61394684469246
 30
0.0
 11
104.13420112141419
 21
612.61394684469212
 31
0.0
  0
LINE
  5
7759
  8
AM_0
 10
92.134201121414193
 20
611.61394684469235
 30
0.0
 11
92.134201121414193
 21
609.43627843854586
 31
0.0
  0
LINE
  5
775A
  8
AM_0
 10
86.634201121414208
 20
609.61394684469235
 30
0.0
 11
87.534201121414299
 21
609.61394684469235
 31
0.0
  0
LINE
  5
775B
  8
AM_0
 10
86.434201121413935
 20
606.61394684469258
 30
0.0
 11
86.434201121413935
 21
609.61394684469246
 31
0.0
  0
LINE
  5
775C
  8
AM_0
 10
87.534201121414299
 20
609.88629857927606
 30
0.0
 11
87.534201121414299
 21
606.34159511010876
 31
0.0
  0
LINE
  5
775D
  8
AM_0
 10
86.134201121414208
 20
606.91394684469253
 30
0.0
 11
87.534201121414071
 21
606.91394684469242
 31
0.0
  0
LINE
  5
775E
  8
AM_0
 10
91.534201121414284
 20
610.49551670509936
 30
0.0
 11
91.534201121414284
 21
611.61394684469235
 31
0.0
  0
LINE
  5
775F
  8
AM_0
 10
91.534201121414284
 20
609.61394684469235
 30
0.0
 11
91.534201121414284
 21
609.71394684469237
 31
0.0
  0
LINE
  5
7760
  8
AM_0
 10
91.534201121414284
 20
609.71394684469237
 30
0.0
 11
91.534201121414284
 21
610.49551670509936
 31
0.0
  0
LINE
  5
7761
  8
AM_0
 10
91.534201121414284
 20
609.61394684469235
 30
0.0
 11
91.534201121414284
 21
609.71394684469237
 31
0.0
  0
LINE
  5
7762
  8
AM_0
 10
91.534201121414284
 20
609.23018416836271
 30
0.0
 11
91.534201121414284
 21
610.49551670509936
 31
0.0
  0
LINE
  5
7763
  8
AM_0
 10
91.534201121414284
 20
611.61394684469235
 30
0.0
 11
92.134201121414193
 21
611.61394684469235
 31
0.0
  0
LINE
  5
7764
  8
AM_0
 10
88.834201121414495
 20
610.49551670509936
 30
0.0
 11
88.834201121414267
 21
607.06398551269933
 31
0.0
  0
LINE
  5
7765
  8
AM_0
 10
88.673156892156854
 20
610.78220833344255
 30
0.0
 11
87.740603842649733
 21
610.24379857927602
 31
0.0
  0
LINE
  5
7766
  8
AM_0
 10
89.106652713444859
 20
611.28937332523515
 30
0.0
 11
91.261749529383906
 21
611.28937332523515
 31
0.0
  0
LINE
  5
7767
  8
AM_0
 10
89.106652713444859
 20
609.70166008496392
 30
0.0
 11
91.261749529383906
 21
609.70166008496392
 31
0.0
  0
LINE
  5
7768
  8
AM_0
 10
87.534201121414299
 20
606.61394684469258
 30
0.0
 11
86.434201121413935
 21
606.61394684469258
 31
0.0
  0
LINE
  5
7769
  8
AM_0
 10
86.434201121413935
 20
606.61394684469258
 30
0.0
 11
86.134201121414208
 21
606.91394684469253
 31
0.0
  0
LINE
  5
776A
  8
AM_0
 10
86.134201121414208
 20
606.91394684469253
 30
0.0
 11
86.134201121414208
 21
609.31394684469262
 31
0.0
  0
LINE
  5
776B
  8
AM_0
 10
86.434201121413935
 20
609.61394684469246
 30
0.0
 11
87.534201121414299
 21
609.61394684469235
 31
0.0
  0
LINE
  5
776C
  8
AM_0
 10
86.134201121414208
 20
609.31394684469262
 30
0.0
 11
86.434201121413935
 21
609.61394684469246
 31
0.0
  0
LINE
  5
776D
  8
AM_0
 10
87.534201121414299
 20
609.31394684469251
 30
0.0
 11
86.134201121414208
 21
609.31394684469262
 31
0.0
  0
ARC
  5
776E
  8
AM_0
 10
90.241424305387682
 20
610.49551670509936
 30
0.0
 40
1.292776816026465
 50
0.0
 51
37.884441053702282
  0
ARC
  5
776F
  8
AM_0
 10
93.596630997473767
 20
608.11394684469235
 30
0.0
 40
4.762429876059711
 50
160.52575999458611
 51
191.5497530412305
  0
ARC
  5
7770
  8
AM_0
 10
90.126977937440856
 20
610.49551670509936
 30
0.0
 40
1.292776816026556
 50
142.11555894629771
 51
217.88444105370229
  0
ARC
  5
7771
  8
AM_0
 10
86.771771245354543
 20
608.11394684469246
 30
0.0
 40
4.762429876059584
 50
12.912852201780369
 51
19.474240005413812
  0
ARC
  5
7772
  8
AM_0
 10
90.241424305387682
 20
610.49551670509936
 30
0.0
 40
1.2927768160265021
 50
322.11555894629771
 51
0.0
  0
ARC
  5
7773
  8
AM_0
 10
87.947006563884756
 20
609.88629857927594
 30
0.0
 40
0.4128054424705854
 50
120.0000000000005
 51
180.0
  0
ARC
  5
7774
  8
AM_0
 10
88.260351449686141
 20
611.49720833344259
 30
0.0
 40
0.8256108849411369
 50
300.00000000000051
 51
331.7825754058174
  0
LINE
  5
7775
  8
AM_0
 10
87.749293653937457
 20
605.97907804522242
 30
0.0
 11
87.740603842649733
 21
605.98409511010868
 31
0.0
  0
ARC
  5
7776
  8
AM_0
 10
87.947006563884756
 20
606.34159511010864
 30
0.0
 40
0.4128054424705854
 50
180.00000000000659
 51
240.00000000000841
  0
LINE
  5
7777
  8
AM_0
 10
101.19945468377951
 20
603.61394684469235
 30
0.0
 11
104.1342011214137
 21
603.61394684469212
 31
0.0
  0
LINE
  5
7778
  8
AM_0
 10
102.1536232355672
 20
605.11394684469235
 30
0.0
 11
104.13420112141399
 21
605.11394684469212
 31
0.0
  0
LINE
  5
7779
  8
AM_0
 10
93.455230265273215
 20
609.61394684469235
 30
0.0
 11
104.13420112141399
 21
609.61394684469212
 31
0.0
  0
ARC
  5
777A
  8
AM_0
 10
93.455230265272789
 20
604.61394684469235
 30
0.0
 40
5.0
 50
90.0
 51
135.0
1001
GENIUS_GENODEF_13
1002
{
1000
HIER
1070
     0
1002
}
1002
{
1000
MANEDIT
1070
     0
1002
}
1002
{
1000
NOSEL
1070
     0
1002
}
1002
{
1000
BEHIND
1070
     0
1002
}
1002
{
1000
OTHER
1070
     0
1002
}
1002
{
1000
REACTOR
1002
}
1001
GENIUS_GENOBJ-N-FIL_13
1002
{
1000
OWNER
1000
GEN
1002
}
  0
LINE
  5
777B
  8
AM_0
 10
102.1536232355672
 20
609.61394684469235
 30
0.0
 11
102.1536232355672
 21
605.11394684469235
 31
0.0
  0
LINE
  5
777C
  8
AM_0
 10
88.634162453407953
 20
575.93848742258592
 30
0.0
 11
88.634162453408408
 21
596.82592169840177
 31
0.0
  0
LINE
  5
777D
  8
AM_0
 10
91.634162453407725
 20
575.93848742258547
 30
0.0
 11
91.634162453408393
 21
596.82592169840177
 31
0.0
  0
LINE
  5
777E
  8
AM_0
 10
86.384162453407953
 20
574.92311942819538
 30
0.0
 11
86.384162453408379
 21
602.54287903282795
 31
0.0
  0
ARC
  5
777F
  8
AM_0
 10
91.384162453408194
 20
602.54287903282795
 30
0.0
 40
5.0
 50
135.0
 51
180.0
1001
GENIUS_GENOBJ-N-FIL_13
1002
{
1000
OWNER
1000
GEN
1002
}
1001
GENIUS_GENODEF_13
1002
{
1000
HIER
1070
     0
1002
}
1002
{
1000
MANEDIT
1070
     0
1002
}
1002
{
1000
NOSEL
1070
     0
1002
}
1002
{
1000
BEHIND
1070
     0
1002
}
1002
{
1000
OTHER
1070
     0
1002
}
1002
{
1000
REACTOR
1002
}
  0
LINE
  5
7780
  8
AM_0
 10
93.884162453407953
 20
574.92311942819526
 30
0.0
 11
93.884162453408393
 21
599.08302850144094
 31
0.0
  0
ARC
  5
7781
  8
AM_0
 10
98.884162453407953
 20
590.65842847536794
 30
0.0
 40
5.0
 50
147.53905588486111
 51
180.0
1001
GENIUS_GENODEF_13
1002
{
1000
HIER
1070
     0
1002
}
1002
{
1000
MANEDIT
1070
     0
1002
}
1002
{
1000
NOSEL
1070
     0
1002
}
1002
{
1000
BEHIND
1070
     0
1002
}
1002
{
1000
OTHER
1070
     0
1002
}
1002
{
1000
REACTOR
1002
}
1001
GENIUS_GENOBJ-N-FIL_13
1002
{
1000
OWNER
1000
GEN
1002
}
  0
ARC
  5
7782
  8
AM_0
 10
98.884162453408194
 20
599.08302850144071
 30
0.0
 40
5.0
 50
135.7876277191055
 51
180.0
1001
GENIUS_GENOBJ-N-FIL_13
1002
{
1000
OWNER
1000
GEN
1002
}
1001
GENIUS_GENODEF_13
1002
{
1000
HIER
1070
     0
1002
}
1002
{
1000
MANEDIT
1070
     0
1002
}
1002
{
1000
NOSEL
1070
     0
1002
}
1002
{
1000
BEHIND
1070
     0
1002
}
1002
{
1000
OTHER
1070
     0
1002
}
1002
{
1000
REACTOR
1002
}
  0
LINE
  5
7783
  8
AM_0
 10
102.153623235567
 20
605.11394684469235
 30
0.0
 11
94.665374942640909
 21
593.34205138833363
 31
0.0
  0
LINE
  5
7784
  8
AM_0
 10
102.1536232355672
 20
609.61394684469235
 30
0.0
 11
95.300362217556994
 21
602.56962797220172
 31
0.0
  0
LINE
  5
7785
  8
AM_0
 10
87.848628547475514
 20
606.07841293876072
 30
0.0
 11
89.919696359340378
 21
608.14948075062523
 31
0.0
  0
ARC
  5
7786
  8
AM_0
 10
90.134162453408194
 20
596.82592169840177
 30
0.0
 40
1.5
 50
0.0
 51
180.0
  0
LINE
  5
7787
  8
AM_0
 10
112.26369419439391
 20
499.40142496387449
 30
0.0
 11
97.133607030316043
 21
526.61394684469394
 31
0.0
  0
LINE
  5
7788
  8
AM_0
 10
117.5076542618183
 20
502.31705230824792
 30
0.0
 11
105.1106423530307
 21
524.61394684469269
 31
0.0
  0
LINE
  5
7789
  8
AM_0
 10
288.63420112141341
 20
606.76396684469273
 30
0.0
 11
296.63420112141341
 21
606.76396684469273
 31
0.0
  0
LINE
  5
778A
  8
AM_0
 10
289.63420112141341
 20
517.57390684469271
 30
0.0
 11
296.63420112141341
 21
517.57390684469283
 31
0.0
  0
LINE
  5
778B
  8
AM_0
 10
288.63420112141341
 20
532.46391684469256
 30
0.0
 11
296.63420112141341
 21
532.46391684469256
 31
0.0
  0
LINE
  5
778C
  8
AM_0
 10
289.63420112141341
 20
506.11394684469269
 30
0.0
 11
296.63420112141341
 21
506.11394684469269
 31
0.0
  0
LINE
  5
778D
  8
AM_0
 10
289.63420112141341
 20
621.65397684469247
 30
0.0
 11
296.63420112141341
 21
621.65397684469247
 31
0.0
  0
LINE
  5
778E
  8
AM_0
 10
289.63420112141341
 20
633.11394684469246
 30
0.0
 11
296.63420112141341
 21
633.11394684469246
 31
0.0
  0
LINE
  5
778F
  8
AM_0
 10
141.63420112141361
 20
512.18388684469278
 30
0.0
 11
144.45415112141319
 21
512.12388684469272
 31
0.0
  0
LINE
  5
7790
  8
AM_0
 10
182.63420112141361
 20
523.26396684469262
 30
0.0
 11
288.63420112141341
 21
523.26396684469262
 31
0.0
  0
LINE
  5
7791
  8
AM_0
 10
283.34416112141349
 20
509.11394684469229
 30
0.0
 11
288.63420112141341
 21
509.11394684469229
 31
0.0
  0
LINE
  5
7792
  8
AM_0
 10
155.30419112141351
 20
536.25395684469254
 30
0.0
 11
249.65416112141341
 21
536.25395684469254
 31
0.0
  0
LINE
  5
7793
  8
AM_0
 10
237.6342011214135
 20
533.61394684469246
 30
0.0
 11
156.16991112141361
 21
533.61394684469246
 31
0.0
  0
LINE
  5
7794
  8
AM_0
 10
237.6342011214135
 20
532.89397684469247
 30
0.0
 11
285.45421112141349
 21
532.89397684469247
 31
0.0
  0
LINE
  5
7795
  8
AM_0
 10
155.30419112141351
 20
532.89397684469247
 30
0.0
 11
237.6342011214135
 21
532.89397684469247
 31
0.0
  0
LINE
  5
7796
  8
AM_0
 10
155.33183112141339
 20
511.35393684469278
 30
0.0
 11
161.13420112141341
 21
511.35393684469278
 31
0.0
  0
LINE
  5
7797
  8
AM_0
 10
164.63420112141341
 20
507.75395684469271
 30
0.0
 11
281.44420112141341
 21
507.75395684469271
 31
0.0
  0
LINE
  5
7798
  8
AM_0
 10
155.3940911214136
 20
516.63396684469262
 30
0.0
 11
161.13420112141341
 21
516.63396684469262
 31
0.0
  0
LINE
  5
7799
  8
AM_0
 10
151.63420112141341
 20
521.26396684469262
 30
0.0
 11
151.63420112141341
 21
535.31389684469264
 31
0.0
  0
LINE
  5
779A
  8
AM_0
 10
141.63420112141361
 20
521.26396684469262
 30
0.0
 11
151.63420112141341
 21
521.26396684469262
 31
0.0
  0
LINE
  5
779B
  8
AM_0
 10
283.37419112141339
 20
509.24385684469269
 30
0.0
 11
286.83421112141349
 21
522.15397684469281
 31
0.0
  0
LINE
  5
779C
  8
AM_0
 10
145.3954911214135
 20
509.45494684469247
 30
0.0
 11
144.91423112141351
 21
511.36394684469229
 31
0.0
  0
LINE
  5
779D
  8
AM_0
 10
145.8242111214135
 20
509.48387684469247
 30
0.0
 11
144.9041611214133
 21
513.36397684469262
 31
0.0
  0
LINE
  5
779E
  8
AM_0
 10
162.6342011214135
 20
507.72490684469261
 30
0.0
 11
162.6342011214135
 21
515.13396684469262
 31
0.0
  0
LINE
  5
779F
  8
AM_0
 10
143.4642211214134
 20
512.49394684469257
 30
0.0
 11
145.11418112141359
 21
512.49394684469257
 31
0.0
  0
LINE
  5
77A0
  8
AM_0
 10
182.63420112141361
 20
615.96391684469256
 30
0.0
 11
288.63420112141341
 21
615.96391684469256
 31
0.0
  0
LINE
  5
77A1
  8
AM_0
 10
288.63420112141341
 20
507.11394684469241
 30
0.0
 11
288.63420112141341
 21
632.11394684469269
 31
0.0
  0
LINE
  5
77A2
  8
AM_0
 10
141.63420112141361
 20
627.04393684469267
 30
0.0
 11
144.45421112141361
 21
627.1139468446928
 31
0.0
  0
LINE
  5
77A3
  8
AM_0
 10
141.63420112141361
 20
512.18388684469278
 30
0.0
 11
141.63420112141361
 21
627.04393684469289
 31
0.0
  0
LINE
  5
77A4
  8
AM_0
 10
281.97417112141341
 20
533.61394684469246
 30
0.0
 11
237.6342011214135
 21
533.61394684469246
 31
0.0
  0
LINE
  5
77A5
  8
AM_0
 10
151.63420112141341
 20
617.96391684469245
 30
0.0
 11
151.63420112141341
 21
603.92399684469262
 31
0.0
  0
LINE
  5
77A6
  8
AM_0
 10
141.63420112141361
 20
603.92399684469262
 30
0.0
 11
151.63420112141341
 21
603.92399684469262
 31
0.0
  0
LINE
  5
77A7
  8
AM_0
 10
141.63420112141361
 20
612.30388684469267
 30
0.0
 11
151.63420112141341
 21
612.30388684469267
 31
0.0
  0
LINE
  5
77A8
  8
AM_0
 10
141.63420112141361
 20
617.96391684469245
 30
0.0
 11
151.63420112141341
 21
617.96391684469245
 31
0.0
  0
LINE
  5
77A9
  8
AM_0
 10
217.07628112141339
 20
555.6139468446928
 30
0.0
 11
147.18419112141339
 21
555.6139468446928
 31
0.0
  0
LINE
  5
77AA
  8
AM_0
 10
164.63420112141341
 20
631.47392684469264
 30
0.0
 11
281.44420112141341
 21
631.47392684469264
 31
0.0
  0
LINE
  5
77AB
  8
AM_0
 10
155.5884911214134
 20
622.60393684469273
 30
0.0
 11
161.13420112141341
 21
622.60393684469273
 31
0.0
  0
LINE
  5
77AC
  8
AM_0
 10
152.84349112141339
 20
616.60725684469264
 30
0.0
 11
153.6284711214135
 21
620.95393684469263
 31
0.0
  0
LINE
  5
77AD
  8
AM_0
 10
155.5246411214134
 20
627.88396684469262
 30
0.0
 11
161.13420112141341
 21
627.88396684469262
 31
0.0
  0
LINE
  5
77AE
  8
AM_0
 10
147.76421112141341
 20
631.28398684469278
 30
0.0
 11
161.13420112141341
 21
631.28398684469278
 31
0.0
  0
LINE
  5
77AF
  8
AM_0
 10
147.74419112141351
 20
632.91398684469277
 30
0.0
 11
161.24419112141351
 21
632.91398684469277
 31
0.0
  0
LINE
  5
77B0
  8
AM_0
 10
164.63420112141341
 20
635.53398684469255
 30
0.0
 11
282.71782112141341
 21
635.53398684469255
 31
0.0
  0
LINE
  5
77B1
  8
AM_0
 10
164.63420112141341
 20
634.86394684469258
 30
0.0
 11
282.86186112141348
 21
634.86394684469258
 31
0.0
  0
LINE
  5
77B2
  8
AM_0
 10
164.63420112141341
 20
633.50395684469265
 30
0.0
 11
283.15416112141349
 21
633.50395684469265
 31
0.0
  0
LINE
  5
77B3
  8
AM_0
 10
151.1484811214134
 20
620.65397684469247
 30
0.0
 11
153.56847112141341
 21
620.65397684469247
 31
0.0
  0
LINE
  5
77B4
  8
AM_0
 10
153.5784211214133
 20
626.30397684469256
 30
0.0
 11
152.61839112141359
 21
621.83388684469264
 31
0.0
  0
LINE
  5
77B5
  8
AM_0
 10
143.44420112141319
 20
624.71391684469279
 30
0.0
 11
153.23699112141341
 21
624.71391684469279
 31
0.0
  0
LINE
  5
77B6
  8
AM_0
 10
281.97417112141341
 20
605.6139468446928
 30
0.0
 11
156.18419112141359
 21
605.6139468446928
 31
0.0
  0
LINE
  5
77B7
  8
AM_0
 10
281.97417112141341
 20
603.61394684469258
 30
0.0
 11
267.63420112141341
 21
603.61394684469258
 31
0.0
  0
LINE
  5
77B8
  8
AM_0
 10
281.98131112141363
 20
595.61394684469246
 30
0.0
 11
267.63420112141341
 21
595.61394684469246
 31
0.0
  0
LINE
  5
77B9
  8
AM_0
 10
145.8242111214135
 20
629.74397684469272
 30
0.0
 11
144.9041611214133
 21
625.87392684469273
 31
0.0
  0
LINE
  5
77BA
  8
AM_0
 10
281.96703112141358
 20
593.6139468446928
 30
0.0
 11
156.18419112141359
 21
593.6139468446928
 31
0.0
  0
LINE
  5
77BB
  8
AM_0
 10
143.4642211214134
 20
626.73393684469261
 30
0.0
 11
145.11418112141359
 21
626.73393684469261
 31
0.0
  0
LINE
  5
77BC
  8
AM_0
 10
145.8041911214134
 20
631.40388684469247
 30
0.0
 11
144.91423112141351
 21
627.87398684469247
 31
0.0
  0
LINE
  5
77BD
  8
AM_0
 10
217.0729211214136
 20
585.6139468446928
 30
0.0
 11
147.18419112141339
 21
585.6139468446928
 31
0.0
  0
LINE
  5
77BE
  8
AM_0
 10
162.6342011214135
 20
631.50395684469265
 30
0.0
 11
162.6342011214135
 21
624.10393684469261
 31
0.0
  0
LINE
  5
77BF
  8
AM_0
 10
217.0729211214136
 20
583.61394684469246
 30
0.0
 11
147.18419112141339
 21
583.61394684469246
 31
0.0
  0
LINE
  5
77C0
  8
AM_0
 10
217.07628112141339
 20
575.61394684469246
 30
0.0
 11
147.18419112141339
 21
575.61394684469246
 31
0.0
  0
LINE
  5
77C1
  8
AM_0
 10
217.07628112141339
 20
573.6139468446928
 30
0.0
 11
147.18419112141339
 21
573.6139468446928
 31
0.0
  0
LINE
  5
77C2
  8
AM_0
 10
283.37419112141339
 20
629.99397684469238
 30
0.0
 11
286.83421112141349
 21
617.07390684469271
 31
0.0
  0
LINE
  5
77C3
  8
AM_0
 10
285.09459112141349
 20
630.11394684469246
 30
0.0
 11
288.63420112141341
 21
630.11394684469246
 31
0.0
  0
LINE
  5
77C4
  8
AM_0
 10
288.34416112141361
 20
620.65397684469247
 30
0.0
 11
285.92418112141348
 21
620.65397684469247
 31
0.0
  0
LINE
  5
77C5
  8
AM_0
 10
284.18440112141349
 20
634.34910684469264
 30
0.0
 11
286.87422112141343
 21
621.83388684469264
 31
0.0
  0
LINE
  5
77C6
  8
AM_0
 10
141.63420112141361
 20
535.31389684469264
 30
0.0
 11
151.63420112141341
 21
535.31389684469264
 31
0.0
  0
LINE
  5
77C7
  8
AM_0
 10
147.3348311214134
 20
507.9438968446924
 30
0.0
 11
161.37694112141381
 21
507.9438968446924
 31
0.0
  0
LINE
  5
77C8
  8
AM_0
 10
141.63420112141361
 20
526.92399684469251
 30
0.0
 11
151.63420112141341
 21
526.92399684469251
 31
0.0
  0
LINE
  5
77C9
  8
AM_0
 10
143.44420112141319
 20
514.51396684469262
 30
0.0
 11
153.23699112141341
 21
514.51396684469262
 31
0.0
  0
LINE
  5
77CA
  8
AM_0
 10
164.63420112141341
 20
505.72392684469253
 30
0.0
 11
205.96056112141341
 21
505.72392684469253
 31
0.0
  0
LINE
  5
77CB
  8
AM_0
 10
155.0942211214134
 20
543.13396684469262
 30
0.0
 11
249.6342011214133
 21
543.13396684469262
 31
0.0
  0
LINE
  5
77CC
  8
AM_0
 10
249.6342011214133
 20
535.61394684469246
 30
0.0
 11
156.16991112141361
 21
535.61394684469246
 31
0.0
  0
LINE
  5
77CD
  8
AM_0
 10
155.30419112141351
 20
606.34392684469265
 30
0.0
 11
285.45421112141349
 21
606.34392684469265
 31
0.0
  0
LINE
  5
77CE
  8
AM_0
 10
155.30419112141351
 20
602.98393684469272
 30
0.0
 11
249.65416112141341
 21
602.98393684469272
 31
0.0
  0
LINE
  5
77CF
  8
AM_0
 10
155.0942211214134
 20
596.10393684469238
 30
0.0
 11
249.6342011214133
 21
596.10393684469238
 31
0.0
  0
LINE
  5
77D0
  8
AM_0
 10
155.0942211214134
 20
593.18388684469255
 30
0.0
 11
285.66844112141342
 21
593.18388684469255
 31
0.0
  0
LINE
  5
77D1
  8
AM_0
 10
145.9642211214136
 20
585.96391684469279
 30
0.0
 11
218.3054711214134
 21
585.96391684469279
 31
0.0
  0
LINE
  5
77D2
  8
AM_0
 10
145.9642211214136
 20
583.29399684469263
 30
0.0
 11
218.29289112141339
 21
583.29399684469263
 31
0.0
  0
LINE
  5
77D3
  8
AM_0
 10
145.9042211214132
 20
575.89397684469259
 30
0.0
 11
218.3693111214134
 21
575.89397684469259
 31
0.0
  0
LINE
  5
77D4
  8
AM_0
 10
145.9042211214132
 20
573.35393684469273
 30
0.0
 11
218.3693111214134
 21
573.35393684469273
 31
0.0
  0
LINE
  5
77D5
  8
AM_0
 10
145.9042211214132
 20
565.88396684469262
 30
0.0
 11
218.3693111214134
 21
565.88396684469262
 31
0.0
  0
LINE
  5
77D6
  8
AM_0
 10
217.07628112141339
 20
563.61394684469246
 30
0.0
 11
147.18419112141339
 21
563.61394684469246
 31
0.0
  0
LINE
  5
77D7
  8
AM_0
 10
217.07628112141339
 20
565.61394684469269
 30
0.0
 11
147.18419112141339
 21
565.61394684469269
 31
0.0
  0
LINE
  5
77D8
  8
AM_0
 10
145.9642211214136
 20
555.93388684469278
 30
0.0
 11
218.3054711214134
 21
555.93388684469278
 31
0.0
  0
LINE
  5
77D9
  8
AM_0
 10
217.07628112141339
 20
553.61394684469258
 30
0.0
 11
147.18419112141339
 21
553.61394684469258
 31
0.0
  0
LINE
  5
77DA
  8
AM_0
 10
145.9642211214136
 20
553.27397684469247
 30
0.0
 11
218.3054711214134
 21
553.27397684469247
 31
0.0
  0
LINE
  5
77DB
  8
AM_0
 10
281.96703112141358
 20
545.61394684469246
 30
0.0
 11
156.16991112141361
 21
545.61394684469246
 31
0.0
  0
LINE
  5
77DC
  8
AM_0
 10
155.0942211214134
 20
546.05388684469256
 30
0.0
 11
285.66844112141342
 21
546.05388684469256
 31
0.0
  0
LINE
  5
77DD
  8
AM_0
 10
281.96703112141358
 20
543.6139468446928
 30
0.0
 11
267.63420112141341
 21
543.6139468446928
 31
0.0
  0
LINE
  5
77DE
  8
AM_0
 10
281.97417112141341
 20
535.61394684469246
 30
0.0
 11
267.63420112141341
 21
535.61394684469246
 31
0.0
  0
LINE
  5
77DF
  8
AM_0
 10
145.9042211214132
 20
563.34392684469265
 30
0.0
 11
218.3693111214134
 21
563.34392684469265
 31
0.0
  0
LINE
  5
77E0
  8
AM_0
 10
152.8434311214134
 20
522.6205668446928
 30
0.0
 11
153.6284711214135
 21
518.2738868446927
 31
0.0
  0
LINE
  5
77E1
  8
AM_0
 10
151.1484811214134
 20
518.57390684469271
 30
0.0
 11
153.56847112141341
 21
518.57390684469271
 31
0.0
  0
LINE
  5
77E2
  8
AM_0
 10
153.5784811214134
 20
512.92393684469255
 30
0.0
 11
152.61846112141319
 21
517.39390684469265
 31
0.0
  0
LINE
  5
77E3
  8
AM_0
 10
269.14781112141361
 20
499.61394684469252
 30
0.0
 11
280.65038112141337
 21
499.61394684469252
 31
0.0
  0
LINE
  5
77E4
  8
AM_0
 10
287.63423112141362
 20
509.11391684469248
 30
0.0
 11
281.90843112141363
 21
500.29695684469272
 31
0.0
  0
LINE
  5
77E5
  8
AM_0
 10
251.13420112141341
 20
542.11394684469246
 30
0.0
 11
251.13420112141341
 21
537.11394684469258
 31
0.0
  0
LINE
  5
77E6
  8
AM_0
 10
266.1342011214133
 20
542.11394684469246
 30
0.0
 11
266.1342011214133
 21
537.11394684469258
 31
0.0
  0
LINE
  5
77E7
  8
AM_0
 10
249.6342011214133
 20
543.6139468446928
 30
0.0
 11
156.16991112141361
 21
543.6139468446928
 31
0.0
  0
LINE
  5
77E8
  8
AM_0
 10
250.65416112141361
 20
542.11394684469246
 30
0.0
 11
250.65416112141361
 21
537.25395684469265
 31
0.0
  0
LINE
  5
77E9
  8
AM_0
 10
266.61418112141348
 20
542.11394684469246
 30
0.0
 11
266.61418112141348
 21
537.25395684469265
 31
0.0
  0
LINE
  5
77EA
  8
AM_0
 10
267.63420112141341
 20
543.13396684469262
 30
0.0
 11
285.66844112141342
 21
543.13396684469262
 31
0.0
  0
LINE
  5
77EB
  8
AM_0
 10
267.61418112141342
 20
536.25395684469254
 30
0.0
 11
285.45421112141349
 21
536.25395684469254
 31
0.0
  0
LINE
  5
77EC
  8
AM_0
 10
266.61418112141348
 20
597.1139468446928
 30
0.0
 11
266.61418112141348
 21
601.97392684469264
 31
0.0
  0
LINE
  5
77ED
  8
AM_0
 10
250.65416112141361
 20
597.1139468446928
 30
0.0
 11
250.65416112141361
 21
601.97392684469264
 31
0.0
  0
LINE
  5
77EE
  8
AM_0
 10
266.1342011214133
 20
597.1139468446928
 30
0.0
 11
266.1342011214133
 21
602.1139468446928
 31
0.0
  0
LINE
  5
77EF
  8
AM_0
 10
251.13420112141341
 20
597.1139468446928
 30
0.0
 11
251.13420112141341
 21
602.1139468446928
 31
0.0
  0
LINE
  5
77F0
  8
AM_0
 10
249.6342011214133
 20
603.61394684469258
 30
0.0
 11
156.18419112141359
 21
603.61394684469258
 31
0.0
  0
LINE
  5
77F1
  8
AM_0
 10
267.61418112141342
 20
602.98393684469272
 30
0.0
 11
285.45421112141349
 21
602.98393684469272
 31
0.0
  0
LINE
  5
77F2
  8
AM_0
 10
267.63420112141341
 20
596.10393684469238
 30
0.0
 11
285.67992112141349
 21
596.10393684469238
 31
0.0
  0
LINE
  5
77F3
  8
AM_0
 10
249.6342011214133
 20
595.61394684469246
 30
0.0
 11
156.18419112141359
 21
595.61394684469246
 31
0.0
  0
LINE
  5
77F4
  8
AM_0
 10
222.63420112141341
 20
590.1139468446928
 30
0.0
 11
222.63420112141341
 21
549.11394684469269
 31
0.0
  0
LINE
  5
77F5
  8
AM_0
 10
285.63420112141341
 20
590.1139468446928
 30
0.0
 11
285.63420112141341
 21
549.11394684469269
 31
0.0
  0
LINE
  5
77F6
  8
AM_0
 10
222.63420112141341
 20
590.1139468446928
 30
0.0
 11
285.63420112141341
 21
590.1139468446928
 31
0.0
  0
LINE
  5
77F7
  8
AM_0
 10
222.63420112141341
 20
549.11394684469269
 30
0.0
 11
285.63420112141341
 21
549.11394684469269
 31
0.0
  0
LINE
  5
77F8
  8
AM_0
 10
222.63420112141341
 20
582.61394684469258
 30
0.0
 11
285.63420112141341
 21
582.61394684469258
 31
0.0
  0
LINE
  5
77F9
  8
AM_0
 10
182.63420112141361
 20
615.96385684469271
 30
0.0
 11
151.63420112141341
 21
613.93385684469263
 31
0.0
  0
LINE
  5
77FA
  8
AM_0
 10
182.63420112141361
 20
523.26390684469266
 30
0.0
 11
151.63420112141341
 21
525.29390684469263
 31
0.0
  0
ARC
  5
77FB
  8
AM_0
 10
154.7750111214134
 20
528.40361684469258
 30
0.0
 40
1.0032491999999991
 50
314.98118999999519
 51
5.167643400001003
  0
ARC
  5
77FC
  8
AM_0
 10
289.63402112141341
 20
632.11418684469265
 30
0.0
 40
0.99980682
 50
89.988930999997422
 51
180.0110699999974
  0
ARC
  5
77FD
  8
AM_0
 10
281.4354711214134
 20
509.76018684469273
 30
0.0
 40
2.0062942999999991
 50
270.24932999999891
 51
345.08844000000403
  0
ARC
  5
77FE
  8
AM_0
 10
289.63329112141338
 20
620.65483684469257
 30
0.0
 40
0.9990923399999999
 50
89.947921999999295
 51
180.05208000000431
  0
ARC
  5
77FF
  8
AM_0
 10
163.6270011214134
 20
574.61394684469258
 30
0.0
 40
1.0000259
 50
89.587534000000232
 51
270.4124599999987
  0
ARC
  5
7800
  8
AM_0
 10
155.5936811214134
 20
620.60869684469264
 30
0.0
 40
1.9952742999999991
 50
90.148580000000095
 51
170.03521999999899
  0
ARC
  5
7801
  8
AM_0
 10
155.5315411214134
 20
625.88688684469264
 30
0.0
 40
1.997119399999999
 50
89.801366999998493
 51
167.94475999999821
  0
ARC
  5
7802
  8
AM_0
 10
151.15105112141339
 20
622.15629684469263
 30
0.0
 40
1.502416299999999
 50
269.90137999999558
 51
347.60813000000093
  0
ARC
  5
7803
  8
AM_0
 10
147.7644511214134
 20
629.29167684469246
 30
0.0
 40
1.9922863
 50
90.007721000000544
 51
166.8783899999971
  0
ARC
  5
7804
  8
AM_0
 10
143.43944112141381
 20
626.21879684469263
 30
0.0
 40
1.5048382
 50
270.18264000000067
 51
346.75308000000138
  0
ARC
  5
7805
  8
AM_0
 10
143.45378112141361
 20
628.23930684469281
 30
0.0
 40
1.505448699999999
 50
270.39686999999992
 51
345.95247000000012
  0
ARC
  5
7806
  8
AM_0
 10
147.7390611214135
 20
630.91936684469238
 30
0.0
 40
1.994612099999999
 50
89.851991999995732
 51
165.93885999999711
  0
ARC
  5
7807
  8
AM_0
 10
164.62749112141341
 20
629.48063684469264
 30
0.0
 40
1.9933081999999991
 50
89.807323000004203
 51
180.19266999999849
  0
ARC
  5
7808
  8
AM_0
 10
164.6283411214134
 20
631.50981684469264
 30
0.0
 40
1.994130499999996
 50
89.831105999995955
 51
180.16889000000049
  0
ARC
  5
7809
  8
AM_0
 10
164.6307211214135
 20
632.86748684469262
 30
0.0
 40
1.996488899999999
 50
89.899148000001659
 51
180.10084999999879
  0
ARC
  5
780A
  8
AM_0
 10
164.6279811214136
 20
633.53740684469267
 30
0.0
 40
1.9964978999999961
 50
89.821482000000245
 51
165.6006099999997
  0
ARC
  5
780B
  8
AM_0
 10
161.1304811214136
 20
624.10771684469262
 30
0.0
 40
1.5037541000000001
 50
270.14287000000093
 51
359.85713999999848
  0
ARC
  5
780C
  8
AM_0
 10
161.1293211214134
 20
629.38884684469247
 30
0.0
 40
1.504891299999997
 50
270.18592999999731
 51
359.81406999999621
  0
ARC
  5
780D
  8
AM_0
 10
161.12731112141341
 20
632.79082684469245
 30
0.0
 40
1.506942899999999
 50
270.2633699999991
 51
359.73663000000079
  0
ARC
  5
780E
  8
AM_0
 10
161.2391211214136
 20
634.41911684469255
 30
0.0
 40
1.505230099999999
 50
270.19421
 51
345.17177999999871
  0
ARC
  5
780F
  8
AM_0
 10
288.28435112141329
 20
617.46623684469273
 30
0.0
 40
1.5022733999999991
 50
195.1365099999966
 51
269.99411999999722
  0
ARC
  5
7810
  8
AM_0
 10
281.4436511214135
 20
629.47478684469274
 30
0.0
 40
1.9991226
 50
15.05079100000003
 51
89.984388999999666
  0
ARC
  5
7811
  8
AM_0
 10
289.6271811214134
 20
507.1069868446927
 30
0.0
 40
0.99304521
 50
179.5973099999994
 51
270.40268000000009
  0
ARC
  5
7812
  8
AM_0
 10
289.62651112141339
 20
518.56633684469273
 30
0.0
 40
0.99237448
 50
179.55801999999801
 51
270.4419699999965
  0
ARC
  5
7813
  8
AM_0
 10
288.33989112141347
 20
622.15422684469263
 30
0.0
 40
1.500286
 50
192.32631000000171
 51
270.16416999999529
  0
ARC
  5
7814
  8
AM_0
 10
150.7897811214134
 20
611.20817684469273
 30
0.0
 40
5.0059714
 50
279.71098000000478
 51
354.67888000000482
  0
ARC
  5
7815
  8
AM_0
 10
151.25517112141321
 20
607.28142684469265
 30
0.0
 40
6.0044340999999992
 50
45.225578000003388
 51
86.380822000002652
  0
ARC
  5
7816
  8
AM_0
 10
154.7761711214134
 20
610.83464684469266
 30
0.0
 40
1.002184699999999
 50
354.8038600000034
 51
45.047307000000579
  0
ARC
  5
7817
  8
AM_0
 10
151.2538911214134
 20
531.95927684469245
 30
0.0
 40
6.0073843
 50
273.62974000000389
 51
314.7638500000042
  0
ARC
  5
7818
  8
AM_0
 10
150.79704112141329
 20
528.02543684469265
 30
0.0
 40
4.9991421999999961
 50
5.3780268999992682
 51
80.360064999999054
  0
ARC
  5
7819
  8
AM_0
 10
147.77104112141359
 20
509.9445068446924
 30
0.0
 40
2.0005671999999981
 50
193.3095900000024
 51
269.80430999999942
  0
ARC
  5
781A
  8
AM_0
 10
143.44744112141319
 20
513.01628684469279
 30
0.0
 40
1.497715799999999
 50
13.424378999996071
 51
90.122644999997888
  0
ARC
  5
781B
  8
AM_0
 10
143.4619011214134
 20
510.99565684469252
 30
0.0
 40
1.4982997
 50
14.229739999998021
 51
89.910950000001222
  0
ARC
  5
781C
  8
AM_0
 10
164.63426112141329
 20
509.75395684469282
 30
0.0
 40
2.0000371999999991
 50
180.0010599999959
 51
269.99892999999639
  0
ARC
  5
781D
  8
AM_0
 10
164.63512112141319
 20
507.72490684469261
 30
0.0
 40
2.0009109999999981
 50
180.00001000000091
 51
269.97390999999652
  0
ARC
  5
781E
  8
AM_0
 10
161.13225112141339
 20
515.13200684469246
 30
0.0
 40
1.501982699999999
 50
0.0755872020005832
 51
89.924413000004819
  0
ARC
  5
781F
  8
AM_0
 10
161.13109112141359
 20
509.85075684469251
 30
0.0
 40
1.503128599999999
 50
0.1191296500022061
 51
89.880869999998822
  0
ARC
  5
7820
  8
AM_0
 10
288.27782112141341
 20
521.77019684469235
 30
0.0
 40
1.4937901
 50
89.756423999995178
 51
165.1129200000008
  0
ARC
  5
7821
  8
AM_0
 10
163.6270011214134
 20
584.6139468446928
 30
0.0
 40
1.0000259
 50
89.587534000000232
 51
270.4124599999987
  0
ARC
  5
7822
  8
AM_0
 10
163.6270011214134
 20
594.61394684469269
 30
0.0
 40
1.0000259
 50
89.587534000000232
 51
270.4124599999987
  0
ARC
  5
7823
  8
AM_0
 10
163.6270011214134
 20
604.61394684469246
 30
0.0
 40
1.0000259
 50
89.587534000000232
 51
270.4124599999987
  0
ARC
  5
7824
  8
AM_0
 10
145.8959811214134
 20
574.62395684469254
 30
0.0
 40
1.2700266
 50
89.629328000002715
 51
270.37065999999629
  0
ARC
  5
7825
  8
AM_0
 10
145.95793112141359
 20
584.62895684469265
 30
0.0
 40
1.3350147999999991
 50
89.730434999997087
 51
270.2695700000001
  0
ARC
  5
7826
  8
AM_0
 10
155.0884911214134
 20
594.64397684469282
 30
0.0
 40
1.460011199999999
 50
89.775247999997958
 51
270.22473999999698
  0
ARC
  5
7827
  8
AM_0
 10
155.30419112141351
 20
604.66398684469254
 30
0.0
 40
1.6800002000000001
 50
90.00000299999769
 51
270.0
  0
ARC
  5
7828
  8
AM_0
 10
147.18419112141339
 20
574.61394684469258
 30
0.0
 40
1.0000056999999991
 50
90.00000299999769
 51
270.0
  0
ARC
  5
7829
  8
AM_0
 10
147.18419112141339
 20
584.6139468446928
 30
0.0
 40
1.0000056999999991
 50
90.00000299999769
 51
270.0
  0
ARC
  5
782A
  8
AM_0
 10
156.1770511214132
 20
604.61394684469246
 30
0.0
 40
1.0000255999999981
 50
89.589474000000749
 51
270.41051999999962
  0
ARC
  5
782B
  8
AM_0
 10
156.1770511214132
 20
594.61394684469269
 30
0.0
 40
1.0000255999999981
 50
89.589474000000749
 51
270.41051999999962
  0
ARC
  5
782C
  8
AM_0
 10
285.45421112141349
 20
604.66398684469254
 30
0.0
 40
1.6800077
 50
269.999989999999
 51
90.00000299999769
  0
ARC
  5
782D
  8
AM_0
 10
281.97417112141341
 20
604.61394684469246
 30
0.0
 40
1.0000040999999991
 50
269.999989999999
 51
90.00000299999769
  0
ARC
  5
782E
  8
AM_0
 10
281.97417112141341
 20
534.61394684469246
 30
0.0
 40
1.0000040999999991
 50
269.999989999999
 51
90.00000299999769
  0
ARC
  5
782F
  8
AM_0
 10
285.45421112141349
 20
534.57390684469271
 30
0.0
 40
1.6800077
 50
269.999989999999
 51
90.00000299999769
  0
ARC
  5
7830
  8
AM_0
 10
147.18419112141339
 20
564.6139468446928
 30
0.0
 40
1.0000056999999991
 50
90.00000299999769
 51
270.0
  0
ARC
  5
7831
  8
AM_0
 10
163.6270011214134
 20
554.61394684469246
 30
0.0
 40
1.0000259
 50
89.587534000000232
 51
270.4124599999987
  0
ARC
  5
7832
  8
AM_0
 10
163.6270011214134
 20
544.61394684469258
 30
0.0
 40
1.0000259
 50
89.587534000000232
 51
270.4124599999987
  0
ARC
  5
7833
  8
AM_0
 10
145.95793112141359
 20
554.60393684469273
 30
0.0
 40
1.3300148000000001
 50
89.729417999999583
 51
270.27059000000321
  0
ARC
  5
7834
  8
AM_0
 10
163.6270011214134
 20
564.6139468446928
 30
0.0
 40
1.0000259
 50
89.587534000000232
 51
270.4124599999987
  0
ARC
  5
7835
  8
AM_0
 10
163.6270011214134
 20
534.61394684469246
 30
0.0
 40
1.0000259
 50
89.587534000000232
 51
270.4124599999987
  0
ARC
  5
7836
  8
AM_0
 10
145.8959811214134
 20
564.6139468446928
 30
0.0
 40
1.2700266
 50
89.629321000002761
 51
270.37068999999542
  0
ARC
  5
7837
  8
AM_0
 10
147.18419112141339
 20
554.61394684469246
 30
0.0
 40
1.0000056999999991
 50
90.00000299999769
 51
270.0
  0
ARC
  5
7838
  8
AM_0
 10
151.36736112141341
 20
616.87395684469254
 30
0.0
 40
1.5
 50
280.24788999999811
 51
349.76261999999917
  0
ARC
  5
7839
  8
AM_0
 10
151.36736112141341
 20
522.35393684469273
 30
0.0
 40
1.5
 50
10.237378999998541
 51
79.75211000000192
  0
ARC
  5
783A
  8
AM_0
 10
155.5936811214134
 20
518.61918684469265
 30
0.0
 40
1.9952742999999991
 50
189.9647800000009
 51
269.85141999999991
  0
ARC
  5
783B
  8
AM_0
 10
151.15105112141339
 20
517.07158684469277
 30
0.0
 40
1.502416299999999
 50
12.391887000000411
 51
90.098617000002307
  0
ARC
  5
783C
  8
AM_0
 10
155.5315411214134
 20
513.34099684469265
 30
0.0
 40
1.997119399999999
 50
192.0552400000017
 51
270.1986299999989
  0
ARC
  5
783D
  8
AM_0
 10
155.30419112141351
 20
534.56389684469264
 30
0.0
 40
1.6800002000000001
 50
90.00000299999769
 51
270.0
  0
ARC
  5
783E
  8
AM_0
 10
156.1770511214132
 20
534.61394684469246
 30
0.0
 40
1.0000255999999981
 50
89.589474000000749
 51
270.41051999999962
  0
ARC
  5
783F
  8
AM_0
 10
156.1770511214132
 20
544.61394684469258
 30
0.0
 40
1.0000255999999981
 50
89.589474000000749
 51
270.41051999999962
  0
ARC
  5
7840
  8
AM_0
 10
155.0884911214134
 20
544.58391684469257
 30
0.0
 40
1.460011199999999
 50
89.775247999997958
 51
270.22473999999698
  0
ARC
  5
7841
  8
AM_0
 10
205.96056112141341
 20
504.22392684469253
 30
0.0
 40
1.5
 50
1.5000027000022329
 51
90.00000299999769
  0
ARC
  5
7842
  8
AM_0
 10
280.65038112141337
 20
501.11394684469229
 30
0.0
 40
1.5
 50
269.999989999999
 51
326.99999999999892
  0
ARC
  5
7843
  8
AM_0
 10
269.14781112141361
 20
498.11394684469241
 30
0.0
 40
1.5
 50
90.00000299999769
 51
178.4999999999973
  0
ARC
  5
7844
  8
AM_0
 10
283.15416112141349
 20
632.00395684469277
 30
0.0
 40
1.5
 50
12.12979199999535
 51
90.00000299999769
  0
ARC
  5
7845
  8
AM_0
 10
282.86186112141348
 20
633.3639468446928
 30
0.0
 40
1.5
 50
12.12979199999535
 51
90.00000299999769
  0
ARC
  5
7846
  8
AM_0
 10
282.71782112141341
 20
634.03398684469255
 30
0.0
 40
1.5
 50
12.12979199999535
 51
90.00000299999769
  0
ARC
  5
7847
  8
AM_0
 10
285.67418112141348
 20
544.58391684469257
 30
0.0
 40
1.460011199999999
 50
269.77524999999667
 51
90.224749999996845
  0
ARC
  5
7848
  8
AM_0
 10
281.97417112141341
 20
544.61394684469258
 30
0.0
 40
1.0000255999999981
 50
269.5894700000033
 51
90.410530999997775
  0
ARC
  5
7849
  8
AM_0
 10
285.67418112141348
 20
594.64397684469282
 30
0.0
 40
1.460011199999999
 50
269.77524999999667
 51
90.224749999996845
  0
ARC
  5
784A
  8
AM_0
 10
281.97417112141341
 20
594.61394684469269
 30
0.0
 40
1.0000255999999981
 50
269.5894700000033
 51
90.410530999997775
  0
ARC
  5
784B
  8
AM_0
 10
218.2991811214134
 20
584.62895684469265
 30
0.0
 40
1.3350147999999991
 50
269.7304299999999
 51
90.269556000001344
  0
ARC
  5
784C
  8
AM_0
 10
217.0729211214136
 20
584.6139468446928
 30
0.0
 40
1.0000056999999991
 50
269.999989999999
 51
90.00000299999769
  0
ARC
  5
784D
  8
AM_0
 10
217.0729211214136
 20
574.61394684469258
 30
0.0
 40
1.0000056999999991
 50
269.999989999999
 51
90.00000299999769
  0
ARC
  5
784E
  8
AM_0
 10
218.36113112141339
 20
574.62395684469254
 30
0.0
 40
1.2700266
 50
269.62931999999989
 51
90.370670000004722
  0
ARC
  5
784F
  8
AM_0
 10
217.0729211214136
 20
564.6139468446928
 30
0.0
 40
1.0000056999999991
 50
269.999989999999
 51
90.00000299999769
  0
ARC
  5
7850
  8
AM_0
 10
218.36113112141339
 20
564.6139468446928
 30
0.0
 40
1.2700266
 50
269.62931999999989
 51
90.370670000004722
  0
ARC
  5
7851
  8
AM_0
 10
217.0729211214136
 20
554.61394684469246
 30
0.0
 40
1.0000056999999991
 50
269.999989999999
 51
90.00000299999769
  0
ARC
  5
7852
  8
AM_0
 10
218.2991811214134
 20
554.60393684469273
 30
0.0
 40
1.3300148000000001
 50
269.7294199999987
 51
90.270567000000995
  0
ARC
  5
7853
  8
AM_0
 10
267.63420112141341
 20
542.11394684469246
 30
0.0
 40
1.5
 50
90.00000299999769
 51
180.00001000000091
  0
ARC
  5
7854
  8
AM_0
 10
267.63420112141341
 20
537.11394684469258
 30
0.0
 40
1.5
 50
179.999989999999
 51
270.0
  0
ARC
  5
7855
  8
AM_0
 10
249.6342011214133
 20
542.11394684469246
 30
0.0
 40
1.5
 50
0.0
 51
90.00000299999769
  0
ARC
  5
7856
  8
AM_0
 10
249.6342011214133
 20
537.11394684469258
 30
0.0
 40
1.5
 50
269.999989999999
 51
0.0000006832495047
  0
ARC
  5
7857
  8
AM_0
 10
267.63420112141341
 20
542.11394684469246
 30
0.0
 40
1.02
 50
90.00000299999769
 51
180.00001000000091
  0
ARC
  5
7858
  8
AM_0
 10
249.6342011214133
 20
542.11394684469246
 30
0.0
 40
1.02
 50
0.0
 51
90.00000299999769
  0
ARC
  5
7859
  8
AM_0
 10
249.65416112141341
 20
537.25395684469265
 30
0.0
 40
1.0
 50
269.999989999999
 51
0.0000006832495047
  0
ARC
  5
785A
  8
AM_0
 10
267.61418112141342
 20
537.25395684469265
 30
0.0
 40
1.0
 50
179.999989999999
 51
270.0
  0
CIRCLE
  5
785B
  8
AM_0
 10
256.1342011214133
 20
541.11394684469258
 30
0.0
 40
1.1000000000000001
  0
CIRCLE
  5
785C
  8
AM_0
 10
256.1342011214133
 20
541.11394684469258
 30
0.0
 40
1.149999999999999
  0
CIRCLE
  5
785D
  8
AM_0
 10
261.13420112141341
 20
541.11394684469258
 30
0.0
 40
1.0
  0
ARC
  5
785E
  8
AM_0
 10
267.63420112141341
 20
597.1139468446928
 30
0.0
 40
1.5
 50
179.999989999999
 51
270.0
  0
ARC
  5
785F
  8
AM_0
 10
267.63420112141341
 20
602.1139468446928
 30
0.0
 40
1.5
 50
90.00000299999769
 51
180.00001000000091
  0
ARC
  5
7860
  8
AM_0
 10
249.6342011214133
 20
597.1139468446928
 30
0.0
 40
1.5
 50
269.999989999999
 51
0.0000006832495047
  0
ARC
  5
7861
  8
AM_0
 10
249.6342011214133
 20
602.1139468446928
 30
0.0
 40
1.5
 50
0.0
 51
90.00000299999769
  0
ARC
  5
7862
  8
AM_0
 10
267.63420112141341
 20
597.1139468446928
 30
0.0
 40
1.02
 50
179.999989999999
 51
270.0
  0
ARC
  5
7863
  8
AM_0
 10
249.6342011214133
 20
597.1139468446928
 30
0.0
 40
1.02
 50
269.999989999999
 51
0.0000006832429909
  0
ARC
  5
7864
  8
AM_0
 10
249.65416112141341
 20
601.97392684469264
 30
0.0
 40
1.0
 50
0.0
 51
90.00000299999769
  0
ARC
  5
7865
  8
AM_0
 10
267.61418112141342
 20
601.97392684469264
 30
0.0
 40
1.0
 50
90.00000299999769
 51
180.00001000000091
  0
CIRCLE
  5
7866
  8
AM_0
 10
261.13420112141341
 20
598.1139468446928
 30
0.0
 40
1.0
  0
CIRCLE
  5
7867
  8
AM_0
 10
256.1342011214133
 20
598.1139468446928
 30
0.0
 40
1.149999999999999
  0
CIRCLE
  5
7868
  8
AM_0
 10
256.1342011214133
 20
598.1139468446928
 30
0.0
 40
1.1000000000000001
  0
ARC
  5
7869
  8
AM_0
 10
147.3348311214134
 20
509.94389684469252
 30
0.0
 40
2.0
 50
194.15074999999919
 51
269.999989999999
  0
ARC
  5
786A
  8
AM_0
 10
161.37694112141381
 20
506.44389684469252
 30
0.0
 40
1.5
 50
21.46170899999715
 51
90.00000299999769
  0
LINE
  5
786B
  8
AM_0
 10
267.66035097045432
 20
495.61394684469252
 30
0.0
 11
267.97827692414847
 21
507.75395684469271
 31
0.0
  0
LINE
  5
786C
  8
AM_0
 10
207.60791897521361
 20
495.61394684469252
 30
0.0
 11
207.29007699378309
 21
507.75395684469271
 31
0.0
  0
LINE
  5
786D
  8
AM_0
 10
204.1341611214136
 20
493.61394684469269
 30
0.0
 11
271.13416112141368
 21
493.61394684469269
 31
0.0
  0
LINE
  5
786E
  8
AM_0
 10
204.1341611214136
 20
492.61394684469252
 30
0.0
 11
204.1341611214136
 21
493.61394684469269
 31
0.0
  0
LINE
  5
786F
  8
AM_0
 10
271.13416112141368
 20
492.61394684469252
 30
0.0
 11
271.13416112141368
 21
493.61394684469269
 31
0.0
  0
LINE
  5
7870
  8
AM_0
 10
189.6341611214136
 20
454.61394684469241
 30
0.0
 11
190.8937462576759
 21
490.68374583809759
 31
0.0
  0
LINE
  5
7871
  8
AM_0
 10
192.8925279117143
 20
492.61394684469252
 30
0.0
 11
282.3757943311133
 21
492.61394684469252
 31
0.0
  0
ARC
  5
7872
  8
AM_0
 10
192.8925279117143
 20
490.61394684469269
 30
0.0
 40
2.0
 50
90.0
 51
178.0000000000029
1001
GENIUS_GENODEF_13
1002
{
1000
HIER
1070
     0
1002
}
1002
{
1000
MANEDIT
1070
     0
1002
}
1002
{
1000
NOSEL
1070
     0
1002
}
1002
{
1000
BEHIND
1070
     0
1002
}
1002
{
1000
OTHER
1070
     0
1002
}
1002
{
1000
REACTOR
1002
}
1001
GENIUS_GENOBJ-N-FIL_13
1002
{
1000
OWNER
1000
GEN
1002
}
  0
LINE
  5
7873
  8
AM_0
 10
284.37457598515152
 20
490.68374583809759
 30
0.0
 11
285.6341611214138
 21
454.61394684469241
 31
0.0
  0
ARC
  5
7874
  8
AM_0
 10
282.3757943311133
 20
490.61394684469269
 30
0.0
 40
2.0
 50
1.9999999999971021
 51
90.0
1001
GENIUS_GENOBJ-N-FIL_13
1002
{
1000
OWNER
1000
GEN
1002
}
1001
GENIUS_GENODEF_13
1002
{
1000
HIER
1070
     0
1002
}
1002
{
1000
MANEDIT
1070
     0
1002
}
1002
{
1000
NOSEL
1070
     0
1002
}
1002
{
1000
BEHIND
1070
     0
1002
}
1002
{
1000
OTHER
1070
     0
1002
}
1002
{
1000
REACTOR
1002
}
  0
LINE
  5
7875
  8
AM_0
 10
285.6341611214138
 20
454.61394684469241
 30
0.0
 11
189.6341611214134
 21
454.61394684469241
 31
0.0
  0
LINE
  5
7876
  8
AM_0
 10
189.7389234298889
 20
457.61394684469241
 30
0.0
 11
188.6341611214136
 21
457.61394684469241
 31
0.0
  0
LINE
  5
7877
  8
AM_0
 10
190.8563880536249
 20
489.61394684469241
 30
0.0
 11
188.6341611214136
 21
489.61394684469241
 31
0.0
  0
LINE
  5
7878
  8
ﾁｭｳｼﾝｾﾝ1
 10
194.63416112141431
 20
444.34923934469271
 30
0.0
 11
194.63416112141439
 21
457.34923934469271
 31
0.0
  0
LINE
  5
7879
  8
ﾁｭｳｼﾝｾﾝ
 10
237.6341611214138
 20
499.90597751792149
 30
0.0
 11
237.6341611214138
 21
442.16342420388321
 31
0.0
  0
LINE
  5
787A
  8
AM_0
 10
186.1341611214136
 20
460.11394684469229
 30
0.0
 11
188.6341611214136
 21
460.11394684469218
 31
0.0
  0
LINE
  5
787B
  8
AM_0
 10
188.6341611214136
 20
487.11394684469212
 30
0.0
 11
186.1341611214136
 21
487.11394684469252
 31
0.0
  0
LINE
  5
787C
  8
AM_0
 10
175.23549002506761
 20
484.11394684469229
 30
0.0
 11
175.23549002506761
 21
463.11394684469241
 31
0.0
  0
LINE
  5
787D
  8
AM_0
 10
160.23549002506769
 20
465.58232179067721
 30
0.0
 11
160.23549002506769
 21
481.64557189870823
 31
0.0
  0
LINE
  5
787E
  8
AM_0
 10
173.23549002506761
 20
485.61394684469241
 30
0.0
 11
173.23549002506761
 21
461.61394684469241
 31
0.0
  0
LINE
  5
787F
  8
AM_0
 10
163.73549002506769
 20
473.61394684469241
 30
0.0
 11
164.23549002506769
 21
474.11394684469241
 31
0.0
  0
LINE
  5
7880
  8
AM_0
 10
170.73549002506769
 20
461.9139468446923
 30
0.0
 11
170.73549002506769
 21
485.31394684469211
 31
0.0
  0
LINE
  5
7881
  8
AM_0
 10
180.6341611214136
 20
462.11394684469252
 30
0.0
 11
180.6341611214136
 21
485.11394684469229
 31
0.0
  0
LINE
  5
7882
  8
AM_0
 10
174.73549002506769
 20
474.31394684469421
 30
0.0
 11
174.73549002506769
 21
472.91394684469122
 31
0.0
  0
LINE
  5
7883
  8
AM_0
 10
176.8351257516384
 20
482.7139468446922
 30
0.0
 11
176.08512575163971
 21
464.51394684469233
 31
0.0
  0
LINE
  5
7884
  8
AM_0
 10
175.8841611214136
 20
482.7139468446922
 30
0.0
 11
175.23549002506761
 21
466.97286157337618
 31
0.0
  0
LINE
  5
7885
  8
AM_0
 10
176.63285371198569
 20
483.42960555705628
 30
0.0
 11
175.88559366857771
 21
463.80157508352528
 31
0.0
  0
LINE
  5
7886
  8
AM_0
 10
176.08369320447559
 20
483.42631860586039
 30
0.0
 11
175.33512575163959
 21
463.76394684469233
 31
0.0
  0
LINE
  5
7887
  8
AM_0
 10
173.23549002506761
 20
461.61394684469241
 30
0.0
 11
171.0354900250677
 21
461.61394684469241
 31
0.0
  0
ARC
  5
7888
  8
AM_0
 10
185.1341611214136
 20
461.11394684469241
 30
0.0
 40
0.5
 50
0.0
 51
90.000000000013017
  0
ARC
  5
7889
  8
AM_0
 10
186.1341611214136
 20
460.61394684469241
 30
0.0
 40
0.5
 50
180.0
 51
270.0
  0
LINE
  5
788A
  8
AM_0
 10
185.6341611214136
 20
461.11394684469241
 30
0.0
 11
185.6341611214136
 21
460.61394684469241
 31
0.0
  0
LINE
  5
788B
  8
AM_0
 10
176.6341611214136
 20
464.51394684469233
 30
0.0
 11
180.1341611214136
 21
464.51394684469233
 31
0.0
  0
LINE
  5
788C
  8
AM_0
 10
185.6341611214136
 20
462.75787552328552
 30
0.0
 11
185.6341611214136
 21
472.47001816610032
 31
0.0
  0
LINE
  5
788D
  8
AM_0
 10
181.1341611214136
 20
461.61394684469241
 30
0.0
 11
185.1341611214136
 21
461.61394684469241
 31
0.0
  0
LINE
  5
788E
  8
AM_0
 10
185.1341611214136
 20
462.25787552328552
 30
0.0
 11
180.6341611214136
 21
462.25787552328552
 31
0.0
  0
ARC
  5
788F
  8
AM_0
 10
185.1341611214136
 20
462.75787552328552
 30
0.0
 40
0.5
 50
270.0
 51
0.0
  0
ARC
  5
7890
  8
AM_0
 10
180.1341611214136
 20
464.0139468446925
 30
0.0
 40
0.5
 50
0.0
 51
90.0
  0
ARC
  5
7891
  8
AM_0
 10
181.1341611214136
 20
462.11394684469252
 30
0.0
 40
0.5
 50
180.0
 51
270.0
  0
LINE
  5
7892
  8
AM_0
 10
185.1341611214136
 20
472.97001816610009
 30
0.0
 11
180.6341611214136
 21
472.97001816610009
 31
0.0
  0
ARC
  5
7893
  8
AM_0
 10
185.1341611214136
 20
472.47001816610037
 30
0.0
 40
0.5
 50
0.0
 51
90.0
  0
LINE
  5
7894
  8
AM_0
 10
174.73549002506769
 20
467.46877609240022
 30
0.0
 11
174.73549002506769
 21
468.64101927883308
 31
0.0
  0
LINE
  5
7895
  8
AM_0
 10
176.1618581800646
 20
464.51394684469233
 30
0.0
 11
176.6341611214136
 21
464.51394684469233
 31
0.0
  0
LINE
  5
7896
  8
AM_0
 10
176.06526568552539
 20
464.43982907795549
 30
0.0
 11
176.08512575163971
 21
464.51394684469233
 31
0.0
  0
ARC
  5
7897
  8
AM_0
 10
176.1618581800646
 20
464.4139468446923
 30
0.0
 40
0.1000000000000346
 50
90.0
 51
164.99980499355539
  0
ARC
  5
7898
  8
AM_0
 10
174.43549002506771
 20
464.3271138641843
 30
0.0
 40
0.3000000000000043
 50
0.0
 51
90.0
  0
LINE
  5
7899
  8
AM_0
 10
173.23549002506761
 20
462.21394684469232
 30
0.0
 11
174.45544572822459
 21
462.29527722490337
 31
0.0
  0
LINE
  5
789A
  8
AM_0
 10
173.23549002506761
 20
463.37019888053243
 30
0.0
 11
174.43549002506759
 21
463.37019888053243
 31
0.0
  0
LINE
  5
789B
  8
AM_0
 10
174.73549002506769
 20
462.61394684469252
 30
0.0
 11
173.23549002506761
 21
462.61394684469252
 31
0.0
  0
ARC
  5
789C
  8
AM_0
 10
174.73549002506769
 20
463.11394684469241
 30
0.0
 40
0.5
 50
270.0
 51
0.0
  0
LINE
  5
789D
  8
AM_0
 10
174.73549002506769
 20
462.59461277226029
 30
0.0
 11
174.73549002506769
 21
462.61394684469252
 31
0.0
  0
LINE
  5
789E
  8
AM_0
 10
174.73549002506769
 20
462.3139468446924
 30
0.0
 11
174.73549002506769
 21
462.59461277226029
 31
0.0
  0
LINE
  5
789F
  8
AM_0
 10
174.45544572822459
 20
462.29527722490337
 30
0.0
 11
174.73549002506769
 21
462.3139468446924
 31
0.0
  0
ARC
  5
78A0
  8
AM_0
 10
174.43549002506771
 20
462.59461277226029
 30
0.0
 40
0.3000000000000007
 50
273.81407483428171
 51
0.0
  0
LINE
  5
78A1
  8
AM_0
 10
175.80742869298859
 20
463.76394684469233
 30
0.0
 11
175.88416112141451
 21
463.76394684469233
 31
0.0
  0
LINE
  5
78A2
  8
AM_0
 10
175.88416112141451
 20
463.76394684469233
 30
0.0
 11
175.90402118752749
 21
463.83806461142882
 31
0.0
  0
LINE
  5
78A3
  8
AM_0
 10
175.31526568552539
 20
463.83806461142882
 30
0.0
 11
175.33512575163959
 21
463.76394684469233
 31
0.0
  0
LINE
  5
78A4
  8
AM_0
 10
175.33512575163959
 20
463.76394684469233
 30
0.0
 11
175.41185818006451
 21
463.76394684469233
 31
0.0
  0
LINE
  5
78A5
  8
AM_0
 10
175.90402118752749
 20
463.83806461142882
 30
0.0
 11
176.06526568552539
 21
464.43982907795549
 31
0.0
  0
LINE
  5
78A6
  8
AM_0
 10
175.41185818006451
 20
463.76394684469233
 30
0.0
 11
175.80742869298859
 21
463.76394684469233
 31
0.0
  0
LINE
  5
78A7
  8
AM_0
 10
175.2354900250686
 20
464.13578737625318
 30
0.0
 11
175.31526568552539
 21
463.83806461142882
 31
0.0
  0
ARC
  5
78A8
  8
AM_0
 10
175.80742869298859
 20
463.86394684469241
 30
0.0
 40
0.0999999999999866
 50
270.0
 51
344.99980499343371
  0
ARC
  5
78A9
  8
AM_0
 10
175.41185818006451
 20
463.86394684469241
 30
0.0
 40
0.1000000000000014
 50
195.00019500656629
 51
270.0
  0
LINE
  5
78AA
  8
AM_0
 10
174.73549002506769
 20
463.67019888053233
 30
0.0
 11
174.73549002506769
 21
464.3271138641843
 31
0.0
  0
ARC
  5
78AB
  8
AM_0
 10
174.43549002506771
 20
463.67019888053261
 30
0.0
 40
0.3000000000000007
 50
270.0
 51
0.0
  0
LINE
  5
78AC
  8
AM_0
 10
173.23549002506761
 20
467.16877609240021
 30
0.0
 11
174.43549002506759
 21
467.16877609240021
 31
0.0
  0
LINE
  5
78AD
  8
AM_0
 10
174.43549002506759
 20
464.62711386418431
 30
0.0
 11
173.23549002506761
 21
464.62711386418431
 31
0.0
  0
LINE
  5
78AE
  8
AM_0
 10
176.08512575163971
 20
464.51394684469233
 30
0.0
 11
176.1618581800646
 21
464.51394684469233
 31
0.0
  0
ARC
  5
78AF
  8
AM_0
 10
174.43549002506771
 20
467.4687760924005
 30
0.0
 40
0.3000000000000007
 50
270.0
 51
0.0
  0
LINE
  5
78B0
  8
AM_0
 10
174.43549002506759
 20
468.94101927883338
 30
0.0
 11
173.23549002506761
 21
468.94101927883338
 31
0.0
  0
ARC
  5
78B1
  8
AM_0
 10
174.43549002506771
 20
468.64101927883348
 30
0.0
 40
0.3000000000000043
 50
0.0
 51
90.0
  0
LINE
  5
78B2
  8
AM_0
 10
174.43549002506759
 20
472.61394684469121
 30
0.0
 11
173.23549002506761
 21
472.61394684469121
 31
0.0
  0
ARC
  5
78B3
  8
AM_0
 10
174.43549002506771
 20
472.91394684469151
 30
0.0
 40
0.3000000000000007
 50
270.0
 51
0.0
  0
LINE
  5
78B4
  8
AM_0
 10
164.23549002506769
 20
463.48066701604517
 30
0.0
 11
170.73549002506769
 21
463.48066701604517
 31
0.0
  0
LINE
  5
78B5
  8
AM_0
 10
164.23549002506769
 20
462.98066701604517
 30
0.0
 11
170.73549002506769
 21
462.98066701604517
 31
0.0
  0
LINE
  5
78B6
  8
AM_0
 10
170.73549002506769
 20
473.11394684469241
 30
0.0
 11
164.23549002506769
 21
473.11394684469241
 31
0.0
  0
LINE
  5
78B7
  8
AM_0
 10
163.73549002506769
 20
472.61394684469229
 30
0.0
 11
170.73549002506769
 21
472.61394684469229
 31
0.0
  0
LINE
  5
78B8
  8
AM_0
 10
170.43549002506751
 20
462.61394684469252
 30
0.0
 11
163.59753996024961
 21
462.61394684469252
 31
0.0
  0
LINE
  5
78B9
  8
AM_0
 10
170.73549002506769
 20
472.26725877615121
 30
0.0
 11
164.23549002506769
 21
472.26725877615121
 31
0.0
  0
LINE
  5
78BA
  8
AM_0
 10
170.73549002506769
 20
463.96063491323332
 30
0.0
 11
164.23549002506769
 21
463.96063491323332
 31
0.0
  0
ARC
  5
78BB
  8
AM_0
 10
171.0354900250677
 20
461.9139468446923
 30
0.0
 40
0.2999999999999971
 50
180.0
 51
270.0
  0
ARC
  5
78BC
  8
AM_0
 10
170.43549002506771
 20
462.3139468446924
 30
0.0
 40
0.2999999999999971
 50
0.0
 51
90.0
  0
ARC
  5
78BD
  8
AM_0
 10
172.36049002506761
 20
468.11394684469229
 30
0.0
 40
9.124999999999984
 50
152.92493329271929
 51
207.07506670728071
  0
LINE
  5
78BE
  8
AM_0
 10
162.9573555605852
 20
462.84572556509488
 30
0.0
 11
160.5953056254032
 21
464.81410051107991
 31
0.0
  0
LINE
  5
78BF
  8
AM_0
 10
163.73549002506769
 20
463.1923794282003
 30
0.0
 11
164.23549002506769
 21
462.61394684469252
 31
0.0
  0
ARC
  5
78C0
  8
AM_0
 10
163.59753996024961
 20
463.61394684469229
 30
0.0
 40
1.0
 50
230.19442890774391
 51
270.0
  0
LINE
  5
78C1
  8
AM_0
 10
164.23549002506769
 20
462.98066701604517
 30
0.0
 11
163.73549002506769
 21
463.1923794282003
 31
0.0
  0
LINE
  5
78C2
  8
AM_0
 10
163.73549002506769
 20
463.65465470117152
 30
0.0
 11
164.23549002506769
 21
462.98066701604517
 31
0.0
  0
LINE
  5
78C3
  8
AM_0
 10
164.23549002506769
 20
463.48066701604517
 30
0.0
 11
163.73549002506769
 21
463.65465470117152
 31
0.0
  0
LINE
  5
78C4
  8
AM_0
 10
163.73549002506769
 20
464.1923794282003
 30
0.0
 11
164.23549002506769
 21
463.48066701604517
 31
0.0
  0
LINE
  5
78C5
  8
AM_0
 10
164.23549002506769
 20
463.96063491323332
 30
0.0
 11
163.73549002506769
 21
464.1923794282003
 31
0.0
  0
ARC
  5
78C6
  8
AM_0
 10
161.23549002506769
 20
465.5823217906775
 30
0.0
 40
1.0000000000000291
 50
180.0
 51
230.19442890773479
  0
LINE
  5
78C7
  8
AM_0
 10
164.23549002506769
 20
473.11394684469241
 30
0.0
 11
163.73549002506769
 21
473.61394684469241
 31
0.0
  0
LINE
  5
78C8
  8
AM_0
 10
163.73549002506769
 20
472.61394684469229
 30
0.0
 11
164.23549002506769
 21
473.11394684469241
 31
0.0
  0
LINE
  5
78C9
  8
AM_0
 10
164.23549002506769
 20
472.26725877615121
 30
0.0
 11
163.73549002506769
 21
472.61394684469229
 31
0.0
  0
LINE
  5
78CA
  8
AM_0
 10
171.0354900250677
 20
485.61394684469241
 30
0.0
 11
173.23549002506761
 21
485.61394684469241
 31
0.0
  0
ARC
  5
78CB
  8
AM_0
 10
185.1341611214136
 20
486.11394684469241
 30
0.0
 40
0.5
 50
269.99999999998693
 51
0.0
  0
LINE
  5
78CC
  8
AM_0
 10
180.1341611214136
 20
482.7139468446922
 30
0.0
 11
176.91185818006451
 21
482.7139468446922
 31
0.0
  0
LINE
  5
78CD
  8
AM_0
 10
185.6341611214136
 20
474.75787552328552
 30
0.0
 11
185.6341611214136
 21
484.47001816610037
 31
0.0
  0
LINE
  5
78CE
  8
AM_0
 10
180.6341611214136
 20
474.25787552328541
 30
0.0
 11
185.1341611214136
 21
474.25787552328541
 31
0.0
  0
ARC
  5
78CF
  8
AM_0
 10
185.1341611214136
 20
474.75787552328552
 30
0.0
 40
0.5
 50
270.0
 51
0.0
  0
LINE
  5
78D0
  8
AM_0
 10
180.6341611214136
 20
484.97001816610037
 30
0.0
 11
185.1341611214136
 21
484.97001816610037
 31
0.0
  0
LINE
  5
78D1
  8
AM_0
 10
185.1341611214136
 20
485.61394684469241
 30
0.0
 11
181.1341611214136
 21
485.61394684469241
 31
0.0
  0
ARC
  5
78D2
  8
AM_0
 10
185.1341611214136
 20
484.47001816610037
 30
0.0
 40
0.5
 50
0.0
 51
90.0
  0
ARC
  5
78D3
  8
AM_0
 10
180.1341611214136
 20
483.21394684469232
 30
0.0
 40
0.5
 50
270.0
 51
0.0
  0
ARC
  5
78D4
  8
AM_0
 10
181.1341611214136
 20
485.11394684469229
 30
0.0
 40
0.5
 50
90.0
 51
180.0
  0
ARC
  5
78D5
  8
AM_0
 10
174.43549002506771
 20
479.75911759698442
 30
0.0
 40
0.3000000000000114
 50
0.0
 51
90.0
  0
LINE
  5
78D6
  8
AM_0
 10
173.23549002506761
 20
474.61394684469423
 30
0.0
 11
174.43549002506759
 21
474.61394684469423
 31
0.0
  0
ARC
  5
78D7
  8
AM_0
 10
174.43549002506771
 20
474.3139468446945
 30
0.0
 40
0.2999999999999971
 50
0.0
 51
90.0
  0
LINE
  5
78D8
  8
AM_0
 10
173.23549002506761
 20
478.28687441055109
 30
0.0
 11
174.43549002506759
 21
478.28687441055109
 31
0.0
  0
ARC
  5
78D9
  8
AM_0
 10
174.43549002506771
 20
478.58687441055127
 30
0.0
 40
0.3000000000000007
 50
270.0
 51
0.0
  0
LINE
  5
78DA
  8
AM_0
 10
174.73549002506769
 20
478.58687441055127
 30
0.0
 11
174.73549002506769
 21
479.75911759698442
 31
0.0
  0
LINE
  5
78DB
  8
AM_0
 10
176.1618581800646
 20
483.46394684469237
 30
0.0
 11
176.55742869298859
 21
483.46394684469237
 31
0.0
  0
LINE
  5
78DC
  8
AM_0
 10
176.1618581800646
 20
483.46394684469237
 30
0.0
 11
176.55742869298859
 21
483.46394684469237
 31
0.0
  0
LINE
  5
78DD
  8
AM_0
 10
176.65402118752749
 20
483.38982907795588
 30
0.0
 11
176.81526568552539
 21
482.78806461142869
 31
0.0
  0
LINE
  5
78DE
  8
AM_0
 10
176.65402118752749
 20
483.38982907795588
 30
0.0
 11
176.81526568552539
 21
482.78806461142869
 31
0.0
  0
ARC
  5
78DF
  8
AM_0
 10
176.91185818006451
 20
482.8139468446924
 30
0.0
 40
0.0999999999999943
 50
195.00019500651879
 51
270.0
  0
ARC
  5
78E0
  8
AM_0
 10
176.55742869298859
 20
483.36394684469241
 30
0.0
 40
0.0999999999999943
 50
15.000195006505431
 51
90.0
  0
LINE
  5
78E1
  8
AM_0
 10
175.23464343652651
 20
483.08894684469249
 30
0.0
 11
175.31526568552539
 21
482.78806461142869
 31
0.0
  0
LINE
  5
78E2
  8
AM_0
 10
175.8868717736195
 20
482.75321137779042
 30
0.0
 11
176.06526568552539
 21
483.38982907795588
 31
0.0
  0
LINE
  5
78E3
  8
AM_0
 10
175.90402118752749
 20
482.78806461142869
 30
0.0
 11
176.06526568552539
 21
483.38982907795588
 31
0.0
  0
LINE
  5
78E4
  8
AM_0
 10
174.73549002506769
 20
482.90077982520143
 30
0.0
 11
174.73549002506769
 21
483.5576948088522
 31
0.0
  0
LINE
  5
78E5
  8
AM_0
 10
175.23549002506761
 20
483.08578737625442
 30
0.0
 11
175.31526568552539
 21
482.78806461142869
 31
0.0
  0
LINE
  5
78E6
  8
AM_0
 10
173.23549002506761
 20
482.60077982520141
 30
0.0
 11
174.43549002506759
 21
482.60077982520141
 31
0.0
  0
LINE
  5
78E7
  8
AM_0
 10
174.43549002506759
 20
480.05911759698421
 30
0.0
 11
173.23549002506761
 21
480.05911759698512
 31
0.0
  0
LINE
  5
78E8
  8
AM_0
 10
175.8400609585037
 20
482.7139468446922
 30
0.0
 11
175.8868717736195
 21
482.75321137779042
 31
0.0
  0
LINE
  5
78E9
  8
AM_0
 10
175.41185818006451
 20
482.7139468446922
 30
0.0
 11
175.8400609585037
 21
482.7139468446922
 31
0.0
  0
LINE
  5
78EA
  8
AM_0
 10
175.41185818006451
 20
482.7139468446922
 30
0.0
 11
175.80742869298859
 21
482.7139468446922
 31
0.0
  0
ARC
  5
78EB
  8
AM_0
 10
175.41185818006451
 20
482.8139468446924
 30
0.0
 40
0.0999999999999943
 50
195.00019500651879
 51
270.0
  0
ARC
  5
78EC
  8
AM_0
 10
175.80742869298859
 20
482.8139468446924
 30
0.0
 40
0.0999999999999608
 50
270.0
 51
344.99980499348112
  0
ARC
  5
78ED
  8
AM_0
 10
174.43549002506771
 20
482.90077982520143
 30
0.0
 40
0.3000000000000007
 50
270.0
 51
0.0
  0
LINE
  5
78EE
  8
AM_0
 10
173.23549002506761
 20
484.61394684469229
 30
0.0
 11
174.73549002506769
 21
484.61394684469229
 31
0.0
  0
LINE
  5
78EF
  8
AM_0
 10
174.43549002506759
 20
483.85769480885222
 30
0.0
 11
173.23549002506761
 21
483.85769480885222
 31
0.0
  0
LINE
  5
78F0
  8
AM_0
 10
174.45544572822459
 20
484.93261646448229
 30
0.0
 11
173.23549002506761
 21
485.01394684469233
 31
0.0
  0
ARC
  5
78F1
  8
AM_0
 10
174.73549002506769
 20
484.11394684469229
 30
0.0
 40
0.5
 50
0.0
 51
90.0
  0
ARC
  5
78F2
  8
AM_0
 10
176.1618581800646
 20
483.36394684469241
 30
0.0
 40
0.0999999999999606
 50
90.0
 51
164.99980499349451
  0
ARC
  5
78F3
  8
AM_0
 10
174.43549002506771
 20
483.5576948088522
 30
0.0
 40
0.2999999999999971
 50
0.0
 51
90.0
  0
LINE
  5
78F4
  8
AM_0
 10
174.73549002506769
 20
484.61394684469229
 30
0.0
 11
174.73549002506769
 21
484.63328091712521
 31
0.0
  0
ARC
  5
78F5
  8
AM_0
 10
174.43549002506771
 20
484.63328091712521
 30
0.0
 40
0.3000000000000043
 50
0.0
 51
86.185925165718274
  0
ARC
  5
78F6
  8
AM_0
 10
186.1341611214136
 20
486.61394684469241
 30
0.0
 40
0.5
 50
90.0
 51
180.0
  0
LINE
  5
78F7
  8
AM_0
 10
185.6341611214136
 20
486.61394684469241
 30
0.0
 11
185.6341611214136
 21
486.11394684469241
 31
0.0
  0
LINE
  5
78F8
  8
AM_0
 10
164.23549002506769
 20
483.2672587761511
 30
0.0
 11
170.73549002506769
 21
483.2672587761511
 31
0.0
  0
LINE
  5
78F9
  8
AM_0
 10
164.23549002506769
 20
474.96063491323332
 30
0.0
 11
170.73549002506769
 21
474.96063491323332
 31
0.0
  0
LINE
  5
78FA
  8
AM_0
 10
163.59753996024961
 20
484.61394684469229
 30
0.0
 11
170.43549002506751
 21
484.61394684469229
 31
0.0
  0
LINE
  5
78FB
  8
AM_0
 10
170.73549002506769
 20
474.61394684469252
 30
0.0
 11
163.73549002506769
 21
474.61394684469252
 31
0.0
  0
LINE
  5
78FC
  8
AM_0
 10
164.23549002506769
 20
474.11394684469241
 30
0.0
 11
170.73549002506769
 21
474.11394684469241
 31
0.0
  0
LINE
  5
78FD
  8
AM_0
 10
170.73549002506769
 20
484.24722667334021
 30
0.0
 11
164.23549002506769
 21
484.24722667334021
 31
0.0
  0
LINE
  5
78FE
  8
AM_0
 10
170.73549002506769
 20
483.74722667334021
 30
0.0
 11
164.23549002506769
 21
483.74722667334021
 31
0.0
  0
ARC
  5
78FF
  8
AM_0
 10
170.43549002506771
 20
484.91394684469242
 30
0.0
 40
0.3000000000000043
 50
270.0
 51
0.0
  0
ARC
  5
7900
  8
AM_0
 10
171.0354900250677
 20
485.31394684469251
 30
0.0
 40
0.2999999999999971
 50
90.0
 51
180.0
  0
ARC
  5
7901
  8
AM_0
 10
172.36049002506761
 20
479.11394684469252
 30
0.0
 40
9.124999999999984
 50
152.92493329271929
 51
207.07506670728071
  0
LINE
  5
7902
  8
AM_0
 10
163.73549002506769
 20
474.61394684469252
 30
0.0
 11
164.23549002506769
 21
474.96063491323332
 31
0.0
  0
LINE
  5
7903
  8
AM_0
 10
164.23549002506769
 20
474.11394684469241
 30
0.0
 11
163.73549002506769
 21
474.61394684469252
 31
0.0
  0
LINE
  5
7904
  8
AM_0
 10
160.5953056254032
 20
482.41379317830558
 30
0.0
 11
162.9573555605852
 21
484.38216812428971
 31
0.0
  0
LINE
  5
7905
  8
AM_0
 10
164.23549002506769
 20
484.61394684469229
 30
0.0
 11
163.73549002506769
 21
484.03551426118543
 31
0.0
  0
ARC
  5
7906
  8
AM_0
 10
163.59753996024961
 20
483.61394684469241
 30
0.0
 40
1.0000000000000411
 50
90.0
 51
129.805571092256
  0
LINE
  5
7907
  8
AM_0
 10
163.73549002506769
 20
483.03551426118543
 30
0.0
 11
164.23549002506769
 21
483.2672587761511
 31
0.0
  0
LINE
  5
7908
  8
AM_0
 10
164.23549002506769
 20
483.74722667334021
 30
0.0
 11
163.73549002506769
 21
483.03551426118543
 31
0.0
  0
LINE
  5
7909
  8
AM_0
 10
163.73549002506769
 20
483.57323898821329
 30
0.0
 11
164.23549002506769
 21
483.74722667334021
 31
0.0
  0
LINE
  5
790A
  8
AM_0
 10
164.23549002506769
 20
484.24722667334021
 30
0.0
 11
163.73549002506769
 21
483.57323898821329
 31
0.0
  0
LINE
  5
790B
  8
AM_0
 10
163.73549002506769
 20
484.03551426118543
 30
0.0
 11
164.23549002506769
 21
484.24722667334021
 31
0.0
  0
ARC
  5
790C
  8
AM_0
 10
161.23549002506769
 20
481.64557189870823
 30
0.0
 40
1.0
 50
129.80557109226521
 51
180.0
  0
LINE
  5
790D
  8
AM_0
 10
285.63416112141368
 20
450.61394684469241
 30
0.0
 11
264.81965622188147
 21
450.61394684469241
 31
0.0
  0
LINE
  5
790E
  8
AM_0
 10
210.44866602094609
 20
450.61394684469241
 30
0.0
 11
189.63416112141431
 21
450.61394684469241
 31
0.0
  0
LINE
  5
790F
  8
AM_0
 10
279.49837945225272
 20
446.61394684469241
 30
0.0
 11
195.7699427905745
 21
446.61394684469241
 31
0.0
  0
LINE
  5
7910
  8
AM_0
 10
198.5415160937207
 20
448.55500933256479
 30
0.0
 11
198.63416112141431
 21
449.61394684469252
 31
0.0
  0
LINE
  5
7911
  8
AM_0
 10
190.72680614910769
 20
448.55500933256479
 30
0.0
 11
190.63416112141431
 21
449.61394684469252
 31
0.0
  0
ARC
  5
7912
  8
AM_0
 10
194.63416112141431
 20
453.01394684469273
 30
0.0
 40
6.5
 50
241.82726586813479
 51
298.17273413186518
  0
ARC
  5
7913
  8
AM_0
 10
192.32071766605461
 20
448.69445852096112
 30
0.0
 40
1.6000000000000001
 50
184.99999999999969
 51
241.82726586813479
  0
LINE
  5
7914
  8
AM_0
 10
196.93416112141421
 20
446.93447318326417
 30
0.0
 11
194.63416112141431
 21
449.2240328620598
 31
0.0
  0
LINE
  5
7915
  8
AM_0
 10
194.9456611214143
 20
448.91394684469248
 30
0.0
 11
194.32266112141431
 21
448.91394684469248
 31
0.0
  0
LINE
  5
7916
  8
AM_0
 10
192.3341611214143
 20
446.93447318326417
 30
0.0
 11
194.63416112141431
 21
449.2240328620598
 31
0.0
  0
LINE
  5
7917
  8
AM_0
 10
194.9456611214143
 20
446.5214151543579
 30
0.0
 11
194.9456611214143
 21
448.91394684469248
 31
0.0
  0
LINE
  5
7918
  8
AM_0
 10
194.32266112141431
 20
446.5214151543579
 30
0.0
 11
194.32266112141431
 21
448.91394684469248
 31
0.0
  0
ARC
  5
7919
  8
AM_0
 10
196.94760457677401
 20
448.69445852096112
 30
0.0
 40
1.6000000000000001
 50
298.17273413186518
 51
355.00000000000023
  0
LINE
  5
791A
  8
AM_0
 10
285.6341611214138
 20
450.61394684469241
 30
0.0
 11
285.6341611214138
 21
454.61394684469241
 31
0.0
  0
LINE
  5
791B
  8
AM_0
 10
189.6341611214134
 20
454.61394684469241
 30
0.0
 11
189.63416112141439
 21
450.61394684469241
 31
0.0
  0
LINE
  5
791C
  8
AM_0N
 10
198.43416112141421
 20
450.61394684469241
 30
0.0
 11
198.43416112141421
 21
449.61394684469252
 31
0.0
  0
LINE
  5
791D
  8
AM_0N
 10
194.8341611214143
 20
449.61394684469252
 30
0.0
 11
195.19813135568049
 21
450.61394684469241
 31
0.0
  0
LINE
  5
791E
  8
AM_0N
 10
194.43416112141421
 20
449.61394684469252
 30
0.0
 11
194.7981313556804
 21
450.61394684469241
 31
0.0
  0
LINE
  5
791F
  8
AM_0N
 10
190.63416112141431
 20
449.61394684469252
 30
0.0
 11
198.63416112141431
 21
449.61394684469252
 31
0.0
  0
LINE
  5
7920
  8
AM_0N
 10
190.8341611214143
 20
449.61394684469252
 30
0.0
 11
190.8341611214143
 21
450.61394684469241
 31
0.0
  0
LINE
  5
7921
  8
AM_0
 10
210.44866602094589
 20
446.61394684469241
 30
0.0
 11
210.44866602094589
 21
450.61394684469241
 31
0.0
  0
LINE
  5
7922
  8
AM_0
 10
208.7918117714535
 20
450.61394684469241
 30
0.0
 11
210.44866602094589
 21
446.61394684469241
 31
0.0
  0
LINE
  5
7923
  8
AM_0
 10
264.81965622188147
 20
446.61394684469241
 30
0.0
 11
264.81965622188147
 21
450.61394684469241
 31
0.0
  0
LINE
  5
7924
  8
AM_0
 10
266.4765104713739
 20
450.61394684469241
 30
0.0
 11
264.81965622188147
 21
446.61394684469241
 31
0.0
  0
LINE
  5
7925
  8
AM_0
 10
204.1341611214136
 20
495.61394684469252
 30
0.0
 11
271.13416112141368
 21
495.61394684469252
 31
0.0
  0
LINE
  5
7926
  8
AM_0
 10
204.1341611214136
 20
495.61394684469252
 30
0.0
 11
204.1341611214136
 21
493.61394684469269
 31
0.0
  0
LINE
  5
7927
  8
AM_0
 10
271.13416112141368
 20
495.61394684469252
 30
0.0
 11
271.13416112141368
 21
493.61394684469269
 31
0.0
  0
LINE
  5
7928
  8
ﾁｭｳｼﾝｾﾝ1
 10
280.63416112141311
 20
444.34923934469271
 30
0.0
 11
280.63416112141311
 21
457.34923934469271
 31
0.0
  0
LINE
  5
7929
  8
AM_0
 10
276.72680614910661
 20
448.55500933256479
 30
0.0
 11
276.63416112141317
 21
449.61394684469252
 31
0.0
  0
LINE
  5
792A
  8
AM_0
 10
284.54151609371968
 20
448.55500933256479
 30
0.0
 11
284.63416112141311
 21
449.61394684469252
 31
0.0
  0
ARC
  5
792B
  8
AM_0
 10
280.63416112141329
 20
453.0139468446925
 30
0.0
 40
6.5
 50
241.82726586813479
 51
298.17273413186518
  0
ARC
  5
792C
  8
AM_0
 10
282.94760457677302
 20
448.69445852096078
 30
0.0
 40
1.6000000000000001
 50
298.17273413186518
 51
355.00000000000023
  0
LINE
  5
792D
  8
AM_0
 10
278.33416112141322
 20
446.93447318326417
 30
0.0
 11
280.63416112141317
 21
449.2240328620598
 31
0.0
  0
LINE
  5
792E
  8
AM_0
 10
280.3226611214132
 20
448.91394684469248
 30
0.0
 11
280.9456611214132
 21
448.91394684469248
 31
0.0
  0
LINE
  5
792F
  8
AM_0
 10
282.93416112141318
 20
446.93447318326417
 30
0.0
 11
280.63416112141317
 21
449.2240328620598
 31
0.0
  0
LINE
  5
7930
  8
AM_0
 10
280.3226611214132
 20
446.5214151543579
 30
0.0
 11
280.3226611214132
 21
448.91394684469248
 31
0.0
  0
LINE
  5
7931
  8
AM_0
 10
280.9456611214132
 20
446.5214151543579
 30
0.0
 11
280.9456611214132
 21
448.91394684469248
 31
0.0
  0
ARC
  5
7932
  8
AM_0
 10
278.3207176660535
 20
448.69445852096078
 30
0.0
 40
1.6000000000000001
 50
184.99999999999969
 51
241.82726586813479
  0
LINE
  5
7933
  8
AM_0N
 10
276.8341611214131
 20
450.61394684469241
 30
0.0
 11
276.8341611214131
 21
449.61394684469252
 31
0.0
  0
LINE
  5
7934
  8
AM_0N
 10
280.43416112141313
 20
449.61394684469252
 30
0.0
 11
280.07019088714702
 21
450.61394684469241
 31
0.0
  0
LINE
  5
7935
  8
AM_0N
 10
280.8341611214131
 20
449.61394684469252
 30
0.0
 11
280.47019088714688
 21
450.61394684469241
 31
0.0
  0
LINE
  5
7936
  8
AM_0N
 10
284.63416112141317
 20
449.61394684469252
 30
0.0
 11
276.63416112141317
 21
449.61394684469252
 31
0.0
  0
LINE
  5
7937
  8
AM_0N
 10
284.43416112141318
 20
449.61394684469252
 30
0.0
 11
284.43416112141318
 21
450.61394684469241
 31
0.0
  0
LINE
  5
7938
  8
AM_0
 10
188.6341611214136
 20
457.61394684469241
 30
0.0
 11
188.6341611214136
 21
489.61394684469241
 31
0.0
  0
ARC
  5
7939
  8
AM_0
 10
161.2073214903555
 20
526.6139468446928
 30
0.0
 40
56.0
 50
209.07393874564249
 51
269.00563148839018
1001
GENIUS_GENOBJ-N-FIL_13
1002
{
1000
OWNER
1000
GEN
1002
}
1001
GENIUS_GENODEF_13
1002
{
1000
HIER
1070
     0
1002
}
1002
{
1000
MANEDIT
1070
     0
1002
}
1002
{
1000
NOSEL
1070
     0
1002
}
1002
{
1000
BEHIND
1070
     0
1002
}
1002
{
1000
OTHER
1070
     0
1002
}
1002
{
1000
REACTOR
1002
}
  0
ARC
  5
793A
  8
AM_0
 10
161.20732149035541
 20
526.6139468446928
 30
0.0
 40
50.0
 50
209.07393874564249
 51
268.88629304213589
1001
GENIUS_GENOBJ-N-FIL_13
1002
{
1000
OWNER
1000
GEN
1002
}
1001
GENIUS_GENODEF_13
1002
{
1000
HIER
1070
     0
1002
}
1002
{
1000
MANEDIT
1070
     0
1002
}
1002
{
1000
NOSEL
1070
     0
1002
}
1002
{
1000
BEHIND
1070
     0
1002
}
1002
{
1000
OTHER
1070
     0
1002
}
1002
{
1000
REACTOR
1002
}
  0
TEXT
  5
7BD3
  8
AM_0
 10
541.69582169934574
 20
590.06581442215497
 30
0.0
 40
10.0
  1
VX04-060BW~VX04-100BW
  0
ENDSEC
  0
EOF
