  0
SECTION
  2
HEADER
  9
$ACADVER
  1
AC1009
  9
$INSBASE
 10
0.0
 20
0.0
 30
0.0
  9
$EXTMIN
 10
197.99439461272479
 20
197.17506560866599
 30
-0.0000000000000053
  9
$EXTMAX
 10
660.32425865929588
 20
549.5970166667795
 30
0.0000000000000099
  9
$LIMMIN
 10
0.0
 20
0.0
  9
$LIMMAX
 10
853.5
 20
555.00000000000011
  9
$ORTHOMODE
 70
     0
  9
$REGENMODE
 70
     1
  9
$FILLMODE
 70
     1
  9
$QTEXTMODE
 70
     0
  9
$MIRRTEXT
 70
     1
  9
$DRAGMODE
 70
     2
  9
$LTSCALE
 40
3.0
  9
$OSMODE
 70
   551
  9
$ATTMODE
 70
     1
  9
$TEXTSIZE
 40
2.5
  9
$TRACEWID
 40
1.0
  9
$TEXTSTYLE
  7
STANDARD
  9
$CLAYER
  8
AM_0
  9
$CELTYPE
  6
BYLAYER
  9
$CECOLOR
 62
   256
  9
$DIMSCALE
 40
1.0
  9
$DIMASZ
 40
0.1
  9
$DIMEXO
 40
0.05
  9
$DIMDLI
 40
0.5
  9
$DIMRND
 40
0.0
  9
$DIMDLE
 40
0.0
  9
$DIMEXE
 40
0.1
  9
$DIMTP
 40
0.1
  9
$DIMTM
 40
0.1
  9
$DIMTXT
 40
0.12
  9
$DIMCEN
 40
0.0
  9
$DIMTSZ
 40
0.0
  9
$DIMTOL
 70
     0
  9
$DIMLIM
 70
     0
  9
$DIMTIH
 70
     1
  9
$DIMTOH
 70
     1
  9
$DIMSE1
 70
     0
  9
$DIMSE2
 70
     0
  9
$DIMTAD
 70
     0
  9
$DIMZIN
 70
     8
  9
$DIMBLK
  1

  9
$DIMASO
 70
     1
  9
$DIMSHO
 70
     1
  9
$DIMPOST
  1

  9
$DIMAPOST
  1
mm
  9
$DIMALT
 70
     0
  9
$DIMALTD
 70
     2
  9
$DIMALTF
 40
25.399999999999999
  9
$DIMLFAC
 40
1.0
  9
$DIMTOFL
 70
     0
  9
$DIMTVP
 40
0.0
  9
$DIMTIX
 70
     0
  9
$DIMSOXD
 70
     0
  9
$DIMSAH
 70
     0
  9
$DIMBLK1
  1

  9
$DIMBLK2
  1

  9
$DIMSTYLE
  2
AM_ANSI
  9
$DIMCLRD
 70
   256
  9
$DIMCLRE
 70
   256
  9
$DIMCLRT
 70
     2
  9
$DIMTFAC
 40
0.71
  9
$DIMGAP
 40
0.06
  9
$LUNITS
 70
     2
  9
$LUPREC
 70
     2
  9
$SKETCHINC
 40
1.0
  9
$FILLETRAD
 40
15.0
  9
$AUNITS
 70
     0
  9
$AUPREC
 70
     0
  9
$MENU
  1
.
  9
$ELEVATION
 40
0.0
  9
$PELEVATION
 40
0.0
  9
$THICKNESS
 40
0.0
  9
$LIMCHECK
 70
     0
  9
$BLIPMODE
 70
     0
  9
$CHAMFERA
 40
6.0
  9
$CHAMFERB
 40
3.0
  9
$SKPOLY
 70
     0
  9
$TDCREATE
 40
2452065.6056192131
  9
$TDUPDATE
 40
2458541.4060472688
  9
$TDINDWG
 40
0.1243217593
  9
$TDUSRTIMER
 40
0.1243213889
  9
$USRTIMER
 70
     1
  9
$ANGBASE
 50
0.0
  9
$ANGDIR
 70
     0
  9
$PDMODE
 70
     0
  9
$PDSIZE
 40
0.0
  9
$PLINEWID
 40
0.0
  9
$COORDS
 70
     1
  9
$SPLFRAME
 70
     0
  9
$SPLINETYPE
 70
     6
  9
$SPLINESEGS
 70
     8
  9
$ATTDIA
 70
     1
  9
$ATTREQ
 70
     1
  9
$HANDLING
 70
     1
  9
$HANDSEED
  5
3709
  9
$SURFTAB1
 70
     6
  9
$SURFTAB2
 70
     6
  9
$SURFTYPE
 70
     6
  9
$SURFU
 70
     6
  9
$SURFV
 70
     6
  9
$UCSNAME
  2

  9
$UCSORG
 10
0.0
 20
0.0
 30
0.0
  9
$UCSXDIR
 10
1.0
 20
0.0
 30
0.0
  9
$UCSYDIR
 10
0.0
 20
1.0
 30
0.0
  9
$PUCSNAME
  2

  9
$PUCSORG
 10
0.0
 20
0.0
 30
0.0
  9
$PUCSXDIR
 10
1.0
 20
0.0
 30
0.0
  9
$PUCSYDIR
 10
0.0
 20
1.0
 30
0.0
  9
$USERI1
 70
     0
  9
$USERI2
 70
     0
  9
$USERI3
 70
     0
  9
$USERI4
 70
     0
  9
$USERI5
 70
     0
  9
$USERR1
 40
0.0
  9
$USERR2
 40
0.0
  9
$USERR3
 40
0.0
  9
$USERR4
 40
0.0
  9
$USERR5
 40
0.0
  9
$WORLDVIEW
 70
     1
  9
$SHADEDGE
 70
     3
  9
$SHADEDIF
 70
    70
  9
$TILEMODE
 70
     1
  9
$MAXACTVP
 70
    64
  9
$PLIMCHECK
 70
     0
  9
$PEXTMIN
 10
1.0000000000000000E+020
 20
1.0000000000000000E+020
 30
1.0000000000000000E+020
  9
$PEXTMAX
 10
-1.0000000000000000E+020
 20
-1.0000000000000000E+020
 30
-1.0000000000000000E+020
  9
$PLIMMIN
 10
0.0
 20
0.0
  9
$PLIMMAX
 10
420.0
 20
297.0
  9
$UNITMODE
 70
     0
  9
$VISRETAIN
 70
     1
  9
$PLINEGEN
 70
     0
  9
$PSLTSCALE
 70
     1
  0
ENDSEC
  0
SECTION
  2
TABLES
  0
TABLE
  2
VPORT
 70
     1
  0
VPORT
  2
*ACTIVE
 70
     0
 10
0.0
 20
0.0
 11
1.0
 21
1.0
 12
429.15932663601041
 22
373.38604113772283
 13
0.0
 23
0.0
 14
7.5
 24
7.5
 15
30.0
 25
30.0
 16
0.0
 26
0.0
 36
1.0
 17
0.0
 27
0.0
 37
0.0
 40
354.84132371983969
 41
1.7571592210767459
 42
50.0
 43
0.0
 44
0.0
 50
0.0
 51
0.0
 71
     0
 72
   100
 73
     1
 74
     3
 75
     0
 76
     0
 77
     0
 78
     0
  0
ENDTAB
  0
TABLE
  2
LTYPE
 70
    26
  0
LTYPE
  2
CONTINUOUS
 70
     0
  3
Solid line
 72
    65
 73
     0
 40
0.0
  0
LTYPE
  2
AM_ISO02W050
 70
     0
  3
__ __ __ __ __ __ __ __ __ __ __ __ __ __ __
 72
    65
 73
     2
 40
7.5
 49
6.0
 49
-1.5
  0
LTYPE
  2
AM_ISO08W050
 70
     0
  3
____ . ____ . ____ . ____ . ____ . ____ . ____
 72
    65
 73
     4
 40
18.0
 49
12.0
 49
-1.5
 49
3.0
 49
-1.5
  0
LTYPE
  2
AM_ISO09W050
 70
     0
  3
_____ . . _____ . . _____ . . ____ .. ____
 72
    65
 73
     6
 40
22.5
 49
12.0
 49
-1.5
 49
3.0
 49
-1.5
 49
3.0
 49
-1.5
  0
LTYPE
  2
AMCONSTR
 70
     0
  3
_______________________
 72
    65
 73
     2
 40
9999.0
 49
9999.0
 49
0.0
  0
LTYPE
  2
AM_ISO08W050X2
 70
     0
  3
__ . __ . __ . __ . __ . __
 72
    65
 73
     4
 40
9.0
 49
6.0
 49
-0.75
 49
1.5
 49
-0.75
  0
LTYPE
  2
AM_ISO02W050X2
 70
     0
  3
 _ _ _ _ _ _ _ _ _ _ _ _
 72
    65
 73
     2
 40
3.75
 49
3.0
 49
-0.75
  0
LTYPE
  2
AMZIGZAG
 70
     0
  3
/\/-/\/-/\/-/\/-/\/-/\/
 72
    65
 73
     2
 40
11.000099999999991
 49
0.0001
 49
-11.0
  0
LTYPE
  2
ACISOWELD
 70
     0
  3
_ _ _ _ _
 72
    65
 73
     2
 40
2.0
 49
2.0
 49
-1.0
  0
LTYPE
  2
ACISOTGB
 70
     0
  3
__ . . __ . .
 72
    65
 73
     6
 40
9.0
 49
4.0
 49
-1.0
 49
1.0
 49
-1.0
 49
1.0
 49
-1.0
  0
LTYPE
  2
ACISOTGL
 70
     0
  3
_ _ _ _ _
 72
    65
 73
     2
 40
3.0
 49
2.0
 49
-1.0
  0
LTYPE
  2
CENTER
 70
     0
  3
__ . __
 72
    65
 73
     4
 40
7.0
 49
4.0
 49
-1.0
 49
1.0
 49
-1.0
  0
LTYPE
  2
PHANTOM2
 70
     0
  3
Phantom (.5x) ___ _ _ ___ _ _ ___ _ _ ___ _ _
 72
    65
 73
     6
 40
31.75
 49
15.875
 49
-3.174999999999998
 49
3.174999999999998
 49
-3.174999999999998
 49
3.174999999999998
 49
-3.174999999999998
  0
LTYPE
  2
ACANSTGBM
 70
     0
  3
__ . . __ . .
 72
    65
 73
     6
 40
9.0
 49
4.0
 49
-1.0
 49
1.0
 49
-1.0
 49
1.0
 49
-1.0
  0
LTYPE
  2
ACANSTGLM
 70
     0
  3
_ _ _ _ _
 72
    65
 73
     2
 40
3.0
 49
2.0
 49
-1.0
  0
LTYPE
  2
GEN3B
 70
     0
  3
 - - - - -
 72
    65
 73
     2
 40
1.0
 49
0.5
 49
-0.5
  0
LTYPE
  2
GEN7A
 70
     0
  3
__ . __ . __
 72
    65
 73
     4
 40
7.375
 49
4.75
 49
-0.875
 49
0.875
 49
-0.875
  0
LTYPE
  2
ACJISTGB
 70
     0
  3
__ . . __ . .
 72
    65
 73
     6
 40
9.0
 49
4.0
 49
-1.0
 49
1.0
 49
-1.0
 49
1.0
 49
-1.0
  0
LTYPE
  2
ACJISTGL
 70
     0
  3
_ _ _ _ _
 72
    65
 73
     2
 40
3.0
 49
2.0
 49
-1.0
  0
LTYPE
  2
HIDDEN
 70
     0
  3
Hidden __ __ __ __ __ __ __ __ __ __ __ __ __ _
 72
    65
 73
     2
 40
0.375
 49
0.25
 49
-0.125
  0
LTYPE
  2
CENTER2
 70
     0
  3
Center (.5x) ___ _ ___ _ ___ _ ___ _ ___ _ ___
 72
    65
 73
     4
 40
1.125
 49
0.75
 49
-0.125
 49
0.125
 49
-0.125
  0
LTYPE
  2
HIDDEN2
 70
     0
  3
Hidden (.5x) _ _ _ _ _ _ _ _ _ _ _ _ _ _ _ _ _
 72
    65
 73
     2
 40
0.1875
 49
0.125
 49
-0.0625
  0
LTYPE
  2
AMZIGZAG2
 70
     0
  3
/\/-/\/-/\/-/\/-/\/-/\/
 72
    65
 73
     2
 40
0.4401
 49
0.0001
 49
-0.4400000000000003
  0
LTYPE
  2
ACANSTGB
 70
     0
  3
__ . . __ . .
 72
    65
 73
     6
 40
0.35433070866
 49
0.15748031496
 49
-0.03937007874
 49
0.03937007874
 49
-0.03937007874
 49
0.03937007874
 49
-0.03937007874
  0
LTYPE
  2
ACANSTGL
 70
     0
  3
_ _ _ _ _
 72
    65
 73
     2
 40
0.11811023622
 49
0.07874015748
 49
-0.03937007874
  0
ENDTAB
  0
TABLE
  2
LAYER
 70
     7
  0
LAYER
  2
0
 70
     0
 62
     7
  6
CONTINUOUS
  0
LAYER
  2
AM_0
 70
     0
 62
     7
  6
CONTINUOUS
  0
LAYER
  2
DEFPOINTS
 70
     0
 62
     7
  6
CONTINUOUS
  0
LAYER
  2
ｶｸﾚｾﾝ2
 70
     0
 62
     3
  6
GEN3B
  0
LAYER
  2
ﾁｭｳｼﾝｾﾝ1
 70
     0
 62
     1
  6
GEN7A
  0
LAYER
  2
AM_4
 70
     0
 62
     2
  6
CONTINUOUS
  0
LAYER
  2
AM_5
 70
     0
 62
     3
  6
CONTINUOUS
  0
ENDTAB
  0
TABLE
  2
STYLE
 70
     9
  0
STYLE
  2
STANDARD
 70
     0
 40
0.0
 41
0.8299999999999999
 50
0.0
 71
     0
 42
2.5
  3
txt.shx
  4
bigfont.shx
  0
STYLE
  2
ANNOTATIVE
 70
     0
 40
0.0
 41
1.0
 50
0.0
 71
     0
 42
0.2
  3
txt
  4

  0
STYLE
  2

 70
     1
 40
0.0
 41
1.0
 50
0.0
 71
     0
 42
2.5
  3
ltypeshp.shx
  4

  0
STYLE
  2
ACISOTS
 70
     0
 40
1.0
 41
1.0
 50
0.0
 71
     0
 42
2.5
  3
isocp.shx
  4
extfont.shx
  0
STYLE
  2
ACISOGDT
 70
     0
 40
0.0
 41
1.0
 50
0.0
 71
     0
 42
2.5
  3
amgdt.shx
  4

  0
STYLE
  2
ACANSTS
 70
     0
 40
1.0
 41
1.0
 50
0.0
 71
     0
 42
2.5
  3
romans.shx
  4
bigfont.shx
  0
STYLE
  2
ACANSGDT
 70
     0
 40
0.0
 41
1.0
 50
0.0
 71
     0
 42
2.5
  3
amgdt.shx
  4

  0
STYLE
  2
ACJISTS
 70
     0
 40
1.0
 41
1.0
 50
0.0
 71
     0
 42
2.5
  3
isocp.shx
  4
bigfont.shx
  0
STYLE
  2
ACJISGDT
 70
     0
 40
0.0
 41
1.0
 50
0.0
 71
     0
 42
2.5
  3
amgdt.shx
  4

  0
ENDTAB
  0
TABLE
  2
VIEW
 70
     6
  0
VIEW
  2
AM_VIEW1
 70
     0
 40
277.49999999999989
 10
249.64779005524841
 20
416.24999999999989
 41
499.2955801104971
 11
0.0
 21
0.0
 31
1.0
 12
0.0
 22
0.0
 32
0.0
 42
50.0
 43
0.0
 44
0.0
 50
0.0
 71
     0
  0
VIEW
  2
AM_VIEW2
 70
     0
 40
277.49999999999989
 10
603.85220994475117
 20
416.24999999999989
 41
499.2955801104971
 11
0.0
 21
0.0
 31
1.0
 12
0.0
 22
0.0
 32
0.0
 42
50.0
 43
0.0
 44
0.0
 50
0.0
 71
     0
  0
VIEW
  2
AM_VIEW3
 70
     0
 40
277.49999999999989
 10
249.64779005524841
 20
138.7499999999998
 41
499.2955801104971
 11
0.0
 21
0.0
 31
1.0
 12
0.0
 22
0.0
 32
0.0
 42
50.0
 43
0.0
 44
0.0
 50
0.0
 71
     0
  0
VIEW
  2
AM_VIEW4
 70
     0
 40
277.49999999999989
 10
603.85220994475117
 20
138.7499999999998
 41
499.2955801104971
 11
0.0
 21
0.0
 31
1.0
 12
0.0
 22
0.0
 32
0.0
 42
50.0
 43
0.0
 44
0.0
 50
0.0
 71
     0
  0
VIEW
  2
AM_VIEW5
 70
     0
 40
277.49999999999989
 10
426.75
 20
277.49999999999989
 41
499.2955801104971
 11
0.0
 21
0.0
 31
1.0
 12
0.0
 22
0.0
 32
0.0
 42
50.0
 43
0.0
 44
0.0
 50
0.0
 71
     0
  0
VIEW
  2
AM_VIEW6
 70
     0
 40
554.99445000000014
 10
426.75
 20
277.49999999999989
 41
998.5811743093924
 11
0.0
 21
0.0
 31
1.0
 12
0.0
 22
0.0
 32
0.0
 42
50.0
 43
0.0
 44
0.0
 50
0.0
 71
     0
  0
ENDTAB
  0
TABLE
  2
UCS
 70
     0
  0
ENDTAB
  0
TABLE
  2
APPID
 70
    98
  0
APPID
  2
ACAD
 70
     0
  0
APPID
  2
ACADANNOTATIVE
 70
     0
  0
APPID
  2
MCAD_NO_VIS
 70
     0
  0
APPID
  2
ACAD_TEMP_GRAPHIC
 70
     0
  0
APPID
  2
ACATTRIBSERVICES
 70
     0
  0
APPID
  2
GENIUS_GENREC_14
 70
     0
  0
APPID
  2
GENIUS_GENOBJ-N-REC_13
 70
     0
  0
APPID
  2
GENIUS_GENODEF_13
 70
     0
  0
APPID
  2
GENIUS_GENOLIS_13
 70
     0
  0
APPID
  2
GENIUS_GENOBJ-N-TIT_13
 70
     0
  0
APPID
  2
GENIUS_GENOENT_13
 70
     0
  0
APPID
  2
GENIUS_GENTITLE_13
 70
     0
  0
APPID
  2
GENIUS_GENOREF_13
 70
     0
  0
APPID
  2
GENIUS_GENSCREG_15
 70
     0
  0
APPID
  2
GENIUS_GENOBJ-N-SDF_13
 70
     0
  0
APPID
  2
GENIUS_GENFIL_13
 70
     0
  0
APPID
  2
GENIUS_GENOBJ-N-CHA_13
 70
     0
  0
APPID
  2
GENIUS_GENDTOL_13
 70
     0
  0
APPID
  2
GENIUS_GENOBJ-N-FIL_13
 70
     0
  0
APPID
  2
AD_DRAW
 70
     0
  0
APPID
  2
DESIGNERASSEMBLIES
 70
     0
  0
APPID
  2
ASURF_PCURVE_APPNAME
 70
     0
  0
APPID
  2
GENIUS_GE3SECT_13
 70
     0
  0
APPID
  2
GENIUS_GENCFG_13
 70
     0
  0
APPID
  2
GENIUS_GE3CFG0_13
 70
     0
  0
APPID
  2
GENIUS_GENCFG0_13
 70
     0
  0
APPID
  2
GENIUS_GENCFG1_13
 70
     0
  0
APPID
  2
GENIUS_GENCFG2_13
 70
     0
  0
APPID
  2
GENIUS_GENCFG3_13
 70
     0
  0
APPID
  2
GENIUS_GENCFG4_13
 70
     0
  0
APPID
  2
GENIUS_GEVCFG0_13
 70
     0
  0
APPID
  2
GENIUS_GENHINW_13
 70
     0
  0
APPID
  2
GENIUS_FIRSTVISTXT_14
 70
     0
  0
APPID
  2
GENIUS_GENOBJ-N-LEADER_13
 70
     0
  0
APPID
  2
GEV_VCCNULL_SWITCH_OFF
 70
     0
  0
APPID
  2
GENIUS_GEFCFG0_13
 70
     0
  0
APPID
  2
GENIUS_GENZVEED_13
 70
     0
  0
APPID
  2
GENIUS_GENSCREG_13
 70
     0
  0
APPID
  2
GENIUS_DUMCFG0_13
 70
     0
  0
APPID
  2
GEVID936201362
 70
     0
  0
APPID
  2
GEVDC
 70
     0
  0
APPID
  2
GEVCON
 70
     0
  0
APPID
  2
VCC
 70
     0
  0
APPID
  2
GEVPT
 70
     0
  0
APPID
  2
GEVIT
 70
     0
  0
APPID
  2
GENBH
 70
     0
  0
APPID
  2
GEVMK
 70
     0
  0
APPID
  2
GENIUS_GENBH_13
 70
     0
  0
APPID
  2
GENIUS_GENOBJ-NBEHI-BHF_13
 70
     0
  0
APPID
  2
GENIUS_GENOBJ-NBEHI-BHB_13
 70
     0
  0
APPID
  2
GENIUS_GENOBJ-F-DESC_13
 70
     0
  0
APPID
  2
GENIUS_GEFDESC_14
 70
     0
  0
APPID
  2
GENIUS_GENOBJ-F-PART_13
 70
     0
  0
APPID
  2
GENIUS_GEFSTDP_13
 70
     0
  0
APPID
  2
GENIUS_GEFPARTINS_13
 70
     0
  0
APPID
  2
GENIUS_GENTRA_14
 70
     0
  0
APPID
  2
GENIUS_GENINF13_13
 70
     0
  0
APPID
  2
GENIUS_GENOBJ-N-INFOPT_13
 70
     0
  0
APPID
  2
GENIUS_GENOBJ-N-RSSYM_13
 70
     0
  0
APPID
  2
GENIUS_GENSYMENT_13
 70
     0
  0
APPID
  2
GENIUS_GENSCSYM_13
 70
     0
  0
APPID
  2
GENIUS_GEFINFNAM_13
 70
     0
  0
APPID
  2
GENIUS_GENOBJ-N-CEN_13
 70
     0
  0
APPID
  2
GENIUS_GENOBJ-N-CRS_13
 70
     0
  0
APPID
  2
GENIUS_GENOBJ-N-CRC_13
 70
     0
  0
APPID
  2
GENIUS_GENCRC_14
 70
     0
  0
APPID
  2
GEVID942827039
 70
     0
  0
APPID
  2
GEVID942827040
 70
     0
  0
APPID
  2
GEVID942827041
 70
     0
  0
APPID
  2
GENIUS_GENOBJ-F-SCPASSM_13
 70
     0
  0
APPID
  2
GENIUS_GENDIMSH_14
 70
     0
  0
APPID
  2
GEVID942827042
 70
     0
  0
APPID
  2
GEVID946020473
 70
     0
  0
APPID
  2
GEVID946020474
 70
     0
  0
APPID
  2
GEVID946020475
 70
     0
  0
APPID
  2
GENIUS_GENOBJ-N-HTC_13
 70
     0
  0
APPID
  2
GENIUS_GENHATCH_13
 70
     0
  0
APPID
  2
GEVID948854295
 70
     0
  0
APPID
  2
GEVID939402019
 70
     0
  0
APPID
  2
GEVID952919491
 70
     0
  0
APPID
  2
GEVID952919492
 70
     0
  0
APPID
  2
GENIUS_GEFWELD_13
 70
     0
  0
APPID
  2
GENIUS_GENOBJ-F-WELS_13
 70
     0
  0
APPID
  2
GEVID952919493
 70
     0
  0
APPID
  2
GENIUS_GENOBJ-N-RSBK_13
 70
     0
  0
APPID
  2
GENIUS_GENOBJ-N-LIB_13
 70
     0
  0
APPID
  2
GENIUS_GENSCALE_13
 70
     0
  0
APPID
  2
GEVID986376691
 70
     0
  0
APPID
  2
DCO15
 70
     0
  0
APPID
  2
GEVID988070561
 70
     0
  0
APPID
  2
GEVID988070562
 70
     0
  0
APPID
  2
GEVID988070563
 70
     0
  0
APPID
  2
ACAD_DSTYLE_DIMBREAK
 70
     0
  0
APPID
  2
ACAD_DSTYLE_DIMJAG
 70
     0
  0
APPID
  2
ACAD_NAV_VCDISPLAY
 70
     0
  0
APPID
  2
ACADANNOPO
 70
     0
  0
APPID
  2
ACAD_EXEMPT_FROM_CAD_STANDARDS
 70
     0
  0
APPID
  2
ACAD_MLEADERVER
 70
     0
  0
ENDTAB
  0
TABLE
  2
DIMSTYLE
 70
    22
  0
DIMSTYLE
  2
STANDARD
 70
     0
  3

  4

  5

  6

  7

 40
1.0
 41
0.18
 42
0.0625
 43
0.38
 44
0.18
 45
0.0
 46
0.0
 47
0.0
 48
0.0
140
0.18
141
0.09
142
0.0
143
25.399999999999999
144
1.0
145
0.0
146
1.0
147
0.09
 71
     0
 72
     0
 73
     1
 74
     1
 75
     0
 76
     0
 77
     0
 78
     0
170
     0
171
     2
172
     0
173
     0
174
     0
175
     0
176
     0
177
     0
178
     0
  0
DIMSTYLE
  2
ANNOTATIVE
 70
     0
  3

  4

  5

  6

  7

 40
1.0
 41
0.18
 42
0.0625
 43
0.38
 44
0.18
 45
0.0
 46
0.0
 47
0.0
 48
0.0
140
0.18
141
0.09
142
0.0
143
25.399999999999999
144
1.0
145
0.0
146
1.0
147
0.09
 71
     0
 72
     0
 73
     1
 74
     1
 75
     0
 76
     0
 77
     0
 78
     0
170
     0
171
     2
172
     0
173
     0
174
     0
175
     0
176
     0
177
     0
178
     0
  0
DIMSTYLE
  2
AM_ISO
 70
     0
  3

  4
"
  5

  6

  7

 40
1.0
 41
2.5
 42
1.0
 43
8.0
 44
0.6
 45
0.0
 46
0.0
 47
0.1
 48
0.1
140
2.5
141
0.0
142
0.0
143
0.0393701
144
1.0
145
0.0
146
0.71
147
0.8
 71
     0
 72
     0
 73
     0
 74
     0
 75
     0
 76
     0
 77
     1
 78
     8
170
     0
171
     2
172
     1
173
     0
174
     0
175
     0
176
   256
177
   256
178
     4
  0
DIMSTYLE
  2
AM_ISO$3
 70
     0
  3

  4
"
  5

  6

  7

 40
1.0
 41
2.5
 42
1.0
 43
8.0
 44
0.6
 45
0.0
 46
0.0
 47
0.1
 48
0.1
140
2.5
141
0.0
142
0.0
143
0.0393701
144
1.0
145
0.0
146
0.71
147
0.8
 71
     0
 72
     0
 73
     0
 74
     1
 75
     0
 76
     0
 77
     1
 78
     8
170
     0
171
     2
172
     0
173
     0
174
     0
175
     0
176
   256
177
   256
178
     4
  0
DIMSTYLE
  2
AM_ISO$4
 70
     0
  3

  4
"
  5

  6

  7

 40
1.0
 41
2.5
 42
1.0
 43
8.0
 44
0.6
 45
0.0
 46
0.0
 47
0.1
 48
0.1
140
2.5
141
0.0
142
0.0
143
0.0393701
144
1.0
145
0.0
146
0.71
147
0.8
 71
     0
 72
     0
 73
     0
 74
     1
 75
     0
 76
     0
 77
     1
 78
     8
170
     0
171
     2
172
     0
173
     0
174
     0
175
     0
176
   256
177
   256
178
     4
  0
DIMSTYLE
  2
AM_ISO$6
 70
     0
  3

  4
"
  5

  6

  7

 40
1.0
 41
2.5
 42
1.0
 43
8.0
 44
0.6
 45
0.0
 46
0.0
 47
0.1
 48
0.1
140
2.5
141
0.0
142
0.0
143
0.0393701
144
1.0
145
0.0
146
0.71
147
0.8
 71
     0
 72
     0
 73
     0
 74
     0
 75
     0
 76
     0
 77
     0
 78
     8
170
     0
171
     2
172
     1
173
     0
174
     0
175
     0
176
   256
177
   256
178
     4
  0
DIMSTYLE
  2
AM_ISO$7
 70
     0
  3

  4
"
  5

  6

  7

 40
1.0
 41
2.5
 42
1.0
 43
8.0
 44
0.6
 45
0.0
 46
0.0
 47
0.1
 48
0.1
140
2.5
141
0.0
142
0.0
143
0.0393701
144
1.0
145
0.0
146
0.71
147
0.8
 71
     0
 72
     0
 73
     0
 74
     0
 75
     0
 76
     0
 77
     1
 78
     8
170
     0
171
     2
172
     1
173
     0
174
     0
175
     0
176
   256
177
   256
178
     4
  0
DIMSTYLE
  2
AM_ISO$SF
 70
     0
  3

  4
"
  5

  6

  7

 40
1.0
 41
2.5
 42
1.0
 43
10.0
 44
1.0
 45
0.0
 46
0.0
 47
0.1
 48
0.1
140
3.5
141
0.0
142
0.0
143
0.0393701
144
1.0
145
0.0
146
0.71
147
1.5
 71
     0
 72
     0
 73
     0
 74
     0
 75
     1
 76
     1
 77
     1
 78
     8
170
     0
171
     2
172
     1
173
     0
174
     0
175
     0
176
   256
177
   256
178
     2
  0
DIMSTYLE
  2
AM_ISO$SH
 70
     0
  3

  4
"
  5

  6

  7

 40
1.0
 41
2.5
 42
1.0
 43
10.0
 44
1.0
 45
0.0
 46
0.0
 47
0.1
 48
0.1
140
3.5
141
0.0
142
0.0
143
0.0393701
144
2.0
145
0.0
146
0.71
147
1.5
 71
     0
 72
     0
 73
     0
 74
     0
 75
     1
 76
     1
 77
     1
 78
     8
170
     0
171
     2
172
     1
173
     1
174
     0
175
     0
176
   256
177
   256
178
     2
  0
DIMSTYLE
  2
AM_JIS
 70
     0
  3

  4
"
  5

  6

  7

 40
1.0
 41
2.5
 42
1.0
 43
7.0
 44
1.0
 45
0.0
 46
0.0
 47
0.1
 48
0.1000000001
140
2.5
141
0.0
142
0.0
143
0.0393701
144
1.0
145
0.0
146
0.71
147
1.0
 71
     0
 72
     0
 73
     0
 74
     0
 75
     0
 76
     0
 77
     3
 78
     8
170
     0
171
     2
172
     1
173
     0
174
     0
175
     0
176
   256
177
   256
178
     4
  0
DIMSTYLE
  2
AM_JIS$3
 70
     0
  3

  4
"
  5

  6

  7

 40
1.0
 41
2.5
 42
1.0
 43
7.0
 44
1.0
 45
0.0
 46
0.0
 47
0.1
 48
0.1000000001
140
2.5
141
0.0
142
0.0
143
0.0393701
144
1.0
145
0.0
146
0.71
147
1.0
 71
     0
 72
     0
 73
     0
 74
     1
 75
     0
 76
     0
 77
     3
 78
     8
170
     0
171
     2
172
     0
173
     0
174
     0
175
     0
176
   256
177
   256
178
     4
  0
DIMSTYLE
  2
AM_JIS$4
 70
     0
  3

  4
"
  5

  6

  7

 40
1.0
 41
2.5
 42
1.0
 43
7.0
 44
1.0
 45
0.0
 46
0.0
 47
0.1
 48
0.1000000001
140
2.5
141
0.0
142
0.0
143
0.0393701
144
1.0
145
0.0
146
0.71
147
1.0
 71
     0
 72
     0
 73
     0
 74
     0
 75
     0
 76
     0
 77
     3
 78
     8
170
     0
171
     2
172
     0
173
     0
174
     0
175
     0
176
   256
177
   256
178
     4
  0
DIMSTYLE
  2
AM_JIS$6
 70
     0
  3

  4
"
  5

  6

  7

 40
1.0
 41
2.5
 42
1.0
 43
7.0
 44
1.0
 45
0.0
 46
0.0
 47
0.1
 48
0.1000000001
140
2.5
141
0.0
142
0.0
143
0.0393701
144
1.0
145
0.0
146
0.71
147
1.0
 71
     0
 72
     0
 73
     0
 74
     0
 75
     0
 76
     0
 77
     0
 78
     8
170
     0
171
     2
172
     1
173
     0
174
     0
175
     0
176
   256
177
   256
178
     4
  0
DIMSTYLE
  2
AM_JIS$7
 70
     0
  3

  4
"
  5

  6

  7

 40
1.0
 41
2.5
 42
1.0
 43
7.0
 44
1.0
 45
0.0
 46
0.0
 47
0.1
 48
0.1000000001
140
2.5
141
0.0
142
0.0
143
0.0393701
144
1.0
145
0.0
146
0.71
147
1.0
 71
     0
 72
     0
 73
     0
 74
     0
 75
     0
 76
     0
 77
     3
 78
     8
170
     0
171
     2
172
     1
173
     0
174
     0
175
     0
176
   256
177
   256
178
     4
  0
DIMSTYLE
  2
AM_JIS$SF
 70
     0
  3

  4
"
  5

  6

  7

 40
1.0
 41
2.5
 42
1.0
 43
10.0
 44
1.0
 45
0.0
 46
0.0
 47
0.1
 48
0.1
140
3.5
141
0.0
142
0.0
143
0.0393701
144
1.0
145
0.0
146
0.71
147
1.5
 71
     0
 72
     0
 73
     0
 74
     0
 75
     1
 76
     1
 77
     3
 78
     8
170
     0
171
     2
172
     1
173
     0
174
     0
175
     0
176
   256
177
   256
178
     4
  0
DIMSTYLE
  2
AM_JIS$SH
 70
     0
  3

  4
"
  5

  6

  7

 40
1.0
 41
2.5
 42
1.0
 43
10.0
 44
1.0
 45
0.0
 46
0.0
 47
0.1
 48
0.1
140
3.5
141
0.0
142
0.0
143
0.0393701
144
1.0
145
0.0
146
0.71
147
1.5
 71
     0
 72
     0
 73
     0
 74
     0
 75
     1
 76
     0
 77
     3
 78
     8
170
     0
171
     2
172
     1
173
     1
174
     0
175
     0
176
   256
177
   256
178
     4
  0
DIMSTYLE
  2
AM_ANSI
 70
     0
  3

  4
mm
  5

  6

  7

 40
1.0
 41
0.1
 42
0.05
 43
0.5
 44
0.1
 45
0.0
 46
0.0
 47
0.1
 48
0.1
140
0.12
141
0.0
142
0.0
143
25.399999999999999
144
1.0
145
0.0
146
0.71
147
0.06
 71
     0
 72
     0
 73
     1
 74
     1
 75
     0
 76
     0
 77
     0
 78
     7
170
     0
171
     2
172
     0
173
     0
174
     0
175
     0
176
   256
177
   256
178
     2
  0
DIMSTYLE
  2
AM_ANSI$3
 70
     0
  3

  4
mm
  5

  6

  7

 40
1.0
 41
0.1
 42
0.05
 43
0.5
 44
0.1
 45
0.0
 46
0.0
 47
0.1
 48
0.1
140
0.12
141
0.0
142
0.0
143
25.399999999999999
144
1.0
145
0.0
146
0.71
147
0.06
 71
     0
 72
     0
 73
     1
 74
     1
 75
     0
 76
     0
 77
     0
 78
     7
170
     0
171
     2
172
     0
173
     0
174
     0
175
     0
176
   256
177
   256
178
     2
  0
DIMSTYLE
  2
AM_ANSI$4
 70
     0
  3

  4
mm
  5

  6

  7

 40
1.0
 41
0.1
 42
0.05
 43
0.5
 44
0.1
 45
0.0
 46
0.0
 47
0.1
 48
0.1
140
0.12
141
0.0
142
0.0
143
25.399999999999999
144
1.0
145
0.0
146
0.71
147
0.06
 71
     0
 72
     0
 73
     1
 74
     1
 75
     0
 76
     0
 77
     0
 78
     7
170
     0
171
     2
172
     0
173
     0
174
     0
175
     0
176
   256
177
   256
178
     2
  0
DIMSTYLE
  2
AM_ANSI$7
 70
     0
  3

  4
mm
  5

  6

  7

 40
1.0
 41
0.1
 42
0.05
 43
0.5
 44
0.1
 45
0.0
 46
0.0
 47
0.1
 48
0.1
140
0.24
141
0.0
142
0.0
143
25.399999999999999
144
1.0
145
0.0
146
0.71
147
0.06
 71
     0
 72
     0
 73
     1
 74
     1
 75
     0
 76
     0
 77
     0
 78
     7
170
     0
171
     2
172
     0
173
     0
174
     0
175
     0
176
   256
177
   256
178
     2
  0
DIMSTYLE
  2
AM_ANSI$SF
 70
     0
  3

  4
mm
  5

  6

  7

 40
1.0
 41
0.1
 42
0.05
 43
0.5
 44
0.1
 45
0.0
 46
0.0
 47
0.1
 48
0.1
140
0.12
141
0.0
142
0.0
143
25.399999999999999
144
1.0
145
0.0
146
0.71
147
0.06
 71
     0
 72
     0
 73
     1
 74
     1
 75
     1
 76
     1
 77
     0
 78
     7
170
     0
171
     2
172
     0
173
     0
174
     0
175
     0
176
   256
177
   256
178
     2
  0
DIMSTYLE
  2
AM_ANSI$SH
 70
     0
  3

  4
mm
  5

  6

  7

 40
1.0
 41
0.1
 42
0.05
 43
0.5
 44
0.1
 45
0.0
 46
0.0
 47
0.1
 48
0.1
140
0.12
141
0.0
142
0.0
143
25.399999999999999
144
1.0
145
0.0
146
0.71
147
0.06
 71
     0
 72
     0
 73
     1
 74
     1
 75
     1
 76
     1
 77
     0
 78
     7
170
     0
171
     2
172
     0
173
     1
174
     0
175
     0
176
   256
177
   256
178
     2
  0
ENDTAB
  0
ENDSEC
  0
SECTION
  2
BLOCKS
  0
BLOCK
  8
0
  2
$MODEL_SPACE
 70
     0
 10
0.0
 20
0.0
 30
0.0
  3
$MODEL_SPACE
  1

  0
ENDBLK
  5
357B
  8
0
  0
BLOCK
 67
     1
  8
0
  2
$PAPER_SPACE
 70
     0
 10
0.0
 20
0.0
 30
0.0
  3
$PAPER_SPACE
  1

  0
ENDBLK
  5
3577
 67
     1
  8
0
  0
BLOCK
  8
0
  2
GENAXEH
 70
     0
 10
0.0
 20
0.0
 30
0.0
  3
GENAXEH
  1

  0
LINE
  5
32A9
  8
0
 10
-1.0
 20
0.0
 30
0.0
 11
1.0
 21
0.0
 31
0.0
  0
ENDBLK
  5
32AA
  8
0
  0
BLOCK
  8
0
  2
_OPEN30
 70
     0
 10
0.0
 20
0.0
 30
0.0
  3
_OPEN30
  1

  0
LINE
  5
32AD
  8
0
 62
     0
 10
-1.0
 20
0.26794919
 30
0.0
 11
0.0
 21
0.0
 31
0.0
  0
LINE
  5
32AE
  8
0
 62
     0
 10
0.0
 20
0.0
 30
0.0
 11
-1.0
 21
-0.26794919
 31
0.0
  0
LINE
  5
32AF
  8
0
 62
     0
 10
0.0
 20
0.0
 30
0.0
 11
-1.0
 21
0.0
 31
0.0
  0
ENDBLK
  5
32B0
  8
0
  0
BLOCK
  8
0
  2
_NONE
 70
     0
 10
0.0
 20
0.0
 30
0.0
  3
_NONE
  1

  0
ENDBLK
  5
32B3
  8
0
  0
BLOCK
  8
0
  2
*U5
 70
     1
 10
0.0
 20
0.0
 30
0.0
  3
*U5
  1

  0
TEXT
  5
32B6
  8
AM_0
 10
29.0
 20
43.639999999999993
 30
0.0
 40
1.8600000000000001
  1
に対する
 41
0.8299999999999999
  0
TEXT
  5
32B7
  8
AM_0
 10
29.0
 20
40.539999999999999
 30
0.0
 40
1.8600000000000001
  1
　加工仕上面
 41
0.8299999999999999
  0
ENDBLK
  5
32B8
  8
0
  0
BLOCK
  8
0
  2
_ACMFILLEDHALF
 70
     0
 10
0.0
 20
0.0
 30
0.0
  3
_ACMFILLEDHALF
  1

  0
TRACE
  5
3677
  8
AM_0
 62
     0
 10
-0.8
 20
0.0
 30
0.0
 11
-1.0
 21
0.166666666
 31
0.0
 12
0.0
 22
0.0
 32
0.0
 13
0.0
 23
0.0
 33
0.0
  0
LINE
  5
3678
  8
AM_0
 62
     0
 10
-1.0
 20
0.0
 30
0.0
 11
-0.8
 21
0.0
 31
0.0
  0
ENDBLK
  5
3676
  8
0
  0
ENDSEC
  0
SECTION
  2
ENTITIES
  0
LINE
  5
32B9
  8
AM_0
 10
325.87419860130848
 20
311.7202982211864
 30
0.0
 11
352.87419860130848
 21
311.7202982211864
 31
0.0
  0
LINE
  5
32BA
  8
AM_0
 10
309.87423860130832
 20
328.19887822118619
 30
0.0
 11
353.0051186013086
 21
327.06943822118649
 31
0.0
  0
LINE
  5
32BB
  8
AM_0
 10
322.87419860130848
 20
296.82975322118648
 30
0.0
 11
346.52601860130818
 21
296.82975322118648
 31
0.0
  0
ARC
  5
32BC
  8
AM_0
 10
339.60948860130839
 20
291.82975222118631
 30
0.0
 40
5.0000001000000003
 50
90.000003000000945
 51
171.85424
  0
LINE
  5
32BD
  8
AM_0
 10
307.87422860130852
 20
201.19889122118639
 30
0.0
 11
348.87423860130821
 21
201.19889122118639
 31
0.0
  0
LINE
  5
32BE
  8
ﾁｭｳｼﾝｾﾝ1
 10
298.52481860130843
 20
285.19889422118638
 30
0.0
 11
401.60772860130851
 21
285.19889422118638
 31
0.0
  0
LINE
  5
32BF
  8
AM_0
 10
285.87423860130832
 20
324.6988932211861
 30
0.0
 11
285.87423860130832
 21
211.69889322118649
 31
0.0
  0
LINE
  5
32C0
  8
AM_0
 10
228.37423860130841
 20
282.37046609644023
 30
0.0
 11
228.37423860130841
 21
254.0273203459324
 31
0.0
  0
LINE
  5
32C1
  8
AM_0
 10
230.37423860130801
 20
245.19889322118641
 30
0.0
 11
230.37423860130829
 21
291.19889322118649
 31
0.0
  0
LINE
  5
32C2
  8
AM_0
 10
250.87423860130829
 20
293.1988932211861
 30
0.0
 11
250.87423860130829
 21
243.1988932211861
 31
0.0
  0
LINE
  5
32C3
  8
AM_0
 10
275.87423860130832
 20
323.4375145752212
 30
0.0
 11
275.8742386013094
 21
212.96027186715139
 31
0.0
  0
LINE
  5
32C4
  8
AM_0
 10
322.87419860130848
 20
296.82975322118648
 30
0.0
 11
322.87419860130848
 21
210.19889122118639
 31
0.0
  0
LINE
  5
32C5
  8
AM_0
 10
334.65993860130823
 20
292.53822022118618
 30
0.0
 11
322.87422860130852
 21
210.19886122118641
 31
0.0
  0
LINE
  5
32C6
  8
AM_0
 10
309.87423860130832
 20
328.19890822118617
 30
0.0
 11
309.87423860130832
 21
218.1989072211864
 31
0.0
  0
LINE
  5
32C7
  8
AM_0
 10
303.87423860130832
 20
308.0725082211863
 30
0.0
 11
303.87423860130832
 21
268.19889322118649
 31
0.0
  0
LINE
  5
32C8
  8
ﾁｭｳｼﾝｾﾝ1
 10
198.0332026960194
 20
268.1988932211861
 30
0.0
 11
307.83780860130838
 21
268.19889322118649
 31
0.0
  0
LINE
  5
32C9
  8
AM_0
 10
274.40977250724109
 20
219.66335931525359
 30
0.0
 11
253.8031707894429
 21
240.269961033052
 31
0.0
  0
LINE
  5
32CA
  8
AM_0
 10
201.37423860130841
 20
274.19889322118649
 30
0.0
 11
226.37423860130841
 21
274.19889322118649
 31
0.0
  0
LINE
  5
32CB
  8
AM_0
 10
201.37423860130841
 20
275.69889322118621
 30
0.0
 11
219.37423860130841
 21
275.69889322118621
 31
0.0
  0
LINE
  5
32CC
  8
AM_0
 10
201.37423860130841
 20
262.19889322118649
 30
0.0
 11
226.37423860130841
 21
262.19889322118649
 31
0.0
  0
LINE
  5
32CD
  8
AM_0
 10
201.37423860130841
 20
275.69889322118621
 30
0.0
 11
201.37423860130841
 21
262.19889322118649
 31
0.0
  0
LINE
  5
32CE
  8
AM_0
 10
232.37423860130829
 20
243.19889322118649
 30
0.0
 11
246.73210297757731
 21
243.19889322118641
 31
0.0
  0
ARC
  5
32CF
  8
AM_0
 10
232.37423860130829
 20
245.19889322118649
 30
0.0
 40
2.0
 50
180.0
 51
270.0
1001
GENIUS_GENODEF_13
1002
{
1000
HIER
1070
     0
1002
}
1002
{
1000
MANEDIT
1070
     0
1002
}
1002
{
1000
NOSEL
1070
     0
1002
}
1002
{
1000
BEHIND
1070
     0
1002
}
1002
{
1000
OTHER
1070
     0
1002
}
1002
{
1000
REACTOR
1002
}
1001
GENIUS_GENOBJ-N-FIL_13
1002
{
1000
OWNER
1000
GEN
1002
}
  0
ARC
  5
32D0
  8
AM_0
 10
228.37423860130841
 20
250.37046609644
 30
0.0
 40
2.0
 50
0.0
 51
45.000000000000568
1001
GENIUS_GENODEF_13
1002
{
1000
HIER
1070
     0
1002
}
1002
{
1000
MANEDIT
1070
     0
1002
}
1002
{
1000
NOSEL
1070
     0
1002
}
1002
{
1000
BEHIND
1070
     0
1002
}
1002
{
1000
OTHER
1070
     0
1002
}
1002
{
1000
REACTOR
1002
}
1001
GENIUS_GENOBJ-N-FIL_13
1002
{
1000
OWNER
1000
GEN
1002
}
  0
LINE
  5
32D1
  8
AM_0
 10
228.9600250389353
 20
252.6131067835594
 30
0.0
 11
229.78845216368151
 21
251.7846796588133
 31
0.0
  0
ARC
  5
32D2
  8
AM_0
 10
230.37423860130829
 20
254.0273203459324
 30
0.0
 40
2.0
 50
180.0
 51
225.0000000000006
1001
GENIUS_GENODEF_13
1002
{
1000
HIER
1070
     0
1002
}
1002
{
1000
MANEDIT
1070
     0
1002
}
1002
{
1000
NOSEL
1070
     0
1002
}
1002
{
1000
BEHIND
1070
     0
1002
}
1002
{
1000
OTHER
1070
     0
1002
}
1002
{
1000
REACTOR
1002
}
1001
GENIUS_GENOBJ-N-FIL_13
1002
{
1000
OWNER
1000
GEN
1002
}
  0
ARC
  5
32D3
  8
AM_0
 10
246.73210297757731
 20
233.19889322118641
 30
0.0
 40
10.0
 50
45.0
 51
90.0
1001
GENIUS_GENOBJ-N-FIL_13
1002
{
1000
OWNER
1000
GEN
1002
}
1001
GENIUS_GENODEF_13
1002
{
1000
HIER
1070
     0
1002
}
1002
{
1000
MANEDIT
1070
     0
1002
}
1002
{
1000
NOSEL
1070
     0
1002
}
1002
{
1000
BEHIND
1070
     0
1002
}
1002
{
1000
OTHER
1070
     0
1002
}
1002
{
1000
REACTOR
1002
}
  0
LINE
  5
32D4
  8
AM_0
 10
226.37423860130841
 20
275.69889322118621
 30
0.0
 11
226.37423860130841
 21
260.69888559179191
 31
0.0
  0
LINE
  5
32D5
  8
AM_0
 10
226.37423860130841
 20
260.69888559179191
 30
0.0
 11
228.37423860130841
 21
260.69888559179191
 31
0.0
  0
LINE
  5
32D6
  8
AM_0
 10
226.37423860130841
 20
275.69889322118621
 30
0.0
 11
228.37423860130841
 21
275.69889322118621
 31
0.0
  0
LINE
  5
32D7
  8
AM_0
 10
219.37423860130841
 20
275.69889322118621
 30
0.0
 11
219.37423860130841
 21
274.19889322118649
 31
0.0
  0
LINE
  5
32D8
  8
AM_0
 10
312.85371860130817
 20
244.02420922118631
 30
0.0
 11
309.18600860130852
 21
212.8483352211864
 31
0.0
  0
LINE
  5
32D9
  8
AM_0
 10
303.87423860130832
 20
210.19889122118639
 30
0.0
 11
303.87423860130832
 21
268.19889322118649
 31
0.0
  0
LINE
  5
32DA
  8
AM_0
 10
285.87423860130832
 20
222.19889122118639
 30
0.0
 11
303.87423860130832
 21
222.19889122118639
 31
0.0
  0
LINE
  5
32DB
  8
AM_0
 10
286.87422860130852
 20
200.19887722118639
 30
0.0
 11
306.87423860130838
 21
200.19887722118639
 31
0.0
  0
LINE
  5
32DC
  8
AM_0
 10
306.20649860130823
 20
210.19889122118639
 30
0.0
 11
288.37422860130852
 21
210.19889122118639
 31
0.0
  0
LINE
  5
32DD
  8
AM_0
 10
285.87423860130832
 20
212.19887722118639
 30
0.0
 11
302.41353860130818
 21
211.76578522118641
 31
0.0
  0
LINE
  5
32DE
  8
ﾁｭｳｼﾝｾﾝ1
 10
296.87424860130858
 20
197.59034122118649
 30
0.0
 11
296.87424860130858
 21
213.10116022118629
 31
0.0
  0
ARC
  5
32DF
  8
AM_0
 10
276.87423860130832
 20
212.96027186715139
 30
0.0
 40
1.0
 50
180.0
 51
268.33915276702578
1001
GENIUS_GENOBJ-N-FIL_13
1002
{
1000
OWNER
1000
GEN
1002
}
1001
GENIUS_GENODEF_13
1002
{
1000
HIER
1070
     0
1002
}
1002
{
1000
MANEDIT
1070
     0
1002
}
1002
{
1000
NOSEL
1070
     0
1002
}
1002
{
1000
BEHIND
1070
     0
1002
}
1002
{
1000
OTHER
1070
     0
1002
}
1002
{
1000
REACTOR
1002
}
  0
LINE
  5
32E0
  8
AM_0
 10
276.84525540802503
 20
211.9606919681404
 30
0.0
 11
285.87423860130832
 21
211.69889322118649
 31
0.0
  0
LINE
  5
32E1
  8
AM_0
 10
286.87422860130852
 20
200.19887722118639
 30
0.0
 11
286.87422860130852
 21
208.69889122118639
 31
0.0
  0
ARC
  5
32E2
  8
AM_0
 10
288.37422860130852
 20
208.69889122118639
 30
0.0
 40
1.5000000299999969
 50
90.000003000000945
 51
180.00001
  0
ARC
  5
32E3
  8
AM_0
 10
270.87423860130832
 20
216.12782540932079
 30
0.0
 40
5.0
 50
0.0
 51
45.0
1001
GENIUS_GENODEF_13
1002
{
1000
HIER
1070
     0
1002
}
1002
{
1000
MANEDIT
1070
     0
1002
}
1002
{
1000
NOSEL
1070
     0
1002
}
1002
{
1000
BEHIND
1070
     0
1002
}
1002
{
1000
OTHER
1070
     0
1002
}
1002
{
1000
REACTOR
1002
}
1001
GENIUS_GENOBJ-N-FIL_13
1002
{
1000
OWNER
1000
GEN
1002
}
  0
ARC
  5
32E4
  8
AM_0
 10
306.20649860130823
 20
213.19889122118639
 30
0.0
 40
3.0
 50
270.0
 51
353.29015999999967
  0
ARC
  5
32E5
  8
AM_0
 10
307.87422860130852
 20
200.19887722118639
 30
0.0
 40
1.0000000199999981
 50
90.000003000000945
 51
180.00001
  0
LINE
  5
32E6
  8
AM_0
 10
306.87423860130838
 20
200.19887722118639
 30
0.0
 11
306.87423860130838
 21
200.19887722118639
 31
0.0
  0
ARC
  5
32E7
  8
AM_0
 10
302.37423860130832
 20
210.26631922118639
 30
0.0
 40
1.5000000299999969
 50
0.0
 51
88.499997000000747
  0
LINE
  5
32E8
  8
AM_0
 10
285.87423860130832
 20
236.2614542211864
 30
0.0
 11
303.87423860130832
 21
236.2614542211864
 31
0.0
  0
LINE
  5
32E9
  8
AM_0
 10
312.87423860130832
 20
272.9497172211864
 30
0.0
 11
312.87423860130832
 21
244.37475022118639
 31
0.0
  0
ARC
  5
32EA
  8
AM_0
 10
309.87423860130832
 20
244.37475022118639
 30
0.0
 40
3.0
 50
353.29015999999967
 51
0.0
  0
LINE
  5
32EB
  8
AM_0
 10
274.40977250724109
 20
316.7344271271192
 30
0.0
 11
253.8031707894429
 21
296.12782540932079
 31
0.0
  0
LINE
  5
32EC
  8
AM_0
 10
232.37423860130829
 20
293.19889322118649
 30
0.0
 11
246.73210297757731
 21
293.1988932211861
 31
0.0
  0
LINE
  5
32ED
  8
AM_0
 10
228.9600250389353
 20
283.78467965881322
 30
0.0
 11
229.78845216368151
 21
284.61310678355949
 31
0.0
  0
ARC
  5
32EE
  8
AM_0
 10
228.37423860130841
 20
286.02732034593259
 30
0.0
 40
2.0
 50
314.9999999999992
 51
0.0
1001
GENIUS_GENODEF_13
1002
{
1000
HIER
1070
     0
1002
}
1002
{
1000
MANEDIT
1070
     0
1002
}
1002
{
1000
NOSEL
1070
     0
1002
}
1002
{
1000
BEHIND
1070
     0
1002
}
1002
{
1000
OTHER
1070
     0
1002
}
1002
{
1000
REACTOR
1002
}
1001
GENIUS_GENOBJ-N-FIL_13
1002
{
1000
OWNER
1000
GEN
1002
}
  0
ARC
  5
32EF
  8
AM_0
 10
230.37423860130829
 20
282.37046609644023
 30
0.0
 40
2.0
 50
134.9999999999994
 51
180.0
1001
GENIUS_GENODEF_13
1002
{
1000
HIER
1070
     0
1002
}
1002
{
1000
MANEDIT
1070
     0
1002
}
1002
{
1000
NOSEL
1070
     0
1002
}
1002
{
1000
BEHIND
1070
     0
1002
}
1002
{
1000
OTHER
1070
     0
1002
}
1002
{
1000
REACTOR
1002
}
1001
GENIUS_GENOBJ-N-FIL_13
1002
{
1000
OWNER
1000
GEN
1002
}
  0
ARC
  5
32F0
  8
AM_0
 10
232.37423860130829
 20
291.19889322118649
 30
0.0
 40
2.0
 50
90.0
 51
180.0
1001
GENIUS_GENODEF_13
1002
{
1000
HIER
1070
     0
1002
}
1002
{
1000
MANEDIT
1070
     0
1002
}
1002
{
1000
NOSEL
1070
     0
1002
}
1002
{
1000
BEHIND
1070
     0
1002
}
1002
{
1000
OTHER
1070
     0
1002
}
1002
{
1000
REACTOR
1002
}
1001
GENIUS_GENOBJ-N-FIL_13
1002
{
1000
OWNER
1000
GEN
1002
}
  0
ARC
  5
32F1
  8
AM_0
 10
246.73210297757731
 20
303.19889322118621
 30
0.0
 40
10.0
 50
270.0
 51
315.0
1001
GENIUS_GENODEF_13
1002
{
1000
HIER
1070
     0
1002
}
1002
{
1000
MANEDIT
1070
     0
1002
}
1002
{
1000
NOSEL
1070
     0
1002
}
1002
{
1000
BEHIND
1070
     0
1002
}
1002
{
1000
OTHER
1070
     0
1002
}
1002
{
1000
REACTOR
1002
}
1001
GENIUS_GENOBJ-N-FIL_13
1002
{
1000
OWNER
1000
GEN
1002
}
  0
LINE
  5
32F2
  8
AM_0
 10
303.87423860130832
 20
326.58055822118632
 30
0.0
 11
303.87423860130832
 21
312.19888822118651
 31
0.0
  0
LINE
  5
32F3
  8
AM_0
 10
322.87419860130848
 20
327.75373822118638
 30
0.0
 11
322.87419860130848
 21
312.32434822118648
 31
0.0
  0
LINE
  5
32F4
  8
AM_0
 10
335.27424860130839
 20
311.7202982211864
 30
0.0
 11
322.87428860130831
 21
327.85846822118651
 31
0.0
  0
LINE
  5
32F5
  8
AM_0
 10
294.87423860130832
 20
310.80574822118649
 30
0.0
 11
320.87424860130852
 21
310.80574822118649
 31
0.0
  0
LINE
  5
32F6
  8
AM_0
 10
294.87423860130832
 20
312.19888822118651
 30
0.0
 11
303.87423860130832
 21
312.19888822118651
 31
0.0
  0
LINE
  5
32F7
  8
AM_0
 10
285.87423860130832
 20
314.19889822118643
 30
0.0
 11
303.87423860130832
 21
314.19889822118643
 31
0.0
  0
LINE
  5
32F8
  8
AM_0
 10
294.87423860130832
 20
293.98160722118632
 30
0.0
 11
303.87423860130832
 21
293.98160722118632
 31
0.0
  0
LINE
  5
32F9
  8
AM_0
 10
294.87423860130832
 20
312.19888822118651
 30
0.0
 11
294.87423860130832
 21
293.98160722118632
 31
0.0
  0
ARC
  5
32FA
  8
AM_0
 10
270.87423860130832
 20
320.26996103305203
 30
0.0
 40
5.0
 50
315.0
 51
0.0
1001
GENIUS_GENODEF_13
1002
{
1000
HIER
1070
     0
1002
}
1002
{
1000
MANEDIT
1070
     0
1002
}
1002
{
1000
NOSEL
1070
     0
1002
}
1002
{
1000
BEHIND
1070
     0
1002
}
1002
{
1000
OTHER
1070
     0
1002
}
1002
{
1000
REACTOR
1002
}
1001
GENIUS_GENOBJ-N-FIL_13
1002
{
1000
OWNER
1000
GEN
1002
}
  0
LINE
  5
32FB
  8
AM_0
 10
285.87423860130832
 20
300.13633222118619
 30
0.0
 11
294.87423860130832
 21
300.13633222118619
 31
0.0
  0
LINE
  5
32FC
  8
AM_0
 10
320.87424860130852
 20
316.42084822118647
 30
0.0
 11
320.87424860130852
 21
297.03711922118617
 31
0.0
  0
ARC
  5
32FD
  8
AM_0
 10
321.87423860130832
 20
295.0371212211864
 30
0.0
 40
1.0000000199999981
 50
0.0
 51
90.000003000000945
  0
ARC
  5
32FE
  8
AM_0
 10
321.87423860130832
 20
297.03711922118617
 30
0.0
 40
1.0000000199999981
 50
179.99998999999991
 51
270.0
  0
ARC
  5
32FF
  8
AM_0
 10
324.87423860130832
 20
310.4375882211865
 30
0.0
 40
1.0000000199999981
 50
270.0
 51
0.0
  0
LINE
  5
3300
  8
AM_0
 10
321.87423860130832
 20
312.82435822118617
 30
0.0
 11
321.87423860130832
 21
300.2773532211865
 31
0.0
  0
LINE
  5
3301
  8
AM_0
 10
325.87419860130848
 20
301.77735622118649
 30
0.0
 11
325.87419860130848
 21
311.3243882211865
 31
0.0
  0
LINE
  5
3302
  8
AM_0
 10
321.87423860130832
 20
303.6640742211863
 30
0.0
 11
324.87423860130832
 21
303.6640742211863
 31
0.0
  0
LINE
  5
3303
  8
AM_0
 10
321.87423860130832
 20
309.43759822118648
 30
0.0
 11
324.87423860130832
 21
309.43759822118648
 31
0.0
  0
ARC
  5
3304
  8
AM_0
 10
324.87423860130832
 20
304.6641182211863
 30
0.0
 40
1.0000000199999981
 50
270.0
 51
0.0
  0
ARC
  5
3305
  8
AM_0
 10
324.87423860130832
 20
308.43760822118639
 30
0.0
 40
1.0000000199999981
 50
0.0
 51
90.000003000000945
  0
LINE
  5
3306
  8
AM_0
 10
321.87423860130832
 20
300.77732422118618
 30
0.0
 11
324.87423860130832
 21
300.77732422118618
 31
0.0
  0
LINE
  5
3307
  8
AM_0
 10
320.87424860130852
 20
300.2773532211865
 30
0.0
 11
321.87423860130832
 21
300.2773532211865
 31
0.0
  0
ARC
  5
3308
  8
AM_0
 10
324.87423860130832
 20
301.77735622118649
 30
0.0
 40
1.0000000199999981
 50
270.0
 51
0.0
  0
ARC
  5
3309
  8
AM_0
 10
324.87423860130832
 20
302.66410522118628
 30
0.0
 40
1.0000000199999981
 50
0.0
 51
90.000003000000945
  0
LINE
  5
330A
  8
AM_0
 10
321.87423860130832
 20
312.32434822118648
 30
0.0
 11
324.87423860130832
 21
312.32434822118648
 31
0.0
  0
LINE
  5
330B
  8
AM_0
 10
320.87424860130852
 20
312.82435822118617
 30
0.0
 11
321.87423860130832
 21
312.82435822118617
 31
0.0
  0
ARC
  5
330C
  8
AM_0
 10
324.87423860130832
 20
311.3243882211865
 30
0.0
 40
1.0000000199999981
 50
0.0
 51
90.000003000000945
  0
ARC
  5
330D
  8
AM_0
 10
321.87423860130832
 20
318.42088822118632
 30
0.0
 40
1.0000000199999981
 50
270.0
 51
0.0
  0
ARC
  5
330E
  8
AM_0
 10
321.87423860130832
 20
316.42084822118647
 30
0.0
 40
1.0000000199999981
 50
90.000003000000945
 51
180.00001
  0
LINE
  5
330F
  8
AM_0
 10
285.87423860130832
 20
324.19888822118639
 30
0.0
 11
302.41347860130861
 21
324.63199822118639
 31
0.0
  0
LINE
  5
3310
  8
AM_0
 10
276.84525540802503
 20
324.43709447423231
 30
0.0
 11
285.87423860130832
 21
324.69889322118649
 31
0.0
  0
ARC
  5
3311
  8
AM_0
 10
276.87423860130832
 20
323.4375145752212
 30
0.0
 40
1.0
 50
91.66084723297412
 51
180.0
1001
GENIUS_GENOBJ-N-FIL_13
1002
{
1000
OWNER
1000
GEN
1002
}
1001
GENIUS_GENODEF_13
1002
{
1000
HIER
1070
     0
1002
}
1002
{
1000
MANEDIT
1070
     0
1002
}
1002
{
1000
NOSEL
1070
     0
1002
}
1002
{
1000
BEHIND
1070
     0
1002
}
1002
{
1000
OTHER
1070
     0
1002
}
1002
{
1000
REACTOR
1002
}
  0
LINE
  5
3312
  8
AM_0
 10
305.33499860130871
 20
328.0800482211863
 30
0.0
 11
309.87423860130832
 21
328.19893822118649
 31
0.0
  0
ARC
  5
3313
  8
AM_0
 10
305.37423860130832
 20
326.58055822118632
 30
0.0
 40
1.5000000299999969
 50
91.500001000001546
 51
180.00001
  0
ARC
  5
3314
  8
AM_0
 10
302.37423860130832
 20
326.13148822118632
 30
0.0
 40
1.5000000299999969
 50
271.4999999999992
 51
0.0
  0
ARC
  5
3315
  8
AM_0
 10
566.73311610272026
 20
285.19889422118638
 30
0.0
 40
20.000000700000001
 50
90.000003000000945
 51
270.0
  0
ARC
  5
3316
  8
AM_0
 10
566.73311610272026
 20
285.19889422118638
 30
0.0
 40
20.000000700000001
 50
270.0
 51
90.000003000000945
  0
ARC
  5
3317
  8
AM_0
 10
566.73311610272026
 20
272.69889322118649
 30
0.0
 40
42.500000999999997
 50
0.0
 51
180.00001
  0
LINE
  5
3318
  8
ﾁｭｳｼﾝｾﾝ1
 10
566.73311610272026
 20
200.69889022118639
 30
0.0
 11
566.73311610272026
 21
330.37834087863598
 31
0.0
  0
LINE
  5
3319
  8
AM_0
 10
496.73311710272031
 20
210.1988762211862
 30
0.0
 11
506.85784710272031
 21
300.42905722118638
 31
0.0
  0
LINE
  5
331A
  8
AM_0
 10
496.73314710272001
 20
210.19886122118641
 30
0.0
 11
507.4807971027202
 21
277.64133622118641
 31
0.0
  0
LINE
  5
331B
  8
AM_0
 10
514.73311410272015
 20
292.43430622118638
 30
0.0
 11
514.73311410272015
 21
250.19889322118641
 31
0.0
  0
ARC
  5
331C
  8
AM_0
 10
566.73311610272026
 20
285.19889422118638
 30
0.0
 40
9.5000003999999993
 50
108.4084799999998
 51
71.591512000000805
  0
LINE
  5
331D
  8
AM_0
 10
636.73310310272029
 20
210.1988762211862
 30
0.0
 11
626.60837610272029
 21
300.42908722118631
 31
0.0
  0
LINE
  5
331E
  8
AM_0
 10
636.73311810272025
 20
210.19886122118641
 30
0.0
 11
625.98545010272005
 21
277.64133622118641
 31
0.0
  0
LINE
  5
331F
  8
AM_0
 10
618.73311510272015
 20
292.43430622118638
 30
0.0
 11
618.73311510272015
 21
250.19889322118641
 31
0.0
  0
LINE
  5
3320
  8
AM_0
 10
399.87423860130821
 20
275.69889322118621
 30
0.0
 11
399.87423860130821
 21
297.19889322118632
 31
0.0
  0
LINE
  5
3321
  8
AM_0
 10
371.8742186013086
 20
275.19889222118638
 30
0.0
 11
371.8742186013086
 21
285.19889422118638
 31
0.0
  0
LINE
  5
3322
  8
AM_0
 10
344.87424860130852
 20
215.19887722118639
 30
0.0
 11
344.87424860130852
 21
293.11631422118643
 31
0.0
  0
LINE
  5
3323
  8
AM_0
 10
357.87423860130821
 20
322.07119822118631
 30
0.0
 11
357.87423860130821
 21
236.96631622118639
 31
0.0
  0
LINE
  5
3324
  8
AM_0
 10
367.87419860130848
 20
313.19890822118617
 30
0.0
 11
367.87419860130848
 21
213.3892892211864
 31
0.0
  0
LINE
  5
3325
  8
AM_0
 10
369.87423860130821
 20
304.22473822118639
 30
0.0
 11
369.87423860130821
 21
266.1730442211865
 31
0.0
  0
LINE
  5
3326
  8
AM_0
 10
498.23311710272031
 20
210.19889122118639
 30
0.0
 11
509.23312710272018
 21
210.19889122118639
 31
0.0
  0
LINE
  5
3327
  8
AM_0
 10
496.73311710272031
 20
200.19887722118639
 30
0.0
 11
526.73311410272015
 21
200.19887722118639
 31
0.0
  0
ARC
  5
3328
  8
AM_0
 10
352.87419860130848
 20
236.96631622118639
 30
0.0
 40
5.0000001000000003
 50
270.0
 51
0.0
  0
LINE
  5
3329
  8
ﾁｭｳｼﾝｾﾝ1
 10
359.87421860130848
 20
197.59034122118649
 30
0.0
 11
359.87421860130848
 21
213.10116022118629
 31
0.0
  0
ARC
  5
332A
  8
AM_0
 10
372.87423860130821
 20
213.3892892211864
 30
0.0
 40
5.0000001000000003
 50
179.99998999999991
 51
226.18692999999939
  0
ARC
  5
332B
  8
AM_0
 10
349.87419860130859
 20
215.19887722118639
 30
0.0
 40
5.0000001000000003
 50
180.00001
 51
270.0
  0
LINE
  5
332C
  8
AM_0
 10
368.37423860130821
 20
210.19889122118639
 30
0.0
 11
349.87419860130859
 21
210.19889122118639
 31
0.0
  0
LINE
  5
332D
  8
AM_0
 10
349.87419860130859
 20
200.19887722118639
 30
0.0
 11
369.87423860130821
 21
200.19887722118639
 31
0.0
  0
LINE
  5
332E
  8
AM_0
 10
349.87419860130859
 20
200.19887722118639
 30
0.0
 11
349.87419860130859
 21
200.19887722118639
 31
0.0
  0
ARC
  5
332F
  8
AM_0
 10
348.87423860130821
 20
200.19887722118639
 30
0.0
 40
1.0000000199999981
 50
0.0
 51
90.000003000000945
  0
LINE
  5
3330
  8
AM_0
 10
369.87423860130821
 20
200.19887722118639
 30
0.0
 11
369.87423860130821
 21
208.69889122118639
 31
0.0
  0
ARC
  5
3331
  8
AM_0
 10
368.37423860130821
 20
208.69889122118639
 30
0.0
 40
1.5000000299999969
 50
0.0
 51
90.000003000000945
  0
LINE
  5
3332
  8
AM_0
 10
352.87419860130848
 20
231.96630322118639
 30
0.0
 11
344.87424860130852
 21
231.96630322118639
 31
0.0
  0
LINE
  5
3333
  8
AM_0
 10
371.8742186013086
 20
275.69889322118621
 30
0.0
 11
399.87423860130821
 21
275.69889322118621
 31
0.0
  0
ARC
  5
3334
  8
AM_0
 10
368.87424860130852
 20
264.1723412211864
 30
0.0
 40
1.0000000199999981
 50
91.500001000001546
 51
180.00001
  0
LINE
  5
3335
  8
AM_0
 10
368.84805860130848
 20
265.1720072211865
 30
0.0
 11
368.9003786013082
 21
265.17338122118639
 31
0.0
  0
ARC
  5
3336
  8
AM_0
 10
368.87424860130852
 20
266.1730442211865
 30
0.0
 40
1.0000000199999981
 50
271.4999999999992
 51
0.0
  0
LINE
  5
3337
  8
AM_0
 10
369.87423860130821
 20
275.19889222118638
 30
0.0
 11
371.8742186013086
 21
275.19889222118638
 31
0.0
  0
LINE
  5
3338
  8
AM_0
 10
496.73311710272031
 20
210.19889122118639
 30
0.0
 11
496.73311710272031
 21
200.19887722118639
 31
0.0
  0
ARC
  5
3339
  8
AM_0
 10
498.23311710272031
 20
208.69889122118639
 30
0.0
 40
1.5000000299999969
 50
90.000003000000945
 51
180.00001
  0
LINE
  5
333A
  8
AM_0
 10
605.73311610272015
 20
201.19889122118639
 30
0.0
 11
566.73311610272026
 21
201.19889122118639
 31
0.0
  0
LINE
  5
333B
  8
AM_0
 10
596.73311610272015
 20
219.69887722118639
 30
0.0
 11
536.73311310272015
 21
219.69887722118639
 31
0.0
  0
LINE
  5
333C
  8
ﾁｭｳｼﾝｾﾝ1
 10
628.46795010272035
 20
268.19889322118649
 30
0.0
 11
505.22860710272028
 21
268.19889322118649
 31
0.0
  0
LINE
  5
333D
  8
AM_0
 10
524.23311510272015
 20
272.69889322118649
 30
0.0
 11
524.23311510272015
 21
213.19889122118639
 31
0.0
  0
ARC
  5
333E
  8
AM_0
 10
546.73311510272015
 20
250.19889322118641
 30
0.0
 40
32.000000999999997
 50
179.99998999999991
 51
225.3217400000002
  0
LINE
  5
333F
  8
AM_0
 10
542.62407510272021
 20
215.76796822118641
 30
0.0
 11
537.62407410272033
 21
212.88121822118649
 31
0.0
  0
LINE
  5
3340
  8
AM_0
 10
537.62404410271995
 20
207.1077212211863
 30
0.0
 11
542.62404510272029
 21
204.2209712211862
 31
0.0
  0
CIRCLE
  5
3341
  8
AM_0
 10
542.62404510272029
 20
209.99450122118631
 30
0.0
 40
4.9999998000000003
  0
LINE
  5
3342
  8
AM_0
 10
527.73311310272015
 20
201.19889122118639
 30
0.0
 11
566.73311610272026
 21
201.19889122118639
 31
0.0
  0
ARC
  5
3343
  8
AM_0
 10
521.23311210272027
 20
213.19889122118639
 30
0.0
 40
3.0
 50
270.0
 51
0.0
  0
LINE
  5
3344
  8
AM_0
 10
531.73311510272015
 20
214.69889122118639
 30
0.0
 11
531.73311510272015
 21
205.69889122118639
 31
0.0
  0
LINE
  5
3345
  8
AM_0
 10
537.62407410272033
 20
212.88124822118641
 30
0.0
 11
537.62407410272033
 21
207.1077212211863
 31
0.0
  0
LINE
  5
3346
  8
ﾁｭｳｼﾝｾﾝ1
 10
509.23312710272018
 20
213.10116022118629
 30
0.0
 11
509.23312710272018
 21
197.59034122118649
 31
0.0
  0
LINE
  5
3347
  8
AM_0
 10
509.23312710272018
 20
210.19889122118639
 30
0.0
 11
524.73311310272015
 21
210.19889122118639
 31
0.0
  0
LINE
  5
3348
  8
AM_0
 10
526.73311410272015
 20
208.19889022118639
 30
0.0
 11
526.73311410272015
 21
200.19887722118639
 31
0.0
  0
ARC
  5
3349
  8
AM_0
 10
527.73311310272015
 20
200.19887722118639
 30
0.0
 40
1.0000000199999981
 50
90.000003000000945
 51
180.00001
  0
ARC
  5
334A
  8
AM_0
 10
528.73311510272015
 20
205.69889122118639
 30
0.0
 40
3.0
 50
270.0
 51
0.0
  0
ARC
  5
334B
  8
AM_0
 10
527.73311310272015
 20
201.69887722118639
 30
0.0
 40
1.0000000199999981
 50
90.000003000000945
 51
180.00001
  0
LINE
  5
334C
  8
AM_0
 10
527.73311310272015
 20
202.69889122118639
 30
0.0
 11
528.73311510272015
 21
202.69889122118639
 31
0.0
  0
ARC
  5
334D
  8
AM_0
 10
524.73311310272015
 20
208.19889022118639
 30
0.0
 40
2.00000007
 50
0.0
 51
90.000003000000945
  0
ARC
  5
334E
  8
AM_0
 10
536.73311310272015
 20
214.69889122118639
 30
0.0
 40
5.0000001000000003
 50
90.000003000000945
 51
180.00001
  0
ARC
  5
334F
  8
AM_0
 10
566.73311610272026
 20
216.19889122118639
 30
0.0
 40
6.0000002999999991
 50
176.81526999999991
 51
3.1847360000000231
  0
LINE
  5
3350
  8
AM_0
 10
547.62404310272018
 20
207.1077212211863
 30
0.0
 11
547.62404310272018
 21
212.88124822118641
 31
0.0
  0
LINE
  5
3351
  8
AM_0
 10
542.62407510272021
 20
204.2209712211862
 30
0.0
 11
547.62407610272032
 21
207.1077212211863
 31
0.0
  0
ARC
  5
3352
  8
AM_0
 10
557.74700010272022
 20
216.69887722118651
 30
0.0
 40
3.0
 50
356.81526000000002
 51
90.000003000000945
  0
LINE
  5
3353
  8
AM_0
 10
547.62404310272018
 20
212.88121822118649
 30
0.0
 11
542.62404510272029
 21
215.76796822118641
 31
0.0
  0
ARC
  5
3354
  8
AM_0
 10
575.71921410272012
 20
216.69887722118651
 30
0.0
 40
3.0
 50
90.000003000000945
 51
183.18473999999981
  0
ARC
  5
3355
  8
AM_0
 10
566.73311610272026
 20
268.19889322118649
 30
0.0
 40
60.000002999999992
 50
171.12478999999979
 51
172.4492599999999
  0
LINE
  5
3356
  8
AM_0
 10
609.23310210272007
 20
272.69889322118649
 30
0.0
 11
609.23310210272007
 21
213.19889122118639
 31
0.0
  0
ARC
  5
3357
  8
AM_0
 10
586.7330991027203
 20
250.19889322118641
 30
0.0
 40
32.000000999999997
 50
314.67825999999963
 51
0.0
  0
LINE
  5
3358
  8
AM_0
 10
635.23311810272025
 20
210.19889122118639
 30
0.0
 11
608.73311610272015
 21
210.19889122118639
 31
0.0
  0
LINE
  5
3359
  8
AM_0
 10
636.73311810272025
 20
200.19887722118639
 30
0.0
 11
606.73311510272015
 21
200.19887722118639
 31
0.0
  0
ARC
  5
335A
  8
AM_0
 10
612.23310210271995
 20
213.19889122118639
 30
0.0
 40
3.0
 50
179.99998999999991
 51
270.0
  0
LINE
  5
335B
  8
AM_0
 10
601.73310210271995
 20
214.69889122118639
 30
0.0
 11
601.73310210271995
 21
205.69889122118639
 31
0.0
  0
LINE
  5
335C
  8
AM_0
 10
595.84217010272016
 20
207.1077212211863
 30
0.0
 11
595.84217010272016
 21
212.88124822118641
 31
0.0
  0
LINE
  5
335D
  8
AM_0
 10
585.84215610272031
 20
212.88124822118641
 30
0.0
 11
585.84215610272031
 21
207.1077212211863
 31
0.0
  0
CIRCLE
  5
335E
  8
AM_0
 10
590.84216910272028
 20
209.99450122118631
 30
0.0
 40
4.9999998000000003
  0
LINE
  5
335F
  8
AM_0
 10
585.84217110272027
 20
207.1077212211863
 30
0.0
 11
590.84216910272028
 21
204.2209712211862
 31
0.0
  0
LINE
  5
3360
  8
AM_0
 10
590.84216910272028
 20
204.2209712211862
 30
0.0
 11
595.84218510272012
 21
207.1077212211863
 31
0.0
  0
LINE
  5
3361
  8
AM_0
 10
606.73311510272015
 20
200.19887722118639
 30
0.0
 11
606.73311510272015
 21
208.19889022118639
 31
0.0
  0
LINE
  5
3362
  8
ｶｸﾚｾﾝ2
 10
619.23311610272015
 20
210.19889122118639
 30
0.0
 11
619.23311610272015
 21
200.19887722118639
 31
0.0
  0
ARC
  5
3363
  8
AM_0
 10
605.73311610272015
 20
200.19887722118639
 30
0.0
 40
1.0000000199999981
 50
0.0
 51
90.000003000000945
  0
ARC
  5
3364
  8
AM_0
 10
605.73311610272015
 20
201.69887722118639
 30
0.0
 40
1.0000000199999981
 50
0.0
 51
90.000003000000945
  0
LINE
  5
3365
  8
AM_0
 10
605.73311610272015
 20
202.69889122118639
 30
0.0
 11
604.73310210272007
 21
202.69889122118639
 31
0.0
  0
ARC
  5
3366
  8
AM_0
 10
604.73310210272007
 20
205.69889122118639
 30
0.0
 40
3.0
 50
179.99998999999991
 51
270.0
  0
ARC
  5
3367
  8
AM_0
 10
608.73311610272015
 20
208.19889022118639
 30
0.0
 40
2.00000007
 50
90.000003000000945
 51
180.00001
  0
ARC
  5
3368
  8
AM_0
 10
596.73311610272015
 20
214.69889122118639
 30
0.0
 40
5.0000001000000003
 50
0.0
 51
90.000003000000945
  0
LINE
  5
3369
  8
AM_0
 10
590.84218410272035
 20
215.76798322118651
 30
0.0
 11
585.84217110272027
 21
212.88123322118639
 31
0.0
  0
LINE
  5
336A
  8
AM_0
 10
595.84217010272016
 20
212.88121822118649
 30
0.0
 11
590.84216910272028
 21
215.76796822118641
 31
0.0
  0
LINE
  5
336B
  8
ﾁｭｳｼﾝｾﾝ1
 10
624.23310210271995
 20
213.13073122118629
 30
0.0
 11
624.23310210271995
 21
197.18755222118639
 31
0.0
  0
LINE
  5
336C
  8
AM_0
 10
636.73311810272025
 20
210.19889122118639
 30
0.0
 11
636.73311810272025
 21
200.19887722118639
 31
0.0
  0
LINE
  5
336D
  8
ｶｸﾚｾﾝ2
 10
629.23311810272025
 20
210.19889122118639
 30
0.0
 11
629.23311810272025
 21
200.19887722118639
 31
0.0
  0
ARC
  5
336E
  8
AM_0
 10
635.23311810272025
 20
208.69889122118639
 30
0.0
 40
1.5000000299999969
 50
0.0
 51
90.000003000000945
  0
LINE
  5
336F
  8
AM_0
 10
377.8742186013086
 20
297.19889322118632
 30
0.0
 11
399.87423860130821
 21
297.19889322118632
 31
0.0
  0
LINE
  5
3370
  8
AM_0
 10
371.8742186013086
 20
294.69889522118649
 30
0.0
 11
399.87423860130821
 21
294.69889522118649
 31
0.0
  0
ARC
  5
3371
  8
AM_0
 10
349.87419860130859
 20
293.11631422118643
 30
0.0
 40
5.0000001000000003
 50
90.000003000000945
 51
180.00001
  0
LINE
  5
3372
  8
AM_0
 10
357.87423860130821
 20
298.11631222118649
 30
0.0
 11
349.87419860130859
 21
298.11631222118649
 31
0.0
  0
LINE
  5
3373
  8
AM_0
 10
371.8742186013086
 20
295.19889322118649
 30
0.0
 11
371.8742186013086
 21
285.19889422118638
 31
0.0
  0
LINE
  5
3374
  8
AM_0
 10
377.8742186013086
 20
294.69889522118649
 30
0.0
 11
377.8742186013086
 21
297.19889322118632
 31
0.0
  0
LINE
  5
3375
  8
AM_0
 10
369.87423860130821
 20
295.19889322118649
 30
0.0
 11
371.8742186013086
 21
295.19889322118649
 31
0.0
  0
ARC
  5
3376
  8
AM_0
 10
362.87424860130852
 20
320.19886822118627
 30
0.0
 40
5.0000001000000003
 50
180.00001
 51
270.0
  0
ARC
  5
3377
  8
AM_0
 10
352.87419860130848
 20
306.72028822118631
 30
0.0
 40
5.0000001000000003
 50
0.0
 51
90.000003000000945
  0
ARC
  5
3378
  8
AM_0
 10
368.87424860130852
 20
306.2254082211864
 30
0.0
 40
1.0000000199999981
 50
179.99998999999991
 51
268.50000999999872
  0
LINE
  5
3379
  8
AM_0
 10
368.84805860130848
 20
305.22574822118639
 30
0.0
 11
368.9004086013083
 21
305.22436822118618
 31
0.0
  0
ARC
  5
337A
  8
AM_0
 10
368.87424860130852
 20
304.22473822118639
 30
0.0
 40
1.0000000199999981
 50
0.0
 51
88.499997000000747
  0
LINE
  5
337B
  8
AM_0
 10
362.87424860130852
 20
315.19888822118651
 30
0.0
 11
365.87424860130852
 21
315.19888822118651
 31
0.0
  0
ARC
  5
337C
  8
AM_0
 10
365.87424860130852
 20
313.19890822118617
 30
0.0
 40
2.00000007
 50
0.0
 51
90.000003000000945
  0
ARC
  5
337D
  8
AM_0
 10
352.87419860130848
 20
322.07119822118631
 30
0.0
 40
5.0000001000000003
 50
0.0
 51
88.499997000000747
  0
LINE
  5
337E
  8
ﾁｭｳｼﾝｾﾝ1
 10
538.50123712547747
 20
285.19889422118638
 30
0.0
 11
594.96499507996305
 21
285.19889422118638
 31
0.0
  0
ARC
  5
337F
  8
AM_0
 10
566.73311610272026
 20
223.19889022118639
 30
0.0
 40
105.00000299999969
 50
61.927515000000341
 51
118.0724800000002
  0
ARC
  5
3380
  8
AM_0
 10
566.73311610272026
 20
268.19889322118649
 30
0.0
 40
60.000002999999992
 50
48.330845000001041
 51
131.66915
  0
ARC
  5
3381
  8
AM_0
 10
528.99947010272035
 20
315.80653822118632
 30
0.0
 40
5.0000001000000003
 50
112.16879999999981
 51
210.15778999999901
  0
ARC
  5
3382
  8
AM_0
 10
515.1651501027203
 20
307.76836822118628
 30
0.0
 40
11.000000399999999
 50
254.83635999999959
 51
30.157794999999979
  0
ARC
  5
3383
  8
AM_0
 10
566.73311610272026
 20
268.19889322118649
 30
0.0
 40
60.000002999999992
 50
153.3308499999994
 51
170.94545999999971
  0
ARC
  5
3384
  8
AM_0
 10
510.97994010272021
 20
292.32545122118643
 30
0.0
 40
5.0000001000000003
 50
74.836354000000199
 51
173.59761999999981
  0
ARC
  5
3385
  8
AM_0
 10
515.7971691027202
 20
293.7826352211863
 30
0.0
 40
3.0
 50
92.587449000000873
 51
153.3308499999994
  0
ARC
  5
3386
  8
AM_0
 10
519.73311210272016
 20
292.43430622118638
 30
0.0
 40
5.0000001000000003
 50
106.5886099999999
 51
180.00001
  0
LINE
  5
3387
  8
AM_0
 10
516.75185010272037
 20
300.77738422118631
 30
0.0
 11
521.75185110272025
 21
303.66413422118632
 31
0.0
  0
CIRCLE
  5
3388
  8
AM_0
 10
516.75185010272037
 20
306.5508482211863
 30
0.0
 40
4.9999998000000003
  0
LINE
  5
3389
  8
AM_0
 10
521.75182110272033
 20
309.43759822118648
 30
0.0
 11
516.75185010272037
 21
312.32434822118648
 31
0.0
  0
ARC
  5
338A
  8
AM_0
 10
526.73311410272015
 20
298.19889322118638
 30
0.0
 40
20.000000700000001
 50
118.0724800000002
 51
173.59761999999981
  0
LINE
  5
338B
  8
AM_0
 10
516.75185010272037
 20
312.32437822118618
 30
0.0
 11
511.75185210272042
 21
309.43762822118617
 31
0.0
  0
LINE
  5
338C
  8
AM_0
 10
511.75185210272042
 20
303.66410422118639
 30
0.0
 11
516.75185010272037
 21
300.77735422118639
 31
0.0
  0
LINE
  5
338D
  8
AM_0
 10
511.75185210272042
 20
309.43759822118648
 30
0.0
 11
511.75185210272042
 21
303.66410422118639
 31
0.0
  0
LINE
  5
338E
  8
AM_0
 10
521.75185110272025
 20
303.66410422118639
 30
0.0
 11
521.75185110272025
 21
309.43759822118648
 31
0.0
  0
ARC
  5
338F
  8
AM_0
 10
528.83791110272034
 20
310.77766822118627
 30
0.0
 40
3.0
 50
131.66915
 51
192.4125499999997
  0
CIRCLE
  5
3390
  8
AM_0
 10
566.73311610272026
 20
285.19889422118638
 30
0.0
 40
2.4999998400000001
  0
CIRCLE
  5
3391
  8
AM_4
 10
566.73311610272026
 20
285.19889422118638
 30
0.0
 40
3.0
  0
LINE
  5
3392
  8
AM_0
 10
569.73311610272037
 20
291.19889422118632
 30
0.0
 11
569.73311610272037
 21
297.19889422118649
 31
0.0
  0
LINE
  5
3393
  8
AM_0
 10
563.73311610272015
 20
297.19889422118649
 30
0.0
 11
563.73311610272015
 21
291.19889422118632
 31
0.0
  0
LINE
  5
3394
  8
AM_0
 10
563.73311610272015
 20
291.19889422118632
 30
0.0
 11
569.73311610272037
 21
291.19889422118632
 31
0.0
  0
LINE
  5
3395
  8
AM_0
 10
569.73311610272037
 20
297.19889422118649
 30
0.0
 11
563.73311610272015
 21
297.19889422118649
 31
0.0
  0
ARC
  5
3396
  8
AM_0
 10
604.46675910271995
 20
315.80653822118632
 30
0.0
 40
5.0000001000000003
 50
329.84219999999942
 51
67.831203000001111
  0
CIRCLE
  5
3397
  8
AM_0
 10
616.71436410272031
 20
306.5508482211863
 30
0.0
 40
4.9999998000000003
  0
LINE
  5
3398
  8
AM_0
 10
616.71437910272027
 20
300.77735422118639
 30
0.0
 11
621.71438010272016
 21
303.66410422118639
 31
0.0
  0
ARC
  5
3399
  8
AM_0
 10
606.73311510272015
 20
298.19889322118638
 30
0.0
 40
20.000000700000001
 50
6.4023798000000252
 51
61.927515000000341
  0
LINE
  5
339A
  8
AM_0
 10
621.71436210272032
 20
309.43759822118648
 30
0.0
 11
616.71436410272031
 21
312.32434822118648
 31
0.0
  0
ARC
  5
339B
  8
AM_0
 10
617.66907510272006
 20
293.7826352211863
 30
0.0
 40
3.0
 50
26.669156999999998
 51
87.41254899999926
  0
ARC
  5
339C
  8
AM_0
 10
618.30107910272034
 20
307.76836822118628
 30
0.0
 40
11.000000399999999
 50
149.84221000000079
 51
285.1636500000003
  0
ARC
  5
339D
  8
AM_0
 10
613.73310210271995
 20
292.43430622118638
 30
0.0
 40
5.0000001000000003
 50
0.0
 51
73.411384999998432
  0
LINE
  5
339E
  8
AM_0
 10
616.71437910272027
 20
312.32434822118648
 30
0.0
 11
611.71437810272005
 21
309.43759822118648
 31
0.0
  0
LINE
  5
339F
  8
AM_0
 10
611.71436310272031
 20
303.66410422118639
 30
0.0
 11
616.71436410272031
 21
300.77735422118639
 31
0.0
  0
LINE
  5
33A0
  8
AM_0
 10
611.71436310272031
 20
309.43759822118648
 30
0.0
 11
611.71436310272031
 21
303.66410422118639
 31
0.0
  0
ARC
  5
33A1
  8
AM_0
 10
604.62831810272007
 20
310.77766822118627
 30
0.0
 40
3.0
 50
347.58745000000022
 51
48.330845000001041
  0
ARC
  5
33A2
  8
AM_0
 10
566.73311610272026
 20
268.19889322118649
 30
0.0
 40
60.000002999999992
 50
9.0545419000001992
 51
26.669156999999998
  0
ARC
  5
33A3
  8
AM_0
 10
622.48630710272005
 20
292.32545122118643
 30
0.0
 40
5.0000001000000003
 50
6.4023798000000252
 51
105.1636400000004
  0
LINE
  5
33A4
  8
AM_0
 10
621.71438010272016
 20
303.66410422118639
 30
0.0
 11
621.71438010272016
 21
309.43759822118648
 31
0.0
  0
LINE
  5
33A5
  8
AM_0
 10
285.87423860130832
 20
300.13633222118619
 30
0.0
 11
275.87423860130832
 21
300.13633222118619
 31
0.0
  0
LINE
  5
33A6
  8
AM_0
 10
285.87423860130832
 20
314.19889822118643
 30
0.0
 11
275.87423860130832
 21
314.19889822118643
 31
0.0
  0
LINE
  5
33A7
  8
AM_0
 10
285.87423860130832
 20
222.19889122118639
 30
0.0
 11
275.87423860130832
 21
222.19889122118639
 31
0.0
  0
LINE
  5
33A8
  8
AM_0
 10
285.87423860130832
 20
236.2614542211864
 30
0.0
 11
275.87423860130832
 21
236.2614542211864
 31
0.0
  0
LINE
  5
33A9
  8
ﾁｭｳｼﾝｾﾝ1
 10
198.0332026960194
 20
479.56968796910257
 30
0.0
 11
405.23803860130818
 21
479.56968796910257
 31
0.0
  0
ARC
  5
33AA
  8
AM_0
 10
402.87423860130832
 20
479.56968796910257
 30
0.0
 40
80.0
 50
148.90067999999891
 51
211.0993000000004
  0
LINE
  5
33AB
  8
AM_0
 10
285.87423860130832
 20
423.0696879691028
 30
0.0
 11
285.87423860130832
 21
536.06971796910295
 31
0.0
  0
LINE
  5
33AC
  8
AM_0
 10
303.87423860130832
 20
421.67514796910251
 30
0.0
 11
303.87423860130832
 21
537.46427796910257
 31
0.0
  0
LINE
  5
33AD
  8
AM_0
 10
322.87423860130832
 20
436.83606796910271
 30
0.0
 11
322.87423860130832
 21
522.30335796910299
 31
0.0
  0
LINE
  5
33AE
  8
AM_0
 10
309.87423860130832
 20
419.5696879691028
 30
0.0
 11
309.87423860130832
 21
539.56971796910295
 31
0.0
  0
LINE
  5
33AF
  8
AM_0
 10
367.87423860130821
 20
518.80680796910281
 30
0.0
 11
367.87423860130821
 21
437.12778796910271
 31
0.0
  0
LINE
  5
33B0
  8
AM_0
 10
354.87423860130838
 20
430.75403796910302
 30
0.0
 11
354.87423860130838
 21
528.38535796910287
 31
0.0
  0
LINE
  5
33B1
  8
AM_0
 10
369.87423860130821
 20
498.59555796910291
 30
0.0
 11
369.87423860130821
 21
460.54386796910279
 31
0.0
  0
LINE
  5
33B2
  8
AM_0
 10
354.87423860130838
 20
438.96378796910278
 30
0.0
 11
334.37234860130849
 21
438.24784796910279
 31
0.0
  0
LINE
  5
33B3
  8
AM_0
 10
365.00515860130849
 20
411.01334796910271
 30
0.0
 11
309.87426860130819
 21
409.56968796910257
 31
0.0
  0
LINE
  5
33B4
  8
AM_0
 10
349.7433486013083
 20
427.6971879691028
 30
0.0
 11
351.95278860130838
 21
427.75504796910258
 31
0.0
  0
ARC
  5
33B5
  8
AM_0
 10
305.87423860130832
 20
421.67514796910251
 30
0.0
 40
2.0
 50
180.00001000000091
 51
268.5000000000004
  0
LINE
  5
33B6
  8
AM_0
 10
309.87423860130832
 20
409.56971796910273
 30
0.0
 11
291.74337860130851
 21
410.0444779691025
 31
0.0
  0
LINE
  5
33B7
  8
AM_0
 10
294.87423860130832
 20
431.38541796910272
 30
0.0
 11
294.87423860130832
 21
424.53675796910272
 31
0.0
  0
ARC
  5
33B8
  8
AM_0
 10
291.87423860130832
 20
415.04276796910273
 30
0.0
 40
5.0
 50
180.00001000000091
 51
268.5000000000004
  0
ARC
  5
33B9
  8
AM_0
 10
296.87423860130832
 20
422.06968796910257
 30
0.0
 40
5.0
 50
170.31658999999851
 51
3.8501329999991381
  0
ARC
  5
33BA
  8
ｶｸﾚｾﾝ2
 10
296.87423860130832
 20
422.06968796910257
 30
0.0
 40
5.0
 50
3.8501272999993961
 51
170.31658999999851
  0
LINE
  5
33BB
  8
AM_0
 10
285.8742686013083
 20
423.06971796910273
 30
0.0
 11
295.86859860130801
 21
422.80799796910281
 31
0.0
  0
LINE
  5
33BC
  8
AM_0
 10
286.87423860130832
 20
415.04276796910273
 30
0.0
 11
286.87423860130832
 21
423.04349796910259
 31
0.0
  0
LINE
  5
33BD
  8
AM_0
 10
296.82189860130819
 20
422.53745796910277
 30
0.0
 11
302.50289860130812
 21
422.38868796910259
 31
0.0
  0
ARC
  5
33BE
  8
AM_0
 10
296.87423860130832
 20
424.53675796910272
 30
0.0
 40
2.0
 50
180.00001000000091
 51
268.5000000000004
  0
ARC
  5
33BF
  8
AM_0
 10
302.46365860130823
 20
420.88919796910301
 30
0.0
 40
1.5
 50
12.976653000001519
 51
88.499997000000747
  0
ARC
  5
33C0
  8
AM_0
 10
301.87423860130832
 20
445.62973796910291
 30
0.0
 40
2.0
 50
0.0
 51
90.000003000000945
  0
ARC
  5
33C1
  8
AM_0
 10
292.87423860130832
 20
431.38541796910272
 30
0.0
 40
2.0
 50
0.0
 51
88.499997000000747
  0
LINE
  5
33C2
  8
AM_0
 10
285.8742686013083
 20
433.56940796910288
 30
0.0
 11
301.92660860130849
 21
433.14905796910278
 31
0.0
  0
ARC
  5
33C3
  8
AM_0
 10
301.87423860130832
 20
431.14975796910272
 30
0.0
 40
2.0
 50
0.0
 51
88.499997000000747
  0
LINE
  5
33C4
  8
AM_0
 10
285.87423860130832
 20
447.62973796910251
 30
0.0
 11
301.87423860130832
 21
447.62973796910251
 31
0.0
  0
LINE
  5
33C5
  8
AM_0
 10
321.87423860130832
 20
435.86194796910303
 30
0.0
 11
321.87423860130832
 21
423.31495796910281
 31
0.0
  0
LINE
  5
33C6
  8
AM_0
 10
325.87423860130832
 20
424.81495796910292
 30
0.0
 11
325.87423860130832
 21
434.36197796910272
 31
0.0
  0
LINE
  5
33C7
  8
AM_0
 10
320.87423860130832
 20
436.83606796910271
 30
0.0
 11
320.87423860130832
 21
420.18802796910251
 31
0.0
  0
LINE
  5
33C8
  8
AM_0
 10
329.8372786013083
 20
425.03254796910272
 30
0.0
 11
323.07369860130831
 21
421.12760796910271
 31
0.0
  0
LINE
  5
33C9
  8
AM_0
 10
308.87423860130838
 20
410.57004796910257
 30
0.0
 11
308.87423860130838
 21
412.57071796910259
 31
0.0
  0
LINE
  5
33CA
  8
AM_0
 10
312.87423860130832
 20
411.59659796910262
 30
0.0
 11
312.87423860130832
 21
417.59519796910303
 31
0.0
  0
ARC
  5
33CB
  8
AM_0
 10
309.87423860130832
 20
410.57004796910257
 30
0.0
 40
1.0
 50
180.00001000000091
 51
268.5000000000004
  0
ARC
  5
33CC
  8
AM_0
 10
310.87423860130838
 20
411.59659796910262
 30
0.0
 40
2.0
 50
271.4999999999992
 51
0.0
  0
LINE
  5
33CD
  8
AM_0
 10
309.87423860130832
 20
424.04337796910272
 30
0.0
 11
320.87423860130832
 21
424.04337796910272
 31
0.0
  0
LINE
  5
33CE
  8
AM_0
 10
309.87423860130832
 20
419.56971796910278
 30
0.0
 11
318.33544860130843
 21
419.79126796910271
 31
0.0
  0
LINE
  5
33CF
  8
AM_0
 10
311.84808860130818
 20
413.51938796910281
 30
0.0
 11
309.90042860130831
 21
413.57041796910272
 31
0.0
  0
ARC
  5
33D0
  8
AM_0
 10
309.87423860130832
 20
412.57071796910259
 30
0.0
 40
1.0
 50
88.499997000000747
 51
180.00001000000091
  0
LINE
  5
33D1
  8
AM_0
 10
309.87426860130819
 20
419.5696879691028
 30
0.0
 11
305.82192860130851
 21
419.67582796910273
 31
0.0
  0
ARC
  5
33D2
  8
AM_0
 10
311.87423860130832
 20
414.51905796910251
 30
0.0
 40
1.0
 50
268.5000000000004
 51
0.0000006832462478
  0
ARC
  5
33D3
  8
AM_0
 10
310.87423860130838
 20
417.59519796910303
 30
0.0
 40
2.0
 50
0.0
 51
91.500001000001546
  0
ARC
  5
33D4
  8
AM_0
 10
318.07369860130831
 20
429.78782796910281
 30
0.0
 40
10.0
 50
271.4999999999992
 51
300.00001000000083
  0
LINE
  5
33D5
  8
AM_0
 10
321.87423860130832
 20
426.70169796910272
 30
0.0
 11
324.87423860130832
 21
426.70169796910272
 31
0.0
  0
LINE
  5
33D6
  8
AM_0
 10
321.87423860130832
 20
423.81492796910271
 30
0.0
 11
324.87423860130832
 21
423.81492796910271
 31
0.0
  0
LINE
  5
33D7
  8
AM_0
 10
320.87423860130832
 20
423.31495796910281
 30
0.0
 11
321.87423860130832
 21
423.31495796910281
 31
0.0
  0
ARC
  5
33D8
  8
AM_0
 10
324.87423860130832
 20
425.70169796910272
 30
0.0
 40
1.0
 50
0.0
 51
90.000003000000945
  0
ARC
  5
33D9
  8
AM_0
 10
324.87423860130832
 20
424.81495796910292
 30
0.0
 40
1.0
 50
269.999989999999
 51
0.0000006832462478
  0
ARC
  5
33DA
  8
AM_0
 10
324.87423860130832
 20
427.70169796910272
 30
0.0
 40
1.0
 50
269.999989999999
 51
0.0000006832462478
  0
ARC
  5
33DB
  8
AM_0
 10
347.87423860130821
 20
413.56577796910278
 30
0.0
 40
3.0
 50
180.00001000000091
 51
271.4999999999992
  0
LINE
  5
33DC
  8
AM_0
 10
346.86321860130818
 20
426.69065796910292
 30
0.0
 11
334.57549860130831
 21
426.3688779691027
 31
0.0
  0
ARC
  5
33DD
  8
AM_0
 10
334.83724860130832
 20
416.37229796910259
 30
0.0
 40
10.0
 50
91.500001000001546
 51
120.0000000000005
  0
LINE
  5
33DE
  8
AM_0
 10
344.87423860130821
 20
413.56577796910278
 30
0.0
 11
344.87423860130821
 21
422.69892796910278
 31
0.0
  0
ARC
  5
33DF
  8
AM_0
 10
349.87423860130821
 20
422.69892796910278
 30
0.0
 40
5.0
 50
91.500001000001546
 51
180.00001000000091
  0
LINE
  5
33E0
  8
AM_0
 10
334.37234860130849
 20
438.24787796910277
 30
0.0
 11
322.87423860130832
 21
436.83606796910271
 31
0.0
  0
LINE
  5
33E1
  8
AM_0
 10
321.87423860130832
 20
432.47519796910262
 30
0.0
 11
324.87423860130832
 21
432.47519796910262
 31
0.0
  0
LINE
  5
33E2
  8
AM_0
 10
321.87423860130832
 20
435.36197796910278
 30
0.0
 11
324.87423860130832
 21
435.36197796910278
 31
0.0
  0
LINE
  5
33E3
  8
AM_0
 10
320.87423860130832
 20
436.83606796910271
 30
0.0
 11
322.87423860130832
 21
436.83606796910271
 31
0.0
  0
LINE
  5
33E4
  8
AM_0
 10
320.87423860130832
 20
435.86194796910303
 30
0.0
 11
321.87423860130832
 21
435.86194796910303
 31
0.0
  0
ARC
  5
33E5
  8
AM_0
 10
324.87423860130832
 20
434.36197796910272
 30
0.0
 40
1.0
 50
0.0
 51
90.000003000000945
  0
ARC
  5
33E6
  8
AM_0
 10
324.87423860130832
 20
431.47519796910279
 30
0.0
 40
1.0
 50
0.0
 51
90.000003000000945
  0
ARC
  5
33E7
  8
AM_0
 10
324.87423860130832
 20
433.47519796910262
 30
0.0
 40
1.0
 50
269.999989999999
 51
0.0000006832462478
  0
ARC
  5
33E8
  8
AM_0
 10
351.87423860130821
 20
430.75403796910302
 30
0.0
 40
3.0
 50
271.4999999999992
 51
0.0
  0
LINE
  5
33E9
  8
AM_0
 10
369.87423860130821
 20
416.01163796910288
 30
0.0
 11
369.87423860130821
 21
433.12778796910271
 31
0.0
  0
ARC
  5
33EA
  8
AM_0
 10
364.87423860130821
 20
416.01163796910288
 30
0.0
 40
5.0
 50
271.4999999999992
 51
0.0
  0
CIRCLE
  5
33EB
  8
AM_0
 10
359.87423860130821
 20
422.06968796910257
 30
0.0
 40
5.0
  0
LINE
  5
33EC
  8
AM_0
 10
359.74337860130839
 20
437.19721796910272
 30
0.0
 11
364.95278860130821
 21
437.33362796910262
 31
0.0
  0
ARC
  5
33ED
  8
AM_0
 10
359.87423860130821
 20
432.19892796910273
 30
0.0
 40
5.0
 50
91.500001000001546
 51
180.00001000000091
  0
ARC
  5
33EE
  8
AM_0
 10
364.87423860130821
 20
440.33258796910292
 30
0.0
 40
3.0
 50
271.4999999999992
 51
0.0
  0
ARC
  5
33EF
  8
AM_0
 10
364.87423860130821
 20
433.12778796910271
 30
0.0
 40
5.0
 50
0.0
 51
70.485339000000806
  0
ARC
  5
33F0
  8
AM_0
 10
368.87423860130821
 20
460.54386796910279
 30
0.0
 40
1.0
 50
271.4999999999992
 51
0.0
  0
ARC
  5
33F1
  8
AM_0
 10
368.87423860130821
 20
458.54319796910272
 30
0.0
 40
1.0
 50
91.500001000001546
 51
180.00001000000091
  0
LINE
  5
33F2
  8
AM_0
 10
368.84808860130818
 20
459.54282796910258
 30
0.0
 11
368.90042860130831
 21
459.5441979691027
 31
0.0
  0
LINE
  5
33F3
  8
AM_0
 10
354.87423860130838
 20
520.17560796910288
 30
0.0
 11
334.37237860130818
 21
520.89154796910282
 31
0.0
  0
LINE
  5
33F4
  8
AM_0
 10
365.00512860130817
 20
548.12607796910265
 30
0.0
 11
309.87426860130819
 21
549.56971796910295
 31
0.0
  0
LINE
  5
33F5
  8
AM_0
 10
349.74337860130822
 20
531.44220796910281
 30
0.0
 11
351.95278860130838
 21
531.38434796910281
 31
0.0
  0
ARC
  5
33F6
  8
AM_0
 10
296.87423860130832
 20
537.06971796910295
 30
0.0
 40
5.0
 50
356.1498700000015
 51
189.68341000000129
  0
ARC
  5
33F7
  8
ｶｸﾚｾﾝ2
 10
296.87423860130832
 20
537.06971796910295
 30
0.0
 40
5.0
 50
189.68341000000129
 51
356.14988000000108
  0
ARC
  5
33F8
  8
AM_0
 10
296.87423860130832
 20
534.60263796910283
 30
0.0
 40
2.0
 50
91.500001000001546
 51
180.00001000000091
  0
ARC
  5
33F9
  8
AM_0
 10
349.87423860130821
 20
536.44046796910288
 30
0.0
 40
5.0
 50
180.00001000000091
 51
268.5000000000004
  0
LINE
  5
33FA
  8
AM_0
 10
329.8372786013083
 20
534.10685796910298
 30
0.0
 11
323.07366860130838
 21
538.01181796910305
 31
0.0
  0
LINE
  5
33FB
  8
AM_0
 10
320.87423860130832
 20
522.30335796910299
 30
0.0
 11
320.87423860130832
 21
538.95139796910314
 31
0.0
  0
LINE
  5
33FC
  8
AM_0
 10
285.87423860130832
 20
511.50962796910272
 30
0.0
 11
301.87423860130832
 21
511.50962796910272
 31
0.0
  0
ARC
  5
33FD
  8
AM_0
 10
301.87423860130832
 20
513.50962796910289
 30
0.0
 40
2.0
 50
270.0
 51
0.0
  0
ARC
  5
33FE
  8
AM_0
 10
292.87423860130832
 20
527.75400796910287
 30
0.0
 40
2.0
 50
271.4999999999992
 51
0.0
  0
LINE
  5
33FF
  8
AM_0
 10
285.87423860130832
 20
525.57001796910299
 30
0.0
 11
301.92660860130849
 21
525.99033796910282
 31
0.0
  0
ARC
  5
3400
  8
AM_0
 10
301.87423860130832
 20
527.98966796910304
 30
0.0
 40
2.0
 50
271.4999999999992
 51
0.0
  0
LINE
  5
3401
  8
AM_0
 10
294.87423860130832
 20
527.75400796910287
 30
0.0
 11
294.87423860130832
 21
534.60263796910283
 31
0.0
  0
LINE
  5
3402
  8
AM_0
 10
334.37234860130849
 20
520.89154796910282
 30
0.0
 11
322.87423860130832
 21
522.30335796910299
 31
0.0
  0
LINE
  5
3403
  8
AM_0
 10
309.87423860130832
 20
535.09604796910276
 30
0.0
 11
320.87423860130832
 21
535.09604796910276
 31
0.0
  0
ARC
  5
3404
  8
AM_0
 10
324.87423860130832
 20
527.66422796910297
 30
0.0
 40
1.0
 50
269.999989999999
 51
0.0000006832462478
  0
LINE
  5
3405
  8
AM_0
 10
325.87423860130832
 20
534.32447796910265
 30
0.0
 11
325.87423860130832
 21
524.7774479691027
 31
0.0
  0
LINE
  5
3406
  8
AM_0
 10
321.87423860130832
 20
523.27744796910281
 30
0.0
 11
321.87423860130832
 21
535.82447796910287
 31
0.0
  0
LINE
  5
3407
  8
AM_0
 10
321.87423860130832
 20
523.77744796910281
 30
0.0
 11
324.87423860130832
 21
523.77744796910281
 31
0.0
  0
LINE
  5
3408
  8
AM_0
 10
321.87423860130832
 20
526.66419796910282
 30
0.0
 11
324.87423860130832
 21
526.66419796910282
 31
0.0
  0
LINE
  5
3409
  8
AM_0
 10
320.87423860130832
 20
522.30335796910299
 30
0.0
 11
322.87423860130832
 21
522.30335796910299
 31
0.0
  0
LINE
  5
340A
  8
AM_0
 10
320.87423860130832
 20
523.27744796910281
 30
0.0
 11
321.87423860130832
 21
523.27744796910281
 31
0.0
  0
ARC
  5
340B
  8
AM_0
 10
324.87423860130832
 20
525.66422796910285
 30
0.0
 40
1.0
 50
0.0
 51
90.000003000000945
  0
ARC
  5
340C
  8
AM_0
 10
324.87423860130832
 20
524.7774479691027
 30
0.0
 40
1.0
 50
269.999989999999
 51
0.0000006832462478
  0
LINE
  5
340D
  8
AM_0
 10
321.87423860130832
 20
535.32447796910287
 30
0.0
 11
324.87423860130832
 21
535.32447796910287
 31
0.0
  0
LINE
  5
340E
  8
AM_0
 10
321.87423860130832
 20
532.43772796910275
 30
0.0
 11
324.87423860130832
 21
532.43772796910275
 31
0.0
  0
LINE
  5
340F
  8
AM_0
 10
320.87423860130832
 20
535.82447796910287
 30
0.0
 11
321.87423860130832
 21
535.82447796910287
 31
0.0
  0
ARC
  5
3410
  8
AM_0
 10
324.87423860130832
 20
531.43772796910275
 30
0.0
 40
1.0
 50
0.0
 51
90.000003000000945
  0
ARC
  5
3411
  8
AM_0
 10
324.87423860130832
 20
534.32447796910265
 30
0.0
 40
1.0
 50
0.0
 51
90.000003000000945
  0
ARC
  5
3412
  8
AM_0
 10
324.87423860130832
 20
533.43772796910298
 30
0.0
 40
1.0
 50
269.999989999999
 51
0.0000006832462478
  0
LINE
  5
3413
  8
AM_0
 10
346.86321860130818
 20
532.44877796910282
 30
0.0
 11
334.57549860130831
 21
532.77054796910295
 31
0.0
  0
ARC
  5
3414
  8
AM_0
 10
334.83724860130832
 20
542.76712796910283
 30
0.0
 40
10.0
 50
239.99999999999949
 51
268.5000000000004
  0
ARC
  5
3415
  8
AM_0
 10
305.87423860130832
 20
537.46427796910257
 30
0.0
 40
2.0
 50
91.500001000001546
 51
180.00001000000091
  0
LINE
  5
3416
  8
AM_0
 10
309.87426860130819
 20
549.56968796910292
 30
0.0
 11
291.74337860130851
 21
549.09491796910265
 31
0.0
  0
LINE
  5
3417
  8
AM_0
 10
285.8742686013083
 20
536.06971796910295
 30
0.0
 11
295.86859860130801
 21
536.33139796910291
 31
0.0
  0
ARC
  5
3418
  8
AM_0
 10
291.87423860130832
 20
544.09665796910281
 30
0.0
 40
5.0
 50
91.500001000001546
 51
180.00001000000091
  0
LINE
  5
3419
  8
AM_0
 10
286.87423860130832
 20
544.09665796910281
 30
0.0
 11
286.87423860130832
 21
536.09589796910268
 31
0.0
  0
LINE
  5
341A
  8
AM_0
 10
296.82189860130819
 20
536.60196796910304
 30
0.0
 11
302.5029286013085
 21
536.75074796910314
 31
0.0
  0
ARC
  5
341B
  8
AM_0
 10
302.46365860130823
 20
538.25022796910298
 30
0.0
 40
1.5
 50
271.4999999999992
 51
347.02334999999908
  0
LINE
  5
341C
  8
AM_0
 10
309.87426860130819
 20
539.56971796910295
 30
0.0
 11
318.3354786013083
 21
539.34815796910277
 31
0.0
  0
ARC
  5
341D
  8
AM_0
 10
311.87423860130832
 20
544.62037796910295
 30
0.0
 40
1.0
 50
0.0
 51
91.500001000001546
  0
LINE
  5
341E
  8
AM_0
 10
312.87423860130832
 20
547.54282796910275
 30
0.0
 11
312.87423860130832
 21
541.54419796910281
 31
0.0
  0
LINE
  5
341F
  8
AM_0
 10
305.82189860130831
 20
539.4636079691029
 30
0.0
 11
309.87423860130832
 21
539.56971796910295
 31
0.0
  0
ARC
  5
3420
  8
AM_0
 10
310.87423860130838
 20
541.54419796910281
 30
0.0
 40
2.0
 50
268.5000000000004
 51
0.0000006832462478
  0
LINE
  5
3421
  8
AM_0
 10
311.84808860130818
 20
545.62000796910274
 30
0.0
 11
309.90045860130817
 21
545.56900796910281
 31
0.0
  0
ARC
  5
3422
  8
AM_0
 10
309.87423860130832
 20
546.56867796910285
 30
0.0
 40
1.0
 50
180.00001000000091
 51
271.4999999999992
  0
ARC
  5
3423
  8
AM_0
 10
309.87423860130832
 20
548.5693779691029
 30
0.0
 40
1.0
 50
91.500001000001546
 51
180.00001000000091
  0
LINE
  5
3424
  8
AM_0
 10
308.87423860130838
 20
548.5693779691029
 30
0.0
 11
308.87423860130838
 21
546.56867796910285
 31
0.0
  0
ARC
  5
3425
  8
AM_0
 10
310.87423860130838
 20
547.54282796910275
 30
0.0
 40
2.0
 50
0.0
 51
88.499997000000747
  0
ARC
  5
3426
  8
AM_0
 10
318.07369860130831
 20
529.35157796910289
 30
0.0
 40
10.0
 50
60.000002000001302
 51
88.499997000000747
  0
LINE
  5
3427
  8
AM_0
 10
344.87423860130821
 20
545.57361796910288
 30
0.0
 11
344.87423860130821
 21
536.44046796910288
 31
0.0
  0
ARC
  5
3428
  8
AM_0
 10
347.87423860130821
 20
545.57361796910288
 30
0.0
 40
3.0
 50
88.499997000000747
 51
180.00001000000091
  0
CIRCLE
  5
3429
  8
AM_0
 10
359.87423860130821
 20
537.06971796910295
 30
0.0
 40
5.0
  0
LINE
  5
342A
  8
AM_0
 10
369.87423860130821
 20
543.12775796910284
 30
0.0
 11
369.87423860130821
 21
526.01163796910271
 31
0.0
  0
LINE
  5
342B
  8
ﾁｭｳｼﾝｾﾝ1
 10
359.87423860130821
 20
548.06971796910295
 30
0.0
 11
359.87423860130821
 21
526.06971796910295
 31
0.0
  0
LINE
  5
342C
  8
AM_0
 10
377.87423860130821
 20
482.56968796910292
 30
0.0
 11
399.87423860130821
 21
482.56968796910292
 31
0.0
  0
LINE
  5
342D
  8
AM_0
 10
377.87423860130821
 20
476.56968796910257
 30
0.0
 11
399.87423860130821
 21
476.56968796910257
 31
0.0
  0
LINE
  5
342E
  8
AM_0
 10
371.87423860130821
 20
489.06971796910273
 30
0.0
 11
399.87423860130821
 21
489.06971796910273
 31
0.0
  0
LINE
  5
342F
  8
AM_0
 10
371.87423860130821
 20
470.06971796910278
 30
0.0
 11
399.87423860130821
 21
470.06971796910278
 31
0.0
  0
ARC
  5
3430
  8
AM_0
 10
368.87423860130821
 20
500.59623796910279
 30
0.0
 40
1.0
 50
179.9999899999988
 51
268.50000999999872
  0
ARC
  5
3431
  8
AM_0
 10
377.87423860130821
 20
479.56968796910257
 30
0.0
 40
3.0
 50
89.986013999999244
 51
270.01398999999992
  0
LINE
  5
3432
  8
AM_0
 10
371.87423860130821
 20
469.56971796910278
 30
0.0
 11
371.87423860130821
 21
489.56971796910273
 31
0.0
  0
LINE
  5
3433
  8
AM_0
 10
369.87423860130821
 20
469.56971796910278
 30
0.0
 11
371.87423860130821
 21
469.56971796910278
 31
0.0
  0
LINE
  5
3434
  8
AM_0
 10
369.87423860130821
 20
489.56971796910273
 30
0.0
 11
371.87423860130821
 21
489.56971796910273
 31
0.0
  0
ARC
  5
3435
  8
AM_0
 10
368.87423860130821
 20
498.59555796910291
 30
0.0
 40
1.0
 50
0.0
 51
88.499997000000747
  0
LINE
  5
3436
  8
AM_0
 10
368.84808860130818
 20
499.59656796910258
 30
0.0
 11
368.90042860130831
 21
499.59519796910263
 31
0.0
  0
LINE
  5
3437
  8
AM_0
 10
377.87423860130821
 20
476.56968796910257
 30
0.0
 11
377.87423860130821
 21
482.56968796910292
 31
0.0
  0
LINE
  5
3438
  8
AM_0
 10
359.74337860130839
 20
521.94220796910258
 30
0.0
 11
364.95278860130821
 21
521.80579796910285
 31
0.0
  0
ARC
  5
3439
  8
AM_0
 10
359.87423860130821
 20
526.94046796910266
 30
0.0
 40
5.0
 50
180.00001000000091
 51
268.5000000000004
  0
ARC
  5
343A
  8
AM_0
 10
351.87423860130821
 20
528.38535796910287
 30
0.0
 40
3.0
 50
0.0
 51
88.499997000000747
  0
ARC
  5
343B
  8
AM_0
 10
364.87423860130821
 20
526.01163796910271
 30
0.0
 40
5.0
 50
289.51466999999951
 51
0.0
  0
ARC
  5
343C
  8
AM_0
 10
364.87423860130821
 20
518.80680796910281
 30
0.0
 40
3.0
 50
0.0
 51
88.499997000000747
  0
LINE
  5
343D
  8
AM_0
 10
399.87423860130821
 20
470.06971796910278
 30
0.0
 11
399.87423860130821
 21
489.06971796910273
 31
0.0
  0
LINE
  5
343E
  8
ﾁｭｳｼﾝｾﾝ1
 10
348.87423860130821
 20
537.06971796910295
 30
0.0
 11
370.87423860130821
 21
537.06971796910295
 31
0.0
  0
ARC
  5
343F
  8
AM_0
 10
364.87423860130821
 20
543.12775796910284
 30
0.0
 40
5.0
 50
0.0
 51
88.499997000000747
  0
LINE
  5
3440
  8
AM_0
 10
275.87423860130832
 20
534.80830932313779
 30
0.0
 11
275.87423860130917
 21
424.3310666150681
 31
0.0
  0
LINE
  5
3441
  8
AM_0
 10
250.87423860130829
 20
504.56968796910257
 30
0.0
 11
250.87423860130829
 21
454.56968796910257
 31
0.0
  0
LINE
  5
3442
  8
AM_0
 10
230.37423860130789
 20
456.5696879691028
 30
0.0
 11
230.37423860130829
 21
502.5696879691028
 31
0.0
  0
LINE
  5
3443
  8
AM_0
 10
228.37423860130809
 20
493.74126084435642
 30
0.0
 11
228.37423860130809
 21
465.39811509384901
 31
0.0
  0
LINE
  5
3444
  8
AM_0
 10
226.37423860130809
 20
487.06968796910292
 30
0.0
 11
228.37423860130809
 21
487.06968796910292
 31
0.0
  0
LINE
  5
3445
  8
AM_0
 10
226.37423860130809
 20
472.06968033970838
 30
0.0
 11
228.37423860130809
 21
472.06968033970838
 31
0.0
  0
LINE
  5
3446
  8
AM_0
 10
201.37423860130809
 20
473.5696879691028
 30
0.0
 11
226.37423860130809
 21
473.5696879691028
 31
0.0
  0
LINE
  5
3447
  8
AM_0
 10
201.37423860130809
 20
485.5696879691028
 30
0.0
 11
226.37423860130809
 21
485.5696879691028
 31
0.0
  0
LINE
  5
3448
  8
AM_0
 10
201.37423860130809
 20
485.5696879691028
 30
0.0
 11
201.37423860130809
 21
473.5696879691028
 31
0.0
  0
LINE
  5
3449
  8
AM_0
 10
226.37423860130809
 20
487.06968796910292
 30
0.0
 11
226.37423860130809
 21
472.06968033970838
 31
0.0
  0
LINE
  5
344A
  8
AM_0
 10
274.40977250724109
 20
431.03415406317009
 30
0.0
 11
253.8031707894429
 21
451.64075578096822
 31
0.0
  0
ARC
  5
344B
  8
AM_0
 10
276.87423860130832
 20
424.3310666150681
 30
0.0
 40
1.0
 50
180.0
 51
268.33915276702578
1001
GENIUS_GENOBJ-N-FIL_13
1002
{
1000
OWNER
1000
GEN
1002
}
1001
GENIUS_GENODEF_13
1002
{
1000
HIER
1070
     0
1002
}
1002
{
1000
MANEDIT
1070
     0
1002
}
1002
{
1000
NOSEL
1070
     0
1002
}
1002
{
1000
BEHIND
1070
     0
1002
}
1002
{
1000
OTHER
1070
     0
1002
}
1002
{
1000
REACTOR
1002
}
  0
LINE
  5
344C
  8
AM_0
 10
276.84525540802503
 20
423.33148671605687
 30
0.0
 11
285.87423860130832
 21
423.0696879691028
 31
0.0
  0
LINE
  5
344D
  8
AM_0
 10
285.87423860130832
 20
433.56968596910292
 30
0.0
 11
275.87423860130832
 21
433.56968596910292
 31
0.0
  0
ARC
  5
344E
  8
AM_0
 10
270.87423860130832
 20
427.49862015723738
 30
0.0
 40
5.0
 50
0.0
 51
45.0
1001
GENIUS_GENODEF_13
1002
{
1000
HIER
1070
     0
1002
}
1002
{
1000
MANEDIT
1070
     0
1002
}
1002
{
1000
NOSEL
1070
     0
1002
}
1002
{
1000
BEHIND
1070
     0
1002
}
1002
{
1000
OTHER
1070
     0
1002
}
1002
{
1000
REACTOR
1002
}
1001
GENIUS_GENOBJ-N-FIL_13
1002
{
1000
OWNER
1000
GEN
1002
}
  0
LINE
  5
344F
  8
AM_0
 10
232.37423860130829
 20
454.56968796910257
 30
0.0
 11
246.73210297757731
 21
454.56968796910257
 31
0.0
  0
ARC
  5
3450
  8
AM_0
 10
232.37423860130829
 20
456.5696879691028
 30
0.0
 40
2.0
 50
180.0
 51
270.0
1001
GENIUS_GENODEF_13
1002
{
1000
HIER
1070
     0
1002
}
1002
{
1000
MANEDIT
1070
     0
1002
}
1002
{
1000
NOSEL
1070
     0
1002
}
1002
{
1000
BEHIND
1070
     0
1002
}
1002
{
1000
OTHER
1070
     0
1002
}
1002
{
1000
REACTOR
1002
}
1001
GENIUS_GENOBJ-N-FIL_13
1002
{
1000
OWNER
1000
GEN
1002
}
  0
ARC
  5
3451
  8
AM_0
 10
230.37423860130829
 20
465.39811509384901
 30
0.0
 40
2.0
 50
180.0
 51
225.0000000000006
1001
GENIUS_GENODEF_13
1002
{
1000
HIER
1070
     0
1002
}
1002
{
1000
MANEDIT
1070
     0
1002
}
1002
{
1000
NOSEL
1070
     0
1002
}
1002
{
1000
BEHIND
1070
     0
1002
}
1002
{
1000
OTHER
1070
     0
1002
}
1002
{
1000
REACTOR
1002
}
1001
GENIUS_GENOBJ-N-FIL_13
1002
{
1000
OWNER
1000
GEN
1002
}
  0
LINE
  5
3452
  8
AM_0
 10
228.9600250389351
 20
463.98390153147591
 30
0.0
 11
229.7884521636814
 21
463.15547440672958
 31
0.0
  0
ARC
  5
3453
  8
AM_0
 10
228.37423860130809
 20
461.7412608443567
 30
0.0
 40
2.0
 50
0.0
 51
45.000000000000568
1001
GENIUS_GENODEF_13
1002
{
1000
HIER
1070
     0
1002
}
1002
{
1000
MANEDIT
1070
     0
1002
}
1002
{
1000
NOSEL
1070
     0
1002
}
1002
{
1000
BEHIND
1070
     0
1002
}
1002
{
1000
OTHER
1070
     0
1002
}
1002
{
1000
REACTOR
1002
}
1001
GENIUS_GENOBJ-N-FIL_13
1002
{
1000
OWNER
1000
GEN
1002
}
  0
ARC
  5
3454
  8
AM_0
 10
246.73210297757731
 20
444.5696879691028
 30
0.0
 40
10.0
 50
45.0
 51
90.0
1001
GENIUS_GENOBJ-N-FIL_13
1002
{
1000
OWNER
1000
GEN
1002
}
1001
GENIUS_GENODEF_13
1002
{
1000
HIER
1070
     0
1002
}
1002
{
1000
MANEDIT
1070
     0
1002
}
1002
{
1000
NOSEL
1070
     0
1002
}
1002
{
1000
BEHIND
1070
     0
1002
}
1002
{
1000
OTHER
1070
     0
1002
}
1002
{
1000
REACTOR
1002
}
  0
LINE
  5
3455
  8
AM_0
 10
285.87423860130832
 20
447.63224896910248
 30
0.0
 11
275.87423860130832
 21
447.63224896910248
 31
0.0
  0
LINE
  5
3456
  8
AM_0
 10
274.40977250724109
 20
528.10522187503568
 30
0.0
 11
253.8031707894429
 21
507.49862015723733
 31
0.0
  0
LINE
  5
3457
  8
AM_0
 10
232.37423860130829
 20
504.56968796910257
 30
0.0
 11
246.73210297757731
 21
504.56968796910257
 31
0.0
  0
ARC
  5
3458
  8
AM_0
 10
230.37423860130829
 20
493.74126084435642
 30
0.0
 40
2.0
 50
134.9999999999994
 51
180.0
1001
GENIUS_GENODEF_13
1002
{
1000
HIER
1070
     0
1002
}
1002
{
1000
MANEDIT
1070
     0
1002
}
1002
{
1000
NOSEL
1070
     0
1002
}
1002
{
1000
BEHIND
1070
     0
1002
}
1002
{
1000
OTHER
1070
     0
1002
}
1002
{
1000
REACTOR
1002
}
1001
GENIUS_GENOBJ-N-FIL_13
1002
{
1000
OWNER
1000
GEN
1002
}
  0
ARC
  5
3459
  8
AM_0
 10
228.37423860130809
 20
497.3981150938489
 30
0.0
 40
2.0
 50
314.9999999999992
 51
0.0
1001
GENIUS_GENODEF_13
1002
{
1000
HIER
1070
     0
1002
}
1002
{
1000
MANEDIT
1070
     0
1002
}
1002
{
1000
NOSEL
1070
     0
1002
}
1002
{
1000
BEHIND
1070
     0
1002
}
1002
{
1000
OTHER
1070
     0
1002
}
1002
{
1000
REACTOR
1002
}
1001
GENIUS_GENOBJ-N-FIL_13
1002
{
1000
OWNER
1000
GEN
1002
}
  0
LINE
  5
345A
  8
AM_0
 10
228.9600250389351
 20
495.15547440672958
 30
0.0
 11
229.7884521636814
 21
495.98390153147568
 31
0.0
  0
ARC
  5
345B
  8
AM_0
 10
232.37423860130829
 20
502.5696879691028
 30
0.0
 40
2.0
 50
90.0
 51
180.0
1001
GENIUS_GENODEF_13
1002
{
1000
HIER
1070
     0
1002
}
1002
{
1000
MANEDIT
1070
     0
1002
}
1002
{
1000
NOSEL
1070
     0
1002
}
1002
{
1000
BEHIND
1070
     0
1002
}
1002
{
1000
OTHER
1070
     0
1002
}
1002
{
1000
REACTOR
1002
}
1001
GENIUS_GENOBJ-N-FIL_13
1002
{
1000
OWNER
1000
GEN
1002
}
  0
ARC
  5
345C
  8
AM_0
 10
246.73210297757731
 20
514.56968796910292
 30
0.0
 40
10.0
 50
270.0
 51
315.0
1001
GENIUS_GENODEF_13
1002
{
1000
HIER
1070
     0
1002
}
1002
{
1000
MANEDIT
1070
     0
1002
}
1002
{
1000
NOSEL
1070
     0
1002
}
1002
{
1000
BEHIND
1070
     0
1002
}
1002
{
1000
OTHER
1070
     0
1002
}
1002
{
1000
REACTOR
1002
}
1001
GENIUS_GENOBJ-N-FIL_13
1002
{
1000
OWNER
1000
GEN
1002
}
  0
LINE
  5
345D
  8
AM_0
 10
285.87423860130832
 20
525.5696929691029
 30
0.0
 11
275.87423860130832
 21
525.5696929691029
 31
0.0
  0
LINE
  5
345E
  8
AM_0
 10
285.87423860130832
 20
511.50712696910279
 30
0.0
 11
275.87423860130832
 21
511.50712696910279
 31
0.0
  0
ARC
  5
345F
  8
AM_0
 10
270.87423860130832
 20
531.64075578096845
 30
0.0
 40
5.0
 50
315.0
 51
0.0
1001
GENIUS_GENODEF_13
1002
{
1000
HIER
1070
     0
1002
}
1002
{
1000
MANEDIT
1070
     0
1002
}
1002
{
1000
NOSEL
1070
     0
1002
}
1002
{
1000
BEHIND
1070
     0
1002
}
1002
{
1000
OTHER
1070
     0
1002
}
1002
{
1000
REACTOR
1002
}
1001
GENIUS_GENOBJ-N-FIL_13
1002
{
1000
OWNER
1000
GEN
1002
}
  0
ARC
  5
3460
  8
AM_0
 10
276.87423860130832
 20
534.80830932313779
 30
0.0
 40
1.0
 50
91.66084723297412
 51
180.0
1001
GENIUS_GENOBJ-N-FIL_13
1002
{
1000
OWNER
1000
GEN
1002
}
1001
GENIUS_GENODEF_13
1002
{
1000
HIER
1070
     0
1002
}
1002
{
1000
MANEDIT
1070
     0
1002
}
1002
{
1000
NOSEL
1070
     0
1002
}
1002
{
1000
BEHIND
1070
     0
1002
}
1002
{
1000
OTHER
1070
     0
1002
}
1002
{
1000
REACTOR
1002
}
  0
LINE
  5
3461
  8
AM_0
 10
276.84525540802503
 20
535.8078892221489
 30
0.0
 11
285.87423860130832
 21
536.06968796910292
 31
0.0
  0
LINE
  5
3462
  8
AM_0
 10
201.37423860130809
 20
477.5696879691028
 30
0.0
 11
219.37423860130829
 21
477.5696879691028
 31
0.0
  0
LINE
  5
3463
  8
AM_0
 10
201.37423860130809
 20
481.5696879691028
 30
0.0
 11
219.37423860130829
 21
481.5696879691028
 31
0.0
  0
LINE
  5
3464
  8
AM_0
 10
219.37423860130841
 20
481.5696879691028
 30
0.0
 11
219.37423860130829
 21
477.5696879691028
 31
0.0
  0
ARC
  5
3465
  8
AM_0
 10
219.37423860130841
 20
479.56968796910257
 30
0.0
 40
1.9999999999998861
 50
270.0
 51
90.0
  0
LINE
  5
3466
  8
ﾁｭｳｼﾝｾﾝ1
 10
359.87423860130821
 20
433.06968796910292
 30
0.0
 11
359.87423860130821
 21
411.0696879691028
 31
0.0
  0
LINE
  5
3467
  8
ﾁｭｳｼﾝｾﾝ1
 10
348.87423860130821
 20
422.06968796910257
 30
0.0
 11
370.87423860130821
 21
422.06968796910257
 31
0.0
  0
LINE
  5
3468
  8
ﾁｭｳｼﾝｾﾝ1
 10
296.87423860130832
 20
433.06968796910292
 30
0.0
 11
296.87423860130832
 21
411.0696879691028
 31
0.0
  0
LINE
  5
3469
  8
ﾁｭｳｼﾝｾﾝ1
 10
285.87423860130832
 20
422.06968796910257
 30
0.0
 11
307.87423860130832
 21
422.06968796910257
 31
0.0
  0
LINE
  5
346A
  8
ﾁｭｳｼﾝｾﾝ1
 10
296.87423860130832
 20
548.06971796910295
 30
0.0
 11
296.87423860130832
 21
526.06971796910295
 31
0.0
  0
LINE
  5
346B
  8
ﾁｭｳｼﾝｾﾝ1
 10
285.87423860130832
 20
537.06971796910295
 30
0.0
 11
307.87423860130832
 21
537.06971796910295
 31
0.0
  0
LINE
  5
346C
  8
ｶｸﾚｾﾝ2
 10
514.23314310272008
 20
210.19889122118639
 30
0.0
 11
514.23314310272008
 21
200.19887722118639
 31
0.0
  0
LINE
  5
346D
  8
ｶｸﾚｾﾝ2
 10
504.2331411027202
 20
210.19889122118639
 30
0.0
 11
504.2331411027202
 21
200.19887722118639
 31
0.0
  0
LINE
  5
346E
  8
ｶｸﾚｾﾝ2
 10
364.87423460130867
 20
210.19889122118639
 30
0.0
 11
364.87423460130867
 21
200.19887722118639
 31
0.0
  0
LINE
  5
346F
  8
ｶｸﾚｾﾝ2
 10
354.87423260130851
 20
210.19889122118639
 30
0.0
 11
354.87423260130851
 21
200.19887722118639
 31
0.0
  0
LINE
  5
3470
  8
ｶｸﾚｾﾝ2
 10
301.87426460130882
 20
210.19889122118639
 30
0.0
 11
301.87426460130882
 21
200.19887722118639
 31
0.0
  0
LINE
  5
3471
  8
ｶｸﾚｾﾝ2
 10
291.87426260130871
 20
210.19889122118639
 30
0.0
 11
291.87426260130871
 21
200.19887722118639
 31
0.0
  0
TEXT
  5
369A
  8
AM_0
 10
483.60953252492709
 20
467.70130132656118
 30
0.0
 40
10.0
  1
VX01-003G~VX01-050G
  0
ENDSEC
  0
EOF
