  0
SECTION
  2
HEADER
  9
$ACADVER
  1
AC1009
  9
$INSBASE
 10
0.0
 20
0.0
 30
0.0
  9
$EXTMIN
 10
166.34758976631289
 20
198.2846252817528
 30
-0.0000000000112498
  9
$EXTMAX
 10
667.48711572329864
 20
577.48259531279928
 30
0.0000000000002956
  9
$LIMMIN
 10
0.0
 20
0.0
  9
$LIMMAX
 10
853.5
 20
555.00000000000011
  9
$ORTHOMODE
 70
     0
  9
$REGENMODE
 70
     1
  9
$FILLMODE
 70
     1
  9
$QTEXTMODE
 70
     0
  9
$MIRRTEXT
 70
     1
  9
$DRAGMODE
 70
     2
  9
$LTSCALE
 40
3.0
  9
$OSMODE
 70
   551
  9
$ATTMODE
 70
     1
  9
$TEXTSIZE
 40
2.5
  9
$TRACEWID
 40
1.0
  9
$TEXTSTYLE
  7
STANDARD
  9
$CLAYER
  8
AM_0
  9
$CELTYPE
  6
BYLAYER
  9
$CECOLOR
 62
   256
  9
$DIMSCALE
 40
1.0
  9
$DIMASZ
 40
2.5
  9
$DIMEXO
 40
1.0
  9
$DIMDLI
 40
8.0
  9
$DIMRND
 40
0.0
  9
$DIMDLE
 40
0.0
  9
$DIMEXE
 40
0.6
  9
$DIMTP
 40
0.1
  9
$DIMTM
 40
0.1
  9
$DIMTXT
 40
2.5
  9
$DIMCEN
 40
0.0
  9
$DIMTSZ
 40
0.0
  9
$DIMTOL
 70
     0
  9
$DIMLIM
 70
     0
  9
$DIMTIH
 70
     0
  9
$DIMTOH
 70
     0
  9
$DIMSE1
 70
     0
  9
$DIMSE2
 70
     0
  9
$DIMTAD
 70
     1
  9
$DIMZIN
 70
     8
  9
$DIMBLK
  1

  9
$DIMASO
 70
     1
  9
$DIMSHO
 70
     1
  9
$DIMPOST
  1

  9
$DIMAPOST
  1
"
  9
$DIMALT
 70
     0
  9
$DIMALTD
 70
     2
  9
$DIMALTF
 40
0.0393701
  9
$DIMLFAC
 40
1.0
  9
$DIMTOFL
 70
     1
  9
$DIMTVP
 40
0.0
  9
$DIMTIX
 70
     0
  9
$DIMSOXD
 70
     0
  9
$DIMSAH
 70
     0
  9
$DIMBLK1
  1

  9
$DIMBLK2
  1

  9
$DIMSTYLE
  2
AM_ISO
  9
$DIMCLRD
 70
   256
  9
$DIMCLRE
 70
   256
  9
$DIMCLRT
 70
     4
  9
$DIMTFAC
 40
0.71
  9
$DIMGAP
 40
0.8
  9
$LUNITS
 70
     2
  9
$LUPREC
 70
     2
  9
$SKETCHINC
 40
1.0
  9
$FILLETRAD
 40
15.0
  9
$AUNITS
 70
     0
  9
$AUPREC
 70
     0
  9
$MENU
  1
.
  9
$ELEVATION
 40
0.0
  9
$PELEVATION
 40
0.0
  9
$THICKNESS
 40
0.0
  9
$LIMCHECK
 70
     0
  9
$BLIPMODE
 70
     0
  9
$CHAMFERA
 40
6.0
  9
$CHAMFERB
 40
3.0
  9
$SKPOLY
 70
     0
  9
$TDCREATE
 40
2452065.6147138998
  9
$TDUPDATE
 40
2458541.4063868518
  9
$TDINDWG
 40
0.0997406713
  9
$TDUSRTIMER
 40
0.0997406597
  9
$USRTIMER
 70
     1
  9
$ANGBASE
 50
0.0
  9
$ANGDIR
 70
     0
  9
$PDMODE
 70
     0
  9
$PDSIZE
 40
0.0
  9
$PLINEWID
 40
0.0
  9
$COORDS
 70
     1
  9
$SPLFRAME
 70
     0
  9
$SPLINETYPE
 70
     6
  9
$SPLINESEGS
 70
     8
  9
$ATTDIA
 70
     1
  9
$ATTREQ
 70
     1
  9
$HANDLING
 70
     1
  9
$HANDSEED
  5
2FB2
  9
$SURFTAB1
 70
     6
  9
$SURFTAB2
 70
     6
  9
$SURFTYPE
 70
     6
  9
$SURFU
 70
     6
  9
$SURFV
 70
     6
  9
$UCSNAME
  2

  9
$UCSORG
 10
0.0
 20
0.0
 30
0.0
  9
$UCSXDIR
 10
1.0
 20
0.0
 30
0.0
  9
$UCSYDIR
 10
0.0
 20
1.0
 30
0.0
  9
$PUCSNAME
  2

  9
$PUCSORG
 10
0.0
 20
0.0
 30
0.0
  9
$PUCSXDIR
 10
1.0
 20
0.0
 30
0.0
  9
$PUCSYDIR
 10
0.0
 20
1.0
 30
0.0
  9
$USERI1
 70
     0
  9
$USERI2
 70
     0
  9
$USERI3
 70
     0
  9
$USERI4
 70
     0
  9
$USERI5
 70
     0
  9
$USERR1
 40
0.0
  9
$USERR2
 40
0.0
  9
$USERR3
 40
0.0
  9
$USERR4
 40
0.0
  9
$USERR5
 40
0.0
  9
$WORLDVIEW
 70
     1
  9
$SHADEDGE
 70
     3
  9
$SHADEDIF
 70
    70
  9
$TILEMODE
 70
     1
  9
$MAXACTVP
 70
    64
  9
$PLIMCHECK
 70
     0
  9
$PEXTMIN
 10
1.0000000000000000E+020
 20
1.0000000000000000E+020
 30
1.0000000000000000E+020
  9
$PEXTMAX
 10
-1.0000000000000000E+020
 20
-1.0000000000000000E+020
 30
-1.0000000000000000E+020
  9
$PLIMMIN
 10
0.0
 20
0.0
  9
$PLIMMAX
 10
420.0
 20
297.0
  9
$UNITMODE
 70
     0
  9
$VISRETAIN
 70
     1
  9
$PLINEGEN
 70
     0
  9
$PSLTSCALE
 70
     1
  0
ENDSEC
  0
SECTION
  2
TABLES
  0
TABLE
  2
VPORT
 70
     1
  0
VPORT
  2
*ACTIVE
 70
     0
 10
0.0
 20
0.0
 11
1.0
 21
1.0
 12
416.9173527448059
 22
387.88361029727611
 13
0.0
 23
0.0
 14
7.5
 24
7.5
 15
30.0
 25
30.0
 16
0.0
 26
0.0
 36
1.0
 17
0.0
 27
0.0
 37
0.0
 40
381.80115975666013
 41
1.7571592210767459
 42
50.0
 43
0.0
 44
0.0
 50
0.0
 51
0.0
 71
     0
 72
   100
 73
     1
 74
     3
 75
     0
 76
     0
 77
     0
 78
     0
  0
ENDTAB
  0
TABLE
  2
LTYPE
 70
    26
  0
LTYPE
  2
CONTINUOUS
 70
     0
  3
Solid line
 72
    65
 73
     0
 40
0.0
  0
LTYPE
  2
AM_ISO02W050
 70
     0
  3
__ __ __ __ __ __ __ __ __ __ __ __ __ __ __
 72
    65
 73
     2
 40
7.5
 49
6.0
 49
-1.5
  0
LTYPE
  2
AM_ISO08W050
 70
     0
  3
____ . ____ . ____ . ____ . ____ . ____ . ____
 72
    65
 73
     4
 40
18.0
 49
12.0
 49
-1.5
 49
3.0
 49
-1.5
  0
LTYPE
  2
AM_ISO09W050
 70
     0
  3
_____ . . _____ . . _____ . . ____ .. ____
 72
    65
 73
     6
 40
22.5
 49
12.0
 49
-1.5
 49
3.0
 49
-1.5
 49
3.0
 49
-1.5
  0
LTYPE
  2
AMCONSTR
 70
     0
  3
_______________________
 72
    65
 73
     2
 40
9999.0
 49
9999.0
 49
0.0
  0
LTYPE
  2
AM_ISO08W050X2
 70
     0
  3
__ . __ . __ . __ . __ . __
 72
    65
 73
     4
 40
9.0
 49
6.0
 49
-0.75
 49
1.5
 49
-0.75
  0
LTYPE
  2
AM_ISO02W050X2
 70
     0
  3
 _ _ _ _ _ _ _ _ _ _ _ _
 72
    65
 73
     2
 40
3.75
 49
3.0
 49
-0.75
  0
LTYPE
  2
AMZIGZAG
 70
     0
  3
/\/-/\/-/\/-/\/-/\/-/\/
 72
    65
 73
     2
 40
11.000099999999991
 49
0.0001
 49
-11.0
  0
LTYPE
  2
ACISOWELD
 70
     0
  3
_ _ _ _ _
 72
    65
 73
     2
 40
2.0
 49
2.0
 49
-1.0
  0
LTYPE
  2
ACISOTGB
 70
     0
  3
__ . . __ . .
 72
    65
 73
     6
 40
9.0
 49
4.0
 49
-1.0
 49
1.0
 49
-1.0
 49
1.0
 49
-1.0
  0
LTYPE
  2
ACISOTGL
 70
     0
  3
_ _ _ _ _
 72
    65
 73
     2
 40
3.0
 49
2.0
 49
-1.0
  0
LTYPE
  2
CENTER
 70
     0
  3
__ . __
 72
    65
 73
     4
 40
7.0
 49
4.0
 49
-1.0
 49
1.0
 49
-1.0
  0
LTYPE
  2
PHANTOM2
 70
     0
  3
Phantom (.5x) ___ _ _ ___ _ _ ___ _ _ ___ _ _
 72
    65
 73
     6
 40
31.75
 49
15.875
 49
-3.174999999999998
 49
3.174999999999998
 49
-3.174999999999998
 49
3.174999999999998
 49
-3.174999999999998
  0
LTYPE
  2
ACANSTGBM
 70
     0
  3
__ . . __ . .
 72
    65
 73
     6
 40
9.0
 49
4.0
 49
-1.0
 49
1.0
 49
-1.0
 49
1.0
 49
-1.0
  0
LTYPE
  2
ACANSTGLM
 70
     0
  3
_ _ _ _ _
 72
    65
 73
     2
 40
3.0
 49
2.0
 49
-1.0
  0
LTYPE
  2
GEN3B
 70
     0
  3
 - - - - -
 72
    65
 73
     2
 40
1.0
 49
0.5
 49
-0.5
  0
LTYPE
  2
GEN7A
 70
     0
  3
__ . __ . __
 72
    65
 73
     4
 40
7.375
 49
4.75
 49
-0.875
 49
0.875
 49
-0.875
  0
LTYPE
  2
ACJISTGB
 70
     0
  3
__ . . __ . .
 72
    65
 73
     6
 40
9.0
 49
4.0
 49
-1.0
 49
1.0
 49
-1.0
 49
1.0
 49
-1.0
  0
LTYPE
  2
ACJISTGL
 70
     0
  3
_ _ _ _ _
 72
    65
 73
     2
 40
3.0
 49
2.0
 49
-1.0
  0
LTYPE
  2
HIDDEN
 70
     0
  3
Hidden __ __ __ __ __ __ __ __ __ __ __ __ __ _
 72
    65
 73
     2
 40
0.375
 49
0.25
 49
-0.125
  0
LTYPE
  2
CENTER2
 70
     0
  3
Center (.5x) ___ _ ___ _ ___ _ ___ _ ___ _ ___
 72
    65
 73
     4
 40
1.125
 49
0.75
 49
-0.125
 49
0.125
 49
-0.125
  0
LTYPE
  2
HIDDEN2
 70
     0
  3
Hidden (.5x) _ _ _ _ _ _ _ _ _ _ _ _ _ _ _ _ _
 72
    65
 73
     2
 40
0.1875
 49
0.125
 49
-0.0625
  0
LTYPE
  2
AMZIGZAG2
 70
     0
  3
/\/-/\/-/\/-/\/-/\/-/\/
 72
    65
 73
     2
 40
0.4401
 49
0.0001
 49
-0.4400000000000002
  0
LTYPE
  2
ACANSTGB
 70
     0
  3
__ . . __ . .
 72
    65
 73
     6
 40
0.35433070866
 49
0.15748031496
 49
-0.03937007874
 49
0.03937007874
 49
-0.03937007874
 49
0.03937007874
 49
-0.03937007874
  0
LTYPE
  2
ACANSTGL
 70
     0
  3
_ _ _ _ _
 72
    65
 73
     2
 40
0.11811023622
 49
0.07874015748
 49
-0.03937007874
  0
ENDTAB
  0
TABLE
  2
LAYER
 70
     5
  0
LAYER
  2
0
 70
     0
 62
     7
  6
CONTINUOUS
  0
LAYER
  2
AM_0
 70
     0
 62
     7
  6
CONTINUOUS
  0
LAYER
  2
DEFPOINTS
 70
     0
 62
     7
  6
CONTINUOUS
  0
LAYER
  2
ｶｸﾚｾﾝ2
 70
     0
 62
     3
  6
GEN3B
  0
LAYER
  2
ﾁｭｳｼﾝｾﾝ1
 70
     0
 62
     1
  6
GEN7A
  0
ENDTAB
  0
TABLE
  2
STYLE
 70
     9
  0
STYLE
  2
STANDARD
 70
     0
 40
0.0
 41
0.8299999999999999
 50
0.0
 71
     0
 42
2.5
  3
txt.shx
  4
bigfont.shx
  0
STYLE
  2
ANNOTATIVE
 70
     0
 40
0.0
 41
1.0
 50
0.0
 71
     0
 42
0.2
  3
txt
  4

  0
STYLE
  2

 70
     1
 40
0.0
 41
1.0
 50
0.0
 71
     0
 42
2.5
  3
ltypeshp.shx
  4

  0
STYLE
  2
ACISOTS
 70
     0
 40
1.0
 41
1.0
 50
0.0
 71
     0
 42
2.5
  3
isocp.shx
  4
extfont.shx
  0
STYLE
  2
ACISOGDT
 70
     0
 40
0.0
 41
1.0
 50
0.0
 71
     0
 42
2.5
  3
amgdt.shx
  4

  0
STYLE
  2
ACANSTS
 70
     0
 40
1.0
 41
1.0
 50
0.0
 71
     0
 42
2.5
  3
romans.shx
  4
bigfont.shx
  0
STYLE
  2
ACANSGDT
 70
     0
 40
0.0
 41
1.0
 50
0.0
 71
     0
 42
2.5
  3
amgdt.shx
  4

  0
STYLE
  2
ACJISTS
 70
     0
 40
1.0
 41
1.0
 50
0.0
 71
     0
 42
2.5
  3
isocp.shx
  4
bigfont.shx
  0
STYLE
  2
ACJISGDT
 70
     0
 40
0.0
 41
1.0
 50
0.0
 71
     0
 42
2.5
  3
amgdt.shx
  4

  0
ENDTAB
  0
TABLE
  2
VIEW
 70
     6
  0
VIEW
  2
AM_VIEW1
 70
     0
 40
277.49999999999989
 10
249.64779005524849
 20
416.24999999999989
 41
499.2955801104971
 11
0.0
 21
0.0
 31
1.0
 12
0.0
 22
0.0
 32
0.0
 42
50.0
 43
0.0
 44
0.0
 50
0.0
 71
     0
  0
VIEW
  2
AM_VIEW2
 70
     0
 40
277.49999999999989
 10
603.85220994475117
 20
416.24999999999989
 41
499.2955801104971
 11
0.0
 21
0.0
 31
1.0
 12
0.0
 22
0.0
 32
0.0
 42
50.0
 43
0.0
 44
0.0
 50
0.0
 71
     0
  0
VIEW
  2
AM_VIEW3
 70
     0
 40
277.49999999999989
 10
249.64779005524849
 20
138.7499999999998
 41
499.2955801104971
 11
0.0
 21
0.0
 31
1.0
 12
0.0
 22
0.0
 32
0.0
 42
50.0
 43
0.0
 44
0.0
 50
0.0
 71
     0
  0
VIEW
  2
AM_VIEW4
 70
     0
 40
277.49999999999989
 10
603.85220994475117
 20
138.7499999999998
 41
499.2955801104971
 11
0.0
 21
0.0
 31
1.0
 12
0.0
 22
0.0
 32
0.0
 42
50.0
 43
0.0
 44
0.0
 50
0.0
 71
     0
  0
VIEW
  2
AM_VIEW5
 70
     0
 40
277.5
 10
426.75
 20
277.49999999999989
 41
499.2955801104971
 11
0.0
 21
0.0
 31
1.0
 12
0.0
 22
0.0
 32
0.0
 42
50.0
 43
0.0
 44
0.0
 50
0.0
 71
     0
  0
VIEW
  2
AM_VIEW6
 70
     0
 40
554.99445000000014
 10
426.75
 20
277.49999999999989
 41
998.5811743093924
 11
0.0
 21
0.0
 31
1.0
 12
0.0
 22
0.0
 32
0.0
 42
50.0
 43
0.0
 44
0.0
 50
0.0
 71
     0
  0
ENDTAB
  0
TABLE
  2
UCS
 70
     0
  0
ENDTAB
  0
TABLE
  2
APPID
 70
    95
  0
APPID
  2
ACAD
 70
     0
  0
APPID
  2
ACADANNOTATIVE
 70
     0
  0
APPID
  2
MCAD_NO_VIS
 70
     0
  0
APPID
  2
ACAD_TEMP_GRAPHIC
 70
     0
  0
APPID
  2
ACATTRIBSERVICES
 70
     0
  0
APPID
  2
GENIUS_GENREC_14
 70
     0
  0
APPID
  2
GENIUS_GENOBJ-N-REC_13
 70
     0
  0
APPID
  2
GENIUS_GENODEF_13
 70
     0
  0
APPID
  2
GENIUS_GENOLIS_13
 70
     0
  0
APPID
  2
GENIUS_GENOBJ-N-TIT_13
 70
     0
  0
APPID
  2
GENIUS_GENOENT_13
 70
     0
  0
APPID
  2
GENIUS_GENTITLE_13
 70
     0
  0
APPID
  2
GENIUS_GENOREF_13
 70
     0
  0
APPID
  2
GENIUS_GENSCREG_15
 70
     0
  0
APPID
  2
GENIUS_GENOBJ-N-SDF_13
 70
     0
  0
APPID
  2
GENIUS_GENFIL_13
 70
     0
  0
APPID
  2
GENIUS_GENOBJ-N-CHA_13
 70
     0
  0
APPID
  2
GENIUS_GENDTOL_13
 70
     0
  0
APPID
  2
GENIUS_GENOBJ-N-FIL_13
 70
     0
  0
APPID
  2
AD_DRAW
 70
     0
  0
APPID
  2
DESIGNERASSEMBLIES
 70
     0
  0
APPID
  2
ASURF_PCURVE_APPNAME
 70
     0
  0
APPID
  2
GENIUS_GE3SECT_13
 70
     0
  0
APPID
  2
GENIUS_GENCFG_13
 70
     0
  0
APPID
  2
GENIUS_GE3CFG0_13
 70
     0
  0
APPID
  2
GENIUS_GENCFG0_13
 70
     0
  0
APPID
  2
GENIUS_GENCFG1_13
 70
     0
  0
APPID
  2
GENIUS_GENCFG2_13
 70
     0
  0
APPID
  2
GENIUS_GENCFG3_13
 70
     0
  0
APPID
  2
GENIUS_GENCFG4_13
 70
     0
  0
APPID
  2
GENIUS_GEVCFG0_13
 70
     0
  0
APPID
  2
GENIUS_GENHINW_13
 70
     0
  0
APPID
  2
GENIUS_FIRSTVISTXT_14
 70
     0
  0
APPID
  2
GENIUS_GENOBJ-N-LEADER_13
 70
     0
  0
APPID
  2
GEV_VCCNULL_SWITCH_OFF
 70
     0
  0
APPID
  2
GENIUS_GEFCFG0_13
 70
     0
  0
APPID
  2
GENIUS_GENZVEED_13
 70
     0
  0
APPID
  2
GENIUS_GENSCREG_13
 70
     0
  0
APPID
  2
GENIUS_DUMCFG0_13
 70
     0
  0
APPID
  2
GEVID936201362
 70
     0
  0
APPID
  2
GEVDC
 70
     0
  0
APPID
  2
GEVCON
 70
     0
  0
APPID
  2
VCC
 70
     0
  0
APPID
  2
GEVPT
 70
     0
  0
APPID
  2
GEVIT
 70
     0
  0
APPID
  2
GENBH
 70
     0
  0
APPID
  2
GEVMK
 70
     0
  0
APPID
  2
GENIUS_GENBH_13
 70
     0
  0
APPID
  2
GENIUS_GENOBJ-NBEHI-BHF_13
 70
     0
  0
APPID
  2
GENIUS_GENOBJ-NBEHI-BHB_13
 70
     0
  0
APPID
  2
GENIUS_GENOBJ-F-DESC_13
 70
     0
  0
APPID
  2
GENIUS_GEFDESC_14
 70
     0
  0
APPID
  2
GENIUS_GENOBJ-F-PART_13
 70
     0
  0
APPID
  2
GENIUS_GEFSTDP_13
 70
     0
  0
APPID
  2
GENIUS_GEFPARTINS_13
 70
     0
  0
APPID
  2
GENIUS_GENTRA_14
 70
     0
  0
APPID
  2
GENIUS_GENINF13_13
 70
     0
  0
APPID
  2
GENIUS_GENOBJ-N-INFOPT_13
 70
     0
  0
APPID
  2
GENIUS_GENOBJ-N-RSSYM_13
 70
     0
  0
APPID
  2
GENIUS_GENSYMENT_13
 70
     0
  0
APPID
  2
GENIUS_GENSCSYM_13
 70
     0
  0
APPID
  2
GENIUS_GEFINFNAM_13
 70
     0
  0
APPID
  2
GENIUS_GENOBJ-N-CEN_13
 70
     0
  0
APPID
  2
GENIUS_GENOBJ-N-CRS_13
 70
     0
  0
APPID
  2
GENIUS_GENOBJ-N-CRC_13
 70
     0
  0
APPID
  2
GENIUS_GENCRC_14
 70
     0
  0
APPID
  2
GEVID942827039
 70
     0
  0
APPID
  2
GEVID942827040
 70
     0
  0
APPID
  2
GEVID942827041
 70
     0
  0
APPID
  2
GENIUS_GENOBJ-F-SCPASSM_13
 70
     0
  0
APPID
  2
GENIUS_GENDIMSH_14
 70
     0
  0
APPID
  2
GEVID942827042
 70
     0
  0
APPID
  2
GEVID946020473
 70
     0
  0
APPID
  2
GEVID946020474
 70
     0
  0
APPID
  2
GEVID946020475
 70
     0
  0
APPID
  2
GENIUS_GENOBJ-N-HTC_13
 70
     0
  0
APPID
  2
GENIUS_GENHATCH_13
 70
     0
  0
APPID
  2
GEVID948854295
 70
     0
  0
APPID
  2
GEVID939402019
 70
     0
  0
APPID
  2
GEVID952919491
 70
     0
  0
APPID
  2
GEVID952919492
 70
     0
  0
APPID
  2
GENIUS_GEFWELD_13
 70
     0
  0
APPID
  2
GENIUS_GENOBJ-F-WELS_13
 70
     0
  0
APPID
  2
GEVID952919493
 70
     0
  0
APPID
  2
GENIUS_GENOBJ-N-RSBK_13
 70
     0
  0
APPID
  2
GENIUS_GENOBJ-N-LIB_13
 70
     0
  0
APPID
  2
GENIUS_GENSCALE_13
 70
     0
  0
APPID
  2
GEVID986376691
 70
     0
  0
APPID
  2
DCO15
 70
     0
  0
APPID
  2
ACAD_DSTYLE_DIMBREAK
 70
     0
  0
APPID
  2
ACAD_DSTYLE_DIMJAG
 70
     0
  0
APPID
  2
ACAD_NAV_VCDISPLAY
 70
     0
  0
APPID
  2
ACADANNOPO
 70
     0
  0
APPID
  2
ACAD_EXEMPT_FROM_CAD_STANDARDS
 70
     0
  0
APPID
  2
ACAD_MLEADERVER
 70
     0
  0
ENDTAB
  0
TABLE
  2
DIMSTYLE
 70
    22
  0
DIMSTYLE
  2
STANDARD
 70
     0
  3

  4

  5

  6

  7

 40
1.0
 41
0.18
 42
0.0625
 43
0.38
 44
0.18
 45
0.0
 46
0.0
 47
0.0
 48
0.0
140
0.18
141
0.09
142
0.0
143
25.399999999999999
144
1.0
145
0.0
146
1.0
147
0.09
 71
     0
 72
     0
 73
     1
 74
     1
 75
     0
 76
     0
 77
     0
 78
     0
170
     0
171
     2
172
     0
173
     0
174
     0
175
     0
176
     0
177
     0
178
     0
  0
DIMSTYLE
  2
ANNOTATIVE
 70
     0
  3

  4

  5

  6

  7

 40
1.0
 41
0.18
 42
0.0625
 43
0.38
 44
0.18
 45
0.0
 46
0.0
 47
0.0
 48
0.0
140
0.18
141
0.09
142
0.0
143
25.399999999999999
144
1.0
145
0.0
146
1.0
147
0.09
 71
     0
 72
     0
 73
     1
 74
     1
 75
     0
 76
     0
 77
     0
 78
     0
170
     0
171
     2
172
     0
173
     0
174
     0
175
     0
176
     0
177
     0
178
     0
  0
DIMSTYLE
  2
AM_ISO
 70
     0
  3

  4
"
  5

  6

  7

 40
1.0
 41
2.5
 42
1.0
 43
8.0
 44
0.6
 45
0.0
 46
0.0
 47
0.1
 48
0.1
140
2.5
141
0.0
142
0.0
143
0.0393701
144
1.0
145
0.0
146
0.71
147
0.8
 71
     0
 72
     0
 73
     0
 74
     0
 75
     0
 76
     0
 77
     1
 78
     8
170
     0
171
     2
172
     1
173
     0
174
     0
175
     0
176
   256
177
   256
178
     4
  0
DIMSTYLE
  2
AM_ISO$3
 70
     0
  3

  4
"
  5

  6

  7

 40
1.0
 41
2.5
 42
1.0
 43
8.0
 44
0.6
 45
0.0
 46
0.0
 47
0.1
 48
0.1
140
2.5
141
0.0
142
0.0
143
0.0393701
144
1.0
145
0.0
146
0.71
147
0.8
 71
     0
 72
     0
 73
     0
 74
     1
 75
     0
 76
     0
 77
     1
 78
     8
170
     0
171
     2
172
     0
173
     0
174
     0
175
     0
176
   256
177
   256
178
     4
  0
DIMSTYLE
  2
AM_ISO$4
 70
     0
  3

  4
"
  5

  6

  7

 40
1.0
 41
2.5
 42
1.0
 43
8.0
 44
0.6
 45
0.0
 46
0.0
 47
0.1
 48
0.1
140
2.5
141
0.0
142
0.0
143
0.0393701
144
1.0
145
0.0
146
0.71
147
0.8
 71
     0
 72
     0
 73
     0
 74
     1
 75
     0
 76
     0
 77
     1
 78
     8
170
     0
171
     2
172
     0
173
     0
174
     0
175
     0
176
   256
177
   256
178
     4
  0
DIMSTYLE
  2
AM_ISO$6
 70
     0
  3

  4
"
  5

  6

  7

 40
1.0
 41
2.5
 42
1.0
 43
8.0
 44
0.6
 45
0.0
 46
0.0
 47
0.1
 48
0.1
140
2.5
141
0.0
142
0.0
143
0.0393701
144
1.0
145
0.0
146
0.71
147
0.8
 71
     0
 72
     0
 73
     0
 74
     0
 75
     0
 76
     0
 77
     0
 78
     8
170
     0
171
     2
172
     1
173
     0
174
     0
175
     0
176
   256
177
   256
178
     4
  0
DIMSTYLE
  2
AM_ISO$7
 70
     0
  3

  4
"
  5

  6

  7

 40
1.0
 41
2.5
 42
1.0
 43
8.0
 44
0.6
 45
0.0
 46
0.0
 47
0.1
 48
0.1
140
2.5
141
0.0
142
0.0
143
0.0393701
144
1.0
145
0.0
146
0.71
147
0.8
 71
     0
 72
     0
 73
     0
 74
     0
 75
     0
 76
     0
 77
     1
 78
     8
170
     0
171
     2
172
     1
173
     0
174
     0
175
     0
176
   256
177
   256
178
     4
  0
DIMSTYLE
  2
AM_ISO$SF
 70
     0
  3

  4
"
  5

  6

  7

 40
1.0
 41
2.5
 42
1.0
 43
10.0
 44
1.0
 45
0.0
 46
0.0
 47
0.1
 48
0.1
140
3.5
141
0.0
142
0.0
143
0.0393701
144
1.0
145
0.0
146
0.71
147
1.5
 71
     0
 72
     0
 73
     0
 74
     0
 75
     1
 76
     1
 77
     1
 78
     8
170
     0
171
     2
172
     1
173
     0
174
     0
175
     0
176
   256
177
   256
178
     2
  0
DIMSTYLE
  2
AM_ISO$SH
 70
     0
  3

  4
"
  5

  6

  7

 40
1.0
 41
2.5
 42
1.0
 43
10.0
 44
1.0
 45
0.0
 46
0.0
 47
0.1
 48
0.1
140
3.5
141
0.0
142
0.0
143
0.0393701
144
2.0
145
0.0
146
0.71
147
1.5
 71
     0
 72
     0
 73
     0
 74
     0
 75
     1
 76
     1
 77
     1
 78
     8
170
     0
171
     2
172
     1
173
     1
174
     0
175
     0
176
   256
177
   256
178
     2
  0
DIMSTYLE
  2
AM_JIS
 70
     0
  3

  4
"
  5

  6

  7

 40
1.0
 41
2.5
 42
1.0
 43
7.0
 44
1.0
 45
0.0
 46
0.0
 47
0.1
 48
0.1000000001
140
2.5
141
0.0
142
0.0
143
0.0393701
144
1.0
145
0.0
146
0.71
147
1.0
 71
     0
 72
     0
 73
     0
 74
     0
 75
     0
 76
     0
 77
     3
 78
     8
170
     0
171
     2
172
     1
173
     0
174
     0
175
     0
176
   256
177
   256
178
     4
  0
DIMSTYLE
  2
AM_JIS$3
 70
     0
  3

  4
"
  5

  6

  7

 40
1.0
 41
2.5
 42
1.0
 43
7.0
 44
1.0
 45
0.0
 46
0.0
 47
0.1
 48
0.1000000001
140
2.5
141
0.0
142
0.0
143
0.0393701
144
1.0
145
0.0
146
0.71
147
1.0
 71
     0
 72
     0
 73
     0
 74
     1
 75
     0
 76
     0
 77
     3
 78
     8
170
     0
171
     2
172
     0
173
     0
174
     0
175
     0
176
   256
177
   256
178
     4
  0
DIMSTYLE
  2
AM_JIS$4
 70
     0
  3

  4
"
  5

  6

  7

 40
1.0
 41
2.5
 42
1.0
 43
7.0
 44
1.0
 45
0.0
 46
0.0
 47
0.1
 48
0.1000000001
140
2.5
141
0.0
142
0.0
143
0.0393701
144
1.0
145
0.0
146
0.71
147
1.0
 71
     0
 72
     0
 73
     0
 74
     0
 75
     0
 76
     0
 77
     3
 78
     8
170
     0
171
     2
172
     0
173
     0
174
     0
175
     0
176
   256
177
   256
178
     4
  0
DIMSTYLE
  2
AM_JIS$6
 70
     0
  3

  4
"
  5

  6

  7

 40
1.0
 41
2.5
 42
1.0
 43
7.0
 44
1.0
 45
0.0
 46
0.0
 47
0.1
 48
0.1000000001
140
2.5
141
0.0
142
0.0
143
0.0393701
144
1.0
145
0.0
146
0.71
147
1.0
 71
     0
 72
     0
 73
     0
 74
     0
 75
     0
 76
     0
 77
     0
 78
     8
170
     0
171
     2
172
     1
173
     0
174
     0
175
     0
176
   256
177
   256
178
     4
  0
DIMSTYLE
  2
AM_JIS$7
 70
     0
  3

  4
"
  5

  6

  7

 40
1.0
 41
2.5
 42
1.0
 43
7.0
 44
1.0
 45
0.0
 46
0.0
 47
0.1
 48
0.1000000001
140
2.5
141
0.0
142
0.0
143
0.0393701
144
1.0
145
0.0
146
0.71
147
1.0
 71
     0
 72
     0
 73
     0
 74
     0
 75
     0
 76
     0
 77
     3
 78
     8
170
     0
171
     2
172
     1
173
     0
174
     0
175
     0
176
   256
177
   256
178
     4
  0
DIMSTYLE
  2
AM_JIS$SF
 70
     0
  3

  4
"
  5

  6

  7

 40
1.0
 41
2.5
 42
1.0
 43
10.0
 44
1.0
 45
0.0
 46
0.0
 47
0.1
 48
0.1
140
3.5
141
0.0
142
0.0
143
0.0393701
144
1.0
145
0.0
146
0.71
147
1.5
 71
     0
 72
     0
 73
     0
 74
     0
 75
     1
 76
     1
 77
     3
 78
     8
170
     0
171
     2
172
     1
173
     0
174
     0
175
     0
176
   256
177
   256
178
     4
  0
DIMSTYLE
  2
AM_JIS$SH
 70
     0
  3

  4
"
  5

  6

  7

 40
1.0
 41
2.5
 42
1.0
 43
10.0
 44
1.0
 45
0.0
 46
0.0
 47
0.1
 48
0.1
140
3.5
141
0.0
142
0.0
143
0.0393701
144
1.0
145
0.0
146
0.71
147
1.5
 71
     0
 72
     0
 73
     0
 74
     0
 75
     1
 76
     0
 77
     3
 78
     8
170
     0
171
     2
172
     1
173
     1
174
     0
175
     0
176
   256
177
   256
178
     4
  0
DIMSTYLE
  2
AM_ANSI
 70
     0
  3

  4
mm
  5

  6

  7

 40
1.0
 41
0.1
 42
0.05
 43
0.5
 44
0.1
 45
0.0
 46
0.0
 47
0.1
 48
0.1
140
0.12
141
0.0
142
0.0
143
25.399999999999999
144
1.0
145
0.0
146
0.71
147
0.06
 71
     0
 72
     0
 73
     1
 74
     1
 75
     0
 76
     0
 77
     0
 78
     7
170
     0
171
     2
172
     0
173
     0
174
     0
175
     0
176
   256
177
   256
178
     2
  0
DIMSTYLE
  2
AM_ANSI$3
 70
     0
  3

  4
mm
  5

  6

  7

 40
1.0
 41
0.1
 42
0.05
 43
0.5
 44
0.1
 45
0.0
 46
0.0
 47
0.1
 48
0.1
140
0.12
141
0.0
142
0.0
143
25.399999999999999
144
1.0
145
0.0
146
0.71
147
0.06
 71
     0
 72
     0
 73
     1
 74
     1
 75
     0
 76
     0
 77
     0
 78
     7
170
     0
171
     2
172
     0
173
     0
174
     0
175
     0
176
   256
177
   256
178
     2
  0
DIMSTYLE
  2
AM_ANSI$4
 70
     0
  3

  4
mm
  5

  6

  7

 40
1.0
 41
0.1
 42
0.05
 43
0.5
 44
0.1
 45
0.0
 46
0.0
 47
0.1
 48
0.1
140
0.12
141
0.0
142
0.0
143
25.399999999999999
144
1.0
145
0.0
146
0.71
147
0.06
 71
     0
 72
     0
 73
     1
 74
     1
 75
     0
 76
     0
 77
     0
 78
     7
170
     0
171
     2
172
     0
173
     0
174
     0
175
     0
176
   256
177
   256
178
     2
  0
DIMSTYLE
  2
AM_ANSI$7
 70
     0
  3

  4
mm
  5

  6

  7

 40
1.0
 41
0.1
 42
0.05
 43
0.5
 44
0.1
 45
0.0
 46
0.0
 47
0.1
 48
0.1
140
0.24
141
0.0
142
0.0
143
25.399999999999999
144
1.0
145
0.0
146
0.71
147
0.06
 71
     0
 72
     0
 73
     1
 74
     1
 75
     0
 76
     0
 77
     0
 78
     7
170
     0
171
     2
172
     0
173
     0
174
     0
175
     0
176
   256
177
   256
178
     2
  0
DIMSTYLE
  2
AM_ANSI$SF
 70
     0
  3

  4
mm
  5

  6

  7

 40
1.0
 41
0.1
 42
0.05
 43
0.5
 44
0.1
 45
0.0
 46
0.0
 47
0.1
 48
0.1
140
0.12
141
0.0
142
0.0
143
25.399999999999999
144
1.0
145
0.0
146
0.71
147
0.06
 71
     0
 72
     0
 73
     1
 74
     1
 75
     1
 76
     1
 77
     0
 78
     7
170
     0
171
     2
172
     0
173
     0
174
     0
175
     0
176
   256
177
   256
178
     2
  0
DIMSTYLE
  2
AM_ANSI$SH
 70
     0
  3

  4
mm
  5

  6

  7

 40
1.0
 41
0.1
 42
0.05
 43
0.5
 44
0.1
 45
0.0
 46
0.0
 47
0.1
 48
0.1
140
0.12
141
0.0
142
0.0
143
25.399999999999999
144
1.0
145
0.0
146
0.71
147
0.06
 71
     0
 72
     0
 73
     1
 74
     1
 75
     1
 76
     1
 77
     0
 78
     7
170
     0
171
     2
172
     0
173
     1
174
     0
175
     0
176
   256
177
   256
178
     2
  0
ENDTAB
  0
ENDSEC
  0
SECTION
  2
BLOCKS
  0
BLOCK
  8
0
  2
$MODEL_SPACE
 70
     0
 10
0.0
 20
0.0
 30
0.0
  3
$MODEL_SPACE
  1

  0
ENDBLK
  5
2E27
  8
0
  0
BLOCK
 67
     1
  8
0
  2
$PAPER_SPACE
 70
     0
 10
0.0
 20
0.0
 30
0.0
  3
$PAPER_SPACE
  1

  0
ENDBLK
  5
2E23
 67
     1
  8
0
  0
BLOCK
  8
0
  2
GENAXEH
 70
     0
 10
0.0
 20
0.0
 30
0.0
  3
GENAXEH
  1

  0
LINE
  5
2BA5
  8
0
 10
-1.0
 20
0.0
 30
0.0
 11
1.0
 21
0.0
 31
0.0
  0
ENDBLK
  5
2BA6
  8
0
  0
BLOCK
  8
0
  2
_OPEN30
 70
     0
 10
0.0
 20
0.0
 30
0.0
  3
_OPEN30
  1

  0
LINE
  5
2BA9
  8
0
 62
     0
 10
-1.0
 20
0.26794919
 30
0.0
 11
0.0
 21
0.0
 31
0.0
  0
LINE
  5
2BAA
  8
0
 62
     0
 10
0.0
 20
0.0
 30
0.0
 11
-1.0
 21
-0.26794919
 31
0.0
  0
LINE
  5
2BAB
  8
0
 62
     0
 10
0.0
 20
0.0
 30
0.0
 11
-1.0
 21
0.0
 31
0.0
  0
ENDBLK
  5
2BAC
  8
0
  0
BLOCK
  8
0
  2
_NONE
 70
     0
 10
0.0
 20
0.0
 30
0.0
  3
_NONE
  1

  0
ENDBLK
  5
2BAF
  8
0
  0
BLOCK
  8
0
  2
*U5
 70
     1
 10
0.0
 20
0.0
 30
0.0
  3
*U5
  1

  0
TEXT
  5
2BB2
  8
AM_0
 62
     4
 10
709.12888974490863
 20
237.84718006622751
 30
0.0
 40
7.5
  1
95
 50
90.0
 41
0.8299999999999999
  0
TEXT
  5
2BB3
  8
AM_0
 62
     3
 10
702.02888974490861
 20
250.2971800662275
 30
0.0
 40
5.3249999999999993
  1
 0
 50
90.0
 41
0.8299999999999999
  0
TEXT
  5
2BB4
  8
AM_0
 62
     3
 10
709.12888974490863
 20
250.2971800662275
 30
0.0
 40
5.3249999999999993
  1
-0.5
 50
90.0
 41
0.8299999999999999
  0
ENDBLK
  5
2BB5
  8
0
  0
BLOCK
  8
0
  2
_ACMFILLEDHALF
 70
     0
 10
0.0
 20
0.0
 30
0.0
  3
_ACMFILLEDHALF
  1

  0
TRACE
  5
2F1E
  8
AM_0
 62
     0
 10
-0.8
 20
0.0
 30
0.0
 11
-1.0
 21
0.166666666
 31
0.0
 12
0.0
 22
0.0
 32
0.0
 13
0.0
 23
0.0
 33
0.0
  0
LINE
  5
2F1F
  8
AM_0
 62
     0
 10
-1.0
 20
0.0
 30
0.0
 11
-0.8
 21
0.0
 31
0.0
  0
ENDBLK
  5
2F1D
  8
0
  0
ENDSEC
  0
SECTION
  2
ENTITIES
  0
LINE
  5
2BB6
  8
AM_0
 10
287.38400499816112
 20
319.3278420662275
 30
0.0
 11
287.38400499816112
 21
214.96341306622739
 31
0.0
  0
LINE
  5
2BB7
  8
AM_0
 10
343.38395499816141
 20
342.6796020662274
 30
0.0
 11
343.38395499816141
 21
233.87430306622741
 31
0.0
  0
LINE
  5
2BB8
  8
AM_0
 10
330.38393499816112
 20
307.6243020662273
 30
0.0
 11
330.38393499816112
 21
219.8334990662274
 31
0.0
  0
LINE
  5
2BB9
  8
AM_0
 10
297.38393499816118
 20
285.0497640662274
 30
0.0
 11
297.38393499816118
 21
248.3579610662274
 31
0.0
  0
LINE
  5
2BBA
  8
AM_0
 10
356.38397499816108
 20
328.08448206622751
 30
0.0
 11
356.38397499816108
 21
218.5780530662274
 31
0.0
  0
LINE
  5
2BBB
  8
AM_0
 10
294.38393499816118
 20
348.83350206622742
 30
0.0
 11
294.38393499816118
 21
233.6906460662274
 31
0.0
  0
LINE
  5
2BBC
  8
AM_0
 10
359.38397499816108
 20
272.48817906622747
 30
0.0
 11
359.38397499816108
 21
323.1787920662274
 31
0.0
  0
LINE
  5
2BBD
  8
AM_0
 10
246.3839849981614
 20
333.07210742026228
 30
0.0
 11
246.38398499816211
 21
222.5948647121925
 31
0.0
  0
LINE
  5
2BBE
  8
AM_0
 10
221.3839849981614
 20
302.83348606622718
 30
0.0
 11
221.3839849981614
 21
252.83348606622721
 31
0.0
  0
LINE
  5
2BBF
  8
AM_0
 10
200.88398499816111
 20
254.83348606622721
 30
0.0
 11
200.8839849981614
 21
300.83348606622729
 31
0.0
  0
LINE
  5
2BC0
  8
AM_0
 10
198.8839849981614
 20
292.00505894148108
 30
0.0
 11
198.8839849981614
 21
263.66191319097362
 31
0.0
  0
LINE
  5
2BC1
  8
AM_0
 10
171.88398499816131
 20
285.33348606622718
 30
0.0
 11
171.88398499816131
 21
271.83348606622729
 31
0.0
  0
LINE
  5
2BC2
  8
AM_0
 10
196.8839849981612
 20
285.33348606622718
 30
0.0
 11
196.8839849981612
 21
270.33347843683282
 31
0.0
  0
LINE
  5
2BC3
  8
AM_0
 10
256.3839849981614
 20
221.33348606622741
 30
0.0
 11
256.3839849981614
 21
334.33348606622729
 31
0.0
  0
LINE
  5
2BC4
  8
AM_0
 10
286.33334499816141
 20
214.83349806622741
 30
0.0
 11
294.38393499816118
 21
214.83349806622741
 31
0.0
  0
LINE
  5
2BC5
  8
AM_0
 10
291.38393499816112
 20
203.83348506622741
 30
0.0
 11
333.38393499816112
 21
203.83348506622741
 31
0.0
  0
LINE
  5
2BC6
  8
AM_0
 10
291.22451499816111
 20
218.7959790662274
 30
0.0
 11
297.27509499816142
 21
247.32043806622741
 31
0.0
  0
LINE
  5
2BC7
  8
AM_0
 10
244.9195189040941
 20
229.29795216029461
 30
0.0
 11
224.31291718629581
 21
249.9045538780928
 31
0.0
  0
LINE
  5
2BC8
  8
AM_0
 10
171.88398499816131
 20
271.83348606622729
 30
0.0
 11
196.8839849981612
 21
271.83348606622729
 31
0.0
  0
LINE
  5
2BC9
  8
AM_0
 10
202.8839849981614
 20
252.83348606622729
 30
0.0
 11
217.2418493744303
 21
252.83348606622721
 31
0.0
  0
ARC
  5
2BCA
  8
AM_0
 10
202.8839849981614
 20
254.83348606622729
 30
0.0
 40
2.0
 50
180.0
 51
270.0
1001
GENIUS_GENODEF_13
1002
{
1000
HIER
1070
     0
1002
}
1002
{
1000
MANEDIT
1070
     0
1002
}
1002
{
1000
NOSEL
1070
     0
1002
}
1002
{
1000
BEHIND
1070
     0
1002
}
1002
{
1000
OTHER
1070
     0
1002
}
1002
{
1000
REACTOR
1002
}
1001
GENIUS_GENOBJ-N-FIL_13
1002
{
1000
OWNER
1000
GEN
1002
}
  0
ARC
  5
2BCB
  8
AM_0
 10
217.2418493744303
 20
242.83348606622741
 30
0.0
 40
10.0
 50
45.0
 51
90.0
1001
GENIUS_GENOBJ-N-FIL_13
1002
{
1000
OWNER
1000
GEN
1002
}
1001
GENIUS_GENODEF_13
1002
{
1000
HIER
1070
     0
1002
}
1002
{
1000
MANEDIT
1070
     0
1002
}
1002
{
1000
NOSEL
1070
     0
1002
}
1002
{
1000
BEHIND
1070
     0
1002
}
1002
{
1000
OTHER
1070
     0
1002
}
1002
{
1000
REACTOR
1002
}
  0
ARC
  5
2BCC
  8
AM_0
 10
200.8839849981614
 20
263.66191319097362
 30
0.0
 40
2.0
 50
180.0
 51
225.0000000000006
1001
GENIUS_GENODEF_13
1002
{
1000
HIER
1070
     0
1002
}
1002
{
1000
MANEDIT
1070
     0
1002
}
1002
{
1000
NOSEL
1070
     0
1002
}
1002
{
1000
BEHIND
1070
     0
1002
}
1002
{
1000
OTHER
1070
     0
1002
}
1002
{
1000
REACTOR
1002
}
1001
GENIUS_GENOBJ-N-FIL_13
1002
{
1000
OWNER
1000
GEN
1002
}
  0
LINE
  5
2BCD
  8
AM_0
 10
199.4697714357882
 20
262.2476996286004
 30
0.0
 11
200.2981985605345
 21
261.4192725038543
 31
0.0
  0
ARC
  5
2BCE
  8
AM_0
 10
198.8839849981614
 20
260.0050589414812
 30
0.0
 40
2.0
 50
0.0
 51
45.000000000000568
1001
GENIUS_GENODEF_13
1002
{
1000
HIER
1070
     0
1002
}
1002
{
1000
MANEDIT
1070
     0
1002
}
1002
{
1000
NOSEL
1070
     0
1002
}
1002
{
1000
BEHIND
1070
     0
1002
}
1002
{
1000
OTHER
1070
     0
1002
}
1002
{
1000
REACTOR
1002
}
1001
GENIUS_GENOBJ-N-FIL_13
1002
{
1000
OWNER
1000
GEN
1002
}
  0
LINE
  5
2BCF
  8
AM_0
 10
196.8839849981612
 20
270.33347843683282
 30
0.0
 11
198.8839849981614
 21
270.33347843683282
 31
0.0
  0
LINE
  5
2BD0
  8
AM_0
 10
256.3839849981614
 20
231.8334990662274
 30
0.0
 11
287.38400499816112
 21
231.8334990662274
 31
0.0
  0
LINE
  5
2BD1
  8
AM_0
 10
256.3839849981614
 20
221.8335000662274
 30
0.0
 11
279.46247499816121
 21
221.2291590662274
 31
0.0
  0
LINE
  5
2BD2
  8
AM_0
 10
247.35500180487799
 20
221.59528481318131
 30
0.0
 11
256.3839849981614
 21
221.33348606622741
 31
0.0
  0
ARC
  5
2BD3
  8
AM_0
 10
247.3839849981612
 20
222.5948647121925
 30
0.0
 40
1.0
 50
180.0
 51
268.33915276702578
1001
GENIUS_GENOBJ-N-FIL_13
1002
{
1000
OWNER
1000
GEN
1002
}
1001
GENIUS_GENODEF_13
1002
{
1000
HIER
1070
     0
1002
}
1002
{
1000
MANEDIT
1070
     0
1002
}
1002
{
1000
NOSEL
1070
     0
1002
}
1002
{
1000
BEHIND
1070
     0
1002
}
1002
{
1000
OTHER
1070
     0
1002
}
1002
{
1000
REACTOR
1002
}
  0
ARC
  5
2BD4
  8
AM_0
 10
241.3839849981612
 20
225.76241825436199
 30
0.0
 40
5.0
 50
0.0
 51
45.0
1001
GENIUS_GENODEF_13
1002
{
1000
HIER
1070
     0
1002
}
1002
{
1000
MANEDIT
1070
     0
1002
}
1002
{
1000
NOSEL
1070
     0
1002
}
1002
{
1000
BEHIND
1070
     0
1002
}
1002
{
1000
OTHER
1070
     0
1002
}
1002
{
1000
REACTOR
1002
}
1001
GENIUS_GENOBJ-N-FIL_13
1002
{
1000
OWNER
1000
GEN
1002
}
  0
LINE
  5
2BD5
  8
ﾁｭｳｼﾝｾﾝ1
 10
277.3839849981614
 20
218.84656206622731
 30
0.0
 11
277.3839849981614
 21
199.54789791019971
 31
0.0
  0
LINE
  5
2BD6
  8
ｶｸﾚｾﾝ2
 10
283.3839849981614
 20
214.83349806622741
 30
0.0
 11
283.3839849981614
 21
202.83349806622741
 31
0.0
  0
LINE
  5
2BD7
  8
AM_0
 10
265.3839849981614
 20
212.83348506622741
 30
0.0
 11
265.3839849981614
 21
202.83349806622741
 31
0.0
  0
LINE
  5
2BD8
  8
ｶｸﾚｾﾝ2
 10
271.3839849981614
 20
214.83349806622741
 30
0.0
 11
271.3839849981614
 21
202.83349806622741
 31
0.0
  0
LINE
  5
2BD9
  8
AM_0
 10
265.3839849981614
 20
202.83349806622741
 30
0.0
 11
290.384004998161
 21
202.83349806622741
 31
0.0
  0
LINE
  5
2BDA
  8
AM_0
 10
290.384004998161
 20
202.83349806622741
 30
0.0
 11
290.384004998161
 21
202.83349806622741
 31
0.0
  0
ARC
  5
2BDB
  8
AM_0
 10
291.38393499816112
 20
202.83349806622741
 30
0.0
 40
1.0000000199999981
 50
90.000003000000007
 51
180.00001
  0
LINE
  5
2BDC
  8
AM_0
 10
267.38393499816129
 20
214.83349806622741
 30
0.0
 11
286.33334499816141
 21
214.83349806622741
 31
0.0
  0
ARC
  5
2BDD
  8
AM_0
 10
267.38393499816129
 20
212.83348506622741
 30
0.0
 40
2.00000007
 50
90.000003000000007
 51
180.00001
  0
LINE
  5
2BDE
  8
AM_0
 10
282.38393499816118
 20
226.6177410662275
 30
0.0
 11
282.38393499816118
 21
214.83349806622741
 31
0.0
  0
ARC
  5
2BDF
  8
AM_0
 10
279.38393499816129
 20
218.2301820662274
 30
0.0
 40
3.0
 50
0.0
 51
88.499996999999965
  0
ARC
  5
2BE0
  8
AM_0
 10
286.33334499816141
 20
219.8334990662274
 30
0.0
 40
5.0000001000000003
 50
270.0
 51
348.02386999999999
  0
LINE
  5
2BE1
  8
AM_0
 10
282.38393499816118
 20
228.6177570662276
 30
0.0
 11
287.38400499816112
 21
228.6177570662276
 31
0.0
  0
ARC
  5
2BE2
  8
AM_0
 10
280.38398499816128
 20
226.6177410662275
 30
0.0
 40
2.00000007
 50
0.0
 51
90.000003000000007
  0
LINE
  5
2BE3
  8
AM_0
 10
256.3839849981614
 20
245.8964730662274
 30
0.0
 11
287.38400499816112
 21
245.8964730662274
 31
0.0
  0
LINE
  5
2BE4
  8
AM_0
 10
297.38393499816118
 20
217.83349806622741
 30
0.0
 11
297.38393499816118
 21
247.8335010662274
 31
0.0
  0
ARC
  5
2BE5
  8
AM_0
 10
294.38393499816118
 20
217.83349806622741
 30
0.0
 40
3.0
 50
270.0
 51
0.0
  0
LINE
  5
2BE6
  8
ｶｸﾚｾﾝ2
 10
341.38397499816119
 20
214.83349806622741
 30
0.0
 11
341.38397499816119
 21
202.83349806622741
 31
0.0
  0
LINE
  5
2BE7
  8
AM_0
 10
359.38397499816108
 20
212.83348506622741
 30
0.0
 11
359.38397499816108
 21
202.83349806622741
 31
0.0
  0
LINE
  5
2BE8
  8
ｶｸﾚｾﾝ2
 10
353.38397499816108
 20
214.83349806622741
 30
0.0
 11
353.38397499816108
 21
202.83349806622741
 31
0.0
  0
LINE
  5
2BE9
  8
ﾁｭｳｼﾝｾﾝ1
 10
347.38397499816108
 20
218.84656206622731
 30
0.0
 11
347.38397499816108
 21
199.40058142006299
 31
0.0
  0
LINE
  5
2BEA
  8
AM_0
 10
334.38395499816141
 20
202.83349806622741
 30
0.0
 11
359.38397499816108
 21
202.83349806622741
 31
0.0
  0
ARC
  5
2BEB
  8
AM_0
 10
333.38393499816112
 20
202.83349806622741
 30
0.0
 40
1.0000000199999981
 50
0.0
 51
90.000003000000007
  0
LINE
  5
2BEC
  8
AM_0
 10
334.38395499816141
 20
202.83349806622741
 30
0.0
 11
334.38395499816141
 21
202.83349806622741
 31
0.0
  0
LINE
  5
2BED
  8
AM_0
 10
335.38397499816119
 20
214.83349806622741
 30
0.0
 11
357.38393499816118
 21
214.83349806622741
 31
0.0
  0
ARC
  5
2BEE
  8
AM_0
 10
339.38393499816112
 20
233.87430306622741
 30
0.0
 40
4.000000199999997
 50
270.0
 51
0.0
  0
ARC
  5
2BEF
  8
AM_0
 10
335.38397499816119
 20
219.8334990662274
 30
0.0
 40
5.0000001000000003
 50
180.00001
 51
270.0
  0
LINE
  5
2BF0
  8
AM_0
 10
330.38393499816112
 20
229.87431606622721
 30
0.0
 11
339.38393499816112
 21
229.87431606622721
 31
0.0
  0
ARC
  5
2BF1
  8
AM_0
 10
357.38393499816118
 20
212.83348506622741
 30
0.0
 40
2.00000007
 50
0.0
 51
90.000003000000007
  0
ARC
  5
2BF2
  8
AM_0
 10
361.38395499816153
 20
218.5780530662274
 30
0.0
 40
5.0000001000000003
 50
179.99998999999991
 51
235.15011000000001
  0
ARC
  5
2BF3
  8
AM_0
 10
292.3839849981614
 20
248.3579610662274
 30
0.0
 40
5.0000001000000003
 50
348.02386999999999
 51
0.0
  0
LINE
  5
2BF4
  8
AM_0
 10
357.38396499816122
 20
270.17879106622729
 30
0.0
 11
358.38395499816141
 21
270.75612306622747
 31
0.0
  0
ARC
  5
2BF5
  8
AM_0
 10
357.38393499816118
 20
272.48817906622747
 30
0.0
 40
2.00000007
 50
300.0
 51
0.0
  0
ARC
  5
2BF6
  8
AM_0
 10
358.38395499816141
 20
268.4467350662274
 30
0.0
 40
2.00000007
 50
119.9999999999999
 51
180.00001
  0
LINE
  5
2BF7
  8
AM_0
 10
289.38398499816122
 20
348.83350206622742
 30
0.0
 11
294.38393499816118
 21
348.83350206622742
 31
0.0
  0
LINE
  5
2BF8
  8
ﾁｭｳｼﾝｾﾝ1
 10
405.09644499816091
 20
297.83348706622752
 30
0.0
 11
277.48324896862988
 21
297.83348706622752
 31
0.0
  0
LINE
  5
2BF9
  8
AM_0
 10
244.9195189040941
 20
326.36901997216012
 30
0.0
 11
224.31291718629581
 21
305.76241825436188
 31
0.0
  0
LINE
  5
2BFA
  8
ﾁｭｳｼﾝｾﾝ1
 10
166.3683359788505
 20
277.83348606622729
 30
0.0
 11
291.80988472938401
 21
277.83348606622729
 31
0.0
  0
LINE
  5
2BFB
  8
AM_0
 10
171.88398499816131
 20
283.83348606622752
 30
0.0
 11
196.8839849981612
 21
283.83348606622752
 31
0.0
  0
LINE
  5
2BFC
  8
AM_0
 10
171.88398499816131
 20
285.33348606622718
 30
0.0
 11
189.8839849981612
 21
285.33348606622718
 31
0.0
  0
LINE
  5
2BFD
  8
AM_0
 10
189.8839849981612
 20
285.33348606622718
 30
0.0
 11
189.8839849981612
 21
283.83348606622752
 31
0.0
  0
LINE
  5
2BFE
  8
AM_0
 10
196.8839849981612
 20
285.33348606622718
 30
0.0
 11
198.8839849981614
 21
285.33348606622718
 31
0.0
  0
ARC
  5
2BFF
  8
AM_0
 10
200.8839849981614
 20
292.00505894148108
 30
0.0
 40
2.0
 50
134.9999999999994
 51
180.0
1001
GENIUS_GENODEF_13
1002
{
1000
HIER
1070
     0
1002
}
1002
{
1000
MANEDIT
1070
     0
1002
}
1002
{
1000
NOSEL
1070
     0
1002
}
1002
{
1000
BEHIND
1070
     0
1002
}
1002
{
1000
OTHER
1070
     0
1002
}
1002
{
1000
REACTOR
1002
}
1001
GENIUS_GENOBJ-N-FIL_13
1002
{
1000
OWNER
1000
GEN
1002
}
  0
ARC
  5
2C00
  8
AM_0
 10
198.8839849981614
 20
295.66191319097328
 30
0.0
 40
2.0
 50
314.99999999999932
 51
0.0
1001
GENIUS_GENODEF_13
1002
{
1000
HIER
1070
     0
1002
}
1002
{
1000
MANEDIT
1070
     0
1002
}
1002
{
1000
NOSEL
1070
     0
1002
}
1002
{
1000
BEHIND
1070
     0
1002
}
1002
{
1000
OTHER
1070
     0
1002
}
1002
{
1000
REACTOR
1002
}
1001
GENIUS_GENOBJ-N-FIL_13
1002
{
1000
OWNER
1000
GEN
1002
}
  0
LINE
  5
2C01
  8
AM_0
 10
199.4697714357882
 20
293.41927250385419
 30
0.0
 11
200.2981985605345
 21
294.2476996286004
 31
0.0
  0
LINE
  5
2C02
  8
AM_0
 10
202.8839849981614
 20
302.83348606622729
 30
0.0
 11
217.2418493744303
 21
302.83348606622718
 31
0.0
  0
ARC
  5
2C03
  8
AM_0
 10
202.8839849981614
 20
300.83348606622729
 30
0.0
 40
2.0
 50
90.0
 51
180.0
1001
GENIUS_GENODEF_13
1002
{
1000
HIER
1070
     0
1002
}
1002
{
1000
MANEDIT
1070
     0
1002
}
1002
{
1000
NOSEL
1070
     0
1002
}
1002
{
1000
BEHIND
1070
     0
1002
}
1002
{
1000
OTHER
1070
     0
1002
}
1002
{
1000
REACTOR
1002
}
1001
GENIUS_GENOBJ-N-FIL_13
1002
{
1000
OWNER
1000
GEN
1002
}
  0
ARC
  5
2C04
  8
AM_0
 10
217.2418493744303
 20
312.83348606622718
 30
0.0
 40
10.0
 50
270.0
 51
315.0
1001
GENIUS_GENODEF_13
1002
{
1000
HIER
1070
     0
1002
}
1002
{
1000
MANEDIT
1070
     0
1002
}
1002
{
1000
NOSEL
1070
     0
1002
}
1002
{
1000
BEHIND
1070
     0
1002
}
1002
{
1000
OTHER
1070
     0
1002
}
1002
{
1000
REACTOR
1002
}
1001
GENIUS_GENOBJ-N-FIL_13
1002
{
1000
OWNER
1000
GEN
1002
}
  0
ARC
  5
2C05
  8
AM_0
 10
285.38393499816118
 20
319.3278420662275
 30
0.0
 40
2.00000007
 50
0.0
 51
90.000003000000007
  0
LINE
  5
2C06
  8
AM_0
 10
282.38393499816118
 20
327.50065206622747
 30
0.0
 11
282.38393499816118
 21
307.8615420662274
 31
0.0
  0
LINE
  5
2C07
  8
AM_0
 10
256.3839849981614
 20
309.77050206622738
 30
0.0
 11
282.38393499816118
 21
309.77050206622738
 31
0.0
  0
LINE
  5
2C08
  8
AM_0
 10
282.38393499816118
 20
305.86153206622748
 30
0.0
 11
287.38400499816112
 21
305.86153206622748
 31
0.0
  0
ARC
  5
2C09
  8
AM_0
 10
280.38398499816128
 20
307.8615420662274
 30
0.0
 40
2.00000007
 50
270.0
 51
0.0
  0
LINE
  5
2C0A
  8
AM_0
 10
256.3839849981614
 20
323.83348206622748
 30
0.0
 11
282.38393499816118
 21
323.83348206622748
 31
0.0
  0
LINE
  5
2C0B
  8
AM_0
 10
256.38392499816109
 20
333.83350206622748
 30
0.0
 11
282.5148549981613
 21
334.5177420662273
 31
0.0
  0
ARC
  5
2C0C
  8
AM_0
 10
241.3839849981612
 20
329.90455387809283
 30
0.0
 40
5.0
 50
315.0
 51
0.0
1001
GENIUS_GENODEF_13
1002
{
1000
HIER
1070
     0
1002
}
1002
{
1000
MANEDIT
1070
     0
1002
}
1002
{
1000
NOSEL
1070
     0
1002
}
1002
{
1000
BEHIND
1070
     0
1002
}
1002
{
1000
OTHER
1070
     0
1002
}
1002
{
1000
REACTOR
1002
}
1001
GENIUS_GENOBJ-N-FIL_13
1002
{
1000
OWNER
1000
GEN
1002
}
  0
LINE
  5
2C0D
  8
AM_0
 10
247.35500180487799
 20
334.07168731927339
 30
0.0
 11
256.3839849981614
 21
334.33348606622729
 31
0.0
  0
ARC
  5
2C0E
  8
AM_0
 10
247.3839849981612
 20
333.07210742026228
 30
0.0
 40
1.0
 50
91.66084723297412
 51
180.0
1001
GENIUS_GENOBJ-N-FIL_13
1002
{
1000
OWNER
1000
GEN
1002
}
1001
GENIUS_GENODEF_13
1002
{
1000
HIER
1070
     0
1002
}
1002
{
1000
MANEDIT
1070
     0
1002
}
1002
{
1000
NOSEL
1070
     0
1002
}
1002
{
1000
BEHIND
1070
     0
1002
}
1002
{
1000
OTHER
1070
     0
1002
}
1002
{
1000
REACTOR
1002
}
  0
LINE
  5
2C0F
  8
AM_0
 10
287.38400499816112
 20
346.83349206622728
 30
0.0
 11
287.38400499816112
 21
331.50064206622727
 31
0.0
  0
LINE
  5
2C10
  8
AM_0
 10
284.38400499816112
 20
321.32785206622748
 30
0.0
 11
285.38393499816118
 21
321.32785206622748
 31
0.0
  0
LINE
  5
2C11
  8
AM_0
 10
284.38400499816112
 20
329.5006320662273
 30
0.0
 11
285.38393499816118
 21
329.5006320662273
 31
0.0
  0
ARC
  5
2C12
  8
AM_0
 10
284.38400499816112
 20
323.32783206622747
 30
0.0
 40
2.00000007
 50
179.99998999999991
 51
270.0
  0
ARC
  5
2C13
  8
AM_0
 10
284.38400499816112
 20
327.50065206622747
 30
0.0
 40
2.00000007
 50
90.000003000000007
 51
180.00001
  0
ARC
  5
2C14
  8
AM_0
 10
285.38393499816118
 20
331.50064206622727
 30
0.0
 40
2.00000007
 50
270.0
 51
0.0
  0
ARC
  5
2C15
  8
AM_0
 10
282.38393499816118
 20
339.51604206622739
 30
0.0
 40
5.0000001000000003
 50
271.49999999999972
 51
0.0
  0
ARC
  5
2C16
  8
AM_0
 10
289.38398499816122
 20
346.83349206622728
 30
0.0
 40
2.00000007
 50
90.000003000000007
 51
180.00001
  0
LINE
  5
2C17
  8
AM_0
 10
359.38397499816108
 20
310.33348206622748
 30
0.0
 11
361.38392499816092
 21
310.33348206622748
 31
0.0
  0
LINE
  5
2C18
  8
AM_0
 10
359.38397499816108
 20
285.33348606622718
 30
0.0
 11
361.38392499816092
 21
285.33348606622718
 31
0.0
  0
LINE
  5
2C19
  8
AM_0
 10
305.38400499816112
 20
334.36027206622748
 30
0.0
 11
305.38400499816112
 21
311.45824206622751
 31
0.0
  0
LINE
  5
2C1A
  8
AM_0
 10
306.38393499816118
 20
329.35099206622749
 30
0.0
 11
306.38393499816118
 21
315.80398206622749
 31
0.0
  0
LINE
  5
2C1B
  8
AM_0
 10
310.38392499816092
 20
317.8039320662275
 30
0.0
 11
310.38392499816092
 21
327.35098206622729
 31
0.0
  0
LINE
  5
2C1C
  8
AM_0
 10
308.38400499816112
 20
311.18221206622718
 30
0.0
 11
331.21868499816122
 21
311.18221206622718
 31
0.0
  0
LINE
  5
2C1D
  8
AM_0
 10
321.2135949981614
 20
311.18221206622718
 30
0.0
 11
308.38394499816121
 21
285.0497640662274
 31
0.0
  0
LINE
  5
2C1E
  8
AM_0
 10
308.38400499816112
 20
311.18221206622718
 30
0.0
 11
308.38400499816112
 21
285.0497640662274
 31
0.0
  0
LINE
  5
2C1F
  8
AM_0
 10
297.38393499816118
 20
285.0497640662274
 30
0.0
 11
308.38400499816112
 21
285.0497640662274
 31
0.0
  0
ARC
  5
2C20
  8
AM_0
 10
309.38393499816118
 20
317.8039320662275
 30
0.0
 40
1.0000000199999981
 50
270.0
 51
0.0
  0
ARC
  5
2C21
  8
AM_0
 10
309.38393499816118
 20
318.69073206622733
 30
0.0
 40
1.0000000199999981
 50
0.0
 51
90.000003000000007
  0
ARC
  5
2C22
  8
AM_0
 10
309.38393499816118
 20
320.6906820662274
 30
0.0
 40
1.0000000199999981
 50
270.0
 51
0.0
  0
ARC
  5
2C23
  8
AM_0
 10
306.38393499816118
 20
308.45824206622751
 30
0.0
 40
2.00000007
 50
0.0
 51
90.000003000000007
  0
ARC
  5
2C24
  8
AM_0
 10
306.38393499816118
 20
311.45824206622751
 30
0.0
 40
1.0000000199999981
 50
179.99998999999991
 51
270.0
  0
LINE
  5
2C25
  8
AM_0
 10
305.38400499816112
 20
315.80398206622749
 30
0.0
 11
306.38393499816118
 21
315.80398206622749
 31
0.0
  0
LINE
  5
2C26
  8
AM_0
 10
306.38393499816118
 20
319.69072206622741
 30
0.0
 11
309.38393499816118
 21
319.69072206622741
 31
0.0
  0
LINE
  5
2C27
  8
AM_0
 10
306.38393499816118
 20
316.8039720662274
 30
0.0
 11
309.38393499816118
 21
316.8039720662274
 31
0.0
  0
LINE
  5
2C28
  8
AM_0
 10
338.38397499816102
 20
315.62428206622729
 30
0.0
 11
343.38395499816141
 21
315.62428206622729
 31
0.0
  0
ARC
  5
2C29
  8
AM_0
 10
338.38397499816102
 20
307.6243020662273
 30
0.0
 40
8.0000000999999976
 50
90.000003000000007
 51
180.00001
  0
LINE
  5
2C2A
  8
AM_0
 10
294.38399499816092
 20
348.83350206622742
 30
0.0
 11
338.5148649981611
 21
347.67787206622728
 31
0.0
  0
LINE
  5
2C2B
  8
AM_0
 10
308.38400499816112
 20
329.3609520662273
 30
0.0
 11
343.38395499816141
 21
329.3609520662273
 31
0.0
  0
LINE
  5
2C2C
  8
AM_0
 10
308.38394499816121
 20
348.38833206622729
 30
0.0
 11
321.96590499816142
 21
329.3609520662273
 31
0.0
  0
LINE
  5
2C2D
  8
AM_0
 10
308.38400499816112
 20
348.38833206622729
 30
0.0
 11
308.38400499816112
 21
329.3609520662273
 31
0.0
  0
ARC
  5
2C2E
  8
AM_0
 10
309.38393499816118
 20
327.35098206622729
 30
0.0
 40
1.0000000199999981
 50
0.0
 51
90.000003000000007
  0
ARC
  5
2C2F
  8
AM_0
 10
309.38393499816118
 20
326.46421206622728
 30
0.0
 40
1.0000000199999981
 50
270.0
 51
0.0
  0
ARC
  5
2C30
  8
AM_0
 10
309.38393499816118
 20
324.46423206622751
 30
0.0
 40
1.0000000199999981
 50
0.0
 51
90.000003000000007
  0
LINE
  5
2C31
  8
AM_0
 10
305.38400499816112
 20
329.35099206622749
 30
0.0
 11
306.38393499816118
 21
329.35099206622749
 31
0.0
  0
LINE
  5
2C32
  8
AM_0
 10
306.38393499816118
 20
325.46422206622748
 30
0.0
 11
309.38393499816118
 21
325.46422206622748
 31
0.0
  0
LINE
  5
2C33
  8
AM_0
 10
306.38393499816118
 20
328.3510020662273
 30
0.0
 11
309.38393499816118
 21
328.3510020662273
 31
0.0
  0
ARC
  5
2C34
  8
AM_0
 10
306.38393499816118
 20
334.36027206622748
 30
0.0
 40
1.0000000199999981
 50
90.000003000000007
 51
180.00001
  0
ARC
  5
2C35
  8
AM_0
 10
306.38393499816118
 20
337.36027206622748
 30
0.0
 40
2.00000007
 50
270.0
 51
0.0
  0
ARC
  5
2C36
  8
AM_0
 10
348.38393499816118
 20
336.55249206622739
 30
0.0
 40
5.0000001000000003
 50
179.99998999999991
 51
265.0
  0
LINE
  5
2C37
  8
AM_0
 10
347.94818499816108
 20
331.57153206622752
 30
0.0
 11
353.64545499816109
 21
331.0730820662273
 31
0.0
  0
LINE
  5
2C38
  8
AM_0
 10
357.38396499816122
 20
325.48819206622738
 30
0.0
 11
358.3839849981614
 21
324.91084206622747
 31
0.0
  0
ARC
  5
2C39
  8
AM_0
 10
357.38393499816118
 20
323.1787920662274
 30
0.0
 40
2.00000007
 50
0.0
 51
60.000002000000002
  0
ARC
  5
2C3A
  8
AM_0
 10
353.38397499816108
 20
328.08448206622751
 30
0.0
 40
3.0
 50
0.0
 51
84.999996999999979
  0
ARC
  5
2C3B
  8
AM_0
 10
358.38395499816141
 20
327.22024206622729
 30
0.0
 40
2.00000007
 50
179.99998999999991
 51
240.00001
  0
ARC
  5
2C3C
  8
AM_0
 10
338.38397499816102
 20
342.6796020662274
 30
0.0
 40
5.0000001000000003
 50
0.0
 51
88.499996999999965
  0
LINE
  5
2C3D
  8
AM_0
 10
369.38393499816118
 20
312.83347206622739
 30
0.0
 11
401.38397499816091
 21
312.83347206622739
 31
0.0
  0
LINE
  5
2C3E
  8
AM_0
 10
361.38392499816092
 20
285.83348706622752
 30
0.0
 11
401.38397499816091
 21
285.83348706622752
 31
0.0
  0
LINE
  5
2C3F
  8
AM_0
 10
361.38392499816092
 20
309.83347206622722
 30
0.0
 11
401.38397499816091
 21
309.83347206622722
 31
0.0
  0
LINE
  5
2C40
  8
AM_0
 10
361.38392499816092
 20
310.33348206622748
 30
0.0
 11
361.38392499816092
 21
285.33348606622718
 31
0.0
  0
LINE
  5
2C41
  8
AM_0
 10
369.38393499816118
 20
312.83347206622739
 30
0.0
 11
369.38393499816118
 21
309.83347206622722
 31
0.0
  0
LINE
  5
2C42
  8
AM_0
 10
401.38397499816091
 20
312.83347206622739
 30
0.0
 11
401.38397499816091
 21
285.83348706622752
 31
0.0
  0
LINE
  5
2C43
  8
ﾁｭｳｼﾝｾﾝ1
 10
589.46754441962275
 20
352.89905941032958
 30
0.0
 11
589.46754441962275
 21
198.5992140662274
 31
0.0
  0
ARC
  5
2C44
  8
AM_0
 10
589.46754441962275
 20
297.83348706622752
 30
0.0
 40
26.500002599999998
 50
270.0
 51
90.000003000000007
  0
ARC
  5
2C45
  8
AM_0
 10
589.46754441962275
 20
282.83348706622741
 30
0.0
 40
48.0
 50
0.0
 51
180.00001
  0
ARC
  5
2C46
  8
AM_0
 10
589.46754441962275
 20
297.83348706622752
 30
0.0
 40
26.500002599999998
 50
90.000003000000007
 51
270.0
  0
LINE
  5
2C47
  8
AM_0
 10
637.46754441962275
 20
282.83348706622741
 30
0.0
 11
637.46754441962275
 21
219.8334990662274
 31
0.0
  0
LINE
  5
2C48
  8
AM_0
 10
541.46753541962255
 20
282.83348706622741
 30
0.0
 11
541.46753541962255
 21
219.8334990662274
 31
0.0
  0
LINE
  5
2C49
  8
AM_0
 10
536.46758541962265
 20
313.08604206622732
 30
0.0
 11
536.46758541962265
 21
251.83348506622741
 31
0.0
  0
LINE
  5
2C4A
  8
AM_0
 10
642.46754541962309
 20
313.08604206622732
 30
0.0
 11
642.46754541962309
 21
251.83348506622741
 31
0.0
  0
LINE
  5
2C4B
  8
AM_0
 10
511.46753541962272
 20
214.83349806622741
 30
0.0
 11
522.23597541962272
 21
317.46367206622728
 31
0.0
  0
LINE
  5
2C4C
  8
AM_0
 10
667.46754441962275
 20
214.83349806622741
 30
0.0
 11
656.69912841962287
 21
317.46367206622728
 31
0.0
  0
LINE
  5
2C4D
  8
AM_0
 10
556.75987041962253
 20
206.4136530662274
 30
0.0
 11
562.09388541962289
 21
204.20422506622731
 31
0.0
  0
CIRCLE
  5
2C4E
  8
AM_0
 10
561.34025241962263
 20
209.9283630662274
 30
0.0
 40
4.9999998000000003
  0
LINE
  5
2C4F
  8
AM_0
 10
560.58668241962255
 20
215.65246806622741
 30
0.0
 11
556.00626741962265
 21
212.1377760662273
 31
0.0
  0
LINE
  5
2C50
  8
AM_0
 10
555.46754241962265
 20
219.8334990662274
 30
0.0
 11
623.46755841962306
 21
219.8334990662274
 31
0.0
  0
LINE
  5
2C51
  8
AM_0
 10
636.46754541962298
 20
203.83351506622751
 30
0.0
 11
542.46758541962276
 21
203.83351506622751
 31
0.0
  0
ARC
  5
2C52
  8
AM_0
 10
570.46754241962299
 20
251.83348506622741
 30
0.0
 40
34.000001999999988
 50
179.99998999999991
 51
211.46697
  0
LINE
  5
2C53
  8
AM_0
 10
539.46758541962265
 20
214.83349806622741
 30
0.0
 11
513.46754541962252
 21
214.83349806622741
 31
0.0
  0
LINE
  5
2C54
  8
AM_0
 10
511.46753541962272
 20
202.83349806622741
 30
0.0
 11
541.46753541962255
 21
202.83349806622741
 31
0.0
  0
LINE
  5
2C55
  8
AM_0
 10
511.46753541962272
 20
202.83349806622741
 30
0.0
 11
511.46753541962272
 21
214.83349806622741
 31
0.0
  0
LINE
  5
2C56
  8
ｶｸﾚｾﾝ2
 10
518.46758541962265
 20
214.83349806622741
 30
0.0
 11
518.46758541962265
 21
202.83349806622741
 31
0.0
  0
LINE
  5
2C57
  8
ﾁｭｳｼﾝｾﾝ1
 10
524.46755541962284
 20
219.37895406622741
 30
0.0
 11
524.46755541962284
 21
198.2880420662274
 31
0.0
  0
ARC
  5
2C58
  8
AM_0
 10
513.46754541962252
 20
212.83351506622739
 30
0.0
 40
2.00000007
 50
90.000003000000007
 51
180.00001
  0
LINE
  5
2C59
  8
AM_0
 10
541.46753541962255
 20
202.83349806622741
 30
0.0
 11
541.46753541962255
 21
212.83351506622739
 31
0.0
  0
LINE
  5
2C5A
  8
AM_0
 10
550.46754141962265
 20
214.83349806622741
 30
0.0
 11
550.46754141962265
 21
208.83349806622741
 31
0.0
  0
LINE
  5
2C5B
  8
ｶｸﾚｾﾝ2
 10
530.46758541962276
 20
214.83349806622741
 30
0.0
 11
530.46758541962276
 21
202.83349806622741
 31
0.0
  0
ARC
  5
2C5C
  8
AM_0
 10
543.46754241962265
 20
203.83351506622751
 30
0.0
 40
2.00000007
 50
90.000003000000007
 51
180.00001
  0
ARC
  5
2C5D
  8
AM_0
 10
542.46758541962276
 20
202.83349806622741
 30
0.0
 40
1.0000000199999981
 50
90.000003000000007
 51
180.00001
  0
LINE
  5
2C5E
  8
AM_0
 10
547.46754141962265
 20
205.83349806622729
 30
0.0
 11
543.46754241962265
 21
205.83349806622729
 31
0.0
  0
ARC
  5
2C5F
  8
AM_0
 10
547.46754141962265
 20
208.83349806622741
 30
0.0
 40
3.0
 50
270.0
 51
0.0
  0
LINE
  5
2C60
  8
AM_0
 10
556.00623741962272
 20
212.13779106622741
 30
0.0
 11
556.75984041962283
 21
206.41368306622741
 31
0.0
  0
ARC
  5
2C61
  8
AM_0
 10
539.46758541962265
 20
212.83351506622739
 30
0.0
 40
2.00000007
 50
0.0
 51
90.000003000000007
  0
ARC
  5
2C62
  8
AM_0
 10
536.46758541962265
 20
219.8334990662274
 30
0.0
 40
5.0000001000000003
 50
270.0
 51
0.0
  0
ARC
  5
2C63
  8
AM_0
 10
555.46754241962265
 20
214.83349806622741
 30
0.0
 40
5.0000001000000003
 50
90.000003000000007
 51
180.00001
  0
ARC
  5
2C64
  8
AM_0
 10
623.46755841962306
 20
214.83349806622741
 30
0.0
 40
5.0000001000000003
 50
0.0
 51
90.000003000000007
  0
LINE
  5
2C65
  8
AM_0
 10
566.67430041962302
 20
207.71895006622739
 30
0.0
 11
565.92069741962291
 21
213.4430580662272
 31
0.0
  0
LINE
  5
2C66
  8
AM_0
 10
562.09385541962274
 20
204.2042580662274
 30
0.0
 11
566.67430041962302
 21
207.7189350662274
 31
0.0
  0
LINE
  5
2C67
  8
AM_0
 10
565.92072741962284
 20
213.4430280662275
 30
0.0
 11
560.58671241962293
 21
215.6524530662272
 31
0.0
  0
CIRCLE
  5
2C68
  8
AM_0
 10
617.59478541962289
 20
209.9283630662274
 30
0.0
 40
4.9999998000000003
  0
LINE
  5
2C69
  8
AM_0
 10
613.0143734196231
 20
213.44304306622729
 30
0.0
 11
612.26078841962271
 21
207.7189350662274
 31
0.0
  0
LINE
  5
2C6A
  8
AM_0
 10
622.92884841962245
 20
212.13775806622741
 30
0.0
 11
618.34841841962293
 21
215.6524530662272
 31
0.0
  0
LINE
  5
2C6B
  8
AM_0
 10
616.84123041962255
 20
204.2042580662274
 30
0.0
 11
622.17526041962265
 21
206.41368306622741
 31
0.0
  0
LINE
  5
2C6C
  8
AM_0
 10
612.26080341962245
 20
207.71892006622741
 30
0.0
 11
616.84123041962255
 21
204.20424306622741
 31
0.0
  0
LINE
  5
2C6D
  8
AM_0
 10
622.17523041962272
 20
206.41366806622739
 30
0.0
 11
622.92883341962272
 21
212.1377760662273
 31
0.0
  0
LINE
  5
2C6E
  8
AM_0
 10
618.34843341962278
 20
215.65246806622741
 30
0.0
 11
613.01440341962245
 21
213.44304306622729
 31
0.0
  0
ARC
  5
2C6F
  8
AM_0
 10
608.46755841962295
 20
251.83348506622741
 30
0.0
 40
34.000001999999988
 50
328.53302000000002
 51
0.0
  0
LINE
  5
2C70
  8
AM_0
 10
639.46754541962309
 20
214.83349806622741
 30
0.0
 11
665.46756141962271
 21
214.83349806622741
 31
0.0
  0
LINE
  5
2C71
  8
AM_0
 10
667.46754441962275
 20
202.83349806622741
 30
0.0
 11
637.46754441962275
 21
202.83349806622741
 31
0.0
  0
LINE
  5
2C72
  8
ｶｸﾚｾﾝ2
 10
648.46754541962309
 20
214.83349806622741
 30
0.0
 11
648.46754541962309
 21
202.83349806622741
 31
0.0
  0
LINE
  5
2C73
  8
ﾁｭｳｼﾝｾﾝ1
 10
654.46756041962271
 20
219.37895406622741
 30
0.0
 11
654.46756041962271
 21
198.2880420662274
 31
0.0
  0
LINE
  5
2C74
  8
AM_0
 10
637.46754441962275
 20
202.83349806622741
 30
0.0
 11
637.46754441962275
 21
212.83351506622739
 31
0.0
  0
LINE
  5
2C75
  8
AM_0
 10
628.46754441962275
 20
214.83349806622741
 30
0.0
 11
628.46754441962275
 21
208.83349806622741
 31
0.0
  0
LINE
  5
2C76
  8
AM_0
 10
635.46755841962295
 20
205.83349806622729
 30
0.0
 11
631.46754441962275
 21
205.83349806622729
 31
0.0
  0
ARC
  5
2C77
  8
AM_0
 10
631.46754441962275
 20
208.83349806622741
 30
0.0
 40
3.0
 50
179.99998999999991
 51
270.0
  0
ARC
  5
2C78
  8
AM_0
 10
635.46755841962295
 20
203.83351506622751
 30
0.0
 40
2.00000007
 50
0.0
 51
90.000003000000007
  0
ARC
  5
2C79
  8
AM_0
 10
636.46754541962298
 20
202.83349806622741
 30
0.0
 40
1.0000000199999981
 50
0.0
 51
90.000003000000007
  0
ARC
  5
2C7A
  8
AM_0
 10
639.46754541962309
 20
212.83351506622739
 30
0.0
 40
2.00000007
 50
90.000003000000007
 51
180.00001
  0
ARC
  5
2C7B
  8
AM_0
 10
642.46754541962309
 20
219.8334990662274
 30
0.0
 40
5.0000001000000003
 50
179.99998999999991
 51
270.0
  0
LINE
  5
2C7C
  8
AM_0
 10
667.46754441962275
 20
202.83349806622741
 30
0.0
 11
667.46754441962275
 21
214.83349806622741
 31
0.0
  0
LINE
  5
2C7D
  8
ｶｸﾚｾﾝ2
 10
660.46756041962271
 20
214.83349806622741
 30
0.0
 11
660.46756041962271
 21
202.83349806622741
 31
0.0
  0
ARC
  5
2C7E
  8
AM_0
 10
665.46756141962271
 20
212.83351506622739
 30
0.0
 40
2.00000007
 50
0.0
 51
90.000003000000007
  0
LINE
  5
2C7F
  8
ﾁｭｳｼﾝｾﾝ1
 10
552.29896341962285
 20
297.83348706622752
 30
0.0
 11
625.16487141962295
 21
297.83348706622752
 31
0.0
  0
ARC
  5
2C80
  8
AM_0
 10
589.46754441962275
 20
277.83348606622729
 30
0.0
 40
71.000000999999983
 50
47.999358999999998
 51
132.00065000000001
  0
LINE
  5
2C81
  8
ﾁｭｳｼﾝｾﾝ1
 10
651.20237841962296
 20
277.83348606622729
 30
0.0
 11
527.96303541962266
 21
277.83348606622729
 31
0.0
  0
ARC
  5
2C82
  8
AM_0
 10
589.46754441962275
 20
238.8335010662274
 30
0.0
 40
110.000004
 50
58.263835999999991
 51
121.73617
  0
ARC
  5
2C83
  8
AM_0
 10
542.12678541962259
 20
315.3766320662275
 30
0.0
 40
20.000000700000001
 50
121.73617
 51
174.01018999999991
  0
CIRCLE
  5
2C84
  8
AM_0
 10
531.15608541962274
 20
322.57747206622741
 30
0.0
 40
4.9999998000000003
  0
LINE
  5
2C85
  8
AM_0
 10
525.82208541962279
 20
324.78691206622739
 30
0.0
 11
526.57565541962288
 21
319.0627920662273
 31
0.0
  0
LINE
  5
2C86
  8
AM_0
 10
536.49011541962273
 20
320.3680620662272
 30
0.0
 11
535.73651541962272
 21
326.09218206622728
 31
0.0
  0
ARC
  5
2C87
  8
AM_0
 10
527.18927541962285
 20
325.6212420662273
 30
0.0
 40
13.9999986
 50
266.80063999999987
 51
25.06296900000001
  0
ARC
  5
2C88
  8
AM_0
 10
528.879415419623
 20
308.7054720662274
 30
0.0
 40
3.0
 50
95.705737999999982
 51
152.9994199999999
  0
LINE
  5
2C89
  8
AM_0
 10
526.57565541962288
 20
319.0627920662273
 30
0.0
 11
531.90968541962297
 21
316.85335206622727
 31
0.0
  0
ARC
  5
2C8A
  8
AM_0
 10
589.46754441962275
 20
277.83348606622729
 30
0.0
 40
71.000000999999983
 50
152.9994199999999
 51
174.01018999999991
  0
ARC
  5
2C8B
  8
AM_0
 10
526.12889541962272
 20
306.65083206622751
 30
0.0
 40
5.0000001000000003
 50
86.800639000000004
 51
174.01018999999991
  0
LINE
  5
2C8C
  8
AM_0
 10
531.9097154196229
 20
316.85338206622748
 30
0.0
 11
536.49011541962273
 21
320.3680920662274
 31
0.0
  0
ARC
  5
2C8D
  8
AM_0
 10
541.46753541962255
 20
313.08604206622732
 30
0.0
 40
5.0000001000000003
 50
138.71941000000001
 51
180.00001
  0
LINE
  5
2C8E
  8
AM_0
 10
530.40254541962304
 20
328.30159206622727
 30
0.0
 11
525.82208541962279
 21
324.78691206622739
 31
0.0
  0
ARC
  5
2C8F
  8
AM_0
 10
544.40031141962265
 20
333.66991206622748
 30
0.0
 40
5.0000001000000003
 50
115.41755999999999
 51
205.06296999999989
  0
LINE
  5
2C90
  8
AM_0
 10
535.73651541962272
 20
326.0921520662273
 30
0.0
 11
530.40251541962255
 21
328.30159206622727
 31
0.0
  0
ARC
  5
2C91
  8
AM_0
 10
543.96610641962275
 20
328.36684206622732
 30
0.0
 40
3.0
 50
132.00065000000001
 51
189.29434000000001
  0
LINE
  5
2C92
  8
AM_0
 10
585.46754241962265
 20
305.83348206622748
 30
0.0
 11
593.46752841962245
 21
305.83348206622748
 31
0.0
  0
LINE
  5
2C93
  8
AM_0
 10
585.46754241962265
 20
312.83347206622739
 30
0.0
 11
593.46752841962245
 21
312.83347206622739
 31
0.0
  0
ARC
  5
2C94
  8
AM_0
 10
589.46754441962275
 20
297.83348706622752
 30
0.0
 40
12.00000029999998
 50
109.47122
 51
70.528789000000003
  0
CIRCLE
  5
2C95
  8
AM_0
 62
     2
 10
589.46754441962275
 20
297.83348706622752
 30
0.0
 40
4.000000199999997
  0
CIRCLE
  5
2C96
  8
AM_0
 10
589.46754441962275
 20
297.83348706622752
 30
0.0
 40
3.0
  0
LINE
  5
2C97
  8
AM_0
 10
585.46754241962265
 20
312.83347206622739
 30
0.0
 11
585.46754241962265
 21
305.83348206622748
 31
0.0
  0
LINE
  5
2C98
  8
AM_0
 10
593.46752841962245
 20
312.83347206622739
 30
0.0
 11
593.46752841962245
 21
305.83348206622748
 31
0.0
  0
ARC
  5
2C99
  8
AM_0
 10
636.80831841962265
 20
315.3766320662275
 30
0.0
 40
20.000000700000001
 50
5.9898154999999971
 51
58.263835999999991
  0
CIRCLE
  5
2C9A
  8
AM_0
 10
647.77902141962306
 20
322.57741206622751
 30
0.0
 40
4.9999998000000003
  0
ARC
  5
2C9B
  8
AM_0
 10
651.74581941962265
 20
325.6212420662273
 30
0.0
 40
13.9999986
 50
154.93703999999991
 51
273.19936999999987
  0
LINE
  5
2C9C
  8
AM_0
 10
643.19859441962251
 20
326.09209206622751
 30
0.0
 11
642.44499141962285
 21
320.36797206622748
 31
0.0
  0
LINE
  5
2C9D
  8
AM_0
 10
653.11300641962271
 20
324.78688206622752
 30
0.0
 11
652.35942141962266
 21
319.0627920662273
 31
0.0
  0
ARC
  5
2C9E
  8
AM_0
 10
589.46754441962275
 20
277.83348606622729
 30
0.0
 40
71.000000999999983
 50
5.989814199999997
 51
27.000572999999999
  0
LINE
  5
2C9F
  8
AM_0
 10
642.44502141962278
 20
320.36797206622748
 30
0.0
 11
647.02545141962253
 21
316.85329206622748
 31
0.0
  0
ARC
  5
2CA0
  8
AM_0
 10
637.46754441962275
 20
313.08604206622732
 30
0.0
 40
5.0000001000000003
 50
0.0
 51
41.280590999999973
  0
ARC
  5
2CA1
  8
AM_0
 10
652.80621441962285
 20
306.65083206622751
 30
0.0
 40
5.0000001000000003
 50
5.9898154999999971
 51
93.199358999999944
  0
ARC
  5
2CA2
  8
AM_0
 10
650.05567941962272
 20
308.7054720662274
 30
0.0
 40
3.0
 50
27.000572999999999
 51
84.294260999999977
  0
LINE
  5
2CA3
  8
AM_0
 10
647.02545141962253
 20
316.85332206622718
 30
0.0
 11
652.35948141962251
 21
319.06273206622751
 31
0.0
  0
LINE
  5
2CA4
  8
AM_0
 10
648.53263941962268
 20
328.30153206622748
 30
0.0
 11
643.1986094196227
 21
326.09212206622732
 31
0.0
  0
ARC
  5
2CA5
  8
AM_0
 10
634.53478941962271
 20
333.66991206622748
 30
0.0
 40
5.0000001000000003
 50
334.93702999999988
 51
64.582443999999995
  0
ARC
  5
2CA6
  8
AM_0
 10
634.96900941962235
 20
328.36684206622732
 30
0.0
 40
3.0
 50
350.70567
 51
47.999358999999998
  0
LINE
  5
2CA7
  8
AM_0
 10
653.11306941962255
 20
324.7868220662275
 30
0.0
 11
648.53263941962268
 21
328.3015020662275
 31
0.0
  0
LINE
  5
2CA8
  8
AM_0
 10
256.38398499816122
 20
309.77092506622739
 30
0.0
 11
246.3839849981614
 21
309.77092506622739
 31
0.0
  0
LINE
  5
2CA9
  8
AM_0
 10
256.38398499816122
 20
323.8334910662274
 30
0.0
 11
246.3839849981614
 21
323.8334910662274
 31
0.0
  0
LINE
  5
2CAA
  8
AM_0
 10
256.3839849981614
 20
231.83348406622741
 30
0.0
 11
246.3839849981614
 21
231.83348406622741
 31
0.0
  0
LINE
  5
2CAB
  8
AM_0
 10
256.38398499816122
 20
245.8960470662274
 30
0.0
 11
246.3839849981614
 21
245.8960470662274
 31
0.0
  0
LINE
  5
2CAC
  8
ﾁｭｳｼﾝｾﾝ1
 10
166.3683359788505
 20
499.47806054327958
 30
0.0
 11
403.57507499816109
 21
499.47806054327958
 31
0.0
  0
ARC
  5
2CAD
  8
AM_0
 10
409.87271499816109
 20
499.47806054327958
 30
0.0
 40
101.4887199999999
 50
151.89333000000019
 51
208.10666999999961
  0
LINE
  5
2CAE
  8
AM_0
 10
256.38400499816112
 20
442.9780605432797
 30
0.0
 11
256.38400499816112
 21
555.97806054327975
 31
0.0
  0
LINE
  5
2CAF
  8
AM_0
 10
287.38400499816112
 20
430.60968054327969
 30
0.0
 11
287.38400499816112
 21
568.34643054327967
 31
0.0
  0
LINE
  5
2CB0
  8
AM_0
 10
308.38400499816112
 20
449.4108305432797
 30
0.0
 11
308.38400499816112
 21
549.54529054327963
 31
0.0
  0
LINE
  5
2CB1
  8
AM_0
 10
343.38400499816112
 20
449.22705054327969
 30
0.0
 11
343.38400499816112
 21
549.72906054327973
 31
0.0
  0
LINE
  5
2CB2
  8
AM_0
 10
359.38397499816108
 20
473.94372054327971
 30
0.0
 11
359.38397499816108
 21
525.01236054327956
 31
0.0
  0
LINE
  5
2CB3
  8
AM_0
 10
356.38397499816108
 20
549.02301054327972
 30
0.0
 11
356.38397499816108
 21
449.93310054327969
 31
0.0
  0
LINE
  5
2CB4
  8
AM_0
 10
294.38397499816102
 20
570.47806054327975
 30
0.0
 11
294.38397499816102
 21
428.47806054327958
 31
0.0
  0
LINE
  5
2CB5
  8
AM_0
 10
361.3839449981611
 20
511.9780305432796
 30
0.0
 11
361.3839449981611
 21
486.97809054327968
 31
0.0
  0
LINE
  5
2CB6
  8
AM_0
 10
401.38397499816091
 20
511.47806054327958
 30
0.0
 11
401.38397499816091
 21
487.47806054327958
 31
0.0
  0
ARC
  5
2CB7
  8
AM_0
 10
335.38397499816119
 20
427.47485054327967
 30
0.0
 40
5.0
 50
180.00001000000091
 51
271.49999999999932
  0
ARC
  5
2CB8
  8
AM_0
 10
335.38397499816119
 20
440.75903054327972
 30
0.0
 40
5.0
 50
95.00000199999856
 51
180.00001000000091
  0
LINE
  5
2CB9
  8
AM_0
 10
340.46255499816118
 20
452.45352054327969
 30
0.0
 11
321.96597499816107
 21
451.96918054327972
 31
0.0
  0
LINE
  5
2CBA
  8
AM_0
 10
297.38400499816112
 20
421.4780605432797
 30
0.0
 11
357.4363349981611
 21
423.05057054327972
 31
0.0
  0
LINE
  5
2CBB
  8
AM_0
 10
297.38397499816102
 20
428.55661054327959
 30
0.0
 11
297.38397499816102
 21
425.33404054327968
 31
0.0
  0
LINE
  5
2CBC
  8
AM_0
 10
294.78698499816119
 20
428.48862054327969
 30
0.0
 11
290.38397499816119
 21
426.17850054327971
 31
0.0
  0
LINE
  5
2CBD
  8
AM_0
 10
265.38397499816102
 20
424.26434054327967
 30
0.0
 11
265.38397499816102
 21
443.24237054327972
 31
0.0
  0
LINE
  5
2CBE
  8
AM_0
 10
267.33163499816112
 20
422.26501054327969
 30
0.0
 11
297.38397499816102
 21
421.4780605432797
 31
0.0
  0
ARC
  5
2CBF
  8
AM_0
 10
267.38397499816119
 20
424.26434054327967
 30
0.0
 40
2.0
 50
180.00001000000091
 51
268.5000000000004
  0
LINE
  5
2CC0
  8
AM_0
 10
297.38397499816102
 20
425.33404054327968
 30
0.0
 11
290.38397499816119
 21
421.66138054327962
 31
0.0
  0
LINE
  5
2CC1
  8
AM_0
 10
290.38397499816119
 20
421.66138054327962
 30
0.0
 11
290.38397499816119
 21
426.17847054327967
 31
0.0
  0
LINE
  5
2CC2
  8
AM_0
 10
256.38400499816112
 20
467.53812054327972
 30
0.0
 11
287.38400499816112
 21
467.53812054327972
 31
0.0
  0
LINE
  5
2CC3
  8
AM_0
 10
284.38397499816102
 20
434.26678054327971
 30
0.0
 11
285.38400499816112
 21
434.26678054327971
 31
0.0
  0
LINE
  5
2CC4
  8
AM_0
 10
256.38400499816112
 20
453.47775054327968
 30
0.0
 11
287.38400499816112
 21
453.47775054327968
 31
0.0
  0
LINE
  5
2CC5
  8
AM_0
 10
282.38397499816119
 20
442.79724054327971
 30
0.0
 11
256.38403499816121
 21
443.47806054327981
 31
0.0
  0
LINE
  5
2CC6
  8
AM_0
 10
282.38397499816119
 20
436.26678054327959
 30
0.0
 11
282.38397499816119
 21
451.47775054327968
 31
0.0
  0
ARC
  5
2CC7
  8
AM_0
 10
277.38397499816119
 20
434.4780605432797
 30
0.0
 40
6.0
 50
33.5572999999982
 51
0.5425182800010755
  0
ARC
  5
2CC8
  8
AM_0
 10
284.38397499816102
 20
436.26678054327959
 30
0.0
 40
2.0
 50
180.00001000000091
 51
270.0
  0
ARC
  5
2CC9
  8
AM_0
 10
280.38397499816108
 20
451.47775054327968
 30
0.0
 40
2.0
 50
0.0
 51
90.000003000000945
  0
ARC
  5
2CCA
  8
AM_0
 10
306.9889549981612
 20
433.80984054327968
 30
0.0
 40
5.0
 50
271.49999999999932
 51
299.88701999999893
  0
LINE
  5
2CCB
  8
AM_0
 10
308.38400499816112
 20
449.41080054327972
 30
0.0
 11
321.96597499816107
 21
451.96918054327972
 31
0.0
  0
LINE
  5
2CCC
  8
AM_0
 10
306.38397499816119
 20
446.9401205432797
 30
0.0
 11
309.38397499816102
 21
446.9401205432797
 31
0.0
  0
LINE
  5
2CCD
  8
AM_0
 10
306.38397499816119
 20
435.39307054327969
 30
0.0
 11
309.38397499816102
 21
435.39307054327969
 31
0.0
  0
LINE
  5
2CCE
  8
AM_0
 10
306.38397499816119
 20
438.27984054327959
 30
0.0
 11
309.38397499816102
 21
438.27984054327959
 31
0.0
  0
LINE
  5
2CCF
  8
AM_0
 10
306.38397499816119
 20
444.0533405432796
 30
0.0
 11
309.38397499816102
 21
444.0533405432796
 31
0.0
  0
LINE
  5
2CD0
  8
AM_0
 10
306.38397499816119
 20
447.94012054327982
 30
0.0
 11
306.38397499816119
 21
434.39307054327969
 31
0.0
  0
LINE
  5
2CD1
  8
AM_0
 10
305.38397499816102
 20
449.4108305432797
 30
0.0
 11
305.38397499816102
 21
428.76611054327969
 31
0.0
  0
LINE
  5
2CD2
  8
AM_0
 10
307.11984499816111
 20
428.81155054327968
 30
0.0
 11
294.38400499816112
 21
428.47806054327958
 31
0.0
  0
LINE
  5
2CD3
  8
AM_0
 10
294.38400499816112
 20
428.47806054327958
 30
0.0
 11
289.33163499816112
 21
428.61035054327971
 31
0.0
  0
ARC
  5
2CD4
  8
AM_0
 10
285.38400499816112
 20
432.26678054327959
 30
0.0
 40
2.0
 50
0.0
 51
90.000003000000945
  0
ARC
  5
2CD5
  8
AM_0
 10
289.38400499816112
 20
430.60968054327969
 30
0.0
 40
2.0
 50
180.00001000000091
 51
268.5000000000004
  0
LINE
  5
2CD6
  8
AM_0
 10
305.38397499816102
 20
434.39307054327969
 30
0.0
 11
306.38397499816119
 21
434.39307054327969
 31
0.0
  0
LINE
  5
2CD7
  8
AM_0
 10
305.38397499816102
 20
449.4108305432797
 30
0.0
 11
308.38397499816119
 21
449.4108305432797
 31
0.0
  0
LINE
  5
2CD8
  8
AM_0
 10
305.38397499816102
 20
447.94012054327982
 30
0.0
 11
306.38397499816119
 21
447.94012054327982
 31
0.0
  0
ARC
  5
2CD9
  8
AM_0
 10
309.38397499816102
 20
445.05334054327972
 30
0.0
 40
1.0
 50
269.999989999999
 51
0.0000006832462478
  0
ARC
  5
2CDA
  8
AM_0
 10
309.38397499816102
 20
443.05334054327972
 30
0.0
 40
1.0
 50
0.0
 51
90.000003000000945
  0
LINE
  5
2CDB
  8
AM_0
 10
310.38394499816093
 20
436.39307054327969
 30
0.0
 11
310.38394499816093
 21
445.94009054327972
 31
0.0
  0
ARC
  5
2CDC
  8
AM_0
 10
322.60864499816103
 20
431.25296054327958
 30
0.0
 40
5.0
 50
91.500001000001546
 51
119.887019999999
  0
ARC
  5
2CDD
  8
AM_0
 10
309.38397499816102
 20
436.39307054327969
 30
0.0
 40
1.0
 50
269.999989999999
 51
0.0000006832462478
  0
LINE
  5
2CDE
  8
AM_0
 10
309.48040499816119
 20
429.47479054327971
 30
0.0
 11
320.11718499816112
 21
435.58801054327972
 31
0.0
  0
ARC
  5
2CDF
  8
AM_0
 10
309.38397499816102
 20
439.27981054327972
 30
0.0
 40
1.0
 50
269.999989999999
 51
0.0000006832462478
  0
ARC
  5
2CE0
  8
AM_0
 10
309.38397499816102
 20
437.2798405432797
 30
0.0
 40
1.0
 50
0.0
 51
90.000003000000945
  0
LINE
  5
2CE1
  8
AM_0
 10
330.38397499816102
 20
427.47485054327967
 30
0.0
 11
330.38397499816102
 21
440.75903054327972
 31
0.0
  0
LINE
  5
2CE2
  8
AM_0
 10
327.4625249981612
 20
436.38177054327969
 30
0.0
 11
322.47778499816121
 21
436.25122054327971
 31
0.0
  0
ARC
  5
2CE3
  8
AM_0
 10
327.38397499816119
 20
439.38074054327973
 30
0.0
 40
3.0
 50
271.49999999999932
 51
0.0
  0
ARC
  5
2CE4
  8
AM_0
 10
309.38397499816102
 20
445.94009054327972
 30
0.0
 40
1.0
 50
0.0
 51
90.000003000000945
  0
LINE
  5
2CE5
  8
ﾁｭｳｼﾝｾﾝ1
 10
347.38397499816108
 20
425.4780605432797
 30
0.0
 11
347.38397499816108
 21
443.47806054327981
 31
0.0
  0
LINE
  5
2CE6
  8
AM_0
 10
359.38397499816108
 20
425.04989054327967
 30
0.0
 11
359.38397499816108
 21
447.90622054327969
 31
0.0
  0
ARC
  5
2CE7
  8
AM_0
 10
357.38397499816108
 20
425.04989054327967
 30
0.0
 40
2.0
 50
271.49999999999932
 51
0.0
  0
LINE
  5
2CE8
  8
AM_0
 10
361.3839449981611
 20
487.47806054327958
 30
0.0
 11
401.38397499816091
 21
487.47806054327958
 31
0.0
  0
LINE
  5
2CE9
  8
AM_0
 10
357.43630499816101
 20
449.90552054327969
 30
0.0
 11
356.38397499816108
 21
449.93307054327971
 31
0.0
  0
CIRCLE
  5
2CEA
  8
AM_0
 10
347.38397499816108
 20
434.4780605432797
 30
0.0
 40
6.0
  0
LINE
  5
2CEB
  8
ﾁｭｳｼﾝｾﾝ1
 10
338.38397499816102
 20
434.4780605432797
 30
0.0
 11
356.38397499816108
 21
434.4780605432797
 31
0.0
  0
ARC
  5
2CEC
  8
AM_0
 10
347.55801499816118
 20
445.68677054327969
 30
0.0
 40
5.0
 50
95.00000199999856
 51
153.73432999999969
  0
ARC
  5
2CED
  8
AM_0
 10
340.38400499816112
 20
455.45251054327969
 30
0.0
 40
3.0
 50
271.49999999999932
 51
0.0
  0
LINE
  5
2CEE
  8
AM_0
 10
340.64547499816121
 20
446.2384605432797
 30
0.0
 11
334.9481849981612
 21
445.74002054327968
 31
0.0
  0
ARC
  5
2CEF
  8
AM_0
 10
340.38400499816112
 20
449.22705054327969
 30
0.0
 40
3.0
 50
274.99999999999972
 51
0.0
  0
ARC
  5
2CF0
  8
AM_0
 10
351.38397499816108
 20
456.05969054327971
 30
0.0
 40
5.0
 50
274.99999999999972
 51
0.0
  0
LINE
  5
2CF1
  8
AM_0
 10
351.81976499816108
 20
451.0787605432796
 30
0.0
 11
347.12225499816111
 21
450.66778054327972
 31
0.0
  0
ARC
  5
2CF2
  8
AM_0
 10
357.38397499816108
 20
447.90622054327969
 30
0.0
 40
2.0
 50
0.0
 51
88.499997000000747
  0
LINE
  5
2CF3
  8
AM_0
 10
357.34909499816109
 20
472.90698054327959
 30
0.0
 11
358.4188849981611
 21
472.9443305432797
 31
0.0
  0
ARC
  5
2CF4
  8
AM_0
 10
357.38397499816108
 20
471.9075905432797
 30
0.0
 40
1.0
 50
91.999998000000545
 51
180.00001000000091
  0
ARC
  5
2CF5
  8
AM_0
 10
358.38397499816108
 20
473.94372054327971
 30
0.0
 40
1.0
 50
272.0000000000004
 51
0.0
  0
LINE
  5
2CF6
  8
AM_0
 10
359.38397499816108
 20
486.97809054327968
 30
0.0
 11
361.3839449981611
 21
486.97809054327968
 31
0.0
  0
ARC
  5
2CF7
  8
AM_0
 10
335.38397499816119
 20
571.48126054327963
 30
0.0
 40
5.0
 50
88.499997000000747
 51
180.00001000000091
  0
ARC
  5
2CF8
  8
AM_0
 10
335.38397499816119
 20
558.19705054327972
 30
0.0
 40
5.0
 50
180.00001000000091
 51
265.00001000000071
  0
LINE
  5
2CF9
  8
AM_0
 10
340.46255499816118
 20
546.50256054327974
 30
0.0
 11
321.96594499816121
 21
546.98694054327973
 31
0.0
  0
LINE
  5
2CFA
  8
AM_0
 10
297.38400499816112
 20
577.47806054327975
 30
0.0
 11
357.4363349981611
 21
575.90552054327975
 31
0.0
  0
ARC
  5
2CFB
  8
AM_0
 10
284.38397499816102
 20
562.68936054327969
 30
0.0
 40
2.0
 50
90.000003000000945
 51
180.00001000000091
  0
ARC
  5
2CFC
  8
AM_0
 10
277.38397499816119
 20
564.47806054327975
 30
0.0
 40
6.0
 50
359.45747999999838
 51
326.4427199999991
  0
LINE
  5
2CFD
  8
AM_0
 10
305.38397499816102
 20
549.54529054327963
 30
0.0
 11
305.38397499816102
 21
570.19000054327955
 31
0.0
  0
LINE
  5
2CFE
  8
AM_0
 10
306.38397499816119
 20
551.0159905432796
 30
0.0
 11
306.38397499816119
 21
564.5630505432797
 31
0.0
  0
LINE
  5
2CFF
  8
AM_0
 10
309.48040499816119
 20
569.48129054327956
 30
0.0
 11
320.1171549981612
 21
563.36810054327975
 31
0.0
  0
LINE
  5
2D00
  8
AM_0
 10
330.38397499816102
 20
558.19705054327972
 30
0.0
 11
330.38397499816102
 21
571.48126054327963
 31
0.0
  0
LINE
  5
2D01
  8
AM_0
 10
265.38397499816102
 20
574.69180054327956
 30
0.0
 11
265.38397499816102
 21
555.71374054327976
 31
0.0
  0
LINE
  5
2D02
  8
AM_0
 10
256.38400499816112
 20
531.41800054327973
 30
0.0
 11
287.38400499816112
 21
531.41800054327973
 31
0.0
  0
LINE
  5
2D03
  8
AM_0
 10
256.38400499816112
 20
545.47836054327968
 30
0.0
 11
287.38400499816112
 21
545.47836054327968
 31
0.0
  0
LINE
  5
2D04
  8
AM_0
 10
282.38400499816112
 20
556.15890054327974
 30
0.0
 11
256.38403499816121
 21
555.47806054327975
 31
0.0
  0
ARC
  5
2D05
  8
AM_0
 10
280.38397499816108
 20
547.47836054327956
 30
0.0
 40
2.0
 50
270.0
 51
0.0
  0
LINE
  5
2D06
  8
AM_0
 10
282.38397499816119
 20
562.68936054327969
 30
0.0
 11
282.38397499816119
 21
547.47836054327956
 31
0.0
  0
LINE
  5
2D07
  8
AM_0
 10
306.38397499816119
 20
554.90277054327976
 30
0.0
 11
309.38397499816102
 21
554.90277054327976
 31
0.0
  0
LINE
  5
2D08
  8
AM_0
 10
306.38397499816119
 20
560.67627054327977
 30
0.0
 11
309.38397499816102
 21
560.67627054327977
 31
0.0
  0
LINE
  5
2D09
  8
AM_0
 10
306.38397499816119
 20
563.56302054327955
 30
0.0
 11
309.38397499816102
 21
563.56302054327955
 31
0.0
  0
LINE
  5
2D0A
  8
AM_0
 10
306.38397499816119
 20
552.01602054327975
 30
0.0
 11
309.38397499816102
 21
552.01602054327975
 31
0.0
  0
LINE
  5
2D0B
  8
AM_0
 10
308.38400499816112
 20
549.54529054327963
 30
0.0
 11
321.96597499816107
 21
546.98691054327958
 31
0.0
  0
LINE
  5
2D0C
  8
AM_0
 10
305.38397499816102
 20
549.54529054327963
 30
0.0
 11
308.38397499816119
 21
549.54529054327963
 31
0.0
  0
LINE
  5
2D0D
  8
AM_0
 10
305.38397499816102
 20
551.0159905432796
 30
0.0
 11
306.38397499816119
 21
551.0159905432796
 31
0.0
  0
ARC
  5
2D0E
  8
AM_0
 10
322.60864499816103
 20
567.70315054327955
 30
0.0
 40
5.0
 50
240.11298000000079
 51
268.5000000000004
  0
ARC
  5
2D0F
  8
AM_0
 10
309.38397499816102
 20
555.90277054327964
 30
0.0
 40
1.0
 50
269.999989999999
 51
0.0000006832462478
  0
LINE
  5
2D10
  8
AM_0
 10
310.38394499816093
 20
562.5630505432797
 30
0.0
 11
310.38394499816093
 21
553.01602054327975
 31
0.0
  0
ARC
  5
2D11
  8
AM_0
 10
309.38397499816102
 20
553.01602054327975
 30
0.0
 40
1.0
 50
269.999989999999
 51
0.0000006832462478
  0
ARC
  5
2D12
  8
AM_0
 10
309.38397499816102
 20
553.90277054327964
 30
0.0
 40
1.0
 50
0.0
 51
90.000003000000945
  0
ARC
  5
2D13
  8
AM_0
 10
309.38397499816102
 20
561.67627054327966
 30
0.0
 40
1.0
 50
269.999989999999
 51
0.0000006832462478
  0
ARC
  5
2D14
  8
AM_0
 10
309.38397499816102
 20
562.5630505432797
 30
0.0
 40
1.0
 50
0.0
 51
90.000003000000945
  0
ARC
  5
2D15
  8
AM_0
 10
309.38397499816102
 20
559.67630054327969
 30
0.0
 40
1.0
 50
0.0
 51
90.000003000000945
  0
LINE
  5
2D16
  8
AM_0
 10
327.46249499816099
 20
562.57434054327973
 30
0.0
 11
322.47775499816112
 21
562.70486054327955
 31
0.0
  0
ARC
  5
2D17
  8
AM_0
 10
327.38397499816119
 20
559.57538054327972
 30
0.0
 40
3.0
 50
0.0
 51
88.499997000000747
  0
LINE
  5
2D18
  8
AM_0
 10
284.38397499816102
 20
564.68936054327958
 30
0.0
 11
285.38400499816112
 21
564.68936054327958
 31
0.0
  0
LINE
  5
2D19
  8
AM_0
 10
267.33163499816112
 20
576.69113054327966
 30
0.0
 11
297.38397499816102
 21
577.47809054327956
 31
0.0
  0
ARC
  5
2D1A
  8
AM_0
 10
267.38397499816119
 20
574.69180054327956
 30
0.0
 40
2.0
 50
91.500001000001546
 51
180.00001000000091
  0
ARC
  5
2D1B
  8
AM_0
 10
306.9889549981612
 20
565.14627054327968
 30
0.0
 40
5.0
 50
60.112980000000888
 51
88.499997000000747
  0
LINE
  5
2D1C
  8
AM_0
 10
307.11981499816108
 20
570.14456054327957
 30
0.0
 11
294.38400499816112
 21
570.47806054327975
 31
0.0
  0
LINE
  5
2D1D
  8
AM_0
 10
297.38397499816102
 20
573.62210054327954
 30
0.0
 11
290.38397499816119
 21
577.29477054327958
 31
0.0
  0
LINE
  5
2D1E
  8
AM_0
 10
294.78698499816119
 20
570.46753054327962
 30
0.0
 11
290.38400499816117
 21
572.77762054327957
 31
0.0
  0
LINE
  5
2D1F
  8
AM_0
 10
294.38397499816102
 20
570.47806054327975
 30
0.0
 11
289.33166499816122
 21
570.34573054327961
 31
0.0
  0
ARC
  5
2D20
  8
AM_0
 10
285.38400499816112
 20
566.68936054327969
 30
0.0
 40
2.0
 50
270.0
 51
0.0
  0
ARC
  5
2D21
  8
AM_0
 10
289.38400499816112
 20
568.34643054327967
 30
0.0
 40
2.0
 50
91.500001000001546
 51
180.00001000000091
  0
LINE
  5
2D22
  8
AM_0
 10
290.38397499816119
 20
577.29474054327954
 30
0.0
 11
290.38397499816119
 21
572.77765054327961
 31
0.0
  0
LINE
  5
2D23
  8
AM_0
 10
297.38397499816102
 20
570.3995005432796
 30
0.0
 11
297.38397499816102
 21
573.62207054327962
 31
0.0
  0
LINE
  5
2D24
  8
AM_0
 10
305.38397499816102
 20
564.5630505432797
 30
0.0
 11
306.38397499816119
 21
564.5630505432797
 31
0.0
  0
CIRCLE
  5
2D25
  8
AM_0
 10
347.38397499816108
 20
564.47806054327975
 30
0.0
 40
6.0
  0
LINE
  5
2D26
  8
AM_0
 10
359.38397499816108
 20
573.90622054327957
 30
0.0
 11
359.38397499816108
 21
551.04989054327973
 31
0.0
  0
LINE
  5
2D27
  8
AM_0
 10
369.38397499816108
 20
503.4780305432796
 30
0.0
 11
401.38397499816091
 21
503.4780305432796
 31
0.0
  0
LINE
  5
2D28
  8
AM_0
 10
369.38397499816108
 20
495.47806054327958
 30
0.0
 11
401.38397499816091
 21
495.47806054327958
 31
0.0
  0
LINE
  5
2D29
  8
AM_0
 10
361.3839449981611
 20
511.47806054327958
 30
0.0
 11
401.38397499816091
 21
511.47806054327958
 31
0.0
  0
LINE
  5
2D2A
  8
AM_0
 10
357.34905499816108
 20
526.04913054327972
 30
0.0
 11
358.4188849981611
 21
526.01178054327966
 31
0.0
  0
ARC
  5
2D2B
  8
AM_0
 10
357.38397499816108
 20
527.04852054327955
 30
0.0
 40
1.0
 50
180.00001000000091
 51
267.9999999999996
  0
ARC
  5
2D2C
  8
AM_0
 10
369.38397499816108
 20
499.4780305432796
 30
0.0
 40
3.9999962
 50
90.000003000000945
 51
270.0
  0
LINE
  5
2D2D
  8
AM_0
 10
369.38397499816108
 20
503.4780305432796
 30
0.0
 11
369.38397499816108
 21
495.47806054327958
 31
0.0
  0
LINE
  5
2D2E
  8
AM_0
 10
359.38397499816108
 20
511.9780305432796
 30
0.0
 11
361.3839449981611
 21
511.9780305432796
 31
0.0
  0
ARC
  5
2D2F
  8
AM_0
 10
358.38397499816108
 20
525.01236054327956
 30
0.0
 40
1.0
 50
0.0
 51
87.999999999999659
  0
LINE
  5
2D30
  8
AM_0
 10
356.384004998161
 20
549.02301054327972
 30
0.0
 11
357.4363349981611
 21
549.05057054327972
 31
0.0
  0
ARC
  5
2D31
  8
AM_0
 10
340.38400499816112
 20
543.50360054327973
 30
0.0
 40
3.0
 50
0.0
 51
88.499997000000747
  0
ARC
  5
2D32
  8
AM_0
 10
351.38397499816108
 20
542.89639054327972
 30
0.0
 40
5.0
 50
0.0
 51
85.000004000001198
  0
ARC
  5
2D33
  8
AM_0
 10
347.55801499816118
 20
553.26932054327972
 30
0.0
 40
5.0
 50
206.2656700000002
 51
265.00001000000071
  0
LINE
  5
2D34
  8
AM_0
 10
340.64547499816121
 20
552.71762054327974
 30
0.0
 11
334.94821499816112
 21
553.21609054327973
 31
0.0
  0
ARC
  5
2D35
  8
AM_0
 10
340.38400499816112
 20
549.72906054327973
 30
0.0
 40
3.0
 50
0.0
 51
85.000004000001198
  0
LINE
  5
2D36
  8
AM_0
 10
351.81976499816108
 20
547.87738054327974
 30
0.0
 11
347.12225499816111
 21
548.28836054327974
 31
0.0
  0
ARC
  5
2D37
  8
AM_0
 10
357.38397499816108
 20
551.04989054327973
 30
0.0
 40
2.0
 50
271.49999999999932
 51
0.0
  0
ARC
  5
2D38
  8
AM_0
 10
357.38397499816108
 20
573.90622054327957
 30
0.0
 40
2.0
 50
0.0
 51
88.499997000000747
  0
LINE
  5
2D39
  8
AM_0
 10
244.91953890409391
 20
450.94252663734682
 30
0.0
 11
224.3129371862957
 21
471.549128355145
 31
0.0
  0
LINE
  5
2D3A
  8
AM_0
 10
246.38400499816109
 20
554.71668189731452
 30
0.0
 11
246.384004998162
 21
444.23943918924482
 31
0.0
  0
ARC
  5
2D3B
  8
AM_0
 10
241.384004998161
 20
447.40699273141399
 30
0.0
 40
5.0
 50
0.0
 51
45.0
1001
GENIUS_GENODEF_13
1002
{
1000
HIER
1070
     0
1002
}
1002
{
1000
MANEDIT
1070
     0
1002
}
1002
{
1000
NOSEL
1070
     0
1002
}
1002
{
1000
BEHIND
1070
     0
1002
}
1002
{
1000
OTHER
1070
     0
1002
}
1002
{
1000
REACTOR
1002
}
1001
GENIUS_GENOBJ-N-FIL_13
1002
{
1000
OWNER
1000
GEN
1002
}
  0
ARC
  5
2D3C
  8
AM_0
 10
247.384004998161
 20
444.23943918924482
 30
0.0
 40
1.0
 50
180.0
 51
268.33915276702578
1001
GENIUS_GENOBJ-N-FIL_13
1002
{
1000
OWNER
1000
GEN
1002
}
1001
GENIUS_GENODEF_13
1002
{
1000
HIER
1070
     0
1002
}
1002
{
1000
MANEDIT
1070
     0
1002
}
1002
{
1000
NOSEL
1070
     0
1002
}
1002
{
1000
BEHIND
1070
     0
1002
}
1002
{
1000
OTHER
1070
     0
1002
}
1002
{
1000
REACTOR
1002
}
  0
LINE
  5
2D3D
  8
AM_0
 10
247.35502180487779
 20
443.23985929023371
 30
0.0
 11
256.38400499816112
 21
442.9780605432797
 31
0.0
  0
LINE
  5
2D3E
  8
AM_0
 10
256.38400499816112
 20
453.47805854327959
 30
0.0
 11
246.38400499816109
 21
453.47805854327959
 31
0.0
  0
LINE
  5
2D3F
  8
AM_0
 10
256.38400499816112
 20
467.5406215432796
 30
0.0
 11
246.38400499816109
 21
467.5406215432796
 31
0.0
  0
LINE
  5
2D40
  8
AM_0
 10
196.884004998161
 20
506.97806054327958
 30
0.0
 11
198.88400499816109
 21
506.97806054327958
 31
0.0
  0
LINE
  5
2D41
  8
AM_0
 10
196.884004998161
 20
491.97805291388522
 30
0.0
 11
198.88400499816109
 21
491.97805291388522
 31
0.0
  0
LINE
  5
2D42
  8
AM_0
 10
196.884004998161
 20
506.97806054327958
 30
0.0
 11
196.884004998161
 21
491.97805291388522
 31
0.0
  0
LINE
  5
2D43
  8
AM_0
 10
171.884004998161
 20
505.4780605432797
 30
0.0
 11
196.884004998161
 21
505.4780605432797
 31
0.0
  0
LINE
  5
2D44
  8
AM_0
 10
171.884004998161
 20
501.4780605432797
 30
0.0
 11
189.884004998161
 21
501.47806054327958
 31
0.0
  0
LINE
  5
2D45
  8
AM_0
 10
171.884004998161
 20
497.4780605432797
 30
0.0
 11
189.884004998161
 21
497.4780605432797
 31
0.0
  0
LINE
  5
2D46
  8
AM_0
 10
171.884004998161
 20
493.47806054327981
 30
0.0
 11
196.884004998161
 21
493.47806054327981
 31
0.0
  0
LINE
  5
2D47
  8
AM_0
 10
171.884004998161
 20
505.4780605432797
 30
0.0
 11
171.884004998161
 21
493.47806054327981
 31
0.0
  0
ARC
  5
2D48
  8
AM_0
 10
189.884004998161
 20
499.47806054327958
 30
0.0
 40
1.9999999999998861
 50
270.0
 51
90.0
  0
LINE
  5
2D49
  8
AM_0
 10
189.884004998161
 20
501.4780605432793
 30
0.0
 11
189.884004998161
 21
497.4780605432797
 31
0.0
  0
ARC
  5
2D4A
  8
AM_0
 10
200.88400499816109
 20
513.64963341853365
 30
0.0
 40
2.0
 50
135.0
 51
180.0
1001
GENIUS_GENODEF_13
1002
{
1000
HIER
1070
     0
1002
}
1002
{
1000
MANEDIT
1070
     0
1002
}
1002
{
1000
NOSEL
1070
     0
1002
}
1002
{
1000
BEHIND
1070
     0
1002
}
1002
{
1000
OTHER
1070
     0
1002
}
1002
{
1000
REACTOR
1002
}
1001
GENIUS_GENOBJ-N-FIL_13
1002
{
1000
OWNER
1000
GEN
1002
}
  0
LINE
  5
2D4B
  8
AM_0
 10
221.38400499816109
 20
524.47806054327953
 30
0.0
 11
221.38400499816109
 21
474.47806054327953
 31
0.0
  0
LINE
  5
2D4C
  8
AM_0
 10
200.8840049981608
 20
476.47806054327958
 30
0.0
 11
200.88400499816109
 21
522.47806054327975
 31
0.0
  0
LINE
  5
2D4D
  8
AM_0
 10
198.88400499816109
 20
513.64963341853365
 30
0.0
 11
198.88400499816109
 21
485.30648766802568
 31
0.0
  0
LINE
  5
2D4E
  8
AM_0
 10
202.88400499816109
 20
474.47806054327958
 30
0.0
 11
217.24186937443011
 21
474.47806054327958
 31
0.0
  0
ARC
  5
2D4F
  8
AM_0
 10
198.88400499816109
 20
481.64963341853348
 30
0.0
 40
2.0
 50
0.0
 51
45.0
1001
GENIUS_GENODEF_13
1002
{
1000
HIER
1070
     0
1002
}
1002
{
1000
MANEDIT
1070
     0
1002
}
1002
{
1000
NOSEL
1070
     0
1002
}
1002
{
1000
BEHIND
1070
     0
1002
}
1002
{
1000
OTHER
1070
     0
1002
}
1002
{
1000
REACTOR
1002
}
1001
GENIUS_GENOBJ-N-FIL_13
1002
{
1000
OWNER
1000
GEN
1002
}
  0
ARC
  5
2D50
  8
AM_0
 10
202.88400499816109
 20
476.4780605432797
 30
0.0
 40
2.0
 50
180.0
 51
270.0
1001
GENIUS_GENODEF_13
1002
{
1000
HIER
1070
     0
1002
}
1002
{
1000
MANEDIT
1070
     0
1002
}
1002
{
1000
NOSEL
1070
     0
1002
}
1002
{
1000
BEHIND
1070
     0
1002
}
1002
{
1000
OTHER
1070
     0
1002
}
1002
{
1000
REACTOR
1002
}
1001
GENIUS_GENOBJ-N-FIL_13
1002
{
1000
OWNER
1000
GEN
1002
}
  0
ARC
  5
2D51
  8
AM_0
 10
200.88400499816109
 20
485.30648766802568
 30
0.0
 40
2.0
 50
180.0
 51
225.0
1001
GENIUS_GENODEF_13
1002
{
1000
HIER
1070
     0
1002
}
1002
{
1000
MANEDIT
1070
     0
1002
}
1002
{
1000
NOSEL
1070
     0
1002
}
1002
{
1000
BEHIND
1070
     0
1002
}
1002
{
1000
OTHER
1070
     0
1002
}
1002
{
1000
REACTOR
1002
}
1001
GENIUS_GENOBJ-N-FIL_13
1002
{
1000
OWNER
1000
GEN
1002
}
  0
LINE
  5
2D52
  8
AM_0
 10
199.46979143578801
 20
483.89227410565269
 30
0.0
 11
200.29821856053411
 21
483.06384698090648
 31
0.0
  0
ARC
  5
2D53
  8
AM_0
 10
217.24186937443011
 20
464.47806054327958
 30
0.0
 40
10.0
 50
45.0
 51
90.0
1001
GENIUS_GENOBJ-N-FIL_13
1002
{
1000
OWNER
1000
GEN
1002
}
1001
GENIUS_GENODEF_13
1002
{
1000
HIER
1070
     0
1002
}
1002
{
1000
MANEDIT
1070
     0
1002
}
1002
{
1000
NOSEL
1070
     0
1002
}
1002
{
1000
BEHIND
1070
     0
1002
}
1002
{
1000
OTHER
1070
     0
1002
}
1002
{
1000
REACTOR
1002
}
  0
LINE
  5
2D54
  8
AM_0
 10
244.91953890409391
 20
548.01359444921229
 30
0.0
 11
224.3129371862957
 21
527.40699273141422
 31
0.0
  0
LINE
  5
2D55
  8
AM_0
 10
202.88400499816109
 20
524.47806054327975
 30
0.0
 11
217.24186937443011
 21
524.47806054327975
 31
0.0
  0
ARC
  5
2D56
  8
AM_0
 10
198.88400499816109
 20
517.30648766802574
 30
0.0
 40
2.0
 50
315.0
 51
0.0
1001
GENIUS_GENODEF_13
1002
{
1000
HIER
1070
     0
1002
}
1002
{
1000
MANEDIT
1070
     0
1002
}
1002
{
1000
NOSEL
1070
     0
1002
}
1002
{
1000
BEHIND
1070
     0
1002
}
1002
{
1000
OTHER
1070
     0
1002
}
1002
{
1000
REACTOR
1002
}
1001
GENIUS_GENOBJ-N-FIL_13
1002
{
1000
OWNER
1000
GEN
1002
}
  0
ARC
  5
2D57
  8
AM_0
 10
202.88400499816109
 20
522.47806054327975
 30
0.0
 40
2.0
 50
90.0
 51
180.0
1001
GENIUS_GENODEF_13
1002
{
1000
HIER
1070
     0
1002
}
1002
{
1000
MANEDIT
1070
     0
1002
}
1002
{
1000
NOSEL
1070
     0
1002
}
1002
{
1000
BEHIND
1070
     0
1002
}
1002
{
1000
OTHER
1070
     0
1002
}
1002
{
1000
REACTOR
1002
}
1001
GENIUS_GENOBJ-N-FIL_13
1002
{
1000
OWNER
1000
GEN
1002
}
  0
LINE
  5
2D58
  8
AM_0
 10
199.46979143578801
 20
515.06384698090665
 30
0.0
 11
200.29821856053411
 21
515.89227410565263
 31
0.0
  0
ARC
  5
2D59
  8
AM_0
 10
217.24186937443011
 20
534.47806054327975
 30
0.0
 40
10.0
 50
270.0
 51
315.0
1001
GENIUS_GENODEF_13
1002
{
1000
HIER
1070
     0
1002
}
1002
{
1000
MANEDIT
1070
     0
1002
}
1002
{
1000
NOSEL
1070
     0
1002
}
1002
{
1000
BEHIND
1070
     0
1002
}
1002
{
1000
OTHER
1070
     0
1002
}
1002
{
1000
REACTOR
1002
}
1001
GENIUS_GENOBJ-N-FIL_13
1002
{
1000
OWNER
1000
GEN
1002
}
  0
LINE
  5
2D5A
  8
AM_0
 10
256.38400499816112
 20
531.41549954327957
 30
0.0
 11
246.38400499816109
 21
531.41549954327957
 31
0.0
  0
LINE
  5
2D5B
  8
AM_0
 10
256.38400499816112
 20
545.47806554327963
 30
0.0
 11
246.38400499816109
 21
545.47806554327963
 31
0.0
  0
ARC
  5
2D5C
  8
AM_0
 10
247.384004998161
 20
554.71668189731452
 30
0.0
 40
1.0
 50
91.660847232974191
 51
180.0
1001
GENIUS_GENOBJ-N-FIL_13
1002
{
1000
OWNER
1000
GEN
1002
}
1001
GENIUS_GENODEF_13
1002
{
1000
HIER
1070
     0
1002
}
1002
{
1000
MANEDIT
1070
     0
1002
}
1002
{
1000
NOSEL
1070
     0
1002
}
1002
{
1000
BEHIND
1070
     0
1002
}
1002
{
1000
OTHER
1070
     0
1002
}
1002
{
1000
REACTOR
1002
}
  0
ARC
  5
2D5D
  8
AM_0
 10
241.384004998161
 20
551.54912835514529
 30
0.0
 40
5.0
 50
315.0
 51
0.0
1001
GENIUS_GENODEF_13
1002
{
1000
HIER
1070
     0
1002
}
1002
{
1000
MANEDIT
1070
     0
1002
}
1002
{
1000
NOSEL
1070
     0
1002
}
1002
{
1000
BEHIND
1070
     0
1002
}
1002
{
1000
OTHER
1070
     0
1002
}
1002
{
1000
REACTOR
1002
}
1001
GENIUS_GENOBJ-N-FIL_13
1002
{
1000
OWNER
1000
GEN
1002
}
  0
LINE
  5
2D5E
  8
AM_0
 10
247.35502180487779
 20
555.71626179632563
 30
0.0
 11
256.38400499816112
 21
555.97806054327975
 31
0.0
  0
LINE
  5
2D5F
  8
ﾁｭｳｼﾝｾﾝ1
 10
347.38397499816108
 20
555.47806054327975
 30
0.0
 11
347.38397499816108
 21
573.47806054327975
 31
0.0
  0
LINE
  5
2D60
  8
ﾁｭｳｼﾝｾﾝ1
 10
338.38397499816102
 20
564.47806054327975
 30
0.0
 11
356.38397499816108
 21
564.47806054327975
 31
0.0
  0
LINE
  5
2D61
  8
ﾁｭｳｼﾝｾﾝ1
 10
277.38397499816119
 20
555.47806054327975
 30
0.0
 11
277.38397499816119
 21
573.47806054327975
 31
0.0
  0
LINE
  5
2D62
  8
ﾁｭｳｼﾝｾﾝ1
 10
268.38397499816102
 20
564.47806054327975
 30
0.0
 11
286.38397499816102
 21
564.47806054327975
 31
0.0
  0
LINE
  5
2D63
  8
ﾁｭｳｼﾝｾﾝ1
 10
277.38397499816119
 20
425.4780605432797
 30
0.0
 11
277.38397499816119
 21
443.47806054327981
 31
0.0
  0
LINE
  5
2D64
  8
ﾁｭｳｼﾝｾﾝ1
 10
268.38397499816102
 20
434.4780605432797
 30
0.0
 11
286.38397499816102
 21
434.4780605432797
 31
0.0
  0
TEXT
  5
2F45
  8
AM_0
 10
488.09982246183222
 20
490.32327510723468
 30
0.0
 40
10.0
  1
VX01-060G~VX01-200G
  0
ENDSEC
  0
EOF
