  0
SECTION
  2
HEADER
  9
$ACADVER
  1
AC1009
  9
$INSBASE
 10
0.0
 20
0.0
 30
0.0
  9
$EXTMIN
 10
138.60779786390231
 20
184.98664287659309
 30
-0.0000000000112498
  9
$EXTMAX
 10
728.43651764972174
 20
626.91041314260042
 30
0.0000000000002956
  9
$LIMMIN
 10
0.0
 20
0.0
  9
$LIMMAX
 10
853.5
 20
555.00000000000011
  9
$ORTHOMODE
 70
     0
  9
$REGENMODE
 70
     1
  9
$FILLMODE
 70
     1
  9
$QTEXTMODE
 70
     0
  9
$MIRRTEXT
 70
     1
  9
$DRAGMODE
 70
     2
  9
$LTSCALE
 40
3.0
  9
$OSMODE
 70
   551
  9
$ATTMODE
 70
     1
  9
$TEXTSIZE
 40
2.5
  9
$TRACEWID
 40
1.0
  9
$TEXTSTYLE
  7
STANDARD
  9
$CLAYER
  8
AM_0
  9
$CELTYPE
  6
BYLAYER
  9
$CECOLOR
 62
   256
  9
$DIMSCALE
 40
1.0
  9
$DIMASZ
 40
2.5
  9
$DIMEXO
 40
1.0
  9
$DIMDLI
 40
8.0
  9
$DIMRND
 40
0.0
  9
$DIMDLE
 40
0.0
  9
$DIMEXE
 40
0.6
  9
$DIMTP
 40
0.1
  9
$DIMTM
 40
0.1
  9
$DIMTXT
 40
2.5
  9
$DIMCEN
 40
0.0
  9
$DIMTSZ
 40
0.0
  9
$DIMTOL
 70
     0
  9
$DIMLIM
 70
     0
  9
$DIMTIH
 70
     0
  9
$DIMTOH
 70
     0
  9
$DIMSE1
 70
     0
  9
$DIMSE2
 70
     0
  9
$DIMTAD
 70
     1
  9
$DIMZIN
 70
     8
  9
$DIMBLK
  1

  9
$DIMASO
 70
     1
  9
$DIMSHO
 70
     1
  9
$DIMPOST
  1

  9
$DIMAPOST
  1
"
  9
$DIMALT
 70
     0
  9
$DIMALTD
 70
     2
  9
$DIMALTF
 40
0.0393701
  9
$DIMLFAC
 40
1.0
  9
$DIMTOFL
 70
     1
  9
$DIMTVP
 40
0.0
  9
$DIMTIX
 70
     0
  9
$DIMSOXD
 70
     0
  9
$DIMSAH
 70
     0
  9
$DIMBLK1
  1

  9
$DIMBLK2
  1

  9
$DIMSTYLE
  2
AM_ISO
  9
$DIMCLRD
 70
   256
  9
$DIMCLRE
 70
   256
  9
$DIMCLRT
 70
     4
  9
$DIMTFAC
 40
0.71
  9
$DIMGAP
 40
0.8
  9
$LUNITS
 70
     2
  9
$LUPREC
 70
     2
  9
$SKETCHINC
 40
1.0
  9
$FILLETRAD
 40
15.0
  9
$AUNITS
 70
     0
  9
$AUPREC
 70
     0
  9
$MENU
  1
.
  9
$ELEVATION
 40
0.0
  9
$PELEVATION
 40
0.0
  9
$THICKNESS
 40
0.0
  9
$LIMCHECK
 70
     0
  9
$BLIPMODE
 70
     0
  9
$CHAMFERA
 40
6.0
  9
$CHAMFERB
 40
3.0
  9
$SKPOLY
 70
     0
  9
$TDCREATE
 40
2452065.6260002428
  9
$TDUPDATE
 40
2458541.406772037
  9
$TDINDWG
 40
0.1225020602
  9
$TDUSRTIMER
 40
0.122502037
  9
$USRTIMER
 70
     1
  9
$ANGBASE
 50
0.0
  9
$ANGDIR
 70
     0
  9
$PDMODE
 70
     0
  9
$PDSIZE
 40
0.0
  9
$PLINEWID
 40
0.0
  9
$COORDS
 70
     1
  9
$SPLFRAME
 70
     0
  9
$SPLINETYPE
 70
     6
  9
$SPLINESEGS
 70
     8
  9
$ATTDIA
 70
     1
  9
$ATTREQ
 70
     1
  9
$HANDLING
 70
     1
  9
$HANDSEED
  5
2FE4
  9
$SURFTAB1
 70
     6
  9
$SURFTAB2
 70
     6
  9
$SURFTYPE
 70
     6
  9
$SURFU
 70
     6
  9
$SURFV
 70
     6
  9
$UCSNAME
  2

  9
$UCSORG
 10
0.0
 20
0.0
 30
0.0
  9
$UCSXDIR
 10
1.0
 20
0.0
 30
0.0
  9
$UCSYDIR
 10
0.0
 20
1.0
 30
0.0
  9
$PUCSNAME
  2

  9
$PUCSORG
 10
0.0
 20
0.0
 30
0.0
  9
$PUCSXDIR
 10
1.0
 20
0.0
 30
0.0
  9
$PUCSYDIR
 10
0.0
 20
1.0
 30
0.0
  9
$USERI1
 70
     0
  9
$USERI2
 70
     0
  9
$USERI3
 70
     0
  9
$USERI4
 70
     0
  9
$USERI5
 70
     0
  9
$USERR1
 40
0.0
  9
$USERR2
 40
0.0
  9
$USERR3
 40
0.0
  9
$USERR4
 40
0.0
  9
$USERR5
 40
0.0
  9
$WORLDVIEW
 70
     1
  9
$SHADEDGE
 70
     3
  9
$SHADEDIF
 70
    70
  9
$TILEMODE
 70
     1
  9
$MAXACTVP
 70
    64
  9
$PLIMCHECK
 70
     0
  9
$PEXTMIN
 10
1.0000000000000000E+020
 20
1.0000000000000000E+020
 30
1.0000000000000000E+020
  9
$PEXTMAX
 10
-1.0000000000000000E+020
 20
-1.0000000000000000E+020
 30
-1.0000000000000000E+020
  9
$PLIMMIN
 10
0.0
 20
0.0
  9
$PLIMMAX
 10
420.0
 20
297.0
  9
$UNITMODE
 70
     0
  9
$VISRETAIN
 70
     1
  9
$PLINEGEN
 70
     0
  9
$PSLTSCALE
 70
     1
  0
ENDSEC
  0
SECTION
  2
TABLES
  0
TABLE
  2
VPORT
 70
     1
  0
VPORT
  2
*ACTIVE
 70
     0
 10
0.0
 20
0.0
 11
1.0
 21
1.0
 12
433.52215775681202
 22
405.94852800959683
 13
0.0
 23
0.0
 14
7.5
 24
7.5
 15
30.0
 25
30.0
 16
0.0
 26
0.0
 36
1.0
 17
0.0
 27
0.0
 37
0.0
 40
444.95757189254732
 41
1.7571592210767459
 42
50.0
 43
0.0
 44
0.0
 50
0.0
 51
0.0
 71
     0
 72
   100
 73
     1
 74
     3
 75
     0
 76
     0
 77
     0
 78
     0
  0
ENDTAB
  0
TABLE
  2
LTYPE
 70
    26
  0
LTYPE
  2
CONTINUOUS
 70
     0
  3
Solid line
 72
    65
 73
     0
 40
0.0
  0
LTYPE
  2
AM_ISO02W050
 70
     0
  3
__ __ __ __ __ __ __ __ __ __ __ __ __ __ __
 72
    65
 73
     2
 40
7.5
 49
6.0
 49
-1.5
  0
LTYPE
  2
AM_ISO08W050
 70
     0
  3
____ . ____ . ____ . ____ . ____ . ____ . ____
 72
    65
 73
     4
 40
18.0
 49
12.0
 49
-1.5
 49
3.0
 49
-1.5
  0
LTYPE
  2
AM_ISO09W050
 70
     0
  3
_____ . . _____ . . _____ . . ____ .. ____
 72
    65
 73
     6
 40
22.5
 49
12.0
 49
-1.5
 49
3.0
 49
-1.5
 49
3.0
 49
-1.5
  0
LTYPE
  2
AMCONSTR
 70
     0
  3
_______________________
 72
    65
 73
     2
 40
9999.0
 49
9999.0
 49
0.0
  0
LTYPE
  2
AM_ISO08W050X2
 70
     0
  3
__ . __ . __ . __ . __ . __
 72
    65
 73
     4
 40
9.0
 49
6.0
 49
-0.75
 49
1.5
 49
-0.75
  0
LTYPE
  2
AM_ISO02W050X2
 70
     0
  3
 _ _ _ _ _ _ _ _ _ _ _ _
 72
    65
 73
     2
 40
3.75
 49
3.0
 49
-0.75
  0
LTYPE
  2
AMZIGZAG
 70
     0
  3
/\/-/\/-/\/-/\/-/\/-/\/
 72
    65
 73
     2
 40
11.000099999999991
 49
0.0001
 49
-11.0
  0
LTYPE
  2
ACISOWELD
 70
     0
  3
_ _ _ _ _
 72
    65
 73
     2
 40
2.0
 49
2.0
 49
-1.0
  0
LTYPE
  2
ACISOTGB
 70
     0
  3
__ . . __ . .
 72
    65
 73
     6
 40
9.0
 49
4.0
 49
-1.0
 49
1.0
 49
-1.0
 49
1.0
 49
-1.0
  0
LTYPE
  2
ACISOTGL
 70
     0
  3
_ _ _ _ _
 72
    65
 73
     2
 40
3.0
 49
2.0
 49
-1.0
  0
LTYPE
  2
CENTER
 70
     0
  3
__ . __
 72
    65
 73
     4
 40
7.0
 49
4.0
 49
-1.0
 49
1.0
 49
-1.0
  0
LTYPE
  2
PHANTOM2
 70
     0
  3
Phantom (.5x) ___ _ _ ___ _ _ ___ _ _ ___ _ _
 72
    65
 73
     6
 40
31.75
 49
15.875
 49
-3.174999999999998
 49
3.174999999999998
 49
-3.174999999999998
 49
3.174999999999998
 49
-3.174999999999998
  0
LTYPE
  2
ACANSTGBM
 70
     0
  3
__ . . __ . .
 72
    65
 73
     6
 40
9.0
 49
4.0
 49
-1.0
 49
1.0
 49
-1.0
 49
1.0
 49
-1.0
  0
LTYPE
  2
ACANSTGLM
 70
     0
  3
_ _ _ _ _
 72
    65
 73
     2
 40
3.0
 49
2.0
 49
-1.0
  0
LTYPE
  2
GEN3B
 70
     0
  3
 - - - - -
 72
    65
 73
     2
 40
1.0
 49
0.5
 49
-0.5
  0
LTYPE
  2
GEN7A
 70
     0
  3
__ . __ . __
 72
    65
 73
     4
 40
7.375
 49
4.75
 49
-0.875
 49
0.875
 49
-0.875
  0
LTYPE
  2
ACJISTGB
 70
     0
  3
__ . . __ . .
 72
    65
 73
     6
 40
9.0
 49
4.0
 49
-1.0
 49
1.0
 49
-1.0
 49
1.0
 49
-1.0
  0
LTYPE
  2
ACJISTGL
 70
     0
  3
_ _ _ _ _
 72
    65
 73
     2
 40
3.0
 49
2.0
 49
-1.0
  0
LTYPE
  2
HIDDEN
 70
     0
  3
Hidden __ __ __ __ __ __ __ __ __ __ __ __ __ _
 72
    65
 73
     2
 40
0.375
 49
0.25
 49
-0.125
  0
LTYPE
  2
CENTER2
 70
     0
  3
Center (.5x) ___ _ ___ _ ___ _ ___ _ ___ _ ___
 72
    65
 73
     4
 40
1.125
 49
0.75
 49
-0.125
 49
0.125
 49
-0.125
  0
LTYPE
  2
HIDDEN2
 70
     0
  3
Hidden (.5x) _ _ _ _ _ _ _ _ _ _ _ _ _ _ _ _ _
 72
    65
 73
     2
 40
0.1875
 49
0.125
 49
-0.0625
  0
LTYPE
  2
AMZIGZAG2
 70
     0
  3
/\/-/\/-/\/-/\/-/\/-/\/
 72
    65
 73
     2
 40
0.4401
 49
0.0001
 49
-0.4400000000000002
  0
LTYPE
  2
ACANSTGB
 70
     0
  3
__ . . __ . .
 72
    65
 73
     6
 40
0.35433070866
 49
0.15748031496
 49
-0.03937007874
 49
0.03937007874
 49
-0.03937007874
 49
0.03937007874
 49
-0.03937007874
  0
LTYPE
  2
ACANSTGL
 70
     0
  3
_ _ _ _ _
 72
    65
 73
     2
 40
0.11811023622
 49
0.07874015748
 49
-0.03937007874
  0
ENDTAB
  0
TABLE
  2
LAYER
 70
     5
  0
LAYER
  2
0
 70
     0
 62
     7
  6
CONTINUOUS
  0
LAYER
  2
AM_0
 70
     0
 62
     7
  6
CONTINUOUS
  0
LAYER
  2
DEFPOINTS
 70
     0
 62
     7
  6
CONTINUOUS
  0
LAYER
  2
ｶｸﾚｾﾝ2
 70
     0
 62
     3
  6
GEN3B
  0
LAYER
  2
ﾁｭｳｼﾝｾﾝ1
 70
     0
 62
     1
  6
GEN7A
  0
ENDTAB
  0
TABLE
  2
STYLE
 70
     9
  0
STYLE
  2
STANDARD
 70
     0
 40
0.0
 41
0.8299999999999999
 50
0.0
 71
     0
 42
2.5
  3
txt.shx
  4
bigfont.shx
  0
STYLE
  2
ANNOTATIVE
 70
     0
 40
0.0
 41
1.0
 50
0.0
 71
     0
 42
0.2
  3
txt
  4

  0
STYLE
  2

 70
     1
 40
0.0
 41
1.0
 50
0.0
 71
     0
 42
2.5
  3
ltypeshp.shx
  4

  0
STYLE
  2
ACISOTS
 70
     0
 40
1.0
 41
1.0
 50
0.0
 71
     0
 42
2.5
  3
isocp.shx
  4
extfont.shx
  0
STYLE
  2
ACISOGDT
 70
     0
 40
0.0
 41
1.0
 50
0.0
 71
     0
 42
2.5
  3
amgdt.shx
  4

  0
STYLE
  2
ACANSTS
 70
     0
 40
1.0
 41
1.0
 50
0.0
 71
     0
 42
2.5
  3
romans.shx
  4
bigfont.shx
  0
STYLE
  2
ACANSGDT
 70
     0
 40
0.0
 41
1.0
 50
0.0
 71
     0
 42
2.5
  3
amgdt.shx
  4

  0
STYLE
  2
ACJISTS
 70
     0
 40
1.0
 41
1.0
 50
0.0
 71
     0
 42
2.5
  3
isocp.shx
  4
bigfont.shx
  0
STYLE
  2
ACJISGDT
 70
     0
 40
0.0
 41
1.0
 50
0.0
 71
     0
 42
2.5
  3
amgdt.shx
  4

  0
ENDTAB
  0
TABLE
  2
VIEW
 70
     6
  0
VIEW
  2
AM_VIEW1
 70
     0
 40
277.49999999999989
 10
249.64779005524849
 20
416.24999999999989
 41
499.2955801104971
 11
0.0
 21
0.0
 31
1.0
 12
0.0
 22
0.0
 32
0.0
 42
50.0
 43
0.0
 44
0.0
 50
0.0
 71
     0
  0
VIEW
  2
AM_VIEW2
 70
     0
 40
277.49999999999989
 10
603.85220994475117
 20
416.24999999999989
 41
499.2955801104971
 11
0.0
 21
0.0
 31
1.0
 12
0.0
 22
0.0
 32
0.0
 42
50.0
 43
0.0
 44
0.0
 50
0.0
 71
     0
  0
VIEW
  2
AM_VIEW3
 70
     0
 40
277.49999999999989
 10
249.64779005524849
 20
138.7499999999998
 41
499.2955801104971
 11
0.0
 21
0.0
 31
1.0
 12
0.0
 22
0.0
 32
0.0
 42
50.0
 43
0.0
 44
0.0
 50
0.0
 71
     0
  0
VIEW
  2
AM_VIEW4
 70
     0
 40
277.49999999999989
 10
603.85220994475117
 20
138.7499999999998
 41
499.2955801104971
 11
0.0
 21
0.0
 31
1.0
 12
0.0
 22
0.0
 32
0.0
 42
50.0
 43
0.0
 44
0.0
 50
0.0
 71
     0
  0
VIEW
  2
AM_VIEW5
 70
     0
 40
277.5
 10
426.75
 20
277.49999999999989
 41
499.2955801104971
 11
0.0
 21
0.0
 31
1.0
 12
0.0
 22
0.0
 32
0.0
 42
50.0
 43
0.0
 44
0.0
 50
0.0
 71
     0
  0
VIEW
  2
AM_VIEW6
 70
     0
 40
554.99445000000014
 10
426.75
 20
277.49999999999989
 41
998.5811743093924
 11
0.0
 21
0.0
 31
1.0
 12
0.0
 22
0.0
 32
0.0
 42
50.0
 43
0.0
 44
0.0
 50
0.0
 71
     0
  0
ENDTAB
  0
TABLE
  2
UCS
 70
     0
  0
ENDTAB
  0
TABLE
  2
APPID
 70
    95
  0
APPID
  2
ACAD
 70
     0
  0
APPID
  2
ACADANNOTATIVE
 70
     0
  0
APPID
  2
MCAD_NO_VIS
 70
     0
  0
APPID
  2
ACAD_TEMP_GRAPHIC
 70
     0
  0
APPID
  2
ACATTRIBSERVICES
 70
     0
  0
APPID
  2
GENIUS_GENREC_14
 70
     0
  0
APPID
  2
GENIUS_GENOBJ-N-REC_13
 70
     0
  0
APPID
  2
GENIUS_GENODEF_13
 70
     0
  0
APPID
  2
GENIUS_GENOLIS_13
 70
     0
  0
APPID
  2
GENIUS_GENOBJ-N-TIT_13
 70
     0
  0
APPID
  2
GENIUS_GENOENT_13
 70
     0
  0
APPID
  2
GENIUS_GENTITLE_13
 70
     0
  0
APPID
  2
GENIUS_GENOREF_13
 70
     0
  0
APPID
  2
GENIUS_GENSCREG_15
 70
     0
  0
APPID
  2
GENIUS_GENOBJ-N-SDF_13
 70
     0
  0
APPID
  2
GENIUS_GENFIL_13
 70
     0
  0
APPID
  2
GENIUS_GENOBJ-N-CHA_13
 70
     0
  0
APPID
  2
GENIUS_GENDTOL_13
 70
     0
  0
APPID
  2
GENIUS_GENOBJ-N-FIL_13
 70
     0
  0
APPID
  2
AD_DRAW
 70
     0
  0
APPID
  2
DESIGNERASSEMBLIES
 70
     0
  0
APPID
  2
ASURF_PCURVE_APPNAME
 70
     0
  0
APPID
  2
GENIUS_GE3SECT_13
 70
     0
  0
APPID
  2
GENIUS_GENCFG_13
 70
     0
  0
APPID
  2
GENIUS_GE3CFG0_13
 70
     0
  0
APPID
  2
GENIUS_GENCFG0_13
 70
     0
  0
APPID
  2
GENIUS_GENCFG1_13
 70
     0
  0
APPID
  2
GENIUS_GENCFG2_13
 70
     0
  0
APPID
  2
GENIUS_GENCFG3_13
 70
     0
  0
APPID
  2
GENIUS_GENCFG4_13
 70
     0
  0
APPID
  2
GENIUS_GEVCFG0_13
 70
     0
  0
APPID
  2
GENIUS_GENHINW_13
 70
     0
  0
APPID
  2
GENIUS_FIRSTVISTXT_14
 70
     0
  0
APPID
  2
GENIUS_GENOBJ-N-LEADER_13
 70
     0
  0
APPID
  2
GEV_VCCNULL_SWITCH_OFF
 70
     0
  0
APPID
  2
GENIUS_GEFCFG0_13
 70
     0
  0
APPID
  2
GENIUS_GENZVEED_13
 70
     0
  0
APPID
  2
GENIUS_GENSCREG_13
 70
     0
  0
APPID
  2
GENIUS_DUMCFG0_13
 70
     0
  0
APPID
  2
GEVID936201362
 70
     0
  0
APPID
  2
GEVDC
 70
     0
  0
APPID
  2
GEVCON
 70
     0
  0
APPID
  2
VCC
 70
     0
  0
APPID
  2
GEVPT
 70
     0
  0
APPID
  2
GEVIT
 70
     0
  0
APPID
  2
GENBH
 70
     0
  0
APPID
  2
GEVMK
 70
     0
  0
APPID
  2
GENIUS_GENBH_13
 70
     0
  0
APPID
  2
GENIUS_GENOBJ-NBEHI-BHF_13
 70
     0
  0
APPID
  2
GENIUS_GENOBJ-NBEHI-BHB_13
 70
     0
  0
APPID
  2
GENIUS_GENOBJ-F-DESC_13
 70
     0
  0
APPID
  2
GENIUS_GEFDESC_14
 70
     0
  0
APPID
  2
GENIUS_GENOBJ-F-PART_13
 70
     0
  0
APPID
  2
GENIUS_GEFSTDP_13
 70
     0
  0
APPID
  2
GENIUS_GEFPARTINS_13
 70
     0
  0
APPID
  2
GENIUS_GENTRA_14
 70
     0
  0
APPID
  2
GENIUS_GENINF13_13
 70
     0
  0
APPID
  2
GENIUS_GENOBJ-N-INFOPT_13
 70
     0
  0
APPID
  2
GENIUS_GENOBJ-N-RSSYM_13
 70
     0
  0
APPID
  2
GENIUS_GENSYMENT_13
 70
     0
  0
APPID
  2
GENIUS_GENSCSYM_13
 70
     0
  0
APPID
  2
GENIUS_GEFINFNAM_13
 70
     0
  0
APPID
  2
GENIUS_GENOBJ-N-CEN_13
 70
     0
  0
APPID
  2
GENIUS_GENOBJ-N-CRS_13
 70
     0
  0
APPID
  2
GENIUS_GENOBJ-N-CRC_13
 70
     0
  0
APPID
  2
GENIUS_GENCRC_14
 70
     0
  0
APPID
  2
GEVID942827039
 70
     0
  0
APPID
  2
GEVID942827040
 70
     0
  0
APPID
  2
GEVID942827041
 70
     0
  0
APPID
  2
GENIUS_GENOBJ-F-SCPASSM_13
 70
     0
  0
APPID
  2
GENIUS_GENDIMSH_14
 70
     0
  0
APPID
  2
GEVID942827042
 70
     0
  0
APPID
  2
GEVID946020473
 70
     0
  0
APPID
  2
GEVID946020474
 70
     0
  0
APPID
  2
GEVID946020475
 70
     0
  0
APPID
  2
GENIUS_GENOBJ-N-HTC_13
 70
     0
  0
APPID
  2
GENIUS_GENHATCH_13
 70
     0
  0
APPID
  2
GEVID948854295
 70
     0
  0
APPID
  2
GEVID939402019
 70
     0
  0
APPID
  2
GEVID952919491
 70
     0
  0
APPID
  2
GEVID952919492
 70
     0
  0
APPID
  2
GENIUS_GEFWELD_13
 70
     0
  0
APPID
  2
GENIUS_GENOBJ-F-WELS_13
 70
     0
  0
APPID
  2
GEVID952919493
 70
     0
  0
APPID
  2
GENIUS_GENOBJ-N-RSBK_13
 70
     0
  0
APPID
  2
GENIUS_GENOBJ-N-LIB_13
 70
     0
  0
APPID
  2
GENIUS_GENSCALE_13
 70
     0
  0
APPID
  2
GEVID986376691
 70
     0
  0
APPID
  2
DCO15
 70
     0
  0
APPID
  2
ACAD_DSTYLE_DIMBREAK
 70
     0
  0
APPID
  2
ACAD_DSTYLE_DIMJAG
 70
     0
  0
APPID
  2
ACAD_NAV_VCDISPLAY
 70
     0
  0
APPID
  2
ACADANNOPO
 70
     0
  0
APPID
  2
ACAD_EXEMPT_FROM_CAD_STANDARDS
 70
     0
  0
APPID
  2
ACAD_MLEADERVER
 70
     0
  0
ENDTAB
  0
TABLE
  2
DIMSTYLE
 70
    22
  0
DIMSTYLE
  2
STANDARD
 70
     0
  3

  4

  5

  6

  7

 40
1.0
 41
0.18
 42
0.0625
 43
0.38
 44
0.18
 45
0.0
 46
0.0
 47
0.0
 48
0.0
140
0.18
141
0.09
142
0.0
143
25.399999999999999
144
1.0
145
0.0
146
1.0
147
0.09
 71
     0
 72
     0
 73
     1
 74
     1
 75
     0
 76
     0
 77
     0
 78
     0
170
     0
171
     2
172
     0
173
     0
174
     0
175
     0
176
     0
177
     0
178
     0
  0
DIMSTYLE
  2
ANNOTATIVE
 70
     0
  3

  4

  5

  6

  7

 40
1.0
 41
0.18
 42
0.0625
 43
0.38
 44
0.18
 45
0.0
 46
0.0
 47
0.0
 48
0.0
140
0.18
141
0.09
142
0.0
143
25.399999999999999
144
1.0
145
0.0
146
1.0
147
0.09
 71
     0
 72
     0
 73
     1
 74
     1
 75
     0
 76
     0
 77
     0
 78
     0
170
     0
171
     2
172
     0
173
     0
174
     0
175
     0
176
     0
177
     0
178
     0
  0
DIMSTYLE
  2
AM_ISO
 70
     0
  3

  4
"
  5

  6

  7

 40
1.0
 41
2.5
 42
1.0
 43
8.0
 44
0.6
 45
0.0
 46
0.0
 47
0.1
 48
0.1
140
2.5
141
0.0
142
0.0
143
0.0393701
144
1.0
145
0.0
146
0.71
147
0.8
 71
     0
 72
     0
 73
     0
 74
     0
 75
     0
 76
     0
 77
     1
 78
     8
170
     0
171
     2
172
     1
173
     0
174
     0
175
     0
176
   256
177
   256
178
     4
  0
DIMSTYLE
  2
AM_ISO$3
 70
     0
  3

  4
"
  5

  6

  7

 40
1.0
 41
2.5
 42
1.0
 43
8.0
 44
0.6
 45
0.0
 46
0.0
 47
0.1
 48
0.1
140
2.5
141
0.0
142
0.0
143
0.0393701
144
1.0
145
0.0
146
0.71
147
0.8
 71
     0
 72
     0
 73
     0
 74
     1
 75
     0
 76
     0
 77
     1
 78
     8
170
     0
171
     2
172
     0
173
     0
174
     0
175
     0
176
   256
177
   256
178
     4
  0
DIMSTYLE
  2
AM_ISO$4
 70
     0
  3

  4
"
  5

  6

  7

 40
1.0
 41
2.5
 42
1.0
 43
8.0
 44
0.6
 45
0.0
 46
0.0
 47
0.1
 48
0.1
140
2.5
141
0.0
142
0.0
143
0.0393701
144
1.0
145
0.0
146
0.71
147
0.8
 71
     0
 72
     0
 73
     0
 74
     1
 75
     0
 76
     0
 77
     1
 78
     8
170
     0
171
     2
172
     0
173
     0
174
     0
175
     0
176
   256
177
   256
178
     4
  0
DIMSTYLE
  2
AM_ISO$6
 70
     0
  3

  4
"
  5

  6

  7

 40
1.0
 41
2.5
 42
1.0
 43
8.0
 44
0.6
 45
0.0
 46
0.0
 47
0.1
 48
0.1
140
2.5
141
0.0
142
0.0
143
0.0393701
144
1.0
145
0.0
146
0.71
147
0.8
 71
     0
 72
     0
 73
     0
 74
     0
 75
     0
 76
     0
 77
     0
 78
     8
170
     0
171
     2
172
     1
173
     0
174
     0
175
     0
176
   256
177
   256
178
     4
  0
DIMSTYLE
  2
AM_ISO$7
 70
     0
  3

  4
"
  5

  6

  7

 40
1.0
 41
2.5
 42
1.0
 43
8.0
 44
0.6
 45
0.0
 46
0.0
 47
0.1
 48
0.1
140
2.5
141
0.0
142
0.0
143
0.0393701
144
1.0
145
0.0
146
0.71
147
0.8
 71
     0
 72
     0
 73
     0
 74
     0
 75
     0
 76
     0
 77
     1
 78
     8
170
     0
171
     2
172
     1
173
     0
174
     0
175
     0
176
   256
177
   256
178
     4
  0
DIMSTYLE
  2
AM_ISO$SF
 70
     0
  3

  4
"
  5

  6

  7

 40
1.0
 41
2.5
 42
1.0
 43
10.0
 44
1.0
 45
0.0
 46
0.0
 47
0.1
 48
0.1
140
3.5
141
0.0
142
0.0
143
0.0393701
144
1.0
145
0.0
146
0.71
147
1.5
 71
     0
 72
     0
 73
     0
 74
     0
 75
     1
 76
     1
 77
     1
 78
     8
170
     0
171
     2
172
     1
173
     0
174
     0
175
     0
176
   256
177
   256
178
     2
  0
DIMSTYLE
  2
AM_ISO$SH
 70
     0
  3

  4
"
  5

  6

  7

 40
1.0
 41
2.5
 42
1.0
 43
10.0
 44
1.0
 45
0.0
 46
0.0
 47
0.1
 48
0.1
140
3.5
141
0.0
142
0.0
143
0.0393701
144
2.0
145
0.0
146
0.71
147
1.5
 71
     0
 72
     0
 73
     0
 74
     0
 75
     1
 76
     1
 77
     1
 78
     8
170
     0
171
     2
172
     1
173
     1
174
     0
175
     0
176
   256
177
   256
178
     2
  0
DIMSTYLE
  2
AM_JIS
 70
     0
  3

  4
"
  5

  6

  7

 40
1.0
 41
2.5
 42
1.0
 43
7.0
 44
1.0
 45
0.0
 46
0.0
 47
0.1
 48
0.1000000001
140
2.5
141
0.0
142
0.0
143
0.0393701
144
1.0
145
0.0
146
0.71
147
1.0
 71
     0
 72
     0
 73
     0
 74
     0
 75
     0
 76
     0
 77
     3
 78
     8
170
     0
171
     2
172
     1
173
     0
174
     0
175
     0
176
   256
177
   256
178
     4
  0
DIMSTYLE
  2
AM_JIS$3
 70
     0
  3

  4
"
  5

  6

  7

 40
1.0
 41
2.5
 42
1.0
 43
7.0
 44
1.0
 45
0.0
 46
0.0
 47
0.1
 48
0.1000000001
140
2.5
141
0.0
142
0.0
143
0.0393701
144
1.0
145
0.0
146
0.71
147
1.0
 71
     0
 72
     0
 73
     0
 74
     1
 75
     0
 76
     0
 77
     3
 78
     8
170
     0
171
     2
172
     0
173
     0
174
     0
175
     0
176
   256
177
   256
178
     4
  0
DIMSTYLE
  2
AM_JIS$4
 70
     0
  3

  4
"
  5

  6

  7

 40
1.0
 41
2.5
 42
1.0
 43
7.0
 44
1.0
 45
0.0
 46
0.0
 47
0.1
 48
0.1000000001
140
2.5
141
0.0
142
0.0
143
0.0393701
144
1.0
145
0.0
146
0.71
147
1.0
 71
     0
 72
     0
 73
     0
 74
     0
 75
     0
 76
     0
 77
     3
 78
     8
170
     0
171
     2
172
     0
173
     0
174
     0
175
     0
176
   256
177
   256
178
     4
  0
DIMSTYLE
  2
AM_JIS$6
 70
     0
  3

  4
"
  5

  6

  7

 40
1.0
 41
2.5
 42
1.0
 43
7.0
 44
1.0
 45
0.0
 46
0.0
 47
0.1
 48
0.1000000001
140
2.5
141
0.0
142
0.0
143
0.0393701
144
1.0
145
0.0
146
0.71
147
1.0
 71
     0
 72
     0
 73
     0
 74
     0
 75
     0
 76
     0
 77
     0
 78
     8
170
     0
171
     2
172
     1
173
     0
174
     0
175
     0
176
   256
177
   256
178
     4
  0
DIMSTYLE
  2
AM_JIS$7
 70
     0
  3

  4
"
  5

  6

  7

 40
1.0
 41
2.5
 42
1.0
 43
7.0
 44
1.0
 45
0.0
 46
0.0
 47
0.1
 48
0.1000000001
140
2.5
141
0.0
142
0.0
143
0.0393701
144
1.0
145
0.0
146
0.71
147
1.0
 71
     0
 72
     0
 73
     0
 74
     0
 75
     0
 76
     0
 77
     3
 78
     8
170
     0
171
     2
172
     1
173
     0
174
     0
175
     0
176
   256
177
   256
178
     4
  0
DIMSTYLE
  2
AM_JIS$SF
 70
     0
  3

  4
"
  5

  6

  7

 40
1.0
 41
2.5
 42
1.0
 43
10.0
 44
1.0
 45
0.0
 46
0.0
 47
0.1
 48
0.1
140
3.5
141
0.0
142
0.0
143
0.0393701
144
1.0
145
0.0
146
0.71
147
1.5
 71
     0
 72
     0
 73
     0
 74
     0
 75
     1
 76
     1
 77
     3
 78
     8
170
     0
171
     2
172
     1
173
     0
174
     0
175
     0
176
   256
177
   256
178
     4
  0
DIMSTYLE
  2
AM_JIS$SH
 70
     0
  3

  4
"
  5

  6

  7

 40
1.0
 41
2.5
 42
1.0
 43
10.0
 44
1.0
 45
0.0
 46
0.0
 47
0.1
 48
0.1
140
3.5
141
0.0
142
0.0
143
0.0393701
144
1.0
145
0.0
146
0.71
147
1.5
 71
     0
 72
     0
 73
     0
 74
     0
 75
     1
 76
     0
 77
     3
 78
     8
170
     0
171
     2
172
     1
173
     1
174
     0
175
     0
176
   256
177
   256
178
     4
  0
DIMSTYLE
  2
AM_ANSI
 70
     0
  3

  4
mm
  5

  6

  7

 40
1.0
 41
0.1
 42
0.05
 43
0.5
 44
0.1
 45
0.0
 46
0.0
 47
0.1
 48
0.1
140
0.12
141
0.0
142
0.0
143
25.399999999999999
144
1.0
145
0.0
146
0.71
147
0.06
 71
     0
 72
     0
 73
     1
 74
     1
 75
     0
 76
     0
 77
     0
 78
     7
170
     0
171
     2
172
     0
173
     0
174
     0
175
     0
176
   256
177
   256
178
     2
  0
DIMSTYLE
  2
AM_ANSI$3
 70
     0
  3

  4
mm
  5

  6

  7

 40
1.0
 41
0.1
 42
0.05
 43
0.5
 44
0.1
 45
0.0
 46
0.0
 47
0.1
 48
0.1
140
0.12
141
0.0
142
0.0
143
25.399999999999999
144
1.0
145
0.0
146
0.71
147
0.06
 71
     0
 72
     0
 73
     1
 74
     1
 75
     0
 76
     0
 77
     0
 78
     7
170
     0
171
     2
172
     0
173
     0
174
     0
175
     0
176
   256
177
   256
178
     2
  0
DIMSTYLE
  2
AM_ANSI$4
 70
     0
  3

  4
mm
  5

  6

  7

 40
1.0
 41
0.1
 42
0.05
 43
0.5
 44
0.1
 45
0.0
 46
0.0
 47
0.1
 48
0.1
140
0.12
141
0.0
142
0.0
143
25.399999999999999
144
1.0
145
0.0
146
0.71
147
0.06
 71
     0
 72
     0
 73
     1
 74
     1
 75
     0
 76
     0
 77
     0
 78
     7
170
     0
171
     2
172
     0
173
     0
174
     0
175
     0
176
   256
177
   256
178
     2
  0
DIMSTYLE
  2
AM_ANSI$7
 70
     0
  3

  4
mm
  5

  6

  7

 40
1.0
 41
0.1
 42
0.05
 43
0.5
 44
0.1
 45
0.0
 46
0.0
 47
0.1
 48
0.1
140
0.24
141
0.0
142
0.0
143
25.399999999999999
144
1.0
145
0.0
146
0.71
147
0.06
 71
     0
 72
     0
 73
     1
 74
     1
 75
     0
 76
     0
 77
     0
 78
     7
170
     0
171
     2
172
     0
173
     0
174
     0
175
     0
176
   256
177
   256
178
     2
  0
DIMSTYLE
  2
AM_ANSI$SF
 70
     0
  3

  4
mm
  5

  6

  7

 40
1.0
 41
0.1
 42
0.05
 43
0.5
 44
0.1
 45
0.0
 46
0.0
 47
0.1
 48
0.1
140
0.12
141
0.0
142
0.0
143
25.399999999999999
144
1.0
145
0.0
146
0.71
147
0.06
 71
     0
 72
     0
 73
     1
 74
     1
 75
     1
 76
     1
 77
     0
 78
     7
170
     0
171
     2
172
     0
173
     0
174
     0
175
     0
176
   256
177
   256
178
     2
  0
DIMSTYLE
  2
AM_ANSI$SH
 70
     0
  3

  4
mm
  5

  6

  7

 40
1.0
 41
0.1
 42
0.05
 43
0.5
 44
0.1
 45
0.0
 46
0.0
 47
0.1
 48
0.1
140
0.12
141
0.0
142
0.0
143
25.399999999999999
144
1.0
145
0.0
146
0.71
147
0.06
 71
     0
 72
     0
 73
     1
 74
     1
 75
     1
 76
     1
 77
     0
 78
     7
170
     0
171
     2
172
     0
173
     1
174
     0
175
     0
176
   256
177
   256
178
     2
  0
ENDTAB
  0
ENDSEC
  0
SECTION
  2
BLOCKS
  0
BLOCK
  8
0
  2
$MODEL_SPACE
 70
     0
 10
0.0
 20
0.0
 30
0.0
  3
$MODEL_SPACE
  1

  0
ENDBLK
  5
2E5B
  8
0
  0
BLOCK
 67
     1
  8
0
  2
$PAPER_SPACE
 70
     0
 10
0.0
 20
0.0
 30
0.0
  3
$PAPER_SPACE
  1

  0
ENDBLK
  5
2E57
 67
     1
  8
0
  0
BLOCK
  8
0
  2
GENAXEH
 70
     0
 10
0.0
 20
0.0
 30
0.0
  3
GENAXEH
  1

  0
LINE
  5
2BB7
  8
0
 10
-1.0
 20
0.0
 30
0.0
 11
1.0
 21
0.0
 31
0.0
  0
ENDBLK
  5
2BB8
  8
0
  0
BLOCK
  8
0
  2
_OPEN30
 70
     0
 10
0.0
 20
0.0
 30
0.0
  3
_OPEN30
  1

  0
LINE
  5
2BBB
  8
0
 62
     0
 10
-1.0
 20
0.26794919
 30
0.0
 11
0.0
 21
0.0
 31
0.0
  0
LINE
  5
2BBC
  8
0
 62
     0
 10
0.0
 20
0.0
 30
0.0
 11
-1.0
 21
-0.26794919
 31
0.0
  0
LINE
  5
2BBD
  8
0
 62
     0
 10
0.0
 20
0.0
 30
0.0
 11
-1.0
 21
0.0
 31
0.0
  0
ENDBLK
  5
2BBE
  8
0
  0
BLOCK
  8
0
  2
_NONE
 70
     0
 10
0.0
 20
0.0
 30
0.0
  3
_NONE
  1

  0
ENDBLK
  5
2BC1
  8
0
  0
BLOCK
  8
0
  2
_ACMFILLEDHALF
 70
     0
 10
0.0
 20
0.0
 30
0.0
  3
_ACMFILLEDHALF
  1

  0
TRACE
  5
2F50
  8
AM_0
 62
     0
 10
-0.8
 20
0.0
 30
0.0
 11
-1.0
 21
0.166666666
 31
0.0
 12
0.0
 22
0.0
 32
0.0
 13
0.0
 23
0.0
 33
0.0
  0
LINE
  5
2F51
  8
AM_0
 62
     0
 10
-1.0
 20
0.0
 30
0.0
 11
-0.8
 21
0.0
 31
0.0
  0
ENDBLK
  5
2F4F
  8
0
  0
ENDSEC
  0
SECTION
  2
ENTITIES
  0
LINE
  5
2BC2
  8
ﾁｭｳｼﾝｾﾝ1
 10
311.29523667901469
 20
296.0167128382347
 30
0.0
 11
468.51602667901471
 21
296.0167128382347
 31
0.0
  0
LINE
  5
2BC3
  8
AM_0
 10
421.5682766790145
 20
282.0167118382347
 30
0.0
 11
463.56827667901462
 21
282.0167118382347
 31
0.0
  0
LINE
  5
2BC4
  8
AM_0
 10
421.5682766790145
 20
310.01675883823469
 30
0.0
 11
463.56827667901462
 21
310.01675883823469
 31
0.0
  0
POLYLINE
  5
2BC5
  8
AM_0
 66
     1
 10
0.0
 20
0.0
 30
0.0
  0
VERTEX
  5
2BC6
  8
AM_0
  6
CONTINUOUS
 10
345.56822667901491
 20
205.01668983823461
 30
0.0
 42
0.12791162
  0
VERTEX
  5
2BC7
  8
AM_0
  6
CONTINUOUS
 10
351.66233667901457
 20
206.68210383823461
 30
0.0
 42
0.075873193
  0
VERTEX
  5
2BC8
  8
AM_0
  6
CONTINUOUS
 10
356.64371667901491
 20
210.64100583823461
 30
0.0
 42
0.043913396
  0
VERTEX
  5
2BC9
  8
AM_0
  6
CONTINUOUS
 10
360.58448667901479
 20
215.65812483823461
 30
0.0
 42
0.028464652
  0
VERTEX
  5
2BCA
  8
AM_0
  6
CONTINUOUS
 10
363.77660667901472
 20
221.1847488382345
 30
0.0
 42
0.020370652
  0
VERTEX
  5
2BCB
  8
AM_0
  6
CONTINUOUS
 10
366.42335667901477
 20
226.99709883823451
 30
0.0
 42
0.01565624
  0
VERTEX
  5
2BCC
  8
AM_0
  6
CONTINUOUS
 10
368.64836667901471
 20
232.9837158382345
 30
0.0
 42
0.012688896
  0
VERTEX
  5
2BCD
  8
AM_0
  6
CONTINUOUS
 10
370.53275667901488
 20
239.0868168382346
 30
0.0
 42
0.010707682
  0
VERTEX
  5
2BCE
  8
AM_0
  6
CONTINUOUS
 10
372.13106667901502
 20
245.2722438382346
 30
0.0
 42
0.0093245348
  0
VERTEX
  5
2BCF
  8
AM_0
  6
CONTINUOUS
 10
373.48100667901502
 20
251.5161588382345
 30
0.0
 42
0.0083349327
  0
VERTEX
  5
2BD0
  8
AM_0
  6
CONTINUOUS
 10
374.61035667901473
 20
257.80516083823471
 30
0.0
 42
0.0076121909
  0
VERTEX
  5
2BD1
  8
AM_0
  6
CONTINUOUS
 10
375.53903667901488
 20
264.12733383823451
 30
0.0
 42
0.0070829483
  0
VERTEX
  5
2BD2
  8
AM_0
  6
CONTINUOUS
 10
376.28177667901491
 20
270.47409183823441
 30
0.0
 42
0.0067007639
  0
VERTEX
  5
2BD3
  8
AM_0
  6
CONTINUOUS
 10
376.8495266790145
 20
276.83914083823453
 30
0.0
 42
0.0064352899
  0
VERTEX
  5
2BD4
  8
AM_0
  6
CONTINUOUS
 10
377.25008667901483
 20
283.21712883823471
 30
0.0
 42
0.0062673447
  0
VERTEX
  5
2BD5
  8
AM_0
  6
CONTINUOUS
 10
377.48864667901489
 20
289.60327983823441
 30
0.0
 42
0.0061857091
  0
VERTEX
  5
2BD6
  8
AM_0
  6
CONTINUOUS
 10
377.56820667901502
 20
295.99327083823448
 30
0.0
  0
SEQEND
  5
2BD7
  8
AM_0
  0
LINE
  5
2BD8
  8
AM_0
 10
280.3097366790148
 20
265.87971783823463
 30
0.0
 11
290.06822667901491
 21
285.31669983823463
 31
0.0
  0
LINE
  5
2BD9
  8
AM_0
 10
299.06822667901491
 20
208.81669683823461
 30
0.0
 11
299.06822667901491
 21
336.81668883823482
 31
0.0
  0
LINE
  5
2BDA
  8
AM_0
 10
290.06822667901491
 20
333.04655883823477
 30
0.0
 11
290.06822667901491
 21
211.6071198382345
 31
0.0
  0
LINE
  5
2BDB
  8
AM_0
 10
230.56823667901469
 20
241.31668383823461
 30
0.0
 11
230.56823667901469
 21
354.31670883823472
 31
0.0
  0
LINE
  5
2BDC
  8
AM_0
 10
335.56823667901472
 20
303.96593883823448
 30
0.0
 11
335.56823667901472
 21
213.2727378382346
 31
0.0
  0
LINE
  5
2BDD
  8
AM_0
 10
325.56830667901482
 20
343.63904883823471
 30
0.0
 11
325.56830667901482
 21
205.0167108382345
 31
0.0
  0
LINE
  5
2BDE
  8
AM_0
 10
342.56822667901491
 20
353.81672883823461
 30
0.0
 11
342.56822667901491
 21
226.15957983823481
 31
0.0
  0
LINE
  5
2BDF
  8
AM_0
 10
403.56827667901439
 20
222.63002283823451
 30
0.0
 11
403.56827667901439
 21
347.34857883823469
 31
0.0
  0
LINE
  5
2BE0
  8
AM_0
 10
345.56822667901491
 20
242.48553783823471
 30
0.0
 11
345.56822667901491
 21
277.80537783823462
 31
0.0
  0
LINE
  5
2BE1
  8
AM_0
 10
385.5682766790145
 20
210.01671183823461
 30
0.0
 11
385.5682766790145
 21
317.2500288382347
 31
0.0
  0
LINE
  5
2BE2
  8
AM_0
 10
415.56827667901439
 20
206.8896948382345
 30
0.0
 11
415.56827667901439
 21
332.26772883823452
 31
0.0
  0
LINE
  5
2BE3
  8
AM_0
 10
418.5682766790145
 20
267.99086283823448
 30
0.0
 11
418.5682766790145
 21
324.04256883823462
 31
0.0
  0
LINE
  5
2BE4
  8
AM_0
 10
175.0682366790144
 20
274.81670083823462
 30
0.0
 11
175.0682366790146
 21
320.81670083823462
 31
0.0
  0
LINE
  5
2BE5
  8
AM_0
 10
195.56823667901449
 20
322.81670083823451
 30
0.0
 11
195.56823667901449
 21
272.81670083823451
 31
0.0
  0
LINE
  5
2BE6
  8
AM_0
 10
220.56823667901469
 20
353.0553221922695
 30
0.0
 11
220.56823667901551
 21
242.5780794841998
 31
0.0
  0
LINE
  5
2BE7
  8
AM_0
 10
290.06822667901491
 20
235.6683678382345
 30
0.0
 11
299.06822667901491
 21
235.6683678382345
 31
0.0
  0
LINE
  5
2BE8
  8
AM_0
 10
290.06822667901491
 20
221.31671283823451
 30
0.0
 11
299.06822667901491
 21
221.31671283823451
 31
0.0
  0
LINE
  5
2BE9
  8
AM_0
 10
292.9635566790148
 20
209.02989483823441
 30
0.0
 11
299.06822667901491
 21
208.81671483823439
 31
0.0
  0
LINE
  5
2BEA
  8
AM_0
 10
221.53925348573139
 20
241.57849958518861
 30
0.0
 11
230.56823667901469
 21
241.31670083823451
 31
0.0
  0
ARC
  5
2BEB
  8
AM_0
 10
191.42610105528351
 20
262.81670083823462
 30
0.0
 40
10.0
 50
45.0
 51
90.0
1001
GENIUS_GENOBJ-N-FIL_13
1002
{
1000
OWNER
1000
GEN
1002
}
1001
GENIUS_GENODEF_13
1002
{
1000
HIER
1070
     0
1002
}
1002
{
1000
MANEDIT
1070
     0
1002
}
1002
{
1000
NOSEL
1070
     0
1002
}
1002
{
1000
BEHIND
1070
     0
1002
}
1002
{
1000
OTHER
1070
     0
1002
}
1002
{
1000
REACTOR
1002
}
  0
ARC
  5
2BEC
  8
AM_0
 10
177.06823667901469
 20
274.81670083823462
 30
0.0
 40
2.0
 50
180.0
 51
270.0
1001
GENIUS_GENODEF_13
1002
{
1000
HIER
1070
     0
1002
}
1002
{
1000
MANEDIT
1070
     0
1002
}
1002
{
1000
NOSEL
1070
     0
1002
}
1002
{
1000
BEHIND
1070
     0
1002
}
1002
{
1000
OTHER
1070
     0
1002
}
1002
{
1000
REACTOR
1002
}
1001
GENIUS_GENOBJ-N-FIL_13
1002
{
1000
OWNER
1000
GEN
1002
}
  0
LINE
  5
2BED
  8
AM_0
 10
177.06823667901469
 20
272.81670083823462
 30
0.0
 11
191.42610105528351
 21
272.81670083823462
 31
0.0
  0
LINE
  5
2BEE
  8
AM_0
 10
219.10377058494751
 20
249.2811669323018
 30
0.0
 11
198.4971688671491
 21
269.8877686501001
 31
0.0
  0
ARC
  5
2BEF
  8
AM_0
 10
221.5682366790146
 20
242.5780794841998
 30
0.0
 40
1.0
 50
180.0
 51
268.33915276702578
1001
GENIUS_GENOBJ-N-FIL_13
1002
{
1000
OWNER
1000
GEN
1002
}
1001
GENIUS_GENODEF_13
1002
{
1000
HIER
1070
     0
1002
}
1002
{
1000
MANEDIT
1070
     0
1002
}
1002
{
1000
NOSEL
1070
     0
1002
}
1002
{
1000
BEHIND
1070
     0
1002
}
1002
{
1000
OTHER
1070
     0
1002
}
1002
{
1000
REACTOR
1002
}
  0
ARC
  5
2BF0
  8
AM_0
 10
215.5682366790146
 20
245.74563302636921
 30
0.0
 40
5.0
 50
0.0
 51
45.0
1001
GENIUS_GENODEF_13
1002
{
1000
HIER
1070
     0
1002
}
1002
{
1000
MANEDIT
1070
     0
1002
}
1002
{
1000
NOSEL
1070
     0
1002
}
1002
{
1000
BEHIND
1070
     0
1002
}
1002
{
1000
OTHER
1070
     0
1002
}
1002
{
1000
REACTOR
1002
}
1001
GENIUS_GENOBJ-N-FIL_13
1002
{
1000
OWNER
1000
GEN
1002
}
  0
LINE
  5
2BF1
  8
AM_0
 10
268.80956667901501
 20
238.63723983823451
 30
0.0
 11
289.18958667901501
 21
218.25723483823461
 31
0.0
  0
LINE
  5
2BF2
  8
AM_0
 10
260.56823667901472
 20
217.4454828382346
 30
0.0
 11
260.56823667901472
 21
237.37202883823471
 31
0.0
  0
ARC
  5
2BF3
  8
AM_0
 10
263.56823667901472
 20
217.4454828382346
 30
0.0
 40
3.0
 50
179.99998999999991
 51
268.00000999999992
  0
ARC
  5
2BF4
  8
AM_0
 10
287.23700667901483
 20
210.61528083823461
 30
0.0
 40
3.0
 50
13.618925000000001
 51
88.0
  0
ARC
  5
2BF5
  8
AM_0
 10
293.06822667901491
 20
212.02807683823471
 30
0.0
 40
3.0
 50
193.61893000000001
 51
268.0
  0
LINE
  5
2BF6
  8
AM_0
 10
263.46356667901472
 20
214.44728283823471
 30
0.0
 11
287.34167667901482
 21
213.61345083823471
 31
0.0
  0
ARC
  5
2BF7
  8
AM_0
 10
287.06822667901491
 20
216.13592883823461
 30
0.0
 40
3.0
 50
0.0
 51
45.00000099999999
  0
ARC
  5
2BF8
  8
AM_0
 10
257.56823667901472
 20
237.37202883823471
 30
0.0
 40
3.0
 50
0.0
 51
88.0
  0
LINE
  5
2BF9
  8
AM_0
 10
257.67296667901462
 20
240.37019583823451
 30
0.0
 11
265.44854667901473
 21
240.09866583823461
 31
0.0
  0
LINE
  5
2BFA
  8
AM_0
 10
230.56823667901469
 20
265.87971783823463
 30
0.0
 11
280.3097366790148
 21
265.87971783823463
 31
0.0
  0
LINE
  5
2BFB
  8
AM_0
 10
230.56823667901469
 20
251.81671383823451
 30
0.0
 11
282.30170667901479
 21
251.81671383823451
 31
0.0
  0
LINE
  5
2BFC
  8
AM_0
 10
230.56823667901469
 20
241.31671383823451
 30
0.0
 11
257.67296667901462
 21
240.37019583823451
 31
0.0
  0
ARC
  5
2BFD
  8
AM_0
 10
282.30170667901479
 20
256.81669983823463
 30
0.0
 40
5.0000001000000003
 50
270.0
 51
45.00000099999999
  0
LINE
  5
2BFE
  8
AM_0
 10
267.41687667901488
 20
240.19955883823451
 30
0.0
 11
273.2493266790147
 21
251.81671383823451
 31
0.0
  0
ARC
  5
2BFF
  8
AM_0
 10
265.27403667901461
 20
235.1017188382346
 30
0.0
 40
5.0000001000000003
 50
45.00000099999999
 51
88.0
  0
LINE
  5
2C00
  8
AM_0
 10
280.3097366790148
 20
265.87971783823463
 30
0.0
 11
285.8372066790148
 21
260.3522208382347
 31
0.0
  0
LINE
  5
2C01
  8
ﾁｭｳｼﾝｾﾝ1
 10
403.56821667901471
 20
210.0167268382346
 30
0.0
 11
403.56821667901471
 21
185.0167098382345
 31
0.0
  0
LINE
  5
2C02
  8
ﾁｭｳｼﾝｾﾝ1
 10
323.56823667901472
 20
210.0167268382346
 30
0.0
 11
323.56823667901472
 21
185.0167098382345
 31
0.0
  0
LINE
  5
2C03
  8
ｶｸﾚｾﾝ2
 10
317.56823667901472
 20
205.0167108382345
 30
0.0
 11
317.56823667901472
 21
190.01671083823439
 31
0.0
  0
LINE
  5
2C04
  8
ｶｸﾚｾﾝ2
 10
397.5682766790145
 20
205.0167108382345
 30
0.0
 11
397.5682766790145
 21
190.01671083823439
 31
0.0
  0
LINE
  5
2C05
  8
ｶｸﾚｾﾝ2
 10
329.56823667901472
 20
205.0167108382345
 30
0.0
 11
329.56823667901472
 21
190.01671083823439
 31
0.0
  0
LINE
  5
2C06
  8
ｶｸﾚｾﾝ2
 10
409.56827667901462
 20
205.0167108382345
 30
0.0
 11
409.56827667901462
 21
190.01671083823439
 31
0.0
  0
ARC
  5
2C07
  8
AM_0
 10
390.56822667901491
 20
190.01671083823439
 30
0.0
 40
1.0000000199999981
 50
0.0
 51
90.000003000000007
  0
ARC
  5
2C08
  8
AM_0
 10
336.56822667901491
 20
190.01671083823439
 30
0.0
 40
1.0000000199999981
 50
90.000003000000007
 51
180.00001
  0
LINE
  5
2C09
  8
AM_0
 10
418.5682766790145
 20
203.01672483823461
 30
0.0
 11
418.5682766790145
 21
190.01671083823439
 31
0.0
  0
LINE
  5
2C0A
  8
AM_0
 10
308.56823667901472
 20
203.01672483823461
 30
0.0
 11
308.56823667901472
 21
190.01671083823439
 31
0.0
  0
LINE
  5
2C0B
  8
AM_0
 10
308.56823667901472
 20
190.01671083823439
 30
0.0
 11
335.56823667901472
 21
190.01671083823439
 31
0.0
  0
LINE
  5
2C0C
  8
AM_0
 10
335.56823667901472
 20
190.01671083823439
 30
0.0
 11
335.56823667901472
 21
190.01671083823439
 31
0.0
  0
LINE
  5
2C0D
  8
AM_0
 10
391.5682766790145
 20
190.01671083823439
 30
0.0
 11
418.5682766790145
 21
190.01671083823439
 31
0.0
  0
LINE
  5
2C0E
  8
AM_0
 10
391.5682766790145
 20
190.01671083823439
 30
0.0
 11
391.5682766790145
 21
190.01671083823439
 31
0.0
  0
LINE
  5
2C0F
  8
AM_0
 10
336.56822667901491
 20
191.0167098382345
 30
0.0
 11
390.56822667901491
 21
191.0167098382345
 31
0.0
  0
LINE
  5
2C10
  8
AM_0
 10
345.48110667901477
 20
241.55606283823471
 30
0.0
 11
339.03032667901482
 21
207.45903183823461
 31
0.0
  0
ARC
  5
2C11
  8
AM_0
 10
327.56822667901491
 20
209.27275383823451
 30
0.0
 40
2.00000007
 50
90.000003000000007
 51
180.00001
  0
LINE
  5
2C12
  8
AM_0
 10
310.56830667901482
 20
205.0167108382345
 30
0.0
 11
336.08258667901492
 21
205.0167108382345
 31
0.0
  0
ARC
  5
2C13
  8
AM_0
 10
310.56830667901482
 20
203.01672483823461
 30
0.0
 40
2.00000007
 50
90.000003000000007
 51
180.00001
  0
LINE
  5
2C14
  8
AM_0
 10
299.06822667901491
 20
209.31672783823481
 30
0.0
 11
321.29510667901491
 21
208.54054383823461
 31
0.0
  0
ARC
  5
2C15
  8
AM_0
 10
322.56830667901482
 20
205.29942483823459
 30
0.0
 40
3.0
 50
0.0
 51
79.999998000000005
  0
ARC
  5
2C16
  8
AM_0
 10
321.19043667901491
 20
205.54239183823449
 30
0.0
 40
3.0
 50
79.999998000000005
 51
88.0
  0
LINE
  5
2C17
  8
AM_0
 10
321.71129667901488
 20
208.4968128382346
 30
0.0
 11
323.0892266790147
 21
208.25384583823441
 31
0.0
  0
LINE
  5
2C18
  8
AM_0
 10
299.06822667901491
 20
221.31671283823451
 30
0.0
 11
325.56830667901482
 21
221.31671283823451
 31
0.0
  0
ARC
  5
2C19
  8
AM_0
 10
333.56822667901491
 20
213.2727378382346
 30
0.0
 40
2.00000007
 50
270.0
 51
0.0
  0
LINE
  5
2C1A
  8
AM_0
 10
327.56822667901491
 20
211.27273683823461
 30
0.0
 11
333.56822667901491
 21
211.27273683823461
 31
0.0
  0
ARC
  5
2C1B
  8
AM_0
 10
336.08258667901492
 20
208.0167108382345
 30
0.0
 40
3.0
 50
270.0
 51
349.28688
  0
LINE
  5
2C1C
  8
AM_0
 10
299.06822667901491
 20
235.66879683823441
 30
0.0
 11
325.56830667901482
 21
235.66879683823441
 31
0.0
  0
ARC
  5
2C1D
  8
AM_0
 10
340.56827667901462
 20
242.48553783823471
 30
0.0
 40
5.0000001000000003
 50
349.28688
 51
0.0
  0
LINE
  5
2C1E
  8
AM_0
 10
385.5682766790145
 20
217.63000683823449
 30
0.0
 11
398.56823667901472
 21
217.63000683823449
 31
0.0
  0
LINE
  5
2C1F
  8
AM_0
 10
390.56822667901491
 20
205.0167108382345
 30
0.0
 11
416.56823667901472
 21
205.0167108382345
 31
0.0
  0
ARC
  5
2C20
  8
AM_0
 10
390.56822667901491
 20
210.01671183823461
 30
0.0
 40
5.0000001000000003
 50
179.99998999999991
 51
270.0
  0
ARC
  5
2C21
  8
AM_0
 10
416.56823667901472
 20
203.01672483823461
 30
0.0
 40
2.00000007
 50
0.0
 51
90.000003000000007
  0
ARC
  5
2C22
  8
AM_0
 10
417.56822667901503
 20
206.8896948382345
 30
0.0
 40
2.00000007
 50
179.99998999999991
 51
255.52249
  0
ARC
  5
2C23
  8
AM_0
 10
398.56823667901472
 20
222.63002283823451
 30
0.0
 40
5.0000001000000003
 50
270.0
 51
0.0
  0
ARC
  5
2C24
  8
AM_0
 10
416.56823667901472
 20
265.96397883823471
 30
0.0
 40
1.0000000199999981
 50
91.500000999999969
 51
180.00001
  0
ARC
  5
2C25
  8
AM_0
 10
417.56822667901503
 20
267.99086283823448
 30
0.0
 40
1.0000000199999981
 50
271.49999999999972
 51
0.0
  0
LINE
  5
2C26
  8
AM_0
 10
416.5420466790145
 20
266.96364183823448
 30
0.0
 11
417.59441667901501
 21
266.99119983823448
 31
0.0
  0
LINE
  5
2C27
  8
ﾁｭｳｼﾝｾﾝ1
 10
324.08141667901481
 20
297.81670083823462
 30
0.0
 11
138.63315729090931
 21
297.81670083823462
 31
0.0
  0
LINE
  5
2C28
  8
AM_0
 10
146.0682366790146
 20
291.81670083823462
 30
0.0
 11
171.0682366790146
 21
291.81670083823462
 31
0.0
  0
LINE
  5
2C29
  8
AM_0
 10
146.0682366790146
 20
303.81670083823462
 30
0.0
 11
171.0682366790146
 21
303.81670083823462
 31
0.0
  0
LINE
  5
2C2A
  8
AM_0
 10
146.0682366790146
 20
305.31670083823468
 30
0.0
 11
164.06823667901449
 21
305.31670083823468
 31
0.0
  0
LINE
  5
2C2B
  8
AM_0
 10
146.0682366790146
 20
305.31670083823468
 30
0.0
 11
146.0682366790146
 21
291.81670083823462
 31
0.0
  0
LINE
  5
2C2C
  8
AM_0
 10
290.06822667901491
 20
324.31673883823453
 30
0.0
 11
299.06822667901491
 21
324.31673883823453
 31
0.0
  0
LINE
  5
2C2D
  8
AM_0
 10
292.9635566790148
 20
336.60353883823461
 30
0.0
 11
299.06822667901491
 21
336.81668883823482
 31
0.0
  0
LINE
  5
2C2E
  8
AM_0
 10
290.06822667901491
 20
309.96503883823448
 30
0.0
 11
299.06822667901491
 21
309.96503883823448
 31
0.0
  0
LINE
  5
2C2F
  8
AM_0
 10
221.53925348573139
 20
354.05490209128061
 30
0.0
 11
230.56823667901469
 21
354.31670083823462
 31
0.0
  0
ARC
  5
2C30
  8
AM_0
 10
177.06823667901469
 20
320.81670083823462
 30
0.0
 40
2.0
 50
90.0
 51
180.0
1001
GENIUS_GENODEF_13
1002
{
1000
HIER
1070
     0
1002
}
1002
{
1000
MANEDIT
1070
     0
1002
}
1002
{
1000
NOSEL
1070
     0
1002
}
1002
{
1000
BEHIND
1070
     0
1002
}
1002
{
1000
OTHER
1070
     0
1002
}
1002
{
1000
REACTOR
1002
}
1001
GENIUS_GENOBJ-N-FIL_13
1002
{
1000
OWNER
1000
GEN
1002
}
  0
LINE
  5
2C31
  8
AM_0
 10
171.0682366790146
 20
305.31670083823468
 30
0.0
 11
171.0682366790146
 21
290.31669320883998
 31
0.0
  0
LINE
  5
2C32
  8
AM_0
 10
173.0682366790146
 20
311.98827371348841
 30
0.0
 11
173.0682366790146
 21
283.64512796298078
 31
0.0
  0
ARC
  5
2C33
  8
AM_0
 10
173.0682366790146
 20
279.98827371348841
 30
0.0
 40
2.0
 50
0.0
 51
45.000000000000568
1001
GENIUS_GENODEF_13
1002
{
1000
HIER
1070
     0
1002
}
1002
{
1000
MANEDIT
1070
     0
1002
}
1002
{
1000
NOSEL
1070
     0
1002
}
1002
{
1000
BEHIND
1070
     0
1002
}
1002
{
1000
OTHER
1070
     0
1002
}
1002
{
1000
REACTOR
1002
}
1001
GENIUS_GENOBJ-N-FIL_13
1002
{
1000
OWNER
1000
GEN
1002
}
  0
LINE
  5
2C34
  8
AM_0
 10
173.6540231166415
 20
282.23091440060762
 30
0.0
 11
174.4824502413878
 21
281.40248727586157
 31
0.0
  0
ARC
  5
2C35
  8
AM_0
 10
175.0682366790146
 20
283.64512796298078
 30
0.0
 40
2.0
 50
180.0
 51
225.0000000000006
1001
GENIUS_GENODEF_13
1002
{
1000
HIER
1070
     0
1002
}
1002
{
1000
MANEDIT
1070
     0
1002
}
1002
{
1000
NOSEL
1070
     0
1002
}
1002
{
1000
BEHIND
1070
     0
1002
}
1002
{
1000
OTHER
1070
     0
1002
}
1002
{
1000
REACTOR
1002
}
1001
GENIUS_GENOBJ-N-FIL_13
1002
{
1000
OWNER
1000
GEN
1002
}
  0
LINE
  5
2C36
  8
AM_0
 10
171.0682366790146
 20
290.31669320883998
 30
0.0
 11
173.0682366790146
 21
290.31669320883998
 31
0.0
  0
LINE
  5
2C37
  8
AM_0
 10
164.06823667901449
 20
305.31670083823468
 30
0.0
 11
164.06823667901449
 21
303.81670083823462
 31
0.0
  0
LINE
  5
2C38
  8
AM_0
 10
171.0682366790146
 20
305.31670083823468
 30
0.0
 11
173.0682366790146
 21
305.31670083823468
 31
0.0
  0
LINE
  5
2C39
  8
AM_0
 10
173.6540231166415
 20
313.40248727586152
 30
0.0
 11
174.4824502413878
 21
314.23091440060762
 31
0.0
  0
ARC
  5
2C3A
  8
AM_0
 10
173.0682366790146
 20
315.64512796298078
 30
0.0
 40
2.0
 50
314.99999999999932
 51
0.0
1001
GENIUS_GENODEF_13
1002
{
1000
HIER
1070
     0
1002
}
1002
{
1000
MANEDIT
1070
     0
1002
}
1002
{
1000
NOSEL
1070
     0
1002
}
1002
{
1000
BEHIND
1070
     0
1002
}
1002
{
1000
OTHER
1070
     0
1002
}
1002
{
1000
REACTOR
1002
}
1001
GENIUS_GENOBJ-N-FIL_13
1002
{
1000
OWNER
1000
GEN
1002
}
  0
ARC
  5
2C3B
  8
AM_0
 10
175.0682366790146
 20
311.98827371348841
 30
0.0
 40
2.0
 50
134.9999999999994
 51
180.0
1001
GENIUS_GENODEF_13
1002
{
1000
HIER
1070
     0
1002
}
1002
{
1000
MANEDIT
1070
     0
1002
}
1002
{
1000
NOSEL
1070
     0
1002
}
1002
{
1000
BEHIND
1070
     0
1002
}
1002
{
1000
OTHER
1070
     0
1002
}
1002
{
1000
REACTOR
1002
}
1001
GENIUS_GENOBJ-N-FIL_13
1002
{
1000
OWNER
1000
GEN
1002
}
  0
ARC
  5
2C3C
  8
AM_0
 10
191.42610105528351
 20
332.81670083823462
 30
0.0
 40
10.0
 50
270.0
 51
315.0
1001
GENIUS_GENODEF_13
1002
{
1000
HIER
1070
     0
1002
}
1002
{
1000
MANEDIT
1070
     0
1002
}
1002
{
1000
NOSEL
1070
     0
1002
}
1002
{
1000
BEHIND
1070
     0
1002
}
1002
{
1000
OTHER
1070
     0
1002
}
1002
{
1000
REACTOR
1002
}
1001
GENIUS_GENOBJ-N-FIL_13
1002
{
1000
OWNER
1000
GEN
1002
}
  0
LINE
  5
2C3D
  8
AM_0
 10
177.06823667901469
 20
322.81670083823462
 30
0.0
 11
191.42610105528351
 21
322.81670083823462
 31
0.0
  0
LINE
  5
2C3E
  8
AM_0
 10
219.10377058494751
 20
346.35223474416728
 30
0.0
 11
198.4971688671491
 21
325.74563302636892
 31
0.0
  0
ARC
  5
2C3F
  8
AM_0
 10
221.5682366790146
 20
353.0553221922695
 30
0.0
 40
1.0
 50
91.66084723297412
 51
180.0
1001
GENIUS_GENOBJ-N-FIL_13
1002
{
1000
OWNER
1000
GEN
1002
}
1001
GENIUS_GENODEF_13
1002
{
1000
HIER
1070
     0
1002
}
1002
{
1000
MANEDIT
1070
     0
1002
}
1002
{
1000
NOSEL
1070
     0
1002
}
1002
{
1000
BEHIND
1070
     0
1002
}
1002
{
1000
OTHER
1070
     0
1002
}
1002
{
1000
REACTOR
1002
}
  0
ARC
  5
2C40
  8
AM_0
 10
215.5682366790146
 20
349.8877686501001
 30
0.0
 40
5.0
 50
315.0
 51
0.0
1001
GENIUS_GENODEF_13
1002
{
1000
HIER
1070
     0
1002
}
1002
{
1000
MANEDIT
1070
     0
1002
}
1002
{
1000
NOSEL
1070
     0
1002
}
1002
{
1000
BEHIND
1070
     0
1002
}
1002
{
1000
OTHER
1070
     0
1002
}
1002
{
1000
REACTOR
1002
}
1001
GENIUS_GENOBJ-N-FIL_13
1002
{
1000
OWNER
1000
GEN
1002
}
  0
LINE
  5
2C41
  8
AM_0
 10
250.56830667901471
 20
349.75553883823483
 30
0.0
 11
250.56830667901471
 21
294.87669783823441
 31
0.0
  0
LINE
  5
2C42
  8
AM_0
 10
255.56822667901491
 20
289.87669683823458
 30
0.0
 11
290.06822667901491
 21
289.87669683823458
 31
0.0
  0
ARC
  5
2C43
  8
AM_0
 10
255.56822667901491
 20
294.87669783823441
 30
0.0
 40
5.0000001000000003
 50
179.99998999999991
 51
270.0
  0
LINE
  5
2C44
  8
AM_0
 10
252.75134667901449
 20
348.89111883823449
 30
0.0
 11
289.92314667901491
 21
336.5505888382346
 31
0.0
  0
LINE
  5
2C45
  8
AM_0
 10
254.70788667901479
 20
329.88035883823471
 30
0.0
 11
288.13805667901482
 21
331.04777883823448
 31
0.0
  0
LINE
  5
2C46
  8
AM_0
 10
230.56823667901469
 20
329.7536988382347
 30
0.0
 11
250.56830667901471
 21
329.7536988382347
 31
0.0
  0
ARC
  5
2C47
  8
AM_0
 10
254.5682366790146
 20
333.87794883823477
 30
0.0
 40
4.000000199999997
 50
179.99998999999991
 51
271.99998999999991
  0
LINE
  5
2C48
  8
AM_0
 10
230.56823667901469
 20
354.3167388382347
 30
0.0
 11
246.70781667901471
 21
353.75309883823462
 31
0.0
  0
LINE
  5
2C49
  8
AM_0
 10
230.56823667901469
 20
343.8167388382347
 30
0.0
 11
250.56830667901471
 21
343.8167388382347
 31
0.0
  0
ARC
  5
2C4A
  8
AM_0
 10
246.5682266790148
 20
349.75553883823483
 30
0.0
 40
4.000000199999997
 50
0.0
 51
88.0
  0
ARC
  5
2C4B
  8
AM_0
 10
254.01164667901489
 20
352.68737883823468
 30
0.0
 40
4.000000199999997
 50
201.49854999999991
 51
251.6345799999998
  0
ARC
  5
2C4C
  8
AM_0
 10
288.06830667901471
 20
333.04655883823477
 30
0.0
 40
2.00000007
 50
272.0
 51
0.0
  0
ARC
  5
2C4D
  8
AM_0
 10
291.18347667901492
 20
340.34684883823462
 30
0.0
 40
4.000000199999997
 50
251.6345799999998
 51
285.61970000000002
  0
ARC
  5
2C4E
  8
AM_0
 10
293.06822667901491
 20
333.6053688382346
 30
0.0
 40
3.0
 50
91.999997999999948
 51
180.00001
  0
LINE
  5
2C4F
  8
AM_0
 10
290.06822667901491
 20
333.6053688382346
 30
0.0
 11
290.06822667901491
 21
333.04655883823477
 31
0.0
  0
POLYLINE
  5
2C50
  8
AM_0
 66
     1
 10
0.0
 20
0.0
 30
0.0
  0
VERTEX
  5
2C51
  8
AM_0
  6
CONTINUOUS
 10
375.6472466790151
 20
315.1954488382346
 30
0.0
 42
0.032705835
  0
VERTEX
  5
2C52
  8
AM_0
  6
CONTINUOUS
 10
373.70111667901477
 20
315.94394883823458
 30
0.0
 42
0.01681415
  0
VERTEX
  5
2C53
  8
AM_0
  6
CONTINUOUS
 10
371.69030667901512
 20
316.50614883823442
 30
0.0
 42
0.010836085
  0
VERTEX
  5
2C54
  8
AM_0
  6
CONTINUOUS
 10
369.65087667901503
 20
316.95899883823449
 30
0.0
 42
0.0078631803
  0
VERTEX
  5
2C55
  8
AM_0
  6
CONTINUOUS
 10
367.59650667901491
 20
317.33612883823457
 30
0.0
 42
0.0061455578
  0
VERTEX
  5
2C56
  8
AM_0
  6
CONTINUOUS
 10
365.53223667901511
 20
317.65598883823458
 30
0.0
 42
0.0050541122
  0
VERTEX
  5
2C57
  8
AM_0
  6
CONTINUOUS
 10
363.46061667901489
 20
317.92991883823458
 30
0.0
 42
0.0043145918
  0
VERTEX
  5
2C58
  8
AM_0
  6
CONTINUOUS
 10
361.38287667901471
 20
318.16523883823447
 30
0.0
 42
0.0037843028
  0
VERTEX
  5
2C59
  8
AM_0
  6
CONTINUOUS
 10
359.30369667901488
 20
318.36677883823472
 30
0.0
 42
0.0034034912
  0
VERTEX
  5
2C5A
  8
AM_0
  6
CONTINUOUS
 10
357.2196866790149
 20
318.53864883823462
 30
0.0
 42
0.0031173967
  0
VERTEX
  5
2C5B
  8
AM_0
  6
CONTINUOUS
 10
355.1331866790149
 20
318.68339883823472
 30
0.0
 42
0.0029018773
  0
VERTEX
  5
2C5C
  8
AM_0
  6
CONTINUOUS
 10
353.04509667901459
 20
318.80303883823473
 30
0.0
 42
0.0027404573
  0
VERTEX
  5
2C5D
  8
AM_0
  6
CONTINUOUS
 10
350.95577667901478
 20
318.8991588382346
 30
0.0
 42
0.0026217022
  0
VERTEX
  5
2C5E
  8
AM_0
  6
CONTINUOUS
 10
348.86546667901479
 20
318.97286883823472
 30
0.0
 42
0.0025380412
  0
VERTEX
  5
2C5F
  8
AM_0
  6
CONTINUOUS
 10
346.77449667901448
 20
319.02503883823482
 30
0.0
 42
0.0024845591
  0
VERTEX
  5
2C60
  8
AM_0
  6
CONTINUOUS
 10
344.68307667901479
 20
319.0561788382347
 30
0.0
 42
0.0024584448
  0
VERTEX
  5
2C61
  8
AM_0
  6
CONTINUOUS
 10
342.5913866790147
 20
319.06670883823472
 30
0.0
  0
SEQEND
  5
2C62
  8
AM_0
  0
POLYLINE
  5
2C63
  8
AM_0
 66
     1
 10
0.0
 20
0.0
 30
0.0
  0
VERTEX
  5
2C64
  8
AM_0
  6
CONTINUOUS
 10
377.56820667901502
 20
313.31669883823457
 30
0.0
 42
0.029628627
  0
VERTEX
  5
2C65
  8
AM_0
  6
CONTINUOUS
 10
377.37656667901479
 20
316.54598883823462
 30
0.0
 42
0.029327445
  0
VERTEX
  5
2C66
  8
AM_0
  6
CONTINUOUS
 10
376.80686667901489
 20
319.72694883823459
 30
0.0
 42
0.028837102
  0
VERTEX
  5
2C67
  8
AM_0
  6
CONTINUOUS
 10
375.87101667901459
 20
322.82267883823482
 30
0.0
 42
0.028139415
  0
VERTEX
  5
2C68
  8
AM_0
  6
CONTINUOUS
 10
374.58863667901483
 20
325.79321883823451
 30
0.0
 42
0.027280574
  0
VERTEX
  5
2C69
  8
AM_0
  6
CONTINUOUS
 10
372.98615667901498
 20
328.60259883823471
 30
0.0
 42
0.026363447
  0
VERTEX
  5
2C6A
  8
AM_0
  6
CONTINUOUS
 10
371.09153667901472
 20
331.2250188382344
 30
0.0
 42
0.025439162
  0
VERTEX
  5
2C6B
  8
AM_0
  6
CONTINUOUS
 10
368.93399667901463
 20
333.6396588382346
 30
0.0
 42
0.024503445
  0
VERTEX
  5
2C6C
  8
AM_0
  6
CONTINUOUS
 10
366.54758667901473
 20
335.82617883823463
 30
0.0
 42
0.023638826
  0
VERTEX
  5
2C6D
  8
AM_0
  6
CONTINUOUS
 10
363.96203667901489
 20
337.77329883823472
 30
0.0
 42
0.022857729
  0
VERTEX
  5
2C6E
  8
AM_0
  6
CONTINUOUS
 10
361.20677667901452
 20
339.47210883823448
 30
0.0
 42
0.02217551
  0
VERTEX
  5
2C6F
  8
AM_0
  6
CONTINUOUS
 10
358.30970667901448
 20
340.91642883823448
 30
0.0
 42
0.021601182
  0
VERTEX
  5
2C70
  8
AM_0
  6
CONTINUOUS
 10
355.29728667901492
 20
342.10211883823462
 30
0.0
 42
0.02113939
  0
VERTEX
  5
2C71
  8
AM_0
  6
CONTINUOUS
 10
352.19444667901507
 20
343.02647883823482
 30
0.0
 42
0.020792027
  0
VERTEX
  5
2C72
  8
AM_0
  6
CONTINUOUS
 10
349.02503667901448
 20
343.68782883823462
 30
0.0
 42
0.02055944
  0
VERTEX
  5
2C73
  8
AM_0
  6
CONTINUOUS
 10
345.81191667901498
 20
344.08523883823472
 30
0.0
 42
0.020441781
  0
VERTEX
  5
2C74
  8
AM_0
  6
CONTINUOUS
 10
342.57728667901478
 20
344.21822883823461
 30
0.0
  0
SEQEND
  5
2C75
  8
AM_0
  0
LINE
  5
2C76
  8
AM_0
 10
342.56822667901491
 20
353.81669883823469
 30
0.0
 11
398.69915667901472
 21
352.34687883823449
 31
0.0
  0
ARC
  5
2C77
  8
AM_0
 10
327.56822667901491
 20
307.96592883823462
 30
0.0
 40
2.00000007
 50
179.99998999999991
 51
270.0
  0
LINE
  5
2C78
  8
AM_0
 10
326.48369667901488
 20
299.48881983823452
 30
0.0
 11
333.56822667901491
 21
299.48881983823452
 31
0.0
  0
LINE
  5
2C79
  8
AM_0
 10
299.06822667901491
 20
309.96464883823472
 30
0.0
 11
325.56830667901482
 21
309.96464883823472
 31
0.0
  0
ARC
  5
2C7A
  8
AM_0
 10
333.56822667901491
 20
297.48881883823441
 30
0.0
 40
2.00000007
 50
0.0
 51
90.000003000000007
  0
ARC
  5
2C7B
  8
AM_0
 10
333.56822667901491
 20
303.96593883823448
 30
0.0
 40
2.00000007
 50
0.0
 51
90.000003000000007
  0
LINE
  5
2C7C
  8
AM_0
 10
327.56822667901491
 20
305.96591883823459
 30
0.0
 11
333.56822667901491
 21
305.96591883823459
 31
0.0
  0
ARC
  5
2C7D
  8
AM_0
 10
330.56822667901491
 20
343.63904883823471
 30
0.0
 40
5.0000001000000003
 50
91.999997999999948
 51
180.00001
  0
ARC
  5
2C7E
  8
AM_0
 10
327.56822667901491
 20
325.15079883823472
 30
0.0
 40
2.00000007
 50
90.000003000000007
 51
180.00001
  0
LINE
  5
2C7F
  8
AM_0
 10
299.06822667901491
 20
324.31673883823453
 30
0.0
 11
325.56830667901482
 21
324.31673883823453
 31
0.0
  0
LINE
  5
2C80
  8
AM_0
 10
299.06822667901491
 20
336.31670883823472
 30
0.0
 11
321.15539667901493
 21
337.08800883823483
 31
0.0
  0
ARC
  5
2C81
  8
AM_0
 10
322.56830667901482
 20
340.33403883823462
 30
0.0
 40
3.0
 50
280.0
 51
0.0
  0
ARC
  5
2C82
  8
AM_0
 10
320.98088667901482
 20
342.08498883823472
 30
0.0
 40
5.0000001000000003
 50
272.0
 51
280.0
  0
LINE
  5
2C83
  8
AM_0
 10
321.84911667901491
 20
337.1609388382347
 30
0.0
 11
323.08916667901462
 21
337.37960883823462
 31
0.0
  0
LINE
  5
2C84
  8
AM_0
 10
335.56823667901472
 20
351.6409188382346
 30
0.0
 11
335.56823667901472
 21
329.15081883823461
 31
0.0
  0
ARC
  5
2C85
  8
AM_0
 10
333.56822667901491
 20
329.15081883823461
 30
0.0
 40
2.00000007
 50
270.0
 51
0.0
  0
LINE
  5
2C86
  8
AM_0
 10
327.56822667901491
 20
327.15080883823452
 30
0.0
 11
333.56822667901491
 21
327.15080883823452
 31
0.0
  0
ARC
  5
2C87
  8
AM_0
 10
337.56830667901482
 20
351.6409188382346
 30
0.0
 40
2.00000007
 50
91.999997999999948
 51
163.27365
  0
ARC
  5
2C88
  8
AM_0
 10
330.86444667901469
 20
353.65550883823471
 30
0.0
 40
5.0000001000000003
 50
272.0
 51
343.27366000000001
  0
LINE
  5
2C89
  8
AM_0
 10
330.39380667901452
 20
348.63599883823463
 30
0.0
 11
331.03892667901482
 21
348.65855883823468
 31
0.0
  0
LINE
  5
2C8A
  8
AM_0
 10
342.56822667901491
 20
353.81672883823461
 30
0.0
 11
337.49840667901492
 21
353.6396688382344
 31
0.0
  0
ARC
  5
2C8B
  8
AM_0
 10
395.56823667901472
 20
317.2500288382347
 30
0.0
 40
10.000000200000001
 50
90.000003000000007
 51
180.00001
  0
LINE
  5
2C8C
  8
AM_0
 10
377.56820667901502
 20
313.31669883823457
 30
0.0
 11
377.56820667901502
 21
296.01668283823471
 31
0.0
  0
LINE
  5
2C8D
  8
AM_0
 10
421.5682766790145
 20
311.01671883823462
 30
0.0
 11
421.5682766790145
 21
281.01671283823458
 31
0.0
  0
LINE
  5
2C8E
  8
AM_0
 10
418.5682766790145
 20
281.01671283823458
 30
0.0
 11
421.5682766790145
 21
281.01671283823458
 31
0.0
  0
LINE
  5
2C8F
  8
AM_0
 10
418.5682766790145
 20
311.01671883823462
 30
0.0
 11
421.5682766790145
 21
311.01671883823462
 31
0.0
  0
LINE
  5
2C90
  8
AM_0
 10
408.13247667901493
 20
335.66726883823452
 30
0.0
 11
412.82972667901481
 21
335.25629883823473
 31
0.0
  0
LINE
  5
2C91
  8
AM_0
 10
395.56823667901472
 20
327.24998883823469
 30
0.0
 11
403.56827667901439
 21
327.24998883823469
 31
0.0
  0
ARC
  5
2C92
  8
AM_0
 10
408.56822667901491
 20
340.64825883823448
 30
0.0
 40
5.0000001000000003
 50
179.99998999999991
 51
265.0
  0
ARC
  5
2C93
  8
AM_0
 10
417.56822667901503
 20
324.04256883823462
 30
0.0
 40
1.0000000199999981
 50
0.0
 51
88.499996999999965
  0
ARC
  5
2C94
  8
AM_0
 10
416.56823667901472
 20
326.06942883823461
 30
0.0
 40
1.0000000199999981
 50
179.99998999999991
 51
268.50000999999992
  0
LINE
  5
2C95
  8
AM_0
 10
416.5420466790145
 20
325.06973883823463
 30
0.0
 11
417.59441667901501
 21
325.04219883823458
 31
0.0
  0
ARC
  5
2C96
  8
AM_0
 10
412.5682766790145
 20
332.26772883823452
 30
0.0
 40
3.0
 50
0.0
 51
84.999996999999979
  0
ARC
  5
2C97
  8
AM_0
 10
398.56823667901472
 20
347.34857883823469
 30
0.0
 40
5.0000001000000003
 50
0.0
 51
88.499996999999965
  0
LINE
  5
2C98
  8
ﾁｭｳｼﾝｾﾝ1
 10
632.92118067901492
 20
186.48198183823439
 30
0.0
 11
632.92118067901492
 21
359.81666883823448
 31
0.0
  0
CIRCLE
  5
2C99
  8
AM_0
 10
632.92118067901492
 20
296.0167128382347
 30
0.0
 40
29.000001000000001
  0
ARC
  5
2C9A
  8
AM_0
 10
632.92118067901492
 20
281.01671283823458
 30
0.0
 40
54.000003000000007
 50
0.0
 51
180.00001
  0
LINE
  5
2C9B
  8
AM_0
 10
572.92121067901485
 20
325.26671883823462
 30
0.0
 11
572.92118067901492
 21
243.8167158382345
 31
0.0
  0
LINE
  5
2C9C
  8
AM_0
 10
722.92119867901442
 20
205.0167108382345
 30
0.0
 11
715.13004567901476
 21
312.22640883823448
 31
0.0
  0
LINE
  5
2C9D
  8
AM_0
 10
542.92118667901491
 20
205.0167108382345
 30
0.0
 11
550.712306679015
 21
312.22643883823469
 31
0.0
  0
LINE
  5
2C9E
  8
AM_0
 10
578.92118067901492
 20
210.0167268382346
 30
0.0
 11
578.92118067901492
 21
281.01671283823458
 31
0.0
  0
LINE
  5
2C9F
  8
AM_0
 10
692.92119867901454
 20
243.8167158382345
 30
0.0
 11
692.92119867901454
 21
325.26668883823447
 31
0.0
  0
LINE
  5
2CA0
  8
AM_0
 10
686.92119867901488
 20
210.0167268382346
 30
0.0
 11
686.92119867901488
 21
281.01671283823458
 31
0.0
  0
LINE
  5
2CA1
  8
AM_0
 10
542.92121667901483
 20
205.0167108382345
 30
0.0
 11
552.533360679015
 21
282.75633783823451
 31
0.0
  0
LINE
  5
2CA2
  8
AM_0
 10
722.92119867901442
 20
205.01672583823461
 30
0.0
 11
713.30903067901477
 21
282.75633783823451
 31
0.0
  0
ARC
  5
2CA3
  8
AM_0
 10
632.92118067901492
 20
243.8167158382345
 30
0.0
 40
60.000002999999992
 50
334.15807000000001
 51
0.0
  0
LINE
  5
2CA4
  8
AM_0
 10
687.92119767901477
 20
190.01672583823461
 30
0.0
 11
722.92119867901442
 21
190.01672583823461
 31
0.0
  0
LINE
  5
2CA5
  8
AM_0
 10
689.92119867901488
 20
205.0167108382345
 30
0.0
 11
720.92120067901442
 21
205.0167108382345
 31
0.0
  0
LINE
  5
2CA6
  8
AM_0
 10
575.9211806790147
 20
205.0167108382345
 30
0.0
 11
544.92119667901488
 21
205.0167108382345
 31
0.0
  0
LINE
  5
2CA7
  8
AM_0
 10
577.92121167901473
 20
190.01672583823461
 30
0.0
 11
542.92118667901491
 21
190.01672583823461
 31
0.0
  0
LINE
  5
2CA8
  8
ﾁｭｳｼﾝｾﾝ1
 10
557.92117767901482
 20
185.0167098382345
 30
0.0
 11
557.92117767901482
 21
210.0167268382346
 31
0.0
  0
LINE
  5
2CA9
  8
ｶｸﾚｾﾝ2
 10
551.92117767901482
 20
205.0167108382345
 30
0.0
 11
551.92117767901482
 21
190.01672583823461
 31
0.0
  0
LINE
  5
2CAA
  8
AM_0
 10
542.92118667901491
 20
190.01672583823461
 30
0.0
 11
542.92118667901491
 21
205.0167108382345
 31
0.0
  0
ARC
  5
2CAB
  8
AM_0
 10
544.92119667901488
 20
203.01672483823461
 30
0.0
 40
2.00000007
 50
90.000003000000007
 51
180.00001
  0
LINE
  5
2CAC
  8
ｶｸﾚｾﾝ2
 10
563.92118067901492
 20
205.0167108382345
 30
0.0
 11
563.92118067901492
 21
190.01672583823461
 31
0.0
  0
ARC
  5
2CAD
  8
AM_0
 10
685.92119967901453
 20
190.01672583823461
 30
0.0
 40
2.00000007
 50
0.0
 51
90.000003000000007
  0
LINE
  5
2CAE
  8
AM_0
 10
687.92119767901477
 20
190.01672583823461
 30
0.0
 11
687.92119767901477
 21
203.01672483823461
 31
0.0
  0
ARC
  5
2CAF
  8
AM_0
 10
579.92120967901485
 20
190.01672583823461
 30
0.0
 40
2.00000007
 50
90.000003000000007
 51
180.00001
  0
LINE
  5
2CB0
  8
AM_0
 10
577.92121167901473
 20
190.01672583823461
 30
0.0
 11
577.92121167901473
 21
203.01672483823461
 31
0.0
  0
LINE
  5
2CB1
  8
AM_0
 10
595.92119667901488
 20
203.01672483823461
 30
0.0
 11
669.92119767901499
 21
203.01672483823461
 31
0.0
  0
LINE
  5
2CB2
  8
AM_0
 10
685.92119967901453
 20
192.01670883823471
 30
0.0
 11
579.92120967901485
 21
192.01670883823471
 31
0.0
  0
ARC
  5
2CB3
  8
AM_0
 10
632.92118067901492
 20
243.8167158382345
 30
0.0
 40
60.000002999999992
 50
180.00001
 51
205.84192999999991
  0
ARC
  5
2CB4
  8
AM_0
 10
595.92119667901488
 20
198.0167268382346
 30
0.0
 40
5.0000001000000003
 50
90.000003000000007
 51
180.00001
  0
ARC
  5
2CB5
  8
AM_0
 10
573.92120967901485
 20
210.0167268382346
 30
0.0
 40
5.0000001000000003
 50
270.0
 51
0.0
  0
ARC
  5
2CB6
  8
AM_0
 10
575.9211806790147
 20
203.01672483823461
 30
0.0
 40
2.00000007
 50
0.0
 51
90.000003000000007
  0
LINE
  5
2CB7
  8
AM_0
 10
590.92118067901492
 20
197.01672483823461
 30
0.0
 11
590.92118067901492
 21
198.0167268382346
 31
0.0
  0
ARC
  5
2CB8
  8
AM_0
 10
585.92120967901485
 20
197.01672483823461
 30
0.0
 40
5.0000001000000003
 50
270.0
 51
0.0
  0
ARC
  5
2CB9
  8
AM_0
 10
632.92118067901492
 20
272.81669883823457
 30
0.0
 40
81.000003000000007
 50
265.97275000000002
 51
274.02724999999992
  0
ARC
  5
2CBA
  8
AM_0
 10
679.92119667901477
 20
197.01672483823461
 30
0.0
 40
5.0000001000000003
 50
179.99998999999991
 51
270.0
  0
ARC
  5
2CBB
  8
AM_0
 10
669.92119767901499
 20
198.0167268382346
 30
0.0
 40
5.0000001000000003
 50
0.0
 51
90.000003000000007
  0
LINE
  5
2CBC
  8
AM_0
 10
674.92119867901476
 20
197.01672483823461
 30
0.0
 11
674.92119867901476
 21
198.0167268382346
 31
0.0
  0
ARC
  5
2CBD
  8
AM_0
 10
691.92119967901442
 20
210.0167268382346
 30
0.0
 40
5.0000001000000003
 50
179.99998999999991
 51
270.0
  0
ARC
  5
2CBE
  8
AM_0
 10
689.92119867901488
 20
203.01672483823461
 30
0.0
 40
2.00000007
 50
90.000003000000007
 51
180.00001
  0
LINE
  5
2CBF
  8
ﾁｭｳｼﾝｾﾝ1
 10
707.92118367901503
 20
185.0167098382345
 30
0.0
 11
707.92118367901503
 21
210.0167268382346
 31
0.0
  0
LINE
  5
2CC0
  8
ｶｸﾚｾﾝ2
 10
701.92119867901454
 20
205.0167108382345
 30
0.0
 11
701.92119867901454
 21
190.01672583823461
 31
0.0
  0
LINE
  5
2CC1
  8
ｶｸﾚｾﾝ2
 10
713.92119867901454
 20
205.0167108382345
 30
0.0
 11
713.92119867901454
 21
190.01672583823461
 31
0.0
  0
LINE
  5
2CC2
  8
AM_0
 10
722.92119867901442
 20
190.01672583823461
 30
0.0
 11
722.92119867901442
 21
205.0167108382345
 31
0.0
  0
ARC
  5
2CC3
  8
AM_0
 10
720.92120067901442
 20
203.01672483823461
 30
0.0
 40
2.00000007
 50
0.0
 51
90.000003000000007
  0
LINE
  5
2CC4
  8
AM_0
 10
706.72707567901489
 20
325.17074883823477
 30
0.0
 11
671.16806967901493
 21
344.21822883823461
 31
0.0
  0
ARC
  5
2CC5
  8
AM_0
 10
632.92118067901492
 20
272.8167318382346
 30
0.0
 40
81.000003000000007
 50
7.0485985999999992
 51
172.95139999999981
  0
LINE
  5
2CC6
  8
AM_0
 10
559.11533067901485
 20
325.17071883823462
 30
0.0
 11
594.67432467901472
 21
344.2181988382344
 31
0.0
  0
LINE
  5
2CC7
  8
AM_0
 10
431.56823667901472
 20
313.01675883823452
 30
0.0
 11
463.56827667901462
 21
313.01675883823452
 31
0.0
  0
LINE
  5
2CC8
  8
AM_0
 10
431.56823667901472
 20
313.01675883823452
 30
0.0
 11
431.56823667901472
 21
310.01675883823469
 31
0.0
  0
LINE
  5
2CC9
  8
AM_0
 10
463.56827667901462
 20
313.01675883823452
 30
0.0
 11
463.56827667901462
 21
282.0167118382347
 31
0.0
  0
ARC
  5
2CCA
  8
AM_0
 10
566.6702636790144
 20
311.06669883823457
 30
0.0
 40
16.000000499999999
 50
118.1761399999998
 51
175.8435099999999
  0
LINE
  5
2CCB
  8
ﾁｭｳｼﾝｾﾝ1
 10
596.84308467901485
 20
296.0167128382347
 30
0.0
 11
669.17946867901458
 21
296.0167128382347
 31
0.0
  0
ARC
  5
2CCC
  8
AM_0
 10
632.92118067901492
 20
296.0167128382347
 30
0.0
 40
14.000001299999999
 50
106.6015399999999
 51
73.398452000000006
  0
ARC
  5
2CCD
  8
AM_0
 10
577.92121167901473
 20
325.26668883823447
 30
0.0
 40
5.0000001000000003
 50
136.35948999999999
 51
180.00001
  0
CIRCLE
  5
2CCE
  8
AM_0
 62
     2
 10
632.92118067901492
 20
296.0167128382347
 30
0.0
 40
4.000000199999997
  0
CIRCLE
  5
2CCF
  8
AM_0
 10
632.92118067901492
 20
296.0167128382347
 30
0.0
 40
3.0
  0
LINE
  5
2CD0
  8
AM_0
 10
636.92116767901427
 20
306.01670883823471
 30
0.0
 11
636.92116767901427
 21
313.01675883823452
 31
0.0
  0
LINE
  5
2CD1
  8
AM_0
 10
628.92118167901447
 20
306.01670883823471
 30
0.0
 11
628.92118167901447
 21
313.01675883823452
 31
0.0
  0
LINE
  5
2CD2
  8
AM_0
 10
628.92118167901447
 20
306.01670883823471
 30
0.0
 11
636.92116767901427
 21
306.01670883823471
 31
0.0
  0
LINE
  5
2CD3
  8
AM_0
 10
628.92118167901447
 20
313.01675883823452
 30
0.0
 11
636.92116767901427
 21
313.01675883823452
 31
0.0
  0
ARC
  5
2CD4
  8
AM_0
 10
687.92119767901477
 20
325.26668883823447
 30
0.0
 40
5.0000001000000003
 50
0.0
 51
43.64050000000001
  0
ARC
  5
2CD5
  8
AM_0
 10
699.17213067901503
 20
311.06669883823457
 30
0.0
 40
16.000000499999999
 50
4.1564915999999981
 51
61.823859999999989
  0
LINE
  5
2CD6
  8
AM_0
 10
231.357286984962
 20
329.75413983823461
 30
0.0
 11
221.357286984962
 21
329.75413983823461
 31
0.0
  0
LINE
  5
2CD7
  8
AM_0
 10
231.357286984962
 20
343.81670583823461
 30
0.0
 11
221.357286984962
 21
343.81670583823461
 31
0.0
  0
LINE
  5
2CD8
  8
AM_0
 10
231.357286984962
 20
251.8166988382346
 30
0.0
 11
221.357286984962
 21
251.8166988382346
 31
0.0
  0
LINE
  5
2CD9
  8
AM_0
 10
231.357286984962
 20
265.87926183823453
 30
0.0
 11
221.357286984962
 21
265.87926183823453
 31
0.0
  0
LINE
  5
2CDA
  8
AM_0
 10
431.56827667901428
 20
540.88555879884314
 30
0.0
 11
463.56827667901462
 21
540.88555879884314
 31
0.0
  0
LINE
  5
2CDB
  8
AM_0
 10
431.56827667901428
 20
532.88555879884314
 30
0.0
 11
463.56827667901462
 21
532.88555879884314
 31
0.0
  0
LINE
  5
2CDC
  8
AM_0
 10
421.5683066790146
 20
522.88555879884314
 30
0.0
 11
463.56827667901462
 21
522.88555879884314
 31
0.0
  0
LINE
  5
2CDD
  8
AM_0
 10
421.5683066790146
 20
550.88555879884314
 30
0.0
 11
463.56827667901462
 21
550.88555879884314
 31
0.0
  0
LINE
  5
2CDE
  8
ﾁｭｳｼﾝｾﾝ1
 10
138.63315729090931
 20
536.88555879884314
 30
0.0
 11
468.27530667901448
 21
536.88555879884314
 31
0.0
  0
ARC
  5
2CDF
  8
AM_0
 10
287.06824667901452
 20
530.88555879884314
 30
0.0
 40
3.0
 50
0.0
 51
90.000003000000945
  0
ARC
  5
2CE0
  8
AM_0
 10
253.5682766790145
 20
530.88555879884314
 30
0.0
 40
3.0
 50
90.000003000000945
 51
180.00001000000091
  0
LINE
  5
2CE1
  8
AM_0
 10
250.56827667901439
 20
484.32927879884278
 30
0.0
 11
250.56827667901439
 21
589.44185879884299
 31
0.0
  0
LINE
  5
2CE2
  8
AM_0
 10
230.5682766790145
 20
480.88555879884302
 30
0.0
 11
230.5682766790145
 21
592.88555879884279
 31
0.0
  0
LINE
  5
2CE3
  8
AM_0
 10
290.06824667901452
 20
476.38555879884291
 30
0.0
 11
290.06824667901452
 21
597.38555879884302
 31
0.0
  0
LINE
  5
2CE4
  8
AM_0
 10
299.06830667901443
 20
473.38555879884302
 30
0.0
 11
299.06830667901443
 21
600.38555879884302
 31
0.0
  0
LINE
  5
2CE5
  8
AM_0
 10
335.56827667901462
 20
465.79540879884303
 30
0.0
 11
335.56827667901462
 21
607.97570879884302
 31
0.0
  0
LINE
  5
2CE6
  8
AM_0
 10
325.5683066790146
 20
460.056698798843
 30
0.0
 11
325.5683066790146
 21
613.71441879884298
 31
0.0
  0
LINE
  5
2CE7
  8
AM_0
 10
403.5683066790146
 20
481.71398879884282
 30
0.0
 11
403.5683066790146
 21
592.057128798843
 31
0.0
  0
LINE
  5
2CE8
  8
AM_0
 10
418.56830667901448
 20
564.91140879884279
 30
0.0
 11
418.56830667901448
 21
508.85970879884292
 31
0.0
  0
LINE
  5
2CE9
  8
AM_0
 10
415.56830667901431
 20
482.75853879884278
 30
0.0
 11
415.56830667901431
 21
591.01256879884295
 31
0.0
  0
LINE
  5
2CEA
  8
AM_0
 10
342.5683066790146
 20
454.63460879884281
 30
0.0
 11
342.5683066790146
 21
619.13646879884277
 31
0.0
  0
LINE
  5
2CEB
  8
AM_0
 10
421.5683066790146
 20
551.88555879884314
 30
0.0
 11
421.5683066790146
 21
521.88555879884279
 31
0.0
  0
LINE
  5
2CEC
  8
AM_0
 10
325.5683066790146
 20
477.57705879884293
 30
0.0
 11
335.56827667901462
 21
477.57705879884293
 31
0.0
  0
LINE
  5
2CED
  8
AM_0
 10
342.5683066790146
 20
454.63460879884281
 30
0.0
 11
330.39380667901452
 21
455.05974879884292
 31
0.0
  0
LINE
  5
2CEE
  8
AM_0
 10
311.48975667901448
 20
447.777948798843
 30
0.0
 11
345.5682766790145
 21
446.88555879884279
 31
0.0
  0
ARC
  5
2CEF
  8
AM_0
 10
311.5683066790146
 20
450.77691879884281
 30
0.0
 40
3.0
 50
180.00001000000091
 51
268.50000000000063
  0
LINE
  5
2CF0
  8
AM_0
 10
230.5682766790145
 20
480.88555879884302
 30
0.0
 11
287.19181667901461
 21
478.90822879884303
 31
0.0
  0
ARC
  5
2CF1
  8
AM_0
 10
246.56827667901439
 20
484.32927879884278
 30
0.0
 40
4.0
 50
267.99999999999932
 51
0.0000006832495047
  0
LINE
  5
2CF2
  8
AM_0
 10
230.5682766790145
 20
490.88524879884301
 30
0.0
 11
250.56827667901439
 21
490.88524879884301
 31
0.0
  0
LINE
  5
2CF3
  8
AM_0
 10
230.5682766790145
 20
504.94561879884282
 30
0.0
 11
250.56827667901439
 21
504.94561879884282
 31
0.0
  0
LINE
  5
2CF4
  8
AM_0
 10
299.06830667901443
 20
484.84557879884301
 30
0.0
 11
325.56827667901462
 21
484.84557879884301
 31
0.0
  0
LINE
  5
2CF5
  8
AM_0
 10
299.06833667901452
 20
473.38555879884302
 30
0.0
 11
322.67298667901451
 21
472.561248798843
 31
0.0
  0
ARC
  5
2CF6
  8
AM_0
 10
293.06824667901452
 20
476.38555879884291
 30
0.0
 40
3.0
 50
180.00001000000091
 51
270.0
  0
LINE
  5
2CF7
  8
AM_0
 10
299.06830667901443
 20
484.84557879884301
 30
0.0
 11
290.06824667901452
 21
484.84557879884301
 31
0.0
  0
ARC
  5
2CF8
  8
AM_0
 10
287.08713667901452
 20
475.9100287988428
 30
0.0
 40
3.0
 50
4.545488300001014
 51
87.999999999999503
  0
LINE
  5
2CF9
  8
AM_0
 10
299.06833667901452
 20
473.38555879884302
 30
0.0
 11
293.06824667901452
 21
473.38555879884302
 31
0.0
  0
ARC
  5
2CFA
  8
AM_0
 10
322.56830667901448
 20
469.56307879884281
 30
0.0
 40
3.0
 50
0.0
 51
87.999999999999503
  0
ARC
  5
2CFB
  8
AM_0
 10
311.5683066790146
 20
469.66945879884281
 30
0.0
 40
3.0
 50
105.0000000000007
 51
180.00001000000091
  0
ARC
  5
2CFC
  8
AM_0
 10
323.5683066790146
 20
461.88555879884308
 30
0.0
 40
6.0
 50
70.528778999998195
 51
302.21188000000092
  0
LINE
  5
2CFD
  8
AM_0
 10
308.5683066790146
 20
450.77691879884281
 30
0.0
 11
308.5683066790146
 21
469.66945879884281
 31
0.0
  0
ARC
  5
2CFE
  8
ｶｸﾚｾﾝ2
 10
323.5683066790146
 20
461.88555879884308
 30
0.0
 40
6.0
 50
302.21188000000092
 51
70.528778999998195
  0
ARC
  5
2CFF
  8
AM_0
 10
330.5683066790146
 20
460.056698798843
 30
0.0
 40
5.0
 50
180.00001000000091
 51
267.99999999999932
  0
LINE
  5
2D00
  8
AM_0
 10
310.79184667901461
 20
472.56722879884279
 30
0.0
 11
312.14200667901451
 21
472.92901879884278
 31
0.0
  0
LINE
  5
2D01
  8
AM_0
 10
299.06830667901443
 20
499.73760879884293
 30
0.0
 11
325.56827667901462
 21
499.73760879884293
 31
0.0
  0
LINE
  5
2D02
  8
AM_0
 10
299.06830667901443
 20
499.73760879884293
 30
0.0
 11
290.06824667901452
 21
499.73760879884293
 31
0.0
  0
POLYLINE
  5
2D03
  8
AM_0
 66
     1
 10
0.0
 20
0.0
 30
0.0
  0
VERTEX
  5
2D04
  8
AM_0
  6
CONTINUOUS
 10
342.5683066790146
 20
498.61046879884282
 30
0.0
 42
-0.05999131
  0
VERTEX
  5
2D05
  8
AM_0
  6
CONTINUOUS
 10
368.15711667901451
 20
482.67824879884301
 30
0.0
 42
-0.30883749
  0
VERTEX
  5
2D06
  8
AM_0
  6
CONTINUOUS
 10
377.5682766790145
 20
466.737488798843
 30
0.0
 42
-0.25905868
  0
VERTEX
  5
2D07
  8
AM_0
  6
CONTINUOUS
 10
343.11860667901448
 20
446.94945879884301
 30
0.0
  0
SEQEND
  5
2D08
  8
AM_0
  0
ARC
  5
2D09
  8
AM_0
 10
340.5683066790146
 20
452.0181887988428
 30
0.0
 40
5.0
 50
268.50000000000063
 51
0.0000006832495047
  0
ARC
  5
2D0A
  8
AM_0
 10
390.5683066790146
 20
453.065638798843
 30
0.0
 40
5.0
 50
180.00001000000091
 51
271.4999999999992
  0
ARC
  5
2D0B
  8
AM_0
 10
415.56830667901431
 20
451.71959879884281
 30
0.0
 40
3.0
 50
271.4999999999992
 51
0.0
  0
LINE
  5
2D0C
  8
AM_0
 10
341.56830667901443
 20
448.0181887988428
 30
0.0
 11
341.56830667901443
 21
451.36132879884281
 31
0.0
  0
LINE
  5
2D0D
  8
AM_0
 10
345.56830667901448
 20
446.88555879884279
 30
0.0
 11
415.6468266790144
 21
448.72060879884282
 31
0.0
  0
ARC
  5
2D0E
  8
AM_0
 10
340.5683066790146
 20
448.0181887988428
 30
0.0
 40
1.0
 50
270.0
 51
0.0
  0
ARC
  5
2D0F
  8
AM_0
 10
393.56830667901448
 20
468.53148879884282
 30
0.0
 40
8.0
 50
91.999998000000545
 51
180.00001000000091
  0
POLYLINE
  5
2D10
  8
AM_0
 66
     1
 10
0.0
 20
0.0
 30
0.0
  0
VERTEX
  5
2D11
  8
AM_0
  6
CONTINUOUS
 10
343.83184667901452
 20
456.95657879884283
 30
0.0
 42
0.021277527
  0
VERTEX
  5
2D12
  8
AM_0
  6
CONTINUOUS
 10
354.66197667901451
 20
459.01309879884292
 30
0.0
 42
0.020622977
  0
VERTEX
  5
2D13
  8
AM_0
  6
CONTINUOUS
 10
364.78675667901462
 20
461.830138798843
 30
0.0
 42
0.022707911
  0
VERTEX
  5
2D14
  8
AM_0
  6
CONTINUOUS
 10
375.59366667901452
 20
465.87566879884281
 30
0.0
  0
SEQEND
  5
2D15
  8
AM_0
  0
LINE
  5
2D16
  8
AM_0
 10
342.5683066790146
 20
454.63460879884281
 30
0.0
 11
345.56830667901448
 21
454.63460879884281
 31
0.0
  0
ARC
  5
2D17
  8
AM_0
 10
342.5683066790146
 20
451.36132879884281
 30
0.0
 40
1.0
 50
109.47121999999951
 51
180.00001000000091
  0
ARC
  5
2D18
  8
AM_0
 10
340.5683066790146
 20
457.01818879884308
 30
0.0
 40
5.0
 50
289.47123000000062
 51
331.5287600000031
  0
LINE
  5
2D19
  8
AM_0
 10
345.56830667901448
 20
452.0181887988428
 30
0.0
 11
345.56830667901448
 21
454.63460879884281
 31
0.0
  0
LINE
  5
2D1A
  8
AM_0
 10
385.5683066790146
 20
453.065638798843
 30
0.0
 11
385.5683066790146
 21
468.53148879884282
 31
0.0
  0
ARC
  5
2D1B
  8
AM_0
 10
412.5683066790146
 20
485.63454879884313
 30
0.0
 40
3.0
 50
275.0
 51
0.0
  0
CIRCLE
  5
2D1C
  8
AM_0
 10
403.5683066790146
 20
461.88555879884308
 30
0.0
 40
6.0
  0
ARC
  5
2D1D
  8
AM_0
 10
398.5683066790146
 20
481.71398879884282
 30
0.0
 40
5.0
 50
272.0000000000004
 51
0.0
  0
LINE
  5
2D1E
  8
AM_0
 10
398.74280667901451
 20
476.71706879884277
 30
0.0
 11
393.28910667901459
 21
476.5266087988428
 31
0.0
  0
ARC
  5
2D1F
  8
AM_0
 10
407.4701366790145
 20
477.15795879884308
 30
0.0
 40
5.0
 50
95.00000199999856
 51
152.89619000000181
  0
LINE
  5
2D20
  8
AM_0
 10
412.8297866790146
 20
482.645968798843
 30
0.0
 11
407.03433667901459
 21
482.13894879884288
 31
0.0
  0
LINE
  5
2D21
  8
AM_0
 10
418.56830667901448
 20
451.71959879884281
 30
0.0
 11
418.56830667901448
 21
478.88555879884308
 31
0.0
  0
ARC
  5
2D22
  8
AM_0
 10
415.56830667901431
 20
478.88555879884308
 30
0.0
 40
3.0
 50
0.0
 51
75.522487999999072
  0
ARC
  5
2D23
  8
AM_0
 10
416.5683066790146
 20
482.75853879884278
 30
0.0
 40
1.0
 50
180.00001000000091
 51
255.5224900000002
  0
ARC
  5
2D24
  8
AM_0
 10
417.5683066790146
 20
508.85970879884292
 30
0.0
 40
1.0
 50
271.4999999999992
 51
0.0
  0
ARC
  5
2D25
  8
AM_0
 10
416.5683066790146
 20
506.83281879884282
 30
0.0
 40
1.0
 50
91.500001000001546
 51
180.00001000000091
  0
LINE
  5
2D26
  8
AM_0
 10
416.54212667901447
 20
507.8324887988428
 30
0.0
 11
417.59448667901432
 21
507.86004879884302
 31
0.0
  0
LINE
  5
2D27
  8
AM_0
 10
418.56830667901448
 20
521.88555879884279
 30
0.0
 11
421.5683066790146
 21
521.88555879884279
 31
0.0
  0
LINE
  5
2D28
  8
AM_0
 10
325.5683066790146
 20
596.19405879884266
 30
0.0
 11
335.56827667901462
 21
596.19405879884266
 31
0.0
  0
LINE
  5
2D29
  8
AM_0
 10
342.5683066790146
 20
619.13653879884305
 30
0.0
 11
330.39380667901452
 21
618.71135879884321
 31
0.0
  0
LINE
  5
2D2A
  8
AM_0
 10
311.48978667901451
 20
625.9932187988428
 30
0.0
 11
345.56830667901448
 21
626.88561879884276
 31
0.0
  0
ARC
  5
2D2B
  8
ｶｸﾚｾﾝ2
 10
323.5683066790146
 20
611.88555879884302
 30
0.0
 40
6.0
 50
289.47123000000062
 51
57.78807200000049
  0
ARC
  5
2D2C
  8
AM_0
 10
330.5683066790146
 20
613.71441879884298
 30
0.0
 40
5.0
 50
91.999998000000545
 51
180.00001000000091
  0
ARC
  5
2D2D
  8
AM_0
 10
323.5683066790146
 20
611.88555879884302
 30
0.0
 40
6.0
 50
57.78807200000049
 51
289.47123000000062
  0
LINE
  5
2D2E
  8
AM_0
 10
308.5683066790146
 20
622.99419879884272
 30
0.0
 11
308.5683066790146
 21
604.10164879884303
 31
0.0
  0
LINE
  5
2D2F
  8
AM_0
 10
253.5682766790145
 20
539.88555879884314
 30
0.0
 11
287.06824667901452
 21
539.88555879884314
 31
0.0
  0
LINE
  5
2D30
  8
AM_0
 10
253.5682766790145
 20
533.88555879884314
 30
0.0
 11
287.06824667901452
 21
533.88555879884314
 31
0.0
  0
LINE
  5
2D31
  8
AM_0
 10
287.19181667901461
 20
594.86290879884302
 30
0.0
 11
230.5682766790145
 21
592.88555879884279
 31
0.0
  0
LINE
  5
2D32
  8
AM_0
 10
230.5682766790145
 20
568.825498798843
 30
0.0
 11
250.56827667901439
 21
568.825498798843
 31
0.0
  0
ARC
  5
2D33
  8
AM_0
 10
253.5682766790145
 20
542.88555879884279
 30
0.0
 40
3.0
 50
180.00001000000091
 51
270.0
  0
ARC
  5
2D34
  8
AM_0
 10
246.56827667901439
 20
589.44185879884299
 30
0.0
 40
4.0
 50
0.0
 51
91.999998000000545
  0
LINE
  5
2D35
  8
AM_0
 10
230.5682766790145
 20
582.88585879884295
 30
0.0
 11
250.56827667901439
 21
582.88585879884295
 31
0.0
  0
ARC
  5
2D36
  8
AM_0
 10
287.06824667901452
 20
542.88555879884279
 30
0.0
 40
3.0
 50
270.0
 51
0.0
  0
LINE
  5
2D37
  8
AM_0
 10
299.06833667901452
 20
600.38555879884302
 30
0.0
 11
322.67301667901461
 21
601.20983879884295
 31
0.0
  0
LINE
  5
2D38
  8
AM_0
 10
299.06830667901443
 20
574.03350879884272
 30
0.0
 11
325.56827667901462
 21
574.03350879884272
 31
0.0
  0
LINE
  5
2D39
  8
AM_0
 10
299.06830667901443
 20
588.92553879884304
 30
0.0
 11
325.56827667901462
 21
588.92553879884304
 31
0.0
  0
LINE
  5
2D3A
  8
AM_0
 10
299.06830667901443
 20
588.92553879884304
 30
0.0
 11
290.06824667901452
 21
588.92553879884304
 31
0.0
  0
LINE
  5
2D3B
  8
AM_0
 10
299.06830667901443
 20
574.03350879884272
 30
0.0
 11
290.06824667901452
 21
574.03350879884272
 31
0.0
  0
ARC
  5
2D3C
  8
AM_0
 10
293.06824667901452
 20
597.38555879884302
 30
0.0
 40
3.0
 50
90.000003000000945
 51
180.00001000000091
  0
ARC
  5
2D3D
  8
AM_0
 10
287.08713667901452
 20
597.86107879884275
 30
0.0
 40
3.0
 50
272.0000000000004
 51
355.45443000000142
  0
LINE
  5
2D3E
  8
AM_0
 10
299.06830667901443
 20
600.38555879884302
 30
0.0
 11
293.06824667901452
 21
600.38555879884302
 31
0.0
  0
LINE
  5
2D3F
  8
AM_0
 10
310.79181667901452
 20
601.20388879884285
 30
0.0
 11
312.14200667901451
 21
600.84209879884304
 31
0.0
  0
ARC
  5
2D40
  8
AM_0
 10
311.5683066790146
 20
604.10164879884303
 30
0.0
 40
3.0
 50
180.00001000000091
 51
254.99999000000159
  0
ARC
  5
2D41
  8
AM_0
 10
322.56830667901448
 20
604.20800879884303
 30
0.0
 40
3.0
 50
272.0000000000004
 51
0.0
  0
ARC
  5
2D42
  8
AM_0
 10
311.5683066790146
 20
622.99419879884272
 30
0.0
 40
3.0
 50
91.500001000001546
 51
180.00001000000091
  0
POLYLINE
  5
2D43
  8
AM_0
 66
     1
 10
0.0
 20
0.0
 30
0.0
  0
VERTEX
  5
2D44
  8
AM_0
  6
CONTINUOUS
 10
343.83184667901452
 20
616.81453879884282
 30
0.0
 42
-0.021277527
  0
VERTEX
  5
2D45
  8
AM_0
  6
CONTINUOUS
 10
354.66197667901451
 20
614.75801879884295
 30
0.0
 42
-0.020622977
  0
VERTEX
  5
2D46
  8
AM_0
  6
CONTINUOUS
 10
364.78675667901462
 20
611.94097879884305
 30
0.0
 42
-0.022707911
  0
VERTEX
  5
2D47
  8
AM_0
  6
CONTINUOUS
 10
375.59366667901452
 20
607.89543879884297
 30
0.0
  0
SEQEND
  5
2D48
  8
AM_0
  0
POLYLINE
  5
2D49
  8
AM_0
 66
     1
 10
0.0
 20
0.0
 30
0.0
  0
VERTEX
  5
2D4A
  8
AM_0
  6
CONTINUOUS
 10
342.5683066790146
 20
575.16063879884257
 30
0.0
 42
0.059991292
  0
VERTEX
  5
2D4B
  8
AM_0
  6
CONTINUOUS
 10
368.15710667901448
 20
591.0928687988428
 30
0.0
 42
0.3088374
  0
VERTEX
  5
2D4C
  8
AM_0
  6
CONTINUOUS
 10
377.5682766790145
 20
607.03362879884276
 30
0.0
 42
0.25905875
  0
VERTEX
  5
2D4D
  8
AM_0
  6
CONTINUOUS
 10
343.11862667901443
 20
626.82164879884283
 30
0.0
  0
SEQEND
  5
2D4E
  8
AM_0
  0
CIRCLE
  5
2D4F
  8
AM_0
 10
403.5683066790146
 20
611.88555879884302
 30
0.0
 40
6.0
  0
LINE
  5
2D50
  8
AM_0
 10
385.5683066790146
 20
605.2396187988428
 30
0.0
 11
385.5683066790146
 21
620.705498798843
 31
0.0
  0
LINE
  5
2D51
  8
ﾁｭｳｼﾝｾﾝ1
 10
403.5683066790146
 20
622.88555879884302
 30
0.0
 11
403.5683066790146
 21
600.88555879884302
 31
0.0
  0
LINE
  5
2D52
  8
AM_0
 10
418.56830667901448
 20
622.0515087988432
 30
0.0
 11
418.56830667901448
 21
594.88555879884302
 31
0.0
  0
ARC
  5
2D53
  8
AM_0
 10
393.56830667901448
 20
605.2396187988428
 30
0.0
 40
8.0
 50
180.00001000000091
 51
267.99999999999932
  0
LINE
  5
2D54
  8
AM_0
 10
418.56830667901448
 20
551.88555879884314
 30
0.0
 11
421.5683066790146
 21
551.88555879884314
 31
0.0
  0
ARC
  5
2D55
  8
AM_0
 10
431.56827667901428
 20
536.88555879884314
 30
0.0
 40
3.9999962
 50
90.000003000000945
 51
270.0
  0
LINE
  5
2D56
  8
AM_0
 10
431.56827667901428
 20
540.88555879884314
 30
0.0
 11
431.56827667901428
 21
532.88555879884314
 31
0.0
  0
ARC
  5
2D57
  8
AM_0
 10
417.5683066790146
 20
564.91140879884279
 30
0.0
 40
1.0
 50
0.0
 51
88.499997000000647
  0
ARC
  5
2D58
  8
AM_0
 10
416.5683066790146
 20
566.93828879884302
 30
0.0
 40
1.0
 50
180.00001000000091
 51
268.50000000000063
  0
LINE
  5
2D59
  8
AM_0
 10
416.54212667901447
 20
565.93862879884296
 30
0.0
 11
417.59445667901429
 21
565.91106879884285
 31
0.0
  0
ARC
  5
2D5A
  8
AM_0
 10
412.5683066790146
 20
588.13656879884275
 30
0.0
 40
3.0
 50
0.0
 51
85.000004000000885
  0
ARC
  5
2D5B
  8
AM_0
 10
407.4701366790145
 20
596.61315879884285
 30
0.0
 40
5.0
 50
207.10380999999799
 51
265.00001000000032
  0
ARC
  5
2D5C
  8
AM_0
 10
398.5683066790146
 20
592.057128798843
 30
0.0
 40
5.0
 50
0.0
 51
87.999999999999503
  0
LINE
  5
2D5D
  8
AM_0
 10
412.82974667901448
 20
591.12514879884304
 30
0.0
 11
407.03430667901461
 21
591.63216879884271
 31
0.0
  0
LINE
  5
2D5E
  8
ﾁｭｳｼﾝｾﾝ1
 10
392.5683066790146
 20
611.88555879884302
 30
0.0
 11
414.56830667901443
 21
611.88555879884302
 31
0.0
  0
LINE
  5
2D5F
  8
AM_0
 10
398.74277667901453
 20
597.05407879884285
 30
0.0
 11
393.28910667901459
 21
597.24450879884319
 31
0.0
  0
ARC
  5
2D60
  8
AM_0
 10
415.56830667901431
 20
594.88555879884302
 30
0.0
 40
3.0
 50
284.47750999999971
 51
0.0
  0
ARC
  5
2D61
  8
AM_0
 10
416.5683066790146
 20
591.01256879884295
 30
0.0
 40
1.0
 50
104.4775099999998
 51
180.00001000000091
  0
ARC
  5
2D62
  8
AM_0
 10
390.5683066790146
 20
620.705498798843
 30
0.0
 40
5.0
 50
88.499997000000647
 51
180.00001000000091
  0
LINE
  5
2D63
  8
AM_0
 10
345.5682766790145
 20
626.88555879884302
 30
0.0
 11
415.64679667901441
 21
625.05047879884285
 31
0.0
  0
ARC
  5
2D64
  8
AM_0
 10
340.5683066790146
 20
621.75292879884285
 30
0.0
 40
5.0
 50
0.0
 51
91.500001000001546
  0
LINE
  5
2D65
  8
AM_0
 10
342.5683066790146
 20
619.13646879884277
 30
0.0
 11
345.56830667901448
 21
619.13646879884277
 31
0.0
  0
LINE
  5
2D66
  8
AM_0
 10
341.56830667901443
 20
625.75292879884285
 30
0.0
 11
341.56830667901443
 21
622.4097887988429
 31
0.0
  0
ARC
  5
2D67
  8
AM_0
 10
342.5683066790146
 20
622.4097887988429
 30
0.0
 40
1.0
 50
180.00001000000091
 51
250.52876999999941
  0
ARC
  5
2D68
  8
AM_0
 10
340.5683066790146
 20
616.75292879884285
 30
0.0
 40
5.0
 50
28.471238999999571
 51
70.528778999998195
  0
ARC
  5
2D69
  8
AM_0
 10
340.5683066790146
 20
625.75292879884285
 30
0.0
 40
1.0
 50
0.0
 51
90.000003000000945
  0
LINE
  5
2D6A
  8
AM_0
 10
345.56830667901448
 20
621.75292879884285
 30
0.0
 11
345.56830667901448
 21
619.13646879884277
 31
0.0
  0
ARC
  5
2D6B
  8
AM_0
 10
415.56830667901431
 20
622.0515087988432
 30
0.0
 40
3.0
 50
0.0
 51
88.499997000000647
  0
LINE
  5
2D6C
  8
AM_0
 10
463.56827667901462
 20
550.88555879884314
 30
0.0
 11
463.56827667901462
 21
522.88555879884314
 31
0.0
  0
LINE
  5
2D6D
  8
ﾁｭｳｼﾝｾﾝ1
 10
392.5683066790146
 20
461.88555879884308
 30
0.0
 11
414.56830667901443
 21
461.88555879884308
 31
0.0
  0
LINE
  5
2D6E
  8
ﾁｭｳｼﾝｾﾝ1
 10
403.5683066790146
 20
472.88555879884302
 30
0.0
 11
403.5683066790146
 21
450.88555879884302
 31
0.0
  0
LINE
  5
2D6F
  8
ﾁｭｳｼﾝｾﾝ1
 10
312.56830667901443
 20
461.88555879884308
 30
0.0
 11
334.5683066790146
 21
461.88555879884308
 31
0.0
  0
LINE
  5
2D70
  8
ﾁｭｳｼﾝｾﾝ1
 10
323.5683066790146
 20
472.88555879884302
 30
0.0
 11
323.5683066790146
 21
450.88555879884302
 31
0.0
  0
LINE
  5
2D71
  8
ﾁｭｳｼﾝｾﾝ1
 10
312.56830667901443
 20
611.88555879884302
 30
0.0
 11
334.5683066790146
 21
611.88555879884302
 31
0.0
  0
LINE
  5
2D72
  8
ﾁｭｳｼﾝｾﾝ1
 10
323.5683066790146
 20
622.88555879884302
 30
0.0
 11
323.5683066790146
 21
600.88555879884302
 31
0.0
  0
ARC
  5
2D73
  8
AM_0
 10
215.5682766790145
 20
484.81449098697721
 30
0.0
 40
5.0
 50
0.0
 51
45.0
1001
GENIUS_GENODEF_13
1002
{
1000
HIER
1070
     0
1002
}
1002
{
1000
MANEDIT
1070
     0
1002
}
1002
{
1000
NOSEL
1070
     0
1002
}
1002
{
1000
BEHIND
1070
     0
1002
}
1002
{
1000
OTHER
1070
     0
1002
}
1002
{
1000
REACTOR
1002
}
1001
GENIUS_GENOBJ-N-FIL_13
1002
{
1000
OWNER
1000
GEN
1002
}
  0
LINE
  5
2D74
  8
AM_0
 10
219.1038105849473
 20
488.35002489291008
 30
0.0
 11
198.497208867149
 21
508.95662661070833
 31
0.0
  0
LINE
  5
2D75
  8
AM_0
 10
220.5682766790145
 20
592.12418015287756
 30
0.0
 11
220.56827667901541
 21
481.64693744480797
 31
0.0
  0
LINE
  5
2D76
  8
AM_0
 10
221.53929348573121
 20
480.64735754579669
 30
0.0
 11
230.5682766790145
 21
480.38555879884291
 31
0.0
  0
ARC
  5
2D77
  8
AM_0
 10
221.56827667901439
 20
481.64693744480797
 30
0.0
 40
1.0
 50
180.0
 51
268.33915276702578
1001
GENIUS_GENOBJ-N-FIL_13
1002
{
1000
OWNER
1000
GEN
1002
}
1001
GENIUS_GENODEF_13
1002
{
1000
HIER
1070
     0
1002
}
1002
{
1000
MANEDIT
1070
     0
1002
}
1002
{
1000
NOSEL
1070
     0
1002
}
1002
{
1000
BEHIND
1070
     0
1002
}
1002
{
1000
OTHER
1070
     0
1002
}
1002
{
1000
REACTOR
1002
}
  0
LINE
  5
2D78
  8
AM_0
 10
219.1038105849473
 20
585.42109270477556
 30
0.0
 11
198.497208867149
 21
564.81449098697749
 31
0.0
  0
LINE
  5
2D79
  8
AM_0
 10
171.06827667901439
 20
544.38555879884314
 30
0.0
 11
171.06827667901439
 21
529.38555116944815
 31
0.0
  0
LINE
  5
2D7A
  8
AM_0
 10
173.06827667901439
 20
551.05713167409681
 30
0.0
 11
173.06827667901439
 21
522.71398592358912
 31
0.0
  0
LINE
  5
2D7B
  8
AM_0
 10
146.06827667901439
 20
542.88555879884279
 30
0.0
 11
146.06827667901439
 21
530.88555879884314
 31
0.0
  0
LINE
  5
2D7C
  8
AM_0
 10
195.5682766790145
 20
561.88555879884245
 30
0.0
 11
195.5682766790145
 21
511.88555879884279
 31
0.0
  0
LINE
  5
2D7D
  8
AM_0
 10
175.0682766790143
 20
513.88555879884279
 30
0.0
 11
175.0682766790145
 21
559.88555879884314
 31
0.0
  0
LINE
  5
2D7E
  8
AM_0
 10
146.06827667901439
 20
530.88555879884314
 30
0.0
 11
171.06827667901439
 21
530.88555879884314
 31
0.0
  0
ARC
  5
2D7F
  8
AM_0
 10
191.42614105528341
 20
501.88555879884279
 30
0.0
 40
10.0
 50
45.0
 51
90.0
1001
GENIUS_GENOBJ-N-FIL_13
1002
{
1000
OWNER
1000
GEN
1002
}
1001
GENIUS_GENODEF_13
1002
{
1000
HIER
1070
     0
1002
}
1002
{
1000
MANEDIT
1070
     0
1002
}
1002
{
1000
NOSEL
1070
     0
1002
}
1002
{
1000
BEHIND
1070
     0
1002
}
1002
{
1000
OTHER
1070
     0
1002
}
1002
{
1000
REACTOR
1002
}
  0
LINE
  5
2D80
  8
AM_0
 10
177.0682766790145
 20
511.88555879884279
 30
0.0
 11
191.42614105528341
 21
511.88555879884279
 31
0.0
  0
LINE
  5
2D81
  8
AM_0
 10
173.65406311664151
 20
521.29977236121601
 30
0.0
 11
174.48249024138761
 21
520.47134523646992
 31
0.0
  0
ARC
  5
2D82
  8
AM_0
 10
177.0682766790145
 20
513.88555879884279
 30
0.0
 40
2.0
 50
180.0
 51
270.0
1001
GENIUS_GENODEF_13
1002
{
1000
HIER
1070
     0
1002
}
1002
{
1000
MANEDIT
1070
     0
1002
}
1002
{
1000
NOSEL
1070
     0
1002
}
1002
{
1000
BEHIND
1070
     0
1002
}
1002
{
1000
OTHER
1070
     0
1002
}
1002
{
1000
REACTOR
1002
}
1001
GENIUS_GENOBJ-N-FIL_13
1002
{
1000
OWNER
1000
GEN
1002
}
  0
ARC
  5
2D83
  8
AM_0
 10
173.06827667901439
 20
519.05713167409669
 30
0.0
 40
2.0
 50
0.0
 51
45.0
1001
GENIUS_GENODEF_13
1002
{
1000
HIER
1070
     0
1002
}
1002
{
1000
MANEDIT
1070
     0
1002
}
1002
{
1000
NOSEL
1070
     0
1002
}
1002
{
1000
BEHIND
1070
     0
1002
}
1002
{
1000
OTHER
1070
     0
1002
}
1002
{
1000
REACTOR
1002
}
1001
GENIUS_GENOBJ-N-FIL_13
1002
{
1000
OWNER
1000
GEN
1002
}
  0
LINE
  5
2D84
  8
AM_0
 10
171.06827667901439
 20
529.38555116944815
 30
0.0
 11
173.06827667901439
 21
529.38555116944815
 31
0.0
  0
ARC
  5
2D85
  8
AM_0
 10
175.0682766790145
 20
522.71398592358912
 30
0.0
 40
2.0
 50
180.0
 51
225.0
1001
GENIUS_GENODEF_13
1002
{
1000
HIER
1070
     0
1002
}
1002
{
1000
MANEDIT
1070
     0
1002
}
1002
{
1000
NOSEL
1070
     0
1002
}
1002
{
1000
BEHIND
1070
     0
1002
}
1002
{
1000
OTHER
1070
     0
1002
}
1002
{
1000
REACTOR
1002
}
1001
GENIUS_GENOBJ-N-FIL_13
1002
{
1000
OWNER
1000
GEN
1002
}
  0
LINE
  5
2D86
  8
AM_0
 10
146.06827667901439
 20
542.88555879884279
 30
0.0
 11
171.06827667901439
 21
542.88555879884279
 31
0.0
  0
LINE
  5
2D87
  8
AM_0
 10
146.06827667901439
 20
538.88555879884279
 30
0.0
 11
164.0682766790145
 21
538.88555879884279
 31
0.0
  0
LINE
  5
2D88
  8
AM_0
 10
146.06827667901439
 20
534.88555879884314
 30
0.0
 11
164.0682766790145
 21
534.88555879884314
 31
0.0
  0
ARC
  5
2D89
  8
AM_0
 10
164.0682766790145
 20
536.88555879884314
 30
0.0
 40
1.9999999999998861
 50
270.0
 51
90.0
  0
LINE
  5
2D8A
  8
AM_0
 10
164.0682766790145
 20
538.88555879884279
 30
0.0
 11
164.0682766790145
 21
534.88555879884314
 31
0.0
  0
ARC
  5
2D8B
  8
AM_0
 10
173.06827667901439
 20
554.71398592358889
 30
0.0
 40
2.0
 50
315.0
 51
0.0
1001
GENIUS_GENODEF_13
1002
{
1000
HIER
1070
     0
1002
}
1002
{
1000
MANEDIT
1070
     0
1002
}
1002
{
1000
NOSEL
1070
     0
1002
}
1002
{
1000
BEHIND
1070
     0
1002
}
1002
{
1000
OTHER
1070
     0
1002
}
1002
{
1000
REACTOR
1002
}
1001
GENIUS_GENOBJ-N-FIL_13
1002
{
1000
OWNER
1000
GEN
1002
}
  0
LINE
  5
2D8C
  8
AM_0
 10
171.06827667901439
 20
544.38555879884314
 30
0.0
 11
173.06827667901439
 21
544.38555879884314
 31
0.0
  0
ARC
  5
2D8D
  8
AM_0
 10
175.0682766790145
 20
551.05713167409681
 30
0.0
 40
2.0
 50
135.0
 51
180.0
1001
GENIUS_GENODEF_13
1002
{
1000
HIER
1070
     0
1002
}
1002
{
1000
MANEDIT
1070
     0
1002
}
1002
{
1000
NOSEL
1070
     0
1002
}
1002
{
1000
BEHIND
1070
     0
1002
}
1002
{
1000
OTHER
1070
     0
1002
}
1002
{
1000
REACTOR
1002
}
1001
GENIUS_GENOBJ-N-FIL_13
1002
{
1000
OWNER
1000
GEN
1002
}
  0
LINE
  5
2D8E
  8
AM_0
 10
173.65406311664151
 20
552.47134523646992
 30
0.0
 11
174.48249024138761
 21
553.2997723612159
 31
0.0
  0
LINE
  5
2D8F
  8
AM_0
 10
177.0682766790145
 20
561.88555879884314
 30
0.0
 11
191.42614105528341
 21
561.88555879884314
 31
0.0
  0
ARC
  5
2D90
  8
AM_0
 10
177.0682766790145
 20
559.88555879884314
 30
0.0
 40
2.0
 50
90.0
 51
180.0
1001
GENIUS_GENODEF_13
1002
{
1000
HIER
1070
     0
1002
}
1002
{
1000
MANEDIT
1070
     0
1002
}
1002
{
1000
NOSEL
1070
     0
1002
}
1002
{
1000
BEHIND
1070
     0
1002
}
1002
{
1000
OTHER
1070
     0
1002
}
1002
{
1000
REACTOR
1002
}
1001
GENIUS_GENOBJ-N-FIL_13
1002
{
1000
OWNER
1000
GEN
1002
}
  0
ARC
  5
2D91
  8
AM_0
 10
191.42614105528341
 20
571.88555879884279
 30
0.0
 40
10.0
 50
270.0
 51
315.0
1001
GENIUS_GENODEF_13
1002
{
1000
HIER
1070
     0
1002
}
1002
{
1000
MANEDIT
1070
     0
1002
}
1002
{
1000
NOSEL
1070
     0
1002
}
1002
{
1000
BEHIND
1070
     0
1002
}
1002
{
1000
OTHER
1070
     0
1002
}
1002
{
1000
REACTOR
1002
}
1001
GENIUS_GENOBJ-N-FIL_13
1002
{
1000
OWNER
1000
GEN
1002
}
  0
LINE
  5
2D92
  8
AM_0
 10
230.5682766790145
 20
490.8855567988428
 30
0.0
 11
220.5682766790145
 21
490.8855567988428
 31
0.0
  0
LINE
  5
2D93
  8
AM_0
 10
230.5682766790145
 20
504.94811979884281
 30
0.0
 11
220.5682766790145
 21
504.94811979884281
 31
0.0
  0
LINE
  5
2D94
  8
AM_0
 10
230.5682766790145
 20
568.82299779884295
 30
0.0
 11
220.5682766790145
 21
568.82299779884295
 31
0.0
  0
ARC
  5
2D95
  8
AM_0
 10
215.5682766790145
 20
588.95662661070844
 30
0.0
 40
5.0
 50
315.0
 51
0.0
1001
GENIUS_GENODEF_13
1002
{
1000
HIER
1070
     0
1002
}
1002
{
1000
MANEDIT
1070
     0
1002
}
1002
{
1000
NOSEL
1070
     0
1002
}
1002
{
1000
BEHIND
1070
     0
1002
}
1002
{
1000
OTHER
1070
     0
1002
}
1002
{
1000
REACTOR
1002
}
1001
GENIUS_GENOBJ-N-FIL_13
1002
{
1000
OWNER
1000
GEN
1002
}
  0
LINE
  5
2D96
  8
AM_0
 10
230.5682766790145
 20
582.8855637988429
 30
0.0
 11
220.5682766790145
 21
582.8855637988429
 31
0.0
  0
LINE
  5
2D97
  8
AM_0
 10
221.53929348573121
 20
593.12376005188889
 30
0.0
 11
230.5682766790145
 21
593.38555879884302
 31
0.0
  0
ARC
  5
2D98
  8
AM_0
 10
221.56827667901439
 20
592.12418015287756
 30
0.0
 40
1.0
 50
91.660847232974191
 51
180.0
1001
GENIUS_GENOBJ-N-FIL_13
1002
{
1000
OWNER
1000
GEN
1002
}
1001
GENIUS_GENODEF_13
1002
{
1000
HIER
1070
     0
1002
}
1002
{
1000
MANEDIT
1070
     0
1002
}
1002
{
1000
NOSEL
1070
     0
1002
}
1002
{
1000
BEHIND
1070
     0
1002
}
1002
{
1000
OTHER
1070
     0
1002
}
1002
{
1000
REACTOR
1002
}
  0
TEXT
  5
2F77
  8
AM_0
 10
550.07724758995755
 20
525.07240782859174
 30
0.0
 40
10.0
  1
VX01-240G~VX01-600G
  0
ENDSEC
  0
EOF
