  0
SECTION
  2
HEADER
  9
$ACADVER
  1
AC1009
  9
$INSBASE
 10
0.0
 20
0.0
 30
0.0
  9
$EXTMIN
 10
38.653383379864181
 20
171.87478036609329
 30
-0.0000000000112498
  9
$EXTMAX
 10
797.26506234654789
 20
731.22429144102944
 30
0.0000000000002956
  9
$LIMMIN
 10
0.0
 20
0.0
  9
$LIMMAX
 10
853.5
 20
555.00000000000011
  9
$ORTHOMODE
 70
     0
  9
$REGENMODE
 70
     1
  9
$FILLMODE
 70
     1
  9
$QTEXTMODE
 70
     0
  9
$MIRRTEXT
 70
     1
  9
$DRAGMODE
 70
     2
  9
$LTSCALE
 40
3.0
  9
$OSMODE
 70
   551
  9
$ATTMODE
 70
     1
  9
$TEXTSIZE
 40
2.5
  9
$TRACEWID
 40
1.0
  9
$TEXTSTYLE
  7
STANDARD
  9
$CLAYER
  8
AM_0
  9
$CELTYPE
  6
BYLAYER
  9
$CECOLOR
 62
   256
  9
$DIMSCALE
 40
1.0
  9
$DIMASZ
 40
2.5
  9
$DIMEXO
 40
1.0
  9
$DIMDLI
 40
8.0
  9
$DIMRND
 40
0.0
  9
$DIMDLE
 40
0.0
  9
$DIMEXE
 40
0.6
  9
$DIMTP
 40
0.1
  9
$DIMTM
 40
0.1
  9
$DIMTXT
 40
2.5
  9
$DIMCEN
 40
0.0
  9
$DIMTSZ
 40
0.0
  9
$DIMTOL
 70
     0
  9
$DIMLIM
 70
     0
  9
$DIMTIH
 70
     0
  9
$DIMTOH
 70
     0
  9
$DIMSE1
 70
     0
  9
$DIMSE2
 70
     0
  9
$DIMTAD
 70
     1
  9
$DIMZIN
 70
     8
  9
$DIMBLK
  1

  9
$DIMASO
 70
     1
  9
$DIMSHO
 70
     1
  9
$DIMPOST
  1

  9
$DIMAPOST
  1
"
  9
$DIMALT
 70
     0
  9
$DIMALTD
 70
     2
  9
$DIMALTF
 40
0.0393701
  9
$DIMLFAC
 40
1.0
  9
$DIMTOFL
 70
     1
  9
$DIMTVP
 40
0.0
  9
$DIMTIX
 70
     0
  9
$DIMSOXD
 70
     0
  9
$DIMSAH
 70
     0
  9
$DIMBLK1
  1

  9
$DIMBLK2
  1

  9
$DIMSTYLE
  2
AM_ISO
  9
$DIMCLRD
 70
   256
  9
$DIMCLRE
 70
   256
  9
$DIMCLRT
 70
     4
  9
$DIMTFAC
 40
0.71
  9
$DIMGAP
 40
0.8
  9
$LUNITS
 70
     2
  9
$LUPREC
 70
     2
  9
$SKETCHINC
 40
1.0
  9
$FILLETRAD
 40
15.0
  9
$AUNITS
 70
     0
  9
$AUPREC
 70
     0
  9
$MENU
  1
.
  9
$ELEVATION
 40
0.0
  9
$PELEVATION
 40
0.0
  9
$THICKNESS
 40
0.0
  9
$LIMCHECK
 70
     0
  9
$BLIPMODE
 70
     0
  9
$CHAMFERA
 40
6.0
  9
$CHAMFERB
 40
3.0
  9
$SKPOLY
 70
     0
  9
$TDCREATE
 40
2452065.666821829
  9
$TDUPDATE
 40
2458541.4089564588
  9
$TDINDWG
 40
0.1324888889
  9
$TDUSRTIMER
 40
0.1324884954
  9
$USRTIMER
 70
     1
  9
$ANGBASE
 50
0.0
  9
$ANGDIR
 70
     0
  9
$PDMODE
 70
     0
  9
$PDSIZE
 40
0.0
  9
$PLINEWID
 40
0.0
  9
$COORDS
 70
     1
  9
$SPLFRAME
 70
     0
  9
$SPLINETYPE
 70
     6
  9
$SPLINESEGS
 70
     8
  9
$ATTDIA
 70
     1
  9
$ATTREQ
 70
     1
  9
$HANDLING
 70
     1
  9
$HANDSEED
  5
31C7
  9
$SURFTAB1
 70
     6
  9
$SURFTAB2
 70
     6
  9
$SURFTYPE
 70
     6
  9
$SURFU
 70
     6
  9
$SURFV
 70
     6
  9
$UCSNAME
  2

  9
$UCSORG
 10
0.0
 20
0.0
 30
0.0
  9
$UCSXDIR
 10
1.0
 20
0.0
 30
0.0
  9
$UCSYDIR
 10
0.0
 20
1.0
 30
0.0
  9
$PUCSNAME
  2

  9
$PUCSORG
 10
0.0
 20
0.0
 30
0.0
  9
$PUCSXDIR
 10
1.0
 20
0.0
 30
0.0
  9
$PUCSYDIR
 10
0.0
 20
1.0
 30
0.0
  9
$USERI1
 70
     0
  9
$USERI2
 70
     0
  9
$USERI3
 70
     0
  9
$USERI4
 70
     0
  9
$USERI5
 70
     0
  9
$USERR1
 40
0.0
  9
$USERR2
 40
0.0
  9
$USERR3
 40
0.0
  9
$USERR4
 40
0.0
  9
$USERR5
 40
0.0
  9
$WORLDVIEW
 70
     1
  9
$SHADEDGE
 70
     3
  9
$SHADEDIF
 70
    70
  9
$TILEMODE
 70
     1
  9
$MAXACTVP
 70
    64
  9
$PLIMCHECK
 70
     0
  9
$PEXTMIN
 10
1.0000000000000000E+020
 20
1.0000000000000000E+020
 30
1.0000000000000000E+020
  9
$PEXTMAX
 10
-1.0000000000000000E+020
 20
-1.0000000000000000E+020
 30
-1.0000000000000000E+020
  9
$PLIMMIN
 10
0.0
 20
0.0
  9
$PLIMMAX
 10
420.0
 20
297.0
  9
$UNITMODE
 70
     0
  9
$VISRETAIN
 70
     1
  9
$PLINEGEN
 70
     0
  9
$PSLTSCALE
 70
     1
  0
ENDSEC
  0
SECTION
  2
TABLES
  0
TABLE
  2
VPORT
 70
     1
  0
VPORT
  2
*ACTIVE
 70
     0
 10
0.0
 20
0.0
 11
1.0
 21
1.0
 12
417.95922286320609
 22
451.54953590356138
 13
0.0
 23
0.0
 14
7.5
 24
7.5
 15
30.0
 25
30.0
 16
0.0
 26
0.0
 36
1.0
 17
0.0
 27
0.0
 37
0.0
 40
563.18943906858556
 41
1.7571592210767459
 42
50.0
 43
0.0
 44
0.0
 50
0.0
 51
0.0
 71
     0
 72
   100
 73
     1
 74
     3
 75
     0
 76
     0
 77
     0
 78
     0
  0
ENDTAB
  0
TABLE
  2
LTYPE
 70
    26
  0
LTYPE
  2
CONTINUOUS
 70
     0
  3
Solid line
 72
    65
 73
     0
 40
0.0
  0
LTYPE
  2
AM_ISO02W050
 70
     0
  3
__ __ __ __ __ __ __ __ __ __ __ __ __ __ __
 72
    65
 73
     2
 40
7.5
 49
6.0
 49
-1.5
  0
LTYPE
  2
AM_ISO08W050
 70
     0
  3
____ . ____ . ____ . ____ . ____ . ____ . ____
 72
    65
 73
     4
 40
18.0
 49
12.0
 49
-1.5
 49
3.0
 49
-1.5
  0
LTYPE
  2
AM_ISO09W050
 70
     0
  3
_____ . . _____ . . _____ . . ____ .. ____
 72
    65
 73
     6
 40
22.5
 49
12.0
 49
-1.5
 49
3.0
 49
-1.5
 49
3.0
 49
-1.5
  0
LTYPE
  2
AMCONSTR
 70
     0
  3
_______________________
 72
    65
 73
     2
 40
9999.0
 49
9999.0
 49
0.0
  0
LTYPE
  2
AM_ISO08W050X2
 70
     0
  3
__ . __ . __ . __ . __ . __
 72
    65
 73
     4
 40
9.0
 49
6.0
 49
-0.75
 49
1.5
 49
-0.75
  0
LTYPE
  2
AM_ISO02W050X2
 70
     0
  3
 _ _ _ _ _ _ _ _ _ _ _ _
 72
    65
 73
     2
 40
3.75
 49
3.0
 49
-0.75
  0
LTYPE
  2
AMZIGZAG
 70
     0
  3
/\/-/\/-/\/-/\/-/\/-/\/
 72
    65
 73
     2
 40
11.000099999999991
 49
0.0001
 49
-11.0
  0
LTYPE
  2
ACISOWELD
 70
     0
  3
_ _ _ _ _
 72
    65
 73
     2
 40
2.0
 49
2.0
 49
-1.0
  0
LTYPE
  2
ACISOTGB
 70
     0
  3
__ . . __ . .
 72
    65
 73
     6
 40
9.0
 49
4.0
 49
-1.0
 49
1.0
 49
-1.0
 49
1.0
 49
-1.0
  0
LTYPE
  2
ACISOTGL
 70
     0
  3
_ _ _ _ _
 72
    65
 73
     2
 40
3.0
 49
2.0
 49
-1.0
  0
LTYPE
  2
CENTER
 70
     0
  3
__ . __
 72
    65
 73
     4
 40
7.0
 49
4.0
 49
-1.0
 49
1.0
 49
-1.0
  0
LTYPE
  2
PHANTOM2
 70
     0
  3
Phantom (.5x) ___ _ _ ___ _ _ ___ _ _ ___ _ _
 72
    65
 73
     6
 40
31.75
 49
15.875
 49
-3.174999999999998
 49
3.174999999999998
 49
-3.174999999999998
 49
3.174999999999998
 49
-3.174999999999998
  0
LTYPE
  2
ACANSTGBM
 70
     0
  3
__ . . __ . .
 72
    65
 73
     6
 40
9.0
 49
4.0
 49
-1.0
 49
1.0
 49
-1.0
 49
1.0
 49
-1.0
  0
LTYPE
  2
ACANSTGLM
 70
     0
  3
_ _ _ _ _
 72
    65
 73
     2
 40
3.0
 49
2.0
 49
-1.0
  0
LTYPE
  2
GEN3B
 70
     0
  3
 - - - - -
 72
    65
 73
     2
 40
1.0
 49
0.5
 49
-0.5
  0
LTYPE
  2
GEN7A
 70
     0
  3
__ . __ . __
 72
    65
 73
     4
 40
7.375
 49
4.75
 49
-0.875
 49
0.875
 49
-0.875
  0
LTYPE
  2
ACJISTGB
 70
     0
  3
__ . . __ . .
 72
    65
 73
     6
 40
9.0
 49
4.0
 49
-1.0
 49
1.0
 49
-1.0
 49
1.0
 49
-1.0
  0
LTYPE
  2
ACJISTGL
 70
     0
  3
_ _ _ _ _
 72
    65
 73
     2
 40
3.0
 49
2.0
 49
-1.0
  0
LTYPE
  2
HIDDEN
 70
     0
  3
Hidden __ __ __ __ __ __ __ __ __ __ __ __ __ _
 72
    65
 73
     2
 40
0.375
 49
0.25
 49
-0.125
  0
LTYPE
  2
CENTER2
 70
     0
  3
Center (.5x) ___ _ ___ _ ___ _ ___ _ ___ _ ___
 72
    65
 73
     4
 40
1.125
 49
0.75
 49
-0.125
 49
0.125
 49
-0.125
  0
LTYPE
  2
HIDDEN2
 70
     0
  3
Hidden (.5x) _ _ _ _ _ _ _ _ _ _ _ _ _ _ _ _ _
 72
    65
 73
     2
 40
0.1875
 49
0.125
 49
-0.0625
  0
LTYPE
  2
AMZIGZAG2
 70
     0
  3
/\/-/\/-/\/-/\/-/\/-/\/
 72
    65
 73
     2
 40
0.4401
 49
0.0001
 49
-0.4400000000000002
  0
LTYPE
  2
ACANSTGB
 70
     0
  3
__ . . __ . .
 72
    65
 73
     6
 40
0.35433070866
 49
0.15748031496
 49
-0.03937007874
 49
0.03937007874
 49
-0.03937007874
 49
0.03937007874
 49
-0.03937007874
  0
LTYPE
  2
ACANSTGL
 70
     0
  3
_ _ _ _ _
 72
    65
 73
     2
 40
0.11811023622
 49
0.07874015748
 49
-0.03937007874
  0
ENDTAB
  0
TABLE
  2
LAYER
 70
     5
  0
LAYER
  2
0
 70
     0
 62
     7
  6
CONTINUOUS
  0
LAYER
  2
AM_0
 70
     0
 62
     7
  6
CONTINUOUS
  0
LAYER
  2
DEFPOINTS
 70
     0
 62
     7
  6
CONTINUOUS
  0
LAYER
  2
ｶｸﾚｾﾝ2
 70
     0
 62
     3
  6
GEN3B
  0
LAYER
  2
ﾁｭｳｼﾝｾﾝ1
 70
     0
 62
     1
  6
GEN7A
  0
ENDTAB
  0
TABLE
  2
STYLE
 70
     9
  0
STYLE
  2
STANDARD
 70
     0
 40
0.0
 41
0.8299999999999999
 50
0.0
 71
     0
 42
2.5
  3
txt.shx
  4
bigfont.shx
  0
STYLE
  2
ANNOTATIVE
 70
     0
 40
0.0
 41
1.0
 50
0.0
 71
     0
 42
0.2
  3
txt
  4

  0
STYLE
  2

 70
     1
 40
0.0
 41
1.0
 50
0.0
 71
     0
 42
2.5
  3
ltypeshp.shx
  4

  0
STYLE
  2
ACISOTS
 70
     0
 40
1.0
 41
1.0
 50
0.0
 71
     0
 42
2.5
  3
isocp.shx
  4
extfont.shx
  0
STYLE
  2
ACISOGDT
 70
     0
 40
0.0
 41
1.0
 50
0.0
 71
     0
 42
2.5
  3
amgdt.shx
  4

  0
STYLE
  2
ACANSTS
 70
     0
 40
1.0
 41
1.0
 50
0.0
 71
     0
 42
2.5
  3
romans.shx
  4
bigfont.shx
  0
STYLE
  2
ACANSGDT
 70
     0
 40
0.0
 41
1.0
 50
0.0
 71
     0
 42
2.5
  3
amgdt.shx
  4

  0
STYLE
  2
ACJISTS
 70
     0
 40
1.0
 41
1.0
 50
0.0
 71
     0
 42
2.5
  3
isocp.shx
  4
bigfont.shx
  0
STYLE
  2
ACJISGDT
 70
     0
 40
0.0
 41
1.0
 50
0.0
 71
     0
 42
2.5
  3
amgdt.shx
  4

  0
ENDTAB
  0
TABLE
  2
VIEW
 70
     6
  0
VIEW
  2
AM_VIEW1
 70
     0
 40
277.49999999999989
 10
249.64779005524849
 20
416.24999999999989
 41
499.2955801104971
 11
0.0
 21
0.0
 31
1.0
 12
0.0
 22
0.0
 32
0.0
 42
50.0
 43
0.0
 44
0.0
 50
0.0
 71
     0
  0
VIEW
  2
AM_VIEW2
 70
     0
 40
277.49999999999989
 10
603.85220994475117
 20
416.24999999999989
 41
499.2955801104971
 11
0.0
 21
0.0
 31
1.0
 12
0.0
 22
0.0
 32
0.0
 42
50.0
 43
0.0
 44
0.0
 50
0.0
 71
     0
  0
VIEW
  2
AM_VIEW3
 70
     0
 40
277.49999999999989
 10
249.64779005524849
 20
138.7499999999998
 41
499.2955801104971
 11
0.0
 21
0.0
 31
1.0
 12
0.0
 22
0.0
 32
0.0
 42
50.0
 43
0.0
 44
0.0
 50
0.0
 71
     0
  0
VIEW
  2
AM_VIEW4
 70
     0
 40
277.49999999999989
 10
603.85220994475117
 20
138.7499999999998
 41
499.2955801104971
 11
0.0
 21
0.0
 31
1.0
 12
0.0
 22
0.0
 32
0.0
 42
50.0
 43
0.0
 44
0.0
 50
0.0
 71
     0
  0
VIEW
  2
AM_VIEW5
 70
     0
 40
277.5
 10
426.75
 20
277.49999999999989
 41
499.2955801104971
 11
0.0
 21
0.0
 31
1.0
 12
0.0
 22
0.0
 32
0.0
 42
50.0
 43
0.0
 44
0.0
 50
0.0
 71
     0
  0
VIEW
  2
AM_VIEW6
 70
     0
 40
554.99445000000014
 10
426.75
 20
277.49999999999989
 41
998.5811743093924
 11
0.0
 21
0.0
 31
1.0
 12
0.0
 22
0.0
 32
0.0
 42
50.0
 43
0.0
 44
0.0
 50
0.0
 71
     0
  0
ENDTAB
  0
TABLE
  2
UCS
 70
     0
  0
ENDTAB
  0
TABLE
  2
APPID
 70
    95
  0
APPID
  2
ACAD
 70
     0
  0
APPID
  2
ACADANNOTATIVE
 70
     0
  0
APPID
  2
MCAD_NO_VIS
 70
     0
  0
APPID
  2
ACAD_TEMP_GRAPHIC
 70
     0
  0
APPID
  2
ACATTRIBSERVICES
 70
     0
  0
APPID
  2
GENIUS_GENREC_14
 70
     0
  0
APPID
  2
GENIUS_GENOBJ-N-REC_13
 70
     0
  0
APPID
  2
GENIUS_GENODEF_13
 70
     0
  0
APPID
  2
GENIUS_GENOLIS_13
 70
     0
  0
APPID
  2
GENIUS_GENOBJ-N-TIT_13
 70
     0
  0
APPID
  2
GENIUS_GENOENT_13
 70
     0
  0
APPID
  2
GENIUS_GENTITLE_13
 70
     0
  0
APPID
  2
GENIUS_GENOREF_13
 70
     0
  0
APPID
  2
GENIUS_GENSCREG_15
 70
     0
  0
APPID
  2
GENIUS_GENOBJ-N-SDF_13
 70
     0
  0
APPID
  2
GENIUS_GENFIL_13
 70
     0
  0
APPID
  2
GENIUS_GENOBJ-N-CHA_13
 70
     0
  0
APPID
  2
GENIUS_GENDTOL_13
 70
     0
  0
APPID
  2
GENIUS_GENOBJ-N-FIL_13
 70
     0
  0
APPID
  2
AD_DRAW
 70
     0
  0
APPID
  2
DESIGNERASSEMBLIES
 70
     0
  0
APPID
  2
ASURF_PCURVE_APPNAME
 70
     0
  0
APPID
  2
GENIUS_GE3SECT_13
 70
     0
  0
APPID
  2
GENIUS_GENCFG_13
 70
     0
  0
APPID
  2
GENIUS_GE3CFG0_13
 70
     0
  0
APPID
  2
GENIUS_GENCFG0_13
 70
     0
  0
APPID
  2
GENIUS_GENCFG1_13
 70
     0
  0
APPID
  2
GENIUS_GENCFG2_13
 70
     0
  0
APPID
  2
GENIUS_GENCFG3_13
 70
     0
  0
APPID
  2
GENIUS_GENCFG4_13
 70
     0
  0
APPID
  2
GENIUS_GEVCFG0_13
 70
     0
  0
APPID
  2
GENIUS_GENHINW_13
 70
     0
  0
APPID
  2
GENIUS_FIRSTVISTXT_14
 70
     0
  0
APPID
  2
GENIUS_GENOBJ-N-LEADER_13
 70
     0
  0
APPID
  2
GEV_VCCNULL_SWITCH_OFF
 70
     0
  0
APPID
  2
GENIUS_GEFCFG0_13
 70
     0
  0
APPID
  2
GENIUS_GENZVEED_13
 70
     0
  0
APPID
  2
GENIUS_GENSCREG_13
 70
     0
  0
APPID
  2
GENIUS_DUMCFG0_13
 70
     0
  0
APPID
  2
GEVID936201362
 70
     0
  0
APPID
  2
GEVDC
 70
     0
  0
APPID
  2
GEVCON
 70
     0
  0
APPID
  2
VCC
 70
     0
  0
APPID
  2
GEVPT
 70
     0
  0
APPID
  2
GEVIT
 70
     0
  0
APPID
  2
GENBH
 70
     0
  0
APPID
  2
GEVMK
 70
     0
  0
APPID
  2
GENIUS_GENBH_13
 70
     0
  0
APPID
  2
GENIUS_GENOBJ-NBEHI-BHF_13
 70
     0
  0
APPID
  2
GENIUS_GENOBJ-NBEHI-BHB_13
 70
     0
  0
APPID
  2
GENIUS_GENOBJ-F-DESC_13
 70
     0
  0
APPID
  2
GENIUS_GEFDESC_14
 70
     0
  0
APPID
  2
GENIUS_GENOBJ-F-PART_13
 70
     0
  0
APPID
  2
GENIUS_GEFSTDP_13
 70
     0
  0
APPID
  2
GENIUS_GEFPARTINS_13
 70
     0
  0
APPID
  2
GENIUS_GENTRA_14
 70
     0
  0
APPID
  2
GENIUS_GENINF13_13
 70
     0
  0
APPID
  2
GENIUS_GENOBJ-N-INFOPT_13
 70
     0
  0
APPID
  2
GENIUS_GENOBJ-N-RSSYM_13
 70
     0
  0
APPID
  2
GENIUS_GENSYMENT_13
 70
     0
  0
APPID
  2
GENIUS_GENSCSYM_13
 70
     0
  0
APPID
  2
GENIUS_GEFINFNAM_13
 70
     0
  0
APPID
  2
GENIUS_GENOBJ-N-CEN_13
 70
     0
  0
APPID
  2
GENIUS_GENOBJ-N-CRS_13
 70
     0
  0
APPID
  2
GENIUS_GENOBJ-N-CRC_13
 70
     0
  0
APPID
  2
GENIUS_GENCRC_14
 70
     0
  0
APPID
  2
GEVID942827039
 70
     0
  0
APPID
  2
GEVID942827040
 70
     0
  0
APPID
  2
GEVID942827041
 70
     0
  0
APPID
  2
GENIUS_GENOBJ-F-SCPASSM_13
 70
     0
  0
APPID
  2
GENIUS_GENDIMSH_14
 70
     0
  0
APPID
  2
GEVID942827042
 70
     0
  0
APPID
  2
GEVID946020473
 70
     0
  0
APPID
  2
GEVID946020474
 70
     0
  0
APPID
  2
GEVID946020475
 70
     0
  0
APPID
  2
GENIUS_GENOBJ-N-HTC_13
 70
     0
  0
APPID
  2
GENIUS_GENHATCH_13
 70
     0
  0
APPID
  2
GEVID948854295
 70
     0
  0
APPID
  2
GEVID939402019
 70
     0
  0
APPID
  2
GEVID952919491
 70
     0
  0
APPID
  2
GEVID952919492
 70
     0
  0
APPID
  2
GENIUS_GEFWELD_13
 70
     0
  0
APPID
  2
GENIUS_GENOBJ-F-WELS_13
 70
     0
  0
APPID
  2
GEVID952919493
 70
     0
  0
APPID
  2
GENIUS_GENOBJ-N-RSBK_13
 70
     0
  0
APPID
  2
GENIUS_GENOBJ-N-LIB_13
 70
     0
  0
APPID
  2
GENIUS_GENSCALE_13
 70
     0
  0
APPID
  2
GEVID986376691
 70
     0
  0
APPID
  2
DCO15
 70
     0
  0
APPID
  2
ACAD_DSTYLE_DIMBREAK
 70
     0
  0
APPID
  2
ACAD_DSTYLE_DIMJAG
 70
     0
  0
APPID
  2
ACAD_NAV_VCDISPLAY
 70
     0
  0
APPID
  2
ACADANNOPO
 70
     0
  0
APPID
  2
ACAD_EXEMPT_FROM_CAD_STANDARDS
 70
     0
  0
APPID
  2
ACAD_MLEADERVER
 70
     0
  0
ENDTAB
  0
TABLE
  2
DIMSTYLE
 70
    22
  0
DIMSTYLE
  2
STANDARD
 70
     0
  3

  4

  5

  6

  7

 40
1.0
 41
0.18
 42
0.0625
 43
0.38
 44
0.18
 45
0.0
 46
0.0
 47
0.0
 48
0.0
140
0.18
141
0.09
142
0.0
143
25.399999999999999
144
1.0
145
0.0
146
1.0
147
0.09
 71
     0
 72
     0
 73
     1
 74
     1
 75
     0
 76
     0
 77
     0
 78
     0
170
     0
171
     2
172
     0
173
     0
174
     0
175
     0
176
     0
177
     0
178
     0
  0
DIMSTYLE
  2
ANNOTATIVE
 70
     0
  3

  4

  5

  6

  7

 40
1.0
 41
0.18
 42
0.0625
 43
0.38
 44
0.18
 45
0.0
 46
0.0
 47
0.0
 48
0.0
140
0.18
141
0.09
142
0.0
143
25.399999999999999
144
1.0
145
0.0
146
1.0
147
0.09
 71
     0
 72
     0
 73
     1
 74
     1
 75
     0
 76
     0
 77
     0
 78
     0
170
     0
171
     2
172
     0
173
     0
174
     0
175
     0
176
     0
177
     0
178
     0
  0
DIMSTYLE
  2
AM_ISO
 70
     0
  3

  4
"
  5

  6

  7

 40
1.0
 41
2.5
 42
1.0
 43
8.0
 44
0.6
 45
0.0
 46
0.0
 47
0.1
 48
0.1
140
2.5
141
0.0
142
0.0
143
0.0393701
144
1.0
145
0.0
146
0.71
147
0.8
 71
     0
 72
     0
 73
     0
 74
     0
 75
     0
 76
     0
 77
     1
 78
     8
170
     0
171
     2
172
     1
173
     0
174
     0
175
     0
176
   256
177
   256
178
     4
  0
DIMSTYLE
  2
AM_ISO$3
 70
     0
  3

  4
"
  5

  6

  7

 40
1.0
 41
2.5
 42
1.0
 43
8.0
 44
0.6
 45
0.0
 46
0.0
 47
0.1
 48
0.1
140
2.5
141
0.0
142
0.0
143
0.0393701
144
1.0
145
0.0
146
0.71
147
0.8
 71
     0
 72
     0
 73
     0
 74
     1
 75
     0
 76
     0
 77
     1
 78
     8
170
     0
171
     2
172
     0
173
     0
174
     0
175
     0
176
   256
177
   256
178
     4
  0
DIMSTYLE
  2
AM_ISO$4
 70
     0
  3

  4
"
  5

  6

  7

 40
1.0
 41
2.5
 42
1.0
 43
8.0
 44
0.6
 45
0.0
 46
0.0
 47
0.1
 48
0.1
140
2.5
141
0.0
142
0.0
143
0.0393701
144
1.0
145
0.0
146
0.71
147
0.8
 71
     0
 72
     0
 73
     0
 74
     1
 75
     0
 76
     0
 77
     1
 78
     8
170
     0
171
     2
172
     0
173
     0
174
     0
175
     0
176
   256
177
   256
178
     4
  0
DIMSTYLE
  2
AM_ISO$6
 70
     0
  3

  4
"
  5

  6

  7

 40
1.0
 41
2.5
 42
1.0
 43
8.0
 44
0.6
 45
0.0
 46
0.0
 47
0.1
 48
0.1
140
2.5
141
0.0
142
0.0
143
0.0393701
144
1.0
145
0.0
146
0.71
147
0.8
 71
     0
 72
     0
 73
     0
 74
     0
 75
     0
 76
     0
 77
     0
 78
     8
170
     0
171
     2
172
     1
173
     0
174
     0
175
     0
176
   256
177
   256
178
     4
  0
DIMSTYLE
  2
AM_ISO$7
 70
     0
  3

  4
"
  5

  6

  7

 40
1.0
 41
2.5
 42
1.0
 43
8.0
 44
0.6
 45
0.0
 46
0.0
 47
0.1
 48
0.1
140
2.5
141
0.0
142
0.0
143
0.0393701
144
1.0
145
0.0
146
0.71
147
0.8
 71
     0
 72
     0
 73
     0
 74
     0
 75
     0
 76
     0
 77
     1
 78
     8
170
     0
171
     2
172
     1
173
     0
174
     0
175
     0
176
   256
177
   256
178
     4
  0
DIMSTYLE
  2
AM_ISO$SF
 70
     0
  3

  4
"
  5

  6

  7

 40
1.0
 41
2.5
 42
1.0
 43
10.0
 44
1.0
 45
0.0
 46
0.0
 47
0.1
 48
0.1
140
3.5
141
0.0
142
0.0
143
0.0393701
144
1.0
145
0.0
146
0.71
147
1.5
 71
     0
 72
     0
 73
     0
 74
     0
 75
     1
 76
     1
 77
     1
 78
     8
170
     0
171
     2
172
     1
173
     0
174
     0
175
     0
176
   256
177
   256
178
     2
  0
DIMSTYLE
  2
AM_ISO$SH
 70
     0
  3

  4
"
  5

  6

  7

 40
1.0
 41
2.5
 42
1.0
 43
10.0
 44
1.0
 45
0.0
 46
0.0
 47
0.1
 48
0.1
140
3.5
141
0.0
142
0.0
143
0.0393701
144
2.0
145
0.0
146
0.71
147
1.5
 71
     0
 72
     0
 73
     0
 74
     0
 75
     1
 76
     1
 77
     1
 78
     8
170
     0
171
     2
172
     1
173
     1
174
     0
175
     0
176
   256
177
   256
178
     2
  0
DIMSTYLE
  2
AM_JIS
 70
     0
  3

  4
"
  5

  6

  7

 40
1.0
 41
2.5
 42
1.0
 43
7.0
 44
1.0
 45
0.0
 46
0.0
 47
0.1
 48
0.1000000001
140
2.5
141
0.0
142
0.0
143
0.0393701
144
1.0
145
0.0
146
0.71
147
1.0
 71
     0
 72
     0
 73
     0
 74
     0
 75
     0
 76
     0
 77
     3
 78
     8
170
     0
171
     2
172
     1
173
     0
174
     0
175
     0
176
   256
177
   256
178
     4
  0
DIMSTYLE
  2
AM_JIS$3
 70
     0
  3

  4
"
  5

  6

  7

 40
1.0
 41
2.5
 42
1.0
 43
7.0
 44
1.0
 45
0.0
 46
0.0
 47
0.1
 48
0.1000000001
140
2.5
141
0.0
142
0.0
143
0.0393701
144
1.0
145
0.0
146
0.71
147
1.0
 71
     0
 72
     0
 73
     0
 74
     1
 75
     0
 76
     0
 77
     3
 78
     8
170
     0
171
     2
172
     0
173
     0
174
     0
175
     0
176
   256
177
   256
178
     4
  0
DIMSTYLE
  2
AM_JIS$4
 70
     0
  3

  4
"
  5

  6

  7

 40
1.0
 41
2.5
 42
1.0
 43
7.0
 44
1.0
 45
0.0
 46
0.0
 47
0.1
 48
0.1000000001
140
2.5
141
0.0
142
0.0
143
0.0393701
144
1.0
145
0.0
146
0.71
147
1.0
 71
     0
 72
     0
 73
     0
 74
     0
 75
     0
 76
     0
 77
     3
 78
     8
170
     0
171
     2
172
     0
173
     0
174
     0
175
     0
176
   256
177
   256
178
     4
  0
DIMSTYLE
  2
AM_JIS$6
 70
     0
  3

  4
"
  5

  6

  7

 40
1.0
 41
2.5
 42
1.0
 43
7.0
 44
1.0
 45
0.0
 46
0.0
 47
0.1
 48
0.1000000001
140
2.5
141
0.0
142
0.0
143
0.0393701
144
1.0
145
0.0
146
0.71
147
1.0
 71
     0
 72
     0
 73
     0
 74
     0
 75
     0
 76
     0
 77
     0
 78
     8
170
     0
171
     2
172
     1
173
     0
174
     0
175
     0
176
   256
177
   256
178
     4
  0
DIMSTYLE
  2
AM_JIS$7
 70
     0
  3

  4
"
  5

  6

  7

 40
1.0
 41
2.5
 42
1.0
 43
7.0
 44
1.0
 45
0.0
 46
0.0
 47
0.1
 48
0.1000000001
140
2.5
141
0.0
142
0.0
143
0.0393701
144
1.0
145
0.0
146
0.71
147
1.0
 71
     0
 72
     0
 73
     0
 74
     0
 75
     0
 76
     0
 77
     3
 78
     8
170
     0
171
     2
172
     1
173
     0
174
     0
175
     0
176
   256
177
   256
178
     4
  0
DIMSTYLE
  2
AM_JIS$SF
 70
     0
  3

  4
"
  5

  6

  7

 40
1.0
 41
2.5
 42
1.0
 43
10.0
 44
1.0
 45
0.0
 46
0.0
 47
0.1
 48
0.1
140
3.5
141
0.0
142
0.0
143
0.0393701
144
1.0
145
0.0
146
0.71
147
1.5
 71
     0
 72
     0
 73
     0
 74
     0
 75
     1
 76
     1
 77
     3
 78
     8
170
     0
171
     2
172
     1
173
     0
174
     0
175
     0
176
   256
177
   256
178
     4
  0
DIMSTYLE
  2
AM_JIS$SH
 70
     0
  3

  4
"
  5

  6

  7

 40
1.0
 41
2.5
 42
1.0
 43
10.0
 44
1.0
 45
0.0
 46
0.0
 47
0.1
 48
0.1
140
3.5
141
0.0
142
0.0
143
0.0393701
144
1.0
145
0.0
146
0.71
147
1.5
 71
     0
 72
     0
 73
     0
 74
     0
 75
     1
 76
     0
 77
     3
 78
     8
170
     0
171
     2
172
     1
173
     1
174
     0
175
     0
176
   256
177
   256
178
     4
  0
DIMSTYLE
  2
AM_ANSI
 70
     0
  3

  4
mm
  5

  6

  7

 40
1.0
 41
0.1
 42
0.05
 43
0.5
 44
0.1
 45
0.0
 46
0.0
 47
0.1
 48
0.1
140
0.12
141
0.0
142
0.0
143
25.399999999999999
144
1.0
145
0.0
146
0.71
147
0.06
 71
     0
 72
     0
 73
     1
 74
     1
 75
     0
 76
     0
 77
     0
 78
     7
170
     0
171
     2
172
     0
173
     0
174
     0
175
     0
176
   256
177
   256
178
     2
  0
DIMSTYLE
  2
AM_ANSI$3
 70
     0
  3

  4
mm
  5

  6

  7

 40
1.0
 41
0.1
 42
0.05
 43
0.5
 44
0.1
 45
0.0
 46
0.0
 47
0.1
 48
0.1
140
0.12
141
0.0
142
0.0
143
25.399999999999999
144
1.0
145
0.0
146
0.71
147
0.06
 71
     0
 72
     0
 73
     1
 74
     1
 75
     0
 76
     0
 77
     0
 78
     7
170
     0
171
     2
172
     0
173
     0
174
     0
175
     0
176
   256
177
   256
178
     2
  0
DIMSTYLE
  2
AM_ANSI$4
 70
     0
  3

  4
mm
  5

  6

  7

 40
1.0
 41
0.1
 42
0.05
 43
0.5
 44
0.1
 45
0.0
 46
0.0
 47
0.1
 48
0.1
140
0.12
141
0.0
142
0.0
143
25.399999999999999
144
1.0
145
0.0
146
0.71
147
0.06
 71
     0
 72
     0
 73
     1
 74
     1
 75
     0
 76
     0
 77
     0
 78
     7
170
     0
171
     2
172
     0
173
     0
174
     0
175
     0
176
   256
177
   256
178
     2
  0
DIMSTYLE
  2
AM_ANSI$7
 70
     0
  3

  4
mm
  5

  6

  7

 40
1.0
 41
0.1
 42
0.05
 43
0.5
 44
0.1
 45
0.0
 46
0.0
 47
0.1
 48
0.1
140
0.24
141
0.0
142
0.0
143
25.399999999999999
144
1.0
145
0.0
146
0.71
147
0.06
 71
     0
 72
     0
 73
     1
 74
     1
 75
     0
 76
     0
 77
     0
 78
     7
170
     0
171
     2
172
     0
173
     0
174
     0
175
     0
176
   256
177
   256
178
     2
  0
DIMSTYLE
  2
AM_ANSI$SF
 70
     0
  3

  4
mm
  5

  6

  7

 40
1.0
 41
0.1
 42
0.05
 43
0.5
 44
0.1
 45
0.0
 46
0.0
 47
0.1
 48
0.1
140
0.12
141
0.0
142
0.0
143
25.399999999999999
144
1.0
145
0.0
146
0.71
147
0.06
 71
     0
 72
     0
 73
     1
 74
     1
 75
     1
 76
     1
 77
     0
 78
     7
170
     0
171
     2
172
     0
173
     0
174
     0
175
     0
176
   256
177
   256
178
     2
  0
DIMSTYLE
  2
AM_ANSI$SH
 70
     0
  3

  4
mm
  5

  6

  7

 40
1.0
 41
0.1
 42
0.05
 43
0.5
 44
0.1
 45
0.0
 46
0.0
 47
0.1
 48
0.1
140
0.12
141
0.0
142
0.0
143
25.399999999999999
144
1.0
145
0.0
146
0.71
147
0.06
 71
     0
 72
     0
 73
     1
 74
     1
 75
     1
 76
     1
 77
     0
 78
     7
170
     0
171
     2
172
     0
173
     1
174
     0
175
     0
176
   256
177
   256
178
     2
  0
ENDTAB
  0
ENDSEC
  0
SECTION
  2
BLOCKS
  0
BLOCK
  8
0
  2
$MODEL_SPACE
 70
     0
 10
0.0
 20
0.0
 30
0.0
  3
$MODEL_SPACE
  1

  0
ENDBLK
  5
303E
  8
0
  0
BLOCK
 67
     1
  8
0
  2
$PAPER_SPACE
 70
     0
 10
0.0
 20
0.0
 30
0.0
  3
$PAPER_SPACE
  1

  0
ENDBLK
  5
303A
 67
     1
  8
0
  0
BLOCK
  8
0
  2
GENAXEH
 70
     0
 10
0.0
 20
0.0
 30
0.0
  3
GENAXEH
  1

  0
LINE
  5
2D8D
  8
0
 10
-1.0
 20
0.0
 30
0.0
 11
1.0
 21
0.0
 31
0.0
  0
ENDBLK
  5
2D8E
  8
0
  0
BLOCK
  8
0
  2
_OPEN30
 70
     0
 10
0.0
 20
0.0
 30
0.0
  3
_OPEN30
  1

  0
LINE
  5
2D91
  8
0
 62
     0
 10
-1.0
 20
0.26794919
 30
0.0
 11
0.0
 21
0.0
 31
0.0
  0
LINE
  5
2D92
  8
0
 62
     0
 10
0.0
 20
0.0
 30
0.0
 11
-1.0
 21
-0.26794919
 31
0.0
  0
LINE
  5
2D93
  8
0
 62
     0
 10
0.0
 20
0.0
 30
0.0
 11
-1.0
 21
0.0
 31
0.0
  0
ENDBLK
  5
2D94
  8
0
  0
BLOCK
  8
0
  2
_NONE
 70
     0
 10
0.0
 20
0.0
 30
0.0
  3
_NONE
  1

  0
ENDBLK
  5
2D97
  8
0
  0
BLOCK
  8
0
  2
_ACMFILLEDHALF
 70
     0
 10
0.0
 20
0.0
 30
0.0
  3
_ACMFILLEDHALF
  1

  0
TRACE
  5
3133
  8
AM_0
 62
     0
 10
-0.8
 20
0.0
 30
0.0
 11
-1.0
 21
0.166666666
 31
0.0
 12
0.0
 22
0.0
 32
0.0
 13
0.0
 23
0.0
 33
0.0
  0
LINE
  5
3134
  8
AM_0
 62
     0
 10
-1.0
 20
0.0
 30
0.0
 11
-0.8
 21
0.0
 31
0.0
  0
ENDBLK
  5
3132
  8
0
  0
ENDSEC
  0
SECTION
  2
ENTITIES
  0
LINE
  5
2D98
  8
ﾁｭｳｼﾝｾﾝ1
 10
170.02320912194341
 20
318.53411252328658
 30
0.0
 11
413.32809912194352
 21
318.53411252328658
 31
0.0
  0
LINE
  5
2D99
  8
0
 10
352.54893912194359
 20
336.03410252328649
 30
0.0
 11
348.54891912194358
 21
336.03410252328649
 31
0.0
  0
LINE
  5
2D9A
  8
0
 10
352.54893912194359
 20
301.03414652328649
 30
0.0
 11
348.54891912194358
 21
301.03414652328649
 31
0.0
  0
LINE
  5
2D9B
  8
0
 10
74.048919121943285
 20
242.53411452328629
 30
0.0
 11
74.048919121943499
 21
288.53411452328652
 31
0.0
  0
LINE
  5
2D9C
  8
0
 10
94.548919121943513
 20
290.53411452328618
 30
0.0
 11
94.548919121943513
 21
240.53411452328629
 31
0.0
  0
LINE
  5
2D9D
  8
0
 10
119.5489191219434
 20
320.77273587732122
 30
0.0
 11
119.54891912194439
 21
210.29549316925161
 31
0.0
  0
LINE
  5
2D9E
  8
0
 10
235.54896912194349
 20
234.03412952328631
 30
0.0
 11
235.54896912194349
 21
390.03416252328651
 31
0.0
  0
LINE
  5
2D9F
  8
0
 10
341.54889912194352
 20
204.07352552328629
 30
0.0
 11
341.54889912194352
 21
362.53415252328648
 31
0.0
  0
LINE
  5
2DA0
  8
0
 10
300.54891912194353
 20
211.53412952328631
 30
0.0
 11
300.54891912194353
 21
349.97687252328632
 31
0.0
  0
LINE
  5
2DA1
  8
0
 10
320.54889912194352
 20
218.9918625232865
 30
0.0
 11
320.54889912194352
 21
380.01506252328647
 31
0.0
  0
LINE
  5
2DA2
  8
0
 10
239.54889912194341
 20
247.15853552328639
 30
0.0
 11
239.54889912194341
 21
305.18188352328661
 31
0.0
  0
LINE
  5
2DA3
  8
0
 10
225.5489191219435
 20
202.78414352328639
 30
0.0
 11
225.5489191219435
 21
387.75353252328631
 31
0.0
  0
LINE
  5
2DA4
  8
0
 10
210.54891912194341
 20
218.60520452328649
 30
0.0
 11
210.54891912194341
 21
362.46308252328652
 31
0.0
  0
LINE
  5
2DA5
  8
0
 10
198.0489691219436
 20
226.5341295232864
 30
0.0
 11
198.0489691219436
 21
354.53411252328652
 31
0.0
  0
LINE
  5
2DA6
  8
0
 10
189.04896912194349
 20
230.3042715232865
 30
0.0
 11
189.04896912194349
 21
351.74372252328652
 31
0.0
  0
LINE
  5
2DA7
  8
0
 10
129.5489191219435
 20
209.0341275232864
 30
0.0
 11
129.5489191219435
 21
322.03412252328638
 31
0.0
  0
LINE
  5
2DA8
  8
0
 10
72.048919121943527
 20
279.70568739854031
 30
0.0
 11
72.048919121943527
 21
251.3625416480325
 31
0.0
  0
LINE
  5
2DA9
  8
ﾁｭｳｼﾝｾﾝ1
 10
188.16939912194351
 20
265.53411452328641
 30
0.0
 11
38.658829778079038
 21
265.53411452328641
 31
0.0
  0
LINE
  5
2DAA
  8
0
 10
76.048919121943499
 20
240.53411452328641
 30
0.0
 11
90.406783498212491
 21
240.53411452328629
 31
0.0
  0
LINE
  5
2DAB
  8
0
 10
45.048919121943513
 20
271.53411452328641
 30
0.0
 11
70.048919121943527
 21
271.53411452328641
 31
0.0
  0
LINE
  5
2DAC
  8
0
 10
45.048919121943513
 20
273.03411452328641
 30
0.0
 11
63.048919121943527
 21
273.03411452328641
 31
0.0
  0
LINE
  5
2DAD
  8
0
 10
45.048919121943513
 20
259.53411452328641
 30
0.0
 11
70.048919121943527
 21
259.53411452328641
 31
0.0
  0
LINE
  5
2DAE
  8
0
 10
45.048919121943513
 20
273.03411452328641
 30
0.0
 11
45.048919121943513
 21
259.53411452328641
 31
0.0
  0
ARC
  5
2DAF
  8
0
 10
76.048919121943499
 20
242.53411452328641
 30
0.0
 40
2.0
 50
180.0
 51
270.0
1001
GENIUS_GENODEF_13
1002
{
1000
HIER
1070
     0
1002
}
1002
{
1000
MANEDIT
1070
     0
1002
}
1002
{
1000
NOSEL
1070
     0
1002
}
1002
{
1000
BEHIND
1070
     0
1002
}
1002
{
1000
OTHER
1070
     0
1002
}
1002
{
1000
REACTOR
1002
}
1001
GENIUS_GENOBJ-N-FIL_13
1002
{
1000
OWNER
1000
GEN
1002
}
  0
ARC
  5
2DB0
  8
0
 10
74.048919121943499
 20
251.3625416480325
 30
0.0
 40
2.0
 50
180.0
 51
225.0000000000006
1001
GENIUS_GENODEF_13
1002
{
1000
HIER
1070
     0
1002
}
1002
{
1000
MANEDIT
1070
     0
1002
}
1002
{
1000
NOSEL
1070
     0
1002
}
1002
{
1000
BEHIND
1070
     0
1002
}
1002
{
1000
OTHER
1070
     0
1002
}
1002
{
1000
REACTOR
1002
}
1001
GENIUS_GENOBJ-N-FIL_13
1002
{
1000
OWNER
1000
GEN
1002
}
  0
ARC
  5
2DB1
  8
0
 10
72.048919121943527
 20
247.70568739854031
 30
0.0
 40
2.0
 50
0.0
 51
45.000000000000568
1001
GENIUS_GENODEF_13
1002
{
1000
HIER
1070
     0
1002
}
1002
{
1000
MANEDIT
1070
     0
1002
}
1002
{
1000
NOSEL
1070
     0
1002
}
1002
{
1000
BEHIND
1070
     0
1002
}
1002
{
1000
OTHER
1070
     0
1002
}
1002
{
1000
REACTOR
1002
}
1001
GENIUS_GENOBJ-N-FIL_13
1002
{
1000
OWNER
1000
GEN
1002
}
  0
LINE
  5
2DB2
  8
0
 10
72.634705559570421
 20
249.9483280856594
 30
0.0
 11
73.463132684316619
 21
249.1199009609133
 31
0.0
  0
LINE
  5
2DB3
  8
0
 10
63.048919121943527
 20
273.03411452328641
 30
0.0
 11
63.048919121943527
 21
271.53411452328641
 31
0.0
  0
LINE
  5
2DB4
  8
0
 10
70.048919121943527
 20
273.03411452328641
 30
0.0
 11
70.048919121943527
 21
258.03410689389199
 31
0.0
  0
LINE
  5
2DB5
  8
0
 10
70.048919121943527
 20
258.03410689389199
 30
0.0
 11
72.048919121943527
 21
258.03410689389199
 31
0.0
  0
LINE
  5
2DB6
  8
0
 10
70.048919121943527
 20
273.03411452328641
 30
0.0
 11
72.048919121943527
 21
273.03411452328641
 31
0.0
  0
LINE
  5
2DB7
  8
0
 10
187.5489691219436
 20
178.53412652328629
 30
0.0
 11
223.5489691219436
 21
178.53412652328629
 31
0.0
  0
LINE
  5
2DB8
  8
0
 10
189.54891912194341
 20
196.5341295232864
 30
0.0
 11
220.6290991219434
 21
196.5341295232864
 31
0.0
  0
LINE
  5
2DB9
  8
0
 10
212.01339912194351
 20
215.06968052328631
 30
0.0
 11
224.6702491219437
 21
202.41280652328641
 31
0.0
  0
LINE
  5
2DBA
  8
ｶｸﾚｾﾝ2
 10
198.0489691219436
 20
196.5341295232864
 30
0.0
 11
198.0489691219436
 21
178.53412652328629
 31
0.0
  0
LINE
  5
2DBB
  8
ｶｸﾚｾﾝ2
 10
213.0489691219436
 20
196.5341295232864
 30
0.0
 11
213.0489691219436
 21
178.53412652328629
 31
0.0
  0
LINE
  5
2DBC
  8
ﾁｭｳｼﾝｾﾝ1
 10
205.5489691219436
 20
175.1634581514239
 30
0.0
 11
205.5489691219436
 21
200.06255552328639
 31
0.0
  0
LINE
  5
2DBD
  8
0
 10
187.5489691219436
 20
178.53412652328629
 30
0.0
 11
187.5489691219436
 21
194.5341435232865
 31
0.0
  0
ARC
  5
2DBE
  8
0
 10
154.5489691219436
 20
268.4741175232864
 30
0.0
 40
5.0000001000000003
 50
90.000003000000007
 51
180.00001
  0
ARC
  5
2DBF
  8
0
 10
153.5489191219435
 20
229.4729115232864
 30
0.0
 40
4.000000199999997
 50
88.0
 51
180.00001
  0
LINE
  5
2DC0
  8
0
 10
151.7319991219436
 20
214.4597115232865
 30
0.0
 11
188.9038291219434
 21
226.80021152328641
 31
0.0
  0
LINE
  5
2DC1
  8
0
 10
118.08445302787641
 20
216.99858061735361
 30
0.0
 11
97.477851310077995
 21
237.60518233515199
 31
0.0
  0
LINE
  5
2DC2
  8
0
 10
149.54889912194341
 20
213.59528552328641
 30
0.0
 11
149.54889912194341
 21
268.4741175232864
 31
0.0
  0
ARC
  5
2DC3
  8
0
 10
114.5489191219434
 20
213.46304671142099
 30
0.0
 40
5.0
 50
0.0
 51
45.0
1001
GENIUS_GENODEF_13
1002
{
1000
HIER
1070
     0
1002
}
1002
{
1000
MANEDIT
1070
     0
1002
}
1002
{
1000
NOSEL
1070
     0
1002
}
1002
{
1000
BEHIND
1070
     0
1002
}
1002
{
1000
OTHER
1070
     0
1002
}
1002
{
1000
REACTOR
1002
}
1001
GENIUS_GENOBJ-N-FIL_13
1002
{
1000
OWNER
1000
GEN
1002
}
  0
ARC
  5
2DC4
  8
0
 10
152.9923291219435
 20
210.6634635232864
 30
0.0
 40
4.000000199999997
 50
108.3654199999999
 51
158.50144999999981
  0
ARC
  5
2DC5
  8
0
 10
145.54896912194349
 20
213.59528552328641
 30
0.0
 40
4.000000199999997
 50
272.0
 51
0.0
  0
LINE
  5
2DC6
  8
0
 10
129.5489191219435
 20
209.0341275232864
 30
0.0
 11
145.68849912194341
 21
209.59772852328629
 31
0.0
  0
LINE
  5
2DC7
  8
0
 10
120.5199359286602
 20
209.2959132702405
 30
0.0
 11
129.5489191219435
 21
209.03411452328641
 31
0.0
  0
ARC
  5
2DC8
  8
0
 10
120.5489191219434
 20
210.29549316925161
 30
0.0
 40
1.0
 50
180.0
 51
268.33915276702578
1001
GENIUS_GENOBJ-N-FIL_13
1002
{
1000
OWNER
1000
GEN
1002
}
1001
GENIUS_GENODEF_13
1002
{
1000
HIER
1070
     0
1002
}
1002
{
1000
MANEDIT
1070
     0
1002
}
1002
{
1000
NOSEL
1070
     0
1002
}
1002
{
1000
BEHIND
1070
     0
1002
}
1002
{
1000
OTHER
1070
     0
1002
}
1002
{
1000
REACTOR
1002
}
  0
LINE
  5
2DC9
  8
0
 10
129.5489191219435
 20
233.5971015232864
 30
0.0
 11
149.54889912194341
 21
233.5971015232864
 31
0.0
  0
LINE
  5
2DCA
  8
0
 10
129.5489191219435
 20
219.5341275232864
 30
0.0
 11
149.54889912194341
 21
219.5341275232864
 31
0.0
  0
ARC
  5
2DCB
  8
0
 10
90.406783498212491
 20
230.53411452328641
 30
0.0
 40
10.0
 50
45.0
 51
90.0
1001
GENIUS_GENOBJ-N-FIL_13
1002
{
1000
OWNER
1000
GEN
1002
}
1001
GENIUS_GENODEF_13
1002
{
1000
HIER
1070
     0
1002
}
1002
{
1000
MANEDIT
1070
     0
1002
}
1002
{
1000
NOSEL
1070
     0
1002
}
1002
{
1000
BEHIND
1070
     0
1002
}
1002
{
1000
OTHER
1070
     0
1002
}
1002
{
1000
REACTOR
1002
}
  0
POINT
  5
2DCC
  8
0
 10
129.5489191219435
 20
265.53411452328641
 30
0.0
  0
LINE
  5
2DCD
  8
0
 10
153.68853912194359
 20
233.4704385232865
 30
0.0
 11
187.11873912194369
 21
232.3030335232865
 31
0.0
  0
ARC
  5
2DCE
  8
0
 10
189.54891912194341
 20
194.5341435232865
 30
0.0
 40
2.00000007
 50
90.000003000000007
 51
180.00001
  0
LINE
  5
2DCF
  8
0
 10
198.0489091219435
 20
227.03411252328661
 30
0.0
 11
205.72341912194349
 21
226.7661225232865
 31
0.0
  0
LINE
  5
2DD0
  8
0
 10
191.9442391219435
 20
226.74729452328651
 30
0.0
 11
198.0489091219435
 21
226.53411452328649
 31
0.0
  0
ARC
  5
2DD1
  8
0
 10
192.0489691219436
 20
229.74547952328641
 30
0.0
 40
3.0
 50
179.99998999999991
 51
268.00000999999992
  0
ARC
  5
2DD2
  8
0
 10
190.1641291219434
 20
223.00397852328641
 30
0.0
 40
4.000000199999997
 50
74.380296000000001
 51
108.3654199999999
  0
LINE
  5
2DD3
  8
0
 10
189.04896912194349
 20
229.74547952328641
 30
0.0
 11
189.04896912194349
 21
230.3042715232865
 31
0.0
  0
ARC
  5
2DD4
  8
0
 10
187.04889912194341
 20
230.3042715232865
 30
0.0
 40
2.00000007
 50
0.0
 51
88.0
  0
ARC
  5
2DD5
  8
0
 10
205.5489691219436
 20
221.76917552328641
 30
0.0
 40
5.0000001000000003
 50
0.0
 51
88.0
  0
ARC
  5
2DD6
  8
0
 10
215.54889912194341
 20
218.60520452328649
 30
0.0
 40
5.0000001000000003
 50
179.99998999999991
 51
225.0
  0
LINE
  5
2DD7
  8
0
 10
154.5489691219436
 20
273.47411852328662
 30
0.0
 11
189.04896912194349
 21
273.47411852328662
 31
0.0
  0
LINE
  5
2DD8
  8
0
 10
198.0489691219436
 20
253.38621152328631
 30
0.0
 11
210.54891912194341
 21
253.38621152328631
 31
0.0
  0
LINE
  5
2DD9
  8
0
 10
198.0489691219436
 20
239.03413052328651
 30
0.0
 11
210.54891912194341
 21
239.03413052328651
 31
0.0
  0
LINE
  5
2DDA
  8
0
 10
189.04896912194349
 20
239.03413052328651
 30
0.0
 11
198.0489691219436
 21
239.03413052328651
 31
0.0
  0
LINE
  5
2DDB
  8
0
 10
189.04896912194349
 20
253.3857675232864
 30
0.0
 11
198.0489691219436
 21
253.3857675232864
 31
0.0
  0
LINE
  5
2DDC
  8
ｶｸﾚｾﾝ2
 10
323.04891912194353
 20
196.5341295232864
 30
0.0
 11
323.04891912194353
 21
178.53412652328629
 31
0.0
  0
LINE
  5
2DDD
  8
ｶｸﾚｾﾝ2
 10
338.04891912194353
 20
196.5341295232864
 30
0.0
 11
338.04891912194353
 21
178.53412652328629
 31
0.0
  0
LINE
  5
2DDE
  8
ﾁｭｳｼﾝｾﾝ1
 10
330.54891912194353
 20
174.01816969193911
 30
0.0
 11
330.54891912194353
 21
200.06255552328639
 31
0.0
  0
LINE
  5
2DDF
  8
0
 10
348.54891912194358
 20
178.53412652328629
 30
0.0
 11
348.54891912194358
 21
194.5341435232865
 31
0.0
  0
LINE
  5
2DE0
  8
0
 10
225.5489191219435
 20
180.5341275232864
 30
0.0
 11
310.5489391219437
 21
180.5341275232864
 31
0.0
  0
ARC
  5
2DE1
  8
0
 10
225.5489191219435
 20
178.53412652328629
 30
0.0
 40
2.00000007
 50
90.000003000000007
 51
180.00001
  0
LINE
  5
2DE2
  8
0
 10
312.54891912194353
 20
178.53412652328629
 30
0.0
 11
348.54891912194358
 21
178.53412652328629
 31
0.0
  0
ARC
  5
2DE3
  8
0
 10
310.5489391219437
 20
178.53412652328629
 30
0.0
 40
2.00000007
 50
0.0
 51
90.000003000000007
  0
LINE
  5
2DE4
  8
0
 10
312.54891912194353
 20
178.53412652328629
 30
0.0
 11
312.54891912194353
 21
178.53412652328629
 31
0.0
  0
LINE
  5
2DE5
  8
0
 10
224.4387991219435
 20
199.31501252328641
 30
0.0
 11
239.35860912194349
 21
245.93941952328649
 31
0.0
  0
ARC
  5
2DE6
  8
0
 10
220.6290991219434
 20
200.53414352328639
 30
0.0
 40
4.000000199999997
 50
270.0
 51
342.2553299999999
  0
LINE
  5
2DE7
  8
0
 10
225.5489191219435
 20
210.11634452328639
 30
0.0
 11
227.89521912194371
 21
210.11634452328639
 31
0.0
  0
ARC
  5
2DE8
  8
0
 10
222.5489191219435
 20
200.29149752328641
 30
0.0
 40
3.0
 50
27.893113
 51
45.00000099999999
  0
LINE
  5
2DE9
  8
0
 10
225.5489191219435
 20
227.4691125232865
 30
0.0
 11
233.44812912194351
 21
227.4691125232865
 31
0.0
  0
ARC
  5
2DEA
  8
0
 10
235.54896912194349
 20
247.15853552328639
 30
0.0
 40
4.000000199999997
 50
342.2553299999999
 51
0.0
  0
LINE
  5
2DEB
  8
0
 10
315.54891912194353
 20
196.5341295232864
 30
0.0
 11
346.54893912194359
 21
196.5341295232864
 31
0.0
  0
ARC
  5
2DEC
  8
0
 10
312.54891912194353
 20
218.9918625232865
 30
0.0
 40
8.0000000999999976
 50
270.0
 51
0.0
  0
ARC
  5
2DED
  8
0
 10
315.54891912194353
 20
211.53412952328631
 30
0.0
 40
15.00000029999998
 50
179.99998999999991
 51
270.0
  0
LINE
  5
2DEE
  8
0
 10
305.62389912194323
 20
210.9918615232865
 30
0.0
 11
312.54891912194353
 21
210.9918615232865
 31
0.0
  0
ARC
  5
2DEF
  8
0
 10
349.54893912194359
 20
204.07352552328629
 30
0.0
 40
8.0000000999999976
 50
179.99998999999991
 51
252.54239000000001
  0
ARC
  5
2DF0
  8
0
 10
346.54893912194359
 20
194.5341435232865
 30
0.0
 40
2.00000007
 50
0.0
 51
90.000003000000007
  0
LINE
  5
2DF1
  8
0
 10
76.048919121943499
 20
290.53411452328652
 30
0.0
 11
90.406783498212491
 21
290.53411452328629
 31
0.0
  0
ARC
  5
2DF2
  8
0
 10
72.048919121943527
 20
283.36254164803262
 30
0.0
 40
2.0
 50
314.99999999999932
 51
0.0
1001
GENIUS_GENODEF_13
1002
{
1000
HIER
1070
     0
1002
}
1002
{
1000
MANEDIT
1070
     0
1002
}
1002
{
1000
NOSEL
1070
     0
1002
}
1002
{
1000
BEHIND
1070
     0
1002
}
1002
{
1000
OTHER
1070
     0
1002
}
1002
{
1000
REACTOR
1002
}
1001
GENIUS_GENOBJ-N-FIL_13
1002
{
1000
OWNER
1000
GEN
1002
}
  0
LINE
  5
2DF3
  8
0
 10
72.634705559570421
 20
281.11990096091341
 30
0.0
 11
73.463132684316619
 21
281.94832808565951
 31
0.0
  0
ARC
  5
2DF4
  8
0
 10
74.048919121943499
 20
279.70568739854031
 30
0.0
 40
2.0
 50
134.9999999999994
 51
180.0
1001
GENIUS_GENODEF_13
1002
{
1000
HIER
1070
     0
1002
}
1002
{
1000
MANEDIT
1070
     0
1002
}
1002
{
1000
NOSEL
1070
     0
1002
}
1002
{
1000
BEHIND
1070
     0
1002
}
1002
{
1000
OTHER
1070
     0
1002
}
1002
{
1000
REACTOR
1002
}
1001
GENIUS_GENOBJ-N-FIL_13
1002
{
1000
OWNER
1000
GEN
1002
}
  0
ARC
  5
2DF5
  8
0
 10
76.048919121943499
 20
288.53411452328652
 30
0.0
 40
2.0
 50
90.0
 51
180.0
1001
GENIUS_GENODEF_13
1002
{
1000
HIER
1070
     0
1002
}
1002
{
1000
MANEDIT
1070
     0
1002
}
1002
{
1000
NOSEL
1070
     0
1002
}
1002
{
1000
BEHIND
1070
     0
1002
}
1002
{
1000
OTHER
1070
     0
1002
}
1002
{
1000
REACTOR
1002
}
1001
GENIUS_GENOBJ-N-FIL_13
1002
{
1000
OWNER
1000
GEN
1002
}
  0
LINE
  5
2DF6
  8
0
 10
212.01339912194351
 20
365.99858252328647
 30
0.0
 11
224.6702491219437
 21
378.6554625232863
 31
0.0
  0
ARC
  5
2DF7
  8
0
 10
215.54889912194341
 20
362.46308252328652
 30
0.0
 40
5.0000001000000003
 50
135.0
 51
180.00001
  0
LINE
  5
2DF8
  8
0
 10
129.5489191219435
 20
322.03415252328648
 30
0.0
 11
156.6536491219434
 21
322.98065252328649
 31
0.0
  0
LINE
  5
2DF9
  8
0
 10
129.5489191219435
 20
297.4711275232865
 30
0.0
 11
179.2904191219435
 21
297.4711275232865
 31
0.0
  0
LINE
  5
2DFA
  8
0
 10
129.5489191219435
 20
311.53412252328638
 30
0.0
 11
181.2823591219435
 21
311.53412252328638
 31
0.0
  0
ARC
  5
2DFB
  8
0
 10
120.5489191219434
 20
320.77273587732122
 30
0.0
 40
1.0
 50
91.66084723297412
 51
180.0
1001
GENIUS_GENOBJ-N-FIL_13
1002
{
1000
OWNER
1000
GEN
1002
}
1001
GENIUS_GENODEF_13
1002
{
1000
HIER
1070
     0
1002
}
1002
{
1000
MANEDIT
1070
     0
1002
}
1002
{
1000
NOSEL
1070
     0
1002
}
1002
{
1000
BEHIND
1070
     0
1002
}
1002
{
1000
OTHER
1070
     0
1002
}
1002
{
1000
REACTOR
1002
}
  0
ARC
  5
2DFC
  8
0
 10
114.5489191219434
 20
317.60518233515199
 30
0.0
 40
5.0
 50
315.0
 51
0.0
1001
GENIUS_GENODEF_13
1002
{
1000
HIER
1070
     0
1002
}
1002
{
1000
MANEDIT
1070
     0
1002
}
1002
{
1000
NOSEL
1070
     0
1002
}
1002
{
1000
BEHIND
1070
     0
1002
}
1002
{
1000
OTHER
1070
     0
1002
}
1002
{
1000
REACTOR
1002
}
1001
GENIUS_GENOBJ-N-FIL_13
1002
{
1000
OWNER
1000
GEN
1002
}
  0
LINE
  5
2DFD
  8
0
 10
118.08445302787641
 20
314.06964842921923
 30
0.0
 11
97.477851310077995
 21
293.46304671142082
 31
0.0
  0
ARC
  5
2DFE
  8
0
 10
90.406783498212491
 20
300.53411452328618
 30
0.0
 40
10.0
 50
270.0
 51
315.0
1001
GENIUS_GENODEF_13
1002
{
1000
HIER
1070
     0
1002
}
1002
{
1000
MANEDIT
1070
     0
1002
}
1002
{
1000
NOSEL
1070
     0
1002
}
1002
{
1000
BEHIND
1070
     0
1002
}
1002
{
1000
OTHER
1070
     0
1002
}
1002
{
1000
REACTOR
1002
}
1001
GENIUS_GENOBJ-N-FIL_13
1002
{
1000
OWNER
1000
GEN
1002
}
  0
LINE
  5
2DFF
  8
0
 10
120.5199359286602
 20
321.77231577633222
 30
0.0
 11
129.5489191219435
 21
322.03411452328652
 31
0.0
  0
LINE
  5
2E00
  8
0
 10
166.39752912194351
 20
323.15129252328671
 30
0.0
 11
172.23000912194351
 21
311.53415252328659
 31
0.0
  0
LINE
  5
2E01
  8
0
 10
179.2904191219435
 20
297.47115752328648
 30
0.0
 11
189.0489091219435
 21
278.0341155232864
 31
0.0
  0
ARC
  5
2E02
  8
0
 10
181.2823591219435
 20
306.53411252328652
 30
0.0
 40
5.0000001000000003
 50
315.0
 51
90.000003000000007
  0
LINE
  5
2E03
  8
0
 10
179.2904191219435
 20
297.47109752328652
 30
0.0
 11
184.81788912194349
 21
302.99856452328652
 31
0.0
  0
LINE
  5
2E04
  8
0
 10
167.79024912194379
 20
324.71360252328651
 30
0.0
 11
188.17023912194369
 21
345.09359252328647
 31
0.0
  0
LINE
  5
2E05
  8
0
 10
162.44421912194341
 20
348.90353252328651
 30
0.0
 11
186.32232912194351
 21
349.73738252328661
 31
0.0
  0
LINE
  5
2E06
  8
0
 10
159.5489191219435
 20
345.90536252328639
 30
0.0
 11
159.5489191219435
 21
325.97879252328647
 31
0.0
  0
LINE
  5
2E07
  8
0
 10
156.6536491219434
 20
322.98065252328649
 30
0.0
 11
164.42922912194351
 21
323.25215252328638
 31
0.0
  0
ARC
  5
2E08
  8
0
 10
156.5489191219435
 20
325.97879252328647
 30
0.0
 40
3.0
 50
272.0
 51
0.0
  0
ARC
  5
2E09
  8
0
 10
164.2547191219434
 20
328.2491025232863
 30
0.0
 40
5.0000001000000003
 50
272.0
 51
315.0
  0
ARC
  5
2E0A
  8
0
 10
162.54891912194341
 20
345.90536252328639
 30
0.0
 40
3.0
 50
91.999997999999948
 51
180.00001
  0
LINE
  5
2E0B
  8
0
 10
198.0489691219436
 20
342.03410252328649
 30
0.0
 11
210.54891912194341
 21
342.03410252328649
 31
0.0
  0
LINE
  5
2E0C
  8
0
 10
198.0489691219436
 20
327.68207252328631
 30
0.0
 11
210.54891912194341
 21
327.68207252328631
 31
0.0
  0
LINE
  5
2E0D
  8
0
 10
189.04896912194349
 20
327.68249252328638
 30
0.0
 11
198.0489691219436
 21
327.68249252328638
 31
0.0
  0
LINE
  5
2E0E
  8
0
 10
189.04896912194349
 20
342.03410252328649
 30
0.0
 11
198.0489691219436
 21
342.03410252328649
 31
0.0
  0
LINE
  5
2E0F
  8
0
 10
198.0489091219435
 20
354.03413252328659
 30
0.0
 11
205.72341912194349
 21
354.30212252328653
 31
0.0
  0
ARC
  5
2E10
  8
0
 10
192.0489691219436
 20
351.32279252328652
 30
0.0
 40
3.0
 50
91.999997999999948
 51
166.38106999999991
  0
ARC
  5
2E11
  8
0
 10
186.04896912194349
 20
347.21489252328649
 30
0.0
 40
3.0
 50
315.0
 51
0.0
  0
ARC
  5
2E12
  8
0
 10
186.21759912194341
 20
352.73552252328648
 30
0.0
 40
3.0
 50
272.0
 51
346.38107000000002
  0
LINE
  5
2E13
  8
0
 10
191.9442391219435
 20
354.32096252328648
 30
0.0
 11
198.0489091219435
 21
354.53411252328652
 31
0.0
  0
ARC
  5
2E14
  8
0
 10
205.5489691219436
 20
359.29910252328659
 30
0.0
 40
5.0000001000000003
 50
272.0
 51
0.0
  0
ARC
  5
2E15
  8
0
 10
337.5489391219437
 20
362.53415252328648
 30
0.0
 40
4.000000199999997
 50
0.0
 51
90.000003000000007
  0
POLYLINE
  5
2E16
  8
0
 66
     1
 10
0.0
 20
0.0
 30
0.0
  0
VERTEX
  5
2E17
  8
0
  6
CONTINUOUS
 10
269.00559912194342
 20
363.1755225232863
 30
0.0
 42
0.046334034
  0
VERTEX
  5
2E18
  8
0
  6
CONTINUOUS
 10
267.15375912194372
 20
364.23317252328633
 30
0.0
 42
0.024113349
  0
VERTEX
  5
2E19
  8
0
  6
CONTINUOUS
 10
265.1742991219437
 20
365.03303252328652
 30
0.0
 42
0.015482213
  0
VERTEX
  5
2E1A
  8
0
  6
CONTINUOUS
 10
263.13735912194358
 20
365.67770252328648
 30
0.0
 42
0.011170747
  0
VERTEX
  5
2E1B
  8
0
  6
CONTINUOUS
 10
261.06960912194381
 20
366.2141925232865
 30
0.0
 42
0.0086851837
  0
VERTEX
  5
2E1C
  8
0
  6
CONTINUOUS
 10
258.98205912194362
 20
366.6688725232865
 30
0.0
 42
0.0071112966
  0
VERTEX
  5
2E1D
  8
0
  6
CONTINUOUS
 10
256.88034912194371
 20
367.05788252328648
 30
0.0
 42
0.0060487861
  0
VERTEX
  5
2E1E
  8
0
  6
CONTINUOUS
 10
254.7676591219435
 20
367.3919025232866
 30
0.0
 42
0.0052886795
  0
VERTEX
  5
2E1F
  8
0
  6
CONTINUOUS
 10
252.6502891219435
 20
367.67774252328661
 30
0.0
 42
0.004745088
  0
VERTEX
  5
2E20
  8
0
  6
CONTINUOUS
 10
250.52517912194349
 20
367.92140252328659
 30
0.0
 42
0.0043374779
  0
VERTEX
  5
2E21
  8
0
  6
CONTINUOUS
 10
248.39547912194351
 20
368.1265425232865
 30
0.0
 42
0.0040309373
  0
VERTEX
  5
2E22
  8
0
  6
CONTINUOUS
 10
246.26268912194351
 20
368.29604252328647
 30
0.0
 42
0.0038017218
  0
VERTEX
  5
2E23
  8
0
  6
CONTINUOUS
 10
244.1274691219437
 20
368.4321825232866
 30
0.0
 42
0.0036333144
  0
VERTEX
  5
2E24
  8
0
  6
CONTINUOUS
 10
241.99038912194371
 20
368.53655252328628
 30
0.0
 42
0.0035147919
  0
VERTEX
  5
2E25
  8
0
  6
CONTINUOUS
 10
239.8519891219434
 20
368.61041252328653
 30
0.0
 42
0.003439074
  0
VERTEX
  5
2E26
  8
0
  6
CONTINUOUS
 10
237.7127791219435
 20
368.65454252328652
 30
0.0
 42
0.0034021156
  0
VERTEX
  5
2E27
  8
0
  6
CONTINUOUS
 10
235.5730891219435
 20
368.66942252328653
 30
0.0
  0
SEQEND
  5
2E28
  8
0
  0
POLYLINE
  5
2E29
  8
0
 66
     1
 10
0.0
 20
0.0
 30
0.0
  0
VERTEX
  5
2E2A
  8
0
  6
CONTINUOUS
 10
263.31810912194351
 20
346.00646252328647
 30
0.0
 42
0.038759451
  0
VERTEX
  5
2E2B
  8
0
  6
CONTINUOUS
 10
266.0659291219435
 20
348.91730252328659
 30
0.0
 42
0.045306413
  0
VERTEX
  5
2E2C
  8
0
  6
CONTINUOUS
 10
268.28811912194362
 20
352.24502252328648
 30
0.0
 42
0.052171431
  0
VERTEX
  5
2E2D
  8
0
  6
CONTINUOUS
 10
269.82480912194347
 20
355.94282252328651
 30
0.0
 42
0.057266618
  0
VERTEX
  5
2E2E
  8
0
  6
CONTINUOUS
 10
270.51906912194357
 20
359.88158252328651
 30
0.0
 42
0.058402263
  0
VERTEX
  5
2E2F
  8
0
  6
CONTINUOUS
 10
270.28830912194371
 20
363.86978252328652
 30
0.0
 42
0.055045302
  0
VERTEX
  5
2E30
  8
0
  6
CONTINUOUS
 10
269.16279912194358
 20
367.70495252328629
 30
0.0
 42
0.048778173
  0
VERTEX
  5
2E31
  8
0
  6
CONTINUOUS
 10
267.26994912194363
 20
371.22545252328638
 30
0.0
 42
0.041944207
  0
VERTEX
  5
2E32
  8
0
  6
CONTINUOUS
 10
264.77241912194359
 20
374.34848252328652
 30
0.0
 42
0.035908261
  0
VERTEX
  5
2E33
  8
0
  6
CONTINUOUS
 10
261.81984912194361
 20
377.04929252328628
 30
0.0
 42
0.031063208
  0
VERTEX
  5
2E34
  8
0
  6
CONTINUOUS
 10
258.5331691219435
 20
379.33322252328628
 30
0.0
 42
0.027381869
  0
VERTEX
  5
2E35
  8
0
  6
CONTINUOUS
 10
255.0012391219438
 20
381.22034252328649
 30
0.0
 42
0.024647405
  0
VERTEX
  5
2E36
  8
0
  6
CONTINUOUS
 10
251.29224912194351
 20
382.73147252328653
 30
0.0
 42
0.022677562
  0
VERTEX
  5
2E37
  8
0
  6
CONTINUOUS
 10
247.4568391219436
 20
383.88614252328648
 30
0.0
 42
0.021321502
  0
VERTEX
  5
2E38
  8
0
  6
CONTINUOUS
 10
243.5344291219433
 20
384.69998252328651
 30
0.0
 42
0.020471074
  0
VERTEX
  5
2E39
  8
0
  6
CONTINUOUS
 10
239.55753912194351
 20
385.18403252328648
 30
0.0
 42
0.020088488
  0
VERTEX
  5
2E3A
  8
0
  6
CONTINUOUS
 10
235.5489391219437
 20
385.34495252328628
 30
0.0
  0
SEQEND
  5
2E3B
  8
0
  0
LINE
  5
2E3C
  8
0
 10
235.5489091219435
 20
320.71946252328638
 30
0.0
 11
263.31756912194351
 21
346.00592252328647
 31
0.0
  0
LINE
  5
2E3D
  8
0
 10
235.54896912194349
 20
305.18188352328661
 30
0.0
 11
239.54889912194341
 21
305.18188352328661
 31
0.0
  0
LINE
  5
2E3E
  8
0
 10
235.5489091219435
 20
320.71946252328638
 30
0.0
 11
235.5504391219437
 21
320.71946252328638
 31
0.0
  0
LINE
  5
2E3F
  8
0
 10
348.54891912194358
 20
318.53411252328658
 30
0.0
 11
348.54891912194358
 21
345.8020725232866
 31
0.0
  0
LINE
  5
2E40
  8
0
 10
348.54891912194358
 20
291.26620352328649
 30
0.0
 11
348.54891912194358
 21
318.53411252328658
 31
0.0
  0
LINE
  5
2E41
  8
0
 10
343.04889912194352
 20
286.35870152328658
 30
0.0
 11
347.04894912194351
 21
288.66808652328649
 31
0.0
  0
ARC
  5
2E42
  8
0
 10
344.54889912194352
 20
283.76061752328638
 30
0.0
 40
3.0
 50
119.9999999999999
 51
180.00001
  0
ARC
  5
2E43
  8
0
 10
345.54891912194358
 20
291.26620352328649
 30
0.0
 40
3.0
 50
300.0
 51
0.0
  0
ARC
  5
2E44
  8
0
 10
308.54889912194352
 20
349.97687252328632
 30
0.0
 40
8.0000000999999976
 50
90.000003000000007
 51
180.00001
  0
LINE
  5
2E45
  8
0
 10
308.54889912194352
 20
357.97682252328627
 30
0.0
 11
316.94841912194352
 21
357.97682252328627
 31
0.0
  0
LINE
  5
2E46
  8
0
 10
343.04892912194322
 20
350.70956252328648
 30
0.0
 11
347.04891912194358
 21
348.40016252328638
 31
0.0
  0
ARC
  5
2E47
  8
0
 10
344.54889912194352
 20
353.30765252328649
 30
0.0
 40
3.0
 50
179.99998999999991
 51
240.00001
  0
ARC
  5
2E48
  8
0
 10
345.54891912194358
 20
345.8020725232866
 30
0.0
 40
3.0
 50
0.0
 51
60.000002000000002
  0
LINE
  5
2E49
  8
0
 10
235.5489091219435
 20
390.03416252328651
 30
0.0
 11
312.75831912194371
 21
388.01237252328627
 31
0.0
  0
LINE
  5
2E4A
  8
0
 10
225.5489191219435
 20
368.66942252328653
 30
0.0
 11
235.54896912194349
 21
368.66942252328653
 31
0.0
  0
ARC
  5
2E4B
  8
0
 10
222.5489191219435
 20
380.7767925232863
 30
0.0
 40
3.0
 50
315.0
 51
0.0
  0
LINE
  5
2E4C
  8
0
 10
227.4790891219435
 20
389.75234252328647
 30
0.0
 11
235.5489091219435
 21
390.03416252328651
 31
0.0
  0
ARC
  5
2E4D
  8
0
 10
227.54889912194361
 20
387.75353252328631
 30
0.0
 40
2.00000007
 50
91.999997999999948
 51
180.00001
  0
ARC
  5
2E4E
  8
0
 10
312.54891912194353
 20
380.01506252328647
 30
0.0
 40
8.0000000999999976
 50
0.0
 51
88.499996999999965
  0
LINE
  5
2E4F
  8
0
 10
328.54893912194359
 20
366.5341425232865
 30
0.0
 11
337.5489391219437
 21
366.5341425232865
 31
0.0
  0
ARC
  5
2E50
  8
0
 10
328.54893912194359
 20
374.53415252328648
 30
0.0
 40
8.0000000999999976
 50
179.99998999999991
 51
270.0
  0
ARC
  5
2E51
  8
0
 10
648.89199791673161
 20
301.53411752328651
 30
0.0
 40
65.000000999999997
 50
0.0
 51
180.00001
  0
LINE
  5
2E52
  8
0
 10
533.92466591673156
 20
193.97576252328639
 30
0.0
 11
550.47610091673175
 21
305.18188352328661
 31
0.0
  0
LINE
  5
2E53
  8
0
 10
763.85930891673183
 20
193.97576252328639
 30
0.0
 11
747.30790991673155
 21
305.18191352328648
 31
0.0
  0
LINE
  5
2E54
  8
0
 10
571.89199691673184
 20
350.62781252328648
 30
0.0
 11
571.89199691673184
 21
252.27138752328639
 31
0.0
  0
LINE
  5
2E55
  8
0
 10
725.89199891673161
 20
350.62781252328648
 30
0.0
 11
725.89199891673161
 21
252.27138752328639
 31
0.0
  0
LINE
  5
2E56
  8
0
 10
713.89199891673161
 20
301.53411752328651
 30
0.0
 11
713.89199891673161
 21
211.53412952328631
 31
0.0
  0
LINE
  5
2E57
  8
0
 10
583.89199691673184
 20
301.53411752328651
 30
0.0
 11
583.89199691673184
 21
211.53412952328631
 31
0.0
  0
LINE
  5
2E58
  8
ﾁｭｳｼﾝｾﾝ1
 10
648.89199791673161
 20
171.90686561675409
 30
0.0
 11
648.89199791673161
 21
395.48703834785721
 31
0.0
  0
LINE
  5
2E59
  8
ﾁｭｳｼﾝｾﾝ1
 10
552.55113217301584
 20
265.53411452328641
 30
0.0
 11
744.53189458790303
 21
265.53411452328641
 31
0.0
  0
LINE
  5
2E5A
  8
0
 10
585.89196491673192
 20
180.5341275232864
 30
0.0
 11
711.89200091673183
 21
180.5341275232864
 31
0.0
  0
LINE
  5
2E5B
  8
0
 10
579.89196491673192
 20
196.5341295232864
 30
0.0
 11
536.8919959167315
 21
196.5341295232864
 31
0.0
  0
LINE
  5
2E5C
  8
0
 10
533.8919959167315
 20
178.53412652328629
 30
0.0
 11
583.89199691673184
 21
178.53412652328629
 31
0.0
  0
LINE
  5
2E5D
  8
ｶｸﾚｾﾝ2
 10
546.3920059167317
 20
196.5341295232864
 30
0.0
 11
546.3920059167317
 21
178.53412652328629
 31
0.0
  0
LINE
  5
2E5E
  8
ﾁｭｳｼﾝｾﾝ1
 10
553.89199391673151
 20
201.5460315232865
 30
0.0
 11
553.89199391673151
 21
175.2028275232864
 31
0.0
  0
LINE
  5
2E5F
  8
0
 10
533.8919959167315
 20
193.53412952328631
 30
0.0
 11
533.8919959167315
 21
178.53412652328629
 31
0.0
  0
ARC
  5
2E60
  8
0
 10
536.8919959167315
 20
193.53412952328631
 30
0.0
 40
3.0
 50
90.000003000000007
 51
180.00001
  0
LINE
  5
2E61
  8
ｶｸﾚｾﾝ2
 10
561.39199391673151
 20
196.5341295232864
 30
0.0
 11
561.39199391673151
 21
178.53412652328629
 31
0.0
  0
LINE
  5
2E62
  8
0
 10
583.89199691673184
 20
192.53412752328649
 30
0.0
 11
583.89199691673184
 21
178.53412652328629
 31
0.0
  0
ARC
  5
2E63
  8
0
 10
585.89196491673192
 20
178.53412652328629
 30
0.0
 40
2.00000007
 50
90.000003000000007
 51
180.00001
  0
ARC
  5
2E64
  8
0
 10
648.89199791673161
 20
252.27138752328639
 30
0.0
 40
77.000000999999983
 50
179.99998999999991
 51
212.4183899999997
  0
ARC
  5
2E65
  8
0
 10
568.89199691673184
 20
211.53412952328631
 30
0.0
 40
15.00000029999998
 50
270.0
 51
0.0
  0
ARC
  5
2E66
  8
0
 10
579.89196491673192
 20
192.53412752328649
 30
0.0
 40
4.000000199999997
 50
0.0
 51
90.000003000000007
  0
LINE
  5
2E67
  8
ｶｸﾚｾﾝ2
 10
751.39198691673153
 20
196.5341295232864
 30
0.0
 11
751.39198691673153
 21
178.53412652328629
 31
0.0
  0
LINE
  5
2E68
  8
ｶｸﾚｾﾝ2
 10
736.39200191673149
 20
196.5341295232864
 30
0.0
 11
736.39200191673149
 21
178.53412652328629
 31
0.0
  0
LINE
  5
2E69
  8
ﾁｭｳｼﾝｾﾝ1
 10
743.89198691673153
 20
200.7834585232865
 30
0.0
 11
743.89198691673153
 21
175.2028275232864
 31
0.0
  0
LINE
  5
2E6A
  8
0
 10
713.89199891673161
 20
192.53412752328649
 30
0.0
 11
713.89199891673161
 21
178.53412652328629
 31
0.0
  0
LINE
  5
2E6B
  8
0
 10
763.89199391673151
 20
193.53412952328631
 30
0.0
 11
763.89199391673151
 21
178.53412652328629
 31
0.0
  0
LINE
  5
2E6C
  8
0
 10
713.89199891673161
 20
178.53412652328629
 30
0.0
 11
763.89199391673151
 21
178.53412652328629
 31
0.0
  0
ARC
  5
2E6D
  8
0
 10
711.89200091673183
 20
178.53412652328629
 30
0.0
 40
2.00000007
 50
0.0
 51
90.000003000000007
  0
LINE
  5
2E6E
  8
0
 10
717.89200091673183
 20
196.5341295232864
 30
0.0
 11
760.89199391673162
 21
196.5341295232864
 31
0.0
  0
ARC
  5
2E6F
  8
0
 10
648.89199791673161
 20
252.27138752328639
 30
0.0
 40
77.000000999999983
 50
327.58159999999992
 51
0.0
  0
ARC
  5
2E70
  8
0
 10
728.8919989167315
 20
211.53412952328631
 30
0.0
 40
15.00000029999998
 50
179.99998999999991
 51
270.0
  0
ARC
  5
2E71
  8
0
 10
717.89200091673183
 20
192.53412752328649
 30
0.0
 40
4.000000199999997
 50
90.000003000000007
 51
180.00001
  0
ARC
  5
2E72
  8
0
 10
760.89199391673162
 20
193.53412952328631
 30
0.0
 40
3.0
 50
0.0
 51
90.000003000000007
  0
LINE
  5
2E73
  8
ﾁｭｳｼﾝｾﾝ1
 10
595.21352329771298
 20
318.53411252328658
 30
0.0
 11
703.93381180004587
 21
318.53411252328658
 31
0.0
  0
LINE
  5
2E74
  8
0
 10
720.41272091673159
 20
372.6500925232865
 30
0.0
 11
678.11489891673159
 21
385.64603252328652
 31
0.0
  0
ARC
  5
2E75
  8
0
 10
648.89199791673161
 20
290.53414652328649
 30
0.0
 40
99.500004000000004
 50
8.4654901000000002
 51
171.53450000000001
  0
LINE
  5
2E76
  8
0
 10
567.17797691673115
 20
361.85612252328639
 30
0.0
 11
554.08114391673189
 21
320.71949252328648
 31
0.0
  0
LINE
  5
2E77
  8
0
 10
410.54889912194352
 20
302.53414652328649
 30
0.0
 11
410.54889912194352
 21
337.53410252328638
 31
0.0
  0
LINE
  5
2E78
  8
0
 10
352.54893912194359
 20
301.03414652328649
 30
0.0
 11
352.54893912194359
 21
336.03410252328649
 31
0.0
  0
LINE
  5
2E79
  8
0
 10
410.54889912194352
 20
302.53414652328649
 30
0.0
 11
352.54893912194359
 21
302.53414652328649
 31
0.0
  0
LINE
  5
2E7A
  8
0
 10
410.54889912194352
 20
337.53410252328638
 30
0.0
 11
365.54889912194352
 21
337.53410252328638
 31
0.0
  0
LINE
  5
2E7B
  8
0
 10
410.54889912194352
 20
334.53410252328649
 30
0.0
 11
352.54893912194359
 21
334.53410252328649
 31
0.0
  0
LINE
  5
2E7C
  8
0
 10
365.54889912194352
 20
334.53410252328649
 30
0.0
 11
365.54889912194352
 21
337.53410252328638
 31
0.0
  0
ARC
  5
2E7D
  8
0
 10
582.42394691673155
 20
357.00215252328638
 30
0.0
 40
16.000000499999999
 50
107.0794599999999
 51
162.92053000000001
  0
CIRCLE
  5
2E7E
  8
0
 10
648.89199791673161
 20
318.53411252328658
 30
0.0
 40
29.000001000000001
  0
ARC
  5
2E7F
  8
0
 10
579.89196491673192
 20
350.62781252328648
 30
0.0
 40
8.0000000999999976
 50
138.94665000000001
 51
180.00001
  0
ARC
  5
2E80
  8
0
 10
648.89199791673161
 20
318.53411252328658
 30
0.0
 40
16.000000499999999
 50
108.20996
 51
71.790052000000003
  0
CIRCLE
  5
2E81
  8
0
 10
648.89199791673161
 20
318.53411252328658
 30
0.0
 40
2.75000007
  0
CIRCLE
  5
2E82
  8
0
 62
     2
 10
648.89199791673161
 20
318.53411252328658
 30
0.0
 40
4.000000199999997
  0
LINE
  5
2E83
  8
0
 10
653.89198391673153
 20
329.53415252328648
 30
0.0
 11
653.89198391673153
 21
337.53410252328638
 31
0.0
  0
LINE
  5
2E84
  8
0
 10
643.89198191673154
 20
329.53415252328648
 30
0.0
 11
643.89198191673154
 21
337.53410252328638
 31
0.0
  0
LINE
  5
2E85
  8
0
 10
643.89198191673154
 20
329.53415252328648
 30
0.0
 11
653.89198391673153
 21
329.53415252328648
 31
0.0
  0
LINE
  5
2E86
  8
0
 10
643.89198191673154
 20
337.53410252328638
 30
0.0
 11
653.89198391673153
 21
337.53410252328638
 31
0.0
  0
LINE
  5
2E87
  8
0
 10
577.57003391673152
 20
372.24815252328648
 30
0.0
 11
618.7066639167316
 21
385.34498252328638
 31
0.0
  0
ARC
  5
2E88
  8
0
 10
715.71359291673161
 20
357.35573252328652
 30
0.0
 40
16.000000499999999
 50
17.079463000000001
 51
72.920534000000004
  0
LINE
  5
2E89
  8
0
 10
731.00795891673135
 20
362.05490252328661
 30
0.0
 11
744.00387791673154
 21
319.75706252328638
 31
0.0
  0
ARC
  5
2E8A
  8
0
 10
717.89200091673183
 20
350.62781252328648
 30
0.0
 40
8.0000000999999976
 50
0.0
 51
41.053350999999999
  0
LINE
  5
2E8B
  8
0
 10
129.5489191219433
 20
297.47156402328631
 30
0.0
 11
119.5489191219434
 21
297.47156402328631
 31
0.0
  0
LINE
  5
2E8C
  8
0
 10
129.5489191219433
 20
311.53413002328631
 30
0.0
 11
119.5489191219434
 21
311.53413002328631
 31
0.0
  0
LINE
  5
2E8D
  8
0
 10
129.5489191219435
 20
219.53412302328641
 30
0.0
 11
119.5489191219434
 21
219.53412302328641
 31
0.0
  0
LINE
  5
2E8E
  8
0
 10
129.5489191219433
 20
233.5966860232864
 30
0.0
 11
119.5489191219434
 21
233.5966860232864
 31
0.0
  0
LINE
  5
2E8F
  8
0
 10
365.54889912194352
 20
621.17017900553947
 30
0.0
 11
410.54889912194352
 21
621.17017900553947
 31
0.0
  0
LINE
  5
2E90
  8
0
 10
365.54889912194352
 20
611.17023900553943
 30
0.0
 11
410.54889912194352
 21
611.17023900553943
 31
0.0
  0
LINE
  5
2E91
  8
0
 10
410.54889912194352
 20
600.17023900553943
 30
0.0
 11
352.5489291219435
 21
600.17023900553943
 31
0.0
  0
LINE
  5
2E92
  8
0
 10
410.54889912194352
 20
632.17017900553935
 30
0.0
 11
352.5489291219435
 21
632.17017900553935
 31
0.0
  0
LINE
  5
2E93
  8
ﾁｭｳｼﾝｾﾝ1
 10
38.658829778079038
 20
616.1702090055395
 30
0.0
 11
418.46173912194331
 21
616.1702090055395
 31
0.0
  0
LINE
  5
2E94
  8
0
 10
129.54886912194351
 20
648.13184900553961
 30
0.0
 11
175.3678391219434
 21
648.13184900553961
 31
0.0
  0
LINE
  5
2E95
  8
0
 10
129.54886912194351
 20
662.17053900553935
 30
0.0
 11
179.8379291219434
 21
662.17053900553935
 31
0.0
  0
LINE
  5
2E96
  8
0
 10
186.17246912194341
 20
674.14758900553943
 30
0.0
 11
129.54886912194351
 21
672.17023900553943
 31
0.0
  0
LINE
  5
2E97
  8
0
 10
129.54886912194351
 20
560.1702090055395
 30
0.0
 11
186.1724091219435
 21
558.19284900553953
 31
0.0
  0
LINE
  5
2E98
  8
0
 10
129.54886912194351
 20
570.16989900553949
 30
0.0
 11
179.8379291219434
 21
570.16989900553949
 31
0.0
  0
LINE
  5
2E99
  8
0
 10
129.54886912194351
 20
584.20853900553948
 30
0.0
 11
175.3678391219434
 21
584.20853900553948
 31
0.0
  0
LINE
  5
2E9A
  8
0
 10
129.54886912194351
 20
559.67020900553916
 30
0.0
 11
129.54886912194351
 21
672.67020900553916
 31
0.0
  0
ARC
  5
2E9B
  8
0
 10
365.54889912194352
 20
616.1702090055395
 30
0.0
 40
4.9999924
 50
90.000003000000945
 51
270.0
  0
LINE
  5
2E9C
  8
0
 10
159.54886912194351
 20
606.1702090055395
 30
0.0
 11
159.54886912194351
 21
626.17020900553928
 31
0.0
  0
LINE
  5
2E9D
  8
0
 10
189.0488691219436
 20
555.67020900553916
 30
0.0
 11
189.0488691219436
 21
676.67017900553935
 31
0.0
  0
LINE
  5
2E9E
  8
0
 10
198.04886912194351
 20
552.6702090055395
 30
0.0
 11
198.04886912194351
 21
679.67017900553935
 31
0.0
  0
LINE
  5
2E9F
  8
0
 10
320.5489291219435
 20
546.96344900553959
 30
0.0
 11
320.5489291219435
 21
685.37695900553945
 31
0.0
  0
LINE
  5
2EA0
  8
0
 10
365.54892912194327
 20
611.17023900553943
 30
0.0
 11
365.54892912194327
 21
621.17017900553947
 31
0.0
  0
LINE
  5
2EA1
  8
0
 10
352.5489291219435
 20
598.67023900553943
 30
0.0
 11
352.5489291219435
 21
633.67023900553943
 31
0.0
  0
LINE
  5
2EA2
  8
0
 10
348.54889912194358
 20
616.1702090055395
 30
0.0
 11
348.54889912194358
 21
643.4381790055395
 31
0.0
  0
LINE
  5
2EA3
  8
0
 10
198.04886912194351
 20
679.67017900553935
 30
0.0
 11
198.04886912194351
 21
552.67014900553943
 31
0.0
  0
LINE
  5
2EA4
  8
0
 10
225.5488691219436
 20
518.95081900553953
 30
0.0
 11
225.5488691219436
 21
713.38959900553948
 31
0.0
  0
LINE
  5
2EA5
  8
0
 10
210.5488691219436
 20
544.24127900553958
 30
0.0
 11
210.5488691219436
 21
688.09912900553945
 31
0.0
  0
LINE
  5
2EA6
  8
0
 10
341.5489291219435
 20
555.06683900553946
 30
0.0
 11
341.5489291219435
 21
677.27356900553934
 31
0.0
  0
LINE
  5
2EA7
  8
0
 10
235.5488691219436
 20
516.6702090055395
 30
0.0
 11
235.5488691219436
 21
715.67017900553935
 31
0.0
  0
POLYLINE
  5
2EA8
  8
0
 66
     1
 10
0.0
 20
0.0
 30
0.0
  0
VERTEX
  5
2EA9
  8
0
 10
235.5488691219436
 20
538.75342900553949
 30
0.0
 42
0.040442845
  0
VERTEX
  5
2EAA
  8
0
 10
247.07705912194351
 20
538.9767690055395
 30
0.0
 42
0.04246989
  0
VERTEX
  5
2EAB
  8
0
 10
258.41076912194342
 20
541.09024900553959
 30
0.0
 42
0.022672802
  0
VERTEX
  5
2EAC
  8
0
 10
263.89526912194361
 20
542.88119900553943
 30
0.0
  0
VERTEX
  5
2EAD
  8
0
 10
269.2008791219435
 20
545.15005900553945
 30
0.0
 42
-1.0
  0
SEQEND
  5
2EAE
  8
0
  0
POLYLINE
  5
2EAF
  8
0
 66
     1
 10
0.0
 20
0.0
 30
0.0
  0
VERTEX
  5
2EB0
  8
0
 10
235.5488691219436
 20
585.8937790055395
 30
0.0
 42
-0.070055462
  0
VERTEX
  5
2EB1
  8
0
 10
261.90953912194362
 20
565.69643900553945
 30
0.0
 42
-0.27110597
  0
VERTEX
  5
2EB2
  8
0
 10
270.54889912194358
 20
545.8130890055395
 30
0.0
 42
-0.2130317
  0
VERTEX
  5
2EB3
  8
0
 10
250.95843912194351
 20
527.67827900553948
 30
0.0
  0
VERTEX
  5
2EB4
  8
0
 10
235.5488691219436
 20
521.38001900553945
 30
0.0
 42
-1.0
  0
SEQEND
  5
2EB5
  8
0
  0
LINE
  5
2EB6
  8
0
 10
241.54892912194359
 20
501.17020900553962
 30
0.0
 11
344.68851912194361
 21
504.77191900553947
 31
0.0
  0
CIRCLE
  5
2EB7
  8
0
 10
205.54886912194351
 20
521.17020900553939
 30
0.0
 40
7.5
  0
LINE
  5
2EB8
  8
0
 10
187.54886912194351
 20
533.63165900553952
 30
0.0
 11
187.54886912194351
 21
509.55991900553931
 31
0.0
  0
LINE
  5
2EB9
  8
ﾁｭｳｼﾝｾﾝ1
 10
205.54886912194351
 20
534.67020900553962
 30
0.0
 11
205.54886912194351
 21
507.67020900553962
 31
0.0
  0
LINE
  5
2EBA
  8
0
 10
191.2002991219434
 20
505.5751490055394
 30
0.0
 11
241.54892912194359
 21
501.17020900553962
 31
0.0
  0
ARC
  5
2EBB
  8
0
 10
191.5488691219436
 20
509.55991900553931
 30
0.0
 40
4.0
 50
180.00001000000091
 51
265.00001000000032
  0
LINE
  5
2EBC
  8
0
 10
227.47904912194349
 20
516.95200900553959
 30
0.0
 11
235.5488691219436
 21
516.6702090055395
 31
0.0
  0
LINE
  5
2EBD
  8
0
 10
226.81040912194351
 20
508.48258900553952
 30
0.0
 11
235.20035912194351
 21
507.74857900553928
 31
0.0
  0
ARC
  5
2EBE
  8
0
 10
226.54886912194351
 20
505.49399900553948
 30
0.0
 40
3.0
 50
85.000004000000885
 51
265.0
  0
ARC
  5
2EBF
  8
0
 10
227.5488691219436
 20
518.95081900553953
 30
0.0
 40
2.0
 50
179.9999899999988
 51
268.00000999999861
  0
ARC
  5
2EC0
  8
0
 10
235.5488691219436
 20
511.73334900553931
 30
0.0
 40
4.0
 50
265.00001000000032
 51
0.0000006832495047
  0
LINE
  5
2EC1
  8
0
 10
239.5488691219436
 20
516.6702090055395
 30
0.0
 11
239.5488691219436
 21
506.80170900553958
 31
0.0
  0
ARC
  5
2EC2
  8
0
 10
234.54886912194351
 20
506.80170900553958
 30
0.0
 40
5.0
 50
265.00001000000032
 51
0.0000006832495047
  0
LINE
  5
2EC3
  8
0
 10
235.5488691219436
 20
516.6702090055395
 30
0.0
 11
239.5488691219436
 21
516.6702090055395
 31
0.0
  0
LINE
  5
2EC4
  8
0
 10
198.0489291219435
 20
552.67014900553943
 30
0.0
 11
205.72336912194359
 21
552.4021990055395
 31
0.0
  0
LINE
  5
2EC5
  8
0
 10
198.04886912194351
 20
564.13019900553945
 30
0.0
 11
210.5488691219436
 21
564.13019900553945
 31
0.0
  0
LINE
  5
2EC6
  8
0
 10
198.04886912194351
 20
579.02020900553941
 30
0.0
 11
210.5488691219436
 21
579.02020900553941
 31
0.0
  0
LINE
  5
2EC7
  8
ﾁｭｳｼﾝｾﾝ1
 10
192.0488691219436
 20
521.17020900553939
 30
0.0
 11
219.0488691219436
 21
521.17020900553939
 31
0.0
  0
LINE
  5
2EC8
  8
0
 10
190.5137191219435
 20
537.49530900553953
 30
0.0
 11
210.7288591219434
 21
542.9119690055395
 31
0.0
  0
POLYLINE
  5
2EC9
  8
0
 66
     1
 10
0.0
 20
0.0
 30
0.0
  0
VERTEX
  5
2ECA
  8
0
 10
186.98019912194351
 20
562.78957900553939
 30
0.0
  0
VERTEX
  5
2ECB
  8
0
 10
181.4367691219436
 20
570.63178900553953
 30
0.0
 42
-1.0
  0
SEQEND
  5
2ECC
  8
0
  0
ARC
  5
2ECD
  8
0
 10
191.5488691219436
 20
533.63165900553952
 30
0.0
 40
4.0
 50
105.0000000000007
 51
180.00001000000091
  0
ARC
  5
2ECE
  8
0
 10
179.0488691219436
 20
556.69910900553941
 30
0.0
 40
10.0
 50
0.0
 51
37.523535999997527
  0
ARC
  5
2ECF
  8
0
 10
186.06766912194351
 20
555.19470900553949
 30
0.0
 40
3.0
 50
4.545488300001014
 51
87.999999999999503
  0
LINE
  5
2ED0
  8
0
 10
198.04886912194351
 20
552.6702090055395
 30
0.0
 11
192.0488691219436
 21
552.6702090055395
 31
0.0
  0
ARC
  5
2ED1
  8
0
 10
192.0488691219436
 20
555.67020900553916
 30
0.0
 40
3.0
 50
180.00001000000091
 51
270.0
  0
LINE
  5
2ED2
  8
0
 10
198.04886912194351
 20
564.13019900553945
 30
0.0
 11
189.0488691219436
 21
564.13019900553945
 31
0.0
  0
POLYLINE
  5
2ED3
  8
0
 66
     1
 10
0.0
 20
0.0
 30
0.0
  0
VERTEX
  5
2ED4
  8
0
 10
173.92577912194341
 20
584.20773900553945
 30
0.0
  0
VERTEX
  5
2ED5
  8
0
 10
167.63822912194351
 20
603.16967900553925
 30
0.0
 42
-1.0
  0
SEQEND
  5
2ED6
  8
0
  0
LINE
  5
2ED7
  8
0
 10
162.54886912194351
 20
603.1702090055395
 30
0.0
 11
186.04886912194351
 21
603.1702090055395
 31
0.0
  0
ARC
  5
2ED8
  8
0
 10
162.54886912194351
 20
606.1702090055395
 30
0.0
 40
3.0
 50
180.00001000000091
 51
270.0
  0
POLYLINE
  5
2ED9
  8
0
 66
     1
 10
0.0
 20
0.0
 30
0.0
  0
VERTEX
  5
2EDA
  8
0
 10
182.3969791219433
 20
574.73561900553966
 30
0.0
 42
-0.0050917014
  0
VERTEX
  5
2EDB
  8
0
 10
181.2490591219435
 20
576.65526900553937
 30
0.0
 42
-0.0052112711
  0
VERTEX
  5
2EDC
  8
0
 10
180.1409191219436
 20
578.59815900553951
 30
0.0
 42
-0.0053447966
  0
VERTEX
  5
2EDD
  8
0
 10
179.07403912194351
 20
580.56400900553945
 30
0.0
 42
-0.0054924736
  0
VERTEX
  5
2EDE
  8
0
 10
178.0499991219435
 20
582.55252900553955
 30
0.0
  0
SEQEND
  5
2EDF
  8
0
  0
ARC
  5
2EE0
  8
0
 10
179.8379291219434
 20
573.16989900553915
 30
0.0
 40
3.0
 50
270.0
 51
31.46020299999924
  0
ARC
  5
2EE1
  8
0
 10
175.3678391219434
 20
581.20853900553925
 30
0.0
 40
3.0
 50
26.61499800000183
 51
90.000003000000945
  0
LINE
  5
2EE2
  8
0
 10
198.04886912194351
 20
579.02228900553951
 30
0.0
 11
189.0488691219436
 21
579.02228900553951
 31
0.0
  0
ARC
  5
2EE3
  8
0
 10
186.04886912194351
 20
600.1702090055395
 30
0.0
 40
3.0
 50
0.0
 51
90.000003000000945
  0
LINE
  5
2EE4
  8
0
 10
235.5488691219436
 20
538.75342900553949
 30
0.0
 11
225.5488691219436
 21
538.75342900553949
 31
0.0
  0
LINE
  5
2EE5
  8
0
 10
235.5488691219436
 20
521.38001900553945
 30
0.0
 11
225.5488691219436
 21
521.38001900553945
 31
0.0
  0
LINE
  5
2EE6
  8
0
 10
212.01334912194341
 20
540.70575900553945
 30
0.0
 11
224.67020912194349
 21
528.04889900553951
 31
0.0
  0
ARC
  5
2EE7
  8
0
 10
215.54886912194351
 20
544.24127900553958
 30
0.0
 40
5.0
 50
179.9999899999988
 51
225.0
  0
ARC
  5
2EE8
  8
0
 10
222.54886912194351
 20
525.92755900553925
 30
0.0
 40
3.0
 50
0.0
 51
44.999998000001611
  0
ARC
  5
2EE9
  8
0
 10
205.54886912194351
 20
547.40524900553953
 30
0.0
 40
5.0
 50
0.0
 51
87.999999999999503
  0
LINE
  5
2EEA
  8
0
 10
235.5488691219436
 20
585.8937790055395
 30
0.0
 11
225.5488691219436
 21
585.8937790055395
 31
0.0
  0
CIRCLE
  5
2EEB
  8
0
 10
330.54892912194339
 20
521.17020900553939
 30
0.0
 40
7.5
  0
LINE
  5
2EEC
  8
0
 10
300.54889912194358
 20
511.51477900553942
 30
0.0
 11
300.54889912194358
 21
526.95661900553955
 31
0.0
  0
LINE
  5
2EED
  8
0
 10
348.5489291219435
 20
547.17020900553916
 30
0.0
 11
348.5489291219435
 21
508.76947900553949
 31
0.0
  0
LINE
  5
2EEE
  8
ﾁｭｳｼﾝｾﾝ1
 10
330.54892912194339
 20
534.67020900553962
 30
0.0
 11
330.54892912194339
 21
507.67020900553962
 31
0.0
  0
ARC
  5
2EEF
  8
0
 10
308.54889912194352
 20
511.51477900553942
 30
0.0
 40
8.0
 50
180.00001000000091
 51
271.99999000000139
  0
ARC
  5
2EF0
  8
0
 10
344.5489291219435
 20
508.76947900553949
 30
0.0
 40
4.0
 50
272.0000000000004
 51
0.0
  0
ARC
  5
2EF1
  8
0
 10
328.00113912194348
 20
542.8126890055396
 30
0.0
 40
8.0
 50
91.500001000001546
 51
164.96420000000299
  0
LINE
  5
2EF2
  8
ﾁｭｳｼﾝｾﾝ1
 10
317.0489291219435
 20
521.17020900553939
 30
0.0
 11
344.0489291219435
 21
521.17020900553939
 31
0.0
  0
ARC
  5
2EF3
  8
0
 10
312.5489291219435
 20
546.96344900553959
 30
0.0
 40
8.0
 50
271.4999999999992
 51
0.0
  0
ARC
  5
2EF4
  8
0
 10
312.54889912194352
 20
526.95661900553955
 30
0.0
 40
12.0
 50
91.500001000001546
 51
180.00001000000091
  0
LINE
  5
2EF5
  8
0
 10
312.75833912194349
 20
538.9662290055395
 30
0.0
 11
312.23477912194352
 21
538.95252900553942
 31
0.0
  0
ARC
  5
2EF6
  8
0
 10
337.5489291219435
 20
555.06683900553946
 30
0.0
 40
4.0
 50
271.4999999999992
 51
0.0
  0
LINE
  5
2EF7
  8
0
 10
337.65363912194363
 20
551.0682190055395
 30
0.0
 11
327.79175912194353
 21
550.80997900553939
 31
0.0
  0
ARC
  5
2EF8
  8
0
 10
344.5489291219435
 20
547.17020900553916
 30
0.0
 40
4.0
 50
0.0
 51
82.819247000000175
  0
ARC
  5
2EF9
  8
0
 10
345.5489291219435
 20
555.10745900553945
 30
0.0
 40
4.0
 50
180.00001000000091
 51
262.8192499999995
  0
LINE
  5
2EFA
  8
0
 10
348.54889912194358
 20
588.90228900553961
 30
0.0
 11
348.54889912194358
 21
616.1702090055395
 31
0.0
  0
LINE
  5
2EFB
  8
0
 10
343.04886912194348
 20
583.99484900553955
 30
0.0
 11
347.04886912194348
 21
586.30423900553956
 31
0.0
  0
ARC
  5
2EFC
  8
0
 10
344.5489291219435
 20
581.39673900553942
 30
0.0
 40
3.0
 50
120.0000000000005
 51
180.00001000000091
  0
ARC
  5
2EFD
  8
0
 10
345.54889912194352
 20
588.90228900553961
 30
0.0
 40
3.0
 50
300.00001000000083
 51
0.0
  0
LINE
  5
2EFE
  8
0
 10
352.5489291219435
 20
598.67023900553943
 30
0.0
 11
348.54889912194358
 21
598.67023900553943
 31
0.0
  0
POLYLINE
  5
2EFF
  8
0
 66
     1
 10
0.0
 20
0.0
 30
0.0
  0
VERTEX
  5
2F00
  8
0
 10
235.5488691219436
 20
646.44666900553943
 30
0.0
 42
0.070055443
  0
VERTEX
  5
2F01
  8
0
 10
261.90953912194362
 20
666.64400900553926
 30
0.0
 42
0.27110593
  0
VERTEX
  5
2F02
  8
0
 10
270.54889912194358
 20
686.52734900553935
 30
0.0
 42
0.21303199
  0
VERTEX
  5
2F03
  8
0
 10
250.95843912194351
 20
704.66213900553953
 30
0.0
  0
VERTEX
  5
2F04
  8
0
 10
235.5488691219436
 20
710.96039900553944
 30
0.0
 42
-1.0
  0
SEQEND
  5
2F05
  8
0
  0
POLYLINE
  5
2F06
  8
0
 66
     1
 10
0.0
 20
0.0
 30
0.0
  0
VERTEX
  5
2F07
  8
0
 10
235.5488691219436
 20
693.58698900553952
 30
0.0
 42
-0.040442832
  0
VERTEX
  5
2F08
  8
0
 10
247.0770491219435
 20
693.36363900553954
 30
0.0
 42
-0.042469875
  0
VERTEX
  5
2F09
  8
0
 10
258.41076912194342
 20
691.25015900553944
 30
0.0
 42
-0.022671837
  0
VERTEX
  5
2F0A
  8
0
 10
263.89525912194352
 20
689.45921900553947
 30
0.0
  0
VERTEX
  5
2F0B
  8
0
 10
269.2008791219435
 20
687.1903890055396
 30
0.0
 42
-1.0
  0
SEQEND
  5
2F0C
  8
0
  0
LINE
  5
2F0D
  8
0
 10
241.54892912194359
 20
731.17017900553935
 30
0.0
 11
344.68851912194361
 21
727.56848900553939
 31
0.0
  0
CIRCLE
  5
2F0E
  8
0
 10
205.54886912194351
 20
711.17017900553935
 30
0.0
 40
7.5
  0
LINE
  5
2F0F
  8
ﾁｭｳｼﾝｾﾝ1
 10
205.54886912194351
 20
697.67017900553935
 30
0.0
 11
205.54886912194351
 21
724.67017900553935
 31
0.0
  0
LINE
  5
2F10
  8
0
 10
187.54886912194351
 20
698.70874900553952
 30
0.0
 11
187.54886912194351
 21
722.78046900553954
 31
0.0
  0
LINE
  5
2F11
  8
0
 10
198.04886912194351
 20
679.67023900553943
 30
0.0
 11
205.72336912194359
 21
679.93817900553927
 31
0.0
  0
LINE
  5
2F12
  8
0
 10
198.04886912194351
 20
653.32019900553951
 30
0.0
 11
210.5488691219436
 21
653.32019900553951
 31
0.0
  0
LINE
  5
2F13
  8
0
 10
198.04886912194351
 20
668.21021900553956
 30
0.0
 11
210.5488691219436
 21
668.21021900553956
 31
0.0
  0
LINE
  5
2F14
  8
0
 10
190.5136491219435
 20
694.84503900553955
 30
0.0
 11
210.7287991219435
 21
689.42841900553958
 31
0.0
  0
LINE
  5
2F15
  8
ﾁｭｳｼﾝｾﾝ1
 10
192.0488691219436
 20
711.17017900553935
 30
0.0
 11
219.0488691219436
 21
711.17017900553935
 31
0.0
  0
POLYLINE
  5
2F16
  8
0
 66
     1
 10
0.0
 20
0.0
 30
0.0
  0
VERTEX
  5
2F17
  8
0
 10
186.98019912194351
 20
669.55080900553958
 30
0.0
  0
VERTEX
  5
2F18
  8
0
 10
181.4367691219436
 20
661.70858900553947
 30
0.0
 42
-1.0
  0
SEQEND
  5
2F19
  8
0
  0
POLYLINE
  5
2F1A
  8
0
 66
     1
 10
0.0
 20
0.0
 30
0.0
  0
VERTEX
  5
2F1B
  8
0
 10
173.92577912194341
 20
648.13264900553963
 30
0.0
  0
VERTEX
  5
2F1C
  8
0
 10
167.63822912194351
 20
629.17072900553944
 30
0.0
 42
-1.0
  0
SEQEND
  5
2F1D
  8
0
  0
LINE
  5
2F1E
  8
0
 10
162.54886912194351
 20
629.1702090055395
 30
0.0
 11
186.04886912194351
 21
629.1702090055395
 31
0.0
  0
ARC
  5
2F1F
  8
0
 10
162.54886912194351
 20
626.17020900553928
 30
0.0
 40
3.0
 50
90.000003000000945
 51
180.00001000000091
  0
ARC
  5
2F20
  8
0
 10
186.04886912194351
 20
632.17017900553935
 30
0.0
 40
3.0
 50
270.0
 51
0.0
  0
POLYLINE
  5
2F21
  8
0
 66
     1
 10
0.0
 20
0.0
 30
0.0
  0
VERTEX
  5
2F22
  8
0
 10
182.3969791219433
 20
657.60476900553942
 30
0.0
 42
0.0050916976
  0
VERTEX
  5
2F23
  8
0
 10
181.2490591219435
 20
655.68511900553949
 30
0.0
 42
0.005211269
  0
VERTEX
  5
2F24
  8
0
 10
180.1409191219436
 20
653.74222900553946
 30
0.0
 42
0.005344796
  0
VERTEX
  5
2F25
  8
0
 10
179.07403912194351
 20
651.7763790055393
 30
0.0
 42
0.0054924746
  0
VERTEX
  5
2F26
  8
0
 10
178.0499991219435
 20
649.78786900553951
 30
0.0
  0
SEQEND
  5
2F27
  8
0
  0
ARC
  5
2F28
  8
0
 10
175.3678391219434
 20
651.13184900553961
 30
0.0
 40
3.0
 50
270.0
 51
333.38500000000118
  0
ARC
  5
2F29
  8
0
 10
179.8379291219434
 20
659.17053900553947
 30
0.0
 40
3.0
 50
328.53980000000098
 51
90.000003000000945
  0
LINE
  5
2F2A
  8
0
 10
198.04886912194351
 20
653.3181290055395
 30
0.0
 11
189.0488691219436
 21
653.3181290055395
 31
0.0
  0
ARC
  5
2F2B
  8
0
 10
186.06766912194351
 20
677.14569900553943
 30
0.0
 40
3.0
 50
272.0000000000004
 51
355.45443000000142
  0
LINE
  5
2F2C
  8
0
 10
198.04886912194351
 20
668.21021900553956
 30
0.0
 11
189.0488691219436
 21
668.21021900553956
 31
0.0
  0
ARC
  5
2F2D
  8
0
 10
179.0488691219436
 20
675.6413090055396
 30
0.0
 40
10.0
 50
322.47645999999781
 51
0.0
  0
LINE
  5
2F2E
  8
0
 10
198.04886912194351
 20
679.67017900553935
 30
0.0
 11
192.0488691219436
 21
679.67017900553935
 31
0.0
  0
ARC
  5
2F2F
  8
0
 10
192.0488691219436
 20
676.67017900553935
 30
0.0
 40
3.0
 50
90.000003000000945
 51
180.00001000000091
  0
ARC
  5
2F30
  8
0
 10
191.5488691219436
 20
698.70874900553952
 30
0.0
 40
4.0
 50
180.00001000000091
 51
254.99999000000159
  0
LINE
  5
2F31
  8
0
 10
235.5488691219436
 20
646.44666900553943
 30
0.0
 11
225.5488691219436
 21
646.44666900553943
 31
0.0
  0
LINE
  5
2F32
  8
0
 10
235.5488691219436
 20
710.96039900553944
 30
0.0
 11
225.5488691219436
 21
710.96039900553944
 31
0.0
  0
LINE
  5
2F33
  8
0
 10
235.5488691219436
 20
693.58698900553952
 30
0.0
 11
225.5488691219436
 21
693.58698900553952
 31
0.0
  0
ARC
  5
2F34
  8
0
 10
215.54886912194351
 20
688.09912900553945
 30
0.0
 40
5.0
 50
135.0
 51
180.00001000000091
  0
ARC
  5
2F35
  8
0
 10
205.54886912194351
 20
684.93518900553943
 30
0.0
 40
5.0
 50
272.0000000000004
 51
0.0
  0
LINE
  5
2F36
  8
0
 10
212.01334912194341
 20
691.63464900553959
 30
0.0
 11
224.67020912194349
 21
704.2915190055395
 31
0.0
  0
ARC
  5
2F37
  8
0
 10
222.54886912194351
 20
706.41284900553956
 30
0.0
 40
3.0
 50
315.0
 51
0.0
  0
LINE
  5
2F38
  8
0
 10
191.2002991219434
 20
726.76526900553949
 30
0.0
 11
241.54892912194359
 21
731.17023900553954
 31
0.0
  0
ARC
  5
2F39
  8
0
 10
191.5488691219436
 20
722.78046900553954
 30
0.0
 40
4.0
 50
95.00000199999856
 51
180.00001000000091
  0
LINE
  5
2F3A
  8
0
 10
227.47910912194359
 20
715.38837900553926
 30
0.0
 11
235.5488691219436
 21
715.67017900553935
 31
0.0
  0
LINE
  5
2F3B
  8
0
 10
226.81040912194351
 20
723.85785900553935
 30
0.0
 11
235.20029912194349
 21
724.59186900553959
 31
0.0
  0
ARC
  5
2F3C
  8
0
 10
226.54886912194351
 20
726.84644900553951
 30
0.0
 40
3.0
 50
95.00000199999856
 51
275.0
  0
ARC
  5
2F3D
  8
0
 10
227.5488691219436
 20
713.38959900553948
 30
0.0
 40
2.0
 50
91.999998000000545
 51
180.00001000000091
  0
ARC
  5
2F3E
  8
0
 10
235.5488691219436
 20
720.60706900553953
 30
0.0
 40
4.0
 50
0.0
 51
95.00000199999856
  0
LINE
  5
2F3F
  8
0
 10
239.5488691219436
 20
715.67017900553935
 30
0.0
 11
239.5488691219436
 21
725.53870900553943
 31
0.0
  0
LINE
  5
2F40
  8
0
 10
235.5488691219436
 20
715.67017900553935
 30
0.0
 11
239.5488691219436
 21
715.67017900553935
 31
0.0
  0
ARC
  5
2F41
  8
0
 10
234.54886912194351
 20
725.53870900553943
 30
0.0
 40
5.0
 50
0.0
 51
95.00000199999856
  0
CIRCLE
  5
2F42
  8
0
 10
330.54892912194339
 20
711.17017900553935
 30
0.0
 40
7.5
  0
LINE
  5
2F43
  8
0
 10
300.54889912194358
 20
705.38379900553934
 30
0.0
 11
300.54889912194358
 21
720.82562900553944
 31
0.0
  0
LINE
  5
2F44
  8
ﾁｭｳｼﾝｾﾝ1
 10
330.54892912194339
 20
697.67017900553935
 30
0.0
 11
330.54892912194339
 21
724.67017900553935
 31
0.0
  0
LINE
  5
2F45
  8
0
 10
348.5489291219435
 20
685.17017900553935
 30
0.0
 11
348.5489291219435
 21
723.57092900553926
 31
0.0
  0
ARC
  5
2F46
  8
0
 10
328.00113912194348
 20
689.52771900553944
 30
0.0
 40
8.0
 50
195.0357999999969
 51
268.50000000000063
  0
LINE
  5
2F47
  8
ﾁｭｳｼﾝｾﾝ1
 10
317.0489291219435
 20
711.17017900553935
 30
0.0
 11
344.0489291219435
 21
711.17017900553935
 31
0.0
  0
ARC
  5
2F48
  8
0
 10
312.5489291219435
 20
685.37695900553945
 30
0.0
 40
8.0
 50
0.0
 51
88.499997000000647
  0
ARC
  5
2F49
  8
0
 10
312.54889912194352
 20
705.38379900553934
 30
0.0
 40
12.0
 50
180.00001000000091
 51
268.50000000000063
  0
LINE
  5
2F4A
  8
0
 10
312.75833912194349
 20
693.37421900553954
 30
0.0
 11
312.2348091219435
 21
693.38794900553944
 31
0.0
  0
LINE
  5
2F4B
  8
0
 10
352.5489291219435
 20
633.67023900553943
 30
0.0
 11
348.54889912194358
 21
633.67023900553943
 31
0.0
  0
LINE
  5
2F4C
  8
0
 10
343.04889912194352
 20
648.34564900553926
 30
0.0
 11
347.04889912194352
 21
646.03626900553945
 31
0.0
  0
ARC
  5
2F4D
  8
0
 10
344.5489291219435
 20
650.94373900553967
 30
0.0
 40
3.0
 50
179.9999899999988
 51
240.00000999999969
  0
ARC
  5
2F4E
  8
0
 10
345.54889912194352
 20
643.4381790055395
 30
0.0
 40
3.0
 50
0.0
 51
60.000002000001302
  0
ARC
  5
2F4F
  8
0
 10
337.5489291219435
 20
677.27356900553934
 30
0.0
 40
4.0
 50
0.0
 51
88.499997000000647
  0
LINE
  5
2F50
  8
0
 10
337.65363912194363
 20
681.27222900553943
 30
0.0
 11
327.79172912194338
 21
681.53046900553943
 31
0.0
  0
ARC
  5
2F51
  8
0
 10
344.5489291219435
 20
685.17017900553935
 30
0.0
 40
4.0
 50
277.18075000000027
 51
0.0
  0
ARC
  5
2F52
  8
0
 10
345.5489291219435
 20
677.23291900553943
 30
0.0
 40
4.0
 50
97.180758000000822
 51
180.00001000000091
  0
ARC
  5
2F53
  8
0
 10
308.54889912194352
 20
720.82562900553944
 30
0.0
 40
8.0
 50
87.999999999999503
 51
180.00001000000091
  0
ARC
  5
2F54
  8
0
 10
344.5489291219435
 20
723.57092900553926
 30
0.0
 40
4.0
 50
0.0
 51
87.999999999999503
  0
LINE
  5
2F55
  8
0
 10
410.54889912194352
 20
600.17023900553943
 30
0.0
 11
410.54889912194352
 21
632.17017900553935
 31
0.0
  0
LINE
  5
2F56
  8
AM_0
 10
118.08440302787631
 20
567.63467509960674
 30
0.0
 11
97.477801310078135
 21
588.24127681740481
 31
0.0
  0
LINE
  5
2F57
  8
AM_0
 10
119.5488691219435
 20
671.40883035957415
 30
0.0
 11
119.54886912194451
 21
560.93158765150463
 31
0.0
  0
ARC
  5
2F58
  8
AM_0
 10
114.5488691219435
 20
564.09914119367374
 30
0.0
 40
5.0
 50
0.0
 51
45.0
1001
GENIUS_GENODEF_13
1002
{
1000
HIER
1070
     0
1002
}
1002
{
1000
MANEDIT
1070
     0
1002
}
1002
{
1000
NOSEL
1070
     0
1002
}
1002
{
1000
BEHIND
1070
     0
1002
}
1002
{
1000
OTHER
1070
     0
1002
}
1002
{
1000
REACTOR
1002
}
1001
GENIUS_GENOBJ-N-FIL_13
1002
{
1000
OWNER
1000
GEN
1002
}
  0
ARC
  5
2F59
  8
AM_0
 10
120.5488691219435
 20
560.93158765150463
 30
0.0
 40
1.0
 50
180.0
 51
268.33915276702578
1001
GENIUS_GENOBJ-N-FIL_13
1002
{
1000
OWNER
1000
GEN
1002
}
1001
GENIUS_GENODEF_13
1002
{
1000
HIER
1070
     0
1002
}
1002
{
1000
MANEDIT
1070
     0
1002
}
1002
{
1000
NOSEL
1070
     0
1002
}
1002
{
1000
BEHIND
1070
     0
1002
}
1002
{
1000
OTHER
1070
     0
1002
}
1002
{
1000
REACTOR
1002
}
  0
LINE
  5
2F5A
  8
AM_0
 10
120.5198859286604
 20
559.93200775249352
 30
0.0
 11
129.54886912194351
 21
559.67020900553916
 31
0.0
  0
LINE
  5
2F5B
  8
AM_0
 10
129.54886912194351
 20
570.1702070055394
 30
0.0
 11
119.5488691219436
 21
570.1702070055394
 31
0.0
  0
LINE
  5
2F5C
  8
AM_0
 10
129.54886912194351
 20
584.23277000553935
 30
0.0
 11
119.5488691219435
 21
584.23277000553935
 31
0.0
  0
LINE
  5
2F5D
  8
AM_0
 10
70.048869121943596
 20
623.67020900553939
 30
0.0
 11
72.048869121943596
 21
623.67020900553939
 31
0.0
  0
LINE
  5
2F5E
  8
AM_0
 10
70.048869121943596
 20
608.67020137614475
 30
0.0
 11
72.048869121943596
 21
608.67020137614475
 31
0.0
  0
LINE
  5
2F5F
  8
AM_0
 10
70.048869121943596
 20
623.67020900553939
 30
0.0
 11
70.048869121943596
 21
608.67020137614475
 31
0.0
  0
LINE
  5
2F60
  8
AM_0
 10
45.048869121943589
 20
622.17020900553916
 30
0.0
 11
70.048869121943596
 21
622.17020900553916
 31
0.0
  0
LINE
  5
2F61
  8
AM_0
 10
45.048869121943532
 20
618.17020900553916
 30
0.0
 11
63.04886912194354
 21
618.17020900553916
 31
0.0
  0
LINE
  5
2F62
  8
AM_0
 10
45.048869121943532
 20
614.17020900553916
 30
0.0
 11
63.04886912194354
 21
614.17020900553916
 31
0.0
  0
LINE
  5
2F63
  8
AM_0
 10
45.048869121943589
 20
610.17020900553916
 30
0.0
 11
70.048869121943596
 21
610.17020900553916
 31
0.0
  0
LINE
  5
2F64
  8
AM_0
 10
45.048869121943589
 20
622.17020900553916
 30
0.0
 11
45.048869121943589
 21
610.17020900553916
 31
0.0
  0
ARC
  5
2F65
  8
AM_0
 10
63.048869121943589
 20
616.1702090055395
 30
0.0
 40
1.9999999999998861
 50
270.0
 51
90.0
  0
LINE
  5
2F66
  8
AM_0
 10
63.048869121943589
 20
618.17020900553916
 30
0.0
 11
63.04886912194354
 21
614.17020900553916
 31
0.0
  0
ARC
  5
2F67
  8
AM_0
 10
74.048869121943582
 20
630.34178188079318
 30
0.0
 40
2.0
 50
135.0
 51
180.0
1001
GENIUS_GENODEF_13
1002
{
1000
HIER
1070
     0
1002
}
1002
{
1000
MANEDIT
1070
     0
1002
}
1002
{
1000
NOSEL
1070
     0
1002
}
1002
{
1000
BEHIND
1070
     0
1002
}
1002
{
1000
OTHER
1070
     0
1002
}
1002
{
1000
REACTOR
1002
}
1001
GENIUS_GENOBJ-N-FIL_13
1002
{
1000
OWNER
1000
GEN
1002
}
  0
LINE
  5
2F68
  8
AM_0
 10
94.548869121943525
 20
641.17020900553939
 30
0.0
 11
94.548869121943525
 21
591.17020900553939
 31
0.0
  0
LINE
  5
2F69
  8
AM_0
 10
74.048869121943383
 20
593.17020900553916
 30
0.0
 11
74.048869121943653
 21
639.17020900553916
 31
0.0
  0
LINE
  5
2F6A
  8
AM_0
 10
72.048869121943596
 20
630.34178188079318
 30
0.0
 11
72.048869121943596
 21
601.9986361302856
 31
0.0
  0
LINE
  5
2F6B
  8
AM_0
 10
76.048869121943582
 20
591.17020900553939
 30
0.0
 11
90.406733498212645
 21
591.17020900553939
 31
0.0
  0
ARC
  5
2F6C
  8
AM_0
 10
72.048869121943596
 20
598.34178188079295
 30
0.0
 40
2.0
 50
0.0
 51
45.0
1001
GENIUS_GENODEF_13
1002
{
1000
HIER
1070
     0
1002
}
1002
{
1000
MANEDIT
1070
     0
1002
}
1002
{
1000
NOSEL
1070
     0
1002
}
1002
{
1000
BEHIND
1070
     0
1002
}
1002
{
1000
OTHER
1070
     0
1002
}
1002
{
1000
REACTOR
1002
}
1001
GENIUS_GENOBJ-N-FIL_13
1002
{
1000
OWNER
1000
GEN
1002
}
  0
ARC
  5
2F6D
  8
AM_0
 10
76.048869121943582
 20
593.17020900553916
 30
0.0
 40
2.0
 50
180.0
 51
270.0
1001
GENIUS_GENODEF_13
1002
{
1000
HIER
1070
     0
1002
}
1002
{
1000
MANEDIT
1070
     0
1002
}
1002
{
1000
NOSEL
1070
     0
1002
}
1002
{
1000
BEHIND
1070
     0
1002
}
1002
{
1000
OTHER
1070
     0
1002
}
1002
{
1000
REACTOR
1002
}
1001
GENIUS_GENOBJ-N-FIL_13
1002
{
1000
OWNER
1000
GEN
1002
}
  0
ARC
  5
2F6E
  8
AM_0
 10
74.048869121943582
 20
601.9986361302856
 30
0.0
 40
2.0
 50
180.0
 51
225.0
1001
GENIUS_GENODEF_13
1002
{
1000
HIER
1070
     0
1002
}
1002
{
1000
MANEDIT
1070
     0
1002
}
1002
{
1000
NOSEL
1070
     0
1002
}
1002
{
1000
BEHIND
1070
     0
1002
}
1002
{
1000
OTHER
1070
     0
1002
}
1002
{
1000
REACTOR
1002
}
1001
GENIUS_GENOBJ-N-FIL_13
1002
{
1000
OWNER
1000
GEN
1002
}
  0
LINE
  5
2F6F
  8
AM_0
 10
72.634655559570547
 20
600.58442256791238
 30
0.0
 11
73.463082684316646
 21
599.7559954431664
 31
0.0
  0
ARC
  5
2F70
  8
AM_0
 10
90.406733498212589
 20
581.17020900553916
 30
0.0
 40
10.0
 50
45.0
 51
90.0
1001
GENIUS_GENOBJ-N-FIL_13
1002
{
1000
OWNER
1000
GEN
1002
}
1001
GENIUS_GENODEF_13
1002
{
1000
HIER
1070
     0
1002
}
1002
{
1000
MANEDIT
1070
     0
1002
}
1002
{
1000
NOSEL
1070
     0
1002
}
1002
{
1000
BEHIND
1070
     0
1002
}
1002
{
1000
OTHER
1070
     0
1002
}
1002
{
1000
REACTOR
1002
}
  0
LINE
  5
2F71
  8
AM_0
 10
118.08440302787631
 20
664.70574291147204
 30
0.0
 11
97.477801310078135
 21
644.09914119367374
 31
0.0
  0
LINE
  5
2F72
  8
AM_0
 10
76.048869121943582
 20
641.17020900553939
 30
0.0
 11
90.406733498212645
 21
641.17020900553939
 31
0.0
  0
ARC
  5
2F73
  8
AM_0
 10
72.048869121943596
 20
633.99863613028526
 30
0.0
 40
2.0
 50
315.0
 51
0.0
1001
GENIUS_GENODEF_13
1002
{
1000
HIER
1070
     0
1002
}
1002
{
1000
MANEDIT
1070
     0
1002
}
1002
{
1000
NOSEL
1070
     0
1002
}
1002
{
1000
BEHIND
1070
     0
1002
}
1002
{
1000
OTHER
1070
     0
1002
}
1002
{
1000
REACTOR
1002
}
1001
GENIUS_GENOBJ-N-FIL_13
1002
{
1000
OWNER
1000
GEN
1002
}
  0
ARC
  5
2F74
  8
AM_0
 10
76.048869121943582
 20
639.17020900553916
 30
0.0
 40
2.0
 50
90.0
 51
180.0
1001
GENIUS_GENODEF_13
1002
{
1000
HIER
1070
     0
1002
}
1002
{
1000
MANEDIT
1070
     0
1002
}
1002
{
1000
NOSEL
1070
     0
1002
}
1002
{
1000
BEHIND
1070
     0
1002
}
1002
{
1000
OTHER
1070
     0
1002
}
1002
{
1000
REACTOR
1002
}
1001
GENIUS_GENOBJ-N-FIL_13
1002
{
1000
OWNER
1000
GEN
1002
}
  0
LINE
  5
2F75
  8
AM_0
 10
72.634655559570547
 20
631.75599544316606
 30
0.0
 11
73.463082684316646
 21
632.5844225679125
 31
0.0
  0
ARC
  5
2F76
  8
AM_0
 10
90.406733498212645
 20
651.17020900553928
 30
0.0
 40
10.0
 50
270.0
 51
315.0
1001
GENIUS_GENODEF_13
1002
{
1000
HIER
1070
     0
1002
}
1002
{
1000
MANEDIT
1070
     0
1002
}
1002
{
1000
NOSEL
1070
     0
1002
}
1002
{
1000
BEHIND
1070
     0
1002
}
1002
{
1000
OTHER
1070
     0
1002
}
1002
{
1000
REACTOR
1002
}
1001
GENIUS_GENOBJ-N-FIL_13
1002
{
1000
OWNER
1000
GEN
1002
}
  0
LINE
  5
2F77
  8
AM_0
 10
129.54886912194351
 20
648.10764800553943
 30
0.0
 11
119.5488691219435
 21
648.10764800553943
 31
0.0
  0
LINE
  5
2F78
  8
AM_0
 10
129.54886912194351
 20
662.17021400553926
 30
0.0
 11
119.5488691219435
 21
662.17021400553926
 31
0.0
  0
ARC
  5
2F79
  8
AM_0
 10
120.5488691219435
 20
671.40883035957415
 30
0.0
 40
1.0
 50
91.660847232974191
 51
180.0
1001
GENIUS_GENOBJ-N-FIL_13
1002
{
1000
OWNER
1000
GEN
1002
}
1001
GENIUS_GENODEF_13
1002
{
1000
HIER
1070
     0
1002
}
1002
{
1000
MANEDIT
1070
     0
1002
}
1002
{
1000
NOSEL
1070
     0
1002
}
1002
{
1000
BEHIND
1070
     0
1002
}
1002
{
1000
OTHER
1070
     0
1002
}
1002
{
1000
REACTOR
1002
}
  0
ARC
  5
2F7A
  8
AM_0
 10
114.5488691219435
 20
668.24127681740481
 30
0.0
 40
5.0
 50
315.0
 51
0.0
1001
GENIUS_GENODEF_13
1002
{
1000
HIER
1070
     0
1002
}
1002
{
1000
MANEDIT
1070
     0
1002
}
1002
{
1000
NOSEL
1070
     0
1002
}
1002
{
1000
BEHIND
1070
     0
1002
}
1002
{
1000
OTHER
1070
     0
1002
}
1002
{
1000
REACTOR
1002
}
1001
GENIUS_GENOBJ-N-FIL_13
1002
{
1000
OWNER
1000
GEN
1002
}
  0
LINE
  5
2F7B
  8
AM_0
 10
120.5198859286604
 20
672.40841025858526
 30
0.0
 11
129.54886912194351
 21
672.67020900553916
 31
0.0
  0
TEXT
  5
315A
  8
AM_0
 10
529.72338446187757
 20
601.84092281609605
 30
0.0
 40
15.0
  1
VX01-800G~VX01-K20G
  0
ENDSEC
  0
EOF
