  0
SECTION
  2
HEADER
  9
$ACADVER
  1
AC1009
  9
$INSBASE
 10
0.0
 20
0.0
 30
0.0
  9
$EXTMIN
 10
166.34758976631289
 20
198.28600529085179
 30
-0.0000000000112498
  9
$EXTMAX
 10
655.63584312649436
 20
570.38782389877179
 30
0.0000000000002956
  9
$LIMMIN
 10
0.0
 20
0.0
  9
$LIMMAX
 10
853.5
 20
555.00000000000011
  9
$ORTHOMODE
 70
     0
  9
$REGENMODE
 70
     1
  9
$FILLMODE
 70
     1
  9
$QTEXTMODE
 70
     0
  9
$MIRRTEXT
 70
     1
  9
$DRAGMODE
 70
     2
  9
$LTSCALE
 40
3.0
  9
$OSMODE
 70
   551
  9
$ATTMODE
 70
     1
  9
$TEXTSIZE
 40
2.5
  9
$TRACEWID
 40
1.0
  9
$TEXTSTYLE
  7
STANDARD
  9
$CLAYER
  8
AM_0
  9
$CELTYPE
  6
BYLAYER
  9
$CECOLOR
 62
   256
  9
$DIMSCALE
 40
1.0
  9
$DIMASZ
 40
2.5
  9
$DIMEXO
 40
1.0
  9
$DIMDLI
 40
8.0
  9
$DIMRND
 40
0.0
  9
$DIMDLE
 40
0.0
  9
$DIMEXE
 40
0.6
  9
$DIMTP
 40
0.1
  9
$DIMTM
 40
0.1
  9
$DIMTXT
 40
2.5
  9
$DIMCEN
 40
0.0
  9
$DIMTSZ
 40
0.0
  9
$DIMTOL
 70
     0
  9
$DIMLIM
 70
     0
  9
$DIMTIH
 70
     0
  9
$DIMTOH
 70
     0
  9
$DIMSE1
 70
     0
  9
$DIMSE2
 70
     0
  9
$DIMTAD
 70
     1
  9
$DIMZIN
 70
     8
  9
$DIMBLK
  1

  9
$DIMASO
 70
     1
  9
$DIMSHO
 70
     1
  9
$DIMPOST
  1

  9
$DIMAPOST
  1
"
  9
$DIMALT
 70
     0
  9
$DIMALTD
 70
     2
  9
$DIMALTF
 40
0.0393701
  9
$DIMLFAC
 40
1.0
  9
$DIMTOFL
 70
     1
  9
$DIMTVP
 40
0.0
  9
$DIMTIX
 70
     0
  9
$DIMSOXD
 70
     0
  9
$DIMSAH
 70
     0
  9
$DIMBLK1
  1

  9
$DIMBLK2
  1

  9
$DIMSTYLE
  2
AM_ISO
  9
$DIMCLRD
 70
   256
  9
$DIMCLRE
 70
   256
  9
$DIMCLRT
 70
     4
  9
$DIMTFAC
 40
0.71
  9
$DIMGAP
 40
0.8
  9
$LUNITS
 70
     2
  9
$LUPREC
 70
     2
  9
$SKETCHINC
 40
1.0
  9
$FILLETRAD
 40
15.0
  9
$AUNITS
 70
     0
  9
$AUPREC
 70
     0
  9
$MENU
  1
.
  9
$ELEVATION
 40
0.0
  9
$PELEVATION
 40
0.0
  9
$THICKNESS
 40
0.0
  9
$LIMCHECK
 70
     0
  9
$BLIPMODE
 70
     0
  9
$CHAMFERA
 40
6.0
  9
$CHAMFERB
 40
3.0
  9
$SKPOLY
 70
     0
  9
$TDCREATE
 40
2452065.7341532758
  9
$TDUPDATE
 40
2458541.4097480332
  9
$TDINDWG
 40
0.0744492361
  9
$TDUSRTIMER
 40
0.0744492245
  9
$USRTIMER
 70
     1
  9
$ANGBASE
 50
0.0
  9
$ANGDIR
 70
     0
  9
$PDMODE
 70
     0
  9
$PDSIZE
 40
0.0
  9
$PLINEWID
 40
0.0
  9
$COORDS
 70
     1
  9
$SPLFRAME
 70
     0
  9
$SPLINETYPE
 70
     6
  9
$SPLINESEGS
 70
     8
  9
$ATTDIA
 70
     1
  9
$ATTREQ
 70
     1
  9
$HANDLING
 70
     1
  9
$HANDSEED
  5
2F02
  9
$SURFTAB1
 70
     6
  9
$SURFTAB2
 70
     6
  9
$SURFTYPE
 70
     6
  9
$SURFU
 70
     6
  9
$SURFV
 70
     6
  9
$UCSNAME
  2

  9
$UCSORG
 10
0.0
 20
0.0
 30
0.0
  9
$UCSXDIR
 10
1.0
 20
0.0
 30
0.0
  9
$UCSYDIR
 10
0.0
 20
1.0
 30
0.0
  9
$PUCSNAME
  2

  9
$PUCSORG
 10
0.0
 20
0.0
 30
0.0
  9
$PUCSXDIR
 10
1.0
 20
0.0
 30
0.0
  9
$PUCSYDIR
 10
0.0
 20
1.0
 30
0.0
  9
$USERI1
 70
     0
  9
$USERI2
 70
     0
  9
$USERI3
 70
     0
  9
$USERI4
 70
     0
  9
$USERI5
 70
     0
  9
$USERR1
 40
0.0
  9
$USERR2
 40
0.0
  9
$USERR3
 40
0.0
  9
$USERR4
 40
0.0
  9
$USERR5
 40
0.0
  9
$WORLDVIEW
 70
     1
  9
$SHADEDGE
 70
     3
  9
$SHADEDIF
 70
    70
  9
$TILEMODE
 70
     1
  9
$MAXACTVP
 70
    64
  9
$PLIMCHECK
 70
     0
  9
$PEXTMIN
 10
1.0000000000000000E+020
 20
1.0000000000000000E+020
 30
1.0000000000000000E+020
  9
$PEXTMAX
 10
-1.0000000000000000E+020
 20
-1.0000000000000000E+020
 30
-1.0000000000000000E+020
  9
$PLIMMIN
 10
0.0
 20
0.0
  9
$PLIMMAX
 10
420.0
 20
297.0
  9
$UNITMODE
 70
     0
  9
$VISRETAIN
 70
     1
  9
$PLINEGEN
 70
     0
  9
$PSLTSCALE
 70
     1
  0
ENDSEC
  0
SECTION
  2
TABLES
  0
TABLE
  2
VPORT
 70
     1
  0
VPORT
  2
*ACTIVE
 70
     0
 10
0.0
 20
0.0
 11
1.0
 21
1.0
 12
410.99171644640347
 22
384.33691459481179
 13
0.0
 23
0.0
 14
7.5
 24
7.5
 15
30.0
 25
30.0
 16
0.0
 26
0.0
 36
1.0
 17
0.0
 27
0.0
 37
0.0
 40
374.65629333520542
 41
1.7571592210767459
 42
50.0
 43
0.0
 44
0.0
 50
0.0
 51
0.0
 71
     0
 72
   100
 73
     1
 74
     3
 75
     0
 76
     0
 77
     0
 78
     0
  0
ENDTAB
  0
TABLE
  2
LTYPE
 70
    26
  0
LTYPE
  2
CONTINUOUS
 70
     0
  3
Solid line
 72
    65
 73
     0
 40
0.0
  0
LTYPE
  2
AM_ISO02W050
 70
     0
  3
__ __ __ __ __ __ __ __ __ __ __ __ __ __ __
 72
    65
 73
     2
 40
7.5
 49
6.0
 49
-1.5
  0
LTYPE
  2
AM_ISO08W050
 70
     0
  3
____ . ____ . ____ . ____ . ____ . ____ . ____
 72
    65
 73
     4
 40
18.0
 49
12.0
 49
-1.5
 49
3.0
 49
-1.5
  0
LTYPE
  2
AM_ISO09W050
 70
     0
  3
_____ . . _____ . . _____ . . ____ .. ____
 72
    65
 73
     6
 40
22.5
 49
12.0
 49
-1.5
 49
3.0
 49
-1.5
 49
3.0
 49
-1.5
  0
LTYPE
  2
AMCONSTR
 70
     0
  3
_______________________
 72
    65
 73
     2
 40
9999.0
 49
9999.0
 49
0.0
  0
LTYPE
  2
AM_ISO08W050X2
 70
     0
  3
__ . __ . __ . __ . __ . __
 72
    65
 73
     4
 40
9.0
 49
6.0
 49
-0.75
 49
1.5
 49
-0.75
  0
LTYPE
  2
AM_ISO02W050X2
 70
     0
  3
 _ _ _ _ _ _ _ _ _ _ _ _
 72
    65
 73
     2
 40
3.75
 49
3.0
 49
-0.75
  0
LTYPE
  2
AMZIGZAG
 70
     0
  3
/\/-/\/-/\/-/\/-/\/-/\/
 72
    65
 73
     2
 40
11.000099999999991
 49
0.0001
 49
-11.0
  0
LTYPE
  2
ACISOWELD
 70
     0
  3
_ _ _ _ _
 72
    65
 73
     2
 40
2.0
 49
2.0
 49
-1.0
  0
LTYPE
  2
ACISOTGB
 70
     0
  3
__ . . __ . .
 72
    65
 73
     6
 40
9.0
 49
4.0
 49
-1.0
 49
1.0
 49
-1.0
 49
1.0
 49
-1.0
  0
LTYPE
  2
ACISOTGL
 70
     0
  3
_ _ _ _ _
 72
    65
 73
     2
 40
3.0
 49
2.0
 49
-1.0
  0
LTYPE
  2
CENTER
 70
     0
  3
__ . __
 72
    65
 73
     4
 40
7.0
 49
4.0
 49
-1.0
 49
1.0
 49
-1.0
  0
LTYPE
  2
PHANTOM2
 70
     0
  3
Phantom (.5x) ___ _ _ ___ _ _ ___ _ _ ___ _ _
 72
    65
 73
     6
 40
31.75
 49
15.875
 49
-3.174999999999998
 49
3.174999999999998
 49
-3.174999999999998
 49
3.174999999999998
 49
-3.174999999999998
  0
LTYPE
  2
ACANSTGBM
 70
     0
  3
__ . . __ . .
 72
    65
 73
     6
 40
9.0
 49
4.0
 49
-1.0
 49
1.0
 49
-1.0
 49
1.0
 49
-1.0
  0
LTYPE
  2
ACANSTGLM
 70
     0
  3
_ _ _ _ _
 72
    65
 73
     2
 40
3.0
 49
2.0
 49
-1.0
  0
LTYPE
  2
GEN3B
 70
     0
  3
 - - - - -
 72
    65
 73
     2
 40
1.0
 49
0.5
 49
-0.5
  0
LTYPE
  2
GEN7A
 70
     0
  3
__ . __ . __
 72
    65
 73
     4
 40
7.375
 49
4.75
 49
-0.875
 49
0.875
 49
-0.875
  0
LTYPE
  2
ACJISTGB
 70
     0
  3
__ . . __ . .
 72
    65
 73
     6
 40
9.0
 49
4.0
 49
-1.0
 49
1.0
 49
-1.0
 49
1.0
 49
-1.0
  0
LTYPE
  2
ACJISTGL
 70
     0
  3
_ _ _ _ _
 72
    65
 73
     2
 40
3.0
 49
2.0
 49
-1.0
  0
LTYPE
  2
HIDDEN
 70
     0
  3
Hidden __ __ __ __ __ __ __ __ __ __ __ __ __ _
 72
    65
 73
     2
 40
0.375
 49
0.25
 49
-0.125
  0
LTYPE
  2
CENTER2
 70
     0
  3
Center (.5x) ___ _ ___ _ ___ _ ___ _ ___ _ ___
 72
    65
 73
     4
 40
1.125
 49
0.75
 49
-0.125
 49
0.125
 49
-0.125
  0
LTYPE
  2
HIDDEN2
 70
     0
  3
Hidden (.5x) _ _ _ _ _ _ _ _ _ _ _ _ _ _ _ _ _
 72
    65
 73
     2
 40
0.1875
 49
0.125
 49
-0.0625
  0
LTYPE
  2
AMZIGZAG2
 70
     0
  3
/\/-/\/-/\/-/\/-/\/-/\/
 72
    65
 73
     2
 40
0.4401
 49
0.0001
 49
-0.4400000000000002
  0
LTYPE
  2
ACANSTGB
 70
     0
  3
__ . . __ . .
 72
    65
 73
     6
 40
0.35433070866
 49
0.15748031496
 49
-0.03937007874
 49
0.03937007874
 49
-0.03937007874
 49
0.03937007874
 49
-0.03937007874
  0
LTYPE
  2
ACANSTGL
 70
     0
  3
_ _ _ _ _
 72
    65
 73
     2
 40
0.11811023622
 49
0.07874015748
 49
-0.03937007874
  0
ENDTAB
  0
TABLE
  2
LAYER
 70
     5
  0
LAYER
  2
0
 70
     0
 62
     7
  6
CONTINUOUS
  0
LAYER
  2
AM_0
 70
     0
 62
     7
  6
CONTINUOUS
  0
LAYER
  2
DEFPOINTS
 70
     0
 62
     7
  6
CONTINUOUS
  0
LAYER
  2
ｶｸﾚｾﾝ2
 70
     0
 62
     3
  6
GEN3B
  0
LAYER
  2
ﾁｭｳｼﾝｾﾝ1
 70
     0
 62
     1
  6
GEN7A
  0
ENDTAB
  0
TABLE
  2
STYLE
 70
     9
  0
STYLE
  2
STANDARD
 70
     0
 40
0.0
 41
0.8299999999999999
 50
0.0
 71
     0
 42
2.5
  3
txt.shx
  4
bigfont.shx
  0
STYLE
  2
ANNOTATIVE
 70
     0
 40
0.0
 41
1.0
 50
0.0
 71
     0
 42
0.2
  3
txt
  4

  0
STYLE
  2

 70
     1
 40
0.0
 41
1.0
 50
0.0
 71
     0
 42
2.5
  3
ltypeshp.shx
  4

  0
STYLE
  2
ACISOTS
 70
     0
 40
1.0
 41
1.0
 50
0.0
 71
     0
 42
2.5
  3
isocp.shx
  4
extfont.shx
  0
STYLE
  2
ACISOGDT
 70
     0
 40
0.0
 41
1.0
 50
0.0
 71
     0
 42
2.5
  3
amgdt.shx
  4

  0
STYLE
  2
ACANSTS
 70
     0
 40
1.0
 41
1.0
 50
0.0
 71
     0
 42
2.5
  3
romans.shx
  4
bigfont.shx
  0
STYLE
  2
ACANSGDT
 70
     0
 40
0.0
 41
1.0
 50
0.0
 71
     0
 42
2.5
  3
amgdt.shx
  4

  0
STYLE
  2
ACJISTS
 70
     0
 40
1.0
 41
1.0
 50
0.0
 71
     0
 42
2.5
  3
isocp.shx
  4
bigfont.shx
  0
STYLE
  2
ACJISGDT
 70
     0
 40
0.0
 41
1.0
 50
0.0
 71
     0
 42
2.5
  3
amgdt.shx
  4

  0
ENDTAB
  0
TABLE
  2
VIEW
 70
     6
  0
VIEW
  2
AM_VIEW1
 70
     0
 40
277.49999999999989
 10
249.64779005524849
 20
416.24999999999989
 41
499.2955801104971
 11
0.0
 21
0.0
 31
1.0
 12
0.0
 22
0.0
 32
0.0
 42
50.0
 43
0.0
 44
0.0
 50
0.0
 71
     0
  0
VIEW
  2
AM_VIEW2
 70
     0
 40
277.49999999999989
 10
603.85220994475117
 20
416.24999999999989
 41
499.2955801104971
 11
0.0
 21
0.0
 31
1.0
 12
0.0
 22
0.0
 32
0.0
 42
50.0
 43
0.0
 44
0.0
 50
0.0
 71
     0
  0
VIEW
  2
AM_VIEW3
 70
     0
 40
277.49999999999989
 10
249.64779005524849
 20
138.7499999999998
 41
499.2955801104971
 11
0.0
 21
0.0
 31
1.0
 12
0.0
 22
0.0
 32
0.0
 42
50.0
 43
0.0
 44
0.0
 50
0.0
 71
     0
  0
VIEW
  2
AM_VIEW4
 70
     0
 40
277.49999999999989
 10
603.85220994475117
 20
138.7499999999998
 41
499.2955801104971
 11
0.0
 21
0.0
 31
1.0
 12
0.0
 22
0.0
 32
0.0
 42
50.0
 43
0.0
 44
0.0
 50
0.0
 71
     0
  0
VIEW
  2
AM_VIEW5
 70
     0
 40
277.5
 10
426.75
 20
277.49999999999989
 41
499.2955801104971
 11
0.0
 21
0.0
 31
1.0
 12
0.0
 22
0.0
 32
0.0
 42
50.0
 43
0.0
 44
0.0
 50
0.0
 71
     0
  0
VIEW
  2
AM_VIEW6
 70
     0
 40
554.99445000000014
 10
426.75
 20
277.49999999999989
 41
998.5811743093924
 11
0.0
 21
0.0
 31
1.0
 12
0.0
 22
0.0
 32
0.0
 42
50.0
 43
0.0
 44
0.0
 50
0.0
 71
     0
  0
ENDTAB
  0
TABLE
  2
UCS
 70
     0
  0
ENDTAB
  0
TABLE
  2
APPID
 70
    95
  0
APPID
  2
ACAD
 70
     0
  0
APPID
  2
ACADANNOTATIVE
 70
     0
  0
APPID
  2
MCAD_NO_VIS
 70
     0
  0
APPID
  2
ACAD_TEMP_GRAPHIC
 70
     0
  0
APPID
  2
ACATTRIBSERVICES
 70
     0
  0
APPID
  2
GENIUS_GENREC_14
 70
     0
  0
APPID
  2
GENIUS_GENOBJ-N-REC_13
 70
     0
  0
APPID
  2
GENIUS_GENODEF_13
 70
     0
  0
APPID
  2
GENIUS_GENOLIS_13
 70
     0
  0
APPID
  2
GENIUS_GENOBJ-N-TIT_13
 70
     0
  0
APPID
  2
GENIUS_GENOENT_13
 70
     0
  0
APPID
  2
GENIUS_GENTITLE_13
 70
     0
  0
APPID
  2
GENIUS_GENOREF_13
 70
     0
  0
APPID
  2
GENIUS_GENSCREG_15
 70
     0
  0
APPID
  2
GENIUS_GENOBJ-N-SDF_13
 70
     0
  0
APPID
  2
GENIUS_GENFIL_13
 70
     0
  0
APPID
  2
GENIUS_GENOBJ-N-CHA_13
 70
     0
  0
APPID
  2
GENIUS_GENDTOL_13
 70
     0
  0
APPID
  2
GENIUS_GENOBJ-N-FIL_13
 70
     0
  0
APPID
  2
AD_DRAW
 70
     0
  0
APPID
  2
DESIGNERASSEMBLIES
 70
     0
  0
APPID
  2
ASURF_PCURVE_APPNAME
 70
     0
  0
APPID
  2
GENIUS_GE3SECT_13
 70
     0
  0
APPID
  2
GENIUS_GENCFG_13
 70
     0
  0
APPID
  2
GENIUS_GE3CFG0_13
 70
     0
  0
APPID
  2
GENIUS_GENCFG0_13
 70
     0
  0
APPID
  2
GENIUS_GENCFG1_13
 70
     0
  0
APPID
  2
GENIUS_GENCFG2_13
 70
     0
  0
APPID
  2
GENIUS_GENCFG3_13
 70
     0
  0
APPID
  2
GENIUS_GENCFG4_13
 70
     0
  0
APPID
  2
GENIUS_GEVCFG0_13
 70
     0
  0
APPID
  2
GENIUS_GENHINW_13
 70
     0
  0
APPID
  2
GENIUS_FIRSTVISTXT_14
 70
     0
  0
APPID
  2
GENIUS_GENOBJ-N-LEADER_13
 70
     0
  0
APPID
  2
GEV_VCCNULL_SWITCH_OFF
 70
     0
  0
APPID
  2
GENIUS_GEFCFG0_13
 70
     0
  0
APPID
  2
GENIUS_GENZVEED_13
 70
     0
  0
APPID
  2
GENIUS_GENSCREG_13
 70
     0
  0
APPID
  2
GENIUS_DUMCFG0_13
 70
     0
  0
APPID
  2
GEVID936201362
 70
     0
  0
APPID
  2
GEVDC
 70
     0
  0
APPID
  2
GEVCON
 70
     0
  0
APPID
  2
VCC
 70
     0
  0
APPID
  2
GEVPT
 70
     0
  0
APPID
  2
GEVIT
 70
     0
  0
APPID
  2
GENBH
 70
     0
  0
APPID
  2
GEVMK
 70
     0
  0
APPID
  2
GENIUS_GENBH_13
 70
     0
  0
APPID
  2
GENIUS_GENOBJ-NBEHI-BHF_13
 70
     0
  0
APPID
  2
GENIUS_GENOBJ-NBEHI-BHB_13
 70
     0
  0
APPID
  2
GENIUS_GENOBJ-F-DESC_13
 70
     0
  0
APPID
  2
GENIUS_GEFDESC_14
 70
     0
  0
APPID
  2
GENIUS_GENOBJ-F-PART_13
 70
     0
  0
APPID
  2
GENIUS_GEFSTDP_13
 70
     0
  0
APPID
  2
GENIUS_GEFPARTINS_13
 70
     0
  0
APPID
  2
GENIUS_GENTRA_14
 70
     0
  0
APPID
  2
GENIUS_GENINF13_13
 70
     0
  0
APPID
  2
GENIUS_GENOBJ-N-INFOPT_13
 70
     0
  0
APPID
  2
GENIUS_GENOBJ-N-RSSYM_13
 70
     0
  0
APPID
  2
GENIUS_GENSYMENT_13
 70
     0
  0
APPID
  2
GENIUS_GENSCSYM_13
 70
     0
  0
APPID
  2
GENIUS_GEFINFNAM_13
 70
     0
  0
APPID
  2
GENIUS_GENOBJ-N-CEN_13
 70
     0
  0
APPID
  2
GENIUS_GENOBJ-N-CRS_13
 70
     0
  0
APPID
  2
GENIUS_GENOBJ-N-CRC_13
 70
     0
  0
APPID
  2
GENIUS_GENCRC_14
 70
     0
  0
APPID
  2
GEVID942827039
 70
     0
  0
APPID
  2
GEVID942827040
 70
     0
  0
APPID
  2
GEVID942827041
 70
     0
  0
APPID
  2
GENIUS_GENOBJ-F-SCPASSM_13
 70
     0
  0
APPID
  2
GENIUS_GENDIMSH_14
 70
     0
  0
APPID
  2
GEVID942827042
 70
     0
  0
APPID
  2
GEVID946020473
 70
     0
  0
APPID
  2
GEVID946020474
 70
     0
  0
APPID
  2
GEVID946020475
 70
     0
  0
APPID
  2
GENIUS_GENOBJ-N-HTC_13
 70
     0
  0
APPID
  2
GENIUS_GENHATCH_13
 70
     0
  0
APPID
  2
GEVID948854295
 70
     0
  0
APPID
  2
GEVID939402019
 70
     0
  0
APPID
  2
GEVID952919491
 70
     0
  0
APPID
  2
GEVID952919492
 70
     0
  0
APPID
  2
GENIUS_GEFWELD_13
 70
     0
  0
APPID
  2
GENIUS_GENOBJ-F-WELS_13
 70
     0
  0
APPID
  2
GEVID952919493
 70
     0
  0
APPID
  2
GENIUS_GENOBJ-N-RSBK_13
 70
     0
  0
APPID
  2
GENIUS_GENOBJ-N-LIB_13
 70
     0
  0
APPID
  2
GENIUS_GENSCALE_13
 70
     0
  0
APPID
  2
GEVID986376691
 70
     0
  0
APPID
  2
DCO15
 70
     0
  0
APPID
  2
ACAD_DSTYLE_DIMBREAK
 70
     0
  0
APPID
  2
ACAD_DSTYLE_DIMJAG
 70
     0
  0
APPID
  2
ACAD_NAV_VCDISPLAY
 70
     0
  0
APPID
  2
ACADANNOPO
 70
     0
  0
APPID
  2
ACAD_EXEMPT_FROM_CAD_STANDARDS
 70
     0
  0
APPID
  2
ACAD_MLEADERVER
 70
     0
  0
ENDTAB
  0
TABLE
  2
DIMSTYLE
 70
    22
  0
DIMSTYLE
  2
STANDARD
 70
     0
  3

  4

  5

  6

  7

 40
1.0
 41
0.18
 42
0.0625
 43
0.38
 44
0.18
 45
0.0
 46
0.0
 47
0.0
 48
0.0
140
0.18
141
0.09
142
0.0
143
25.399999999999999
144
1.0
145
0.0
146
1.0
147
0.09
 71
     0
 72
     0
 73
     1
 74
     1
 75
     0
 76
     0
 77
     0
 78
     0
170
     0
171
     2
172
     0
173
     0
174
     0
175
     0
176
     0
177
     0
178
     0
  0
DIMSTYLE
  2
ANNOTATIVE
 70
     0
  3

  4

  5

  6

  7

 40
1.0
 41
0.18
 42
0.0625
 43
0.38
 44
0.18
 45
0.0
 46
0.0
 47
0.0
 48
0.0
140
0.18
141
0.09
142
0.0
143
25.399999999999999
144
1.0
145
0.0
146
1.0
147
0.09
 71
     0
 72
     0
 73
     1
 74
     1
 75
     0
 76
     0
 77
     0
 78
     0
170
     0
171
     2
172
     0
173
     0
174
     0
175
     0
176
     0
177
     0
178
     0
  0
DIMSTYLE
  2
AM_ISO
 70
     0
  3

  4
"
  5

  6

  7

 40
1.0
 41
2.5
 42
1.0
 43
8.0
 44
0.6
 45
0.0
 46
0.0
 47
0.1
 48
0.1
140
2.5
141
0.0
142
0.0
143
0.0393701
144
1.0
145
0.0
146
0.71
147
0.8
 71
     0
 72
     0
 73
     0
 74
     0
 75
     0
 76
     0
 77
     1
 78
     8
170
     0
171
     2
172
     1
173
     0
174
     0
175
     0
176
   256
177
   256
178
     4
  0
DIMSTYLE
  2
AM_ISO$3
 70
     0
  3

  4
"
  5

  6

  7

 40
1.0
 41
2.5
 42
1.0
 43
8.0
 44
0.6
 45
0.0
 46
0.0
 47
0.1
 48
0.1
140
2.5
141
0.0
142
0.0
143
0.0393701
144
1.0
145
0.0
146
0.71
147
0.8
 71
     0
 72
     0
 73
     0
 74
     1
 75
     0
 76
     0
 77
     1
 78
     8
170
     0
171
     2
172
     0
173
     0
174
     0
175
     0
176
   256
177
   256
178
     4
  0
DIMSTYLE
  2
AM_ISO$4
 70
     0
  3

  4
"
  5

  6

  7

 40
1.0
 41
2.5
 42
1.0
 43
8.0
 44
0.6
 45
0.0
 46
0.0
 47
0.1
 48
0.1
140
2.5
141
0.0
142
0.0
143
0.0393701
144
1.0
145
0.0
146
0.71
147
0.8
 71
     0
 72
     0
 73
     0
 74
     1
 75
     0
 76
     0
 77
     1
 78
     8
170
     0
171
     2
172
     0
173
     0
174
     0
175
     0
176
   256
177
   256
178
     4
  0
DIMSTYLE
  2
AM_ISO$6
 70
     0
  3

  4
"
  5

  6

  7

 40
1.0
 41
2.5
 42
1.0
 43
8.0
 44
0.6
 45
0.0
 46
0.0
 47
0.1
 48
0.1
140
2.5
141
0.0
142
0.0
143
0.0393701
144
1.0
145
0.0
146
0.71
147
0.8
 71
     0
 72
     0
 73
     0
 74
     0
 75
     0
 76
     0
 77
     0
 78
     8
170
     0
171
     2
172
     1
173
     0
174
     0
175
     0
176
   256
177
   256
178
     4
  0
DIMSTYLE
  2
AM_ISO$7
 70
     0
  3

  4
"
  5

  6

  7

 40
1.0
 41
2.5
 42
1.0
 43
8.0
 44
0.6
 45
0.0
 46
0.0
 47
0.1
 48
0.1
140
2.5
141
0.0
142
0.0
143
0.0393701
144
1.0
145
0.0
146
0.71
147
0.8
 71
     0
 72
     0
 73
     0
 74
     0
 75
     0
 76
     0
 77
     1
 78
     8
170
     0
171
     2
172
     1
173
     0
174
     0
175
     0
176
   256
177
   256
178
     4
  0
DIMSTYLE
  2
AM_ISO$SF
 70
     0
  3

  4
"
  5

  6

  7

 40
1.0
 41
2.5
 42
1.0
 43
10.0
 44
1.0
 45
0.0
 46
0.0
 47
0.1
 48
0.1
140
3.5
141
0.0
142
0.0
143
0.0393701
144
1.0
145
0.0
146
0.71
147
1.5
 71
     0
 72
     0
 73
     0
 74
     0
 75
     1
 76
     1
 77
     1
 78
     8
170
     0
171
     2
172
     1
173
     0
174
     0
175
     0
176
   256
177
   256
178
     2
  0
DIMSTYLE
  2
AM_ISO$SH
 70
     0
  3

  4
"
  5

  6

  7

 40
1.0
 41
2.5
 42
1.0
 43
10.0
 44
1.0
 45
0.0
 46
0.0
 47
0.1
 48
0.1
140
3.5
141
0.0
142
0.0
143
0.0393701
144
2.0
145
0.0
146
0.71
147
1.5
 71
     0
 72
     0
 73
     0
 74
     0
 75
     1
 76
     1
 77
     1
 78
     8
170
     0
171
     2
172
     1
173
     1
174
     0
175
     0
176
   256
177
   256
178
     2
  0
DIMSTYLE
  2
AM_JIS
 70
     0
  3

  4
"
  5

  6

  7

 40
1.0
 41
2.5
 42
1.0
 43
7.0
 44
1.0
 45
0.0
 46
0.0
 47
0.1
 48
0.1000000001
140
2.5
141
0.0
142
0.0
143
0.0393701
144
1.0
145
0.0
146
0.71
147
1.0
 71
     0
 72
     0
 73
     0
 74
     0
 75
     0
 76
     0
 77
     3
 78
     8
170
     0
171
     2
172
     1
173
     0
174
     0
175
     0
176
   256
177
   256
178
     4
  0
DIMSTYLE
  2
AM_JIS$3
 70
     0
  3

  4
"
  5

  6

  7

 40
1.0
 41
2.5
 42
1.0
 43
7.0
 44
1.0
 45
0.0
 46
0.0
 47
0.1
 48
0.1000000001
140
2.5
141
0.0
142
0.0
143
0.0393701
144
1.0
145
0.0
146
0.71
147
1.0
 71
     0
 72
     0
 73
     0
 74
     1
 75
     0
 76
     0
 77
     3
 78
     8
170
     0
171
     2
172
     0
173
     0
174
     0
175
     0
176
   256
177
   256
178
     4
  0
DIMSTYLE
  2
AM_JIS$4
 70
     0
  3

  4
"
  5

  6

  7

 40
1.0
 41
2.5
 42
1.0
 43
7.0
 44
1.0
 45
0.0
 46
0.0
 47
0.1
 48
0.1000000001
140
2.5
141
0.0
142
0.0
143
0.0393701
144
1.0
145
0.0
146
0.71
147
1.0
 71
     0
 72
     0
 73
     0
 74
     0
 75
     0
 76
     0
 77
     3
 78
     8
170
     0
171
     2
172
     0
173
     0
174
     0
175
     0
176
   256
177
   256
178
     4
  0
DIMSTYLE
  2
AM_JIS$6
 70
     0
  3

  4
"
  5

  6

  7

 40
1.0
 41
2.5
 42
1.0
 43
7.0
 44
1.0
 45
0.0
 46
0.0
 47
0.1
 48
0.1000000001
140
2.5
141
0.0
142
0.0
143
0.0393701
144
1.0
145
0.0
146
0.71
147
1.0
 71
     0
 72
     0
 73
     0
 74
     0
 75
     0
 76
     0
 77
     0
 78
     8
170
     0
171
     2
172
     1
173
     0
174
     0
175
     0
176
   256
177
   256
178
     4
  0
DIMSTYLE
  2
AM_JIS$7
 70
     0
  3

  4
"
  5

  6

  7

 40
1.0
 41
2.5
 42
1.0
 43
7.0
 44
1.0
 45
0.0
 46
0.0
 47
0.1
 48
0.1000000001
140
2.5
141
0.0
142
0.0
143
0.0393701
144
1.0
145
0.0
146
0.71
147
1.0
 71
     0
 72
     0
 73
     0
 74
     0
 75
     0
 76
     0
 77
     3
 78
     8
170
     0
171
     2
172
     1
173
     0
174
     0
175
     0
176
   256
177
   256
178
     4
  0
DIMSTYLE
  2
AM_JIS$SF
 70
     0
  3

  4
"
  5

  6

  7

 40
1.0
 41
2.5
 42
1.0
 43
10.0
 44
1.0
 45
0.0
 46
0.0
 47
0.1
 48
0.1
140
3.5
141
0.0
142
0.0
143
0.0393701
144
1.0
145
0.0
146
0.71
147
1.5
 71
     0
 72
     0
 73
     0
 74
     0
 75
     1
 76
     1
 77
     3
 78
     8
170
     0
171
     2
172
     1
173
     0
174
     0
175
     0
176
   256
177
   256
178
     4
  0
DIMSTYLE
  2
AM_JIS$SH
 70
     0
  3

  4
"
  5

  6

  7

 40
1.0
 41
2.5
 42
1.0
 43
10.0
 44
1.0
 45
0.0
 46
0.0
 47
0.1
 48
0.1
140
3.5
141
0.0
142
0.0
143
0.0393701
144
1.0
145
0.0
146
0.71
147
1.5
 71
     0
 72
     0
 73
     0
 74
     0
 75
     1
 76
     0
 77
     3
 78
     8
170
     0
171
     2
172
     1
173
     1
174
     0
175
     0
176
   256
177
   256
178
     4
  0
DIMSTYLE
  2
AM_ANSI
 70
     0
  3

  4
mm
  5

  6

  7

 40
1.0
 41
0.1
 42
0.05
 43
0.5
 44
0.1
 45
0.0
 46
0.0
 47
0.1
 48
0.1
140
0.12
141
0.0
142
0.0
143
25.399999999999999
144
1.0
145
0.0
146
0.71
147
0.06
 71
     0
 72
     0
 73
     1
 74
     1
 75
     0
 76
     0
 77
     0
 78
     7
170
     0
171
     2
172
     0
173
     0
174
     0
175
     0
176
   256
177
   256
178
     2
  0
DIMSTYLE
  2
AM_ANSI$3
 70
     0
  3

  4
mm
  5

  6

  7

 40
1.0
 41
0.1
 42
0.05
 43
0.5
 44
0.1
 45
0.0
 46
0.0
 47
0.1
 48
0.1
140
0.12
141
0.0
142
0.0
143
25.399999999999999
144
1.0
145
0.0
146
0.71
147
0.06
 71
     0
 72
     0
 73
     1
 74
     1
 75
     0
 76
     0
 77
     0
 78
     7
170
     0
171
     2
172
     0
173
     0
174
     0
175
     0
176
   256
177
   256
178
     2
  0
DIMSTYLE
  2
AM_ANSI$4
 70
     0
  3

  4
mm
  5

  6

  7

 40
1.0
 41
0.1
 42
0.05
 43
0.5
 44
0.1
 45
0.0
 46
0.0
 47
0.1
 48
0.1
140
0.12
141
0.0
142
0.0
143
25.399999999999999
144
1.0
145
0.0
146
0.71
147
0.06
 71
     0
 72
     0
 73
     1
 74
     1
 75
     0
 76
     0
 77
     0
 78
     7
170
     0
171
     2
172
     0
173
     0
174
     0
175
     0
176
   256
177
   256
178
     2
  0
DIMSTYLE
  2
AM_ANSI$7
 70
     0
  3

  4
mm
  5

  6

  7

 40
1.0
 41
0.1
 42
0.05
 43
0.5
 44
0.1
 45
0.0
 46
0.0
 47
0.1
 48
0.1
140
0.24
141
0.0
142
0.0
143
25.399999999999999
144
1.0
145
0.0
146
0.71
147
0.06
 71
     0
 72
     0
 73
     1
 74
     1
 75
     0
 76
     0
 77
     0
 78
     7
170
     0
171
     2
172
     0
173
     0
174
     0
175
     0
176
   256
177
   256
178
     2
  0
DIMSTYLE
  2
AM_ANSI$SF
 70
     0
  3

  4
mm
  5

  6

  7

 40
1.0
 41
0.1
 42
0.05
 43
0.5
 44
0.1
 45
0.0
 46
0.0
 47
0.1
 48
0.1
140
0.12
141
0.0
142
0.0
143
25.399999999999999
144
1.0
145
0.0
146
0.71
147
0.06
 71
     0
 72
     0
 73
     1
 74
     1
 75
     1
 76
     1
 77
     0
 78
     7
170
     0
171
     2
172
     0
173
     0
174
     0
175
     0
176
   256
177
   256
178
     2
  0
DIMSTYLE
  2
AM_ANSI$SH
 70
     0
  3

  4
mm
  5

  6

  7

 40
1.0
 41
0.1
 42
0.05
 43
0.5
 44
0.1
 45
0.0
 46
0.0
 47
0.1
 48
0.1
140
0.12
141
0.0
142
0.0
143
25.399999999999999
144
1.0
145
0.0
146
0.71
147
0.06
 71
     0
 72
     0
 73
     1
 74
     1
 75
     1
 76
     1
 77
     0
 78
     7
170
     0
171
     2
172
     0
173
     1
174
     0
175
     0
176
   256
177
   256
178
     2
  0
ENDTAB
  0
ENDSEC
  0
SECTION
  2
BLOCKS
  0
BLOCK
  8
0
  2
$MODEL_SPACE
 70
     0
 10
0.0
 20
0.0
 30
0.0
  3
$MODEL_SPACE
  1

  0
ENDBLK
  5
2D77
  8
0
  0
BLOCK
 67
     1
  8
0
  2
$PAPER_SPACE
 70
     0
 10
0.0
 20
0.0
 30
0.0
  3
$PAPER_SPACE
  1

  0
ENDBLK
  5
2D73
 67
     1
  8
0
  0
BLOCK
  8
0
  2
GENAXEH
 70
     0
 10
0.0
 20
0.0
 30
0.0
  3
GENAXEH
  1

  0
LINE
  5
2AF4
  8
0
 10
-1.0
 20
0.0
 30
0.0
 11
1.0
 21
0.0
 31
0.0
  0
ENDBLK
  5
2AF5
  8
0
  0
BLOCK
  8
0
  2
_OPEN30
 70
     0
 10
0.0
 20
0.0
 30
0.0
  3
_OPEN30
  1

  0
LINE
  5
2AF8
  8
0
 62
     0
 10
-1.0
 20
0.26794919
 30
0.0
 11
0.0
 21
0.0
 31
0.0
  0
LINE
  5
2AF9
  8
0
 62
     0
 10
0.0
 20
0.0
 30
0.0
 11
-1.0
 21
-0.26794919
 31
0.0
  0
LINE
  5
2AFA
  8
0
 62
     0
 10
0.0
 20
0.0
 30
0.0
 11
-1.0
 21
0.0
 31
0.0
  0
ENDBLK
  5
2AFB
  8
0
  0
BLOCK
  8
0
  2
_NONE
 70
     0
 10
0.0
 20
0.0
 30
0.0
  3
_NONE
  1

  0
ENDBLK
  5
2AFE
  8
0
  0
BLOCK
  8
0
  2
*U5
 70
     1
 10
0.0
 20
0.0
 30
0.0
  3
*U5
  1

  0
TEXT
  5
2B01
  8
AM_0
 62
     4
 10
709.12888974490863
 20
237.84718006622751
 30
0.0
 40
7.5
  1
95
 50
90.0
 41
0.8299999999999999
  0
TEXT
  5
2B02
  8
AM_0
 62
     3
 10
702.02888974490861
 20
250.2971800662275
 30
0.0
 40
5.3249999999999993
  1
 0
 50
90.0
 41
0.8299999999999999
  0
TEXT
  5
2B03
  8
AM_0
 62
     3
 10
709.12888974490863
 20
250.2971800662275
 30
0.0
 40
5.3249999999999993
  1
-0.5
 50
90.0
 41
0.8299999999999999
  0
ENDBLK
  5
2B04
  8
0
  0
BLOCK
  8
0
  2
_ACMFILLEDHALF
 70
     0
 10
0.0
 20
0.0
 30
0.0
  3
_ACMFILLEDHALF
  1

  0
TRACE
  5
2E6E
  8
AM_0
 62
     0
 10
-0.8
 20
0.0
 30
0.0
 11
-1.0
 21
0.166666666
 31
0.0
 12
0.0
 22
0.0
 32
0.0
 13
0.0
 23
0.0
 33
0.0
  0
LINE
  5
2E6F
  8
AM_0
 62
     0
 10
-1.0
 20
0.0
 30
0.0
 11
-0.8
 21
0.0
 31
0.0
  0
ENDBLK
  5
2E6D
  8
0
  0
ENDSEC
  0
SECTION
  2
ENTITIES
  0
LINE
  5
2B05
  8
AM_0
 10
256.3839849981614
 20
221.33348606622741
 30
0.0
 11
256.3839849981614
 21
334.33348606622729
 31
0.0
  0
LINE
  5
2B06
  8
AM_0
 10
359.38397499816108
 20
272.48817906622747
 30
0.0
 11
359.38397499816108
 21
323.1787920662274
 31
0.0
  0
LINE
  5
2B07
  8
AM_0
 10
294.38393499816118
 20
348.83350206622742
 30
0.0
 11
294.38393499816118
 21
233.6906460662274
 31
0.0
  0
LINE
  5
2B08
  8
AM_0
 10
356.38397499816108
 20
328.08448206622751
 30
0.0
 11
356.38397499816108
 21
218.5780530662274
 31
0.0
  0
LINE
  5
2B09
  8
AM_0
 10
297.38393499816118
 20
285.0497640662274
 30
0.0
 11
297.38393499816118
 21
248.3579610662274
 31
0.0
  0
LINE
  5
2B0A
  8
AM_0
 10
330.38393499816112
 20
307.6243020662273
 30
0.0
 11
330.38393499816112
 21
219.8334990662274
 31
0.0
  0
LINE
  5
2B0B
  8
AM_0
 10
343.38395499816141
 20
342.6796020662274
 30
0.0
 11
343.38395499816141
 21
233.87430306622741
 31
0.0
  0
LINE
  5
2B0C
  8
AM_0
 10
287.38400499816112
 20
319.3278420662275
 30
0.0
 11
287.38400499816112
 21
214.96341306622739
 31
0.0
  0
LINE
  5
2B0D
  8
AM_0
 10
198.8839849981614
 20
292.00505894148108
 30
0.0
 11
198.8839849981614
 21
263.66191319097362
 31
0.0
  0
LINE
  5
2B0E
  8
AM_0
 10
200.88398499816111
 20
254.83348606622721
 30
0.0
 11
200.8839849981614
 21
300.83348606622729
 31
0.0
  0
LINE
  5
2B0F
  8
AM_0
 10
221.3839849981614
 20
302.83348606622718
 30
0.0
 11
221.3839849981614
 21
252.83348606622721
 31
0.0
  0
LINE
  5
2B10
  8
AM_0
 10
246.3839849981614
 20
333.07210742026228
 30
0.0
 11
246.38398499816211
 21
222.5948647121925
 31
0.0
  0
LINE
  5
2B11
  8
AM_0
 10
171.88398499816131
 20
285.33348606622718
 30
0.0
 11
171.88398499816131
 21
271.83348606622729
 31
0.0
  0
LINE
  5
2B12
  8
AM_0
 10
196.8839849981612
 20
285.33348606622718
 30
0.0
 11
196.8839849981612
 21
270.33347843683282
 31
0.0
  0
LINE
  5
2B13
  8
AM_0
 10
291.38393499816112
 20
203.83348506622741
 30
0.0
 11
333.38393499816112
 21
203.83348506622741
 31
0.0
  0
LINE
  5
2B14
  8
AM_0
 10
286.33334499816141
 20
214.83349806622741
 30
0.0
 11
294.38393499816118
 21
214.83349806622741
 31
0.0
  0
LINE
  5
2B15
  8
AM_0
 10
291.22451499816111
 20
218.7959790662274
 30
0.0
 11
297.27509499816142
 21
247.32043806622741
 31
0.0
  0
LINE
  5
2B16
  8
AM_0
 10
244.9195189040941
 20
229.29795216029461
 30
0.0
 11
224.31291718629581
 21
249.9045538780928
 31
0.0
  0
LINE
  5
2B17
  8
AM_0
 10
171.88398499816131
 20
271.83348606622729
 30
0.0
 11
196.8839849981612
 21
271.83348606622729
 31
0.0
  0
LINE
  5
2B18
  8
AM_0
 10
202.8839849981614
 20
252.83348606622729
 30
0.0
 11
217.2418493744303
 21
252.83348606622721
 31
0.0
  0
ARC
  5
2B19
  8
AM_0
 10
202.8839849981614
 20
254.83348606622729
 30
0.0
 40
2.0
 50
180.0
 51
270.0
1001
GENIUS_GENODEF_13
1002
{
1000
HIER
1070
     0
1002
}
1002
{
1000
MANEDIT
1070
     0
1002
}
1002
{
1000
NOSEL
1070
     0
1002
}
1002
{
1000
BEHIND
1070
     0
1002
}
1002
{
1000
OTHER
1070
     0
1002
}
1002
{
1000
REACTOR
1002
}
1001
GENIUS_GENOBJ-N-FIL_13
1002
{
1000
OWNER
1000
GEN
1002
}
  0
ARC
  5
2B1A
  8
AM_0
 10
217.2418493744303
 20
242.83348606622741
 30
0.0
 40
10.0
 50
45.0
 51
90.0
1001
GENIUS_GENOBJ-N-FIL_13
1002
{
1000
OWNER
1000
GEN
1002
}
1001
GENIUS_GENODEF_13
1002
{
1000
HIER
1070
     0
1002
}
1002
{
1000
MANEDIT
1070
     0
1002
}
1002
{
1000
NOSEL
1070
     0
1002
}
1002
{
1000
BEHIND
1070
     0
1002
}
1002
{
1000
OTHER
1070
     0
1002
}
1002
{
1000
REACTOR
1002
}
  0
ARC
  5
2B1B
  8
AM_0
 10
198.8839849981614
 20
260.0050589414812
 30
0.0
 40
2.0
 50
0.0
 51
45.000000000000568
1001
GENIUS_GENODEF_13
1002
{
1000
HIER
1070
     0
1002
}
1002
{
1000
MANEDIT
1070
     0
1002
}
1002
{
1000
NOSEL
1070
     0
1002
}
1002
{
1000
BEHIND
1070
     0
1002
}
1002
{
1000
OTHER
1070
     0
1002
}
1002
{
1000
REACTOR
1002
}
1001
GENIUS_GENOBJ-N-FIL_13
1002
{
1000
OWNER
1000
GEN
1002
}
  0
LINE
  5
2B1C
  8
AM_0
 10
199.4697714357882
 20
262.2476996286004
 30
0.0
 11
200.2981985605345
 21
261.4192725038543
 31
0.0
  0
ARC
  5
2B1D
  8
AM_0
 10
200.8839849981614
 20
263.66191319097362
 30
0.0
 40
2.0
 50
180.0
 51
225.0000000000006
1001
GENIUS_GENODEF_13
1002
{
1000
HIER
1070
     0
1002
}
1002
{
1000
MANEDIT
1070
     0
1002
}
1002
{
1000
NOSEL
1070
     0
1002
}
1002
{
1000
BEHIND
1070
     0
1002
}
1002
{
1000
OTHER
1070
     0
1002
}
1002
{
1000
REACTOR
1002
}
1001
GENIUS_GENOBJ-N-FIL_13
1002
{
1000
OWNER
1000
GEN
1002
}
  0
LINE
  5
2B1E
  8
AM_0
 10
196.8839849981612
 20
270.33347843683282
 30
0.0
 11
198.8839849981614
 21
270.33347843683282
 31
0.0
  0
LINE
  5
2B1F
  8
AM_0
 10
256.3839849981614
 20
221.8335000662274
 30
0.0
 11
279.46247499816121
 21
221.2291590662274
 31
0.0
  0
LINE
  5
2B20
  8
AM_0
 10
256.3839849981614
 20
231.8334990662274
 30
0.0
 11
287.38400499816112
 21
231.8334990662274
 31
0.0
  0
LINE
  5
2B21
  8
AM_0
 10
247.35500180487799
 20
221.59528481318131
 30
0.0
 11
256.3839849981614
 21
221.33348606622741
 31
0.0
  0
ARC
  5
2B22
  8
AM_0
 10
247.3839849981612
 20
222.5948647121925
 30
0.0
 40
1.0
 50
180.0
 51
268.33915276702578
1001
GENIUS_GENOBJ-N-FIL_13
1002
{
1000
OWNER
1000
GEN
1002
}
1001
GENIUS_GENODEF_13
1002
{
1000
HIER
1070
     0
1002
}
1002
{
1000
MANEDIT
1070
     0
1002
}
1002
{
1000
NOSEL
1070
     0
1002
}
1002
{
1000
BEHIND
1070
     0
1002
}
1002
{
1000
OTHER
1070
     0
1002
}
1002
{
1000
REACTOR
1002
}
  0
ARC
  5
2B23
  8
AM_0
 10
241.3839849981612
 20
225.76241825436199
 30
0.0
 40
5.0
 50
0.0
 51
45.0
1001
GENIUS_GENODEF_13
1002
{
1000
HIER
1070
     0
1002
}
1002
{
1000
MANEDIT
1070
     0
1002
}
1002
{
1000
NOSEL
1070
     0
1002
}
1002
{
1000
BEHIND
1070
     0
1002
}
1002
{
1000
OTHER
1070
     0
1002
}
1002
{
1000
REACTOR
1002
}
1001
GENIUS_GENOBJ-N-FIL_13
1002
{
1000
OWNER
1000
GEN
1002
}
  0
LINE
  5
2B24
  8
ﾁｭｳｼﾝｾﾝ1
 10
277.3839849981614
 20
219.37895406622741
 30
0.0
 11
277.3839849981614
 21
198.2880420662274
 31
0.0
  0
LINE
  5
2B25
  8
AM_0
 10
265.3839849981614
 20
212.83348506622741
 30
0.0
 11
265.3839849981614
 21
202.83349806622741
 31
0.0
  0
LINE
  5
2B26
  8
ｶｸﾚｾﾝ2
 10
283.3839849981614
 20
214.83349806622741
 30
0.0
 11
283.3839849981614
 21
202.83349806622741
 31
0.0
  0
LINE
  5
2B27
  8
ｶｸﾚｾﾝ2
 10
271.3839849981614
 20
214.83349806622741
 30
0.0
 11
271.3839849981614
 21
202.83349806622741
 31
0.0
  0
LINE
  5
2B28
  8
AM_0
 10
265.3839849981614
 20
202.83349806622741
 30
0.0
 11
290.384004998161
 21
202.83349806622741
 31
0.0
  0
LINE
  5
2B29
  8
AM_0
 10
290.384004998161
 20
202.83349806622741
 30
0.0
 11
290.384004998161
 21
202.83349806622741
 31
0.0
  0
ARC
  5
2B2A
  8
AM_0
 10
291.38393499816112
 20
202.83349806622741
 30
0.0
 40
1.0000000199999981
 50
90.000003000000007
 51
180.00001
  0
LINE
  5
2B2B
  8
AM_0
 10
267.38393499816129
 20
214.83349806622741
 30
0.0
 11
286.33334499816141
 21
214.83349806622741
 31
0.0
  0
ARC
  5
2B2C
  8
AM_0
 10
267.38393499816129
 20
212.83348506622741
 30
0.0
 40
2.00000007
 50
90.000003000000007
 51
180.00001
  0
LINE
  5
2B2D
  8
AM_0
 10
282.38393499816118
 20
226.6177410662275
 30
0.0
 11
282.38393499816118
 21
214.83349806622741
 31
0.0
  0
ARC
  5
2B2E
  8
AM_0
 10
279.38393499816129
 20
218.2301820662274
 30
0.0
 40
3.0
 50
0.0
 51
88.499996999999965
  0
ARC
  5
2B2F
  8
AM_0
 10
286.33334499816141
 20
219.8334990662274
 30
0.0
 40
5.0000001000000003
 50
270.0
 51
348.02386999999999
  0
LINE
  5
2B30
  8
AM_0
 10
282.38393499816118
 20
228.6177570662276
 30
0.0
 11
287.38400499816112
 21
228.6177570662276
 31
0.0
  0
ARC
  5
2B31
  8
AM_0
 10
280.38398499816128
 20
226.6177410662275
 30
0.0
 40
2.00000007
 50
0.0
 51
90.000003000000007
  0
LINE
  5
2B32
  8
AM_0
 10
256.3839849981614
 20
245.8964730662274
 30
0.0
 11
287.38400499816112
 21
245.8964730662274
 31
0.0
  0
LINE
  5
2B33
  8
AM_0
 10
297.38393499816118
 20
217.83349806622741
 30
0.0
 11
297.38393499816118
 21
247.8335010662274
 31
0.0
  0
ARC
  5
2B34
  8
AM_0
 10
294.38393499816118
 20
217.83349806622741
 30
0.0
 40
3.0
 50
270.0
 51
0.0
  0
LINE
  5
2B35
  8
ﾁｭｳｼﾝｾﾝ1
 10
347.38397499816108
 20
219.37895406622741
 30
0.0
 11
347.38397499816108
 21
198.2880420662274
 31
0.0
  0
LINE
  5
2B36
  8
AM_0
 10
359.38397499816108
 20
212.83348506622741
 30
0.0
 11
359.38397499816108
 21
202.83349806622741
 31
0.0
  0
LINE
  5
2B37
  8
ｶｸﾚｾﾝ2
 10
353.38397499816108
 20
214.83349806622741
 30
0.0
 11
353.38397499816108
 21
202.83349806622741
 31
0.0
  0
LINE
  5
2B38
  8
ｶｸﾚｾﾝ2
 10
341.38397499816119
 20
214.83349806622741
 30
0.0
 11
341.38397499816119
 21
202.83349806622741
 31
0.0
  0
LINE
  5
2B39
  8
AM_0
 10
334.38395499816141
 20
202.83349806622741
 30
0.0
 11
359.38397499816108
 21
202.83349806622741
 31
0.0
  0
LINE
  5
2B3A
  8
AM_0
 10
334.38395499816141
 20
202.83349806622741
 30
0.0
 11
334.38395499816141
 21
202.83349806622741
 31
0.0
  0
ARC
  5
2B3B
  8
AM_0
 10
333.38393499816112
 20
202.83349806622741
 30
0.0
 40
1.0000000199999981
 50
0.0
 51
90.000003000000007
  0
LINE
  5
2B3C
  8
AM_0
 10
335.38397499816119
 20
214.83349806622741
 30
0.0
 11
357.38393499816118
 21
214.83349806622741
 31
0.0
  0
ARC
  5
2B3D
  8
AM_0
 10
339.38393499816112
 20
233.87430306622741
 30
0.0
 40
4.000000199999997
 50
270.0
 51
0.0
  0
ARC
  5
2B3E
  8
AM_0
 10
335.38397499816119
 20
219.8334990662274
 30
0.0
 40
5.0000001000000003
 50
180.00001
 51
270.0
  0
LINE
  5
2B3F
  8
AM_0
 10
330.38393499816112
 20
229.87431606622721
 30
0.0
 11
339.38393499816112
 21
229.87431606622721
 31
0.0
  0
ARC
  5
2B40
  8
AM_0
 10
361.38395499816153
 20
218.5780530662274
 30
0.0
 40
5.0000001000000003
 50
179.99998999999991
 51
235.15011000000001
  0
ARC
  5
2B41
  8
AM_0
 10
357.38393499816118
 20
212.83348506622741
 30
0.0
 40
2.00000007
 50
0.0
 51
90.000003000000007
  0
ARC
  5
2B42
  8
AM_0
 10
292.3839849981614
 20
248.3579610662274
 30
0.0
 40
5.0000001000000003
 50
348.02386999999999
 51
0.0
  0
LINE
  5
2B43
  8
AM_0
 10
357.38396499816122
 20
270.17879106622729
 30
0.0
 11
358.38395499816141
 21
270.75612306622747
 31
0.0
  0
ARC
  5
2B44
  8
AM_0
 10
357.38393499816118
 20
272.48817906622747
 30
0.0
 40
2.00000007
 50
300.0
 51
0.0
  0
ARC
  5
2B45
  8
AM_0
 10
358.38395499816141
 20
268.4467350662274
 30
0.0
 40
2.00000007
 50
119.9999999999999
 51
180.00001
  0
LINE
  5
2B46
  8
ﾁｭｳｼﾝｾﾝ1
 10
405.09644499816091
 20
297.83348706622752
 30
0.0
 11
277.48324896862988
 21
297.83348706622752
 31
0.0
  0
LINE
  5
2B47
  8
AM_0
 10
289.38398499816122
 20
348.83350206622742
 30
0.0
 11
294.38393499816118
 21
348.83350206622742
 31
0.0
  0
LINE
  5
2B48
  8
ﾁｭｳｼﾝｾﾝ1
 10
166.3683359788505
 20
277.83348606622729
 30
0.0
 11
291.80988472938401
 21
277.83348606622729
 31
0.0
  0
LINE
  5
2B49
  8
AM_0
 10
244.9195189040941
 20
326.36901997216012
 30
0.0
 11
224.31291718629581
 21
305.76241825436188
 31
0.0
  0
LINE
  5
2B4A
  8
AM_0
 10
171.88398499816131
 20
283.83348606622752
 30
0.0
 11
196.8839849981612
 21
283.83348606622752
 31
0.0
  0
LINE
  5
2B4B
  8
AM_0
 10
171.88398499816131
 20
285.33348606622718
 30
0.0
 11
189.8839849981612
 21
285.33348606622718
 31
0.0
  0
LINE
  5
2B4C
  8
AM_0
 10
189.8839849981612
 20
285.33348606622718
 30
0.0
 11
189.8839849981612
 21
283.83348606622752
 31
0.0
  0
LINE
  5
2B4D
  8
AM_0
 10
196.8839849981612
 20
285.33348606622718
 30
0.0
 11
198.8839849981614
 21
285.33348606622718
 31
0.0
  0
LINE
  5
2B4E
  8
AM_0
 10
199.4697714357882
 20
293.41927250385419
 30
0.0
 11
200.2981985605345
 21
294.2476996286004
 31
0.0
  0
ARC
  5
2B4F
  8
AM_0
 10
198.8839849981614
 20
295.66191319097328
 30
0.0
 40
2.0
 50
314.99999999999932
 51
0.0
1001
GENIUS_GENODEF_13
1002
{
1000
HIER
1070
     0
1002
}
1002
{
1000
MANEDIT
1070
     0
1002
}
1002
{
1000
NOSEL
1070
     0
1002
}
1002
{
1000
BEHIND
1070
     0
1002
}
1002
{
1000
OTHER
1070
     0
1002
}
1002
{
1000
REACTOR
1002
}
1001
GENIUS_GENOBJ-N-FIL_13
1002
{
1000
OWNER
1000
GEN
1002
}
  0
ARC
  5
2B50
  8
AM_0
 10
200.8839849981614
 20
292.00505894148108
 30
0.0
 40
2.0
 50
134.9999999999994
 51
180.0
1001
GENIUS_GENODEF_13
1002
{
1000
HIER
1070
     0
1002
}
1002
{
1000
MANEDIT
1070
     0
1002
}
1002
{
1000
NOSEL
1070
     0
1002
}
1002
{
1000
BEHIND
1070
     0
1002
}
1002
{
1000
OTHER
1070
     0
1002
}
1002
{
1000
REACTOR
1002
}
1001
GENIUS_GENOBJ-N-FIL_13
1002
{
1000
OWNER
1000
GEN
1002
}
  0
LINE
  5
2B51
  8
AM_0
 10
202.8839849981614
 20
302.83348606622729
 30
0.0
 11
217.2418493744303
 21
302.83348606622718
 31
0.0
  0
ARC
  5
2B52
  8
AM_0
 10
202.8839849981614
 20
300.83348606622729
 30
0.0
 40
2.0
 50
90.0
 51
180.0
1001
GENIUS_GENODEF_13
1002
{
1000
HIER
1070
     0
1002
}
1002
{
1000
MANEDIT
1070
     0
1002
}
1002
{
1000
NOSEL
1070
     0
1002
}
1002
{
1000
BEHIND
1070
     0
1002
}
1002
{
1000
OTHER
1070
     0
1002
}
1002
{
1000
REACTOR
1002
}
1001
GENIUS_GENOBJ-N-FIL_13
1002
{
1000
OWNER
1000
GEN
1002
}
  0
ARC
  5
2B53
  8
AM_0
 10
217.2418493744303
 20
312.83348606622718
 30
0.0
 40
10.0
 50
270.0
 51
315.0
1001
GENIUS_GENODEF_13
1002
{
1000
HIER
1070
     0
1002
}
1002
{
1000
MANEDIT
1070
     0
1002
}
1002
{
1000
NOSEL
1070
     0
1002
}
1002
{
1000
BEHIND
1070
     0
1002
}
1002
{
1000
OTHER
1070
     0
1002
}
1002
{
1000
REACTOR
1002
}
1001
GENIUS_GENOBJ-N-FIL_13
1002
{
1000
OWNER
1000
GEN
1002
}
  0
LINE
  5
2B54
  8
AM_0
 10
282.38393499816118
 20
327.50065206622747
 30
0.0
 11
282.38393499816118
 21
307.8615420662274
 31
0.0
  0
ARC
  5
2B55
  8
AM_0
 10
285.38393499816118
 20
319.3278420662275
 30
0.0
 40
2.00000007
 50
0.0
 51
90.000003000000007
  0
LINE
  5
2B56
  8
AM_0
 10
256.3839849981614
 20
309.77050206622738
 30
0.0
 11
282.38393499816118
 21
309.77050206622738
 31
0.0
  0
LINE
  5
2B57
  8
AM_0
 10
282.38393499816118
 20
305.86153206622748
 30
0.0
 11
287.38400499816112
 21
305.86153206622748
 31
0.0
  0
ARC
  5
2B58
  8
AM_0
 10
280.38398499816128
 20
307.8615420662274
 30
0.0
 40
2.00000007
 50
270.0
 51
0.0
  0
LINE
  5
2B59
  8
AM_0
 10
256.38392499816109
 20
333.83350206622748
 30
0.0
 11
282.5148549981613
 21
334.5177420662273
 31
0.0
  0
LINE
  5
2B5A
  8
AM_0
 10
256.3839849981614
 20
323.83348206622748
 30
0.0
 11
282.38393499816118
 21
323.83348206622748
 31
0.0
  0
ARC
  5
2B5B
  8
AM_0
 10
241.3839849981612
 20
329.90455387809283
 30
0.0
 40
5.0
 50
315.0
 51
0.0
1001
GENIUS_GENODEF_13
1002
{
1000
HIER
1070
     0
1002
}
1002
{
1000
MANEDIT
1070
     0
1002
}
1002
{
1000
NOSEL
1070
     0
1002
}
1002
{
1000
BEHIND
1070
     0
1002
}
1002
{
1000
OTHER
1070
     0
1002
}
1002
{
1000
REACTOR
1002
}
1001
GENIUS_GENOBJ-N-FIL_13
1002
{
1000
OWNER
1000
GEN
1002
}
  0
LINE
  5
2B5C
  8
AM_0
 10
247.35500180487799
 20
334.07168731927339
 30
0.0
 11
256.3839849981614
 21
334.33348606622729
 31
0.0
  0
ARC
  5
2B5D
  8
AM_0
 10
247.3839849981612
 20
333.07210742026228
 30
0.0
 40
1.0
 50
91.66084723297412
 51
180.0
1001
GENIUS_GENOBJ-N-FIL_13
1002
{
1000
OWNER
1000
GEN
1002
}
1001
GENIUS_GENODEF_13
1002
{
1000
HIER
1070
     0
1002
}
1002
{
1000
MANEDIT
1070
     0
1002
}
1002
{
1000
NOSEL
1070
     0
1002
}
1002
{
1000
BEHIND
1070
     0
1002
}
1002
{
1000
OTHER
1070
     0
1002
}
1002
{
1000
REACTOR
1002
}
  0
LINE
  5
2B5E
  8
AM_0
 10
287.38400499816112
 20
346.83349206622728
 30
0.0
 11
287.38400499816112
 21
331.50064206622727
 31
0.0
  0
LINE
  5
2B5F
  8
AM_0
 10
284.38400499816112
 20
329.5006320662273
 30
0.0
 11
285.38393499816118
 21
329.5006320662273
 31
0.0
  0
LINE
  5
2B60
  8
AM_0
 10
284.38400499816112
 20
321.32785206622748
 30
0.0
 11
285.38393499816118
 21
321.32785206622748
 31
0.0
  0
ARC
  5
2B61
  8
AM_0
 10
284.38400499816112
 20
327.50065206622747
 30
0.0
 40
2.00000007
 50
90.000003000000007
 51
180.00001
  0
ARC
  5
2B62
  8
AM_0
 10
284.38400499816112
 20
323.32783206622747
 30
0.0
 40
2.00000007
 50
179.99998999999991
 51
270.0
  0
ARC
  5
2B63
  8
AM_0
 10
285.38393499816118
 20
331.50064206622727
 30
0.0
 40
2.00000007
 50
270.0
 51
0.0
  0
ARC
  5
2B64
  8
AM_0
 10
282.38393499816118
 20
339.51604206622739
 30
0.0
 40
5.0000001000000003
 50
271.49999999999972
 51
0.0
  0
ARC
  5
2B65
  8
AM_0
 10
289.38398499816122
 20
346.83349206622728
 30
0.0
 40
2.00000007
 50
90.000003000000007
 51
180.00001
  0
LINE
  5
2B66
  8
AM_0
 10
359.38397499816108
 20
285.33348606622718
 30
0.0
 11
361.38392499816092
 21
285.33348606622718
 31
0.0
  0
LINE
  5
2B67
  8
AM_0
 10
359.38397499816108
 20
310.33348206622748
 30
0.0
 11
361.38392499816092
 21
310.33348206622748
 31
0.0
  0
LINE
  5
2B68
  8
AM_0
 10
310.38392499816092
 20
317.8039320662275
 30
0.0
 11
310.38392499816092
 21
327.35098206622729
 31
0.0
  0
LINE
  5
2B69
  8
AM_0
 10
306.38393499816118
 20
329.35099206622749
 30
0.0
 11
306.38393499816118
 21
315.80398206622749
 31
0.0
  0
LINE
  5
2B6A
  8
AM_0
 10
305.38400499816112
 20
334.36027206622748
 30
0.0
 11
305.38400499816112
 21
311.45824206622751
 31
0.0
  0
LINE
  5
2B6B
  8
AM_0
 10
308.38400499816112
 20
311.18221206622718
 30
0.0
 11
331.21868499816122
 21
311.18221206622718
 31
0.0
  0
LINE
  5
2B6C
  8
AM_0
 10
308.38400499816112
 20
311.18221206622718
 30
0.0
 11
308.38400499816112
 21
285.0497640662274
 31
0.0
  0
LINE
  5
2B6D
  8
AM_0
 10
321.2135949981614
 20
311.18221206622718
 30
0.0
 11
308.38394499816121
 21
285.0497640662274
 31
0.0
  0
LINE
  5
2B6E
  8
AM_0
 10
297.38393499816118
 20
285.0497640662274
 30
0.0
 11
308.38400499816112
 21
285.0497640662274
 31
0.0
  0
ARC
  5
2B6F
  8
AM_0
 10
309.38393499816118
 20
320.6906820662274
 30
0.0
 40
1.0000000199999981
 50
270.0
 51
0.0
  0
ARC
  5
2B70
  8
AM_0
 10
309.38393499816118
 20
318.69073206622733
 30
0.0
 40
1.0000000199999981
 50
0.0
 51
90.000003000000007
  0
ARC
  5
2B71
  8
AM_0
 10
309.38393499816118
 20
317.8039320662275
 30
0.0
 40
1.0000000199999981
 50
270.0
 51
0.0
  0
ARC
  5
2B72
  8
AM_0
 10
306.38393499816118
 20
308.45824206622751
 30
0.0
 40
2.00000007
 50
0.0
 51
90.000003000000007
  0
LINE
  5
2B73
  8
AM_0
 10
306.38393499816118
 20
316.8039720662274
 30
0.0
 11
309.38393499816118
 21
316.8039720662274
 31
0.0
  0
LINE
  5
2B74
  8
AM_0
 10
306.38393499816118
 20
319.69072206622741
 30
0.0
 11
309.38393499816118
 21
319.69072206622741
 31
0.0
  0
LINE
  5
2B75
  8
AM_0
 10
305.38400499816112
 20
315.80398206622749
 30
0.0
 11
306.38393499816118
 21
315.80398206622749
 31
0.0
  0
ARC
  5
2B76
  8
AM_0
 10
306.38393499816118
 20
311.45824206622751
 30
0.0
 40
1.0000000199999981
 50
179.99998999999991
 51
270.0
  0
ARC
  5
2B77
  8
AM_0
 10
338.38397499816102
 20
307.6243020662273
 30
0.0
 40
8.0000000999999976
 50
90.000003000000007
 51
180.00001
  0
LINE
  5
2B78
  8
AM_0
 10
338.38397499816102
 20
315.62428206622729
 30
0.0
 11
343.38395499816141
 21
315.62428206622729
 31
0.0
  0
LINE
  5
2B79
  8
AM_0
 10
294.38399499816092
 20
348.83350206622742
 30
0.0
 11
338.5148649981611
 21
347.67787206622728
 31
0.0
  0
LINE
  5
2B7A
  8
AM_0
 10
308.38400499816112
 20
329.3609520662273
 30
0.0
 11
343.38395499816141
 21
329.3609520662273
 31
0.0
  0
LINE
  5
2B7B
  8
AM_0
 10
308.38400499816112
 20
348.38833206622729
 30
0.0
 11
308.38400499816112
 21
329.3609520662273
 31
0.0
  0
LINE
  5
2B7C
  8
AM_0
 10
308.38394499816121
 20
348.38833206622729
 30
0.0
 11
321.96590499816142
 21
329.3609520662273
 31
0.0
  0
ARC
  5
2B7D
  8
AM_0
 10
309.38393499816118
 20
324.46423206622751
 30
0.0
 40
1.0000000199999981
 50
0.0
 51
90.000003000000007
  0
ARC
  5
2B7E
  8
AM_0
 10
309.38393499816118
 20
326.46421206622728
 30
0.0
 40
1.0000000199999981
 50
270.0
 51
0.0
  0
ARC
  5
2B7F
  8
AM_0
 10
309.38393499816118
 20
327.35098206622729
 30
0.0
 40
1.0000000199999981
 50
0.0
 51
90.000003000000007
  0
LINE
  5
2B80
  8
AM_0
 10
306.38393499816118
 20
328.3510020662273
 30
0.0
 11
309.38393499816118
 21
328.3510020662273
 31
0.0
  0
LINE
  5
2B81
  8
AM_0
 10
306.38393499816118
 20
325.46422206622748
 30
0.0
 11
309.38393499816118
 21
325.46422206622748
 31
0.0
  0
LINE
  5
2B82
  8
AM_0
 10
305.38400499816112
 20
329.35099206622749
 30
0.0
 11
306.38393499816118
 21
329.35099206622749
 31
0.0
  0
ARC
  5
2B83
  8
AM_0
 10
306.38393499816118
 20
334.36027206622748
 30
0.0
 40
1.0000000199999981
 50
90.000003000000007
 51
180.00001
  0
ARC
  5
2B84
  8
AM_0
 10
306.38393499816118
 20
337.36027206622748
 30
0.0
 40
2.00000007
 50
270.0
 51
0.0
  0
ARC
  5
2B85
  8
AM_0
 10
348.38393499816118
 20
336.55249206622739
 30
0.0
 40
5.0000001000000003
 50
179.99998999999991
 51
265.0
  0
LINE
  5
2B86
  8
AM_0
 10
347.94818499816108
 20
331.57153206622752
 30
0.0
 11
353.64545499816109
 21
331.0730820662273
 31
0.0
  0
LINE
  5
2B87
  8
AM_0
 10
357.38396499816122
 20
325.48819206622738
 30
0.0
 11
358.3839849981614
 21
324.91084206622747
 31
0.0
  0
ARC
  5
2B88
  8
AM_0
 10
353.38397499816108
 20
328.08448206622751
 30
0.0
 40
3.0
 50
0.0
 51
84.999996999999979
  0
ARC
  5
2B89
  8
AM_0
 10
358.38395499816141
 20
327.22024206622729
 30
0.0
 40
2.00000007
 50
179.99998999999991
 51
240.00001
  0
ARC
  5
2B8A
  8
AM_0
 10
357.38393499816118
 20
323.1787920662274
 30
0.0
 40
2.00000007
 50
0.0
 51
60.000002000000002
  0
ARC
  5
2B8B
  8
AM_0
 10
338.38397499816102
 20
342.6796020662274
 30
0.0
 40
5.0000001000000003
 50
0.0
 51
88.499996999999965
  0
LINE
  5
2B8C
  8
AM_0
 10
361.38392499816092
 20
309.83347206622722
 30
0.0
 11
401.38397499816091
 21
309.83347206622722
 31
0.0
  0
LINE
  5
2B8D
  8
AM_0
 10
361.38392499816092
 20
285.83348706622752
 30
0.0
 11
401.38397499816091
 21
285.83348706622752
 31
0.0
  0
LINE
  5
2B8E
  8
AM_0
 10
369.38393499816118
 20
312.83347206622739
 30
0.0
 11
401.38397499816091
 21
312.83347206622739
 31
0.0
  0
LINE
  5
2B8F
  8
AM_0
 10
361.38392499816092
 20
310.33348206622748
 30
0.0
 11
361.38392499816092
 21
285.33348606622718
 31
0.0
  0
LINE
  5
2B90
  8
AM_0
 10
369.38393499816118
 20
312.83347206622739
 30
0.0
 11
369.38393499816118
 21
309.83347206622722
 31
0.0
  0
LINE
  5
2B91
  8
AM_0
 10
401.38397499816091
 20
312.83347206622739
 30
0.0
 11
401.38397499816091
 21
285.83348706622752
 31
0.0
  0
LINE
  5
2B92
  8
ﾁｭｳｼﾝｾﾝ1
 10
561.12773242517915
 20
352.89905941032958
 30
0.0
 11
561.12773242517915
 21
198.5992140662274
 31
0.0
  0
LINE
  5
2B93
  8
AM_0
 10
639.12773242517926
 20
214.83349806622741
 30
0.0
 11
628.35931642517914
 21
317.46367206622728
 31
0.0
  0
LINE
  5
2B94
  8
AM_0
 10
483.12772342517923
 20
214.83349806622741
 30
0.0
 11
493.89616342517911
 21
317.46367206622728
 31
0.0
  0
LINE
  5
2B95
  8
AM_0
 10
614.12773342517926
 20
313.08604206622732
 30
0.0
 11
614.12773342517926
 21
251.83348506622741
 31
0.0
  0
LINE
  5
2B96
  8
AM_0
 10
508.1277734251791
 20
313.08604206622732
 30
0.0
 11
508.1277734251791
 21
251.83348506622741
 31
0.0
  0
LINE
  5
2B97
  8
AM_0
 10
513.12772342517917
 20
282.83348706622741
 30
0.0
 11
513.12772342517917
 21
219.8334990662274
 31
0.0
  0
LINE
  5
2B98
  8
AM_0
 10
609.12773242517915
 20
282.83348706622741
 30
0.0
 11
609.12773242517915
 21
219.8334990662274
 31
0.0
  0
ARC
  5
2B99
  8
AM_0
 10
561.12773242517915
 20
297.83348706622752
 30
0.0
 40
26.500002599999998
 50
90.000003000000007
 51
270.0
  0
ARC
  5
2B9A
  8
AM_0
 10
561.12773242517915
 20
282.83348706622741
 30
0.0
 40
48.0
 50
0.0
 51
180.00001
  0
ARC
  5
2B9B
  8
AM_0
 10
561.12773242517915
 20
297.83348706622752
 30
0.0
 40
26.500002599999998
 50
270.0
 51
90.000003000000007
  0
LINE
  5
2B9C
  8
AM_0
 10
532.24687042517905
 20
215.65246806622741
 30
0.0
 11
527.66645542517904
 21
212.1377760662273
 31
0.0
  0
LINE
  5
2B9D
  8
AM_0
 10
528.42005842517915
 20
206.4136530662274
 30
0.0
 11
533.75407342517906
 21
204.20422506622731
 31
0.0
  0
LINE
  5
2B9E
  8
AM_0
 10
608.12773342517949
 20
203.83351506622751
 30
0.0
 11
514.12777342517904
 21
203.83351506622751
 31
0.0
  0
LINE
  5
2B9F
  8
AM_0
 10
527.12773042517927
 20
219.8334990662274
 30
0.0
 11
595.12774642517934
 21
219.8334990662274
 31
0.0
  0
CIRCLE
  5
2BA0
  8
AM_0
 10
533.00044042517902
 20
209.9283630662274
 30
0.0
 40
4.9999998000000003
  0
ARC
  5
2BA1
  8
AM_0
 10
542.12773042517938
 20
251.83348506622741
 30
0.0
 40
34.000001999999988
 50
179.99998999999991
 51
211.46697
  0
LINE
  5
2BA2
  8
AM_0
 10
483.12772342517923
 20
202.83349806622741
 30
0.0
 11
513.12772342517917
 21
202.83349806622741
 31
0.0
  0
LINE
  5
2BA3
  8
AM_0
 10
511.12777342517921
 20
214.83349806622741
 30
0.0
 11
485.12773342517892
 21
214.83349806622741
 31
0.0
  0
LINE
  5
2BA4
  8
ﾁｭｳｼﾝｾﾝ1
 10
496.12774342517918
 20
219.37895406622741
 30
0.0
 11
496.12774342517918
 21
198.2880420662274
 31
0.0
  0
LINE
  5
2BA5
  8
ｶｸﾚｾﾝ2
 10
490.1277734251791
 20
214.83349806622741
 30
0.0
 11
490.1277734251791
 21
202.83349806622741
 31
0.0
  0
LINE
  5
2BA6
  8
AM_0
 10
483.12772342517923
 20
202.83349806622741
 30
0.0
 11
483.12772342517923
 21
214.83349806622741
 31
0.0
  0
ARC
  5
2BA7
  8
AM_0
 10
485.12773342517892
 20
212.83351506622739
 30
0.0
 40
2.00000007
 50
90.000003000000007
 51
180.00001
  0
LINE
  5
2BA8
  8
ｶｸﾚｾﾝ2
 10
502.1277734251791
 20
214.83349806622741
 30
0.0
 11
502.1277734251791
 21
202.83349806622741
 31
0.0
  0
LINE
  5
2BA9
  8
AM_0
 10
522.12772942517904
 20
214.83349806622741
 30
0.0
 11
522.12772942517904
 21
208.83349806622741
 31
0.0
  0
LINE
  5
2BAA
  8
AM_0
 10
513.12772342517917
 20
202.83349806622741
 30
0.0
 11
513.12772342517917
 21
212.83351506622739
 31
0.0
  0
ARC
  5
2BAB
  8
AM_0
 10
515.12773042517915
 20
203.83351506622751
 30
0.0
 40
2.00000007
 50
90.000003000000007
 51
180.00001
  0
ARC
  5
2BAC
  8
AM_0
 10
514.12777342517904
 20
202.83349806622741
 30
0.0
 40
1.0000000199999981
 50
90.000003000000007
 51
180.00001
  0
LINE
  5
2BAD
  8
AM_0
 10
519.12772942517904
 20
205.83349806622729
 30
0.0
 11
515.12773042517915
 21
205.83349806622729
 31
0.0
  0
ARC
  5
2BAE
  8
AM_0
 10
519.12772942517904
 20
208.83349806622741
 30
0.0
 40
3.0
 50
270.0
 51
0.0
  0
LINE
  5
2BAF
  8
AM_0
 10
527.66642542517911
 20
212.13779106622741
 30
0.0
 11
528.42002842517923
 21
206.41368306622741
 31
0.0
  0
ARC
  5
2BB0
  8
AM_0
 10
508.1277734251791
 20
219.8334990662274
 30
0.0
 40
5.0000001000000003
 50
270.0
 51
0.0
  0
ARC
  5
2BB1
  8
AM_0
 10
511.12777342517921
 20
212.83351506622739
 30
0.0
 40
2.00000007
 50
0.0
 51
90.000003000000007
  0
ARC
  5
2BB2
  8
AM_0
 10
527.12773042517927
 20
214.83349806622741
 30
0.0
 40
5.0000001000000003
 50
90.000003000000007
 51
180.00001
  0
ARC
  5
2BB3
  8
AM_0
 10
595.12774642517934
 20
214.83349806622741
 30
0.0
 40
5.0000001000000003
 50
0.0
 51
90.000003000000007
  0
LINE
  5
2BB4
  8
AM_0
 10
538.33448842517942
 20
207.71895006622739
 30
0.0
 11
537.5808854251793
 21
213.4430580662272
 31
0.0
  0
LINE
  5
2BB5
  8
AM_0
 10
533.75404342517913
 20
204.2042580662274
 30
0.0
 11
538.33448842517942
 21
207.7189350662274
 31
0.0
  0
LINE
  5
2BB6
  8
AM_0
 10
537.58091542517923
 20
213.4430280662275
 30
0.0
 11
532.24690042517921
 21
215.6524530662272
 31
0.0
  0
LINE
  5
2BB7
  8
AM_0
 10
584.67456142517915
 20
213.44304306622729
 30
0.0
 11
583.92097642517911
 21
207.7189350662274
 31
0.0
  0
LINE
  5
2BB8
  8
AM_0
 10
594.58903642517885
 20
212.13775806622741
 30
0.0
 11
590.00860642517921
 21
215.6524530662272
 31
0.0
  0
CIRCLE
  5
2BB9
  8
AM_0
 10
589.25497342517906
 20
209.9283630662274
 30
0.0
 40
4.9999998000000003
  0
LINE
  5
2BBA
  8
AM_0
 10
588.50141842517905
 20
204.2042580662274
 30
0.0
 11
593.83544842517904
 21
206.41368306622741
 31
0.0
  0
LINE
  5
2BBB
  8
AM_0
 10
583.92099142517907
 20
207.71892006622741
 30
0.0
 11
588.50141842517905
 21
204.20424306622741
 31
0.0
  0
LINE
  5
2BBC
  8
AM_0
 10
593.83541842517911
 20
206.41366806622739
 30
0.0
 11
594.58902142517923
 21
212.1377760662273
 31
0.0
  0
LINE
  5
2BBD
  8
AM_0
 10
590.00862142517917
 20
215.65246806622741
 30
0.0
 11
584.67459142517907
 21
213.44304306622729
 31
0.0
  0
ARC
  5
2BBE
  8
AM_0
 10
580.12774642517934
 20
251.83348506622741
 30
0.0
 40
34.000001999999988
 50
328.53302000000002
 51
0.0
  0
LINE
  5
2BBF
  8
AM_0
 10
639.12773242517926
 20
202.83349806622741
 30
0.0
 11
609.12773242517915
 21
202.83349806622741
 31
0.0
  0
LINE
  5
2BC0
  8
AM_0
 10
611.12773342517949
 20
214.83349806622741
 30
0.0
 11
637.12774942517922
 21
214.83349806622741
 31
0.0
  0
LINE
  5
2BC1
  8
AM_0
 10
600.12773242517915
 20
214.83349806622741
 30
0.0
 11
600.12773242517915
 21
208.83349806622741
 31
0.0
  0
LINE
  5
2BC2
  8
AM_0
 10
609.12773242517915
 20
202.83349806622741
 30
0.0
 11
609.12773242517915
 21
212.83351506622739
 31
0.0
  0
LINE
  5
2BC3
  8
ﾁｭｳｼﾝｾﾝ1
 10
626.12774842517922
 20
219.37895406622741
 30
0.0
 11
626.12774842517922
 21
198.2880420662274
 31
0.0
  0
LINE
  5
2BC4
  8
ｶｸﾚｾﾝ2
 10
620.12773342517949
 20
214.83349806622741
 30
0.0
 11
620.12773342517949
 21
202.83349806622741
 31
0.0
  0
LINE
  5
2BC5
  8
AM_0
 10
607.12774642517934
 20
205.83349806622729
 30
0.0
 11
603.12773242517915
 21
205.83349806622729
 31
0.0
  0
ARC
  5
2BC6
  8
AM_0
 10
603.12773242517915
 20
208.83349806622741
 30
0.0
 40
3.0
 50
179.99998999999991
 51
270.0
  0
ARC
  5
2BC7
  8
AM_0
 10
608.12773342517949
 20
202.83349806622741
 30
0.0
 40
1.0000000199999981
 50
0.0
 51
90.000003000000007
  0
ARC
  5
2BC8
  8
AM_0
 10
607.12774642517934
 20
203.83351506622751
 30
0.0
 40
2.00000007
 50
0.0
 51
90.000003000000007
  0
ARC
  5
2BC9
  8
AM_0
 10
614.12773342517926
 20
219.8334990662274
 30
0.0
 40
5.0000001000000003
 50
179.99998999999991
 51
270.0
  0
ARC
  5
2BCA
  8
AM_0
 10
611.12773342517949
 20
212.83351506622739
 30
0.0
 40
2.00000007
 50
90.000003000000007
 51
180.00001
  0
LINE
  5
2BCB
  8
ｶｸﾚｾﾝ2
 10
632.12774842517922
 20
214.83349806622741
 30
0.0
 11
632.12774842517922
 21
202.83349806622741
 31
0.0
  0
LINE
  5
2BCC
  8
AM_0
 10
639.12773242517926
 20
202.83349806622741
 30
0.0
 11
639.12773242517926
 21
214.83349806622741
 31
0.0
  0
ARC
  5
2BCD
  8
AM_0
 10
637.12774942517922
 20
212.83351506622739
 30
0.0
 40
2.00000007
 50
0.0
 51
90.000003000000007
  0
LINE
  5
2BCE
  8
ﾁｭｳｼﾝｾﾝ1
 10
523.95915142517924
 20
297.83348706622752
 30
0.0
 11
596.82505942517935
 21
297.83348706622752
 31
0.0
  0
LINE
  5
2BCF
  8
ﾁｭｳｼﾝｾﾝ1
 10
622.86256642517935
 20
277.83348606622729
 30
0.0
 11
499.62322342517922
 21
277.83348606622729
 31
0.0
  0
ARC
  5
2BD0
  8
AM_0
 10
561.12773242517915
 20
277.83348606622729
 30
0.0
 40
71.000000999999983
 50
47.999358999999998
 51
132.00065000000001
  0
ARC
  5
2BD1
  8
AM_0
 10
561.12773242517915
 20
238.8335010662274
 30
0.0
 40
110.000004
 50
58.263835999999991
 51
121.73617
  0
LINE
  5
2BD2
  8
AM_0
 10
508.15030342517912
 20
320.3680620662272
 30
0.0
 11
507.39670342517911
 21
326.09218206622728
 31
0.0
  0
LINE
  5
2BD3
  8
AM_0
 10
497.4822734251793
 20
324.78691206622739
 30
0.0
 11
498.23584342517938
 21
319.0627920662273
 31
0.0
  0
CIRCLE
  5
2BD4
  8
AM_0
 10
502.81627342517908
 20
322.57747206622741
 30
0.0
 40
4.9999998000000003
  0
ARC
  5
2BD5
  8
AM_0
 10
498.84946342517918
 20
325.6212420662273
 30
0.0
 40
13.9999986
 50
266.80063999999987
 51
25.06296900000001
  0
ARC
  5
2BD6
  8
AM_0
 10
513.78697342517876
 20
315.3766320662275
 30
0.0
 40
20.000000700000001
 50
121.73617
 51
174.01018999999991
  0
LINE
  5
2BD7
  8
AM_0
 10
498.23584342517938
 20
319.0627920662273
 30
0.0
 11
503.56987342517908
 21
316.85335206622727
 31
0.0
  0
ARC
  5
2BD8
  8
AM_0
 10
500.53960342517939
 20
308.7054720662274
 30
0.0
 40
3.0
 50
95.705737999999982
 51
152.9994199999999
  0
ARC
  5
2BD9
  8
AM_0
 10
561.12773242517915
 20
277.83348606622729
 30
0.0
 40
71.000000999999983
 50
152.9994199999999
 51
174.01018999999991
  0
ARC
  5
2BDA
  8
AM_0
 10
497.78908342517911
 20
306.65083206622751
 30
0.0
 40
5.0000001000000003
 50
86.800639000000004
 51
174.01018999999991
  0
LINE
  5
2BDB
  8
AM_0
 10
503.56990342517918
 20
316.85338206622748
 30
0.0
 11
508.15030342517912
 21
320.3680920662274
 31
0.0
  0
ARC
  5
2BDC
  8
AM_0
 10
513.12772342517917
 20
313.08604206622732
 30
0.0
 40
5.0000001000000003
 50
138.71941000000001
 51
180.00001
  0
LINE
  5
2BDD
  8
AM_0
 10
502.06273342517909
 20
328.30159206622727
 30
0.0
 11
497.4822734251793
 21
324.78691206622739
 31
0.0
  0
ARC
  5
2BDE
  8
AM_0
 10
516.06049942517905
 20
333.66991206622748
 30
0.0
 40
5.0000001000000003
 50
115.41755999999999
 51
205.06296999999989
  0
LINE
  5
2BDF
  8
AM_0
 10
507.39670342517911
 20
326.0921520662273
 30
0.0
 11
502.062703425179
 21
328.30159206622727
 31
0.0
  0
ARC
  5
2BE0
  8
AM_0
 10
515.62629442517925
 20
328.36684206622732
 30
0.0
 40
3.0
 50
132.00065000000001
 51
189.29434000000001
  0
ARC
  5
2BE1
  8
AM_0
 10
561.12773242517915
 20
297.83348706622752
 30
0.0
 40
12.00000029999998
 50
109.47122
 51
70.528789000000003
  0
CIRCLE
  5
2BE2
  8
AM_0
 10
561.12773242517915
 20
297.83348706622752
 30
0.0
 40
3.0
  0
CIRCLE
  5
2BE3
  8
AM_0
 62
     2
 10
561.12773242517915
 20
297.83348706622752
 30
0.0
 40
4.000000199999997
  0
LINE
  5
2BE4
  8
AM_0
 10
565.12771642517919
 20
312.83347206622739
 30
0.0
 11
565.12771642517919
 21
305.83348206622748
 31
0.0
  0
LINE
  5
2BE5
  8
AM_0
 10
557.12773042517915
 20
312.83347206622739
 30
0.0
 11
557.12773042517915
 21
305.83348206622748
 31
0.0
  0
LINE
  5
2BE6
  8
AM_0
 10
557.12773042517915
 20
305.83348206622748
 30
0.0
 11
565.12771642517919
 21
305.83348206622748
 31
0.0
  0
LINE
  5
2BE7
  8
AM_0
 10
557.12773042517915
 20
312.83347206622739
 30
0.0
 11
565.12771642517919
 21
312.83347206622739
 31
0.0
  0
LINE
  5
2BE8
  8
AM_0
 10
614.85878242517902
 20
326.09209206622751
 30
0.0
 11
614.10517942517936
 21
320.36797206622748
 31
0.0
  0
LINE
  5
2BE9
  8
AM_0
 10
624.7731944251791
 20
324.78688206622752
 30
0.0
 11
624.01960942517917
 21
319.0627920662273
 31
0.0
  0
CIRCLE
  5
2BEA
  8
AM_0
 10
619.43920942517934
 20
322.57741206622751
 30
0.0
 40
4.9999998000000003
  0
ARC
  5
2BEB
  8
AM_0
 10
623.40600742517904
 20
325.6212420662273
 30
0.0
 40
13.9999986
 50
154.93703999999991
 51
273.19936999999987
  0
ARC
  5
2BEC
  8
AM_0
 10
608.46850642517893
 20
315.3766320662275
 30
0.0
 40
20.000000700000001
 50
5.9898154999999971
 51
58.263835999999991
  0
ARC
  5
2BED
  8
AM_0
 10
561.12773242517915
 20
277.83348606622729
 30
0.0
 40
71.000000999999983
 50
5.989814199999997
 51
27.000572999999999
  0
LINE
  5
2BEE
  8
AM_0
 10
614.10520942517905
 20
320.36797206622748
 30
0.0
 11
618.68563942517903
 21
316.85329206622748
 31
0.0
  0
ARC
  5
2BEF
  8
AM_0
 10
609.12773242517915
 20
313.08604206622732
 30
0.0
 40
5.0000001000000003
 50
0.0
 51
41.280590999999973
  0
ARC
  5
2BF0
  8
AM_0
 10
624.46640242517924
 20
306.65083206622751
 30
0.0
 40
5.0000001000000003
 50
5.9898154999999971
 51
93.199358999999944
  0
LINE
  5
2BF1
  8
AM_0
 10
618.68563942517903
 20
316.85332206622718
 30
0.0
 11
624.01966942517902
 21
319.06273206622751
 31
0.0
  0
ARC
  5
2BF2
  8
AM_0
 10
621.71586742517911
 20
308.7054720662274
 30
0.0
 40
3.0
 50
27.000572999999999
 51
84.294260999999977
  0
LINE
  5
2BF3
  8
AM_0
 10
620.19282742517885
 20
328.30153206622748
 30
0.0
 11
614.85879742517909
 21
326.09212206622732
 31
0.0
  0
ARC
  5
2BF4
  8
AM_0
 10
606.19497742517922
 20
333.66991206622748
 30
0.0
 40
5.0000001000000003
 50
334.93702999999988
 51
64.582443999999995
  0
ARC
  5
2BF5
  8
AM_0
 10
606.62919742517897
 20
328.36684206622732
 30
0.0
 40
3.0
 50
350.70567
 51
47.999358999999998
  0
LINE
  5
2BF6
  8
AM_0
 10
624.77325742517905
 20
324.7868220662275
 30
0.0
 11
620.19282742517885
 21
328.3015020662275
 31
0.0
  0
LINE
  5
2BF7
  8
AM_0
 10
256.38398499816122
 20
309.77092506622739
 30
0.0
 11
246.3839849981614
 21
309.77092506622739
 31
0.0
  0
LINE
  5
2BF8
  8
AM_0
 10
256.38398499816122
 20
323.8334910662274
 30
0.0
 11
246.3839849981614
 21
323.8334910662274
 31
0.0
  0
LINE
  5
2BF9
  8
AM_0
 10
256.3839849981614
 20
231.83348406622741
 30
0.0
 11
246.3839849981614
 21
231.83348406622741
 31
0.0
  0
LINE
  5
2BFA
  8
AM_0
 10
256.38398499816122
 20
245.8960470662274
 30
0.0
 11
246.3839849981614
 21
245.8960470662274
 31
0.0
  0
LINE
  5
2BFB
  8
ﾁｭｳｼﾝｾﾝ1
 10
166.3683359788505
 20
492.38231464709861
 30
0.0
 11
407.60366499816092
 21
492.38231464709861
 31
0.0
  0
ARC
  5
2BFC
  8
AM_0
 10
409.87271499816109
 20
492.38231464709861
 30
0.0
 40
101.4887199999999
 50
151.89333000000019
 51
208.10666999999961
  0
LINE
  5
2BFD
  8
AM_0
 10
256.38400499816112
 20
435.88231464709838
 30
0.0
 11
256.38400499816112
 21
548.88231464709827
 31
0.0
  0
LINE
  5
2BFE
  8
AM_0
 10
287.38400499816112
 20
423.51393464709832
 30
0.0
 11
287.38400499816112
 21
561.25068464709841
 31
0.0
  0
LINE
  5
2BFF
  8
AM_0
 10
308.38400499816112
 20
442.31508464709827
 30
0.0
 11
308.38400499816112
 21
542.44954464709838
 31
0.0
  0
LINE
  5
2C00
  8
AM_0
 10
343.38400499816112
 20
442.13130464709832
 30
0.0
 11
343.38400499816112
 21
542.63331464709859
 31
0.0
  0
LINE
  5
2C01
  8
AM_0
 10
359.38397499816108
 20
466.84797464709851
 30
0.0
 11
359.38397499816108
 21
517.91661464709841
 31
0.0
  0
LINE
  5
2C02
  8
AM_0
 10
356.38397499816108
 20
541.92726464709835
 30
0.0
 11
356.38397499816108
 21
442.83735464709832
 31
0.0
  0
LINE
  5
2C03
  8
AM_0
 10
294.38397499816102
 20
563.3823146470985
 30
0.0
 11
294.38397499816102
 21
421.38231464709838
 31
0.0
  0
LINE
  5
2C04
  8
AM_0
 10
361.3839449981611
 20
504.8822846470984
 30
0.0
 11
361.3839449981611
 21
479.88234464709848
 31
0.0
  0
LINE
  5
2C05
  8
AM_0
 10
401.38397499816091
 20
504.38231464709838
 30
0.0
 11
401.38397499816091
 21
480.38231464709838
 31
0.0
  0
ARC
  5
2C06
  8
AM_0
 10
335.38397499816119
 20
420.37910464709847
 30
0.0
 40
5.0
 50
180.00001000000091
 51
271.49999999999932
  0
ARC
  5
2C07
  8
AM_0
 10
335.38397499816119
 20
433.66328464709829
 30
0.0
 40
5.0
 50
95.00000199999856
 51
180.00001000000091
  0
LINE
  5
2C08
  8
AM_0
 10
340.46255499816118
 20
445.35780464709842
 30
0.0
 11
321.96594499816121
 21
444.87343464709841
 31
0.0
  0
LINE
  5
2C09
  8
AM_0
 10
297.38400499816112
 20
414.38231464709838
 30
0.0
 11
357.4363349981611
 21
415.95485464709839
 31
0.0
  0
LINE
  5
2C0A
  8
AM_0
 10
297.38397499816102
 20
418.23826464709828
 30
0.0
 11
290.38397499816119
 21
414.56560464709838
 31
0.0
  0
LINE
  5
2C0B
  8
AM_0
 10
290.38397499816119
 20
414.56563464709848
 30
0.0
 11
290.38397499816119
 21
419.08272464709842
 31
0.0
  0
LINE
  5
2C0C
  8
AM_0
 10
265.38397499816102
 20
417.16859464709847
 30
0.0
 11
265.38397499816102
 21
436.14662464709852
 31
0.0
  0
LINE
  5
2C0D
  8
AM_0
 10
267.33163499816112
 20
415.16926464709837
 30
0.0
 11
297.38397499816102
 21
414.38234464709831
 31
0.0
  0
ARC
  5
2C0E
  8
AM_0
 10
267.38397499816119
 20
417.16859464709847
 30
0.0
 40
2.0
 50
180.00001000000091
 51
268.5000000000004
  0
LINE
  5
2C0F
  8
AM_0
 10
256.38400499816112
 20
460.4423746470984
 30
0.0
 11
287.38400499816112
 21
460.4423746470984
 31
0.0
  0
LINE
  5
2C10
  8
AM_0
 10
284.38397499816102
 20
427.17103464709839
 30
0.0
 11
285.38400499816112
 21
427.17103464709839
 31
0.0
  0
LINE
  5
2C11
  8
AM_0
 10
256.38400499816112
 20
446.3820046470986
 30
0.0
 11
287.38400499816112
 21
446.3820046470986
 31
0.0
  0
LINE
  5
2C12
  8
AM_0
 10
282.38400499816112
 20
435.70146464709831
 30
0.0
 11
256.38403499816121
 21
436.38231464709838
 31
0.0
  0
LINE
  5
2C13
  8
AM_0
 10
282.38397499816119
 20
429.17103464709839
 30
0.0
 11
282.38397499816119
 21
444.38200464709843
 31
0.0
  0
ARC
  5
2C14
  8
AM_0
 10
277.38397499816119
 20
427.38231464709838
 30
0.0
 40
6.0
 50
33.5572999999982
 51
0.5425182800010755
  0
ARC
  5
2C15
  8
AM_0
 10
284.38397499816102
 20
429.17103464709839
 30
0.0
 40
2.0
 50
180.00001000000091
 51
270.0
  0
ARC
  5
2C16
  8
AM_0
 10
280.38397499816108
 20
444.38200464709843
 30
0.0
 40
2.0
 50
0.0
 51
90.000003000000945
  0
ARC
  5
2C17
  8
AM_0
 10
306.9889549981612
 20
426.71409464709842
 30
0.0
 40
5.0
 50
271.49999999999932
 51
299.88701999999893
  0
LINE
  5
2C18
  8
AM_0
 10
308.38400499816112
 20
442.31508464709827
 30
0.0
 11
321.96597499816107
 21
444.87343464709841
 31
0.0
  0
LINE
  5
2C19
  8
AM_0
 10
306.38397499816119
 20
439.84437464709839
 30
0.0
 11
309.38397499816102
 21
439.84437464709839
 31
0.0
  0
LINE
  5
2C1A
  8
AM_0
 10
306.38397499816119
 20
428.29732464709849
 30
0.0
 11
309.38397499816102
 21
428.29732464709849
 31
0.0
  0
LINE
  5
2C1B
  8
AM_0
 10
306.38397499816119
 20
431.18409464709862
 30
0.0
 11
309.38397499816102
 21
431.18409464709862
 31
0.0
  0
LINE
  5
2C1C
  8
AM_0
 10
306.38397499816119
 20
436.9575946470984
 30
0.0
 11
309.38397499816102
 21
436.9575946470984
 31
0.0
  0
LINE
  5
2C1D
  8
AM_0
 10
306.38397499816119
 20
440.84437464709839
 30
0.0
 11
306.38397499816119
 21
427.29732464709849
 31
0.0
  0
LINE
  5
2C1E
  8
AM_0
 10
305.38397499816102
 20
442.31508464709827
 30
0.0
 11
305.38397499816102
 21
421.67036464709838
 31
0.0
  0
LINE
  5
2C1F
  8
AM_0
 10
307.11984499816111
 20
421.71580464709831
 30
0.0
 11
294.38400499816112
 21
421.38231464709838
 31
0.0
  0
ARC
  5
2C20
  8
AM_0
 10
285.38400499816112
 20
425.17103464709839
 30
0.0
 40
2.0
 50
0.0
 51
90.000003000000945
  0
LINE
  5
2C21
  8
AM_0
 10
294.38400499816112
 20
421.38231464709838
 30
0.0
 11
289.33166499816122
 21
421.51463464709849
 31
0.0
  0
LINE
  5
2C22
  8
AM_0
 10
294.78701499816123
 20
421.39287464709838
 30
0.0
 11
290.38397499816119
 21
419.08272464709842
 31
0.0
  0
ARC
  5
2C23
  8
AM_0
 10
289.38400499816112
 20
423.51393464709832
 30
0.0
 40
2.0
 50
180.00001000000091
 51
268.5000000000004
  0
LINE
  5
2C24
  8
AM_0
 10
297.38397499816102
 20
421.46086464709828
 30
0.0
 11
297.38397499816102
 21
418.23829464709831
 31
0.0
  0
LINE
  5
2C25
  8
AM_0
 10
305.38397499816102
 20
427.29732464709849
 30
0.0
 11
306.38397499816119
 21
427.29732464709849
 31
0.0
  0
LINE
  5
2C26
  8
AM_0
 10
305.38397499816102
 20
442.31508464709827
 30
0.0
 11
308.38397499816119
 21
442.31508464709827
 31
0.0
  0
LINE
  5
2C27
  8
AM_0
 10
305.38397499816102
 20
440.84437464709839
 30
0.0
 11
306.38397499816119
 21
440.84437464709839
 31
0.0
  0
LINE
  5
2C28
  8
AM_0
 10
310.38394499816093
 20
429.29732464709832
 30
0.0
 11
310.38394499816093
 21
438.84434464709852
 31
0.0
  0
ARC
  5
2C29
  8
AM_0
 10
322.60864499816103
 20
424.15721464709839
 30
0.0
 40
5.0
 50
91.500001000001546
 51
119.887019999999
  0
LINE
  5
2C2A
  8
AM_0
 10
309.48040499816119
 20
422.37907464709838
 30
0.0
 11
320.1171549981612
 21
428.49226464709852
 31
0.0
  0
ARC
  5
2C2B
  8
AM_0
 10
309.38397499816102
 20
432.18406464709852
 30
0.0
 40
1.0
 50
269.999989999999
 51
0.0000006832462478
  0
ARC
  5
2C2C
  8
AM_0
 10
309.38397499816102
 20
429.29732464709832
 30
0.0
 40
1.0
 50
269.999989999999
 51
0.0000006832462478
  0
ARC
  5
2C2D
  8
AM_0
 10
309.38397499816102
 20
430.18409464709828
 30
0.0
 40
1.0
 50
0.0
 51
90.000003000000945
  0
LINE
  5
2C2E
  8
AM_0
 10
330.38397499816102
 20
420.37910464709847
 30
0.0
 11
330.38397499816102
 21
433.66328464709829
 31
0.0
  0
LINE
  5
2C2F
  8
AM_0
 10
327.46249499816099
 20
429.28602464709849
 30
0.0
 11
322.47775499816112
 21
429.15550464709838
 31
0.0
  0
ARC
  5
2C30
  8
AM_0
 10
327.38397499816119
 20
432.2849946470983
 30
0.0
 40
3.0
 50
271.49999999999932
 51
0.0
  0
ARC
  5
2C31
  8
AM_0
 10
309.38397499816102
 20
437.95759464709852
 30
0.0
 40
1.0
 50
269.999989999999
 51
0.0000006832462478
  0
ARC
  5
2C32
  8
AM_0
 10
309.38397499816102
 20
435.95759464709829
 30
0.0
 40
1.0
 50
0.0
 51
90.000003000000945
  0
ARC
  5
2C33
  8
AM_0
 10
309.38397499816102
 20
438.84434464709852
 30
0.0
 40
1.0
 50
0.0
 51
90.000003000000945
  0
ARC
  5
2C34
  8
AM_0
 10
357.38397499816108
 20
417.95414464709847
 30
0.0
 40
2.0
 50
271.49999999999932
 51
0.0
  0
LINE
  5
2C35
  8
AM_0
 10
361.3839449981611
 20
480.38231464709838
 30
0.0
 11
401.38397499816091
 21
480.38231464709838
 31
0.0
  0
LINE
  5
2C36
  8
AM_0
 10
357.4363349981611
 20
442.8098046470983
 30
0.0
 11
356.384004998161
 21
442.83735464709832
 31
0.0
  0
CIRCLE
  5
2C37
  8
AM_0
 10
347.38397499816108
 20
427.38231464709838
 30
0.0
 40
6.0
  0
ARC
  5
2C38
  8
AM_0
 10
347.55801499816118
 20
438.59102464709838
 30
0.0
 40
5.0
 50
95.00000199999856
 51
153.73432999999969
  0
LINE
  5
2C39
  8
AM_0
 10
340.64547499816121
 20
439.14271464709827
 30
0.0
 11
334.9481849981612
 21
438.6442746470986
 31
0.0
  0
ARC
  5
2C3A
  8
AM_0
 10
340.38400499816112
 20
442.13130464709832
 30
0.0
 40
3.0
 50
274.99999999999972
 51
0.0
  0
ARC
  5
2C3B
  8
AM_0
 10
340.38400499816112
 20
448.35676464709849
 30
0.0
 40
3.0
 50
271.49999999999932
 51
0.0
  0
ARC
  5
2C3C
  8
AM_0
 10
351.38397499816108
 20
448.96394464709851
 30
0.0
 40
5.0
 50
274.99999999999972
 51
0.0
  0
LINE
  5
2C3D
  8
AM_0
 10
351.81976499816108
 20
443.9830146470984
 30
0.0
 11
347.12225499816111
 21
443.57203464709852
 31
0.0
  0
LINE
  5
2C3E
  8
AM_0
 10
359.38397499816108
 20
417.95414464709847
 30
0.0
 11
359.38397499816108
 21
440.8104746470986
 31
0.0
  0
ARC
  5
2C3F
  8
AM_0
 10
357.38397499816108
 20
440.8104746470986
 30
0.0
 40
2.0
 50
0.0
 51
88.499997000000747
  0
LINE
  5
2C40
  8
AM_0
 10
357.34905499816108
 20
465.8112646470986
 30
0.0
 11
358.41885499816101
 21
465.84862464709829
 31
0.0
  0
ARC
  5
2C41
  8
AM_0
 10
357.38397499816108
 20
464.81184464709833
 30
0.0
 40
1.0
 50
91.999998000000545
 51
180.00001000000091
  0
ARC
  5
2C42
  8
AM_0
 10
358.38397499816108
 20
466.84797464709851
 30
0.0
 40
1.0
 50
272.0000000000004
 51
0.0
  0
LINE
  5
2C43
  8
AM_0
 10
359.38397499816108
 20
479.88234464709848
 30
0.0
 11
361.3839449981611
 21
479.88234464709848
 31
0.0
  0
ARC
  5
2C44
  8
AM_0
 10
335.38397499816119
 20
564.38551464709838
 30
0.0
 40
5.0
 50
88.499997000000747
 51
180.00001000000091
  0
ARC
  5
2C45
  8
AM_0
 10
335.38397499816119
 20
551.10130464709835
 30
0.0
 40
5.0
 50
180.00001000000091
 51
265.00001000000071
  0
LINE
  5
2C46
  8
AM_0
 10
340.46255499816118
 20
539.40684464709841
 30
0.0
 11
321.96597499816107
 21
539.89119464709859
 31
0.0
  0
LINE
  5
2C47
  8
AM_0
 10
297.38400499816112
 20
570.3823146470985
 30
0.0
 11
357.4363349981611
 21
568.80980464709842
 31
0.0
  0
ARC
  5
2C48
  8
AM_0
 10
284.38397499816102
 20
555.59361464709855
 30
0.0
 40
2.0
 50
90.000003000000945
 51
180.00001000000091
  0
ARC
  5
2C49
  8
AM_0
 10
309.38397499816102
 20
555.46730464709844
 30
0.0
 40
1.0
 50
0.0
 51
90.000003000000945
  0
ARC
  5
2C4A
  8
AM_0
 10
277.38397499816119
 20
557.38231464709827
 30
0.0
 40
6.0
 50
359.45747999999838
 51
326.4427199999991
  0
LINE
  5
2C4B
  8
AM_0
 10
305.38397499816102
 20
542.44954464709838
 30
0.0
 11
305.38397499816102
 21
563.09425464709841
 31
0.0
  0
LINE
  5
2C4C
  8
AM_0
 10
306.38397499816119
 20
543.92024464709834
 30
0.0
 11
306.38397499816119
 21
557.46730464709844
 31
0.0
  0
LINE
  5
2C4D
  8
AM_0
 10
309.48043499816117
 20
562.38557464709857
 30
0.0
 11
320.1171549981612
 21
556.27235464709838
 31
0.0
  0
LINE
  5
2C4E
  8
AM_0
 10
330.38397499816102
 20
551.10130464709835
 30
0.0
 11
330.38397499816102
 21
564.38551464709838
 31
0.0
  0
LINE
  5
2C4F
  8
AM_0
 10
265.38397499816102
 20
567.59605464709819
 30
0.0
 11
265.38397499816102
 21
548.6179946470985
 31
0.0
  0
LINE
  5
2C50
  8
AM_0
 10
256.38400499816112
 20
524.32225464709859
 30
0.0
 11
287.38400499816112
 21
524.32225464709859
 31
0.0
  0
LINE
  5
2C51
  8
AM_0
 10
256.38400499816112
 20
538.38261464709842
 30
0.0
 11
287.38400499816112
 21
538.38261464709842
 31
0.0
  0
LINE
  5
2C52
  8
AM_0
 10
282.38400499816112
 20
549.06312464709845
 30
0.0
 11
256.38403499816121
 21
548.38231464709827
 31
0.0
  0
ARC
  5
2C53
  8
AM_0
 10
280.38397499816108
 20
540.38261464709842
 30
0.0
 40
2.0
 50
270.0
 51
0.0
  0
LINE
  5
2C54
  8
AM_0
 10
282.38397499816119
 20
555.59361464709855
 30
0.0
 11
282.38397499816119
 21
540.38261464709842
 31
0.0
  0
LINE
  5
2C55
  8
AM_0
 10
306.38397499816119
 20
547.80702464709827
 30
0.0
 11
309.38397499816102
 21
547.80702464709827
 31
0.0
  0
LINE
  5
2C56
  8
AM_0
 10
306.38397499816119
 20
553.58052464709829
 30
0.0
 11
309.38397499816102
 21
553.58052464709829
 31
0.0
  0
LINE
  5
2C57
  8
AM_0
 10
306.38397499816119
 20
556.46727464709852
 30
0.0
 11
309.38397499816102
 21
556.46727464709852
 31
0.0
  0
LINE
  5
2C58
  8
AM_0
 10
306.38397499816119
 20
544.92027464709849
 30
0.0
 11
309.38397499816102
 21
544.92027464709849
 31
0.0
  0
LINE
  5
2C59
  8
AM_0
 10
308.38397499816119
 20
542.44954464709838
 30
0.0
 11
321.96594499816121
 21
539.89119464709859
 31
0.0
  0
LINE
  5
2C5A
  8
AM_0
 10
305.38397499816102
 20
542.44954464709838
 30
0.0
 11
308.38397499816119
 21
542.44954464709838
 31
0.0
  0
LINE
  5
2C5B
  8
AM_0
 10
305.38397499816102
 20
543.92024464709834
 30
0.0
 11
306.38397499816119
 21
543.92024464709834
 31
0.0
  0
ARC
  5
2C5C
  8
AM_0
 10
322.60864499816103
 20
560.60740464709852
 30
0.0
 40
5.0
 50
240.11298000000079
 51
268.5000000000004
  0
ARC
  5
2C5D
  8
AM_0
 10
309.38397499816102
 20
548.8070246470985
 30
0.0
 40
1.0
 50
269.999989999999
 51
0.0000006832462478
  0
ARC
  5
2C5E
  8
AM_0
 10
309.38397499816102
 20
546.80702464709839
 30
0.0
 40
1.0
 50
0.0
 51
90.000003000000945
  0
LINE
  5
2C5F
  8
AM_0
 10
310.38394499816093
 20
555.46730464709844
 30
0.0
 11
310.38394499816093
 21
545.92027464709838
 31
0.0
  0
ARC
  5
2C60
  8
AM_0
 10
309.38397499816102
 20
545.92027464709838
 30
0.0
 40
1.0
 50
269.999989999999
 51
0.0000006832462478
  0
ARC
  5
2C61
  8
AM_0
 10
309.38397499816102
 20
554.58052464709851
 30
0.0
 40
1.0
 50
269.999989999999
 51
0.0000006832462478
  0
ARC
  5
2C62
  8
AM_0
 10
309.38397499816102
 20
552.58055464709855
 30
0.0
 40
1.0
 50
0.0
 51
90.000003000000945
  0
LINE
  5
2C63
  8
AM_0
 10
327.4625249981612
 20
555.4786246470984
 30
0.0
 11
322.47778499816121
 21
555.60914464709845
 31
0.0
  0
ARC
  5
2C64
  8
AM_0
 10
327.38397499816119
 20
552.47963464709835
 30
0.0
 40
3.0
 50
0.0
 51
88.499997000000747
  0
LINE
  5
2C65
  8
AM_0
 10
284.38397499816102
 20
557.59361464709855
 30
0.0
 11
285.38400499816112
 21
557.59361464709855
 31
0.0
  0
LINE
  5
2C66
  8
AM_0
 10
267.33163499816112
 20
569.59535464709847
 30
0.0
 11
297.38397499816102
 21
570.3823146470985
 31
0.0
  0
ARC
  5
2C67
  8
AM_0
 10
267.38397499816119
 20
567.59605464709819
 30
0.0
 40
2.0
 50
91.500001000001546
 51
180.00001000000091
  0
ARC
  5
2C68
  8
AM_0
 10
306.9889549981612
 20
558.05052464709865
 30
0.0
 40
5.0
 50
60.112980000000888
 51
88.499997000000747
  0
LINE
  5
2C69
  8
AM_0
 10
307.11984499816111
 20
563.04881464709842
 30
0.0
 11
294.38400499816112
 21
563.3823146470985
 31
0.0
  0
LINE
  5
2C6A
  8
AM_0
 10
297.38397499816102
 20
566.52632464709825
 30
0.0
 11
290.38397499816119
 21
570.19899464709852
 31
0.0
  0
LINE
  5
2C6B
  8
AM_0
 10
294.78701499816123
 20
563.37175464709844
 30
0.0
 11
290.38400499816117
 21
565.68187464709843
 31
0.0
  0
LINE
  5
2C6C
  8
AM_0
 10
294.38397499816102
 20
563.3823146470985
 30
0.0
 11
289.33166499816122
 21
563.2500146470984
 31
0.0
  0
ARC
  5
2C6D
  8
AM_0
 10
285.38400499816112
 20
559.59361464709855
 30
0.0
 40
2.0
 50
270.0
 51
0.0
  0
ARC
  5
2C6E
  8
AM_0
 10
289.38400499816112
 20
561.25068464709841
 30
0.0
 40
2.0
 50
91.500001000001546
 51
180.00001000000091
  0
LINE
  5
2C6F
  8
AM_0
 10
290.38397499816119
 20
570.19899464709852
 30
0.0
 11
290.38397499816119
 21
565.68190464709835
 31
0.0
  0
LINE
  5
2C70
  8
AM_0
 10
297.38397499816102
 20
563.30375464709834
 30
0.0
 11
297.38397499816102
 21
566.52632464709825
 31
0.0
  0
LINE
  5
2C71
  8
AM_0
 10
305.38397499816102
 20
557.46730464709844
 30
0.0
 11
306.38397499816119
 21
557.46730464709844
 31
0.0
  0
CIRCLE
  5
2C72
  8
AM_0
 10
347.38397499816108
 20
557.38231464709827
 30
0.0
 40
6.0
  0
LINE
  5
2C73
  8
ﾁｭｳｼﾝｾﾝ1
 10
347.38397499816108
 20
568.38231464709838
 30
0.0
 11
347.38397499816108
 21
546.3823146470985
 31
0.0
  0
LINE
  5
2C74
  8
AM_0
 10
359.38397499816108
 20
566.81047464709843
 30
0.0
 11
359.38397499816108
 21
543.95414464709825
 31
0.0
  0
LINE
  5
2C75
  8
AM_0
 10
369.38397499816108
 20
496.3822846470984
 30
0.0
 11
401.38397499816091
 21
496.3822846470984
 31
0.0
  0
LINE
  5
2C76
  8
AM_0
 10
369.38397499816108
 20
488.38231464709861
 30
0.0
 11
401.38397499816091
 21
488.38231464709861
 31
0.0
  0
LINE
  5
2C77
  8
AM_0
 10
361.3839449981611
 20
504.38231464709838
 30
0.0
 11
401.38397499816091
 21
504.38231464709838
 31
0.0
  0
LINE
  5
2C78
  8
AM_0
 10
357.34909499816109
 20
518.95335464709865
 30
0.0
 11
358.41891499816091
 21
518.91600464709859
 31
0.0
  0
ARC
  5
2C79
  8
AM_0
 10
357.38397499816108
 20
519.95277464709841
 30
0.0
 40
1.0
 50
180.00001000000091
 51
267.9999999999996
  0
ARC
  5
2C7A
  8
AM_0
 10
369.38397499816108
 20
492.3822846470984
 30
0.0
 40
3.9999962
 50
90.000003000000945
 51
270.0
  0
LINE
  5
2C7B
  8
AM_0
 10
369.38397499816108
 20
496.3822846470984
 30
0.0
 11
369.38397499816108
 21
488.38231464709861
 31
0.0
  0
LINE
  5
2C7C
  8
AM_0
 10
359.38397499816108
 20
504.8822846470984
 30
0.0
 11
361.3839449981611
 21
504.8822846470984
 31
0.0
  0
ARC
  5
2C7D
  8
AM_0
 10
358.38397499816108
 20
517.91661464709841
 30
0.0
 40
1.0
 50
0.0
 51
87.999999999999659
  0
LINE
  5
2C7E
  8
AM_0
 10
356.38397499816108
 20
541.92729464709851
 30
0.0
 11
357.4363349981611
 21
541.95485464709816
 31
0.0
  0
ARC
  5
2C7F
  8
AM_0
 10
340.38400499816112
 20
536.40785464709847
 30
0.0
 40
3.0
 50
0.0
 51
88.499997000000747
  0
ARC
  5
2C80
  8
AM_0
 10
351.38397499816108
 20
535.80064464709858
 30
0.0
 40
5.0
 50
0.0
 51
85.000004000001198
  0
ARC
  5
2C81
  8
AM_0
 10
347.55801499816118
 20
546.17357464709835
 30
0.0
 40
5.0
 50
206.2656700000002
 51
265.00001000000071
  0
LINE
  5
2C82
  8
AM_0
 10
340.64550499816107
 20
545.62187464709859
 30
0.0
 11
334.9482449981611
 21
546.12031464709855
 31
0.0
  0
ARC
  5
2C83
  8
AM_0
 10
340.38400499816112
 20
542.63331464709859
 30
0.0
 40
3.0
 50
0.0
 51
85.000004000001198
  0
LINE
  5
2C84
  8
AM_0
 10
351.81979499816111
 20
540.7816346470986
 30
0.0
 11
347.12228499816109
 21
541.19261464709837
 31
0.0
  0
ARC
  5
2C85
  8
AM_0
 10
357.38397499816108
 20
543.95414464709825
 30
0.0
 40
2.0
 50
271.49999999999932
 51
0.0
  0
LINE
  5
2C86
  8
ﾁｭｳｼﾝｾﾝ1
 10
336.38397499816102
 20
557.38231464709827
 30
0.0
 11
358.38397499816108
 21
557.38231464709827
 31
0.0
  0
ARC
  5
2C87
  8
AM_0
 10
357.38397499816108
 20
566.81047464709843
 30
0.0
 40
2.0
 50
0.0
 51
88.499997000000747
  0
LINE
  5
2C88
  8
AM_0
 10
244.91953890409391
 20
443.8467807411655
 30
0.0
 11
224.3129371862957
 21
464.45338245896409
 31
0.0
  0
LINE
  5
2C89
  8
AM_0
 10
246.38400499816109
 20
547.62093600113349
 30
0.0
 11
246.384004998162
 21
437.14369329306362
 31
0.0
  0
ARC
  5
2C8A
  8
AM_0
 10
241.384004998161
 20
440.31124683523308
 30
0.0
 40
5.0
 50
0.0
 51
45.0
1001
GENIUS_GENODEF_13
1002
{
1000
HIER
1070
     0
1002
}
1002
{
1000
MANEDIT
1070
     0
1002
}
1002
{
1000
NOSEL
1070
     0
1002
}
1002
{
1000
BEHIND
1070
     0
1002
}
1002
{
1000
OTHER
1070
     0
1002
}
1002
{
1000
REACTOR
1002
}
1001
GENIUS_GENOBJ-N-FIL_13
1002
{
1000
OWNER
1000
GEN
1002
}
  0
ARC
  5
2C8B
  8
AM_0
 10
247.384004998161
 20
437.14369329306362
 30
0.0
 40
1.0
 50
180.0
 51
268.33915276702578
1001
GENIUS_GENOBJ-N-FIL_13
1002
{
1000
OWNER
1000
GEN
1002
}
1001
GENIUS_GENODEF_13
1002
{
1000
HIER
1070
     0
1002
}
1002
{
1000
MANEDIT
1070
     0
1002
}
1002
{
1000
NOSEL
1070
     0
1002
}
1002
{
1000
BEHIND
1070
     0
1002
}
1002
{
1000
OTHER
1070
     0
1002
}
1002
{
1000
REACTOR
1002
}
  0
LINE
  5
2C8C
  8
AM_0
 10
247.35502180487779
 20
436.14411339405251
 30
0.0
 11
256.38400499816112
 21
435.88231464709833
 31
0.0
  0
LINE
  5
2C8D
  8
AM_0
 10
256.38400499816112
 20
460.44487564709851
 30
0.0
 11
246.38400499816109
 21
460.44487564709851
 31
0.0
  0
LINE
  5
2C8E
  8
AM_0
 10
256.38400499816112
 20
446.38231264709827
 30
0.0
 11
246.38400499816109
 21
446.38231264709827
 31
0.0
  0
LINE
  5
2C8F
  8
AM_0
 10
196.884004998161
 20
484.88230701770402
 30
0.0
 11
198.88400499816109
 21
484.88230701770402
 31
0.0
  0
LINE
  5
2C90
  8
AM_0
 10
196.884004998161
 20
499.88231464709838
 30
0.0
 11
198.88400499816109
 21
499.88231464709838
 31
0.0
  0
LINE
  5
2C91
  8
AM_0
 10
196.884004998161
 20
499.88231464709838
 30
0.0
 11
196.884004998161
 21
484.88230701770402
 31
0.0
  0
LINE
  5
2C92
  8
AM_0
 10
171.884004998161
 20
494.38231464709833
 30
0.0
 11
189.884004998161
 21
494.38231464709821
 31
0.0
  0
LINE
  5
2C93
  8
AM_0
 10
171.884004998161
 20
490.38231464709833
 30
0.0
 11
189.884004998161
 21
490.38231464709833
 31
0.0
  0
LINE
  5
2C94
  8
AM_0
 10
171.884004998161
 20
498.38231464709838
 30
0.0
 11
196.884004998161
 21
498.38231464709838
 31
0.0
  0
LINE
  5
2C95
  8
AM_0
 10
171.884004998161
 20
486.38231464709833
 30
0.0
 11
196.884004998161
 21
486.38231464709833
 31
0.0
  0
LINE
  5
2C96
  8
AM_0
 10
171.884004998161
 20
498.38231464709838
 30
0.0
 11
171.884004998161
 21
486.38231464709833
 31
0.0
  0
ARC
  5
2C97
  8
AM_0
 10
189.884004998161
 20
492.38231464709861
 30
0.0
 40
1.9999999999998861
 50
270.0
 51
90.0
  0
LINE
  5
2C98
  8
AM_0
 10
189.884004998161
 20
494.38231464709821
 30
0.0
 11
189.884004998161
 21
490.38231464709833
 31
0.0
  0
ARC
  5
2C99
  8
AM_0
 10
200.88400499816109
 20
506.55388752235223
 30
0.0
 40
2.0
 50
135.0
 51
180.0
1001
GENIUS_GENODEF_13
1002
{
1000
HIER
1070
     0
1002
}
1002
{
1000
MANEDIT
1070
     0
1002
}
1002
{
1000
NOSEL
1070
     0
1002
}
1002
{
1000
BEHIND
1070
     0
1002
}
1002
{
1000
OTHER
1070
     0
1002
}
1002
{
1000
REACTOR
1002
}
1001
GENIUS_GENOBJ-N-FIL_13
1002
{
1000
OWNER
1000
GEN
1002
}
  0
LINE
  5
2C9A
  8
AM_0
 10
200.8840049981608
 20
469.38231464709821
 30
0.0
 11
200.88400499816109
 21
515.38231464709827
 31
0.0
  0
LINE
  5
2C9B
  8
AM_0
 10
221.38400499816109
 20
517.38231464709838
 30
0.0
 11
221.38400499816109
 21
467.38231464709838
 31
0.0
  0
LINE
  5
2C9C
  8
AM_0
 10
198.88400499816109
 20
506.55388752235223
 30
0.0
 11
198.88400499816109
 21
478.21074177184482
 31
0.0
  0
LINE
  5
2C9D
  8
AM_0
 10
202.88400499816109
 20
467.38231464709861
 30
0.0
 11
217.24186937443011
 21
467.38231464709838
 31
0.0
  0
ARC
  5
2C9E
  8
AM_0
 10
198.88400499816109
 20
474.55388752235223
 30
0.0
 40
2.0
 50
0.0
 51
45.0
1001
GENIUS_GENODEF_13
1002
{
1000
HIER
1070
     0
1002
}
1002
{
1000
MANEDIT
1070
     0
1002
}
1002
{
1000
NOSEL
1070
     0
1002
}
1002
{
1000
BEHIND
1070
     0
1002
}
1002
{
1000
OTHER
1070
     0
1002
}
1002
{
1000
REACTOR
1002
}
1001
GENIUS_GENOBJ-N-FIL_13
1002
{
1000
OWNER
1000
GEN
1002
}
  0
ARC
  5
2C9F
  8
AM_0
 10
202.88400499816109
 20
469.38231464709833
 30
0.0
 40
2.0
 50
180.0
 51
270.0
1001
GENIUS_GENODEF_13
1002
{
1000
HIER
1070
     0
1002
}
1002
{
1000
MANEDIT
1070
     0
1002
}
1002
{
1000
NOSEL
1070
     0
1002
}
1002
{
1000
BEHIND
1070
     0
1002
}
1002
{
1000
OTHER
1070
     0
1002
}
1002
{
1000
REACTOR
1002
}
1001
GENIUS_GENOBJ-N-FIL_13
1002
{
1000
OWNER
1000
GEN
1002
}
  0
LINE
  5
2CA0
  8
AM_0
 10
199.46979143578801
 20
476.79652820947138
 30
0.0
 11
200.29821856053411
 21
475.96810108472522
 31
0.0
  0
ARC
  5
2CA1
  8
AM_0
 10
200.88400499816109
 20
478.21074177184482
 30
0.0
 40
2.0
 50
180.0
 51
225.0
1001
GENIUS_GENODEF_13
1002
{
1000
HIER
1070
     0
1002
}
1002
{
1000
MANEDIT
1070
     0
1002
}
1002
{
1000
NOSEL
1070
     0
1002
}
1002
{
1000
BEHIND
1070
     0
1002
}
1002
{
1000
OTHER
1070
     0
1002
}
1002
{
1000
REACTOR
1002
}
1001
GENIUS_GENOBJ-N-FIL_13
1002
{
1000
OWNER
1000
GEN
1002
}
  0
ARC
  5
2CA2
  8
AM_0
 10
217.24186937443011
 20
457.38231464709833
 30
0.0
 40
10.0
 50
45.0
 51
90.0
1001
GENIUS_GENOBJ-N-FIL_13
1002
{
1000
OWNER
1000
GEN
1002
}
1001
GENIUS_GENODEF_13
1002
{
1000
HIER
1070
     0
1002
}
1002
{
1000
MANEDIT
1070
     0
1002
}
1002
{
1000
NOSEL
1070
     0
1002
}
1002
{
1000
BEHIND
1070
     0
1002
}
1002
{
1000
OTHER
1070
     0
1002
}
1002
{
1000
REACTOR
1002
}
  0
LINE
  5
2CA3
  8
AM_0
 10
244.91953890409391
 20
540.91784855303115
 30
0.0
 11
224.3129371862957
 21
520.31124683523308
 31
0.0
  0
LINE
  5
2CA4
  8
AM_0
 10
202.88400499816109
 20
517.3823146470985
 30
0.0
 11
217.24186937443011
 21
517.3823146470985
 31
0.0
  0
ARC
  5
2CA5
  8
AM_0
 10
202.88400499816109
 20
515.38231464709827
 30
0.0
 40
2.0
 50
90.0
 51
180.0
1001
GENIUS_GENODEF_13
1002
{
1000
HIER
1070
     0
1002
}
1002
{
1000
MANEDIT
1070
     0
1002
}
1002
{
1000
NOSEL
1070
     0
1002
}
1002
{
1000
BEHIND
1070
     0
1002
}
1002
{
1000
OTHER
1070
     0
1002
}
1002
{
1000
REACTOR
1002
}
1001
GENIUS_GENOBJ-N-FIL_13
1002
{
1000
OWNER
1000
GEN
1002
}
  0
LINE
  5
2CA6
  8
AM_0
 10
199.46979143578801
 20
507.9681010847255
 30
0.0
 11
200.29821856053411
 21
508.79652820947132
 31
0.0
  0
ARC
  5
2CA7
  8
AM_0
 10
198.88400499816109
 20
510.21074177184443
 30
0.0
 40
2.0
 50
315.0
 51
0.0
1001
GENIUS_GENODEF_13
1002
{
1000
HIER
1070
     0
1002
}
1002
{
1000
MANEDIT
1070
     0
1002
}
1002
{
1000
NOSEL
1070
     0
1002
}
1002
{
1000
BEHIND
1070
     0
1002
}
1002
{
1000
OTHER
1070
     0
1002
}
1002
{
1000
REACTOR
1002
}
1001
GENIUS_GENOBJ-N-FIL_13
1002
{
1000
OWNER
1000
GEN
1002
}
  0
ARC
  5
2CA8
  8
AM_0
 10
217.24186937443011
 20
527.38231464709827
 30
0.0
 40
10.0
 50
270.0
 51
315.0
1001
GENIUS_GENODEF_13
1002
{
1000
HIER
1070
     0
1002
}
1002
{
1000
MANEDIT
1070
     0
1002
}
1002
{
1000
NOSEL
1070
     0
1002
}
1002
{
1000
BEHIND
1070
     0
1002
}
1002
{
1000
OTHER
1070
     0
1002
}
1002
{
1000
REACTOR
1002
}
1001
GENIUS_GENOBJ-N-FIL_13
1002
{
1000
OWNER
1000
GEN
1002
}
  0
LINE
  5
2CA9
  8
AM_0
 10
256.38400499816112
 20
524.31975364709865
 30
0.0
 11
246.38400499816109
 21
524.31975364709865
 31
0.0
  0
ARC
  5
2CAA
  8
AM_0
 10
247.384004998161
 20
547.62093600113349
 30
0.0
 40
1.0
 50
91.660847232974191
 51
180.0
1001
GENIUS_GENOBJ-N-FIL_13
1002
{
1000
OWNER
1000
GEN
1002
}
1001
GENIUS_GENODEF_13
1002
{
1000
HIER
1070
     0
1002
}
1002
{
1000
MANEDIT
1070
     0
1002
}
1002
{
1000
NOSEL
1070
     0
1002
}
1002
{
1000
BEHIND
1070
     0
1002
}
1002
{
1000
OTHER
1070
     0
1002
}
1002
{
1000
REACTOR
1002
}
  0
LINE
  5
2CAB
  8
AM_0
 10
256.38400499816112
 20
538.38231964709826
 30
0.0
 11
246.38400499816109
 21
538.38231964709826
 31
0.0
  0
ARC
  5
2CAC
  8
AM_0
 10
241.384004998161
 20
544.45338245896414
 30
0.0
 40
5.0
 50
315.0
 51
0.0
1001
GENIUS_GENODEF_13
1002
{
1000
HIER
1070
     0
1002
}
1002
{
1000
MANEDIT
1070
     0
1002
}
1002
{
1000
NOSEL
1070
     0
1002
}
1002
{
1000
BEHIND
1070
     0
1002
}
1002
{
1000
OTHER
1070
     0
1002
}
1002
{
1000
REACTOR
1002
}
1001
GENIUS_GENOBJ-N-FIL_13
1002
{
1000
OWNER
1000
GEN
1002
}
  0
LINE
  5
2CAD
  8
AM_0
 10
247.35502180487779
 20
548.62051590014437
 30
0.0
 11
256.38400499816112
 21
548.88231464709827
 31
0.0
  0
LINE
  5
2CAE
  8
ﾁｭｳｼﾝｾﾝ1
 10
347.38397499816108
 20
438.38231464709861
 30
0.0
 11
347.38397499816108
 21
416.38231464709838
 31
0.0
  0
LINE
  5
2CAF
  8
ﾁｭｳｼﾝｾﾝ1
 10
336.38397499816102
 20
427.38231464709838
 30
0.0
 11
358.38397499816108
 21
427.38231464709838
 31
0.0
  0
LINE
  5
2CB0
  8
ﾁｭｳｼﾝｾﾝ1
 10
277.38397499816119
 20
438.38231464709861
 30
0.0
 11
277.38397499816119
 21
416.38231464709838
 31
0.0
  0
LINE
  5
2CB1
  8
ﾁｭｳｼﾝｾﾝ1
 10
266.38397499816102
 20
427.38231464709838
 30
0.0
 11
288.38397499816102
 21
427.38231464709838
 31
0.0
  0
LINE
  5
2CB2
  8
ﾁｭｳｼﾝｾﾝ1
 10
277.38397499816119
 20
568.38231464709838
 30
0.0
 11
277.38397499816119
 21
546.3823146470985
 31
0.0
  0
LINE
  5
2CB3
  8
ﾁｭｳｼﾝｾﾝ1
 10
266.38397499816102
 20
557.38231464709827
 30
0.0
 11
288.38397499816102
 21
557.38231464709827
 31
0.0
  0
TEXT
  5
2E95
  8
AM_0
 10
472.29614321345503
 20
488.85661571964749
 30
0.0
 40
10.0
  1
VX02-040G~VX02-060G
  0
ENDSEC
  0
EOF
