  0
SECTION
  2
HEADER
  9
$ACADVER
  1
AC1009
  9
$INSBASE
 10
0.0
 20
0.0
 30
0.0
  9
$EXTMIN
 10
166.34758976631289
 20
198.2546035805151
 30
-0.0000000000112498
  9
$EXTMAX
 10
654.65908989049376
 20
570.92411191559813
 30
0.0000000000002956
  9
$LIMMIN
 10
0.0
 20
0.0
  9
$LIMMAX
 10
853.5
 20
555.00000000000011
  9
$ORTHOMODE
 70
     0
  9
$REGENMODE
 70
     1
  9
$FILLMODE
 70
     1
  9
$QTEXTMODE
 70
     0
  9
$MIRRTEXT
 70
     1
  9
$DRAGMODE
 70
     2
  9
$LTSCALE
 40
3.0
  9
$OSMODE
 70
   551
  9
$ATTMODE
 70
     1
  9
$TEXTSIZE
 40
2.5
  9
$TRACEWID
 40
1.0
  9
$TEXTSTYLE
  7
STANDARD
  9
$CLAYER
  8
AM_0
  9
$CELTYPE
  6
BYLAYER
  9
$CECOLOR
 62
   256
  9
$DIMSCALE
 40
1.0
  9
$DIMASZ
 40
2.5
  9
$DIMEXO
 40
1.0
  9
$DIMDLI
 40
8.0
  9
$DIMRND
 40
0.0
  9
$DIMDLE
 40
0.0
  9
$DIMEXE
 40
0.6
  9
$DIMTP
 40
0.1
  9
$DIMTM
 40
0.1
  9
$DIMTXT
 40
2.5
  9
$DIMCEN
 40
0.0
  9
$DIMTSZ
 40
0.0
  9
$DIMTOL
 70
     0
  9
$DIMLIM
 70
     0
  9
$DIMTIH
 70
     0
  9
$DIMTOH
 70
     0
  9
$DIMSE1
 70
     0
  9
$DIMSE2
 70
     0
  9
$DIMTAD
 70
     1
  9
$DIMZIN
 70
     8
  9
$DIMBLK
  1

  9
$DIMASO
 70
     1
  9
$DIMSHO
 70
     1
  9
$DIMPOST
  1

  9
$DIMAPOST
  1
"
  9
$DIMALT
 70
     0
  9
$DIMALTD
 70
     2
  9
$DIMALTF
 40
0.0393701
  9
$DIMLFAC
 40
1.0
  9
$DIMTOFL
 70
     1
  9
$DIMTVP
 40
0.0
  9
$DIMTIX
 70
     0
  9
$DIMSOXD
 70
     0
  9
$DIMSAH
 70
     0
  9
$DIMBLK1
  1

  9
$DIMBLK2
  1

  9
$DIMSTYLE
  2
AM_ISO
  9
$DIMCLRD
 70
   256
  9
$DIMCLRE
 70
   256
  9
$DIMCLRT
 70
     4
  9
$DIMTFAC
 40
0.71
  9
$DIMGAP
 40
0.8
  9
$LUNITS
 70
     2
  9
$LUPREC
 70
     2
  9
$SKETCHINC
 40
1.0
  9
$FILLETRAD
 40
15.0
  9
$AUNITS
 70
     0
  9
$AUPREC
 70
     0
  9
$MENU
  1
.
  9
$ELEVATION
 40
0.0
  9
$PELEVATION
 40
0.0
  9
$THICKNESS
 40
0.0
  9
$LIMCHECK
 70
     0
  9
$BLIPMODE
 70
     0
  9
$CHAMFERA
 40
6.0
  9
$CHAMFERB
 40
3.0
  9
$SKPOLY
 70
     0
  9
$TDCREATE
 40
2452065.742638519
  9
$TDUPDATE
 40
2458541.4101501969
  9
$TDINDWG
 40
0.0738655324
  9
$TDUSRTIMER
 40
0.073865162
  9
$USRTIMER
 70
     1
  9
$ANGBASE
 50
0.0
  9
$ANGDIR
 70
     0
  9
$PDMODE
 70
     0
  9
$PDSIZE
 40
0.0
  9
$PLINEWID
 40
0.0
  9
$COORDS
 70
     1
  9
$SPLFRAME
 70
     0
  9
$SPLINETYPE
 70
     6
  9
$SPLINESEGS
 70
     8
  9
$ATTDIA
 70
     1
  9
$ATTREQ
 70
     1
  9
$HANDLING
 70
     1
  9
$HANDSEED
  5
349D
  9
$SURFTAB1
 70
     6
  9
$SURFTAB2
 70
     6
  9
$SURFTYPE
 70
     6
  9
$SURFU
 70
     6
  9
$SURFV
 70
     6
  9
$UCSNAME
  2

  9
$UCSORG
 10
0.0
 20
0.0
 30
0.0
  9
$UCSXDIR
 10
1.0
 20
0.0
 30
0.0
  9
$UCSYDIR
 10
0.0
 20
1.0
 30
0.0
  9
$PUCSNAME
  2

  9
$PUCSORG
 10
0.0
 20
0.0
 30
0.0
  9
$PUCSXDIR
 10
1.0
 20
0.0
 30
0.0
  9
$PUCSYDIR
 10
0.0
 20
1.0
 30
0.0
  9
$USERI1
 70
     0
  9
$USERI2
 70
     0
  9
$USERI3
 70
     0
  9
$USERI4
 70
     0
  9
$USERI5
 70
     0
  9
$USERR1
 40
0.0
  9
$USERR2
 40
0.0
  9
$USERR3
 40
0.0
  9
$USERR4
 40
0.0
  9
$USERR5
 40
0.0
  9
$WORLDVIEW
 70
     1
  9
$SHADEDGE
 70
     3
  9
$SHADEDIF
 70
    70
  9
$TILEMODE
 70
     1
  9
$MAXACTVP
 70
    64
  9
$PLIMCHECK
 70
     0
  9
$PEXTMIN
 10
1.0000000000000000E+020
 20
1.0000000000000000E+020
 30
1.0000000000000000E+020
  9
$PEXTMAX
 10
-1.0000000000000000E+020
 20
-1.0000000000000000E+020
 30
-1.0000000000000000E+020
  9
$PLIMMIN
 10
0.0
 20
0.0
  9
$PLIMMAX
 10
420.0
 20
297.0
  9
$UNITMODE
 70
     0
  9
$VISRETAIN
 70
     1
  9
$PLINEGEN
 70
     0
  9
$PSLTSCALE
 70
     1
  0
ENDSEC
  0
SECTION
  2
TABLES
  0
TABLE
  2
VPORT
 70
     1
  0
VPORT
  2
*ACTIVE
 70
     0
 10
0.0
 20
0.0
 11
1.0
 21
1.0
 12
410.50333982840328
 22
384.58935774805661
 13
0.0
 23
0.0
 14
7.5
 24
7.5
 15
30.0
 25
30.0
 16
0.0
 26
0.0
 36
1.0
 17
0.0
 27
0.0
 37
0.0
 40
375.2278802458502
 41
1.7571592210767459
 42
50.0
 43
0.0
 44
0.0
 50
0.0
 51
0.0
 71
     0
 72
   100
 73
     1
 74
     3
 75
     0
 76
     0
 77
     0
 78
     0
  0
ENDTAB
  0
TABLE
  2
LTYPE
 70
    26
  0
LTYPE
  2
CONTINUOUS
 70
     0
  3
Solid line
 72
    65
 73
     0
 40
0.0
  0
LTYPE
  2
AM_ISO02W050
 70
     0
  3
__ __ __ __ __ __ __ __ __ __ __ __ __ __ __
 72
    65
 73
     2
 40
7.5
 49
6.0
 49
-1.5
  0
LTYPE
  2
AM_ISO08W050
 70
     0
  3
____ . ____ . ____ . ____ . ____ . ____ . ____
 72
    65
 73
     4
 40
18.0
 49
12.0
 49
-1.5
 49
3.0
 49
-1.5
  0
LTYPE
  2
AM_ISO09W050
 70
     0
  3
_____ . . _____ . . _____ . . ____ .. ____
 72
    65
 73
     6
 40
22.5
 49
12.0
 49
-1.5
 49
3.0
 49
-1.5
 49
3.0
 49
-1.5
  0
LTYPE
  2
AMCONSTR
 70
     0
  3
_______________________
 72
    65
 73
     2
 40
9999.0
 49
9999.0
 49
0.0
  0
LTYPE
  2
AM_ISO08W050X2
 70
     0
  3
__ . __ . __ . __ . __ . __
 72
    65
 73
     4
 40
9.0
 49
6.0
 49
-0.75
 49
1.5
 49
-0.75
  0
LTYPE
  2
AM_ISO02W050X2
 70
     0
  3
 _ _ _ _ _ _ _ _ _ _ _ _
 72
    65
 73
     2
 40
3.75
 49
3.0
 49
-0.75
  0
LTYPE
  2
AMZIGZAG
 70
     0
  3
/\/-/\/-/\/-/\/-/\/-/\/
 72
    65
 73
     2
 40
11.000099999999991
 49
0.0001
 49
-11.0
  0
LTYPE
  2
ACISOWELD
 70
     0
  3
_ _ _ _ _
 72
    65
 73
     2
 40
2.0
 49
2.0
 49
-1.0
  0
LTYPE
  2
ACISOTGB
 70
     0
  3
__ . . __ . .
 72
    65
 73
     6
 40
9.0
 49
4.0
 49
-1.0
 49
1.0
 49
-1.0
 49
1.0
 49
-1.0
  0
LTYPE
  2
ACISOTGL
 70
     0
  3
_ _ _ _ _
 72
    65
 73
     2
 40
3.0
 49
2.0
 49
-1.0
  0
LTYPE
  2
CENTER
 70
     0
  3
__ . __
 72
    65
 73
     4
 40
7.0
 49
4.0
 49
-1.0
 49
1.0
 49
-1.0
  0
LTYPE
  2
PHANTOM2
 70
     0
  3
Phantom (.5x) ___ _ _ ___ _ _ ___ _ _ ___ _ _
 72
    65
 73
     6
 40
31.75
 49
15.875
 49
-3.174999999999998
 49
3.174999999999998
 49
-3.174999999999998
 49
3.174999999999998
 49
-3.174999999999998
  0
LTYPE
  2
ACANSTGBM
 70
     0
  3
__ . . __ . .
 72
    65
 73
     6
 40
9.0
 49
4.0
 49
-1.0
 49
1.0
 49
-1.0
 49
1.0
 49
-1.0
  0
LTYPE
  2
ACANSTGLM
 70
     0
  3
_ _ _ _ _
 72
    65
 73
     2
 40
3.0
 49
2.0
 49
-1.0
  0
LTYPE
  2
GEN3B
 70
     0
  3
 - - - - -
 72
    65
 73
     2
 40
1.0
 49
0.5
 49
-0.5
  0
LTYPE
  2
GEN7A
 70
     0
  3
__ . __ . __
 72
    65
 73
     4
 40
7.375
 49
4.75
 49
-0.875
 49
0.875
 49
-0.875
  0
LTYPE
  2
ACJISTGB
 70
     0
  3
__ . . __ . .
 72
    65
 73
     6
 40
9.0
 49
4.0
 49
-1.0
 49
1.0
 49
-1.0
 49
1.0
 49
-1.0
  0
LTYPE
  2
ACJISTGL
 70
     0
  3
_ _ _ _ _
 72
    65
 73
     2
 40
3.0
 49
2.0
 49
-1.0
  0
LTYPE
  2
HIDDEN
 70
     0
  3
Hidden __ __ __ __ __ __ __ __ __ __ __ __ __ _
 72
    65
 73
     2
 40
0.375
 49
0.25
 49
-0.125
  0
LTYPE
  2
CENTER2
 70
     0
  3
Center (.5x) ___ _ ___ _ ___ _ ___ _ ___ _ ___
 72
    65
 73
     4
 40
1.125
 49
0.75
 49
-0.125
 49
0.125
 49
-0.125
  0
LTYPE
  2
HIDDEN2
 70
     0
  3
Hidden (.5x) _ _ _ _ _ _ _ _ _ _ _ _ _ _ _ _ _
 72
    65
 73
     2
 40
0.1875
 49
0.125
 49
-0.0625
  0
LTYPE
  2
AMZIGZAG2
 70
     0
  3
/\/-/\/-/\/-/\/-/\/-/\/
 72
    65
 73
     2
 40
0.4401
 49
0.0001
 49
-0.4400000000000002
  0
LTYPE
  2
ACANSTGB
 70
     0
  3
__ . . __ . .
 72
    65
 73
     6
 40
0.35433070866
 49
0.15748031496
 49
-0.03937007874
 49
0.03937007874
 49
-0.03937007874
 49
0.03937007874
 49
-0.03937007874
  0
LTYPE
  2
ACANSTGL
 70
     0
  3
_ _ _ _ _
 72
    65
 73
     2
 40
0.11811023622
 49
0.07874015748
 49
-0.03937007874
  0
ENDTAB
  0
TABLE
  2
LAYER
 70
     6
  0
LAYER
  2
0
 70
     0
 62
     7
  6
CONTINUOUS
  0
LAYER
  2
AM_0
 70
     0
 62
     7
  6
CONTINUOUS
  0
LAYER
  2
AM_5
 70
     0
 62
     2
  6
CONTINUOUS
  0
LAYER
  2
DEFPOINTS
 70
     0
 62
     7
  6
CONTINUOUS
  0
LAYER
  2
ｶｸﾚｾﾝ2
 70
     0
 62
     3
  6
GEN3B
  0
LAYER
  2
ﾁｭｳｼﾝｾﾝ1
 70
     0
 62
     1
  6
GEN7A
  0
ENDTAB
  0
TABLE
  2
STYLE
 70
     9
  0
STYLE
  2
STANDARD
 70
     0
 40
0.0
 41
0.8299999999999999
 50
0.0
 71
     0
 42
2.5
  3
txt.shx
  4
bigfont.shx
  0
STYLE
  2
ANNOTATIVE
 70
     0
 40
0.0
 41
1.0
 50
0.0
 71
     0
 42
0.2
  3
txt
  4

  0
STYLE
  2

 70
     1
 40
0.0
 41
1.0
 50
0.0
 71
     0
 42
2.5
  3
ltypeshp.shx
  4

  0
STYLE
  2
ACISOTS
 70
     0
 40
1.0
 41
1.0
 50
0.0
 71
     0
 42
2.5
  3
isocp.shx
  4
extfont.shx
  0
STYLE
  2
ACISOGDT
 70
     0
 40
0.0
 41
1.0
 50
0.0
 71
     0
 42
2.5
  3
amgdt.shx
  4

  0
STYLE
  2
ACANSTS
 70
     0
 40
1.0
 41
1.0
 50
0.0
 71
     0
 42
2.5
  3
romans.shx
  4
bigfont.shx
  0
STYLE
  2
ACANSGDT
 70
     0
 40
0.0
 41
1.0
 50
0.0
 71
     0
 42
2.5
  3
amgdt.shx
  4

  0
STYLE
  2
ACJISTS
 70
     0
 40
1.0
 41
1.0
 50
0.0
 71
     0
 42
2.5
  3
isocp.shx
  4
bigfont.shx
  0
STYLE
  2
ACJISGDT
 70
     0
 40
0.0
 41
1.0
 50
0.0
 71
     0
 42
2.5
  3
amgdt.shx
  4

  0
ENDTAB
  0
TABLE
  2
VIEW
 70
     6
  0
VIEW
  2
AM_VIEW1
 70
     0
 40
277.49999999999989
 10
249.64779005524849
 20
416.24999999999989
 41
499.2955801104971
 11
0.0
 21
0.0
 31
1.0
 12
0.0
 22
0.0
 32
0.0
 42
50.0
 43
0.0
 44
0.0
 50
0.0
 71
     0
  0
VIEW
  2
AM_VIEW2
 70
     0
 40
277.49999999999989
 10
603.85220994475117
 20
416.24999999999989
 41
499.2955801104971
 11
0.0
 21
0.0
 31
1.0
 12
0.0
 22
0.0
 32
0.0
 42
50.0
 43
0.0
 44
0.0
 50
0.0
 71
     0
  0
VIEW
  2
AM_VIEW3
 70
     0
 40
277.49999999999989
 10
249.64779005524849
 20
138.7499999999998
 41
499.2955801104971
 11
0.0
 21
0.0
 31
1.0
 12
0.0
 22
0.0
 32
0.0
 42
50.0
 43
0.0
 44
0.0
 50
0.0
 71
     0
  0
VIEW
  2
AM_VIEW4
 70
     0
 40
277.49999999999989
 10
603.85220994475117
 20
138.7499999999998
 41
499.2955801104971
 11
0.0
 21
0.0
 31
1.0
 12
0.0
 22
0.0
 32
0.0
 42
50.0
 43
0.0
 44
0.0
 50
0.0
 71
     0
  0
VIEW
  2
AM_VIEW5
 70
     0
 40
277.5
 10
426.75
 20
277.49999999999989
 41
499.2955801104971
 11
0.0
 21
0.0
 31
1.0
 12
0.0
 22
0.0
 32
0.0
 42
50.0
 43
0.0
 44
0.0
 50
0.0
 71
     0
  0
VIEW
  2
AM_VIEW6
 70
     0
 40
554.99445000000014
 10
426.75
 20
277.49999999999989
 41
998.5811743093924
 11
0.0
 21
0.0
 31
1.0
 12
0.0
 22
0.0
 32
0.0
 42
50.0
 43
0.0
 44
0.0
 50
0.0
 71
     0
  0
ENDTAB
  0
TABLE
  2
UCS
 70
     0
  0
ENDTAB
  0
TABLE
  2
APPID
 70
    95
  0
APPID
  2
ACAD
 70
     0
  0
APPID
  2
ACADANNOTATIVE
 70
     0
  0
APPID
  2
MCAD_NO_VIS
 70
     0
  0
APPID
  2
ACAD_TEMP_GRAPHIC
 70
     0
  0
APPID
  2
ACATTRIBSERVICES
 70
     0
  0
APPID
  2
GENIUS_GENREC_14
 70
     0
  0
APPID
  2
GENIUS_GENOBJ-N-REC_13
 70
     0
  0
APPID
  2
GENIUS_GENODEF_13
 70
     0
  0
APPID
  2
GENIUS_GENOLIS_13
 70
     0
  0
APPID
  2
GENIUS_GENOBJ-N-TIT_13
 70
     0
  0
APPID
  2
GENIUS_GENOENT_13
 70
     0
  0
APPID
  2
GENIUS_GENTITLE_13
 70
     0
  0
APPID
  2
GENIUS_GENOREF_13
 70
     0
  0
APPID
  2
GENIUS_GENSCREG_15
 70
     0
  0
APPID
  2
GENIUS_GENOBJ-N-SDF_13
 70
     0
  0
APPID
  2
GENIUS_GENFIL_13
 70
     0
  0
APPID
  2
GENIUS_GENOBJ-N-CHA_13
 70
     0
  0
APPID
  2
GENIUS_GENDTOL_13
 70
     0
  0
APPID
  2
GENIUS_GENOBJ-N-FIL_13
 70
     0
  0
APPID
  2
AD_DRAW
 70
     0
  0
APPID
  2
DESIGNERASSEMBLIES
 70
     0
  0
APPID
  2
ASURF_PCURVE_APPNAME
 70
     0
  0
APPID
  2
GENIUS_GE3SECT_13
 70
     0
  0
APPID
  2
GENIUS_GENCFG_13
 70
     0
  0
APPID
  2
GENIUS_GE3CFG0_13
 70
     0
  0
APPID
  2
GENIUS_GENCFG0_13
 70
     0
  0
APPID
  2
GENIUS_GENCFG1_13
 70
     0
  0
APPID
  2
GENIUS_GENCFG2_13
 70
     0
  0
APPID
  2
GENIUS_GENCFG3_13
 70
     0
  0
APPID
  2
GENIUS_GENCFG4_13
 70
     0
  0
APPID
  2
GENIUS_GEVCFG0_13
 70
     0
  0
APPID
  2
GENIUS_GENHINW_13
 70
     0
  0
APPID
  2
GENIUS_FIRSTVISTXT_14
 70
     0
  0
APPID
  2
GENIUS_GENOBJ-N-LEADER_13
 70
     0
  0
APPID
  2
GEV_VCCNULL_SWITCH_OFF
 70
     0
  0
APPID
  2
GENIUS_GEFCFG0_13
 70
     0
  0
APPID
  2
GENIUS_GENZVEED_13
 70
     0
  0
APPID
  2
GENIUS_GENSCREG_13
 70
     0
  0
APPID
  2
GENIUS_DUMCFG0_13
 70
     0
  0
APPID
  2
GEVID936201362
 70
     0
  0
APPID
  2
GEVDC
 70
     0
  0
APPID
  2
GEVCON
 70
     0
  0
APPID
  2
VCC
 70
     0
  0
APPID
  2
GEVPT
 70
     0
  0
APPID
  2
GEVIT
 70
     0
  0
APPID
  2
GENBH
 70
     0
  0
APPID
  2
GEVMK
 70
     0
  0
APPID
  2
GENIUS_GENBH_13
 70
     0
  0
APPID
  2
GENIUS_GENOBJ-NBEHI-BHF_13
 70
     0
  0
APPID
  2
GENIUS_GENOBJ-NBEHI-BHB_13
 70
     0
  0
APPID
  2
GENIUS_GENOBJ-F-DESC_13
 70
     0
  0
APPID
  2
GENIUS_GEFDESC_14
 70
     0
  0
APPID
  2
GENIUS_GENOBJ-F-PART_13
 70
     0
  0
APPID
  2
GENIUS_GEFSTDP_13
 70
     0
  0
APPID
  2
GENIUS_GEFPARTINS_13
 70
     0
  0
APPID
  2
GENIUS_GENTRA_14
 70
     0
  0
APPID
  2
GENIUS_GENINF13_13
 70
     0
  0
APPID
  2
GENIUS_GENOBJ-N-INFOPT_13
 70
     0
  0
APPID
  2
GENIUS_GENOBJ-N-RSSYM_13
 70
     0
  0
APPID
  2
GENIUS_GENSYMENT_13
 70
     0
  0
APPID
  2
GENIUS_GENSCSYM_13
 70
     0
  0
APPID
  2
GENIUS_GEFINFNAM_13
 70
     0
  0
APPID
  2
GENIUS_GENOBJ-N-CEN_13
 70
     0
  0
APPID
  2
GENIUS_GENOBJ-N-CRS_13
 70
     0
  0
APPID
  2
GENIUS_GENOBJ-N-CRC_13
 70
     0
  0
APPID
  2
GENIUS_GENCRC_14
 70
     0
  0
APPID
  2
GEVID942827039
 70
     0
  0
APPID
  2
GEVID942827040
 70
     0
  0
APPID
  2
GEVID942827041
 70
     0
  0
APPID
  2
GENIUS_GENOBJ-F-SCPASSM_13
 70
     0
  0
APPID
  2
GENIUS_GENDIMSH_14
 70
     0
  0
APPID
  2
GEVID942827042
 70
     0
  0
APPID
  2
GEVID946020473
 70
     0
  0
APPID
  2
GEVID946020474
 70
     0
  0
APPID
  2
GEVID946020475
 70
     0
  0
APPID
  2
GENIUS_GENOBJ-N-HTC_13
 70
     0
  0
APPID
  2
GENIUS_GENHATCH_13
 70
     0
  0
APPID
  2
GEVID948854295
 70
     0
  0
APPID
  2
GEVID939402019
 70
     0
  0
APPID
  2
GEVID952919491
 70
     0
  0
APPID
  2
GEVID952919492
 70
     0
  0
APPID
  2
GENIUS_GEFWELD_13
 70
     0
  0
APPID
  2
GENIUS_GENOBJ-F-WELS_13
 70
     0
  0
APPID
  2
GEVID952919493
 70
     0
  0
APPID
  2
GENIUS_GENOBJ-N-RSBK_13
 70
     0
  0
APPID
  2
GENIUS_GENOBJ-N-LIB_13
 70
     0
  0
APPID
  2
GENIUS_GENSCALE_13
 70
     0
  0
APPID
  2
GEVID986376691
 70
     0
  0
APPID
  2
DCO15
 70
     0
  0
APPID
  2
ACAD_DSTYLE_DIMBREAK
 70
     0
  0
APPID
  2
ACAD_DSTYLE_DIMJAG
 70
     0
  0
APPID
  2
ACAD_NAV_VCDISPLAY
 70
     0
  0
APPID
  2
ACADANNOPO
 70
     0
  0
APPID
  2
ACAD_EXEMPT_FROM_CAD_STANDARDS
 70
     0
  0
APPID
  2
ACAD_MLEADERVER
 70
     0
  0
ENDTAB
  0
TABLE
  2
DIMSTYLE
 70
    22
  0
DIMSTYLE
  2
STANDARD
 70
     0
  3

  4

  5

  6

  7

 40
1.0
 41
0.18
 42
0.0625
 43
0.38
 44
0.18
 45
0.0
 46
0.0
 47
0.0
 48
0.0
140
0.18
141
0.09
142
0.0
143
25.399999999999999
144
1.0
145
0.0
146
1.0
147
0.09
 71
     0
 72
     0
 73
     1
 74
     1
 75
     0
 76
     0
 77
     0
 78
     0
170
     0
171
     2
172
     0
173
     0
174
     0
175
     0
176
     0
177
     0
178
     0
  0
DIMSTYLE
  2
ANNOTATIVE
 70
     0
  3

  4

  5

  6

  7

 40
1.0
 41
0.18
 42
0.0625
 43
0.38
 44
0.18
 45
0.0
 46
0.0
 47
0.0
 48
0.0
140
0.18
141
0.09
142
0.0
143
25.399999999999999
144
1.0
145
0.0
146
1.0
147
0.09
 71
     0
 72
     0
 73
     1
 74
     1
 75
     0
 76
     0
 77
     0
 78
     0
170
     0
171
     2
172
     0
173
     0
174
     0
175
     0
176
     0
177
     0
178
     0
  0
DIMSTYLE
  2
AM_ISO
 70
     0
  3

  4
"
  5

  6

  7

 40
1.0
 41
2.5
 42
1.0
 43
8.0
 44
0.6
 45
0.0
 46
0.0
 47
0.1
 48
0.1
140
2.5
141
0.0
142
0.0
143
0.0393701
144
1.0
145
0.0
146
0.71
147
0.8
 71
     0
 72
     0
 73
     0
 74
     0
 75
     0
 76
     0
 77
     1
 78
     8
170
     0
171
     2
172
     1
173
     0
174
     0
175
     0
176
   256
177
   256
178
     4
  0
DIMSTYLE
  2
AM_ISO$3
 70
     0
  3

  4
"
  5

  6

  7

 40
1.0
 41
2.5
 42
1.0
 43
8.0
 44
0.6
 45
0.0
 46
0.0
 47
0.1
 48
0.1
140
2.5
141
0.0
142
0.0
143
0.0393701
144
1.0
145
0.0
146
0.71
147
0.8
 71
     0
 72
     0
 73
     0
 74
     1
 75
     0
 76
     0
 77
     1
 78
     8
170
     0
171
     2
172
     0
173
     0
174
     0
175
     0
176
   256
177
   256
178
     4
  0
DIMSTYLE
  2
AM_ISO$4
 70
     0
  3

  4
"
  5

  6

  7

 40
1.0
 41
2.5
 42
1.0
 43
8.0
 44
0.6
 45
0.0
 46
0.0
 47
0.1
 48
0.1
140
2.5
141
0.0
142
0.0
143
0.0393701
144
1.0
145
0.0
146
0.71
147
0.8
 71
     0
 72
     0
 73
     0
 74
     1
 75
     0
 76
     0
 77
     1
 78
     8
170
     0
171
     2
172
     0
173
     0
174
     0
175
     0
176
   256
177
   256
178
     4
  0
DIMSTYLE
  2
AM_ISO$6
 70
     0
  3

  4
"
  5

  6

  7

 40
1.0
 41
2.5
 42
1.0
 43
8.0
 44
0.6
 45
0.0
 46
0.0
 47
0.1
 48
0.1
140
2.5
141
0.0
142
0.0
143
0.0393701
144
1.0
145
0.0
146
0.71
147
0.8
 71
     0
 72
     0
 73
     0
 74
     0
 75
     0
 76
     0
 77
     0
 78
     8
170
     0
171
     2
172
     1
173
     0
174
     0
175
     0
176
   256
177
   256
178
     4
  0
DIMSTYLE
  2
AM_ISO$7
 70
     0
  3

  4
"
  5

  6

  7

 40
1.0
 41
2.5
 42
1.0
 43
8.0
 44
0.6
 45
0.0
 46
0.0
 47
0.1
 48
0.1
140
2.5
141
0.0
142
0.0
143
0.0393701
144
1.0
145
0.0
146
0.71
147
0.8
 71
     0
 72
     0
 73
     0
 74
     0
 75
     0
 76
     0
 77
     1
 78
     8
170
     0
171
     2
172
     1
173
     0
174
     0
175
     0
176
   256
177
   256
178
     4
  0
DIMSTYLE
  2
AM_ISO$SF
 70
     0
  3

  4
"
  5

  6

  7

 40
1.0
 41
2.5
 42
1.0
 43
10.0
 44
1.0
 45
0.0
 46
0.0
 47
0.1
 48
0.1
140
3.5
141
0.0
142
0.0
143
0.0393701
144
1.0
145
0.0
146
0.71
147
1.5
 71
     0
 72
     0
 73
     0
 74
     0
 75
     1
 76
     1
 77
     1
 78
     8
170
     0
171
     2
172
     1
173
     0
174
     0
175
     0
176
   256
177
   256
178
     2
  0
DIMSTYLE
  2
AM_ISO$SH
 70
     0
  3

  4
"
  5

  6

  7

 40
1.0
 41
2.5
 42
1.0
 43
10.0
 44
1.0
 45
0.0
 46
0.0
 47
0.1
 48
0.1
140
3.5
141
0.0
142
0.0
143
0.0393701
144
2.0
145
0.0
146
0.71
147
1.5
 71
     0
 72
     0
 73
     0
 74
     0
 75
     1
 76
     1
 77
     1
 78
     8
170
     0
171
     2
172
     1
173
     1
174
     0
175
     0
176
   256
177
   256
178
     2
  0
DIMSTYLE
  2
AM_JIS
 70
     0
  3

  4
"
  5

  6

  7

 40
1.0
 41
2.5
 42
1.0
 43
7.0
 44
1.0
 45
0.0
 46
0.0
 47
0.1
 48
0.1000000001
140
2.5
141
0.0
142
0.0
143
0.0393701
144
1.0
145
0.0
146
0.71
147
1.0
 71
     0
 72
     0
 73
     0
 74
     0
 75
     0
 76
     0
 77
     3
 78
     8
170
     0
171
     2
172
     1
173
     0
174
     0
175
     0
176
   256
177
   256
178
     4
  0
DIMSTYLE
  2
AM_JIS$3
 70
     0
  3

  4
"
  5

  6

  7

 40
1.0
 41
2.5
 42
1.0
 43
7.0
 44
1.0
 45
0.0
 46
0.0
 47
0.1
 48
0.1000000001
140
2.5
141
0.0
142
0.0
143
0.0393701
144
1.0
145
0.0
146
0.71
147
1.0
 71
     0
 72
     0
 73
     0
 74
     1
 75
     0
 76
     0
 77
     3
 78
     8
170
     0
171
     2
172
     0
173
     0
174
     0
175
     0
176
   256
177
   256
178
     4
  0
DIMSTYLE
  2
AM_JIS$4
 70
     0
  3

  4
"
  5

  6

  7

 40
1.0
 41
2.5
 42
1.0
 43
7.0
 44
1.0
 45
0.0
 46
0.0
 47
0.1
 48
0.1000000001
140
2.5
141
0.0
142
0.0
143
0.0393701
144
1.0
145
0.0
146
0.71
147
1.0
 71
     0
 72
     0
 73
     0
 74
     0
 75
     0
 76
     0
 77
     3
 78
     8
170
     0
171
     2
172
     0
173
     0
174
     0
175
     0
176
   256
177
   256
178
     4
  0
DIMSTYLE
  2
AM_JIS$6
 70
     0
  3

  4
"
  5

  6

  7

 40
1.0
 41
2.5
 42
1.0
 43
7.0
 44
1.0
 45
0.0
 46
0.0
 47
0.1
 48
0.1000000001
140
2.5
141
0.0
142
0.0
143
0.0393701
144
1.0
145
0.0
146
0.71
147
1.0
 71
     0
 72
     0
 73
     0
 74
     0
 75
     0
 76
     0
 77
     0
 78
     8
170
     0
171
     2
172
     1
173
     0
174
     0
175
     0
176
   256
177
   256
178
     4
  0
DIMSTYLE
  2
AM_JIS$7
 70
     0
  3

  4
"
  5

  6

  7

 40
1.0
 41
2.5
 42
1.0
 43
7.0
 44
1.0
 45
0.0
 46
0.0
 47
0.1
 48
0.1000000001
140
2.5
141
0.0
142
0.0
143
0.0393701
144
1.0
145
0.0
146
0.71
147
1.0
 71
     0
 72
     0
 73
     0
 74
     0
 75
     0
 76
     0
 77
     3
 78
     8
170
     0
171
     2
172
     1
173
     0
174
     0
175
     0
176
   256
177
   256
178
     4
  0
DIMSTYLE
  2
AM_JIS$SF
 70
     0
  3

  4
"
  5

  6

  7

 40
1.0
 41
2.5
 42
1.0
 43
10.0
 44
1.0
 45
0.0
 46
0.0
 47
0.1
 48
0.1
140
3.5
141
0.0
142
0.0
143
0.0393701
144
1.0
145
0.0
146
0.71
147
1.5
 71
     0
 72
     0
 73
     0
 74
     0
 75
     1
 76
     1
 77
     3
 78
     8
170
     0
171
     2
172
     1
173
     0
174
     0
175
     0
176
   256
177
   256
178
     4
  0
DIMSTYLE
  2
AM_JIS$SH
 70
     0
  3

  4
"
  5

  6

  7

 40
1.0
 41
2.5
 42
1.0
 43
10.0
 44
1.0
 45
0.0
 46
0.0
 47
0.1
 48
0.1
140
3.5
141
0.0
142
0.0
143
0.0393701
144
1.0
145
0.0
146
0.71
147
1.5
 71
     0
 72
     0
 73
     0
 74
     0
 75
     1
 76
     0
 77
     3
 78
     8
170
     0
171
     2
172
     1
173
     1
174
     0
175
     0
176
   256
177
   256
178
     4
  0
DIMSTYLE
  2
AM_ANSI
 70
     0
  3

  4
mm
  5

  6

  7

 40
1.0
 41
0.1
 42
0.05
 43
0.5
 44
0.1
 45
0.0
 46
0.0
 47
0.1
 48
0.1
140
0.12
141
0.0
142
0.0
143
25.399999999999999
144
1.0
145
0.0
146
0.71
147
0.06
 71
     0
 72
     0
 73
     1
 74
     1
 75
     0
 76
     0
 77
     0
 78
     7
170
     0
171
     2
172
     0
173
     0
174
     0
175
     0
176
   256
177
   256
178
     2
  0
DIMSTYLE
  2
AM_ANSI$3
 70
     0
  3

  4
mm
  5

  6

  7

 40
1.0
 41
0.1
 42
0.05
 43
0.5
 44
0.1
 45
0.0
 46
0.0
 47
0.1
 48
0.1
140
0.12
141
0.0
142
0.0
143
25.399999999999999
144
1.0
145
0.0
146
0.71
147
0.06
 71
     0
 72
     0
 73
     1
 74
     1
 75
     0
 76
     0
 77
     0
 78
     7
170
     0
171
     2
172
     0
173
     0
174
     0
175
     0
176
   256
177
   256
178
     2
  0
DIMSTYLE
  2
AM_ANSI$4
 70
     0
  3

  4
mm
  5

  6

  7

 40
1.0
 41
0.1
 42
0.05
 43
0.5
 44
0.1
 45
0.0
 46
0.0
 47
0.1
 48
0.1
140
0.12
141
0.0
142
0.0
143
25.399999999999999
144
1.0
145
0.0
146
0.71
147
0.06
 71
     0
 72
     0
 73
     1
 74
     1
 75
     0
 76
     0
 77
     0
 78
     7
170
     0
171
     2
172
     0
173
     0
174
     0
175
     0
176
   256
177
   256
178
     2
  0
DIMSTYLE
  2
AM_ANSI$7
 70
     0
  3

  4
mm
  5

  6

  7

 40
1.0
 41
0.1
 42
0.05
 43
0.5
 44
0.1
 45
0.0
 46
0.0
 47
0.1
 48
0.1
140
0.24
141
0.0
142
0.0
143
25.399999999999999
144
1.0
145
0.0
146
0.71
147
0.06
 71
     0
 72
     0
 73
     1
 74
     1
 75
     0
 76
     0
 77
     0
 78
     7
170
     0
171
     2
172
     0
173
     0
174
     0
175
     0
176
   256
177
   256
178
     2
  0
DIMSTYLE
  2
AM_ANSI$SF
 70
     0
  3

  4
mm
  5

  6

  7

 40
1.0
 41
0.1
 42
0.05
 43
0.5
 44
0.1
 45
0.0
 46
0.0
 47
0.1
 48
0.1
140
0.12
141
0.0
142
0.0
143
25.399999999999999
144
1.0
145
0.0
146
0.71
147
0.06
 71
     0
 72
     0
 73
     1
 74
     1
 75
     1
 76
     1
 77
     0
 78
     7
170
     0
171
     2
172
     0
173
     0
174
     0
175
     0
176
   256
177
   256
178
     2
  0
DIMSTYLE
  2
AM_ANSI$SH
 70
     0
  3

  4
mm
  5

  6

  7

 40
1.0
 41
0.1
 42
0.05
 43
0.5
 44
0.1
 45
0.0
 46
0.0
 47
0.1
 48
0.1
140
0.12
141
0.0
142
0.0
143
25.399999999999999
144
1.0
145
0.0
146
0.71
147
0.06
 71
     0
 72
     0
 73
     1
 74
     1
 75
     1
 76
     1
 77
     0
 78
     7
170
     0
171
     2
172
     0
173
     1
174
     0
175
     0
176
   256
177
   256
178
     2
  0
ENDTAB
  0
ENDSEC
  0
SECTION
  2
BLOCKS
  0
BLOCK
  8
0
  2
$MODEL_SPACE
 70
     0
 10
0.0
 20
0.0
 30
0.0
  3
$MODEL_SPACE
  1

  0
ENDBLK
  5
330F
  8
0
  0
BLOCK
 67
     1
  8
0
  2
$PAPER_SPACE
 70
     0
 10
0.0
 20
0.0
 30
0.0
  3
$PAPER_SPACE
  1

  0
ENDBLK
  5
330B
 67
     1
  8
0
  0
BLOCK
  8
0
  2
GENAXEH
 70
     0
 10
0.0
 20
0.0
 30
0.0
  3
GENAXEH
  1

  0
LINE
  5
308C
  8
0
 10
-1.0
 20
0.0
 30
0.0
 11
1.0
 21
0.0
 31
0.0
  0
ENDBLK
  5
308D
  8
0
  0
BLOCK
  8
0
  2
_OPEN30
 70
     0
 10
0.0
 20
0.0
 30
0.0
  3
_OPEN30
  1

  0
LINE
  5
3090
  8
0
 62
     0
 10
-1.0
 20
0.26794919
 30
0.0
 11
0.0
 21
0.0
 31
0.0
  0
LINE
  5
3091
  8
0
 62
     0
 10
0.0
 20
0.0
 30
0.0
 11
-1.0
 21
-0.26794919
 31
0.0
  0
LINE
  5
3092
  8
0
 62
     0
 10
0.0
 20
0.0
 30
0.0
 11
-1.0
 21
0.0
 31
0.0
  0
ENDBLK
  5
3093
  8
0
  0
BLOCK
  8
0
  2
_NONE
 70
     0
 10
0.0
 20
0.0
 30
0.0
  3
_NONE
  1

  0
ENDBLK
  5
3096
  8
0
  0
BLOCK
  8
0
  2
*U5
 70
     1
 10
0.0
 20
0.0
 30
0.0
  3
*U5
  1

  0
TEXT
  5
3099
  8
AM_0
 62
     4
 10
709.12888974490863
 20
237.84718006622751
 30
0.0
 40
7.5
  1
95
 50
90.0
 41
0.8299999999999999
  0
TEXT
  5
309A
  8
AM_0
 62
     3
 10
702.02888974490861
 20
250.2971800662275
 30
0.0
 40
5.3249999999999993
  1
 0
 50
90.0
 41
0.8299999999999999
  0
TEXT
  5
309B
  8
AM_0
 62
     3
 10
709.12888974490863
 20
250.2971800662275
 30
0.0
 40
5.3249999999999993
  1
-0.5
 50
90.0
 41
0.8299999999999999
  0
ENDBLK
  5
309C
  8
0
  0
BLOCK
  8
0
  2
_ACMFILLEDHALF
 70
     0
 10
0.0
 20
0.0
 30
0.0
  3
_ACMFILLEDHALF
  1

  0
TRACE
  5
3407
  8
AM_0
 62
     0
 10
-0.8
 20
0.0
 30
0.0
 11
-1.0
 21
0.166666666
 31
0.0
 12
0.0
 22
0.0
 32
0.0
 13
0.0
 23
0.0
 33
0.0
  0
LINE
  5
3408
  8
AM_0
 62
     0
 10
-1.0
 20
0.0
 30
0.0
 11
-0.8
 21
0.0
 31
0.0
  0
ENDBLK
  5
3406
  8
0
  0
ENDSEC
  0
SECTION
  2
ENTITIES
  0
LINE
  5
309D
  8
AM_0
 10
196.8839849981612
 20
285.33348606622718
 30
0.0
 11
196.8839849981612
 21
270.33347843683282
 31
0.0
  0
LINE
  5
309E
  8
AM_0
 10
171.88398499816131
 20
285.33348606622718
 30
0.0
 11
171.88398499816131
 21
271.83348606622729
 31
0.0
  0
LINE
  5
309F
  8
AM_0
 10
246.3839849981614
 20
333.07210742026228
 30
0.0
 11
246.38398499816211
 21
222.5948647121925
 31
0.0
  0
LINE
  5
30A0
  8
AM_0
 10
221.3839849981614
 20
302.83348606622718
 30
0.0
 11
221.3839849981614
 21
252.83348606622721
 31
0.0
  0
LINE
  5
30A1
  8
AM_0
 10
200.88398499816111
 20
254.83348606622721
 30
0.0
 11
200.8839849981614
 21
300.83348606622729
 31
0.0
  0
LINE
  5
30A2
  8
AM_0
 10
198.8839849981614
 20
292.00505894148108
 30
0.0
 11
198.8839849981614
 21
263.66191319097362
 31
0.0
  0
LINE
  5
30A3
  8
AM_0
 10
287.38400499816112
 20
319.3278420662275
 30
0.0
 11
287.38400499816112
 21
214.96341306622739
 31
0.0
  0
LINE
  5
30A4
  8
AM_0
 10
343.38395499816141
 20
342.6796020662274
 30
0.0
 11
343.38395499816141
 21
233.87430306622741
 31
0.0
  0
LINE
  5
30A5
  8
AM_0
 10
330.38393499816112
 20
307.6243020662273
 30
0.0
 11
330.38393499816112
 21
219.8334990662274
 31
0.0
  0
LINE
  5
30A6
  8
AM_0
 10
297.38393499816118
 20
285.0497640662274
 30
0.0
 11
297.38393499816118
 21
248.3579610662274
 31
0.0
  0
LINE
  5
30A7
  8
AM_0
 10
356.38397499816108
 20
328.08448206622751
 30
0.0
 11
356.38397499816108
 21
218.5780530662274
 31
0.0
  0
LINE
  5
30A8
  8
AM_0
 10
294.38393499816118
 20
348.83350206622742
 30
0.0
 11
294.38393499816118
 21
233.6906460662274
 31
0.0
  0
LINE
  5
30A9
  8
AM_0
 10
359.38397499816108
 20
272.48817906622747
 30
0.0
 11
359.38397499816108
 21
323.1787920662274
 31
0.0
  0
LINE
  5
30AA
  8
AM_0
 10
256.3839849981614
 20
221.33348606622741
 30
0.0
 11
256.3839849981614
 21
334.33348606622729
 31
0.0
  0
LINE
  5
30AB
  8
AM_0
 10
291.22451499816111
 20
218.7959790662274
 30
0.0
 11
297.27509499816142
 21
247.32043806622741
 31
0.0
  0
LINE
  5
30AC
  8
AM_0
 10
286.33334499816141
 20
214.83349806622741
 30
0.0
 11
294.38393499816118
 21
214.83349806622741
 31
0.0
  0
LINE
  5
30AD
  8
AM_0
 10
291.38393499816112
 20
203.83348506622741
 30
0.0
 11
333.38393499816112
 21
203.83348506622741
 31
0.0
  0
LINE
  5
30AE
  8
AM_0
 10
244.9195189040941
 20
229.29795216029461
 30
0.0
 11
224.31291718629581
 21
249.9045538780928
 31
0.0
  0
LINE
  5
30AF
  8
AM_0
 10
171.88398499816131
 20
271.83348606622729
 30
0.0
 11
196.8839849981612
 21
271.83348606622729
 31
0.0
  0
LINE
  5
30B0
  8
AM_0
 10
202.8839849981614
 20
252.83348606622729
 30
0.0
 11
217.2418493744303
 21
252.83348606622721
 31
0.0
  0
ARC
  5
30B1
  8
AM_0
 10
202.8839849981614
 20
254.83348606622729
 30
0.0
 40
2.0
 50
180.0
 51
270.0
1001
GENIUS_GENODEF_13
1002
{
1000
HIER
1070
     0
1002
}
1002
{
1000
MANEDIT
1070
     0
1002
}
1002
{
1000
NOSEL
1070
     0
1002
}
1002
{
1000
BEHIND
1070
     0
1002
}
1002
{
1000
OTHER
1070
     0
1002
}
1002
{
1000
REACTOR
1002
}
1001
GENIUS_GENOBJ-N-FIL_13
1002
{
1000
OWNER
1000
GEN
1002
}
  0
ARC
  5
30B2
  8
AM_0
 10
217.2418493744303
 20
242.83348606622741
 30
0.0
 40
10.0
 50
45.0
 51
90.0
1001
GENIUS_GENOBJ-N-FIL_13
1002
{
1000
OWNER
1000
GEN
1002
}
1001
GENIUS_GENODEF_13
1002
{
1000
HIER
1070
     0
1002
}
1002
{
1000
MANEDIT
1070
     0
1002
}
1002
{
1000
NOSEL
1070
     0
1002
}
1002
{
1000
BEHIND
1070
     0
1002
}
1002
{
1000
OTHER
1070
     0
1002
}
1002
{
1000
REACTOR
1002
}
  0
ARC
  5
30B3
  8
AM_0
 10
200.8839849981614
 20
263.66191319097362
 30
0.0
 40
2.0
 50
180.0
 51
225.0000000000006
1001
GENIUS_GENODEF_13
1002
{
1000
HIER
1070
     0
1002
}
1002
{
1000
MANEDIT
1070
     0
1002
}
1002
{
1000
NOSEL
1070
     0
1002
}
1002
{
1000
BEHIND
1070
     0
1002
}
1002
{
1000
OTHER
1070
     0
1002
}
1002
{
1000
REACTOR
1002
}
1001
GENIUS_GENOBJ-N-FIL_13
1002
{
1000
OWNER
1000
GEN
1002
}
  0
LINE
  5
30B4
  8
AM_0
 10
199.4697714357882
 20
262.2476996286004
 30
0.0
 11
200.2981985605345
 21
261.4192725038543
 31
0.0
  0
ARC
  5
30B5
  8
AM_0
 10
198.8839849981614
 20
260.0050589414812
 30
0.0
 40
2.0
 50
0.0
 51
45.000000000000568
1001
GENIUS_GENODEF_13
1002
{
1000
HIER
1070
     0
1002
}
1002
{
1000
MANEDIT
1070
     0
1002
}
1002
{
1000
NOSEL
1070
     0
1002
}
1002
{
1000
BEHIND
1070
     0
1002
}
1002
{
1000
OTHER
1070
     0
1002
}
1002
{
1000
REACTOR
1002
}
1001
GENIUS_GENOBJ-N-FIL_13
1002
{
1000
OWNER
1000
GEN
1002
}
  0
LINE
  5
30B6
  8
AM_0
 10
196.8839849981612
 20
270.33347843683282
 30
0.0
 11
198.8839849981614
 21
270.33347843683282
 31
0.0
  0
LINE
  5
30B7
  8
AM_0
 10
256.3839849981614
 20
231.8334990662274
 30
0.0
 11
287.38400499816112
 21
231.8334990662274
 31
0.0
  0
LINE
  5
30B8
  8
AM_0
 10
256.3839849981614
 20
221.8335000662274
 30
0.0
 11
279.46247499816121
 21
221.2291590662274
 31
0.0
  0
LINE
  5
30B9
  8
AM_0
 10
247.35500180487799
 20
221.59528481318131
 30
0.0
 11
256.3839849981614
 21
221.33348606622741
 31
0.0
  0
ARC
  5
30BA
  8
AM_0
 10
247.3839849981612
 20
222.5948647121925
 30
0.0
 40
1.0
 50
180.0
 51
268.33915276702578
1001
GENIUS_GENOBJ-N-FIL_13
1002
{
1000
OWNER
1000
GEN
1002
}
1001
GENIUS_GENODEF_13
1002
{
1000
HIER
1070
     0
1002
}
1002
{
1000
MANEDIT
1070
     0
1002
}
1002
{
1000
NOSEL
1070
     0
1002
}
1002
{
1000
BEHIND
1070
     0
1002
}
1002
{
1000
OTHER
1070
     0
1002
}
1002
{
1000
REACTOR
1002
}
  0
ARC
  5
30BB
  8
AM_0
 10
241.3839849981612
 20
225.76241825436199
 30
0.0
 40
5.0
 50
0.0
 51
45.0
1001
GENIUS_GENODEF_13
1002
{
1000
HIER
1070
     0
1002
}
1002
{
1000
MANEDIT
1070
     0
1002
}
1002
{
1000
NOSEL
1070
     0
1002
}
1002
{
1000
BEHIND
1070
     0
1002
}
1002
{
1000
OTHER
1070
     0
1002
}
1002
{
1000
REACTOR
1002
}
1001
GENIUS_GENOBJ-N-FIL_13
1002
{
1000
OWNER
1000
GEN
1002
}
  0
LINE
  5
30BC
  8
ｶｸﾚｾﾝ2
 10
271.3839849981614
 20
214.83349806622741
 30
0.0
 11
271.3839849981614
 21
202.83349806622741
 31
0.0
  0
LINE
  5
30BD
  8
ｶｸﾚｾﾝ2
 10
283.3839849981614
 20
214.83349806622741
 30
0.0
 11
283.3839849981614
 21
202.83349806622741
 31
0.0
  0
LINE
  5
30BE
  8
AM_0
 10
265.3839849981614
 20
212.83348506622741
 30
0.0
 11
265.3839849981614
 21
202.83349806622741
 31
0.0
  0
LINE
  5
30BF
  8
ﾁｭｳｼﾝｾﾝ1
 10
277.3839849981614
 20
219.37895406622741
 30
0.0
 11
277.3839849981614
 21
198.2880420662274
 31
0.0
  0
LINE
  5
30C0
  8
AM_0
 10
265.3839849981614
 20
202.83349806622741
 30
0.0
 11
290.384004998161
 21
202.83349806622741
 31
0.0
  0
ARC
  5
30C1
  8
AM_0
 10
291.38393499816112
 20
202.83349806622741
 30
0.0
 40
1.0000000199999981
 50
90.000003000000007
 51
180.00001
  0
LINE
  5
30C2
  8
AM_0
 10
290.384004998161
 20
202.83349806622741
 30
0.0
 11
290.384004998161
 21
202.83349806622741
 31
0.0
  0
LINE
  5
30C3
  8
AM_0
 10
267.38393499816129
 20
214.83349806622741
 30
0.0
 11
286.33334499816141
 21
214.83349806622741
 31
0.0
  0
ARC
  5
30C4
  8
AM_0
 10
267.38393499816129
 20
212.83348506622741
 30
0.0
 40
2.00000007
 50
90.000003000000007
 51
180.00001
  0
LINE
  5
30C5
  8
AM_0
 10
282.38393499816118
 20
226.6177410662275
 30
0.0
 11
282.38393499816118
 21
214.83349806622741
 31
0.0
  0
ARC
  5
30C6
  8
AM_0
 10
279.38393499816129
 20
218.2301820662274
 30
0.0
 40
3.0
 50
0.0
 51
88.499996999999965
  0
ARC
  5
30C7
  8
AM_0
 10
286.33334499816141
 20
219.8334990662274
 30
0.0
 40
5.0000001000000003
 50
270.0
 51
348.02386999999999
  0
LINE
  5
30C8
  8
AM_0
 10
282.38393499816118
 20
228.6177570662276
 30
0.0
 11
287.38400499816112
 21
228.6177570662276
 31
0.0
  0
ARC
  5
30C9
  8
AM_0
 10
280.38398499816128
 20
226.6177410662275
 30
0.0
 40
2.00000007
 50
0.0
 51
90.000003000000007
  0
LINE
  5
30CA
  8
AM_0
 10
256.3839849981614
 20
245.8964730662274
 30
0.0
 11
287.38400499816112
 21
245.8964730662274
 31
0.0
  0
LINE
  5
30CB
  8
AM_0
 10
297.38393499816118
 20
217.83349806622741
 30
0.0
 11
297.38393499816118
 21
247.8335010662274
 31
0.0
  0
ARC
  5
30CC
  8
AM_0
 10
294.38393499816118
 20
217.83349806622741
 30
0.0
 40
3.0
 50
270.0
 51
0.0
  0
LINE
  5
30CD
  8
ｶｸﾚｾﾝ2
 10
341.38397499816119
 20
214.83349806622741
 30
0.0
 11
341.38397499816119
 21
202.83349806622741
 31
0.0
  0
LINE
  5
30CE
  8
ｶｸﾚｾﾝ2
 10
353.38397499816108
 20
214.83349806622741
 30
0.0
 11
353.38397499816108
 21
202.83349806622741
 31
0.0
  0
LINE
  5
30CF
  8
AM_0
 10
359.38397499816108
 20
212.83348506622741
 30
0.0
 11
359.38397499816108
 21
202.83349806622741
 31
0.0
  0
LINE
  5
30D0
  8
ﾁｭｳｼﾝｾﾝ1
 10
347.38397499816108
 20
219.37895406622741
 30
0.0
 11
347.38397499816108
 21
198.2880420662274
 31
0.0
  0
LINE
  5
30D1
  8
AM_0
 10
334.38395499816141
 20
202.83349806622741
 30
0.0
 11
359.38397499816108
 21
202.83349806622741
 31
0.0
  0
ARC
  5
30D2
  8
AM_0
 10
333.38393499816112
 20
202.83349806622741
 30
0.0
 40
1.0000000199999981
 50
0.0
 51
90.000003000000007
  0
LINE
  5
30D3
  8
AM_0
 10
334.38395499816141
 20
202.83349806622741
 30
0.0
 11
334.38395499816141
 21
202.83349806622741
 31
0.0
  0
ARC
  5
30D4
  8
AM_0
 10
339.38393499816112
 20
233.87430306622741
 30
0.0
 40
4.000000199999997
 50
270.0
 51
0.0
  0
LINE
  5
30D5
  8
AM_0
 10
335.38397499816119
 20
214.83349806622741
 30
0.0
 11
357.38393499816118
 21
214.83349806622741
 31
0.0
  0
ARC
  5
30D6
  8
AM_0
 10
335.38397499816119
 20
219.8334990662274
 30
0.0
 40
5.0000001000000003
 50
180.00001
 51
270.0
  0
LINE
  5
30D7
  8
AM_0
 10
330.38393499816112
 20
229.87431606622721
 30
0.0
 11
339.38393499816112
 21
229.87431606622721
 31
0.0
  0
ARC
  5
30D8
  8
AM_0
 10
357.38393499816118
 20
212.83348506622741
 30
0.0
 40
2.00000007
 50
0.0
 51
90.000003000000007
  0
ARC
  5
30D9
  8
AM_0
 10
361.38395499816153
 20
218.5780530662274
 30
0.0
 40
5.0000001000000003
 50
179.99998999999991
 51
235.15011000000001
  0
ARC
  5
30DA
  8
AM_0
 10
292.3839849981614
 20
248.3579610662274
 30
0.0
 40
5.0000001000000003
 50
348.02386999999999
 51
0.0
  0
ARC
  5
30DB
  8
AM_0
 10
358.38395499816141
 20
268.4467350662274
 30
0.0
 40
2.00000007
 50
119.9999999999999
 51
180.00001
  0
ARC
  5
30DC
  8
AM_0
 10
357.38393499816118
 20
272.48817906622747
 30
0.0
 40
2.00000007
 50
300.0
 51
0.0
  0
LINE
  5
30DD
  8
AM_0
 10
357.38396499816122
 20
270.17879106622729
 30
0.0
 11
358.38395499816141
 21
270.75612306622747
 31
0.0
  0
LINE
  5
30DE
  8
AM_0
 10
289.38398499816122
 20
348.83350206622742
 30
0.0
 11
294.38393499816118
 21
348.83350206622742
 31
0.0
  0
LINE
  5
30DF
  8
ﾁｭｳｼﾝｾﾝ1
 10
405.09644499816091
 20
297.83348706622752
 30
0.0
 11
277.48324896862988
 21
297.83348706622752
 31
0.0
  0
LINE
  5
30E0
  8
AM_0
 10
244.9195189040941
 20
326.36901997216012
 30
0.0
 11
224.31291718629581
 21
305.76241825436188
 31
0.0
  0
LINE
  5
30E1
  8
ﾁｭｳｼﾝｾﾝ1
 10
166.3683359788505
 20
277.83348606622729
 30
0.0
 11
291.80988472938401
 21
277.83348606622729
 31
0.0
  0
LINE
  5
30E2
  8
AM_0
 10
171.88398499816131
 20
283.83348606622752
 30
0.0
 11
196.8839849981612
 21
283.83348606622752
 31
0.0
  0
LINE
  5
30E3
  8
AM_0
 10
171.88398499816131
 20
285.33348606622718
 30
0.0
 11
189.8839849981612
 21
285.33348606622718
 31
0.0
  0
LINE
  5
30E4
  8
AM_0
 10
189.8839849981612
 20
285.33348606622718
 30
0.0
 11
189.8839849981612
 21
283.83348606622752
 31
0.0
  0
LINE
  5
30E5
  8
AM_0
 10
196.8839849981612
 20
285.33348606622718
 30
0.0
 11
198.8839849981614
 21
285.33348606622718
 31
0.0
  0
ARC
  5
30E6
  8
AM_0
 10
200.8839849981614
 20
292.00505894148108
 30
0.0
 40
2.0
 50
134.9999999999994
 51
180.0
1001
GENIUS_GENODEF_13
1002
{
1000
HIER
1070
     0
1002
}
1002
{
1000
MANEDIT
1070
     0
1002
}
1002
{
1000
NOSEL
1070
     0
1002
}
1002
{
1000
BEHIND
1070
     0
1002
}
1002
{
1000
OTHER
1070
     0
1002
}
1002
{
1000
REACTOR
1002
}
1001
GENIUS_GENOBJ-N-FIL_13
1002
{
1000
OWNER
1000
GEN
1002
}
  0
ARC
  5
30E7
  8
AM_0
 10
198.8839849981614
 20
295.66191319097328
 30
0.0
 40
2.0
 50
314.99999999999932
 51
0.0
1001
GENIUS_GENODEF_13
1002
{
1000
HIER
1070
     0
1002
}
1002
{
1000
MANEDIT
1070
     0
1002
}
1002
{
1000
NOSEL
1070
     0
1002
}
1002
{
1000
BEHIND
1070
     0
1002
}
1002
{
1000
OTHER
1070
     0
1002
}
1002
{
1000
REACTOR
1002
}
1001
GENIUS_GENOBJ-N-FIL_13
1002
{
1000
OWNER
1000
GEN
1002
}
  0
LINE
  5
30E8
  8
AM_0
 10
199.4697714357882
 20
293.41927250385419
 30
0.0
 11
200.2981985605345
 21
294.2476996286004
 31
0.0
  0
LINE
  5
30E9
  8
AM_0
 10
202.8839849981614
 20
302.83348606622729
 30
0.0
 11
217.2418493744303
 21
302.83348606622718
 31
0.0
  0
ARC
  5
30EA
  8
AM_0
 10
202.8839849981614
 20
300.83348606622729
 30
0.0
 40
2.0
 50
90.0
 51
180.0
1001
GENIUS_GENODEF_13
1002
{
1000
HIER
1070
     0
1002
}
1002
{
1000
MANEDIT
1070
     0
1002
}
1002
{
1000
NOSEL
1070
     0
1002
}
1002
{
1000
BEHIND
1070
     0
1002
}
1002
{
1000
OTHER
1070
     0
1002
}
1002
{
1000
REACTOR
1002
}
1001
GENIUS_GENOBJ-N-FIL_13
1002
{
1000
OWNER
1000
GEN
1002
}
  0
ARC
  5
30EB
  8
AM_0
 10
217.2418493744303
 20
312.83348606622718
 30
0.0
 40
10.0
 50
270.0
 51
315.0
1001
GENIUS_GENODEF_13
1002
{
1000
HIER
1070
     0
1002
}
1002
{
1000
MANEDIT
1070
     0
1002
}
1002
{
1000
NOSEL
1070
     0
1002
}
1002
{
1000
BEHIND
1070
     0
1002
}
1002
{
1000
OTHER
1070
     0
1002
}
1002
{
1000
REACTOR
1002
}
1001
GENIUS_GENOBJ-N-FIL_13
1002
{
1000
OWNER
1000
GEN
1002
}
  0
ARC
  5
30EC
  8
AM_0
 10
285.38393499816118
 20
319.3278420662275
 30
0.0
 40
2.00000007
 50
0.0
 51
90.000003000000007
  0
LINE
  5
30ED
  8
AM_0
 10
282.38393499816118
 20
327.50065206622747
 30
0.0
 11
282.38393499816118
 21
307.8615420662274
 31
0.0
  0
LINE
  5
30EE
  8
AM_0
 10
256.3839849981614
 20
309.77050206622738
 30
0.0
 11
282.38393499816118
 21
309.77050206622738
 31
0.0
  0
LINE
  5
30EF
  8
AM_0
 10
282.38393499816118
 20
305.86153206622748
 30
0.0
 11
287.38400499816112
 21
305.86153206622748
 31
0.0
  0
ARC
  5
30F0
  8
AM_0
 10
280.38398499816128
 20
307.8615420662274
 30
0.0
 40
2.00000007
 50
270.0
 51
0.0
  0
LINE
  5
30F1
  8
AM_0
 10
256.3839849981614
 20
323.83348206622748
 30
0.0
 11
282.38393499816118
 21
323.83348206622748
 31
0.0
  0
LINE
  5
30F2
  8
AM_0
 10
256.38392499816109
 20
333.83350206622748
 30
0.0
 11
282.5148549981613
 21
334.5177420662273
 31
0.0
  0
ARC
  5
30F3
  8
AM_0
 10
241.3839849981612
 20
329.90455387809283
 30
0.0
 40
5.0
 50
315.0
 51
0.0
1001
GENIUS_GENODEF_13
1002
{
1000
HIER
1070
     0
1002
}
1002
{
1000
MANEDIT
1070
     0
1002
}
1002
{
1000
NOSEL
1070
     0
1002
}
1002
{
1000
BEHIND
1070
     0
1002
}
1002
{
1000
OTHER
1070
     0
1002
}
1002
{
1000
REACTOR
1002
}
1001
GENIUS_GENOBJ-N-FIL_13
1002
{
1000
OWNER
1000
GEN
1002
}
  0
LINE
  5
30F4
  8
AM_0
 10
247.35500180487799
 20
334.07168731927339
 30
0.0
 11
256.3839849981614
 21
334.33348606622729
 31
0.0
  0
ARC
  5
30F5
  8
AM_0
 10
247.3839849981612
 20
333.07210742026228
 30
0.0
 40
1.0
 50
91.66084723297412
 51
180.0
1001
GENIUS_GENOBJ-N-FIL_13
1002
{
1000
OWNER
1000
GEN
1002
}
1001
GENIUS_GENODEF_13
1002
{
1000
HIER
1070
     0
1002
}
1002
{
1000
MANEDIT
1070
     0
1002
}
1002
{
1000
NOSEL
1070
     0
1002
}
1002
{
1000
BEHIND
1070
     0
1002
}
1002
{
1000
OTHER
1070
     0
1002
}
1002
{
1000
REACTOR
1002
}
  0
LINE
  5
30F6
  8
AM_0
 10
287.38400499816112
 20
346.83349206622728
 30
0.0
 11
287.38400499816112
 21
331.50064206622727
 31
0.0
  0
LINE
  5
30F7
  8
AM_0
 10
284.38400499816112
 20
321.32785206622748
 30
0.0
 11
285.38393499816118
 21
321.32785206622748
 31
0.0
  0
LINE
  5
30F8
  8
AM_0
 10
284.38400499816112
 20
329.5006320662273
 30
0.0
 11
285.38393499816118
 21
329.5006320662273
 31
0.0
  0
ARC
  5
30F9
  8
AM_0
 10
284.38400499816112
 20
323.32783206622747
 30
0.0
 40
2.00000007
 50
179.99998999999991
 51
270.0
  0
ARC
  5
30FA
  8
AM_0
 10
284.38400499816112
 20
327.50065206622747
 30
0.0
 40
2.00000007
 50
90.000003000000007
 51
180.00001
  0
ARC
  5
30FB
  8
AM_0
 10
285.38393499816118
 20
331.50064206622727
 30
0.0
 40
2.00000007
 50
270.0
 51
0.0
  0
ARC
  5
30FC
  8
AM_0
 10
282.38393499816118
 20
339.51604206622739
 30
0.0
 40
5.0000001000000003
 50
271.49999999999972
 51
0.0
  0
ARC
  5
30FD
  8
AM_0
 10
289.38398499816122
 20
346.83349206622728
 30
0.0
 40
2.00000007
 50
90.000003000000007
 51
180.00001
  0
LINE
  5
30FE
  8
AM_0
 10
359.38397499816108
 20
312.83349306622739
 30
0.0
 11
361.38395499816107
 21
312.83349306622739
 31
0.0
  0
LINE
  5
30FF
  8
AM_0
 10
359.38397499816108
 20
282.83348706622741
 30
0.0
 11
361.38395499816107
 21
282.83348706622741
 31
0.0
  0
LINE
  5
3100
  8
AM_0
 10
305.38400499816112
 20
334.36027206622748
 30
0.0
 11
305.38400499816112
 21
311.45824206622751
 31
0.0
  0
LINE
  5
3101
  8
AM_0
 10
306.38393499816118
 20
329.35099206622749
 30
0.0
 11
306.38393499816118
 21
315.80398206622749
 31
0.0
  0
LINE
  5
3102
  8
AM_0
 10
310.38392499816092
 20
317.8039320662275
 30
0.0
 11
310.38392499816092
 21
327.35098206622729
 31
0.0
  0
LINE
  5
3103
  8
AM_0
 10
308.38400499816112
 20
311.18221206622718
 30
0.0
 11
331.21868499816122
 21
311.18221206622718
 31
0.0
  0
LINE
  5
3104
  8
AM_0
 10
321.2135949981614
 20
311.18221206622718
 30
0.0
 11
308.38394499816121
 21
285.0497640662274
 31
0.0
  0
LINE
  5
3105
  8
AM_0
 10
308.38400499816112
 20
311.18221206622718
 30
0.0
 11
308.38400499816112
 21
285.0497640662274
 31
0.0
  0
LINE
  5
3106
  8
AM_0
 10
297.38393499816118
 20
285.0497640662274
 30
0.0
 11
308.38400499816112
 21
285.0497640662274
 31
0.0
  0
ARC
  5
3107
  8
AM_0
 10
309.38393499816118
 20
317.8039320662275
 30
0.0
 40
1.0000000199999981
 50
270.0
 51
0.0
  0
ARC
  5
3108
  8
AM_0
 10
309.38393499816118
 20
318.69073206622733
 30
0.0
 40
1.0000000199999981
 50
0.0
 51
90.000003000000007
  0
ARC
  5
3109
  8
AM_0
 10
309.38393499816118
 20
320.6906820662274
 30
0.0
 40
1.0000000199999981
 50
270.0
 51
0.0
  0
ARC
  5
310A
  8
AM_0
 10
306.38393499816118
 20
308.45824206622751
 30
0.0
 40
2.00000007
 50
0.0
 51
90.000003000000007
  0
ARC
  5
310B
  8
AM_0
 10
306.38393499816118
 20
311.45824206622751
 30
0.0
 40
1.0000000199999981
 50
179.99998999999991
 51
270.0
  0
LINE
  5
310C
  8
AM_0
 10
305.38400499816112
 20
315.80398206622749
 30
0.0
 11
306.38393499816118
 21
315.80398206622749
 31
0.0
  0
LINE
  5
310D
  8
AM_0
 10
306.38393499816118
 20
319.69072206622741
 30
0.0
 11
309.38393499816118
 21
319.69072206622741
 31
0.0
  0
LINE
  5
310E
  8
AM_0
 10
306.38393499816118
 20
316.8039720662274
 30
0.0
 11
309.38393499816118
 21
316.8039720662274
 31
0.0
  0
ARC
  5
310F
  8
AM_0
 10
338.38397499816102
 20
307.6243020662273
 30
0.0
 40
8.0000000999999976
 50
90.000003000000007
 51
180.00001
  0
LINE
  5
3110
  8
AM_0
 10
338.38397499816102
 20
315.62428206622729
 30
0.0
 11
343.38395499816141
 21
315.62428206622729
 31
0.0
  0
LINE
  5
3111
  8
AM_0
 10
308.38400499816112
 20
329.3609520662273
 30
0.0
 11
343.38395499816141
 21
329.3609520662273
 31
0.0
  0
LINE
  5
3112
  8
AM_0
 10
294.38399499816092
 20
348.83350206622742
 30
0.0
 11
338.5148649981611
 21
347.67787206622728
 31
0.0
  0
LINE
  5
3113
  8
AM_0
 10
308.38394499816121
 20
348.38833206622729
 30
0.0
 11
321.96590499816142
 21
329.3609520662273
 31
0.0
  0
LINE
  5
3114
  8
AM_0
 10
308.38400499816112
 20
348.38833206622729
 30
0.0
 11
308.38400499816112
 21
329.3609520662273
 31
0.0
  0
ARC
  5
3115
  8
AM_0
 10
309.38393499816118
 20
327.35098206622729
 30
0.0
 40
1.0000000199999981
 50
0.0
 51
90.000003000000007
  0
ARC
  5
3116
  8
AM_0
 10
309.38393499816118
 20
326.46421206622728
 30
0.0
 40
1.0000000199999981
 50
270.0
 51
0.0
  0
ARC
  5
3117
  8
AM_0
 10
309.38393499816118
 20
324.46423206622751
 30
0.0
 40
1.0000000199999981
 50
0.0
 51
90.000003000000007
  0
LINE
  5
3118
  8
AM_0
 10
305.38400499816112
 20
329.35099206622749
 30
0.0
 11
306.38393499816118
 21
329.35099206622749
 31
0.0
  0
LINE
  5
3119
  8
AM_0
 10
306.38393499816118
 20
325.46422206622748
 30
0.0
 11
309.38393499816118
 21
325.46422206622748
 31
0.0
  0
LINE
  5
311A
  8
AM_0
 10
306.38393499816118
 20
328.3510020662273
 30
0.0
 11
309.38393499816118
 21
328.3510020662273
 31
0.0
  0
ARC
  5
311B
  8
AM_0
 10
306.38393499816118
 20
337.36027206622748
 30
0.0
 40
2.00000007
 50
270.0
 51
0.0
  0
ARC
  5
311C
  8
AM_0
 10
306.38393499816118
 20
334.36027206622748
 30
0.0
 40
1.0000000199999981
 50
90.000003000000007
 51
180.00001
  0
ARC
  5
311D
  8
AM_0
 10
348.38393499816118
 20
336.55249206622739
 30
0.0
 40
5.0000001000000003
 50
179.99998999999991
 51
265.0
  0
LINE
  5
311E
  8
AM_0
 10
347.94818499816108
 20
331.57153206622752
 30
0.0
 11
353.64545499816109
 21
331.0730820662273
 31
0.0
  0
ARC
  5
311F
  8
AM_0
 10
357.38393499816118
 20
323.1787920662274
 30
0.0
 40
2.00000007
 50
0.0
 51
60.000002000000002
  0
ARC
  5
3120
  8
AM_0
 10
358.38395499816141
 20
327.22024206622729
 30
0.0
 40
2.00000007
 50
179.99998999999991
 51
240.00001
  0
ARC
  5
3121
  8
AM_0
 10
353.38397499816108
 20
328.08448206622751
 30
0.0
 40
3.0
 50
0.0
 51
84.999996999999979
  0
LINE
  5
3122
  8
AM_0
 10
357.38396499816122
 20
325.48819206622738
 30
0.0
 11
358.3839849981614
 21
324.91084206622747
 31
0.0
  0
ARC
  5
3123
  8
AM_0
 10
338.38397499816102
 20
342.6796020662274
 30
0.0
 40
5.0000001000000003
 50
0.0
 51
88.499996999999965
  0
LINE
  5
3124
  8
AM_0
 10
361.38395499816107
 20
311.83353306622752
 30
0.0
 11
401.38397499816091
 21
311.83353306622752
 31
0.0
  0
LINE
  5
3125
  8
AM_0
 10
369.38393499816118
 20
314.83353306622752
 30
0.0
 11
401.38397499816091
 21
314.83353306622752
 31
0.0
  0
LINE
  5
3126
  8
AM_0
 10
361.38395499816107
 20
283.83351606622728
 30
0.0
 11
401.38397499816091
 21
283.83351606622728
 31
0.0
  0
LINE
  5
3127
  8
AM_0
 10
361.38395499816107
 20
312.83349306622739
 30
0.0
 11
361.38395499816107
 21
282.83348706622741
 31
0.0
  0
LINE
  5
3128
  8
AM_0
 10
369.38393499816118
 20
314.83353306622752
 30
0.0
 11
369.38393499816118
 21
311.83353306622752
 31
0.0
  0
LINE
  5
3129
  8
AM_0
 10
401.38397499816091
 20
314.83353306622752
 30
0.0
 11
401.38397499816091
 21
283.83351606622728
 31
0.0
  0
ARC
  5
312A
  8
AM_0
 10
564.45998911569075
 20
297.83348706622752
 30
0.0
 40
26.500002599999998
 50
270.0
 51
90.000003000000007
  0
ARC
  5
312B
  8
AM_0
 10
564.45998911569075
 20
282.83348706622741
 30
0.0
 40
48.0
 50
0.0
 51
180.00001
  0
ARC
  5
312C
  8
AM_0
 10
564.45998911569075
 20
297.83348706622752
 30
0.0
 40
26.500002599999998
 50
90.000003000000007
 51
270.0
  0
LINE
  5
312D
  8
AM_0
 10
612.45998911569086
 20
282.83348706622741
 30
0.0
 11
612.45998911569086
 21
219.8334990662274
 31
0.0
  0
LINE
  5
312E
  8
AM_0
 10
516.45998011569077
 20
282.83348706622741
 30
0.0
 11
516.45998011569077
 21
219.8334990662274
 31
0.0
  0
LINE
  5
312F
  8
AM_0
 10
511.46003011569081
 20
313.08604206622732
 30
0.0
 11
511.46003011569081
 21
251.83348506622741
 31
0.0
  0
LINE
  5
3130
  8
AM_0
 10
617.4599901156912
 20
313.08604206622732
 30
0.0
 11
617.4599901156912
 21
251.83348506622741
 31
0.0
  0
LINE
  5
3131
  8
AM_0
 10
486.45998011569083
 20
214.83349806622741
 30
0.0
 11
497.22842011569082
 21
317.46367206622728
 31
0.0
  0
LINE
  5
3132
  8
AM_0
 10
642.45998911569075
 20
214.83349806622741
 30
0.0
 11
631.69157311569086
 21
317.46367206622728
 31
0.0
  0
LINE
  5
3133
  8
ﾁｭｳｼﾝｾﾝ1
 10
564.45998911569075
 20
352.89905941032958
 30
0.0
 11
564.45998911569075
 21
198.5992140662274
 31
0.0
  0
CIRCLE
  5
3134
  8
AM_0
 10
536.33269711569073
 20
209.9283630662274
 30
0.0
 40
4.9999998000000003
  0
LINE
  5
3135
  8
AM_0
 10
530.45998711569075
 20
219.8334990662274
 30
0.0
 11
598.46000311569117
 21
219.8334990662274
 31
0.0
  0
LINE
  5
3136
  8
AM_0
 10
611.45999011569108
 20
203.83351506622751
 30
0.0
 11
517.46003011569087
 21
203.83351506622751
 31
0.0
  0
LINE
  5
3137
  8
AM_0
 10
531.75231511569075
 20
206.4136530662274
 30
0.0
 11
537.086330115691
 21
204.20422506622731
 31
0.0
  0
LINE
  5
3138
  8
AM_0
 10
535.57912711569088
 20
215.65246806622741
 30
0.0
 11
530.99871211569075
 21
212.1377760662273
 31
0.0
  0
ARC
  5
3139
  8
AM_0
 10
545.45998711569109
 20
251.83348506622741
 30
0.0
 40
34.000001999999988
 50
179.99998999999991
 51
211.46697
  0
LINE
  5
313A
  8
AM_0
 10
514.46003011569076
 20
214.83349806622741
 30
0.0
 11
488.45999011569052
 21
214.83349806622741
 31
0.0
  0
LINE
  5
313B
  8
AM_0
 10
486.45998011569083
 20
202.83349806622741
 30
0.0
 11
516.45998011569077
 21
202.83349806622741
 31
0.0
  0
LINE
  5
313C
  8
AM_0
 10
486.45998011569083
 20
202.83349806622741
 30
0.0
 11
486.45998011569083
 21
214.83349806622741
 31
0.0
  0
LINE
  5
313D
  8
ｶｸﾚｾﾝ2
 10
493.46003011569081
 20
214.83349806622741
 30
0.0
 11
493.46003011569081
 21
202.83349806622741
 31
0.0
  0
LINE
  5
313E
  8
ﾁｭｳｼﾝｾﾝ1
 10
499.46000011569078
 20
219.37895406622741
 30
0.0
 11
499.46000011569078
 21
198.2880420662274
 31
0.0
  0
ARC
  5
313F
  8
AM_0
 10
488.45999011569052
 20
212.83351506622739
 30
0.0
 40
2.00000007
 50
90.000003000000007
 51
180.00001
  0
LINE
  5
3140
  8
AM_0
 10
516.45998011569077
 20
202.83349806622741
 30
0.0
 11
516.45998011569077
 21
212.83351506622739
 31
0.0
  0
LINE
  5
3141
  8
AM_0
 10
525.45998611569087
 20
214.83349806622741
 30
0.0
 11
525.45998611569087
 21
208.83349806622741
 31
0.0
  0
LINE
  5
3142
  8
ｶｸﾚｾﾝ2
 10
505.46003011569081
 20
214.83349806622741
 30
0.0
 11
505.46003011569081
 21
202.83349806622741
 31
0.0
  0
ARC
  5
3143
  8
AM_0
 10
518.45998711569109
 20
203.83351506622751
 30
0.0
 40
2.00000007
 50
90.000003000000007
 51
180.00001
  0
ARC
  5
3144
  8
AM_0
 10
517.46003011569087
 20
202.83349806622741
 30
0.0
 40
1.0000000199999981
 50
90.000003000000007
 51
180.00001
  0
ARC
  5
3145
  8
AM_0
 10
522.45998611569075
 20
208.83349806622741
 30
0.0
 40
3.0
 50
270.0
 51
0.0
  0
LINE
  5
3146
  8
AM_0
 10
522.45998611569075
 20
205.83349806622729
 30
0.0
 11
518.45998711569109
 21
205.83349806622729
 31
0.0
  0
LINE
  5
3147
  8
AM_0
 10
530.99868211569083
 20
212.13779106622741
 30
0.0
 11
531.75228511569071
 21
206.41368306622741
 31
0.0
  0
ARC
  5
3148
  8
AM_0
 10
514.46003011569076
 20
212.83351506622739
 30
0.0
 40
2.00000007
 50
0.0
 51
90.000003000000007
  0
ARC
  5
3149
  8
AM_0
 10
511.46003011569081
 20
219.8334990662274
 30
0.0
 40
5.0000001000000003
 50
270.0
 51
0.0
  0
ARC
  5
314A
  8
AM_0
 10
530.45998711569075
 20
214.83349806622741
 30
0.0
 40
5.0000001000000003
 50
90.000003000000007
 51
180.00001
  0
ARC
  5
314B
  8
AM_0
 10
598.46000311569117
 20
214.83349806622741
 30
0.0
 40
5.0000001000000003
 50
0.0
 51
90.000003000000007
  0
LINE
  5
314C
  8
AM_0
 10
541.66674511569113
 20
207.71895006622739
 30
0.0
 11
540.91314211569102
 21
213.4430580662272
 31
0.0
  0
LINE
  5
314D
  8
AM_0
 10
537.08630011569085
 20
204.2042580662274
 30
0.0
 11
541.66674511569113
 21
207.7189350662274
 31
0.0
  0
LINE
  5
314E
  8
AM_0
 10
540.91317211569083
 20
213.4430280662275
 30
0.0
 11
535.57915711569103
 21
215.6524530662272
 31
0.0
  0
CIRCLE
  5
314F
  8
AM_0
 10
592.587230115691
 20
209.9283630662274
 30
0.0
 40
4.9999998000000003
  0
LINE
  5
3150
  8
AM_0
 10
597.92129311569079
 20
212.13775806622741
 30
0.0
 11
593.34086311569104
 21
215.6524530662272
 31
0.0
  0
LINE
  5
3151
  8
AM_0
 10
588.0068181156912
 20
213.44304306622729
 30
0.0
 11
587.25323311569082
 21
207.7189350662274
 31
0.0
  0
LINE
  5
3152
  8
AM_0
 10
591.83367511569065
 20
204.2042580662274
 30
0.0
 11
597.16770511569075
 21
206.41368306622741
 31
0.0
  0
LINE
  5
3153
  8
AM_0
 10
587.25324811569055
 20
207.71892006622741
 30
0.0
 11
591.83367511569065
 21
204.20424306622741
 31
0.0
  0
LINE
  5
3154
  8
AM_0
 10
597.16767511569049
 20
206.41366806622739
 30
0.0
 11
597.92127811569071
 21
212.1377760662273
 31
0.0
  0
LINE
  5
3155
  8
AM_0
 10
593.34087811569077
 20
215.65246806622741
 30
0.0
 11
588.00684811569045
 21
213.44304306622729
 31
0.0
  0
ARC
  5
3156
  8
AM_0
 10
583.46000311569105
 20
251.83348506622741
 30
0.0
 40
34.000001999999988
 50
328.53302000000002
 51
0.0
  0
LINE
  5
3157
  8
AM_0
 10
614.4599901156912
 20
214.83349806622741
 30
0.0
 11
640.46000611569082
 21
214.83349806622741
 31
0.0
  0
LINE
  5
3158
  8
AM_0
 10
642.45998911569075
 20
202.83349806622741
 30
0.0
 11
612.45998911569086
 21
202.83349806622741
 31
0.0
  0
LINE
  5
3159
  8
ｶｸﾚｾﾝ2
 10
623.45999011569108
 20
214.83349806622741
 30
0.0
 11
623.45999011569108
 21
202.83349806622741
 31
0.0
  0
LINE
  5
315A
  8
ﾁｭｳｼﾝｾﾝ1
 10
629.46000511569105
 20
219.37895406622741
 30
0.0
 11
629.46000511569105
 21
198.2880420662274
 31
0.0
  0
LINE
  5
315B
  8
AM_0
 10
612.45998911569086
 20
202.83349806622741
 30
0.0
 11
612.45998911569086
 21
212.83351506622739
 31
0.0
  0
LINE
  5
315C
  8
AM_0
 10
603.45998911569075
 20
214.83349806622741
 30
0.0
 11
603.45998911569075
 21
208.83349806622741
 31
0.0
  0
LINE
  5
315D
  8
AM_0
 10
610.46000311569128
 20
205.83349806622729
 30
0.0
 11
606.45998911569075
 21
205.83349806622729
 31
0.0
  0
ARC
  5
315E
  8
AM_0
 10
606.45998911569075
 20
208.83349806622741
 30
0.0
 40
3.0
 50
179.99998999999991
 51
270.0
  0
ARC
  5
315F
  8
AM_0
 10
610.46000311569128
 20
203.83351506622751
 30
0.0
 40
2.00000007
 50
0.0
 51
90.000003000000007
  0
ARC
  5
3160
  8
AM_0
 10
611.45999011569108
 20
202.83349806622741
 30
0.0
 40
1.0000000199999981
 50
0.0
 51
90.000003000000007
  0
ARC
  5
3161
  8
AM_0
 10
614.4599901156912
 20
212.83351506622739
 30
0.0
 40
2.00000007
 50
90.000003000000007
 51
180.00001
  0
ARC
  5
3162
  8
AM_0
 10
617.4599901156912
 20
219.8334990662274
 30
0.0
 40
5.0000001000000003
 50
179.99998999999991
 51
270.0
  0
LINE
  5
3163
  8
AM_0
 10
642.45998911569075
 20
202.83349806622741
 30
0.0
 11
642.45998911569075
 21
214.83349806622741
 31
0.0
  0
LINE
  5
3164
  8
ｶｸﾚｾﾝ2
 10
635.46000511569116
 20
214.83349806622741
 30
0.0
 11
635.46000511569116
 21
202.83349806622741
 31
0.0
  0
ARC
  5
3165
  8
AM_0
 10
640.46000611569082
 20
212.83351506622739
 30
0.0
 40
2.00000007
 50
0.0
 51
90.000003000000007
  0
ARC
  5
3166
  8
AM_0
 10
564.45998911569075
 20
238.8335010662274
 30
0.0
 40
110.000004
 50
58.263835999999991
 51
121.73617
  0
ARC
  5
3167
  8
AM_0
 10
564.45998911569075
 20
277.83348606622729
 30
0.0
 40
71.000000999999983
 50
47.999358999999998
 51
132.00065000000001
  0
LINE
  5
3168
  8
ﾁｭｳｼﾝｾﾝ1
 10
626.19482311569107
 20
277.83348606622729
 30
0.0
 11
502.95548011569082
 21
277.83348606622729
 31
0.0
  0
LINE
  5
3169
  8
ﾁｭｳｼﾝｾﾝ1
 10
527.29140811569096
 20
297.83348706622752
 30
0.0
 11
600.15731611569117
 21
297.83348706622752
 31
0.0
  0
ARC
  5
316A
  8
AM_0
 10
517.11923011569058
 20
315.3766320662275
 30
0.0
 40
20.000000700000001
 50
121.73617
 51
174.01018999999991
  0
ARC
  5
316B
  8
AM_0
 10
502.18172011569078
 20
325.6212420662273
 30
0.0
 40
13.9999986
 50
266.80063999999987
 51
25.06296900000001
  0
CIRCLE
  5
316C
  8
AM_0
 10
506.14853011569079
 20
322.57747206622741
 30
0.0
 40
4.9999998000000003
  0
LINE
  5
316D
  8
AM_0
 10
500.81453011569079
 20
324.78691206622739
 30
0.0
 11
501.56810011569092
 21
319.0627920662273
 31
0.0
  0
LINE
  5
316E
  8
AM_0
 10
511.48256011569072
 20
320.3680620662272
 30
0.0
 11
510.72896011569071
 21
326.09218206622728
 31
0.0
  0
ARC
  5
316F
  8
AM_0
 10
503.87186011569122
 20
308.7054720662274
 30
0.0
 40
3.0
 50
95.705737999999982
 51
152.9994199999999
  0
LINE
  5
3170
  8
AM_0
 10
501.56810011569092
 20
319.0627920662273
 30
0.0
 11
506.90213011569108
 21
316.85335206622727
 31
0.0
  0
ARC
  5
3171
  8
AM_0
 10
564.45998911569075
 20
277.83348606622729
 30
0.0
 40
71.000000999999983
 50
152.9994199999999
 51
174.01018999999991
  0
ARC
  5
3172
  8
AM_0
 10
501.12134011569083
 20
306.65083206622751
 30
0.0
 40
5.0000001000000003
 50
86.800639000000004
 51
174.01018999999991
  0
LINE
  5
3173
  8
AM_0
 10
506.902160115691
 20
316.85338206622748
 30
0.0
 11
511.48256011569072
 21
320.3680920662274
 31
0.0
  0
ARC
  5
3174
  8
AM_0
 10
516.45998011569077
 20
313.08604206622732
 30
0.0
 40
5.0000001000000003
 50
138.71941000000001
 51
180.00001
  0
LINE
  5
3175
  8
AM_0
 10
505.39499011569109
 20
328.30159206622727
 30
0.0
 11
500.81453011569079
 21
324.78691206622739
 31
0.0
  0
ARC
  5
3176
  8
AM_0
 10
519.39275611569076
 20
333.66991206622748
 30
0.0
 40
5.0000001000000003
 50
115.41755999999999
 51
205.06296999999989
  0
LINE
  5
3177
  8
AM_0
 10
510.72896011569071
 20
326.0921520662273
 30
0.0
 11
505.39496011569071
 21
328.30159206622727
 31
0.0
  0
ARC
  5
3178
  8
AM_0
 10
518.95855111569085
 20
328.36684206622732
 30
0.0
 40
3.0
 50
132.00065000000001
 51
189.29434000000001
  0
ARC
  5
3179
  8
AM_0
 10
564.45998911569075
 20
297.83348706622752
 30
0.0
 40
14.000001299999999
 50
106.6015399999999
 51
73.398452000000006
  0
CIRCLE
  5
317A
  8
AM_5
 10
564.45998911569075
 20
297.83348706622752
 30
0.0
 40
4.000000199999997
  0
CIRCLE
  5
317B
  8
AM_0
 10
564.45998911569075
 20
297.83348706622752
 30
0.0
 40
3.0
  0
LINE
  5
317C
  8
AM_0
 10
560.45998711569075
 20
307.83351306622751
 30
0.0
 11
560.45998711569075
 21
314.83353306622752
 31
0.0
  0
LINE
  5
317D
  8
AM_0
 10
568.45997311569056
 20
307.83351306622751
 30
0.0
 11
568.45997311569056
 21
314.83353306622752
 31
0.0
  0
LINE
  5
317E
  8
AM_0
 10
560.45998711569075
 20
307.83351306622751
 30
0.0
 11
568.45997311569056
 21
307.83351306622751
 31
0.0
  0
LINE
  5
317F
  8
AM_0
 10
560.45998711569075
 20
314.83353306622752
 30
0.0
 11
568.45997311569056
 21
314.83353306622752
 31
0.0
  0
ARC
  5
3180
  8
AM_0
 10
611.80076311569076
 20
315.3766320662275
 30
0.0
 40
20.000000700000001
 50
5.9898154999999971
 51
58.263835999999991
  0
ARC
  5
3181
  8
AM_0
 10
626.73826411569075
 20
325.6212420662273
 30
0.0
 40
13.9999986
 50
154.93703999999991
 51
273.19936999999987
  0
CIRCLE
  5
3182
  8
AM_0
 10
622.77146611569117
 20
322.57741206622751
 30
0.0
 40
4.9999998000000003
  0
LINE
  5
3183
  8
AM_0
 10
628.10545111569081
 20
324.78688206622752
 30
0.0
 11
627.35186611569077
 21
319.0627920662273
 31
0.0
  0
LINE
  5
3184
  8
AM_0
 10
618.19103911569073
 20
326.09209206622751
 30
0.0
 11
617.43743611569084
 21
320.36797206622748
 31
0.0
  0
ARC
  5
3185
  8
AM_0
 10
564.45998911569075
 20
277.83348606622729
 30
0.0
 40
71.000000999999983
 50
5.989814199999997
 51
27.000572999999999
  0
LINE
  5
3186
  8
AM_0
 10
617.43746611569088
 20
320.36797206622748
 30
0.0
 11
622.01789611569075
 21
316.85329206622748
 31
0.0
  0
ARC
  5
3187
  8
AM_0
 10
612.45998911569086
 20
313.08604206622732
 30
0.0
 40
5.0000001000000003
 50
0.0
 51
41.280590999999973
  0
ARC
  5
3188
  8
AM_0
 10
627.79865911569095
 20
306.65083206622751
 30
0.0
 40
5.0000001000000003
 50
5.9898154999999971
 51
93.199358999999944
  0
ARC
  5
3189
  8
AM_0
 10
625.04812411569071
 20
308.7054720662274
 30
0.0
 40
3.0
 50
27.000572999999999
 51
84.294260999999977
  0
LINE
  5
318A
  8
AM_0
 10
622.01789611569075
 20
316.85332206622718
 30
0.0
 11
627.35192611569073
 21
319.06273206622751
 31
0.0
  0
LINE
  5
318B
  8
AM_0
 10
623.52508411569079
 20
328.30153206622748
 30
0.0
 11
618.19105411569058
 21
326.09212206622732
 31
0.0
  0
ARC
  5
318C
  8
AM_0
 10
609.52723411569104
 20
333.66991206622748
 30
0.0
 40
5.0000001000000003
 50
334.93702999999988
 51
64.582443999999995
  0
ARC
  5
318D
  8
AM_0
 10
609.96145411569046
 20
328.36684206622732
 30
0.0
 40
3.0
 50
350.70567
 51
47.999358999999998
  0
LINE
  5
318E
  8
AM_0
 10
628.10551411569099
 20
324.7868220662275
 30
0.0
 11
623.52508411569079
 21
328.3015020662275
 31
0.0
  0
LINE
  5
318F
  8
AM_0
 10
256.38398499816122
 20
309.77092506622739
 30
0.0
 11
246.3839849981614
 21
309.77092506622739
 31
0.0
  0
LINE
  5
3190
  8
AM_0
 10
256.38398499816122
 20
323.8334910662274
 30
0.0
 11
246.3839849981614
 21
323.8334910662274
 31
0.0
  0
LINE
  5
3191
  8
AM_0
 10
256.3839849981614
 20
231.83348406622741
 30
0.0
 11
246.3839849981614
 21
231.83348406622741
 31
0.0
  0
LINE
  5
3192
  8
AM_0
 10
256.38398499816122
 20
245.8960470662274
 30
0.0
 11
246.3839849981614
 21
245.8960470662274
 31
0.0
  0
LINE
  5
3193
  8
ﾁｭｳｼﾝｾﾝ1
 10
166.3683359788505
 20
492.91867632424021
 30
0.0
 11
407.60366499816092
 21
492.91867632424032
 31
0.0
  0
ARC
  5
3194
  8
AM_0
 10
409.87271499816109
 20
492.91867632424032
 30
0.0
 40
101.4887199999999
 50
151.89333000000019
 51
208.10666999999961
  0
LINE
  5
3195
  8
AM_0
 10
401.38397499816091
 20
506.91870632424002
 30
0.0
 11
401.38397499816091
 21
478.91870632424002
 31
0.0
  0
LINE
  5
3196
  8
AM_0
 10
361.38397499816108
 20
507.91867632424021
 30
0.0
 11
361.38397499816108
 21
477.91867632423998
 31
0.0
  0
LINE
  5
3197
  8
AM_0
 10
256.38400499816112
 20
436.41867632423998
 30
0.0
 11
256.38400499816112
 21
549.41867632424032
 31
0.0
  0
LINE
  5
3198
  8
AM_0
 10
287.38400499816112
 20
424.05029632424021
 30
0.0
 11
287.38400499816112
 21
561.78704632424024
 31
0.0
  0
LINE
  5
3199
  8
AM_0
 10
308.38400499816112
 20
442.85144632424021
 30
0.0
 11
308.38400499816112
 21
542.98590632424009
 31
0.0
  0
LINE
  5
319A
  8
AM_0
 10
343.38400499816112
 20
442.66766632423997
 30
0.0
 11
343.38400499816112
 21
543.16967632424019
 31
0.0
  0
LINE
  5
319B
  8
AM_0
 10
359.38397499816108
 20
467.38433632424022
 30
0.0
 11
359.38397499816108
 21
518.45297632424024
 31
0.0
  0
LINE
  5
319C
  8
AM_0
 10
356.38397499816108
 20
542.46362632423995
 30
0.0
 11
356.38397499816108
 21
443.37371632424021
 31
0.0
  0
LINE
  5
319D
  8
AM_0
 10
294.38397499816102
 20
563.9186763242401
 30
0.0
 11
294.38397499816102
 21
421.91867632424032
 31
0.0
  0
ARC
  5
319E
  8
AM_0
 10
335.38397499816119
 20
420.91546632424019
 30
0.0
 40
5.0
 50
180.00001000000091
 51
271.49999999999932
  0
ARC
  5
319F
  8
AM_0
 10
335.38397499816119
 20
434.19964632424001
 30
0.0
 40
5.0
 50
95.00000199999856
 51
180.00001000000091
  0
LINE
  5
31A0
  8
AM_0
 10
340.46255499816118
 20
445.89413632423998
 30
0.0
 11
321.96597499816107
 21
445.40979632424018
 31
0.0
  0
LINE
  5
31A1
  8
AM_0
 10
297.38400499816112
 20
414.9186763242401
 30
0.0
 11
357.43637499816123
 21
416.4912163242401
 31
0.0
  0
LINE
  5
31A2
  8
AM_0
 10
256.38400499816112
 20
460.97873632424017
 30
0.0
 11
287.38400499816112
 21
460.97873632424017
 31
0.0
  0
LINE
  5
31A3
  8
AM_0
 10
284.38397499816102
 20
427.70739632423999
 30
0.0
 11
285.38400499816112
 21
427.70739632423999
 31
0.0
  0
LINE
  5
31A4
  8
AM_0
 10
256.38400499816112
 20
446.9183663242402
 30
0.0
 11
287.38400499816112
 21
446.9183663242402
 31
0.0
  0
LINE
  5
31A5
  8
AM_0
 10
267.33160499816108
 20
415.70562632423997
 30
0.0
 11
297.38397499816102
 21
414.9186763242401
 31
0.0
  0
LINE
  5
31A6
  8
AM_0
 10
282.38397499816119
 20
436.2378263242399
 30
0.0
 11
256.38400499816112
 21
436.91864632424
 31
0.0
  0
ARC
  5
31A7
  8
AM_0
 10
277.38397499816119
 20
427.91867632423998
 30
0.0
 40
6.0
 50
33.5572999999982
 51
0.5425182800010755
  0
LINE
  5
31A8
  8
AM_0
 10
282.38397499816119
 20
429.70739632423999
 30
0.0
 11
282.38397499816119
 21
444.91836632424003
 31
0.0
  0
LINE
  5
31A9
  8
AM_0
 10
265.38397499816102
 20
417.70495632424019
 30
0.0
 11
265.38397499816102
 21
436.68298632424018
 31
0.0
  0
ARC
  5
31AA
  8
AM_0
 10
267.38397499816119
 20
417.70495632424019
 30
0.0
 40
2.0
 50
180.00001000000091
 51
268.5000000000004
  0
ARC
  5
31AB
  8
AM_0
 10
284.38397499816102
 20
429.70739632423999
 30
0.0
 40
2.0
 50
180.00001000000091
 51
270.0
  0
ARC
  5
31AC
  8
AM_0
 10
280.38397499816108
 20
444.91836632424003
 30
0.0
 40
2.0
 50
0.0
 51
90.000003000000945
  0
ARC
  5
31AD
  8
AM_0
 10
306.9889549981612
 20
427.25045632423991
 30
0.0
 40
5.0
 50
271.49999999999932
 51
299.88701999999893
  0
LINE
  5
31AE
  8
AM_0
 10
308.38400499816112
 20
442.85144632424021
 30
0.0
 11
321.96597499816107
 21
445.40982632424021
 31
0.0
  0
LINE
  5
31AF
  8
AM_0
 10
306.38397499816119
 20
440.3807363242401
 30
0.0
 11
309.38397499816102
 21
440.3807363242401
 31
0.0
  0
LINE
  5
31B0
  8
AM_0
 10
306.38397499816119
 20
428.83368632424032
 30
0.0
 11
309.38397499816102
 21
428.83368632424032
 31
0.0
  0
LINE
  5
31B1
  8
AM_0
 10
306.38397499816119
 20
431.7204563242401
 30
0.0
 11
309.38397499816102
 21
431.7204563242401
 31
0.0
  0
LINE
  5
31B2
  8
AM_0
 10
306.38397499816119
 20
437.49395632424
 30
0.0
 11
309.38397499816102
 21
437.49395632424
 31
0.0
  0
LINE
  5
31B3
  8
AM_0
 10
306.38397499816119
 20
441.38073632423999
 30
0.0
 11
306.38397499816119
 21
427.8336863242402
 31
0.0
  0
LINE
  5
31B4
  8
AM_0
 10
305.38397499816102
 20
442.85144632424021
 30
0.0
 11
305.38397499816102
 21
422.20672632424032
 31
0.0
  0
LINE
  5
31B5
  8
AM_0
 10
307.11984499816111
 20
422.25216632424002
 30
0.0
 11
294.38400499816112
 21
421.91867632424032
 31
0.0
  0
LINE
  5
31B6
  8
AM_0
 10
297.38397499816102
 20
418.77465632424003
 30
0.0
 11
290.38397499816119
 21
415.10199632424019
 31
0.0
  0
ARC
  5
31B7
  8
AM_0
 10
289.38400499816112
 20
424.05029632424021
 30
0.0
 40
2.0
 50
180.00001000000091
 51
268.5000000000004
  0
LINE
  5
31B8
  8
AM_0
 10
294.38397499816102
 20
421.91867632424032
 30
0.0
 11
289.33163499816112
 21
422.05096632423999
 31
0.0
  0
LINE
  5
31B9
  8
AM_0
 10
294.78698499816119
 20
421.92923632423998
 30
0.0
 11
290.38397499816119
 21
419.61911632424
 31
0.0
  0
LINE
  5
31BA
  8
AM_0
 10
290.38397499816119
 20
415.10199632424019
 30
0.0
 11
290.38397499816119
 21
419.6190863242399
 31
0.0
  0
ARC
  5
31BB
  8
AM_0
 10
285.38400499816112
 20
425.70739632423999
 30
0.0
 40
2.0
 50
0.0
 51
90.000003000000945
  0
LINE
  5
31BC
  8
AM_0
 10
297.38397499816102
 20
421.99722632424022
 30
0.0
 11
297.38397499816102
 21
418.77465632424003
 31
0.0
  0
LINE
  5
31BD
  8
AM_0
 10
305.38397499816102
 20
427.8336863242402
 30
0.0
 11
306.38397499816119
 21
427.8336863242402
 31
0.0
  0
LINE
  5
31BE
  8
AM_0
 10
305.38397499816102
 20
442.85144632424021
 30
0.0
 11
308.38397499816119
 21
442.85144632424021
 31
0.0
  0
LINE
  5
31BF
  8
AM_0
 10
305.38397499816102
 20
441.38073632423999
 30
0.0
 11
306.38397499816119
 21
441.38073632423999
 31
0.0
  0
ARC
  5
31C0
  8
AM_0
 10
327.38397499816119
 20
432.82135632424001
 30
0.0
 40
3.0
 50
271.49999999999932
 51
0.0
  0
ARC
  5
31C1
  8
AM_0
 10
309.38397499816102
 20
432.72042632424018
 30
0.0
 40
1.0
 50
269.999989999999
 51
0.0000006832462478
  0
LINE
  5
31C2
  8
AM_0
 10
330.38397499816102
 20
420.91546632424019
 30
0.0
 11
330.38397499816102
 21
434.19964632424001
 31
0.0
  0
LINE
  5
31C3
  8
AM_0
 10
310.38394499816093
 20
429.83368632423998
 30
0.0
 11
310.38394499816093
 21
439.38070632424018
 31
0.0
  0
ARC
  5
31C4
  8
AM_0
 10
322.60864499816103
 20
424.69357632424021
 30
0.0
 40
5.0
 50
91.500001000001546
 51
119.887019999999
  0
LINE
  5
31C5
  8
AM_0
 10
309.48040499816119
 20
422.91540632424
 30
0.0
 11
320.11718499816112
 21
429.02862632424018
 31
0.0
  0
ARC
  5
31C6
  8
AM_0
 10
309.38397499816102
 20
429.83368632423998
 30
0.0
 40
1.0
 50
269.999989999999
 51
0.0000006832462478
  0
ARC
  5
31C7
  8
AM_0
 10
309.38397499816102
 20
430.72045632423999
 30
0.0
 40
1.0
 50
0.0
 51
90.000003000000945
  0
LINE
  5
31C8
  8
AM_0
 10
327.4625249981612
 20
429.82238632424031
 30
0.0
 11
322.47778499816121
 21
429.69183632424023
 31
0.0
  0
ARC
  5
31C9
  8
AM_0
 10
309.38397499816102
 20
438.49395632424017
 30
0.0
 40
1.0
 50
269.999989999999
 51
0.0000006832462478
  0
ARC
  5
31CA
  8
AM_0
 10
309.38397499816102
 20
436.49395632424
 30
0.0
 40
1.0
 50
0.0
 51
90.000003000000945
  0
ARC
  5
31CB
  8
AM_0
 10
309.38397499816102
 20
439.38070632424018
 30
0.0
 40
1.0
 50
0.0
 51
90.000003000000945
  0
LINE
  5
31CC
  8
AM_0
 10
361.38397499816108
 20
478.91870632424002
 30
0.0
 11
401.38397499816091
 21
478.91870632424002
 31
0.0
  0
LINE
  5
31CD
  8
AM_0
 10
357.43630499816101
 20
443.34613632423998
 30
0.0
 11
356.38397499816108
 21
443.37368632424
 31
0.0
  0
CIRCLE
  5
31CE
  8
AM_0
 10
347.38397499816108
 20
427.91867632423998
 30
0.0
 40
6.0
  0
ARC
  5
31CF
  8
AM_0
 10
347.55801499816118
 20
439.12738632423998
 30
0.0
 40
5.0
 50
95.00000199999856
 51
153.73432999999969
  0
ARC
  5
31D0
  8
AM_0
 10
340.38400499816112
 20
442.66766632423997
 30
0.0
 40
3.0
 50
274.99999999999972
 51
0.0
  0
LINE
  5
31D1
  8
AM_0
 10
340.64547499816121
 20
439.67910632424002
 30
0.0
 11
334.9481849981612
 21
439.18066632424018
 31
0.0
  0
ARC
  5
31D2
  8
AM_0
 10
340.38400499816112
 20
448.8931263242402
 30
0.0
 40
3.0
 50
271.49999999999932
 51
0.0
  0
LINE
  5
31D3
  8
AM_0
 10
351.81976499816108
 20
444.51934632424019
 30
0.0
 11
347.12225499816111
 21
444.10836632424019
 31
0.0
  0
ARC
  5
31D4
  8
AM_0
 10
351.38397499816108
 20
449.50030632424023
 30
0.0
 40
5.0
 50
274.99999999999972
 51
0.0
  0
LINE
  5
31D5
  8
AM_0
 10
359.38397499816108
 20
418.49050632424019
 30
0.0
 11
359.38397499816108
 21
441.3468363242402
 31
0.0
  0
ARC
  5
31D6
  8
AM_0
 10
357.38397499816108
 20
418.49050632424019
 30
0.0
 40
2.0
 50
271.49999999999932
 51
0.0
  0
ARC
  5
31D7
  8
AM_0
 10
357.38397499816108
 20
441.3468363242402
 30
0.0
 40
2.0
 50
0.0
 51
88.499997000000747
  0
LINE
  5
31D8
  8
AM_0
 10
357.34909499816109
 20
466.34759632424021
 30
0.0
 11
358.41885499816101
 21
466.38498632424012
 31
0.0
  0
ARC
  5
31D9
  8
AM_0
 10
357.38397499816108
 20
465.34820632423998
 30
0.0
 40
1.0
 50
91.999998000000545
 51
180.00001000000091
  0
ARC
  5
31DA
  8
AM_0
 10
358.38397499816108
 20
467.38433632424022
 30
0.0
 40
1.0
 50
272.0000000000004
 51
0.0
  0
LINE
  5
31DB
  8
AM_0
 10
359.38397499816108
 20
477.91867632423998
 30
0.0
 11
361.38397499816108
 21
477.91867632423998
 31
0.0
  0
ARC
  5
31DC
  8
AM_0
 10
335.38397499816119
 20
564.9218763242402
 30
0.0
 40
5.0
 50
88.499997000000747
 51
180.00001000000091
  0
ARC
  5
31DD
  8
AM_0
 10
335.38397499816119
 20
551.63766632423994
 30
0.0
 40
5.0
 50
180.00001000000091
 51
265.00001000000071
  0
LINE
  5
31DE
  8
AM_0
 10
340.4625249981612
 20
539.94320632424024
 30
0.0
 11
321.96594499816121
 21
540.42755632424019
 31
0.0
  0
LINE
  5
31DF
  8
AM_0
 10
297.38397499816102
 20
570.91867632423987
 30
0.0
 11
357.4363349981611
 21
569.34613632423998
 31
0.0
  0
ARC
  5
31E0
  8
AM_0
 10
284.38397499816102
 20
556.12997632424015
 30
0.0
 40
2.0
 50
90.000003000000945
 51
180.00001000000091
  0
ARC
  5
31E1
  8
AM_0
 10
309.38397499816102
 20
556.00366632424004
 30
0.0
 40
1.0
 50
0.0
 51
90.000003000000945
  0
ARC
  5
31E2
  8
AM_0
 10
322.60864499816103
 20
561.14376632424023
 30
0.0
 40
5.0
 50
240.11298000000079
 51
268.5000000000004
  0
ARC
  5
31E3
  8
AM_0
 10
277.38397499816119
 20
557.91867632424021
 30
0.0
 40
6.0
 50
359.45747999999838
 51
326.4427199999991
  0
LINE
  5
31E4
  8
AM_0
 10
305.38397499816102
 20
542.98590632424009
 30
0.0
 11
305.38397499816102
 21
563.63061632424012
 31
0.0
  0
LINE
  5
31E5
  8
AM_0
 10
306.38397499816119
 20
544.45660632424028
 30
0.0
 11
306.38397499816119
 21
558.00366632424016
 31
0.0
  0
LINE
  5
31E6
  8
AM_0
 10
330.38397499816102
 20
551.63766632423994
 30
0.0
 11
330.38397499816102
 21
564.9218763242402
 31
0.0
  0
LINE
  5
31E7
  8
AM_0
 10
265.38397499816102
 20
568.13241632424001
 30
0.0
 11
265.38397499816102
 21
549.15435632424033
 31
0.0
  0
LINE
  5
31E8
  8
AM_0
 10
256.38400499816112
 20
524.8586163242403
 30
0.0
 11
287.38400499816112
 21
524.8586163242403
 31
0.0
  0
LINE
  5
31E9
  8
AM_0
 10
256.38400499816112
 20
538.91897632424025
 30
0.0
 11
287.38400499816112
 21
538.91897632424025
 31
0.0
  0
LINE
  5
31EA
  8
AM_0
 10
282.38400499816112
 20
549.59951632424031
 30
0.0
 11
256.38403499816121
 21
548.91867632423998
 31
0.0
  0
ARC
  5
31EB
  8
AM_0
 10
280.38397499816108
 20
540.91897632424025
 30
0.0
 40
2.0
 50
270.0
 51
0.0
  0
LINE
  5
31EC
  8
AM_0
 10
282.38397499816119
 20
556.12997632424015
 30
0.0
 11
282.38397499816119
 21
540.91897632424025
 31
0.0
  0
LINE
  5
31ED
  8
AM_0
 10
306.38397499816119
 20
548.34338632424033
 30
0.0
 11
309.38397499816102
 21
548.34338632424033
 31
0.0
  0
LINE
  5
31EE
  8
AM_0
 10
306.38397499816119
 20
554.11688632424023
 30
0.0
 11
309.38397499816102
 21
554.11688632424023
 31
0.0
  0
LINE
  5
31EF
  8
AM_0
 10
306.38397499816119
 20
545.45663632424021
 30
0.0
 11
309.38397499816102
 21
545.45663632424021
 31
0.0
  0
LINE
  5
31F0
  8
AM_0
 10
308.38397499816119
 20
542.98593632424024
 30
0.0
 11
321.96594499816121
 21
540.42755632424019
 31
0.0
  0
LINE
  5
31F1
  8
AM_0
 10
305.38397499816102
 20
542.98590632424009
 30
0.0
 11
308.38397499816119
 21
542.98590632424009
 31
0.0
  0
LINE
  5
31F2
  8
AM_0
 10
305.38397499816102
 20
544.45660632424028
 30
0.0
 11
306.38397499816119
 21
544.45660632424028
 31
0.0
  0
ARC
  5
31F3
  8
AM_0
 10
309.38397499816102
 20
547.34338632424033
 30
0.0
 40
1.0
 50
0.0
 51
90.000003000000945
  0
LINE
  5
31F4
  8
AM_0
 10
310.38394499816093
 20
556.00366632424004
 30
0.0
 11
310.38394499816093
 21
546.45663632423998
 31
0.0
  0
ARC
  5
31F5
  8
AM_0
 10
309.38397499816102
 20
546.45663632423998
 30
0.0
 40
1.0
 50
269.999989999999
 51
0.0000006832462478
  0
ARC
  5
31F6
  8
AM_0
 10
309.38397499816102
 20
549.34338632424033
 30
0.0
 40
1.0
 50
269.999989999999
 51
0.0000006832462478
  0
ARC
  5
31F7
  8
AM_0
 10
309.38397499816102
 20
555.11688632424023
 30
0.0
 40
1.0
 50
269.999989999999
 51
0.0000006832462478
  0
ARC
  5
31F8
  8
AM_0
 10
309.38397499816102
 20
553.11691632424015
 30
0.0
 40
1.0
 50
0.0
 51
90.000003000000945
  0
LINE
  5
31F9
  8
AM_0
 10
327.46249499816099
 20
556.01495632424019
 30
0.0
 11
322.47775499816112
 21
556.14547632424024
 31
0.0
  0
ARC
  5
31FA
  8
AM_0
 10
327.38397499816119
 20
553.01599632423995
 30
0.0
 40
3.0
 50
0.0
 51
88.499997000000747
  0
LINE
  5
31FB
  8
AM_0
 10
284.38397499816102
 20
558.12997632424026
 30
0.0
 11
285.38400499816112
 21
558.12997632424026
 31
0.0
  0
LINE
  5
31FC
  8
AM_0
 10
267.33163499816112
 20
570.13171632423996
 30
0.0
 11
297.38400499816112
 21
570.91867632423987
 31
0.0
  0
ARC
  5
31FD
  8
AM_0
 10
267.38397499816119
 20
568.13241632424001
 30
0.0
 40
2.0
 50
91.500001000001546
 51
180.00001000000091
  0
ARC
  5
31FE
  8
AM_0
 10
306.9889549981612
 20
558.58688632424025
 30
0.0
 40
5.0
 50
60.112980000000888
 51
88.499997000000747
  0
LINE
  5
31FF
  8
AM_0
 10
306.38397499816119
 20
557.00363632424023
 30
0.0
 11
309.38397499816102
 21
557.00363632424023
 31
0.0
  0
LINE
  5
3200
  8
AM_0
 10
307.11981499816108
 20
563.58517632424014
 30
0.0
 11
294.38397499816102
 21
563.9186763242401
 31
0.0
  0
LINE
  5
3201
  8
AM_0
 10
297.38397499816102
 20
567.0626863242403
 30
0.0
 11
290.38397499816119
 21
570.73538632424015
 31
0.0
  0
LINE
  5
3202
  8
AM_0
 10
294.78698499816119
 20
563.90811632424015
 30
0.0
 11
290.38400499816117
 21
566.21823632424025
 31
0.0
  0
LINE
  5
3203
  8
AM_0
 10
294.38397499816102
 20
563.9186763242401
 30
0.0
 11
289.33166499816122
 21
563.78637632424011
 31
0.0
  0
ARC
  5
3204
  8
AM_0
 10
285.38400499816112
 20
560.12997632424015
 30
0.0
 40
2.0
 50
270.0
 51
0.0
  0
ARC
  5
3205
  8
AM_0
 10
289.38400499816112
 20
561.78704632424024
 30
0.0
 40
2.0
 50
91.500001000001546
 51
180.00001000000091
  0
LINE
  5
3206
  8
AM_0
 10
290.38397499816119
 20
570.73535632424012
 30
0.0
 11
290.38397499816119
 21
566.21826632424006
 31
0.0
  0
LINE
  5
3207
  8
AM_0
 10
297.38397499816102
 20
563.84011632423994
 30
0.0
 11
297.38397499816102
 21
567.0626863242403
 31
0.0
  0
LINE
  5
3208
  8
AM_0
 10
305.38397499816102
 20
558.00366632424016
 30
0.0
 11
306.38397499816119
 21
558.00366632424016
 31
0.0
  0
LINE
  5
3209
  8
AM_0
 10
309.48043499816117
 20
562.92190632424024
 30
0.0
 11
320.1171549981612
 21
556.80871632424021
 31
0.0
  0
CIRCLE
  5
320A
  8
AM_0
 10
347.38397499816108
 20
557.91867632424021
 30
0.0
 40
6.0
  0
LINE
  5
320B
  8
ﾁｭｳｼﾝｾﾝ1
 10
347.38397499816108
 20
567.9186763242401
 30
0.0
 11
347.38397499816108
 21
547.91867632424021
 31
0.0
  0
LINE
  5
320C
  8
AM_0
 10
359.38397499816108
 20
567.34683632424026
 30
0.0
 11
359.38397499816108
 21
544.49050632423996
 31
0.0
  0
LINE
  5
320D
  8
AM_0
 10
369.38397499816108
 20
488.91867632424032
 30
0.0
 11
401.38397499816091
 21
488.91867632424032
 31
0.0
  0
LINE
  5
320E
  8
AM_0
 10
361.38397499816108
 20
506.91870632424002
 30
0.0
 11
401.38397499816091
 21
506.91870632424002
 31
0.0
  0
LINE
  5
320F
  8
AM_0
 10
369.38397499816108
 20
496.91864632424
 30
0.0
 11
401.38397499816091
 21
496.91864632424
 31
0.0
  0
LINE
  5
3210
  8
AM_0
 10
357.34905499816108
 20
519.48971632424025
 30
0.0
 11
358.4188849981611
 21
519.4523663242403
 31
0.0
  0
ARC
  5
3211
  8
AM_0
 10
357.38397499816108
 20
520.48913632424023
 30
0.0
 40
1.0
 50
180.00001000000091
 51
267.9999999999996
  0
ARC
  5
3212
  8
AM_0
 10
369.38397499816108
 20
492.91864632424
 30
0.0
 40
3.9999962
 50
90.000003000000945
 51
270.0
  0
LINE
  5
3213
  8
AM_0
 10
369.38397499816108
 20
496.91864632424
 30
0.0
 11
369.38397499816108
 21
488.91867632424032
 31
0.0
  0
LINE
  5
3214
  8
AM_0
 10
359.38397499816108
 20
507.91867632424021
 30
0.0
 11
361.38397499816108
 21
507.91867632424021
 31
0.0
  0
ARC
  5
3215
  8
AM_0
 10
358.38397499816108
 20
518.45297632424024
 30
0.0
 40
1.0
 50
0.0
 51
87.999999999999659
  0
LINE
  5
3216
  8
AM_0
 10
356.384004998161
 20
542.46362632423995
 30
0.0
 11
357.4363349981611
 21
542.49118632423995
 31
0.0
  0
ARC
  5
3217
  8
AM_0
 10
340.38400499816112
 20
536.94421632424019
 30
0.0
 40
3.0
 50
0.0
 51
88.499997000000747
  0
ARC
  5
3218
  8
AM_0
 10
351.38397499816108
 20
536.33700632424029
 30
0.0
 40
5.0
 50
0.0
 51
85.000004000001198
  0
ARC
  5
3219
  8
AM_0
 10
347.55801499816118
 20
546.70993632424029
 30
0.0
 40
5.0
 50
206.2656700000002
 51
265.00001000000071
  0
LINE
  5
321A
  8
AM_0
 10
340.64547499816121
 20
546.15826632424023
 30
0.0
 11
334.94821499816112
 21
546.65670632424008
 31
0.0
  0
ARC
  5
321B
  8
AM_0
 10
340.38400499816112
 20
543.16967632424019
 30
0.0
 40
3.0
 50
0.0
 51
85.000004000001198
  0
LINE
  5
321C
  8
AM_0
 10
351.81976499816108
 20
541.31799632423997
 30
0.0
 11
347.12225499816111
 21
541.72897632424008
 31
0.0
  0
ARC
  5
321D
  8
AM_0
 10
357.38397499816108
 20
544.49050632423996
 30
0.0
 40
2.0
 50
271.49999999999932
 51
0.0
  0
LINE
  5
321E
  8
ﾁｭｳｼﾝｾﾝ1
 10
337.38397499816119
 20
557.91867632424021
 30
0.0
 11
357.38397499816108
 21
557.91867632424021
 31
0.0
  0
ARC
  5
321F
  8
AM_0
 10
357.38397499816108
 20
567.34683632424026
 30
0.0
 40
2.0
 50
0.0
 51
88.499997000000747
  0
LINE
  5
3220
  8
AM_0
 10
244.91953890409391
 20
444.38314241830722
 30
0.0
 11
224.3129371862957
 21
464.98974413610563
 31
0.0
  0
LINE
  5
3221
  8
AM_0
 10
246.38400499816109
 20
548.15729767827474
 30
0.0
 11
246.384004998162
 21
437.68005497020522
 31
0.0
  0
ARC
  5
3222
  8
AM_0
 10
241.384004998161
 20
440.84760851237451
 30
0.0
 40
5.0
 50
0.0
 51
45.0
1001
GENIUS_GENODEF_13
1002
{
1000
HIER
1070
     0
1002
}
1002
{
1000
MANEDIT
1070
     0
1002
}
1002
{
1000
NOSEL
1070
     0
1002
}
1002
{
1000
BEHIND
1070
     0
1002
}
1002
{
1000
OTHER
1070
     0
1002
}
1002
{
1000
REACTOR
1002
}
1001
GENIUS_GENOBJ-N-FIL_13
1002
{
1000
OWNER
1000
GEN
1002
}
  0
ARC
  5
3223
  8
AM_0
 10
247.384004998161
 20
437.68005497020522
 30
0.0
 40
1.0
 50
180.0
 51
268.33915276702578
1001
GENIUS_GENOBJ-N-FIL_13
1002
{
1000
OWNER
1000
GEN
1002
}
1001
GENIUS_GENODEF_13
1002
{
1000
HIER
1070
     0
1002
}
1002
{
1000
MANEDIT
1070
     0
1002
}
1002
{
1000
NOSEL
1070
     0
1002
}
1002
{
1000
BEHIND
1070
     0
1002
}
1002
{
1000
OTHER
1070
     0
1002
}
1002
{
1000
REACTOR
1002
}
  0
LINE
  5
3224
  8
AM_0
 10
247.35502180487779
 20
436.68047507119422
 30
0.0
 11
256.38400499816112
 21
436.41867632423998
 31
0.0
  0
LINE
  5
3225
  8
AM_0
 10
256.38400499816112
 20
460.98123732424023
 30
0.0
 11
246.38400499816109
 21
460.98123732424023
 31
0.0
  0
LINE
  5
3226
  8
AM_0
 10
256.38400499816112
 20
446.9186743242401
 30
0.0
 11
246.38400499816109
 21
446.9186743242401
 31
0.0
  0
LINE
  5
3227
  8
AM_0
 10
196.884004998161
 20
485.41866869484562
 30
0.0
 11
198.88400499816109
 21
485.41866869484562
 31
0.0
  0
LINE
  5
3228
  8
AM_0
 10
196.884004998161
 20
500.41867632424021
 30
0.0
 11
198.88400499816109
 21
500.41867632424021
 31
0.0
  0
LINE
  5
3229
  8
AM_0
 10
196.884004998161
 20
500.41867632424021
 30
0.0
 11
196.884004998161
 21
485.41866869484562
 31
0.0
  0
LINE
  5
322A
  8
AM_0
 10
171.884004998161
 20
494.91867632423998
 30
0.0
 11
189.884004998161
 21
494.91867632423998
 31
0.0
  0
LINE
  5
322B
  8
AM_0
 10
171.884004998161
 20
490.91867632423998
 30
0.0
 11
189.884004998161
 21
490.91867632423998
 31
0.0
  0
LINE
  5
322C
  8
AM_0
 10
171.884004998161
 20
498.91867632423998
 30
0.0
 11
196.884004998161
 21
498.91867632423998
 31
0.0
  0
LINE
  5
322D
  8
AM_0
 10
171.884004998161
 20
486.91867632424021
 30
0.0
 11
196.884004998161
 21
486.91867632424021
 31
0.0
  0
LINE
  5
322E
  8
AM_0
 10
171.884004998161
 20
498.91867632423998
 30
0.0
 11
171.884004998161
 21
486.91867632424021
 31
0.0
  0
ARC
  5
322F
  8
AM_0
 10
189.884004998161
 20
492.91867632424032
 30
0.0
 40
1.9999999999998861
 50
270.0
 51
90.0
  0
LINE
  5
3230
  8
AM_0
 10
189.884004998161
 20
494.91867632423998
 30
0.0
 11
189.884004998161
 21
490.91867632423998
 31
0.0
  0
ARC
  5
3231
  8
AM_0
 10
200.88400499816109
 20
507.090249199494
 30
0.0
 40
2.0
 50
135.0
 51
180.0
1001
GENIUS_GENODEF_13
1002
{
1000
HIER
1070
     0
1002
}
1002
{
1000
MANEDIT
1070
     0
1002
}
1002
{
1000
NOSEL
1070
     0
1002
}
1002
{
1000
BEHIND
1070
     0
1002
}
1002
{
1000
OTHER
1070
     0
1002
}
1002
{
1000
REACTOR
1002
}
1001
GENIUS_GENOBJ-N-FIL_13
1002
{
1000
OWNER
1000
GEN
1002
}
  0
LINE
  5
3232
  8
AM_0
 10
200.8840049981608
 20
469.91867632423998
 30
0.0
 11
200.88400499816109
 21
515.91867632423987
 31
0.0
  0
LINE
  5
3233
  8
AM_0
 10
221.38400499816109
 20
517.9186763242401
 30
0.0
 11
221.38400499816109
 21
467.9186763242401
 31
0.0
  0
LINE
  5
3234
  8
AM_0
 10
198.88400499816109
 20
507.090249199494
 30
0.0
 11
198.88400499816109
 21
478.74710344898631
 31
0.0
  0
LINE
  5
3235
  8
AM_0
 10
202.88400499816109
 20
467.91867632424021
 30
0.0
 11
217.24186937443011
 21
467.9186763242401
 31
0.0
  0
ARC
  5
3236
  8
AM_0
 10
198.88400499816109
 20
475.09024919949371
 30
0.0
 40
2.0
 50
0.0
 51
45.0
1001
GENIUS_GENODEF_13
1002
{
1000
HIER
1070
     0
1002
}
1002
{
1000
MANEDIT
1070
     0
1002
}
1002
{
1000
NOSEL
1070
     0
1002
}
1002
{
1000
BEHIND
1070
     0
1002
}
1002
{
1000
OTHER
1070
     0
1002
}
1002
{
1000
REACTOR
1002
}
1001
GENIUS_GENOBJ-N-FIL_13
1002
{
1000
OWNER
1000
GEN
1002
}
  0
ARC
  5
3237
  8
AM_0
 10
202.88400499816109
 20
469.91867632423998
 30
0.0
 40
2.0
 50
180.0
 51
270.0
1001
GENIUS_GENODEF_13
1002
{
1000
HIER
1070
     0
1002
}
1002
{
1000
MANEDIT
1070
     0
1002
}
1002
{
1000
NOSEL
1070
     0
1002
}
1002
{
1000
BEHIND
1070
     0
1002
}
1002
{
1000
OTHER
1070
     0
1002
}
1002
{
1000
REACTOR
1002
}
1001
GENIUS_GENOBJ-N-FIL_13
1002
{
1000
OWNER
1000
GEN
1002
}
  0
LINE
  5
3238
  8
AM_0
 10
199.46979143578801
 20
477.33288988661309
 30
0.0
 11
200.29821856053411
 21
476.5044627618671
 31
0.0
  0
ARC
  5
3239
  8
AM_0
 10
200.88400499816109
 20
478.74710344898631
 30
0.0
 40
2.0
 50
180.0
 51
225.0
1001
GENIUS_GENODEF_13
1002
{
1000
HIER
1070
     0
1002
}
1002
{
1000
MANEDIT
1070
     0
1002
}
1002
{
1000
NOSEL
1070
     0
1002
}
1002
{
1000
BEHIND
1070
     0
1002
}
1002
{
1000
OTHER
1070
     0
1002
}
1002
{
1000
REACTOR
1002
}
1001
GENIUS_GENOBJ-N-FIL_13
1002
{
1000
OWNER
1000
GEN
1002
}
  0
ARC
  5
323A
  8
AM_0
 10
217.24186937443011
 20
457.91867632423998
 30
0.0
 40
10.0
 50
45.0
 51
90.0
1001
GENIUS_GENOBJ-N-FIL_13
1002
{
1000
OWNER
1000
GEN
1002
}
1001
GENIUS_GENODEF_13
1002
{
1000
HIER
1070
     0
1002
}
1002
{
1000
MANEDIT
1070
     0
1002
}
1002
{
1000
NOSEL
1070
     0
1002
}
1002
{
1000
BEHIND
1070
     0
1002
}
1002
{
1000
OTHER
1070
     0
1002
}
1002
{
1000
REACTOR
1002
}
  0
LINE
  5
323B
  8
AM_0
 10
244.91953890409391
 20
541.45421023017275
 30
0.0
 11
224.3129371862957
 21
520.84760851237468
 31
0.0
  0
LINE
  5
323C
  8
AM_0
 10
202.88400499816109
 20
517.91867632424021
 30
0.0
 11
217.24186937443011
 21
517.91867632424021
 31
0.0
  0
ARC
  5
323D
  8
AM_0
 10
202.88400499816109
 20
515.91867632423987
 30
0.0
 40
2.0
 50
90.0
 51
180.0
1001
GENIUS_GENODEF_13
1002
{
1000
HIER
1070
     0
1002
}
1002
{
1000
MANEDIT
1070
     0
1002
}
1002
{
1000
NOSEL
1070
     0
1002
}
1002
{
1000
BEHIND
1070
     0
1002
}
1002
{
1000
OTHER
1070
     0
1002
}
1002
{
1000
REACTOR
1002
}
1001
GENIUS_GENOBJ-N-FIL_13
1002
{
1000
OWNER
1000
GEN
1002
}
  0
LINE
  5
323E
  8
AM_0
 10
199.46979143578801
 20
508.50446276186688
 30
0.0
 11
200.29821856053411
 21
509.33288988661309
 31
0.0
  0
ARC
  5
323F
  8
AM_0
 10
198.88400499816109
 20
510.74710344898608
 30
0.0
 40
2.0
 50
315.0
 51
0.0
1001
GENIUS_GENODEF_13
1002
{
1000
HIER
1070
     0
1002
}
1002
{
1000
MANEDIT
1070
     0
1002
}
1002
{
1000
NOSEL
1070
     0
1002
}
1002
{
1000
BEHIND
1070
     0
1002
}
1002
{
1000
OTHER
1070
     0
1002
}
1002
{
1000
REACTOR
1002
}
1001
GENIUS_GENOBJ-N-FIL_13
1002
{
1000
OWNER
1000
GEN
1002
}
  0
ARC
  5
3240
  8
AM_0
 10
217.24186937443011
 20
527.91867632423998
 30
0.0
 40
10.0
 50
270.0
 51
315.0
1001
GENIUS_GENODEF_13
1002
{
1000
HIER
1070
     0
1002
}
1002
{
1000
MANEDIT
1070
     0
1002
}
1002
{
1000
NOSEL
1070
     0
1002
}
1002
{
1000
BEHIND
1070
     0
1002
}
1002
{
1000
OTHER
1070
     0
1002
}
1002
{
1000
REACTOR
1002
}
1001
GENIUS_GENOBJ-N-FIL_13
1002
{
1000
OWNER
1000
GEN
1002
}
  0
LINE
  5
3241
  8
AM_0
 10
256.38400499816112
 20
524.85611532424025
 30
0.0
 11
246.38400499816109
 21
524.85611532424025
 31
0.0
  0
ARC
  5
3242
  8
AM_0
 10
247.384004998161
 20
548.15729767827474
 30
0.0
 40
1.0
 50
91.660847232974191
 51
180.0
1001
GENIUS_GENOBJ-N-FIL_13
1002
{
1000
OWNER
1000
GEN
1002
}
1001
GENIUS_GENODEF_13
1002
{
1000
HIER
1070
     0
1002
}
1002
{
1000
MANEDIT
1070
     0
1002
}
1002
{
1000
NOSEL
1070
     0
1002
}
1002
{
1000
BEHIND
1070
     0
1002
}
1002
{
1000
OTHER
1070
     0
1002
}
1002
{
1000
REACTOR
1002
}
  0
LINE
  5
3243
  8
AM_0
 10
256.38400499816112
 20
538.91868132424008
 30
0.0
 11
246.38400499816109
 21
538.91868132424008
 31
0.0
  0
ARC
  5
3244
  8
AM_0
 10
241.384004998161
 20
544.98974413610574
 30
0.0
 40
5.0
 50
315.0
 51
0.0
1001
GENIUS_GENODEF_13
1002
{
1000
HIER
1070
     0
1002
}
1002
{
1000
MANEDIT
1070
     0
1002
}
1002
{
1000
NOSEL
1070
     0
1002
}
1002
{
1000
BEHIND
1070
     0
1002
}
1002
{
1000
OTHER
1070
     0
1002
}
1002
{
1000
REACTOR
1002
}
1001
GENIUS_GENOBJ-N-FIL_13
1002
{
1000
OWNER
1000
GEN
1002
}
  0
LINE
  5
3245
  8
AM_0
 10
247.35502180487779
 20
549.15687757728608
 30
0.0
 11
256.38400499816112
 21
549.41867632424021
 31
0.0
  0
LINE
  5
3246
  8
ﾁｭｳｼﾝｾﾝ1
 10
277.38397499816119
 20
567.9186763242401
 30
0.0
 11
277.38397499816119
 21
547.91867632424021
 31
0.0
  0
LINE
  5
3247
  8
ﾁｭｳｼﾝｾﾝ1
 10
267.38397499816119
 20
557.91867632424021
 30
0.0
 11
287.38397499816119
 21
557.91867632424021
 31
0.0
  0
LINE
  5
3248
  8
ﾁｭｳｼﾝｾﾝ1
 10
277.38397499816119
 20
437.91867632424021
 30
0.0
 11
277.38397499816119
 21
417.91867632424032
 31
0.0
  0
LINE
  5
3249
  8
ﾁｭｳｼﾝｾﾝ1
 10
267.38397499816119
 20
427.91867632423998
 30
0.0
 11
287.38397499816119
 21
427.91867632423998
 31
0.0
  0
LINE
  5
324A
  8
ﾁｭｳｼﾝｾﾝ1
 10
347.38397499816108
 20
437.91867632424021
 30
0.0
 11
347.38397499816108
 21
417.91867632424032
 31
0.0
  0
LINE
  5
324B
  8
ﾁｭｳｼﾝｾﾝ1
 10
337.38397499816119
 20
427.91867632423998
 30
0.0
 11
357.38397499816108
 21
427.91867632423998
 31
0.0
  0
TEXT
  5
342E
  8
AM_0
 10
474.65118906035099
 20
485.91549074771592
 30
0.0
 40
10.0
  1
VX02-080G~VX02-100G
  0
ENDSEC
  0
EOF
