  0
SECTION
  2
HEADER
  9
$ACADVER
  1
AC1009
  9
$INSBASE
 10
0.0
 20
0.0
 30
0.0
  9
$EXTMIN
 10
149.1567328127062
 20
186.68055112728621
 30
-0.0000000000112498
  9
$EXTMAX
 10
679.01280390810325
 20
607.9685964295013
 30
0.0000000000002956
  9
$LIMMIN
 10
0.0
 20
0.0
  9
$LIMMAX
 10
853.5
 20
555.00000000000011
  9
$ORTHOMODE
 70
     0
  9
$REGENMODE
 70
     1
  9
$FILLMODE
 70
     1
  9
$QTEXTMODE
 70
     0
  9
$MIRRTEXT
 70
     1
  9
$DRAGMODE
 70
     2
  9
$LTSCALE
 40
3.0
  9
$OSMODE
 70
   551
  9
$ATTMODE
 70
     1
  9
$TEXTSIZE
 40
2.5
  9
$TRACEWID
 40
1.0
  9
$TEXTSTYLE
  7
STANDARD
  9
$CLAYER
  8
AM_0
  9
$CELTYPE
  6
BYLAYER
  9
$CECOLOR
 62
   256
  9
$DIMSCALE
 40
1.0
  9
$DIMASZ
 40
2.5
  9
$DIMEXO
 40
1.0
  9
$DIMDLI
 40
8.0
  9
$DIMRND
 40
0.0
  9
$DIMDLE
 40
0.0
  9
$DIMEXE
 40
0.6
  9
$DIMTP
 40
0.1
  9
$DIMTM
 40
0.1
  9
$DIMTXT
 40
2.5
  9
$DIMCEN
 40
0.0
  9
$DIMTSZ
 40
0.0
  9
$DIMTOL
 70
     0
  9
$DIMLIM
 70
     0
  9
$DIMTIH
 70
     0
  9
$DIMTOH
 70
     0
  9
$DIMSE1
 70
     0
  9
$DIMSE2
 70
     0
  9
$DIMTAD
 70
     1
  9
$DIMZIN
 70
     8
  9
$DIMBLK
  1

  9
$DIMASO
 70
     1
  9
$DIMSHO
 70
     1
  9
$DIMPOST
  1

  9
$DIMAPOST
  1
"
  9
$DIMALT
 70
     0
  9
$DIMALTD
 70
     2
  9
$DIMALTF
 40
0.0393701
  9
$DIMLFAC
 40
1.0
  9
$DIMTOFL
 70
     1
  9
$DIMTVP
 40
0.0
  9
$DIMTIX
 70
     0
  9
$DIMSOXD
 70
     0
  9
$DIMSAH
 70
     0
  9
$DIMBLK1
  1

  9
$DIMBLK2
  1

  9
$DIMSTYLE
  2
AM_ISO
  9
$DIMCLRD
 70
   256
  9
$DIMCLRE
 70
   256
  9
$DIMCLRT
 70
     4
  9
$DIMTFAC
 40
0.71
  9
$DIMGAP
 40
0.8
  9
$LUNITS
 70
     2
  9
$LUPREC
 70
     2
  9
$SKETCHINC
 40
1.0
  9
$FILLETRAD
 40
15.0
  9
$AUNITS
 70
     0
  9
$AUPREC
 70
     0
  9
$MENU
  1
.
  9
$ELEVATION
 40
0.0
  9
$PELEVATION
 40
0.0
  9
$THICKNESS
 40
0.0
  9
$LIMCHECK
 70
     0
  9
$BLIPMODE
 70
     0
  9
$CHAMFERA
 40
6.0
  9
$CHAMFERB
 40
3.0
  9
$SKPOLY
 70
     0
  9
$TDCREATE
 40
2452065.752856805
  9
$TDUPDATE
 40
2458541.4105699421
  9
$TDINDWG
 40
0.077305
  9
$TDUSRTIMER
 40
0.0773047801
  9
$USRTIMER
 70
     1
  9
$ANGBASE
 50
0.0
  9
$ANGDIR
 70
     0
  9
$PDMODE
 70
     0
  9
$PDSIZE
 40
0.0
  9
$PLINEWID
 40
0.0
  9
$COORDS
 70
     1
  9
$SPLFRAME
 70
     0
  9
$SPLINETYPE
 70
     6
  9
$SPLINESEGS
 70
     8
  9
$ATTDIA
 70
     1
  9
$ATTREQ
 70
     1
  9
$HANDLING
 70
     1
  9
$HANDSEED
  5
2FA3
  9
$SURFTAB1
 70
     6
  9
$SURFTAB2
 70
     6
  9
$SURFTYPE
 70
     6
  9
$SURFU
 70
     6
  9
$SURFV
 70
     6
  9
$UCSNAME
  2

  9
$UCSORG
 10
0.0
 20
0.0
 30
0.0
  9
$UCSXDIR
 10
1.0
 20
0.0
 30
0.0
  9
$UCSYDIR
 10
0.0
 20
1.0
 30
0.0
  9
$PUCSNAME
  2

  9
$PUCSORG
 10
0.0
 20
0.0
 30
0.0
  9
$PUCSXDIR
 10
1.0
 20
0.0
 30
0.0
  9
$PUCSYDIR
 10
0.0
 20
1.0
 30
0.0
  9
$USERI1
 70
     0
  9
$USERI2
 70
     0
  9
$USERI3
 70
     0
  9
$USERI4
 70
     0
  9
$USERI5
 70
     0
  9
$USERR1
 40
0.0
  9
$USERR2
 40
0.0
  9
$USERR3
 40
0.0
  9
$USERR4
 40
0.0
  9
$USERR5
 40
0.0
  9
$WORLDVIEW
 70
     1
  9
$SHADEDGE
 70
     3
  9
$SHADEDIF
 70
    70
  9
$TILEMODE
 70
     1
  9
$MAXACTVP
 70
    64
  9
$PLIMCHECK
 70
     0
  9
$PEXTMIN
 10
1.0000000000000000E+020
 20
1.0000000000000000E+020
 30
1.0000000000000000E+020
  9
$PEXTMAX
 10
-1.0000000000000000E+020
 20
-1.0000000000000000E+020
 30
-1.0000000000000000E+020
  9
$PLIMMIN
 10
0.0
 20
0.0
  9
$PLIMMAX
 10
420.0
 20
297.0
  9
$UNITMODE
 70
     0
  9
$VISRETAIN
 70
     1
  9
$PLINEGEN
 70
     0
  9
$PSLTSCALE
 70
     1
  0
ENDSEC
  0
SECTION
  2
TABLES
  0
TABLE
  2
VPORT
 70
     1
  0
VPORT
  2
*ACTIVE
 70
     0
 10
0.0
 20
0.0
 11
1.0
 21
1.0
 12
414.08476836040472
 22
397.32457377839381
 13
0.0
 23
0.0
 14
7.5
 24
7.5
 15
30.0
 25
30.0
 16
0.0
 26
0.0
 36
1.0
 17
0.0
 27
0.0
 37
0.0
 40
424.1801829129854
 41
1.7571592210767459
 42
50.0
 43
0.0
 44
0.0
 50
0.0
 51
0.0
 71
     0
 72
   100
 73
     1
 74
     3
 75
     0
 76
     0
 77
     0
 78
     0
  0
ENDTAB
  0
TABLE
  2
LTYPE
 70
    26
  0
LTYPE
  2
CONTINUOUS
 70
     0
  3
Solid line
 72
    65
 73
     0
 40
0.0
  0
LTYPE
  2
AM_ISO02W050
 70
     0
  3
__ __ __ __ __ __ __ __ __ __ __ __ __ __ __
 72
    65
 73
     2
 40
7.5
 49
6.0
 49
-1.5
  0
LTYPE
  2
AM_ISO08W050
 70
     0
  3
____ . ____ . ____ . ____ . ____ . ____ . ____
 72
    65
 73
     4
 40
18.0
 49
12.0
 49
-1.5
 49
3.0
 49
-1.5
  0
LTYPE
  2
AM_ISO09W050
 70
     0
  3
_____ . . _____ . . _____ . . ____ .. ____
 72
    65
 73
     6
 40
22.5
 49
12.0
 49
-1.5
 49
3.0
 49
-1.5
 49
3.0
 49
-1.5
  0
LTYPE
  2
AMCONSTR
 70
     0
  3
_______________________
 72
    65
 73
     2
 40
9999.0
 49
9999.0
 49
0.0
  0
LTYPE
  2
AM_ISO08W050X2
 70
     0
  3
__ . __ . __ . __ . __ . __
 72
    65
 73
     4
 40
9.0
 49
6.0
 49
-0.75
 49
1.5
 49
-0.75
  0
LTYPE
  2
AM_ISO02W050X2
 70
     0
  3
 _ _ _ _ _ _ _ _ _ _ _ _
 72
    65
 73
     2
 40
3.75
 49
3.0
 49
-0.75
  0
LTYPE
  2
AMZIGZAG
 70
     0
  3
/\/-/\/-/\/-/\/-/\/-/\/
 72
    65
 73
     2
 40
11.000099999999991
 49
0.0001
 49
-11.0
  0
LTYPE
  2
ACISOWELD
 70
     0
  3
_ _ _ _ _
 72
    65
 73
     2
 40
2.0
 49
2.0
 49
-1.0
  0
LTYPE
  2
ACISOTGB
 70
     0
  3
__ . . __ . .
 72
    65
 73
     6
 40
9.0
 49
4.0
 49
-1.0
 49
1.0
 49
-1.0
 49
1.0
 49
-1.0
  0
LTYPE
  2
ACISOTGL
 70
     0
  3
_ _ _ _ _
 72
    65
 73
     2
 40
3.0
 49
2.0
 49
-1.0
  0
LTYPE
  2
CENTER
 70
     0
  3
__ . __
 72
    65
 73
     4
 40
7.0
 49
4.0
 49
-1.0
 49
1.0
 49
-1.0
  0
LTYPE
  2
PHANTOM2
 70
     0
  3
Phantom (.5x) ___ _ _ ___ _ _ ___ _ _ ___ _ _
 72
    65
 73
     6
 40
31.75
 49
15.875
 49
-3.174999999999998
 49
3.174999999999998
 49
-3.174999999999998
 49
3.174999999999998
 49
-3.174999999999998
  0
LTYPE
  2
ACANSTGBM
 70
     0
  3
__ . . __ . .
 72
    65
 73
     6
 40
9.0
 49
4.0
 49
-1.0
 49
1.0
 49
-1.0
 49
1.0
 49
-1.0
  0
LTYPE
  2
ACANSTGLM
 70
     0
  3
_ _ _ _ _
 72
    65
 73
     2
 40
3.0
 49
2.0
 49
-1.0
  0
LTYPE
  2
GEN3B
 70
     0
  3
 - - - - -
 72
    65
 73
     2
 40
1.0
 49
0.5
 49
-0.5
  0
LTYPE
  2
GEN7A
 70
     0
  3
__ . __ . __
 72
    65
 73
     4
 40
7.375
 49
4.75
 49
-0.875
 49
0.875
 49
-0.875
  0
LTYPE
  2
ACJISTGB
 70
     0
  3
__ . . __ . .
 72
    65
 73
     6
 40
9.0
 49
4.0
 49
-1.0
 49
1.0
 49
-1.0
 49
1.0
 49
-1.0
  0
LTYPE
  2
ACJISTGL
 70
     0
  3
_ _ _ _ _
 72
    65
 73
     2
 40
3.0
 49
2.0
 49
-1.0
  0
LTYPE
  2
HIDDEN
 70
     0
  3
Hidden __ __ __ __ __ __ __ __ __ __ __ __ __ _
 72
    65
 73
     2
 40
0.375
 49
0.25
 49
-0.125
  0
LTYPE
  2
CENTER2
 70
     0
  3
Center (.5x) ___ _ ___ _ ___ _ ___ _ ___ _ ___
 72
    65
 73
     4
 40
1.125
 49
0.75
 49
-0.125
 49
0.125
 49
-0.125
  0
LTYPE
  2
HIDDEN2
 70
     0
  3
Hidden (.5x) _ _ _ _ _ _ _ _ _ _ _ _ _ _ _ _ _
 72
    65
 73
     2
 40
0.1875
 49
0.125
 49
-0.0625
  0
LTYPE
  2
AMZIGZAG2
 70
     0
  3
/\/-/\/-/\/-/\/-/\/-/\/
 72
    65
 73
     2
 40
0.4401
 49
0.0001
 49
-0.4400000000000002
  0
LTYPE
  2
ACANSTGB
 70
     0
  3
__ . . __ . .
 72
    65
 73
     6
 40
0.35433070866
 49
0.15748031496
 49
-0.03937007874
 49
0.03937007874
 49
-0.03937007874
 49
0.03937007874
 49
-0.03937007874
  0
LTYPE
  2
ACANSTGL
 70
     0
  3
_ _ _ _ _
 72
    65
 73
     2
 40
0.11811023622
 49
0.07874015748
 49
-0.03937007874
  0
ENDTAB
  0
TABLE
  2
LAYER
 70
     6
  0
LAYER
  2
0
 70
     0
 62
     7
  6
CONTINUOUS
  0
LAYER
  2
AM_0
 70
     0
 62
     7
  6
CONTINUOUS
  0
LAYER
  2
AM_5
 70
     0
 62
     2
  6
CONTINUOUS
  0
LAYER
  2
DEFPOINTS
 70
     0
 62
     7
  6
CONTINUOUS
  0
LAYER
  2
ｶｸﾚｾﾝ2
 70
     0
 62
     3
  6
GEN3B
  0
LAYER
  2
ﾁｭｳｼﾝｾﾝ1
 70
     0
 62
     1
  6
GEN7A
  0
ENDTAB
  0
TABLE
  2
STYLE
 70
     9
  0
STYLE
  2
STANDARD
 70
     0
 40
0.0
 41
0.8299999999999999
 50
0.0
 71
     0
 42
2.5
  3
txt.shx
  4
bigfont.shx
  0
STYLE
  2
ANNOTATIVE
 70
     0
 40
0.0
 41
1.0
 50
0.0
 71
     0
 42
0.2
  3
txt
  4

  0
STYLE
  2

 70
     1
 40
0.0
 41
1.0
 50
0.0
 71
     0
 42
2.5
  3
ltypeshp.shx
  4

  0
STYLE
  2
ACISOTS
 70
     0
 40
1.0
 41
1.0
 50
0.0
 71
     0
 42
2.5
  3
isocp.shx
  4
extfont.shx
  0
STYLE
  2
ACISOGDT
 70
     0
 40
0.0
 41
1.0
 50
0.0
 71
     0
 42
2.5
  3
amgdt.shx
  4

  0
STYLE
  2
ACANSTS
 70
     0
 40
1.0
 41
1.0
 50
0.0
 71
     0
 42
2.5
  3
romans.shx
  4
bigfont.shx
  0
STYLE
  2
ACANSGDT
 70
     0
 40
0.0
 41
1.0
 50
0.0
 71
     0
 42
2.5
  3
amgdt.shx
  4

  0
STYLE
  2
ACJISTS
 70
     0
 40
1.0
 41
1.0
 50
0.0
 71
     0
 42
2.5
  3
isocp.shx
  4
bigfont.shx
  0
STYLE
  2
ACJISGDT
 70
     0
 40
0.0
 41
1.0
 50
0.0
 71
     0
 42
2.5
  3
amgdt.shx
  4

  0
ENDTAB
  0
TABLE
  2
VIEW
 70
     6
  0
VIEW
  2
AM_VIEW1
 70
     0
 40
277.49999999999989
 10
249.64779005524849
 20
416.24999999999989
 41
499.2955801104971
 11
0.0
 21
0.0
 31
1.0
 12
0.0
 22
0.0
 32
0.0
 42
50.0
 43
0.0
 44
0.0
 50
0.0
 71
     0
  0
VIEW
  2
AM_VIEW2
 70
     0
 40
277.49999999999989
 10
603.85220994475117
 20
416.24999999999989
 41
499.2955801104971
 11
0.0
 21
0.0
 31
1.0
 12
0.0
 22
0.0
 32
0.0
 42
50.0
 43
0.0
 44
0.0
 50
0.0
 71
     0
  0
VIEW
  2
AM_VIEW3
 70
     0
 40
277.49999999999989
 10
249.64779005524849
 20
138.7499999999998
 41
499.2955801104971
 11
0.0
 21
0.0
 31
1.0
 12
0.0
 22
0.0
 32
0.0
 42
50.0
 43
0.0
 44
0.0
 50
0.0
 71
     0
  0
VIEW
  2
AM_VIEW4
 70
     0
 40
277.49999999999989
 10
603.85220994475117
 20
138.7499999999998
 41
499.2955801104971
 11
0.0
 21
0.0
 31
1.0
 12
0.0
 22
0.0
 32
0.0
 42
50.0
 43
0.0
 44
0.0
 50
0.0
 71
     0
  0
VIEW
  2
AM_VIEW5
 70
     0
 40
277.5
 10
426.75
 20
277.49999999999989
 41
499.2955801104971
 11
0.0
 21
0.0
 31
1.0
 12
0.0
 22
0.0
 32
0.0
 42
50.0
 43
0.0
 44
0.0
 50
0.0
 71
     0
  0
VIEW
  2
AM_VIEW6
 70
     0
 40
554.99445000000014
 10
426.75
 20
277.49999999999989
 41
998.5811743093924
 11
0.0
 21
0.0
 31
1.0
 12
0.0
 22
0.0
 32
0.0
 42
50.0
 43
0.0
 44
0.0
 50
0.0
 71
     0
  0
ENDTAB
  0
TABLE
  2
UCS
 70
     0
  0
ENDTAB
  0
TABLE
  2
APPID
 70
    95
  0
APPID
  2
ACAD
 70
     0
  0
APPID
  2
ACADANNOTATIVE
 70
     0
  0
APPID
  2
MCAD_NO_VIS
 70
     0
  0
APPID
  2
ACAD_TEMP_GRAPHIC
 70
     0
  0
APPID
  2
ACATTRIBSERVICES
 70
     0
  0
APPID
  2
GENIUS_GENREC_14
 70
     0
  0
APPID
  2
GENIUS_GENOBJ-N-REC_13
 70
     0
  0
APPID
  2
GENIUS_GENODEF_13
 70
     0
  0
APPID
  2
GENIUS_GENOLIS_13
 70
     0
  0
APPID
  2
GENIUS_GENOBJ-N-TIT_13
 70
     0
  0
APPID
  2
GENIUS_GENOENT_13
 70
     0
  0
APPID
  2
GENIUS_GENTITLE_13
 70
     0
  0
APPID
  2
GENIUS_GENOREF_13
 70
     0
  0
APPID
  2
GENIUS_GENSCREG_15
 70
     0
  0
APPID
  2
GENIUS_GENOBJ-N-SDF_13
 70
     0
  0
APPID
  2
GENIUS_GENFIL_13
 70
     0
  0
APPID
  2
GENIUS_GENOBJ-N-CHA_13
 70
     0
  0
APPID
  2
GENIUS_GENDTOL_13
 70
     0
  0
APPID
  2
GENIUS_GENOBJ-N-FIL_13
 70
     0
  0
APPID
  2
AD_DRAW
 70
     0
  0
APPID
  2
DESIGNERASSEMBLIES
 70
     0
  0
APPID
  2
ASURF_PCURVE_APPNAME
 70
     0
  0
APPID
  2
GENIUS_GE3SECT_13
 70
     0
  0
APPID
  2
GENIUS_GENCFG_13
 70
     0
  0
APPID
  2
GENIUS_GE3CFG0_13
 70
     0
  0
APPID
  2
GENIUS_GENCFG0_13
 70
     0
  0
APPID
  2
GENIUS_GENCFG1_13
 70
     0
  0
APPID
  2
GENIUS_GENCFG2_13
 70
     0
  0
APPID
  2
GENIUS_GENCFG3_13
 70
     0
  0
APPID
  2
GENIUS_GENCFG4_13
 70
     0
  0
APPID
  2
GENIUS_GEVCFG0_13
 70
     0
  0
APPID
  2
GENIUS_GENHINW_13
 70
     0
  0
APPID
  2
GENIUS_FIRSTVISTXT_14
 70
     0
  0
APPID
  2
GENIUS_GENOBJ-N-LEADER_13
 70
     0
  0
APPID
  2
GEV_VCCNULL_SWITCH_OFF
 70
     0
  0
APPID
  2
GENIUS_GEFCFG0_13
 70
     0
  0
APPID
  2
GENIUS_GENZVEED_13
 70
     0
  0
APPID
  2
GENIUS_GENSCREG_13
 70
     0
  0
APPID
  2
GENIUS_DUMCFG0_13
 70
     0
  0
APPID
  2
GEVID936201362
 70
     0
  0
APPID
  2
GEVDC
 70
     0
  0
APPID
  2
GEVCON
 70
     0
  0
APPID
  2
VCC
 70
     0
  0
APPID
  2
GEVPT
 70
     0
  0
APPID
  2
GEVIT
 70
     0
  0
APPID
  2
GENBH
 70
     0
  0
APPID
  2
GEVMK
 70
     0
  0
APPID
  2
GENIUS_GENBH_13
 70
     0
  0
APPID
  2
GENIUS_GENOBJ-NBEHI-BHF_13
 70
     0
  0
APPID
  2
GENIUS_GENOBJ-NBEHI-BHB_13
 70
     0
  0
APPID
  2
GENIUS_GENOBJ-F-DESC_13
 70
     0
  0
APPID
  2
GENIUS_GEFDESC_14
 70
     0
  0
APPID
  2
GENIUS_GENOBJ-F-PART_13
 70
     0
  0
APPID
  2
GENIUS_GEFSTDP_13
 70
     0
  0
APPID
  2
GENIUS_GEFPARTINS_13
 70
     0
  0
APPID
  2
GENIUS_GENTRA_14
 70
     0
  0
APPID
  2
GENIUS_GENINF13_13
 70
     0
  0
APPID
  2
GENIUS_GENOBJ-N-INFOPT_13
 70
     0
  0
APPID
  2
GENIUS_GENOBJ-N-RSSYM_13
 70
     0
  0
APPID
  2
GENIUS_GENSYMENT_13
 70
     0
  0
APPID
  2
GENIUS_GENSCSYM_13
 70
     0
  0
APPID
  2
GENIUS_GEFINFNAM_13
 70
     0
  0
APPID
  2
GENIUS_GENOBJ-N-CEN_13
 70
     0
  0
APPID
  2
GENIUS_GENOBJ-N-CRS_13
 70
     0
  0
APPID
  2
GENIUS_GENOBJ-N-CRC_13
 70
     0
  0
APPID
  2
GENIUS_GENCRC_14
 70
     0
  0
APPID
  2
GEVID942827039
 70
     0
  0
APPID
  2
GEVID942827040
 70
     0
  0
APPID
  2
GEVID942827041
 70
     0
  0
APPID
  2
GENIUS_GENOBJ-F-SCPASSM_13
 70
     0
  0
APPID
  2
GENIUS_GENDIMSH_14
 70
     0
  0
APPID
  2
GEVID942827042
 70
     0
  0
APPID
  2
GEVID946020473
 70
     0
  0
APPID
  2
GEVID946020474
 70
     0
  0
APPID
  2
GEVID946020475
 70
     0
  0
APPID
  2
GENIUS_GENOBJ-N-HTC_13
 70
     0
  0
APPID
  2
GENIUS_GENHATCH_13
 70
     0
  0
APPID
  2
GEVID948854295
 70
     0
  0
APPID
  2
GEVID939402019
 70
     0
  0
APPID
  2
GEVID952919491
 70
     0
  0
APPID
  2
GEVID952919492
 70
     0
  0
APPID
  2
GENIUS_GEFWELD_13
 70
     0
  0
APPID
  2
GENIUS_GENOBJ-F-WELS_13
 70
     0
  0
APPID
  2
GEVID952919493
 70
     0
  0
APPID
  2
GENIUS_GENOBJ-N-RSBK_13
 70
     0
  0
APPID
  2
GENIUS_GENOBJ-N-LIB_13
 70
     0
  0
APPID
  2
GENIUS_GENSCALE_13
 70
     0
  0
APPID
  2
GEVID986376691
 70
     0
  0
APPID
  2
DCO15
 70
     0
  0
APPID
  2
ACAD_DSTYLE_DIMBREAK
 70
     0
  0
APPID
  2
ACAD_DSTYLE_DIMJAG
 70
     0
  0
APPID
  2
ACAD_NAV_VCDISPLAY
 70
     0
  0
APPID
  2
ACADANNOPO
 70
     0
  0
APPID
  2
ACAD_EXEMPT_FROM_CAD_STANDARDS
 70
     0
  0
APPID
  2
ACAD_MLEADERVER
 70
     0
  0
ENDTAB
  0
TABLE
  2
DIMSTYLE
 70
    22
  0
DIMSTYLE
  2
STANDARD
 70
     0
  3

  4

  5

  6

  7

 40
1.0
 41
0.18
 42
0.0625
 43
0.38
 44
0.18
 45
0.0
 46
0.0
 47
0.0
 48
0.0
140
0.18
141
0.09
142
0.0
143
25.399999999999999
144
1.0
145
0.0
146
1.0
147
0.09
 71
     0
 72
     0
 73
     1
 74
     1
 75
     0
 76
     0
 77
     0
 78
     0
170
     0
171
     2
172
     0
173
     0
174
     0
175
     0
176
     0
177
     0
178
     0
  0
DIMSTYLE
  2
ANNOTATIVE
 70
     0
  3

  4

  5

  6

  7

 40
1.0
 41
0.18
 42
0.0625
 43
0.38
 44
0.18
 45
0.0
 46
0.0
 47
0.0
 48
0.0
140
0.18
141
0.09
142
0.0
143
25.399999999999999
144
1.0
145
0.0
146
1.0
147
0.09
 71
     0
 72
     0
 73
     1
 74
     1
 75
     0
 76
     0
 77
     0
 78
     0
170
     0
171
     2
172
     0
173
     0
174
     0
175
     0
176
     0
177
     0
178
     0
  0
DIMSTYLE
  2
AM_ISO
 70
     0
  3

  4
"
  5

  6

  7

 40
1.0
 41
2.5
 42
1.0
 43
8.0
 44
0.6
 45
0.0
 46
0.0
 47
0.1
 48
0.1
140
2.5
141
0.0
142
0.0
143
0.0393701
144
1.0
145
0.0
146
0.71
147
0.8
 71
     0
 72
     0
 73
     0
 74
     0
 75
     0
 76
     0
 77
     1
 78
     8
170
     0
171
     2
172
     1
173
     0
174
     0
175
     0
176
   256
177
   256
178
     4
  0
DIMSTYLE
  2
AM_ISO$3
 70
     0
  3

  4
"
  5

  6

  7

 40
1.0
 41
2.5
 42
1.0
 43
8.0
 44
0.6
 45
0.0
 46
0.0
 47
0.1
 48
0.1
140
2.5
141
0.0
142
0.0
143
0.0393701
144
1.0
145
0.0
146
0.71
147
0.8
 71
     0
 72
     0
 73
     0
 74
     1
 75
     0
 76
     0
 77
     1
 78
     8
170
     0
171
     2
172
     0
173
     0
174
     0
175
     0
176
   256
177
   256
178
     4
  0
DIMSTYLE
  2
AM_ISO$4
 70
     0
  3

  4
"
  5

  6

  7

 40
1.0
 41
2.5
 42
1.0
 43
8.0
 44
0.6
 45
0.0
 46
0.0
 47
0.1
 48
0.1
140
2.5
141
0.0
142
0.0
143
0.0393701
144
1.0
145
0.0
146
0.71
147
0.8
 71
     0
 72
     0
 73
     0
 74
     1
 75
     0
 76
     0
 77
     1
 78
     8
170
     0
171
     2
172
     0
173
     0
174
     0
175
     0
176
   256
177
   256
178
     4
  0
DIMSTYLE
  2
AM_ISO$6
 70
     0
  3

  4
"
  5

  6

  7

 40
1.0
 41
2.5
 42
1.0
 43
8.0
 44
0.6
 45
0.0
 46
0.0
 47
0.1
 48
0.1
140
2.5
141
0.0
142
0.0
143
0.0393701
144
1.0
145
0.0
146
0.71
147
0.8
 71
     0
 72
     0
 73
     0
 74
     0
 75
     0
 76
     0
 77
     0
 78
     8
170
     0
171
     2
172
     1
173
     0
174
     0
175
     0
176
   256
177
   256
178
     4
  0
DIMSTYLE
  2
AM_ISO$7
 70
     0
  3

  4
"
  5

  6

  7

 40
1.0
 41
2.5
 42
1.0
 43
8.0
 44
0.6
 45
0.0
 46
0.0
 47
0.1
 48
0.1
140
2.5
141
0.0
142
0.0
143
0.0393701
144
1.0
145
0.0
146
0.71
147
0.8
 71
     0
 72
     0
 73
     0
 74
     0
 75
     0
 76
     0
 77
     1
 78
     8
170
     0
171
     2
172
     1
173
     0
174
     0
175
     0
176
   256
177
   256
178
     4
  0
DIMSTYLE
  2
AM_ISO$SF
 70
     0
  3

  4
"
  5

  6

  7

 40
1.0
 41
2.5
 42
1.0
 43
10.0
 44
1.0
 45
0.0
 46
0.0
 47
0.1
 48
0.1
140
3.5
141
0.0
142
0.0
143
0.0393701
144
1.0
145
0.0
146
0.71
147
1.5
 71
     0
 72
     0
 73
     0
 74
     0
 75
     1
 76
     1
 77
     1
 78
     8
170
     0
171
     2
172
     1
173
     0
174
     0
175
     0
176
   256
177
   256
178
     2
  0
DIMSTYLE
  2
AM_ISO$SH
 70
     0
  3

  4
"
  5

  6

  7

 40
1.0
 41
2.5
 42
1.0
 43
10.0
 44
1.0
 45
0.0
 46
0.0
 47
0.1
 48
0.1
140
3.5
141
0.0
142
0.0
143
0.0393701
144
2.0
145
0.0
146
0.71
147
1.5
 71
     0
 72
     0
 73
     0
 74
     0
 75
     1
 76
     1
 77
     1
 78
     8
170
     0
171
     2
172
     1
173
     1
174
     0
175
     0
176
   256
177
   256
178
     2
  0
DIMSTYLE
  2
AM_JIS
 70
     0
  3

  4
"
  5

  6

  7

 40
1.0
 41
2.5
 42
1.0
 43
7.0
 44
1.0
 45
0.0
 46
0.0
 47
0.1
 48
0.1000000001
140
2.5
141
0.0
142
0.0
143
0.0393701
144
1.0
145
0.0
146
0.71
147
1.0
 71
     0
 72
     0
 73
     0
 74
     0
 75
     0
 76
     0
 77
     3
 78
     8
170
     0
171
     2
172
     1
173
     0
174
     0
175
     0
176
   256
177
   256
178
     4
  0
DIMSTYLE
  2
AM_JIS$3
 70
     0
  3

  4
"
  5

  6

  7

 40
1.0
 41
2.5
 42
1.0
 43
7.0
 44
1.0
 45
0.0
 46
0.0
 47
0.1
 48
0.1000000001
140
2.5
141
0.0
142
0.0
143
0.0393701
144
1.0
145
0.0
146
0.71
147
1.0
 71
     0
 72
     0
 73
     0
 74
     1
 75
     0
 76
     0
 77
     3
 78
     8
170
     0
171
     2
172
     0
173
     0
174
     0
175
     0
176
   256
177
   256
178
     4
  0
DIMSTYLE
  2
AM_JIS$4
 70
     0
  3

  4
"
  5

  6

  7

 40
1.0
 41
2.5
 42
1.0
 43
7.0
 44
1.0
 45
0.0
 46
0.0
 47
0.1
 48
0.1000000001
140
2.5
141
0.0
142
0.0
143
0.0393701
144
1.0
145
0.0
146
0.71
147
1.0
 71
     0
 72
     0
 73
     0
 74
     0
 75
     0
 76
     0
 77
     3
 78
     8
170
     0
171
     2
172
     0
173
     0
174
     0
175
     0
176
   256
177
   256
178
     4
  0
DIMSTYLE
  2
AM_JIS$6
 70
     0
  3

  4
"
  5

  6

  7

 40
1.0
 41
2.5
 42
1.0
 43
7.0
 44
1.0
 45
0.0
 46
0.0
 47
0.1
 48
0.1000000001
140
2.5
141
0.0
142
0.0
143
0.0393701
144
1.0
145
0.0
146
0.71
147
1.0
 71
     0
 72
     0
 73
     0
 74
     0
 75
     0
 76
     0
 77
     0
 78
     8
170
     0
171
     2
172
     1
173
     0
174
     0
175
     0
176
   256
177
   256
178
     4
  0
DIMSTYLE
  2
AM_JIS$7
 70
     0
  3

  4
"
  5

  6

  7

 40
1.0
 41
2.5
 42
1.0
 43
7.0
 44
1.0
 45
0.0
 46
0.0
 47
0.1
 48
0.1000000001
140
2.5
141
0.0
142
0.0
143
0.0393701
144
1.0
145
0.0
146
0.71
147
1.0
 71
     0
 72
     0
 73
     0
 74
     0
 75
     0
 76
     0
 77
     3
 78
     8
170
     0
171
     2
172
     1
173
     0
174
     0
175
     0
176
   256
177
   256
178
     4
  0
DIMSTYLE
  2
AM_JIS$SF
 70
     0
  3

  4
"
  5

  6

  7

 40
1.0
 41
2.5
 42
1.0
 43
10.0
 44
1.0
 45
0.0
 46
0.0
 47
0.1
 48
0.1
140
3.5
141
0.0
142
0.0
143
0.0393701
144
1.0
145
0.0
146
0.71
147
1.5
 71
     0
 72
     0
 73
     0
 74
     0
 75
     1
 76
     1
 77
     3
 78
     8
170
     0
171
     2
172
     1
173
     0
174
     0
175
     0
176
   256
177
   256
178
     4
  0
DIMSTYLE
  2
AM_JIS$SH
 70
     0
  3

  4
"
  5

  6

  7

 40
1.0
 41
2.5
 42
1.0
 43
10.0
 44
1.0
 45
0.0
 46
0.0
 47
0.1
 48
0.1
140
3.5
141
0.0
142
0.0
143
0.0393701
144
1.0
145
0.0
146
0.71
147
1.5
 71
     0
 72
     0
 73
     0
 74
     0
 75
     1
 76
     0
 77
     3
 78
     8
170
     0
171
     2
172
     1
173
     1
174
     0
175
     0
176
   256
177
   256
178
     4
  0
DIMSTYLE
  2
AM_ANSI
 70
     0
  3

  4
mm
  5

  6

  7

 40
1.0
 41
0.1
 42
0.05
 43
0.5
 44
0.1
 45
0.0
 46
0.0
 47
0.1
 48
0.1
140
0.12
141
0.0
142
0.0
143
25.399999999999999
144
1.0
145
0.0
146
0.71
147
0.06
 71
     0
 72
     0
 73
     1
 74
     1
 75
     0
 76
     0
 77
     0
 78
     7
170
     0
171
     2
172
     0
173
     0
174
     0
175
     0
176
   256
177
   256
178
     2
  0
DIMSTYLE
  2
AM_ANSI$3
 70
     0
  3

  4
mm
  5

  6

  7

 40
1.0
 41
0.1
 42
0.05
 43
0.5
 44
0.1
 45
0.0
 46
0.0
 47
0.1
 48
0.1
140
0.12
141
0.0
142
0.0
143
25.399999999999999
144
1.0
145
0.0
146
0.71
147
0.06
 71
     0
 72
     0
 73
     1
 74
     1
 75
     0
 76
     0
 77
     0
 78
     7
170
     0
171
     2
172
     0
173
     0
174
     0
175
     0
176
   256
177
   256
178
     2
  0
DIMSTYLE
  2
AM_ANSI$4
 70
     0
  3

  4
mm
  5

  6

  7

 40
1.0
 41
0.1
 42
0.05
 43
0.5
 44
0.1
 45
0.0
 46
0.0
 47
0.1
 48
0.1
140
0.12
141
0.0
142
0.0
143
25.399999999999999
144
1.0
145
0.0
146
0.71
147
0.06
 71
     0
 72
     0
 73
     1
 74
     1
 75
     0
 76
     0
 77
     0
 78
     7
170
     0
171
     2
172
     0
173
     0
174
     0
175
     0
176
   256
177
   256
178
     2
  0
DIMSTYLE
  2
AM_ANSI$7
 70
     0
  3

  4
mm
  5

  6

  7

 40
1.0
 41
0.1
 42
0.05
 43
0.5
 44
0.1
 45
0.0
 46
0.0
 47
0.1
 48
0.1
140
0.24
141
0.0
142
0.0
143
25.399999999999999
144
1.0
145
0.0
146
0.71
147
0.06
 71
     0
 72
     0
 73
     1
 74
     1
 75
     0
 76
     0
 77
     0
 78
     7
170
     0
171
     2
172
     0
173
     0
174
     0
175
     0
176
   256
177
   256
178
     2
  0
DIMSTYLE
  2
AM_ANSI$SF
 70
     0
  3

  4
mm
  5

  6

  7

 40
1.0
 41
0.1
 42
0.05
 43
0.5
 44
0.1
 45
0.0
 46
0.0
 47
0.1
 48
0.1
140
0.12
141
0.0
142
0.0
143
25.399999999999999
144
1.0
145
0.0
146
0.71
147
0.06
 71
     0
 72
     0
 73
     1
 74
     1
 75
     1
 76
     1
 77
     0
 78
     7
170
     0
171
     2
172
     0
173
     0
174
     0
175
     0
176
   256
177
   256
178
     2
  0
DIMSTYLE
  2
AM_ANSI$SH
 70
     0
  3

  4
mm
  5

  6

  7

 40
1.0
 41
0.1
 42
0.05
 43
0.5
 44
0.1
 45
0.0
 46
0.0
 47
0.1
 48
0.1
140
0.12
141
0.0
142
0.0
143
25.399999999999999
144
1.0
145
0.0
146
0.71
147
0.06
 71
     0
 72
     0
 73
     1
 74
     1
 75
     1
 76
     1
 77
     0
 78
     7
170
     0
171
     2
172
     0
173
     1
174
     0
175
     0
176
   256
177
   256
178
     2
  0
ENDTAB
  0
ENDSEC
  0
SECTION
  2
BLOCKS
  0
BLOCK
  8
0
  2
$MODEL_SPACE
 70
     0
 10
0.0
 20
0.0
 30
0.0
  3
$MODEL_SPACE
  1

  0
ENDBLK
  5
2E17
  8
0
  0
BLOCK
 67
     1
  8
0
  2
$PAPER_SPACE
 70
     0
 10
0.0
 20
0.0
 30
0.0
  3
$PAPER_SPACE
  1

  0
ENDBLK
  5
2E13
 67
     1
  8
0
  0
BLOCK
  8
0
  2
GENAXEH
 70
     0
 10
0.0
 20
0.0
 30
0.0
  3
GENAXEH
  1

  0
LINE
  5
2B9F
  8
0
 10
-1.0
 20
0.0
 30
0.0
 11
1.0
 21
0.0
 31
0.0
  0
ENDBLK
  5
2BA0
  8
0
  0
BLOCK
  8
0
  2
_OPEN30
 70
     0
 10
0.0
 20
0.0
 30
0.0
  3
_OPEN30
  1

  0
LINE
  5
2BA3
  8
0
 62
     0
 10
-1.0
 20
0.26794919
 30
0.0
 11
0.0
 21
0.0
 31
0.0
  0
LINE
  5
2BA4
  8
0
 62
     0
 10
0.0
 20
0.0
 30
0.0
 11
-1.0
 21
-0.26794919
 31
0.0
  0
LINE
  5
2BA5
  8
0
 62
     0
 10
0.0
 20
0.0
 30
0.0
 11
-1.0
 21
0.0
 31
0.0
  0
ENDBLK
  5
2BA6
  8
0
  0
BLOCK
  8
0
  2
_NONE
 70
     0
 10
0.0
 20
0.0
 30
0.0
  3
_NONE
  1

  0
ENDBLK
  5
2BA9
  8
0
  0
BLOCK
  8
0
  2
_ACMFILLEDHALF
 70
     0
 10
0.0
 20
0.0
 30
0.0
  3
_ACMFILLEDHALF
  1

  0
TRACE
  5
2F0D
  8
AM_0
 62
     0
 10
-0.8
 20
0.0
 30
0.0
 11
-1.0
 21
0.166666666
 31
0.0
 12
0.0
 22
0.0
 32
0.0
 13
0.0
 23
0.0
 33
0.0
  0
LINE
  5
2F0E
  8
AM_0
 62
     0
 10
-1.0
 20
0.0
 30
0.0
 11
-0.8
 21
0.0
 31
0.0
  0
ENDBLK
  5
2F0C
  8
0
  0
ENDSEC
  0
SECTION
  2
ENTITIES
  0
LINE
  5
2BAA
  8
AM_0
 10
285.88206228823623
 20
244.1771971465555
 30
0.0
 11
285.88206228823623
 21
279.49703714655561
 31
0.0
  0
LINE
  5
2BAB
  8
AM_0
 10
179.88206228823611
 20
282.0083881465556
 30
0.0
 11
179.88206228823611
 21
267.00838051716107
 31
0.0
  0
LINE
  5
2BAC
  8
AM_0
 10
181.8820622882362
 20
288.67996102180939
 30
0.0
 11
181.8820622882362
 21
260.33681527130182
 31
0.0
  0
LINE
  5
2BAD
  8
AM_0
 10
154.88206228823611
 20
282.0083881465556
 30
0.0
 11
154.88206228823611
 21
268.5083881465556
 31
0.0
  0
LINE
  5
2BAE
  8
AM_0
 10
239.38206228823611
 20
218.00838814655549
 30
0.0
 11
239.38206228823611
 21
331.00838814655572
 31
0.0
  0
LINE
  5
2BAF
  8
AM_0
 10
229.38206228823611
 20
329.74700950059048
 30
0.0
 11
229.38206228823719
 21
219.26976679252081
 31
0.0
  0
LINE
  5
2BB0
  8
AM_0
 10
204.38206228823611
 20
299.50838814655538
 30
0.0
 11
204.38206228823611
 21
249.5083881465554
 31
0.0
  0
LINE
  5
2BB1
  8
AM_0
 10
183.882062288236
 20
251.5083881465556
 30
0.0
 11
183.88206228823611
 21
297.50838814655572
 31
0.0
  0
LINE
  5
2BB2
  8
AM_0
 10
355.88199228823601
 20
208.58135414655541
 30
0.0
 11
355.88199228823601
 21
333.95938814655563
 31
0.0
  0
LINE
  5
2BB3
  8
AM_0
 10
325.88199228823612
 20
211.70836814655561
 30
0.0
 11
325.88199228823612
 21
318.94168814655569
 31
0.0
  0
LINE
  5
2BB4
  8
AM_0
 10
343.88199228823612
 20
224.3216821465555
 30
0.0
 11
343.88199228823612
 21
349.04023814655562
 31
0.0
  0
LINE
  5
2BB5
  8
AM_0
 10
358.88199228823612
 20
269.6825371465556
 30
0.0
 11
358.88199228823612
 21
325.73422814655561
 31
0.0
  0
LINE
  5
2BB6
  8
AM_0
 10
282.88206228823623
 20
355.50838814655572
 30
0.0
 11
282.88206228823623
 21
227.8512391465556
 31
0.0
  0
LINE
  5
2BB7
  8
AM_0
 10
268.88199228823612
 20
347.36686814655559
 30
0.0
 11
268.88199228823612
 21
206.70837014655561
 31
0.0
  0
LINE
  5
2BB8
  8
AM_0
 10
275.88198228823597
 20
305.65759214655571
 30
0.0
 11
275.88198228823597
 21
214.9643971465556
 31
0.0
  0
LINE
  5
2BB9
  8
AM_0
 10
258.97146228823613
 20
242.57139314655561
 30
0.0
 11
258.97146228823613
 21
306.44540114655558
 31
0.0
  0
POLYLINE
  5
2BBA
  8
AM_0
 66
     1
 10
0.0
 20
0.0
 30
0.0
  0
VERTEX
  5
2BBB
  8
AM_0
  6
CONTINUOUS
 10
285.88197228823623
 20
206.70837014655561
 30
0.0
 42
0.12791153
  0
VERTEX
  5
2BBC
  8
AM_0
  6
CONTINUOUS
 10
291.976082288236
 20
208.37378714655549
 30
0.0
 42
0.075873116
  0
VERTEX
  5
2BBD
  8
AM_0
  6
CONTINUOUS
 10
296.957462288236
 20
212.3326861465556
 30
0.0
 42
0.04391337
  0
VERTEX
  5
2BBE
  8
AM_0
  6
CONTINUOUS
 10
300.89823228823599
 20
217.3498021465555
 30
0.0
 42
0.028464649
  0
VERTEX
  5
2BBF
  8
AM_0
  6
CONTINUOUS
 10
304.09038228823601
 20
222.8764261465555
 30
0.0
 42
0.020370658
  0
VERTEX
  5
2BC0
  8
AM_0
  6
CONTINUOUS
 10
306.7371022882362
 20
228.6887731465556
 30
0.0
 42
0.01565625
  0
VERTEX
  5
2BC1
  8
AM_0
  6
CONTINUOUS
 10
308.9621422882359
 20
234.6753901465556
 30
0.0
 42
0.012688908
  0
VERTEX
  5
2BC2
  8
AM_0
  6
CONTINUOUS
 10
310.84650228823602
 20
240.7784941465556
 30
0.0
 42
0.010707695
  0
VERTEX
  5
2BC3
  8
AM_0
  6
CONTINUOUS
 10
312.44481228823599
 20
246.9639181465555
 30
0.0
 42
0.009324549
  0
VERTEX
  5
2BC4
  8
AM_0
  6
CONTINUOUS
 10
313.794752288236
 20
253.20783614655551
 30
0.0
 42
0.0083349477
  0
VERTEX
  5
2BC5
  8
AM_0
  6
CONTINUOUS
 10
314.92413228823602
 20
259.4968381465556
 30
0.0
 42
0.0076122067
  0
VERTEX
  5
2BC6
  8
AM_0
  6
CONTINUOUS
 10
315.85281228823618
 20
265.81901114655568
 30
0.0
 42
0.0070829649
  0
VERTEX
  5
2BC7
  8
AM_0
  6
CONTINUOUS
 10
316.59555228823598
 20
272.16577214655558
 30
0.0
 42
0.0067007814
  0
VERTEX
  5
2BC8
  8
AM_0
  6
CONTINUOUS
 10
317.16333228823612
 20
278.53082114655552
 30
0.0
 42
0.0064353086
  0
VERTEX
  5
2BC9
  8
AM_0
  6
CONTINUOUS
 10
317.56386228823601
 20
284.9088091465556
 30
0.0
 42
0.0062673647
  0
VERTEX
  5
2BCA
  8
AM_0
  6
CONTINUOUS
 10
317.80242228823602
 20
291.29496014655558
 30
0.0
 42
0.0061857305
  0
VERTEX
  5
2BCB
  8
AM_0
  6
CONTINUOUS
 10
317.88198228823597
 20
297.68495414655558
 30
0.0
  0
SEQEND
  5
2BCC
  8
AM_0
  0
LINE
  5
2BCD
  8
AM_0
 10
154.88206228823611
 20
268.5083881465556
 30
0.0
 11
179.88206228823611
 21
268.5083881465556
 31
0.0
  0
LINE
  5
2BCE
  8
ﾁｭｳｼﾝｾﾝ1
 10
149.19193512123121
 20
274.5083881465556
 30
0.0
 11
263.12977552452912
 21
274.5083881465556
 31
0.0
  0
LINE
  5
2BCF
  8
AM_0
 10
276.88206228823623
 20
192.70836914655541
 30
0.0
 11
330.88203228823602
 21
192.70836914655541
 31
0.0
  0
LINE
  5
2BD0
  8
ﾁｭｳｼﾝｾﾝ1
 10
263.88198228823597
 20
211.7083831465556
 30
0.0
 11
263.88198228823597
 21
186.70836914655541
 31
0.0
  0
LINE
  5
2BD1
  8
AM_0
 10
227.91759619416911
 20
225.97285424062281
 30
0.0
 11
207.31099447637061
 21
246.57945595842111
 31
0.0
  0
LINE
  5
2BD2
  8
AM_0
 10
185.8820622882362
 20
249.5083881465556
 30
0.0
 11
200.23992666450511
 21
249.5083881465556
 31
0.0
  0
ARC
  5
2BD3
  8
AM_0
 10
185.8820622882362
 20
251.5083881465556
 30
0.0
 40
2.0
 50
180.0
 51
270.0
1001
GENIUS_GENODEF_13
1002
{
1000
HIER
1070
     0
1002
}
1002
{
1000
MANEDIT
1070
     0
1002
}
1002
{
1000
NOSEL
1070
     0
1002
}
1002
{
1000
BEHIND
1070
     0
1002
}
1002
{
1000
OTHER
1070
     0
1002
}
1002
{
1000
REACTOR
1002
}
1001
GENIUS_GENOBJ-N-FIL_13
1002
{
1000
OWNER
1000
GEN
1002
}
  0
ARC
  5
2BD4
  8
AM_0
 10
183.88206228823611
 20
260.33681527130182
 30
0.0
 40
2.0
 50
180.0
 51
225.0000000000006
1001
GENIUS_GENODEF_13
1002
{
1000
HIER
1070
     0
1002
}
1002
{
1000
MANEDIT
1070
     0
1002
}
1002
{
1000
NOSEL
1070
     0
1002
}
1002
{
1000
BEHIND
1070
     0
1002
}
1002
{
1000
OTHER
1070
     0
1002
}
1002
{
1000
REACTOR
1002
}
1001
GENIUS_GENOBJ-N-FIL_13
1002
{
1000
OWNER
1000
GEN
1002
}
  0
ARC
  5
2BD5
  8
AM_0
 10
181.8820622882362
 20
256.67996102180928
 30
0.0
 40
2.0
 50
0.0
 51
45.000000000000568
1001
GENIUS_GENODEF_13
1002
{
1000
HIER
1070
     0
1002
}
1002
{
1000
MANEDIT
1070
     0
1002
}
1002
{
1000
NOSEL
1070
     0
1002
}
1002
{
1000
BEHIND
1070
     0
1002
}
1002
{
1000
OTHER
1070
     0
1002
}
1002
{
1000
REACTOR
1002
}
1001
GENIUS_GENOBJ-N-FIL_13
1002
{
1000
OWNER
1000
GEN
1002
}
  0
LINE
  5
2BD6
  8
AM_0
 10
182.46784872586301
 20
258.92260170892871
 30
0.0
 11
183.29627585060911
 21
258.09417458418238
 31
0.0
  0
LINE
  5
2BD7
  8
AM_0
 10
179.88206228823611
 20
267.00838051716107
 30
0.0
 11
181.8820622882362
 21
267.00838051716107
 31
0.0
  0
ARC
  5
2BD8
  8
AM_0
 10
200.23992666450511
 20
239.5083881465556
 30
0.0
 40
10.0
 50
45.0
 51
90.0
1001
GENIUS_GENOBJ-N-FIL_13
1002
{
1000
OWNER
1000
GEN
1002
}
1001
GENIUS_GENODEF_13
1002
{
1000
HIER
1070
     0
1002
}
1002
{
1000
MANEDIT
1070
     0
1002
}
1002
{
1000
NOSEL
1070
     0
1002
}
1002
{
1000
BEHIND
1070
     0
1002
}
1002
{
1000
OTHER
1070
     0
1002
}
1002
{
1000
REACTOR
1002
}
  0
LINE
  5
2BD9
  8
AM_0
 10
285.79482228823599
 20
243.24772214655559
 30
0.0
 11
279.344102288236
 21
209.1506911465556
 31
0.0
  0
LINE
  5
2BDA
  8
AM_0
 10
258.97146228823613
 20
242.57136014655561
 30
0.0
 11
266.66061228823622
 21
231.66045614655559
 31
0.0
  0
LINE
  5
2BDB
  8
AM_0
 10
239.38206228823611
 20
228.5083891465556
 30
0.0
 11
265.025792288236
 21
228.5083891465556
 31
0.0
  0
LINE
  5
2BDC
  8
AM_0
 10
250.88199228823609
 20
206.70837014655561
 30
0.0
 11
276.3963322882359
 21
206.70837014655561
 31
0.0
  0
ARC
  5
2BDD
  8
AM_0
 10
257.07639228823609
 20
212.8874311465556
 30
0.0
 40
5.0000001000000003
 50
50.0
 51
88.0
  0
LINE
  5
2BDE
  8
AM_0
 10
248.88198228823589
 20
191.70837014655561
 30
0.0
 11
275.88198228823597
 21
191.70837014655561
 31
0.0
  0
LINE
  5
2BDF
  8
AM_0
 10
248.88198228823589
 20
204.7083841465556
 30
0.0
 11
248.88198228823589
 21
191.70837014655561
 31
0.0
  0
LINE
  5
2BE0
  8
ｶｸﾚｾﾝ2
 10
257.88198228823597
 20
206.70837014655561
 30
0.0
 11
257.88198228823597
 21
191.70837014655561
 31
0.0
  0
ARC
  5
2BE1
  8
AM_0
 10
250.88199228823609
 20
204.7083841465556
 30
0.0
 40
2.00000007
 50
90.000003000000007
 51
180.00001
  0
LINE
  5
2BE2
  8
AM_0
 10
239.38206228823611
 20
218.5083721465555
 30
0.0
 11
257.25090228823609
 21
217.88437814655549
 31
0.0
  0
ARC
  5
2BE3
  8
AM_0
 10
224.3820622882362
 20
222.4373203346901
 30
0.0
 40
5.0
 50
0.0
 51
45.0
1001
GENIUS_GENODEF_13
1002
{
1000
HIER
1070
     0
1002
}
1002
{
1000
MANEDIT
1070
     0
1002
}
1002
{
1000
NOSEL
1070
     0
1002
}
1002
{
1000
BEHIND
1070
     0
1002
}
1002
{
1000
OTHER
1070
     0
1002
}
1002
{
1000
REACTOR
1002
}
1001
GENIUS_GENOBJ-N-FIL_13
1002
{
1000
OWNER
1000
GEN
1002
}
  0
LINE
  5
2BE4
  8
AM_0
 10
230.3530790949529
 20
218.27018689350959
 30
0.0
 11
239.38206228823611
 21
218.00838814655549
 31
0.0
  0
ARC
  5
2BE5
  8
AM_0
 10
230.38206228823631
 20
219.26976679252081
 30
0.0
 40
1.0
 50
180.0
 51
268.33915276702578
1001
GENIUS_GENOBJ-N-FIL_13
1002
{
1000
OWNER
1000
GEN
1002
}
1001
GENIUS_GENODEF_13
1002
{
1000
HIER
1070
     0
1002
}
1002
{
1000
MANEDIT
1070
     0
1002
}
1002
{
1000
NOSEL
1070
     0
1002
}
1002
{
1000
BEHIND
1070
     0
1002
}
1002
{
1000
OTHER
1070
     0
1002
}
1002
{
1000
REACTOR
1002
}
  0
LINE
  5
2BE6
  8
AM_0
 10
258.97146228823613
 20
217.82429114655551
 30
0.0
 11
258.97146228823613
 21
228.5083891465556
 31
0.0
  0
ARC
  5
2BE7
  8
AM_0
 10
270.88206228823623
 20
210.96441314655559
 30
0.0
 40
2.00000007
 50
90.000003000000007
 51
180.00001
  0
LINE
  5
2BE8
  8
AM_0
 10
260.29038228823629
 20
216.7176481465556
 30
0.0
 11
267.09597228823623
 21
211.00706114655549
 31
0.0
  0
ARC
  5
2BE9
  8
AM_0
 10
276.3963322882359
 20
209.70837014655561
 30
0.0
 40
3.0
 50
270.0
 51
349.28688
  0
ARC
  5
2BEA
  8
AM_0
 10
276.88206228823623
 20
191.70837014655561
 30
0.0
 40
1.0000000199999981
 50
90.000003000000007
 51
180.00001
  0
LINE
  5
2BEB
  8
ｶｸﾚｾﾝ2
 10
269.88198228823597
 20
206.70837014655561
 30
0.0
 11
269.88198228823597
 21
191.70837014655561
 31
0.0
  0
LINE
  5
2BEC
  8
AM_0
 10
275.88198228823597
 20
191.70837014655561
 30
0.0
 11
275.88198228823597
 21
191.70837014655561
 31
0.0
  0
ARC
  5
2BED
  8
AM_0
 10
263.88198228823597
 20
207.1768441465556
 30
0.0
 40
5.0000001000000003
 50
0.0
 51
50.0
  0
LINE
  5
2BEE
  8
AM_0
 10
270.88206228823623
 20
212.9643961465556
 30
0.0
 11
273.88206228823628
 21
212.9643961465556
 31
0.0
  0
ARC
  5
2BEF
  8
AM_0
 10
273.88206228823628
 20
214.9643971465556
 30
0.0
 40
2.00000007
 50
270.0
 51
0.0
  0
ARC
  5
2BF0
  8
AM_0
 10
265.025792288236
 20
230.5083721465555
 30
0.0
 40
2.00000007
 50
270.0
 51
35.173271
  0
LINE
  5
2BF1
  8
AM_0
 10
239.38206228823611
 20
242.57139314655561
 30
0.0
 11
258.97146228823613
 21
242.57139314655561
 31
0.0
  0
ARC
  5
2BF2
  8
AM_0
 10
280.88199228823601
 20
244.1771971465555
 30
0.0
 40
5.0000001000000003
 50
349.28688
 51
0.0
  0
LINE
  5
2BF3
  8
ﾁｭｳｼﾝｾﾝ1
 10
343.88196228823602
 20
211.7083831465556
 30
0.0
 11
343.88196228823602
 21
186.70836914655541
 31
0.0
  0
LINE
  5
2BF4
  8
AM_0
 10
325.88199228823612
 20
219.3216661465556
 30
0.0
 11
338.88198228823597
 21
219.3216661465556
 31
0.0
  0
ARC
  5
2BF5
  8
AM_0
 10
330.88203228823602
 20
211.70836814655561
 30
0.0
 40
5.0000001000000003
 50
179.99998999999991
 51
270.0
  0
LINE
  5
2BF6
  8
AM_0
 10
330.88203228823602
 20
206.70837014655561
 30
0.0
 11
356.88198228823597
 21
206.70837014655561
 31
0.0
  0
LINE
  5
2BF7
  8
AM_0
 10
331.88199228823618
 20
191.70837014655561
 30
0.0
 11
358.88199228823612
 21
191.70837014655561
 31
0.0
  0
LINE
  5
2BF8
  8
ｶｸﾚｾﾝ2
 10
337.88199228823612
 20
206.70837014655561
 30
0.0
 11
337.88199228823612
 21
191.70837014655561
 31
0.0
  0
ARC
  5
2BF9
  8
AM_0
 10
330.88203228823602
 20
191.70837014655561
 30
0.0
 40
1.0000000199999981
 50
0.0
 51
90.000003000000007
  0
LINE
  5
2BFA
  8
AM_0
 10
331.88199228823618
 20
191.70837014655561
 30
0.0
 11
331.88199228823618
 21
191.70837014655561
 31
0.0
  0
LINE
  5
2BFB
  8
AM_0
 10
358.88199228823612
 20
204.7083841465556
 30
0.0
 11
358.88199228823612
 21
191.70837014655561
 31
0.0
  0
LINE
  5
2BFC
  8
ｶｸﾚｾﾝ2
 10
349.88199228823612
 20
206.70837014655561
 30
0.0
 11
349.88199228823612
 21
191.70837014655561
 31
0.0
  0
ARC
  5
2BFD
  8
AM_0
 10
356.88198228823597
 20
204.7083841465556
 30
0.0
 40
2.00000007
 50
0.0
 51
90.000003000000007
  0
ARC
  5
2BFE
  8
AM_0
 10
357.88203228823602
 20
208.58135414655541
 30
0.0
 40
2.00000007
 50
179.99998999999991
 51
255.52249
  0
ARC
  5
2BFF
  8
AM_0
 10
338.88198228823597
 20
224.3216821465555
 30
0.0
 40
5.0000001000000003
 50
270.0
 51
0.0
  0
LINE
  5
2C00
  8
AM_0
 10
356.85582228823608
 20
268.65531614655561
 30
0.0
 11
357.90819228823608
 21
268.6828741465556
 31
0.0
  0
ARC
  5
2C01
  8
AM_0
 10
356.88198228823597
 20
267.65565314655561
 30
0.0
 40
1.0000000199999981
 50
91.500000999999969
 51
180.00001
  0
ARC
  5
2C02
  8
AM_0
 10
357.88203228823602
 20
269.6825371465556
 30
0.0
 40
1.0000000199999981
 50
271.49999999999972
 51
0.0
  0
LINE
  5
2C03
  8
AM_0
 10
154.88206228823611
 20
282.0083881465556
 30
0.0
 11
172.88206228823611
 21
282.0083881465556
 31
0.0
  0
LINE
  5
2C04
  8
AM_0
 10
154.88206228823611
 20
280.50838814655549
 30
0.0
 11
179.88206228823611
 21
280.50838814655549
 31
0.0
  0
POLYLINE
  5
2C05
  8
AM_0
 66
     1
 10
0.0
 20
0.0
 30
0.0
  0
VERTEX
  5
2C06
  8
AM_0
  6
CONTINUOUS
 10
315.96102228823599
 20
316.88712314655561
 30
0.0
 42
0.032705737
  0
VERTEX
  5
2C07
  8
AM_0
  6
CONTINUOUS
 10
314.01489228823618
 20
317.63563814655561
 30
0.0
 42
0.016814103
  0
VERTEX
  5
2C08
  8
AM_0
  6
CONTINUOUS
 10
312.00408228823602
 20
318.19783814655563
 30
0.0
 42
0.010836057
  0
VERTEX
  5
2C09
  8
AM_0
  6
CONTINUOUS
 10
309.96465228823621
 20
318.65068814655569
 30
0.0
 42
0.007863161
  0
VERTEX
  5
2C0A
  8
AM_0
  6
CONTINUOUS
 10
307.9102822882362
 20
319.02778814655562
 30
0.0
 42
0.0061455438
  0
VERTEX
  5
2C0B
  8
AM_0
  6
CONTINUOUS
 10
305.84601228823601
 20
319.34767814655561
 30
0.0
 42
0.0050541015
  0
VERTEX
  5
2C0C
  8
AM_0
  6
CONTINUOUS
 10
303.77439228823602
 20
319.62157814655569
 30
0.0
 42
0.0043145835
  0
VERTEX
  5
2C0D
  8
AM_0
  6
CONTINUOUS
 10
301.69662228823597
 20
319.85692814655562
 30
0.0
 42
0.0037842963
  0
VERTEX
  5
2C0E
  8
AM_0
  6
CONTINUOUS
 10
299.617472288236
 20
320.05846814655558
 30
0.0
 42
0.003403486
  0
VERTEX
  5
2C0F
  8
AM_0
  6
CONTINUOUS
 10
297.53343228823599
 20
320.23033814655571
 30
0.0
 42
0.0031173927
  0
VERTEX
  5
2C10
  8
AM_0
  6
CONTINUOUS
 10
295.44693228823598
 20
320.37508814655558
 30
0.0
 42
0.0029018743
  0
VERTEX
  5
2C11
  8
AM_0
  6
CONTINUOUS
 10
293.35884228823602
 20
320.49472814655559
 30
0.0
 42
0.0027404553
  0
VERTEX
  5
2C12
  8
AM_0
  6
CONTINUOUS
 10
291.2695222882362
 20
320.59081814655559
 30
0.0
 42
0.0026217012
  0
VERTEX
  5
2C13
  8
AM_0
  6
CONTINUOUS
 10
289.17921228823599
 20
320.66455814655569
 30
0.0
 42
0.0025380412
  0
VERTEX
  5
2C14
  8
AM_0
  6
CONTINUOUS
 10
287.08824228823602
 20
320.71669814655559
 30
0.0
 42
0.0024845601
  0
VERTEX
  5
2C15
  8
AM_0
  6
CONTINUOUS
 10
284.99682228823622
 20
320.74786814655562
 30
0.0
 42
0.002458447
  0
VERTEX
  5
2C16
  8
AM_0
  6
CONTINUOUS
 10
282.90513228823602
 20
320.7583681465556
 30
0.0
  0
SEQEND
  5
2C17
  8
AM_0
  0
POLYLINE
  5
2C18
  8
AM_0
 66
     1
 10
0.0
 20
0.0
 30
0.0
  0
VERTEX
  5
2C19
  8
AM_0
  6
CONTINUOUS
 10
317.88198228823597
 20
315.0083881465556
 30
0.0
 42
0.029628731
  0
VERTEX
  5
2C1A
  8
AM_0
  6
CONTINUOUS
 10
317.69034228823602
 20
318.23767814655571
 30
0.0
 42
0.029327543
  0
VERTEX
  5
2C1B
  8
AM_0
  6
CONTINUOUS
 10
317.12067228823599
 20
321.41860814655558
 30
0.0
 42
0.028837186
  0
VERTEX
  5
2C1C
  8
AM_0
  6
CONTINUOUS
 10
316.184792288236
 20
324.5143381465557
 30
0.0
 42
0.028139479
  0
VERTEX
  5
2C1D
  8
AM_0
  6
CONTINUOUS
 10
314.90241228823601
 20
327.48487814655562
 30
0.0
 42
0.027280614
  0
VERTEX
  5
2C1E
  8
AM_0
  6
CONTINUOUS
 10
313.29993228823588
 20
330.29428814655557
 30
0.0
 42
0.026363464
  0
VERTEX
  5
2C1F
  8
AM_0
  6
CONTINUOUS
 10
311.40531228823602
 20
332.91670814655561
 30
0.0
 42
0.025439158
  0
VERTEX
  5
2C20
  8
AM_0
  6
CONTINUOUS
 10
309.247742288236
 20
335.33131814655559
 30
0.0
 42
0.024503424
  0
VERTEX
  5
2C21
  8
AM_0
  6
CONTINUOUS
 10
306.86133228823587
 20
337.51783814655562
 30
0.0
 42
0.023638789
  0
VERTEX
  5
2C22
  8
AM_0
  6
CONTINUOUS
 10
304.27578228823597
 20
339.46495814655572
 30
0.0
 42
0.022857682
  0
VERTEX
  5
2C23
  8
AM_0
  6
CONTINUOUS
 10
301.52052228823601
 20
341.16376814655558
 30
0.0
 42
0.022175457
  0
VERTEX
  5
2C24
  8
AM_0
  6
CONTINUOUS
 10
298.62345228823602
 20
342.60808814655559
 30
0.0
 42
0.021601125
  0
VERTEX
  5
2C25
  8
AM_0
  6
CONTINUOUS
 10
295.611032288236
 20
343.79377814655561
 30
0.0
 42
0.021139333
  0
VERTEX
  5
2C26
  8
AM_0
  6
CONTINUOUS
 10
292.5081922882361
 20
344.71813814655559
 30
0.0
 42
0.020791974
  0
VERTEX
  5
2C27
  8
AM_0
  6
CONTINUOUS
 10
289.3387822882359
 20
345.37948814655562
 30
0.0
 42
0.020559394
  0
VERTEX
  5
2C28
  8
AM_0
  6
CONTINUOUS
 10
286.12566228823601
 20
345.77689814655571
 30
0.0
 42
0.020441745
  0
VERTEX
  5
2C29
  8
AM_0
  6
CONTINUOUS
 10
282.89103228823598
 20
345.9098881465556
 30
0.0
  0
SEQEND
  5
2C2A
  8
AM_0
  0
LINE
  5
2C2B
  8
AM_0
 10
282.88206228823623
 20
355.50838814655572
 30
0.0
 11
339.01290228823598
 21
354.03856814655558
 31
0.0
  0
LINE
  5
2C2C
  8
ﾁｭｳｼﾝｾﾝ1
 10
253.4658022882362
 20
297.70837214655558
 30
0.0
 11
408.82977228823597
 21
297.70837214655558
 31
0.0
  0
LINE
  5
2C2D
  8
AM_0
 10
227.91759619416911
 20
323.04392205248843
 30
0.0
 11
207.31099447637061
 21
302.43732033469013
 31
0.0
  0
LINE
  5
2C2E
  8
AM_0
 10
185.8820622882362
 20
299.50838814655572
 30
0.0
 11
200.23992666450511
 21
299.50838814655572
 31
0.0
  0
ARC
  5
2C2F
  8
AM_0
 10
185.8820622882362
 20
297.50838814655572
 30
0.0
 40
2.0
 50
90.0
 51
180.0
1001
GENIUS_GENODEF_13
1002
{
1000
HIER
1070
     0
1002
}
1002
{
1000
MANEDIT
1070
     0
1002
}
1002
{
1000
NOSEL
1070
     0
1002
}
1002
{
1000
BEHIND
1070
     0
1002
}
1002
{
1000
OTHER
1070
     0
1002
}
1002
{
1000
REACTOR
1002
}
1001
GENIUS_GENOBJ-N-FIL_13
1002
{
1000
OWNER
1000
GEN
1002
}
  0
LINE
  5
2C30
  8
AM_0
 10
172.88206228823611
 20
282.0083881465556
 30
0.0
 11
172.88206228823611
 21
280.50838814655549
 31
0.0
  0
LINE
  5
2C31
  8
AM_0
 10
179.88206228823611
 20
282.0083881465556
 30
0.0
 11
181.8820622882362
 21
282.0083881465556
 31
0.0
  0
ARC
  5
2C32
  8
AM_0
 10
183.88206228823611
 20
288.67996102180939
 30
0.0
 40
2.0
 50
134.9999999999994
 51
180.0
1001
GENIUS_GENODEF_13
1002
{
1000
HIER
1070
     0
1002
}
1002
{
1000
MANEDIT
1070
     0
1002
}
1002
{
1000
NOSEL
1070
     0
1002
}
1002
{
1000
BEHIND
1070
     0
1002
}
1002
{
1000
OTHER
1070
     0
1002
}
1002
{
1000
REACTOR
1002
}
1001
GENIUS_GENOBJ-N-FIL_13
1002
{
1000
OWNER
1000
GEN
1002
}
  0
LINE
  5
2C33
  8
AM_0
 10
182.46784872586301
 20
290.0941745841825
 30
0.0
 11
183.29627585060911
 21
290.92260170892871
 31
0.0
  0
ARC
  5
2C34
  8
AM_0
 10
181.8820622882362
 20
292.33681527130159
 30
0.0
 40
2.0
 50
314.99999999999932
 51
0.0
1001
GENIUS_GENODEF_13
1002
{
1000
HIER
1070
     0
1002
}
1002
{
1000
MANEDIT
1070
     0
1002
}
1002
{
1000
NOSEL
1070
     0
1002
}
1002
{
1000
BEHIND
1070
     0
1002
}
1002
{
1000
OTHER
1070
     0
1002
}
1002
{
1000
REACTOR
1002
}
1001
GENIUS_GENOBJ-N-FIL_13
1002
{
1000
OWNER
1000
GEN
1002
}
  0
ARC
  5
2C35
  8
AM_0
 10
200.23992666450511
 20
309.50838814655549
 30
0.0
 40
10.0
 50
270.0
 51
315.0
1001
GENIUS_GENODEF_13
1002
{
1000
HIER
1070
     0
1002
}
1002
{
1000
MANEDIT
1070
     0
1002
}
1002
{
1000
NOSEL
1070
     0
1002
}
1002
{
1000
BEHIND
1070
     0
1002
}
1002
{
1000
OTHER
1070
     0
1002
}
1002
{
1000
REACTOR
1002
}
1001
GENIUS_GENOBJ-N-FIL_13
1002
{
1000
OWNER
1000
GEN
1002
}
  0
ARC
  5
2C36
  8
AM_0
 10
265.025792288236
 20
318.50839814655558
 30
0.0
 40
2.00000007
 50
324.82673
 51
90.000003000000007
  0
LINE
  5
2C37
  8
AM_0
 10
258.97146228823613
 20
320.50837814655557
 30
0.0
 11
258.97146228823613
 21
331.19248814655549
 31
0.0
  0
LINE
  5
2C38
  8
AM_0
 10
239.38206228823611
 20
320.50837814655557
 30
0.0
 11
265.025792288236
 21
320.50837814655557
 31
0.0
  0
LINE
  5
2C39
  8
AM_0
 10
266.66061228823622
 20
317.35627814655561
 30
0.0
 11
258.97146228823613
 21
306.44540114655558
 31
0.0
  0
LINE
  5
2C3A
  8
AM_0
 10
239.38206228823611
 20
306.44540114655558
 30
0.0
 11
258.97146228823613
 21
306.44540114655558
 31
0.0
  0
ARC
  5
2C3B
  8
AM_0
 10
273.88206228823628
 20
299.18047814655557
 30
0.0
 40
2.00000007
 50
0.0
 51
90.000003000000007
  0
LINE
  5
2C3C
  8
AM_0
 10
270.88206228823623
 20
307.65759014655561
 30
0.0
 11
273.88206228823628
 21
307.65759014655561
 31
0.0
  0
ARC
  5
2C3D
  8
AM_0
 10
270.88206228823623
 20
309.65759114655572
 30
0.0
 40
2.00000007
 50
179.99998999999991
 51
270.0
  0
ARC
  5
2C3E
  8
AM_0
 10
273.88206228823628
 20
305.65759214655571
 30
0.0
 40
2.00000007
 50
0.0
 51
90.000003000000007
  0
LINE
  5
2C3F
  8
AM_0
 10
268.88199228823612
 20
301.18047914655563
 30
0.0
 11
273.88206228823628
 21
301.18047914655563
 31
0.0
  0
ARC
  5
2C40
  8
AM_0
 10
257.07639228823609
 20
336.12931814655542
 30
0.0
 40
5.0000001000000003
 50
272.0
 51
310.0
  0
LINE
  5
2C41
  8
AM_0
 10
239.38200228823581
 20
330.50839814655569
 30
0.0
 11
257.25090228823609
 21
331.13239814655572
 31
0.0
  0
LINE
  5
2C42
  8
AM_0
 10
230.3530790949529
 20
330.74658939960159
 30
0.0
 11
239.38206228823611
 21
331.00838814655572
 31
0.0
  0
ARC
  5
2C43
  8
AM_0
 10
230.38206228823631
 20
329.74700950059048
 30
0.0
 40
1.0
 50
91.660847232974106
 51
180.0
1001
GENIUS_GENOBJ-N-FIL_13
1002
{
1000
OWNER
1000
GEN
1002
}
1001
GENIUS_GENODEF_13
1002
{
1000
HIER
1070
     0
1002
}
1002
{
1000
MANEDIT
1070
     0
1002
}
1002
{
1000
NOSEL
1070
     0
1002
}
1002
{
1000
BEHIND
1070
     0
1002
}
1002
{
1000
OTHER
1070
     0
1002
}
1002
{
1000
REACTOR
1002
}
  0
ARC
  5
2C44
  8
AM_0
 10
224.3820622882362
 20
326.57945595842108
 30
0.0
 40
5.0
 50
315.0
 51
0.0
1001
GENIUS_GENODEF_13
1002
{
1000
HIER
1070
     0
1002
}
1002
{
1000
MANEDIT
1070
     0
1002
}
1002
{
1000
NOSEL
1070
     0
1002
}
1002
{
1000
BEHIND
1070
     0
1002
}
1002
{
1000
OTHER
1070
     0
1002
}
1002
{
1000
REACTOR
1002
}
1001
GENIUS_GENOBJ-N-FIL_13
1002
{
1000
OWNER
1000
GEN
1002
}
  0
LINE
  5
2C45
  8
AM_0
 10
275.88198228823597
 20
353.33257814655542
 30
0.0
 11
275.88198228823597
 21
330.84247814655561
 31
0.0
  0
LINE
  5
2C46
  8
AM_0
 10
270.88206228823623
 20
328.84246814655558
 30
0.0
 11
273.88206228823628
 21
328.84246814655558
 31
0.0
  0
ARC
  5
2C47
  8
AM_0
 10
270.88206228823623
 20
326.84245814655571
 30
0.0
 40
2.00000007
 50
90.000003000000007
 51
180.00001
  0
ARC
  5
2C48
  8
AM_0
 10
273.88206228823628
 20
330.84247814655561
 30
0.0
 40
2.00000007
 50
270.0
 51
0.0
  0
ARC
  5
2C49
  8
AM_0
 10
263.88198228823597
 20
341.8399381465556
 30
0.0
 40
5.0000001000000003
 50
310.0
 51
0.0
  0
LINE
  5
2C4A
  8
AM_0
 10
260.29032228823598
 20
332.2991281465554
 30
0.0
 11
267.09591228823609
 21
338.0097181465556
 31
0.0
  0
ARC
  5
2C4B
  8
AM_0
 10
277.88199228823618
 20
353.33257814655542
 30
0.0
 40
2.00000007
 50
91.999997999999948
 51
180.00001
  0
ARC
  5
2C4C
  8
AM_0
 10
272.88198228823609
 20
353.40544814655561
 30
0.0
 40
3.0
 50
272.0
 51
0.0
  0
LINE
  5
2C4D
  8
AM_0
 10
275.88198228823597
 20
353.33257814655542
 30
0.0
 11
275.88198228823597
 21
353.40544814655561
 31
0.0
  0
ARC
  5
2C4E
  8
AM_0
 10
271.88199228823612
 20
347.36686814655559
 30
0.0
 40
3.0
 50
91.999997999999948
 51
180.00001
  0
LINE
  5
2C4F
  8
AM_0
 10
271.77726228823622
 20
350.36503814655549
 30
0.0
 11
272.9866522882362
 21
350.40724814655562
 31
0.0
  0
LINE
  5
2C50
  8
AM_0
 10
277.81224228823601
 20
355.33132814655562
 30
0.0
 11
282.88200228823592
 21
355.50838814655572
 31
0.0
  0
LINE
  5
2C51
  8
AM_0
 10
358.88199228823612
 20
312.70837214655558
 30
0.0
 11
361.88199228823601
 21
312.70837214655558
 31
0.0
  0
LINE
  5
2C52
  8
AM_0
 10
358.88199228823612
 20
282.70837214655558
 30
0.0
 11
361.88199228823601
 21
282.70837214655558
 31
0.0
  0
ARC
  5
2C53
  8
AM_0
 10
335.88198228823597
 20
318.94168814655569
 30
0.0
 40
10.000000200000001
 50
90.000003000000007
 51
180.00001
  0
LINE
  5
2C54
  8
AM_0
 10
317.88198228823597
 20
315.00839114655571
 30
0.0
 11
317.88198228823597
 21
297.70837214655558
 31
0.0
  0
ARC
  5
2C55
  8
AM_0
 10
348.88203228823602
 20
342.33991814655542
 30
0.0
 40
5.0000001000000003
 50
179.99998999999991
 51
265.0
  0
LINE
  5
2C56
  8
AM_0
 10
335.88198228823597
 20
328.94164814655562
 30
0.0
 11
343.88199228823612
 21
328.94164814655562
 31
0.0
  0
LINE
  5
2C57
  8
AM_0
 10
356.85585228823618
 20
326.76142814655572
 30
0.0
 11
357.90819228823608
 21
326.73388814655561
 31
0.0
  0
ARC
  5
2C58
  8
AM_0
 10
356.88198228823597
 20
327.76108814655561
 30
0.0
 40
1.0000000199999981
 50
179.99998999999991
 51
268.50000999999992
  0
ARC
  5
2C59
  8
AM_0
 10
357.88203228823602
 20
325.73422814655561
 30
0.0
 40
1.0000000199999981
 50
0.0
 51
88.499996999999965
  0
LINE
  5
2C5A
  8
AM_0
 10
348.44619228823609
 20
337.35892814655529
 30
0.0
 11
353.14347228823618
 21
336.94795814655561
 31
0.0
  0
ARC
  5
2C5B
  8
AM_0
 10
352.88199228823618
 20
333.95938814655563
 30
0.0
 40
3.0
 50
0.0
 51
84.999996999999979
  0
ARC
  5
2C5C
  8
AM_0
 10
338.88198228823597
 20
349.04023814655562
 30
0.0
 40
5.0000001000000003
 50
0.0
 51
88.499996999999965
  0
LINE
  5
2C5D
  8
AM_0
 10
371.88198228823597
 20
314.70840314655561
 30
0.0
 11
403.88199228823601
 21
314.70840314655561
 31
0.0
  0
LINE
  5
2C5E
  8
AM_0
 10
361.88199228823601
 20
311.70840314655561
 30
0.0
 11
403.88199228823601
 21
311.70840314655561
 31
0.0
  0
LINE
  5
2C5F
  8
AM_0
 10
361.88199228823601
 20
283.70837114655558
 30
0.0
 11
403.88199228823601
 21
283.70837114655558
 31
0.0
  0
LINE
  5
2C60
  8
AM_0
 10
361.88199228823601
 20
312.70837214655558
 30
0.0
 11
361.88199228823601
 21
282.70837214655558
 31
0.0
  0
LINE
  5
2C61
  8
AM_0
 10
371.88198228823597
 20
314.70840314655561
 30
0.0
 11
371.88198228823597
 21
311.70840314655561
 31
0.0
  0
LINE
  5
2C62
  8
AM_0
 10
403.88199228823601
 20
314.70840314655561
 30
0.0
 11
403.88199228823601
 21
283.70837114655558
 31
0.0
  0
LINE
  5
2C63
  8
AM_0
 10
642.95473144323478
 20
211.7083831465556
 30
0.0
 11
642.95473144323478
 21
282.70837214655558
 31
0.0
  0
LINE
  5
2C64
  8
AM_0
 10
678.95473144323444
 20
206.70837014655561
 30
0.0
 11
669.34256344323467
 21
284.44799414655557
 31
0.0
  0
LINE
  5
2C65
  8
AM_0
 10
498.95471044323477
 20
206.7083851465556
 30
0.0
 11
508.56689044323508
 21
284.44799414655557
 31
0.0
  0
LINE
  5
2C66
  8
AM_0
 10
534.95474344323475
 20
211.7083831465556
 30
0.0
 11
534.95474344323475
 21
282.70837214655558
 31
0.0
  0
LINE
  5
2C67
  8
AM_0
 10
528.95474344323475
 20
245.5083721465555
 30
0.0
 11
528.95474344323475
 21
326.95834814655558
 31
0.0
  0
LINE
  5
2C68
  8
AM_0
 10
648.95473144323444
 20
245.5083721465555
 30
0.0
 11
648.95473144323444
 21
326.95834814655558
 31
0.0
  0
LINE
  5
2C69
  8
AM_0
 10
498.95471044323477
 20
206.70837014655561
 30
0.0
 11
506.74589044323471
 21
313.9180891465557
 31
0.0
  0
LINE
  5
2C6A
  8
AM_0
 10
678.95473144323444
 20
206.7083851465556
 30
0.0
 11
671.16359344323473
 21
313.9180891465557
 31
0.0
  0
ARC
  5
2C6B
  8
AM_0
 10
588.95472844323444
 20
282.70837214655558
 30
0.0
 40
54.000003000000007
 50
0.0
 51
180.00001
  0
CIRCLE
  5
2C6C
  8
AM_0
 10
588.95472844323444
 20
297.70837214655558
 30
0.0
 40
29.000001000000001
  0
LINE
  5
2C6D
  8
ﾁｭｳｼﾝｾﾝ1
 10
588.95472844323444
 20
188.1736381465555
 30
0.0
 11
588.95472844323444
 21
360.0688992709276
 31
0.0
  0
LINE
  5
2C6E
  8
AM_0
 10
551.95471444323482
 20
204.7083841465556
 30
0.0
 11
625.95473044323489
 21
204.7083841465556
 31
0.0
  0
LINE
  5
2C6F
  8
AM_0
 10
641.95473244323489
 20
193.7083681465555
 30
0.0
 11
535.95474244323475
 21
193.7083681465555
 31
0.0
  0
LINE
  5
2C70
  8
ﾁｭｳｼﾝｾﾝ1
 10
502.59800044323481
 20
274.5083881465556
 30
0.0
 11
676.46478844323474
 21
274.5083881465556
 31
0.0
  0
LINE
  5
2C71
  8
ﾁｭｳｼﾝｾﾝ1
 10
513.95474044323475
 20
186.70836914655541
 30
0.0
 11
513.95474044323475
 21
211.7083831465556
 31
0.0
  0
ARC
  5
2C72
  8
AM_0
 10
588.95472844323444
 20
245.5083721465555
 30
0.0
 40
60.000002999999992
 50
180.00001
 51
205.84192999999991
  0
LINE
  5
2C73
  8
AM_0
 10
531.95474344323475
 20
206.70837014655561
 30
0.0
 11
500.95472044323458
 21
206.70837014655561
 31
0.0
  0
LINE
  5
2C74
  8
AM_0
 10
533.95471144323483
 20
191.70838514655549
 30
0.0
 11
498.95474044323481
 21
191.70838514655549
 31
0.0
  0
LINE
  5
2C75
  8
AM_0
 10
498.95474044323481
 20
191.70838514655549
 30
0.0
 11
498.95474044323481
 21
206.70837014655561
 31
0.0
  0
LINE
  5
2C76
  8
ｶｸﾚｾﾝ2
 10
507.95474044323458
 20
206.70837014655561
 30
0.0
 11
507.95474044323458
 21
191.70838514655549
 31
0.0
  0
ARC
  5
2C77
  8
AM_0
 10
500.95472044323458
 20
204.7083841465556
 30
0.0
 40
2.00000007
 50
90.000003000000007
 51
180.00001
  0
LINE
  5
2C78
  8
ｶｸﾚｾﾝ2
 10
519.95474044323475
 20
206.70837014655561
 30
0.0
 11
519.95474044323475
 21
191.70838514655549
 31
0.0
  0
ARC
  5
2C79
  8
AM_0
 10
541.95474244323475
 20
198.7083841465556
 30
0.0
 40
5.0000001000000003
 50
270.0
 51
0.0
  0
LINE
  5
2C7A
  8
AM_0
 10
533.95471144323483
 20
191.70838514655549
 30
0.0
 11
533.95471144323483
 21
204.7083841465556
 31
0.0
  0
ARC
  5
2C7B
  8
AM_0
 10
535.95474244323475
 20
191.70838514655549
 30
0.0
 40
2.00000007
 50
90.000003000000007
 51
180.00001
  0
ARC
  5
2C7C
  8
AM_0
 10
529.95474244323475
 20
211.7083831465556
 30
0.0
 40
5.0000001000000003
 50
270.0
 51
0.0
  0
ARC
  5
2C7D
  8
AM_0
 10
531.95474344323475
 20
204.7083841465556
 30
0.0
 40
2.00000007
 50
0.0
 51
90.000003000000007
  0
ARC
  5
2C7E
  8
AM_0
 10
551.95471444323482
 20
199.7083831465556
 30
0.0
 40
5.0000001000000003
 50
90.000003000000007
 51
180.00001
  0
LINE
  5
2C7F
  8
AM_0
 10
546.95474344323475
 20
198.7083841465556
 30
0.0
 11
546.95474344323475
 21
199.7083831465556
 31
0.0
  0
LINE
  5
2C80
  8
ﾁｭｳｼﾝｾﾝ1
 10
663.95471644323482
 20
186.70836914655541
 30
0.0
 11
663.95471644323482
 21
211.7083831465556
 31
0.0
  0
ARC
  5
2C81
  8
AM_0
 10
625.95473044323489
 20
199.7083831465556
 30
0.0
 40
5.0000001000000003
 50
0.0
 51
90.000003000000007
  0
ARC
  5
2C82
  8
AM_0
 10
588.95472844323444
 20
274.50835814655562
 30
0.0
 40
81.000003000000007
 50
265.97275000000002
 51
274.02724999999992
  0
ARC
  5
2C83
  8
AM_0
 10
588.95472844323444
 20
245.5083721465555
 30
0.0
 40
60.000002999999992
 50
334.15807000000001
 51
0.0
  0
LINE
  5
2C84
  8
AM_0
 10
645.95473144323478
 20
206.70837014655561
 30
0.0
 11
676.954733443235
 21
206.70837014655561
 31
0.0
  0
LINE
  5
2C85
  8
AM_0
 10
643.95473044323467
 20
191.70838514655549
 30
0.0
 11
678.95473144323444
 21
191.70838514655549
 31
0.0
  0
ARC
  5
2C86
  8
AM_0
 10
647.95473244323455
 20
211.7083831465556
 30
0.0
 40
5.0000001000000003
 50
179.99998999999991
 51
270.0
  0
ARC
  5
2C87
  8
AM_0
 10
641.95473244323489
 20
191.70838514655549
 30
0.0
 40
2.00000007
 50
0.0
 51
90.000003000000007
  0
ARC
  5
2C88
  8
AM_0
 10
635.95473244323455
 20
198.7083841465556
 30
0.0
 40
5.0000001000000003
 50
179.99998999999991
 51
270.0
  0
LINE
  5
2C89
  8
AM_0
 10
630.95473144323466
 20
198.7083841465556
 30
0.0
 11
630.95473144323466
 21
199.7083831465556
 31
0.0
  0
LINE
  5
2C8A
  8
AM_0
 10
643.95473044323467
 20
191.70838514655549
 30
0.0
 11
643.95473044323467
 21
204.7083841465556
 31
0.0
  0
LINE
  5
2C8B
  8
ｶｸﾚｾﾝ2
 10
657.95473144323444
 20
206.70837014655561
 30
0.0
 11
657.95473144323444
 21
191.70838514655549
 31
0.0
  0
ARC
  5
2C8C
  8
AM_0
 10
645.95473144323478
 20
204.7083841465556
 30
0.0
 40
2.00000007
 50
90.000003000000007
 51
180.00001
  0
LINE
  5
2C8D
  8
ｶｸﾚｾﾝ2
 10
669.95473144323444
 20
206.70837014655561
 30
0.0
 11
669.95473144323444
 21
191.70838514655549
 31
0.0
  0
LINE
  5
2C8E
  8
AM_0
 10
678.95473144323444
 20
191.70838514655549
 30
0.0
 11
678.95473144323444
 21
206.70837014655561
 31
0.0
  0
ARC
  5
2C8F
  8
AM_0
 10
676.954733443235
 20
204.7083841465556
 30
0.0
 40
2.00000007
 50
0.0
 51
90.000003000000007
  0
LINE
  5
2C90
  8
ﾁｭｳｼﾝｾﾝ1
 10
546.95474254323483
 20
297.70837214655529
 30
0.0
 11
630.95473144323466
 21
297.70837214655558
 31
0.0
  0
ARC
  5
2C91
  8
AM_0
 10
588.95472844323444
 20
274.5083881465556
 30
0.0
 40
81.000003000000007
 50
7.0485985999999992
 51
172.95139999999981
  0
ARC
  5
2C92
  8
AM_0
 10
522.70379044323465
 20
312.75839114655571
 30
0.0
 40
16.000000499999999
 50
118.1761399999998
 51
175.8435099999999
  0
LINE
  5
2C93
  8
AM_0
 10
515.14883044323506
 20
326.86240814655559
 30
0.0
 11
550.70785744323484
 21
345.9098881465556
 31
0.0
  0
ARC
  5
2C94
  8
AM_0
 10
533.95471144323483
 20
326.95834814655558
 30
0.0
 40
5.0000001000000003
 50
136.35948999999999
 51
180.00001
  0
ARC
  5
2C95
  8
AM_0
 10
588.95472844323444
 20
297.70837214655558
 30
0.0
 40
14.000001299999999
 50
106.6015399999999
 51
73.398452000000006
  0
CIRCLE
  5
2C96
  8
AM_0
 10
588.95472844323444
 20
297.70837214655558
 30
0.0
 40
3.0
  0
CIRCLE
  5
2C97
  8
AM_5
 10
588.95472844323444
 20
297.70837214655558
 30
0.0
 40
4.000000199999997
  0
LINE
  5
2C98
  8
AM_0
 10
592.95471544323482
 20
307.70837114655558
 30
0.0
 11
592.95471544323482
 21
314.70840314655561
 31
0.0
  0
LINE
  5
2C99
  8
AM_0
 10
584.95471444323482
 20
307.70837114655558
 30
0.0
 11
584.95471444323482
 21
314.70840314655561
 31
0.0
  0
LINE
  5
2C9A
  8
AM_0
 10
584.95471444323482
 20
307.70837114655558
 30
0.0
 11
592.95471544323482
 21
307.70837114655558
 31
0.0
  0
LINE
  5
2C9B
  8
AM_0
 10
584.95471444323482
 20
314.70840314655561
 30
0.0
 11
592.95471544323482
 21
314.70840314655561
 31
0.0
  0
ARC
  5
2C9C
  8
AM_0
 10
655.20567844323443
 20
312.75839114655571
 30
0.0
 40
16.000000499999999
 50
4.1564915999999981
 51
61.823859999999989
  0
LINE
  5
2C9D
  8
AM_0
 10
662.76060844323501
 20
326.86240814655559
 30
0.0
 11
627.20160244323483
 21
345.90991814655558
 31
0.0
  0
ARC
  5
2C9E
  8
AM_0
 10
643.95473044323467
 20
326.95834814655558
 30
0.0
 40
5.0000001000000003
 50
0.0
 51
43.64050000000001
  0
LINE
  5
2C9F
  8
AM_0
 10
239.38206228823611
 20
306.44582714655559
 30
0.0
 11
229.38206228823611
 21
306.44582714655559
 31
0.0
  0
LINE
  5
2CA0
  8
AM_0
 10
239.38206228823611
 20
320.50839314655559
 30
0.0
 11
229.38206228823611
 21
320.50839314655559
 31
0.0
  0
LINE
  5
2CA1
  8
AM_0
 10
239.38206228823611
 20
228.50838614655549
 30
0.0
 11
229.38206228823631
 21
228.50838614655549
 31
0.0
  0
LINE
  5
2CA2
  8
AM_0
 10
239.38206228823611
 20
242.57094914655559
 30
0.0
 11
229.38206228823611
 21
242.57094914655559
 31
0.0
  0
LINE
  5
2CA3
  8
ﾁｭｳｼﾝｾﾝ1
 10
149.19193512123121
 20
517.95274632626786
 30
0.0
 11
408.58902228823598
 21
517.95274632626786
 31
0.0
  0
ARC
  5
2CA4
  8
AM_0
 10
371.88199228823612
 20
517.95271632626782
 30
0.0
 40
3.9999962
 50
90.000003000000945
 51
270.0
  0
LINE
  5
2CA5
  8
AM_0
 10
239.3820222882361
 20
461.45274632626757
 30
0.0
 11
239.3820222882361
 21
574.45274632626763
 31
0.0
  0
LINE
  5
2CA6
  8
AM_0
 10
275.88199228823612
 20
446.86256632626771
 30
0.0
 11
275.88199228823612
 21
589.04292632626789
 31
0.0
  0
LINE
  5
2CA7
  8
AM_0
 10
268.88202228823621
 20
439.08775632626771
 30
0.0
 11
268.88202228823621
 21
596.81773632626789
 31
0.0
  0
LINE
  5
2CA8
  8
AM_0
 10
343.88202228823621
 20
462.78120632626792
 30
0.0
 11
343.88202228823621
 21
573.12428632626791
 31
0.0
  0
LINE
  5
2CA9
  8
AM_0
 10
358.88202228823621
 20
545.97859632626785
 30
0.0
 11
358.88202228823621
 21
489.92689632626758
 31
0.0
  0
LINE
  5
2CAA
  8
AM_0
 10
355.88202228823621
 20
463.82572632626773
 30
0.0
 11
355.88202228823621
 21
572.0797563262679
 31
0.0
  0
LINE
  5
2CAB
  8
AM_0
 10
282.88202228823621
 20
435.70179632626758
 30
0.0
 11
282.88202228823621
 21
600.20369632626785
 31
0.0
  0
LINE
  5
2CAC
  8
AM_0
 10
371.88199228823612
 20
521.95271632626782
 30
0.0
 11
371.88199228823612
 21
513.95274632626786
 31
0.0
  0
LINE
  5
2CAD
  8
AM_0
 10
361.88202228823621
 20
532.95274632626786
 30
0.0
 11
361.88202228823621
 21
502.95274632626757
 31
0.0
  0
LINE
  5
2CAE
  8
AM_0
 10
403.88199228823601
 20
531.95277632626755
 30
0.0
 11
403.88199228823601
 21
503.95277632626789
 31
0.0
  0
LINE
  5
2CAF
  8
AM_0
 10
258.97147228823621
 20
486.01576632626762
 30
0.0
 11
258.97147228823621
 21
549.88975632626773
 31
0.0
  0
POLYLINE
  5
2CB0
  8
AM_0
 66
     1
 10
0.0
 20
0.0
 30
0.0
  0
VERTEX
  5
2CB1
  8
AM_0
 10
282.88202228823621
 20
479.67765632626759
 30
0.0
 42
-0.059991193
  0
VERTEX
  5
2CB2
  8
AM_0
 10
308.47083228823612
 20
463.74544632626771
 30
0.0
 42
-0.30883796
  0
VERTEX
  5
2CB3
  8
AM_0
 10
317.88199228823612
 20
447.80470632626759
 30
0.0
 42
-0.25905842
  0
VERTEX
  5
2CB4
  8
AM_0
 10
283.43232228823621
 20
428.01664632626779
 30
0.0
  0
SEQEND
  5
2CB5
  8
AM_0
  0
LINE
  5
2CB6
  8
AM_0
 10
285.88202228823621
 20
427.95274632626757
 30
0.0
 11
355.96054228823618
 21
429.78782632626792
 31
0.0
  0
ARC
  5
2CB7
  8
AM_0
 10
271.88202228823621
 20
439.08775632626771
 30
0.0
 40
3.0
 50
180.00001000000091
 51
267.9999999999996
  0
ARC
  5
2CB8
  8
AM_0
 10
263.88202228823621
 20
442.95274632626791
 30
0.0
 40
6.0
 50
33.557261999999668
 51
326.44274000000001
  0
LINE
  5
2CB9
  8
AM_0
 10
248.8820222882361
 20
431.84407632626773
 30
0.0
 11
248.8820222882361
 21
450.73664632626787
 31
0.0
  0
LINE
  5
2CBA
  8
AM_0
 10
251.8035022882361
 20
428.84510632626768
 30
0.0
 11
285.88202228823621
 21
427.95274632626757
 31
0.0
  0
ARC
  5
2CBB
  8
AM_0
 10
251.8820222882361
 20
431.84407632626773
 30
0.0
 40
3.0
 50
180.00001000000091
 51
268.5000000000004
  0
LINE
  5
2CBC
  8
AM_0
 10
282.88202228823621
 20
437.8453863262676
 30
0.0
 11
269.15137228823608
 21
437.8453863262676
 31
0.0
  0
LINE
  5
2CBD
  8
AM_0
 10
282.88202228823621
 20
435.70179632626758
 30
0.0
 11
271.7773122882362
 21
436.08958632626758
 31
0.0
  0
ARC
  5
2CBE
  8
AM_0
 10
280.88202228823621
 20
429.08540632626779
 30
0.0
 40
1.0
 50
270.0
 51
0.0
  0
ARC
  5
2CBF
  8
AM_0
 10
280.88202228823621
 20
433.08540632626779
 30
0.0
 40
5.0
 50
268.5000000000004
 51
0.0000006832462478
  0
LINE
  5
2CC0
  8
AM_0
 10
282.88202228823621
 20
435.70179632626758
 30
0.0
 11
285.88202228823621
 21
435.70179632626758
 31
0.0
  0
ARC
  5
2CC1
  8
AM_0
 10
282.88202228823621
 20
432.42854632626762
 30
0.0
 40
1.0
 50
109.47121999999951
 51
180.00001000000091
  0
ARC
  5
2CC2
  8
AM_0
 10
280.88202228823621
 20
438.08540632626779
 30
0.0
 40
5.0
 50
289.4712300000017
 51
331.5287600000002
  0
LINE
  5
2CC3
  8
AM_0
 10
281.88202228823621
 20
429.08540632626779
 30
0.0
 11
281.88202228823621
 21
432.42854632626762
 31
0.0
  0
LINE
  5
2CC4
  8
AM_0
 10
285.88202228823621
 20
433.08540632626779
 30
0.0
 11
285.88202228823621
 21
435.70179632626758
 31
0.0
  0
ARC
  5
2CC5
  8
AM_0
 10
263.88199228823612
 20
450.62120632626778
 30
0.0
 40
5.0
 50
0.0
 51
49.999999999999922
  0
ARC
  5
2CC6
  8
AM_0
 10
265.02582228823621
 20
473.95271632626759
 30
0.0
 40
2.0
 50
269.999989999999
 51
35.173260999998369
  0
LINE
  5
2CC7
  8
AM_0
 10
258.97147228823621
 20
486.0157063262676
 30
0.0
 11
266.66065228823601
 21
475.1047863262678
 31
0.0
  0
LINE
  5
2CC8
  8
AM_0
 10
257.25089228823612
 20
461.32875632626769
 30
0.0
 11
239.3820222882361
 21
461.95274632626757
 31
0.0
  0
LINE
  5
2CC9
  8
AM_0
 10
239.3820222882361
 20
471.9527463262678
 30
0.0
 11
265.02582228823621
 21
471.9527463262678
 31
0.0
  0
LINE
  5
2CCA
  8
AM_0
 10
260.29031228823618
 20
460.16203632626792
 30
0.0
 11
267.0959822882362
 21
454.45140632626789
 31
0.0
  0
LINE
  5
2CCB
  8
AM_0
 10
251.10556228823609
 20
453.63441632626763
 30
0.0
 11
263.96365228823601
 21
457.0797263262678
 31
0.0
  0
ARC
  5
2CCC
  8
AM_0
 10
251.8820222882361
 20
450.73664632626787
 30
0.0
 40
3.0
 50
105.00000000000161
 51
180.00001000000091
  0
LINE
  5
2CCD
  8
AM_0
 10
258.97147228823621
 20
460.95875632626758
 30
0.0
 11
258.97147228823621
 21
471.9527463262678
 31
0.0
  0
ARC
  5
2CCE
  8
AM_0
 10
257.07639228823609
 20
456.33180632626772
 30
0.0
 40
5.0
 50
49.99999699999762
 51
87.999999999999659
  0
LINE
  5
2CCF
  8
AM_0
 10
239.3820222882361
 20
486.01576632626762
 30
0.0
 11
258.97147228823621
 21
486.01576632626762
 31
0.0
  0
POLYLINE
  5
2CD0
  8
AM_0
 66
     1
 10
0.0
 20
0.0
 30
0.0
  0
VERTEX
  5
2CD1
  8
AM_0
 10
284.14556228823619
 20
438.02376632626761
 30
0.0
 42
0.021277534
  0
VERTEX
  5
2CD2
  8
AM_0
 10
294.97570228823599
 20
440.0802863262677
 30
0.0
 42
0.020622971
  0
VERTEX
  5
2CD3
  8
AM_0
 10
305.10046228823597
 20
442.89732632626789
 30
0.0
 42
0.022709
  0
VERTEX
  5
2CD4
  8
AM_0
 10
315.90738228823619
 20
446.94288632626768
 30
0.0
  0
SEQEND
  5
2CD5
  8
AM_0
  0
LINE
  5
2CD6
  8
AM_0
 10
268.88202228823621
 20
458.64424632626771
 30
0.0
 11
275.88199228823612
 21
458.64424632626771
 31
0.0
  0
LINE
  5
2CD7
  8
AM_0
 10
282.88202228823621
 20
479.67765632626759
 30
0.0
 11
275.88199228823612
 21
479.67765632626759
 31
0.0
  0
CIRCLE
  5
2CD8
  8
AM_0
 10
343.88202228823621
 20
442.95274632626791
 30
0.0
 40
6.0
  0
LINE
  5
2CD9
  8
AM_0
 10
325.88202228823621
 20
434.13282632626789
 30
0.0
 11
325.88202228823621
 21
449.59864632626778
 31
0.0
  0
LINE
  5
2CDA
  8
AM_0
 10
358.88202228823621
 20
432.78678632626759
 30
0.0
 11
358.88202228823621
 21
459.95274632626791
 31
0.0
  0
ARC
  5
2CDB
  8
AM_0
 10
330.88202228823621
 20
434.13282632626789
 30
0.0
 40
5.0
 50
180.00001000000091
 51
271.49999999999932
  0
ARC
  5
2CDC
  8
AM_0
 10
355.88202228823621
 20
432.78678632626759
 30
0.0
 40
3.0
 50
271.49999999999932
 51
0.0
  0
LINE
  5
2CDD
  8
AM_0
 10
361.88202228823621
 20
503.95277632626789
 30
0.0
 11
403.88199228823601
 21
503.95277632626789
 31
0.0
  0
ARC
  5
2CDE
  8
AM_0
 10
338.88202228823621
 20
462.78120632626792
 30
0.0
 40
5.0
 50
272.0000000000004
 51
0.0
  0
ARC
  5
2CDF
  8
AM_0
 10
333.88202228823621
 20
449.59864632626778
 30
0.0
 40
8.0
 50
91.999998000000545
 51
180.00001000000091
  0
LINE
  5
2CE0
  8
AM_0
 10
339.05652228823612
 20
457.78422632626763
 30
0.0
 11
333.60281228823601
 21
457.59379632626792
 31
0.0
  0
ARC
  5
2CE1
  8
AM_0
 10
352.8820222882361
 20
466.70173632626791
 30
0.0
 40
3.0
 50
274.99999999999972
 51
0.0
  0
ARC
  5
2CE2
  8
AM_0
 10
347.78384228823609
 20
458.2251463262678
 30
0.0
 40
5.0
 50
95.00000199999856
 51
152.89618999999891
  0
LINE
  5
2CE3
  8
AM_0
 10
353.14346228823609
 20
463.71315632626772
 30
0.0
 11
347.34805228823609
 21
463.20613632626771
 31
0.0
  0
ARC
  5
2CE4
  8
AM_0
 10
356.88202228823621
 20
463.82572632626773
 30
0.0
 40
1.0
 50
180.00001000000091
 51
255.5224900000002
  0
ARC
  5
2CE5
  8
AM_0
 10
355.88202228823621
 20
459.95274632626791
 30
0.0
 40
3.0
 50
0.0
 51
75.522487999998262
  0
ARC
  5
2CE6
  8
AM_0
 10
357.88202228823621
 20
489.92689632626758
 30
0.0
 40
1.0
 50
271.49999999999932
 51
0.0
  0
ARC
  5
2CE7
  8
AM_0
 10
356.88202228823621
 20
487.90004632626773
 30
0.0
 40
1.0
 50
91.500001000001546
 51
180.00001000000091
  0
LINE
  5
2CE8
  8
AM_0
 10
356.85584228823609
 20
488.89970632626762
 30
0.0
 11
357.908202288236
 21
488.92726632626773
 31
0.0
  0
LINE
  5
2CE9
  8
AM_0
 10
358.88202228823621
 20
502.95274632626757
 30
0.0
 11
361.88202228823621
 21
502.95274632626757
 31
0.0
  0
LINE
  5
2CEA
  8
AM_0
 10
371.88199228823612
 20
513.95274632626786
 30
0.0
 11
403.88199228823601
 21
513.95274632626786
 31
0.0
  0
POLYLINE
  5
2CEB
  8
AM_0
 66
     1
 10
0.0
 20
0.0
 30
0.0
  0
VERTEX
  5
2CEC
  8
AM_0
 10
282.88202228823621
 20
556.22782632626775
 30
0.0
 42
0.059991175
  0
VERTEX
  5
2CED
  8
AM_0
 10
308.47083228823612
 20
572.1600363262678
 30
0.0
 42
0.30883786
  0
VERTEX
  5
2CEE
  8
AM_0
 10
317.88199228823612
 20
588.10078632626789
 30
0.0
 42
0.25905849
  0
VERTEX
  5
2CEF
  8
AM_0
 10
283.43234228823621
 20
607.88883632626755
 30
0.0
  0
SEQEND
  5
2CF0
  8
AM_0
  0
LINE
  5
2CF1
  8
AM_0
 10
285.88202228823621
 20
607.95274632626786
 30
0.0
 11
355.96054228823618
 21
606.11766632626791
 31
0.0
  0
POLYLINE
  5
2CF2
  8
AM_0
 66
     1
 10
0.0
 20
0.0
 30
0.0
  0
VERTEX
  5
2CF3
  8
AM_0
 10
284.14556228823619
 20
597.88172632626765
 30
0.0
 42
-0.021277534
  0
VERTEX
  5
2CF4
  8
AM_0
 10
294.97570228823599
 20
595.8252063262679
 30
0.0
 42
-0.020622971
  0
VERTEX
  5
2CF5
  8
AM_0
 10
305.10046228823597
 20
593.00816632626777
 30
0.0
 42
-0.022709
  0
VERTEX
  5
2CF6
  8
AM_0
 10
315.90738228823619
 20
588.96260632626775
 30
0.0
  0
SEQEND
  5
2CF7
  8
AM_0
  0
ARC
  5
2CF8
  8
AM_0
 10
263.88202228823621
 20
592.95274632626786
 30
0.0
 40
6.0
 50
33.557261999999668
 51
326.44274000000001
  0
LINE
  5
2CF9
  8
AM_0
 10
248.8820222882361
 20
604.06138632626755
 30
0.0
 11
248.8820222882361
 21
585.16883632626775
 31
0.0
  0
ARC
  5
2CFA
  8
AM_0
 10
263.88199228823612
 20
585.28428632626776
 30
0.0
 40
5.0
 50
310.0
 51
0.0
  0
ARC
  5
2CFB
  8
AM_0
 10
265.02582228823621
 20
561.95274632626786
 30
0.0
 40
2.0
 50
324.82673000000062
 51
90.000003000000945
  0
LINE
  5
2CFC
  8
AM_0
 10
266.66065228823601
 20
560.80064632626772
 30
0.0
 11
258.97150228823608
 21
549.88975632626773
 31
0.0
  0
LINE
  5
2CFD
  8
AM_0
 10
239.3820222882361
 20
549.88975632626773
 30
0.0
 11
258.97147228823621
 21
549.88975632626773
 31
0.0
  0
LINE
  5
2CFE
  8
AM_0
 10
257.25086228823608
 20
574.57673632626791
 30
0.0
 11
239.3820222882361
 21
573.95274632626786
 31
0.0
  0
LINE
  5
2CFF
  8
AM_0
 10
239.3820222882361
 20
563.95274632626786
 30
0.0
 11
265.02582228823621
 21
563.95274632626786
 31
0.0
  0
LINE
  5
2D00
  8
AM_0
 10
260.29035228823602
 20
575.74345632626785
 30
0.0
 11
267.09595228823622
 21
581.45402632626781
 31
0.0
  0
LINE
  5
2D01
  8
AM_0
 10
258.97147228823621
 20
563.95274632626786
 30
0.0
 11
258.97147228823621
 21
574.94673632626757
 31
0.0
  0
ARC
  5
2D02
  8
AM_0
 10
257.07636228823623
 20
579.57368632626776
 30
0.0
 40
5.0
 50
272.0000000000004
 51
310.0
  0
LINE
  5
2D03
  8
AM_0
 10
251.10559228823621
 20
582.27107632626758
 30
0.0
 11
263.96365228823601
 21
578.82576632626785
 31
0.0
  0
ARC
  5
2D04
  8
AM_0
 10
251.8820222882361
 20
585.16883632626775
 30
0.0
 40
3.0
 50
180.00001000000091
 51
254.99999000000091
  0
LINE
  5
2D05
  8
AM_0
 10
282.88202228823621
 20
556.22782632626775
 30
0.0
 11
275.88199228823612
 21
556.22782632626775
 31
0.0
  0
LINE
  5
2D06
  8
AM_0
 10
268.88202228823621
 20
577.26124632626784
 30
0.0
 11
275.88199228823612
 21
577.26124632626784
 31
0.0
  0
LINE
  5
2D07
  8
AM_0
 10
251.8035022882361
 20
607.06034632626779
 30
0.0
 11
285.88202228823621
 21
607.95271632626782
 31
0.0
  0
ARC
  5
2D08
  8
AM_0
 10
251.8820222882361
 20
604.06138632626755
 30
0.0
 40
3.0
 50
91.500001000001546
 51
180.00001000000091
  0
LINE
  5
2D09
  8
AM_0
 10
282.88202228823621
 20
598.06010632626817
 30
0.0
 11
269.15137228823608
 21
598.06010632626817
 31
0.0
  0
LINE
  5
2D0A
  8
AM_0
 10
282.88199228823601
 20
600.20369632626785
 30
0.0
 11
271.7773122882362
 21
599.81590632626785
 31
0.0
  0
ARC
  5
2D0B
  8
AM_0
 10
271.88202228823621
 20
596.81773632626789
 30
0.0
 40
3.0
 50
91.999998000000545
 51
180.00001000000091
  0
ARC
  5
2D0C
  8
AM_0
 10
280.88202228823621
 20
602.82008632626787
 30
0.0
 40
5.0
 50
0.0
 51
91.500001000001546
  0
LINE
  5
2D0D
  8
AM_0
 10
281.88202228823621
 20
606.82008632626787
 30
0.0
 11
281.88202228823621
 21
603.47694632626758
 31
0.0
  0
LINE
  5
2D0E
  8
AM_0
 10
282.88202228823621
 20
600.20369632626785
 30
0.0
 11
285.88202228823621
 21
600.20369632626785
 31
0.0
  0
ARC
  5
2D0F
  8
AM_0
 10
282.88202228823621
 20
603.47694632626758
 30
0.0
 40
1.0
 50
180.00001000000091
 51
250.52876999999819
  0
ARC
  5
2D10
  8
AM_0
 10
280.88202228823621
 20
597.82008632626776
 30
0.0
 40
5.0
 50
28.471238999999571
 51
70.528778999998195
  0
LINE
  5
2D11
  8
AM_0
 10
285.88202228823621
 20
602.82008632626787
 30
0.0
 11
285.88202228823621
 21
600.20369632626785
 31
0.0
  0
ARC
  5
2D12
  8
AM_0
 10
280.88202228823621
 20
606.82008632626787
 30
0.0
 40
1.0
 50
0.0
 51
90.000003000000945
  0
CIRCLE
  5
2D13
  8
AM_0
 10
343.88202228823621
 20
592.95274632626786
 30
0.0
 40
6.0
  0
LINE
  5
2D14
  8
AM_0
 10
325.88202228823621
 20
586.30683632626756
 30
0.0
 11
325.88202228823621
 21
601.77265632626768
 31
0.0
  0
LINE
  5
2D15
  8
ﾁｭｳｼﾝｾﾝ1
 10
343.88202228823621
 20
603.95274632626786
 30
0.0
 11
343.88202228823621
 21
581.95274632626786
 31
0.0
  0
LINE
  5
2D16
  8
AM_0
 10
358.88202228823621
 20
603.11869632626781
 30
0.0
 11
358.88202228823621
 21
575.95274632626786
 31
0.0
  0
LINE
  5
2D17
  8
AM_0
 10
361.88202228823621
 20
531.95277632626755
 30
0.0
 11
403.88199228823601
 21
531.95277632626755
 31
0.0
  0
LINE
  5
2D18
  8
AM_0
 10
358.88202228823621
 20
532.95274632626786
 30
0.0
 11
361.88202228823621
 21
532.95274632626786
 31
0.0
  0
ARC
  5
2D19
  8
AM_0
 10
357.88202228823621
 20
545.97859632626785
 30
0.0
 40
1.0
 50
0.0
 51
88.499997000000747
  0
ARC
  5
2D1A
  8
AM_0
 10
356.88202228823621
 20
548.00544632626793
 30
0.0
 40
1.0
 50
180.00001000000091
 51
268.5000000000004
  0
LINE
  5
2D1B
  8
AM_0
 10
356.85587228823618
 20
547.00581632626768
 30
0.0
 11
357.908202288236
 21
546.97825632626791
 31
0.0
  0
ARC
  5
2D1C
  8
AM_0
 10
338.88202228823621
 20
573.12428632626791
 30
0.0
 40
5.0
 50
0.0
 51
87.999999999999659
  0
LINE
  5
2D1D
  8
ﾁｭｳｼﾝｾﾝ1
 10
332.88202228823621
 20
592.95274632626786
 30
0.0
 11
354.8820222882361
 21
592.95274632626786
 31
0.0
  0
ARC
  5
2D1E
  8
AM_0
 10
333.88202228823621
 20
586.30683632626756
 30
0.0
 40
8.0
 50
180.00001000000091
 51
267.9999999999996
  0
LINE
  5
2D1F
  8
AM_0
 10
339.05649228823597
 20
578.12126632626746
 30
0.0
 11
333.60281228823601
 21
578.31169632626779
 31
0.0
  0
ARC
  5
2D20
  8
AM_0
 10
352.8820222882361
 20
569.20375632626781
 30
0.0
 40
3.0
 50
0.0
 51
85.000004000001198
  0
ARC
  5
2D21
  8
AM_0
 10
347.78384228823609
 20
577.68034632626791
 30
0.0
 40
5.0
 50
207.10381000000081
 51
265.00001000000071
  0
LINE
  5
2D22
  8
AM_0
 10
353.14349228823608
 20
572.19233632626776
 30
0.0
 11
347.34805228823609
 21
572.69938632626781
 31
0.0
  0
ARC
  5
2D23
  8
AM_0
 10
356.88202228823621
 20
572.0797563262679
 30
0.0
 40
1.0
 50
104.4775099999998
 51
180.00001000000091
  0
ARC
  5
2D24
  8
AM_0
 10
355.88202228823621
 20
575.95274632626786
 30
0.0
 40
3.0
 50
284.47750999999971
 51
0.0
  0
LINE
  5
2D25
  8
AM_0
 10
371.88199228823612
 20
521.95271632626782
 30
0.0
 11
403.88199228823601
 21
521.95271632626782
 31
0.0
  0
ARC
  5
2D26
  8
AM_0
 10
330.88202228823621
 20
601.77265632626768
 30
0.0
 40
5.0
 50
88.499997000000747
 51
180.00001000000091
  0
ARC
  5
2D27
  8
AM_0
 10
355.88202228823621
 20
603.11869632626781
 30
0.0
 40
3.0
 50
0.0
 51
88.499997000000747
  0
LINE
  5
2D28
  8
AM_0
 10
227.9175561941689
 20
469.41721242033481
 30
0.0
 11
207.3109544763704
 21
490.0238141381331
 31
0.0
  0
LINE
  5
2D29
  8
AM_0
 10
229.38202228823599
 20
573.19136768030228
 30
0.0
 11
229.38202228823701
 21
462.71412497223281
 31
0.0
  0
ARC
  5
2D2A
  8
AM_0
 10
224.38202228823599
 20
465.88167851440232
 30
0.0
 40
5.0
 50
0.0
 51
45.0
1001
GENIUS_GENODEF_13
1002
{
1000
HIER
1070
     0
1002
}
1002
{
1000
MANEDIT
1070
     0
1002
}
1002
{
1000
NOSEL
1070
     0
1002
}
1002
{
1000
BEHIND
1070
     0
1002
}
1002
{
1000
OTHER
1070
     0
1002
}
1002
{
1000
REACTOR
1002
}
1001
GENIUS_GENOBJ-N-FIL_13
1002
{
1000
OWNER
1000
GEN
1002
}
  0
ARC
  5
2D2B
  8
AM_0
 10
230.38202228823599
 20
462.71412497223281
 30
0.0
 40
1.0
 50
180.0
 51
268.33915276702578
1001
GENIUS_GENOBJ-N-FIL_13
1002
{
1000
OWNER
1000
GEN
1002
}
1001
GENIUS_GENODEF_13
1002
{
1000
HIER
1070
     0
1002
}
1002
{
1000
MANEDIT
1070
     0
1002
}
1002
{
1000
NOSEL
1070
     0
1002
}
1002
{
1000
BEHIND
1070
     0
1002
}
1002
{
1000
OTHER
1070
     0
1002
}
1002
{
1000
REACTOR
1002
}
  0
LINE
  5
2D2C
  8
AM_0
 10
230.35303909495289
 20
461.71454507322159
 30
0.0
 11
239.38202228823599
 21
461.45274632626757
 31
0.0
  0
LINE
  5
2D2D
  8
AM_0
 10
239.38202228823599
 20
486.01530732626782
 30
0.0
 11
229.3820222882361
 21
486.01530732626782
 31
0.0
  0
LINE
  5
2D2E
  8
AM_0
 10
239.3820222882361
 20
471.95274432626758
 30
0.0
 11
229.3820222882361
 21
471.95274432626758
 31
0.0
  0
LINE
  5
2D2F
  8
AM_0
 10
179.88202228823599
 20
510.45273869687298
 30
0.0
 11
181.88202228823599
 21
510.45273869687298
 31
0.0
  0
LINE
  5
2D30
  8
AM_0
 10
179.88202228823599
 20
525.45274632626774
 30
0.0
 11
181.88202228823599
 21
525.45274632626774
 31
0.0
  0
LINE
  5
2D31
  8
AM_0
 10
179.88202228823599
 20
525.45274632626774
 30
0.0
 11
179.88202228823599
 21
510.45273869687298
 31
0.0
  0
LINE
  5
2D32
  8
AM_0
 10
154.8820222882361
 20
519.95274632626774
 30
0.0
 11
172.88202228823599
 21
519.95274632626774
 31
0.0
  0
LINE
  5
2D33
  8
AM_0
 10
154.8820222882361
 20
515.95274632626774
 30
0.0
 11
172.88202228823599
 21
515.95274632626774
 31
0.0
  0
LINE
  5
2D34
  8
AM_0
 10
154.8820222882361
 20
523.95274632626774
 30
0.0
 11
179.88202228823599
 21
523.95274632626774
 31
0.0
  0
LINE
  5
2D35
  8
AM_0
 10
154.8820222882361
 20
511.95274632626757
 30
0.0
 11
179.88202228823599
 21
511.95274632626757
 31
0.0
  0
LINE
  5
2D36
  8
AM_0
 10
154.8820222882361
 20
523.95274632626774
 30
0.0
 11
154.8820222882361
 21
511.95274632626757
 31
0.0
  0
ARC
  5
2D37
  8
AM_0
 10
172.88202228823599
 20
517.95274632626786
 30
0.0
 40
1.9999999999998861
 50
270.0
 51
90.0
  0
LINE
  5
2D38
  8
AM_0
 10
172.88202228823599
 20
519.95274632626774
 30
0.0
 11
172.88202228823599
 21
515.95274632626774
 31
0.0
  0
ARC
  5
2D39
  8
AM_0
 10
183.88202228823599
 20
532.12431920152153
 30
0.0
 40
2.0
 50
135.0
 51
180.0
1001
GENIUS_GENODEF_13
1002
{
1000
HIER
1070
     0
1002
}
1002
{
1000
MANEDIT
1070
     0
1002
}
1002
{
1000
NOSEL
1070
     0
1002
}
1002
{
1000
BEHIND
1070
     0
1002
}
1002
{
1000
OTHER
1070
     0
1002
}
1002
{
1000
REACTOR
1002
}
1001
GENIUS_GENOBJ-N-FIL_13
1002
{
1000
OWNER
1000
GEN
1002
}
  0
LINE
  5
2D3A
  8
AM_0
 10
183.8820222882359
 20
494.95274632626757
 30
0.0
 11
183.88202228823599
 21
540.95274632626774
 31
0.0
  0
LINE
  5
2D3B
  8
AM_0
 10
204.38202228823599
 20
542.95274632626774
 30
0.0
 11
204.38202228823599
 21
492.95274632626769
 31
0.0
  0
LINE
  5
2D3C
  8
AM_0
 10
181.88202228823599
 20
532.12431920152153
 30
0.0
 11
181.88202228823599
 21
503.78117345101367
 31
0.0
  0
LINE
  5
2D3D
  8
AM_0
 10
185.88202228823599
 20
492.9527463262678
 30
0.0
 11
200.23988666450521
 21
492.95274632626769
 31
0.0
  0
ARC
  5
2D3E
  8
AM_0
 10
181.88202228823599
 20
500.12431920152147
 30
0.0
 40
2.0
 50
0.0
 51
45.0
1001
GENIUS_GENODEF_13
1002
{
1000
HIER
1070
     0
1002
}
1002
{
1000
MANEDIT
1070
     0
1002
}
1002
{
1000
NOSEL
1070
     0
1002
}
1002
{
1000
BEHIND
1070
     0
1002
}
1002
{
1000
OTHER
1070
     0
1002
}
1002
{
1000
REACTOR
1002
}
1001
GENIUS_GENOBJ-N-FIL_13
1002
{
1000
OWNER
1000
GEN
1002
}
  0
ARC
  5
2D3F
  8
AM_0
 10
185.88202228823599
 20
494.95274632626757
 30
0.0
 40
2.0
 50
180.0
 51
270.0
1001
GENIUS_GENODEF_13
1002
{
1000
HIER
1070
     0
1002
}
1002
{
1000
MANEDIT
1070
     0
1002
}
1002
{
1000
NOSEL
1070
     0
1002
}
1002
{
1000
BEHIND
1070
     0
1002
}
1002
{
1000
OTHER
1070
     0
1002
}
1002
{
1000
REACTOR
1002
}
1001
GENIUS_GENOBJ-N-FIL_13
1002
{
1000
OWNER
1000
GEN
1002
}
  0
LINE
  5
2D40
  8
AM_0
 10
182.46780872586291
 20
502.36695988864079
 30
0.0
 11
183.29623585060909
 21
501.53853276389452
 31
0.0
  0
ARC
  5
2D41
  8
AM_0
 10
183.88202228823599
 20
503.78117345101367
 30
0.0
 40
2.0
 50
180.0
 51
225.0
1001
GENIUS_GENODEF_13
1002
{
1000
HIER
1070
     0
1002
}
1002
{
1000
MANEDIT
1070
     0
1002
}
1002
{
1000
NOSEL
1070
     0
1002
}
1002
{
1000
BEHIND
1070
     0
1002
}
1002
{
1000
OTHER
1070
     0
1002
}
1002
{
1000
REACTOR
1002
}
1001
GENIUS_GENOBJ-N-FIL_13
1002
{
1000
OWNER
1000
GEN
1002
}
  0
ARC
  5
2D42
  8
AM_0
 10
200.23988666450509
 20
482.95274632626757
 30
0.0
 40
10.0
 50
45.0
 51
90.0
1001
GENIUS_GENOBJ-N-FIL_13
1002
{
1000
OWNER
1000
GEN
1002
}
1001
GENIUS_GENODEF_13
1002
{
1000
HIER
1070
     0
1002
}
1002
{
1000
MANEDIT
1070
     0
1002
}
1002
{
1000
NOSEL
1070
     0
1002
}
1002
{
1000
BEHIND
1070
     0
1002
}
1002
{
1000
OTHER
1070
     0
1002
}
1002
{
1000
REACTOR
1002
}
  0
LINE
  5
2D43
  8
AM_0
 10
227.9175561941689
 20
566.48828023220062
 30
0.0
 11
207.3109544763704
 21
545.88167851440221
 31
0.0
  0
LINE
  5
2D44
  8
AM_0
 10
185.88202228823599
 20
542.95274632626774
 30
0.0
 11
200.23988666450521
 21
542.95274632626774
 31
0.0
  0
ARC
  5
2D45
  8
AM_0
 10
185.88202228823599
 20
540.95274632626774
 30
0.0
 40
2.0
 50
90.0
 51
180.0
1001
GENIUS_GENODEF_13
1002
{
1000
HIER
1070
     0
1002
}
1002
{
1000
MANEDIT
1070
     0
1002
}
1002
{
1000
NOSEL
1070
     0
1002
}
1002
{
1000
BEHIND
1070
     0
1002
}
1002
{
1000
OTHER
1070
     0
1002
}
1002
{
1000
REACTOR
1002
}
1001
GENIUS_GENOBJ-N-FIL_13
1002
{
1000
OWNER
1000
GEN
1002
}
  0
LINE
  5
2D46
  8
AM_0
 10
182.46780872586291
 20
533.5385327638943
 30
0.0
 11
183.29623585060909
 21
534.36695988864085
 31
0.0
  0
ARC
  5
2D47
  8
AM_0
 10
181.88202228823599
 20
535.78117345101396
 30
0.0
 40
2.0
 50
315.0
 51
0.0
1001
GENIUS_GENODEF_13
1002
{
1000
HIER
1070
     0
1002
}
1002
{
1000
MANEDIT
1070
     0
1002
}
1002
{
1000
NOSEL
1070
     0
1002
}
1002
{
1000
BEHIND
1070
     0
1002
}
1002
{
1000
OTHER
1070
     0
1002
}
1002
{
1000
REACTOR
1002
}
1001
GENIUS_GENOBJ-N-FIL_13
1002
{
1000
OWNER
1000
GEN
1002
}
  0
ARC
  5
2D48
  8
AM_0
 10
200.23988666450521
 20
552.95274632626774
 30
0.0
 40
10.0
 50
270.0
 51
315.0
1001
GENIUS_GENODEF_13
1002
{
1000
HIER
1070
     0
1002
}
1002
{
1000
MANEDIT
1070
     0
1002
}
1002
{
1000
NOSEL
1070
     0
1002
}
1002
{
1000
BEHIND
1070
     0
1002
}
1002
{
1000
OTHER
1070
     0
1002
}
1002
{
1000
REACTOR
1002
}
1001
GENIUS_GENOBJ-N-FIL_13
1002
{
1000
OWNER
1000
GEN
1002
}
  0
LINE
  5
2D49
  8
AM_0
 10
239.38202228823599
 20
549.89018532626778
 30
0.0
 11
229.3820222882361
 21
549.89018532626778
 31
0.0
  0
ARC
  5
2D4A
  8
AM_0
 10
230.38202228823599
 20
573.19136768030228
 30
0.0
 40
1.0
 50
91.660847232974191
 51
180.0
1001
GENIUS_GENOBJ-N-FIL_13
1002
{
1000
OWNER
1000
GEN
1002
}
1001
GENIUS_GENODEF_13
1002
{
1000
HIER
1070
     0
1002
}
1002
{
1000
MANEDIT
1070
     0
1002
}
1002
{
1000
NOSEL
1070
     0
1002
}
1002
{
1000
BEHIND
1070
     0
1002
}
1002
{
1000
OTHER
1070
     0
1002
}
1002
{
1000
REACTOR
1002
}
  0
LINE
  5
2D4B
  8
AM_0
 10
239.38202228823599
 20
563.95275132626784
 30
0.0
 11
229.3820222882361
 21
563.95275132626784
 31
0.0
  0
ARC
  5
2D4C
  8
AM_0
 10
224.38202228823599
 20
570.02381413813328
 30
0.0
 40
5.0
 50
315.0
 51
0.0
1001
GENIUS_GENODEF_13
1002
{
1000
HIER
1070
     0
1002
}
1002
{
1000
MANEDIT
1070
     0
1002
}
1002
{
1000
NOSEL
1070
     0
1002
}
1002
{
1000
BEHIND
1070
     0
1002
}
1002
{
1000
OTHER
1070
     0
1002
}
1002
{
1000
REACTOR
1002
}
1001
GENIUS_GENOBJ-N-FIL_13
1002
{
1000
OWNER
1000
GEN
1002
}
  0
LINE
  5
2D4D
  8
AM_0
 10
230.35303909495289
 20
574.19094757931362
 30
0.0
 11
239.38202228823599
 21
574.45274632626763
 31
0.0
  0
LINE
  5
2D4F
  8
ﾁｭｳｼﾝｾﾝ1
 10
263.88202228823621
 20
603.95274632626786
 30
0.0
 11
263.88202228823621
 21
581.95274632626786
 31
0.0
  0
LINE
  5
2D50
  8
ﾁｭｳｼﾝｾﾝ1
 10
252.8820222882361
 20
592.95274632626786
 30
0.0
 11
274.88202228823621
 21
592.95274632626786
 31
0.0
  0
LINE
  5
2D51
  8
ﾁｭｳｼﾝｾﾝ1
 10
263.88202228823621
 20
453.9527463262678
 30
0.0
 11
263.88202228823621
 21
431.95274632626769
 31
0.0
  0
LINE
  5
2D52
  8
ﾁｭｳｼﾝｾﾝ1
 10
252.8820222882361
 20
442.95274632626791
 30
0.0
 11
274.88202228823621
 21
442.95274632626791
 31
0.0
  0
LINE
  5
2D53
  8
ﾁｭｳｼﾝｾﾝ1
 10
343.88202228823621
 20
453.9527463262678
 30
0.0
 11
343.88202228823621
 21
431.95274632626769
 31
0.0
  0
LINE
  5
2D54
  8
ﾁｭｳｼﾝｾﾝ1
 10
332.88202228823621
 20
442.95274632626791
 30
0.0
 11
354.8820222882361
 21
442.95274632626791
 31
0.0
  0
TEXT
  5
2F34
  8
AM_0
 10
487.8319466167917
 20
507.27739238756448
 30
0.0
 40
10.0
  1
VX02-120G~VX0-200G
  0
ENDSEC
  0
EOF
