  0
SECTION
  2
HEADER
  9
$ACADVER
  1
AC1009
  9
$INSBASE
 10
0.0
 20
0.0
 30
0.0
  9
$EXTMIN
 10
63.202448044673467
 20
176.0430906840736
 30
-0.0000000000112498
  9
$EXTMAX
 10
830.53978925296076
 20
724.42843022416889
 30
0.0000000000002956
  9
$LIMMIN
 10
0.0
 20
0.0
  9
$LIMMAX
 10
853.5
 20
555.00000000000011
  9
$ORTHOMODE
 70
     0
  9
$REGENMODE
 70
     1
  9
$FILLMODE
 70
     1
  9
$QTEXTMODE
 70
     0
  9
$MIRRTEXT
 70
     1
  9
$DRAGMODE
 70
     2
  9
$LTSCALE
 40
3.0
  9
$OSMODE
 70
   551
  9
$ATTMODE
 70
     1
  9
$TEXTSIZE
 40
2.5
  9
$TRACEWID
 40
1.0
  9
$TEXTSTYLE
  7
STANDARD
  9
$CLAYER
  8
AM_0
  9
$CELTYPE
  6
BYLAYER
  9
$CECOLOR
 62
   256
  9
$DIMSCALE
 40
1.0
  9
$DIMASZ
 40
2.5
  9
$DIMEXO
 40
1.0
  9
$DIMDLI
 40
8.0
  9
$DIMRND
 40
0.0
  9
$DIMDLE
 40
0.0
  9
$DIMEXE
 40
0.6
  9
$DIMTP
 40
0.1
  9
$DIMTM
 40
0.1
  9
$DIMTXT
 40
2.5
  9
$DIMCEN
 40
0.0
  9
$DIMTSZ
 40
0.0
  9
$DIMTOL
 70
     0
  9
$DIMLIM
 70
     0
  9
$DIMTIH
 70
     0
  9
$DIMTOH
 70
     0
  9
$DIMSE1
 70
     0
  9
$DIMSE2
 70
     0
  9
$DIMTAD
 70
     1
  9
$DIMZIN
 70
     8
  9
$DIMBLK
  1

  9
$DIMASO
 70
     1
  9
$DIMSHO
 70
     1
  9
$DIMPOST
  1

  9
$DIMAPOST
  1
"
  9
$DIMALT
 70
     0
  9
$DIMALTD
 70
     2
  9
$DIMALTF
 40
0.0393701
  9
$DIMLFAC
 40
1.0
  9
$DIMTOFL
 70
     1
  9
$DIMTVP
 40
0.0
  9
$DIMTIX
 70
     0
  9
$DIMSOXD
 70
     0
  9
$DIMSAH
 70
     0
  9
$DIMBLK1
  1

  9
$DIMBLK2
  1

  9
$DIMSTYLE
  2
AM_ISO
  9
$DIMCLRD
 70
   256
  9
$DIMCLRE
 70
   256
  9
$DIMCLRT
 70
     4
  9
$DIMTFAC
 40
0.71
  9
$DIMGAP
 40
0.8
  9
$LUNITS
 70
     2
  9
$LUPREC
 70
     2
  9
$SKETCHINC
 40
1.0
  9
$FILLETRAD
 40
15.0
  9
$AUNITS
 70
     0
  9
$AUPREC
 70
     0
  9
$MENU
  1
.
  9
$ELEVATION
 40
0.0
  9
$PELEVATION
 40
0.0
  9
$THICKNESS
 40
0.0
  9
$LIMCHECK
 70
     0
  9
$BLIPMODE
 70
     0
  9
$CHAMFERA
 40
6.0
  9
$CHAMFERB
 40
3.0
  9
$SKPOLY
 70
     0
  9
$TDCREATE
 40
2452065.7635588432
  9
$TDUPDATE
 40
2458541.411106227
  9
$TDINDWG
 40
0.0950863542
  9
$TDUSRTIMER
 40
0.0950861574
  9
$USRTIMER
 70
     1
  9
$ANGBASE
 50
0.0
  9
$ANGDIR
 70
     0
  9
$PDMODE
 70
     0
  9
$PDSIZE
 40
0.0
  9
$PLINEWID
 40
0.0
  9
$COORDS
 70
     1
  9
$SPLFRAME
 70
     0
  9
$SPLINETYPE
 70
     6
  9
$SPLINESEGS
 70
     8
  9
$ATTDIA
 70
     1
  9
$ATTREQ
 70
     1
  9
$HANDLING
 70
     1
  9
$HANDSEED
  5
3010
  9
$SURFTAB1
 70
     6
  9
$SURFTAB2
 70
     6
  9
$SURFTYPE
 70
     6
  9
$SURFU
 70
     6
  9
$SURFV
 70
     6
  9
$UCSNAME
  2

  9
$UCSORG
 10
0.0
 20
0.0
 30
0.0
  9
$UCSXDIR
 10
1.0
 20
0.0
 30
0.0
  9
$UCSYDIR
 10
0.0
 20
1.0
 30
0.0
  9
$PUCSNAME
  2

  9
$PUCSORG
 10
0.0
 20
0.0
 30
0.0
  9
$PUCSXDIR
 10
1.0
 20
0.0
 30
0.0
  9
$PUCSYDIR
 10
0.0
 20
1.0
 30
0.0
  9
$USERI1
 70
     0
  9
$USERI2
 70
     0
  9
$USERI3
 70
     0
  9
$USERI4
 70
     0
  9
$USERI5
 70
     0
  9
$USERR1
 40
0.0
  9
$USERR2
 40
0.0
  9
$USERR3
 40
0.0
  9
$USERR4
 40
0.0
  9
$USERR5
 40
0.0
  9
$WORLDVIEW
 70
     1
  9
$SHADEDGE
 70
     3
  9
$SHADEDIF
 70
    70
  9
$TILEMODE
 70
     1
  9
$MAXACTVP
 70
    64
  9
$PLIMCHECK
 70
     0
  9
$PEXTMIN
 10
1.0000000000000000E+020
 20
1.0000000000000000E+020
 30
1.0000000000000000E+020
  9
$PEXTMAX
 10
-1.0000000000000000E+020
 20
-1.0000000000000000E+020
 30
-1.0000000000000000E+020
  9
$PLIMMIN
 10
0.0
 20
0.0
  9
$PLIMMAX
 10
420.0
 20
297.0
  9
$UNITMODE
 70
     0
  9
$VISRETAIN
 70
     1
  9
$PLINEGEN
 70
     0
  9
$PSLTSCALE
 70
     1
  0
ENDSEC
  0
SECTION
  2
TABLES
  0
TABLE
  2
VPORT
 70
     1
  0
VPORT
  2
*ACTIVE
 70
     0
 10
0.0
 20
0.0
 11
1.0
 21
1.0
 12
446.87111864881717
 22
450.2357604541213
 13
0.0
 23
0.0
 14
7.5
 24
7.5
 15
30.0
 25
30.0
 16
0.0
 26
0.0
 36
1.0
 17
0.0
 27
0.0
 37
0.0
 40
552.14999862160619
 41
1.7571592210767459
 42
50.0
 43
0.0
 44
0.0
 50
0.0
 51
0.0
 71
     0
 72
   100
 73
     1
 74
     3
 75
     0
 76
     0
 77
     0
 78
     0
  0
ENDTAB
  0
TABLE
  2
LTYPE
 70
    27
  0
LTYPE
  2
CONTINUOUS
 70
     0
  3
Solid line
 72
    65
 73
     0
 40
0.0
  0
LTYPE
  2
AM_ISO02W050
 70
     0
  3
__ __ __ __ __ __ __ __ __ __ __ __ __ __ __
 72
    65
 73
     2
 40
7.5
 49
6.0
 49
-1.5
  0
LTYPE
  2
AM_ISO08W050
 70
     0
  3
____ . ____ . ____ . ____ . ____ . ____ . ____
 72
    65
 73
     4
 40
18.0
 49
12.0
 49
-1.5
 49
3.0
 49
-1.5
  0
LTYPE
  2
AM_ISO09W050
 70
     0
  3
_____ . . _____ . . _____ . . ____ .. ____
 72
    65
 73
     6
 40
22.5
 49
12.0
 49
-1.5
 49
3.0
 49
-1.5
 49
3.0
 49
-1.5
  0
LTYPE
  2
AMCONSTR
 70
     0
  3
_______________________
 72
    65
 73
     2
 40
9999.0
 49
9999.0
 49
0.0
  0
LTYPE
  2
AM_ISO08W050X2
 70
     0
  3
__ . __ . __ . __ . __ . __
 72
    65
 73
     4
 40
9.0
 49
6.0
 49
-0.75
 49
1.5
 49
-0.75
  0
LTYPE
  2
AM_ISO02W050X2
 70
     0
  3
 _ _ _ _ _ _ _ _ _ _ _ _
 72
    65
 73
     2
 40
3.75
 49
3.0
 49
-0.75
  0
LTYPE
  2
AMZIGZAG
 70
     0
  3
/\/-/\/-/\/-/\/-/\/-/\/
 72
    65
 73
     2
 40
11.000099999999991
 49
0.0001
 49
-11.0
  0
LTYPE
  2
ACISOWELD
 70
     0
  3
_ _ _ _ _
 72
    65
 73
     2
 40
2.0
 49
2.0
 49
-1.0
  0
LTYPE
  2
ACISOTGB
 70
     0
  3
__ . . __ . .
 72
    65
 73
     6
 40
9.0
 49
4.0
 49
-1.0
 49
1.0
 49
-1.0
 49
1.0
 49
-1.0
  0
LTYPE
  2
ACISOTGL
 70
     0
  3
_ _ _ _ _
 72
    65
 73
     2
 40
3.0
 49
2.0
 49
-1.0
  0
LTYPE
  2
CENTER
 70
     0
  3
__ . __
 72
    65
 73
     4
 40
7.0
 49
4.0
 49
-1.0
 49
1.0
 49
-1.0
  0
LTYPE
  2
PHANTOM2
 70
     0
  3
Phantom (.5x) ___ _ _ ___ _ _ ___ _ _ ___ _ _
 72
    65
 73
     6
 40
31.75
 49
15.875
 49
-3.174999999999998
 49
3.174999999999998
 49
-3.174999999999998
 49
3.174999999999998
 49
-3.174999999999998
  0
LTYPE
  2
ACANSTGBM
 70
     0
  3
__ . . __ . .
 72
    65
 73
     6
 40
9.0
 49
4.0
 49
-1.0
 49
1.0
 49
-1.0
 49
1.0
 49
-1.0
  0
LTYPE
  2
ACANSTGLM
 70
     0
  3
_ _ _ _ _
 72
    65
 73
     2
 40
3.0
 49
2.0
 49
-1.0
  0
LTYPE
  2
GEN7
 70
     0
  3
____ . ____ . ____ . ____ . ____ . ____ . ____
 72
    65
 73
     4
 40
14.25
 49
9.75
 49
-1.5
 49
1.5
 49
-1.5
  0
LTYPE
  2
GEN3B
 70
     0
  3
 - - - - -
 72
    65
 73
     2
 40
1.0
 49
0.5
 49
-0.5
  0
LTYPE
  2
GEN7A
 70
     0
  3
__ . __ . __
 72
    65
 73
     4
 40
7.375
 49
4.75
 49
-0.875
 49
0.875
 49
-0.875
  0
LTYPE
  2
ACJISTGB
 70
     0
  3
__ . . __ . .
 72
    65
 73
     6
 40
9.0
 49
4.0
 49
-1.0
 49
1.0
 49
-1.0
 49
1.0
 49
-1.0
  0
LTYPE
  2
ACJISTGL
 70
     0
  3
_ _ _ _ _
 72
    65
 73
     2
 40
3.0
 49
2.0
 49
-1.0
  0
LTYPE
  2
HIDDEN
 70
     0
  3
Hidden __ __ __ __ __ __ __ __ __ __ __ __ __ _
 72
    65
 73
     2
 40
0.375
 49
0.25
 49
-0.125
  0
LTYPE
  2
CENTER2
 70
     0
  3
Center (.5x) ___ _ ___ _ ___ _ ___ _ ___ _ ___
 72
    65
 73
     4
 40
1.125
 49
0.75
 49
-0.125
 49
0.125
 49
-0.125
  0
LTYPE
  2
HIDDEN2
 70
     0
  3
Hidden (.5x) _ _ _ _ _ _ _ _ _ _ _ _ _ _ _ _ _
 72
    65
 73
     2
 40
0.1875
 49
0.125
 49
-0.0625
  0
LTYPE
  2
AMZIGZAG2
 70
     0
  3
/\/-/\/-/\/-/\/-/\/-/\/
 72
    65
 73
     2
 40
0.4401
 49
0.0001
 49
-0.4400000000000002
  0
LTYPE
  2
ACANSTGB
 70
     0
  3
__ . . __ . .
 72
    65
 73
     6
 40
0.35433070866
 49
0.15748031496
 49
-0.03937007874
 49
0.03937007874
 49
-0.03937007874
 49
0.03937007874
 49
-0.03937007874
  0
LTYPE
  2
ACANSTGL
 70
     0
  3
_ _ _ _ _
 72
    65
 73
     2
 40
0.11811023622
 49
0.07874015748
 49
-0.03937007874
  0
ENDTAB
  0
TABLE
  2
LAYER
 70
     7
  0
LAYER
  2
0
 70
     0
 62
     7
  6
CONTINUOUS
  0
LAYER
  2
AM_0
 70
     0
 62
     7
  6
CONTINUOUS
  0
LAYER
  2
AM_5
 70
     0
 62
     2
  6
CONTINUOUS
  0
LAYER
  2
DEFPOINTS
 70
     0
 62
     7
  6
CONTINUOUS
  0
LAYER
  2
ｶｸﾚｾﾝ2
 70
     0
 62
     3
  6
GEN3B
  0
LAYER
  2
ﾁｭｳｼﾝｾﾝ
 70
     0
 62
     1
  6
GEN7
  0
LAYER
  2
ﾁｭｳｼﾝｾﾝ1
 70
     0
 62
     1
  6
GEN7A
  0
ENDTAB
  0
TABLE
  2
STYLE
 70
     9
  0
STYLE
  2
STANDARD
 70
     0
 40
0.0
 41
0.8299999999999999
 50
0.0
 71
     0
 42
2.5
  3
txt.shx
  4
bigfont.shx
  0
STYLE
  2
ANNOTATIVE
 70
     0
 40
0.0
 41
1.0
 50
0.0
 71
     0
 42
0.2
  3
txt
  4

  0
STYLE
  2

 70
     1
 40
0.0
 41
1.0
 50
0.0
 71
     0
 42
2.5
  3
ltypeshp.shx
  4

  0
STYLE
  2
ACISOTS
 70
     0
 40
1.0
 41
1.0
 50
0.0
 71
     0
 42
2.5
  3
isocp.shx
  4
extfont.shx
  0
STYLE
  2
ACISOGDT
 70
     0
 40
0.0
 41
1.0
 50
0.0
 71
     0
 42
2.5
  3
amgdt.shx
  4

  0
STYLE
  2
ACANSTS
 70
     0
 40
1.0
 41
1.0
 50
0.0
 71
     0
 42
2.5
  3
romans.shx
  4
bigfont.shx
  0
STYLE
  2
ACANSGDT
 70
     0
 40
0.0
 41
1.0
 50
0.0
 71
     0
 42
2.5
  3
amgdt.shx
  4

  0
STYLE
  2
ACJISTS
 70
     0
 40
1.0
 41
1.0
 50
0.0
 71
     0
 42
2.5
  3
isocp.shx
  4
bigfont.shx
  0
STYLE
  2
ACJISGDT
 70
     0
 40
0.0
 41
1.0
 50
0.0
 71
     0
 42
2.5
  3
amgdt.shx
  4

  0
ENDTAB
  0
TABLE
  2
VIEW
 70
     6
  0
VIEW
  2
AM_VIEW1
 70
     0
 40
277.49999999999989
 10
249.64779005524849
 20
416.24999999999989
 41
499.2955801104971
 11
0.0
 21
0.0
 31
1.0
 12
0.0
 22
0.0
 32
0.0
 42
50.0
 43
0.0
 44
0.0
 50
0.0
 71
     0
  0
VIEW
  2
AM_VIEW2
 70
     0
 40
277.49999999999989
 10
603.85220994475117
 20
416.24999999999989
 41
499.2955801104971
 11
0.0
 21
0.0
 31
1.0
 12
0.0
 22
0.0
 32
0.0
 42
50.0
 43
0.0
 44
0.0
 50
0.0
 71
     0
  0
VIEW
  2
AM_VIEW3
 70
     0
 40
277.49999999999989
 10
249.64779005524849
 20
138.7499999999998
 41
499.2955801104971
 11
0.0
 21
0.0
 31
1.0
 12
0.0
 22
0.0
 32
0.0
 42
50.0
 43
0.0
 44
0.0
 50
0.0
 71
     0
  0
VIEW
  2
AM_VIEW4
 70
     0
 40
277.49999999999989
 10
603.85220994475117
 20
138.7499999999998
 41
499.2955801104971
 11
0.0
 21
0.0
 31
1.0
 12
0.0
 22
0.0
 32
0.0
 42
50.0
 43
0.0
 44
0.0
 50
0.0
 71
     0
  0
VIEW
  2
AM_VIEW5
 70
     0
 40
277.5
 10
426.75
 20
277.49999999999989
 41
499.2955801104971
 11
0.0
 21
0.0
 31
1.0
 12
0.0
 22
0.0
 32
0.0
 42
50.0
 43
0.0
 44
0.0
 50
0.0
 71
     0
  0
VIEW
  2
AM_VIEW6
 70
     0
 40
554.99445000000014
 10
426.75
 20
277.49999999999989
 41
998.5811743093924
 11
0.0
 21
0.0
 31
1.0
 12
0.0
 22
0.0
 32
0.0
 42
50.0
 43
0.0
 44
0.0
 50
0.0
 71
     0
  0
ENDTAB
  0
TABLE
  2
UCS
 70
     0
  0
ENDTAB
  0
TABLE
  2
APPID
 70
    95
  0
APPID
  2
ACAD
 70
     0
  0
APPID
  2
ACADANNOTATIVE
 70
     0
  0
APPID
  2
MCAD_NO_VIS
 70
     0
  0
APPID
  2
ACAD_TEMP_GRAPHIC
 70
     0
  0
APPID
  2
ACATTRIBSERVICES
 70
     0
  0
APPID
  2
GENIUS_GENREC_14
 70
     0
  0
APPID
  2
GENIUS_GENOBJ-N-REC_13
 70
     0
  0
APPID
  2
GENIUS_GENODEF_13
 70
     0
  0
APPID
  2
GENIUS_GENOLIS_13
 70
     0
  0
APPID
  2
GENIUS_GENOBJ-N-TIT_13
 70
     0
  0
APPID
  2
GENIUS_GENOENT_13
 70
     0
  0
APPID
  2
GENIUS_GENTITLE_13
 70
     0
  0
APPID
  2
GENIUS_GENOREF_13
 70
     0
  0
APPID
  2
GENIUS_GENSCREG_15
 70
     0
  0
APPID
  2
GENIUS_GENOBJ-N-SDF_13
 70
     0
  0
APPID
  2
GENIUS_GENFIL_13
 70
     0
  0
APPID
  2
GENIUS_GENOBJ-N-CHA_13
 70
     0
  0
APPID
  2
GENIUS_GENDTOL_13
 70
     0
  0
APPID
  2
GENIUS_GENOBJ-N-FIL_13
 70
     0
  0
APPID
  2
AD_DRAW
 70
     0
  0
APPID
  2
DESIGNERASSEMBLIES
 70
     0
  0
APPID
  2
ASURF_PCURVE_APPNAME
 70
     0
  0
APPID
  2
GENIUS_GE3SECT_13
 70
     0
  0
APPID
  2
GENIUS_GENCFG_13
 70
     0
  0
APPID
  2
GENIUS_GE3CFG0_13
 70
     0
  0
APPID
  2
GENIUS_GENCFG0_13
 70
     0
  0
APPID
  2
GENIUS_GENCFG1_13
 70
     0
  0
APPID
  2
GENIUS_GENCFG2_13
 70
     0
  0
APPID
  2
GENIUS_GENCFG3_13
 70
     0
  0
APPID
  2
GENIUS_GENCFG4_13
 70
     0
  0
APPID
  2
GENIUS_GEVCFG0_13
 70
     0
  0
APPID
  2
GENIUS_GENHINW_13
 70
     0
  0
APPID
  2
GENIUS_FIRSTVISTXT_14
 70
     0
  0
APPID
  2
GENIUS_GENOBJ-N-LEADER_13
 70
     0
  0
APPID
  2
GEV_VCCNULL_SWITCH_OFF
 70
     0
  0
APPID
  2
GENIUS_GEFCFG0_13
 70
     0
  0
APPID
  2
GENIUS_GENZVEED_13
 70
     0
  0
APPID
  2
GENIUS_GENSCREG_13
 70
     0
  0
APPID
  2
GENIUS_DUMCFG0_13
 70
     0
  0
APPID
  2
GEVID936201362
 70
     0
  0
APPID
  2
GEVDC
 70
     0
  0
APPID
  2
GEVCON
 70
     0
  0
APPID
  2
VCC
 70
     0
  0
APPID
  2
GEVPT
 70
     0
  0
APPID
  2
GEVIT
 70
     0
  0
APPID
  2
GENBH
 70
     0
  0
APPID
  2
GEVMK
 70
     0
  0
APPID
  2
GENIUS_GENBH_13
 70
     0
  0
APPID
  2
GENIUS_GENOBJ-NBEHI-BHF_13
 70
     0
  0
APPID
  2
GENIUS_GENOBJ-NBEHI-BHB_13
 70
     0
  0
APPID
  2
GENIUS_GENOBJ-F-DESC_13
 70
     0
  0
APPID
  2
GENIUS_GEFDESC_14
 70
     0
  0
APPID
  2
GENIUS_GENOBJ-F-PART_13
 70
     0
  0
APPID
  2
GENIUS_GEFSTDP_13
 70
     0
  0
APPID
  2
GENIUS_GEFPARTINS_13
 70
     0
  0
APPID
  2
GENIUS_GENTRA_14
 70
     0
  0
APPID
  2
GENIUS_GENINF13_13
 70
     0
  0
APPID
  2
GENIUS_GENOBJ-N-INFOPT_13
 70
     0
  0
APPID
  2
GENIUS_GENOBJ-N-RSSYM_13
 70
     0
  0
APPID
  2
GENIUS_GENSYMENT_13
 70
     0
  0
APPID
  2
GENIUS_GENSCSYM_13
 70
     0
  0
APPID
  2
GENIUS_GEFINFNAM_13
 70
     0
  0
APPID
  2
GENIUS_GENOBJ-N-CEN_13
 70
     0
  0
APPID
  2
GENIUS_GENOBJ-N-CRS_13
 70
     0
  0
APPID
  2
GENIUS_GENOBJ-N-CRC_13
 70
     0
  0
APPID
  2
GENIUS_GENCRC_14
 70
     0
  0
APPID
  2
GEVID942827039
 70
     0
  0
APPID
  2
GEVID942827040
 70
     0
  0
APPID
  2
GEVID942827041
 70
     0
  0
APPID
  2
GENIUS_GENOBJ-F-SCPASSM_13
 70
     0
  0
APPID
  2
GENIUS_GENDIMSH_14
 70
     0
  0
APPID
  2
GEVID942827042
 70
     0
  0
APPID
  2
GEVID946020473
 70
     0
  0
APPID
  2
GEVID946020474
 70
     0
  0
APPID
  2
GEVID946020475
 70
     0
  0
APPID
  2
GENIUS_GENOBJ-N-HTC_13
 70
     0
  0
APPID
  2
GENIUS_GENHATCH_13
 70
     0
  0
APPID
  2
GEVID948854295
 70
     0
  0
APPID
  2
GEVID939402019
 70
     0
  0
APPID
  2
GEVID952919491
 70
     0
  0
APPID
  2
GEVID952919492
 70
     0
  0
APPID
  2
GENIUS_GEFWELD_13
 70
     0
  0
APPID
  2
GENIUS_GENOBJ-F-WELS_13
 70
     0
  0
APPID
  2
GEVID952919493
 70
     0
  0
APPID
  2
GENIUS_GENOBJ-N-RSBK_13
 70
     0
  0
APPID
  2
GENIUS_GENOBJ-N-LIB_13
 70
     0
  0
APPID
  2
GENIUS_GENSCALE_13
 70
     0
  0
APPID
  2
GEVID986376691
 70
     0
  0
APPID
  2
DCO15
 70
     0
  0
APPID
  2
ACAD_DSTYLE_DIMBREAK
 70
     0
  0
APPID
  2
ACAD_DSTYLE_DIMJAG
 70
     0
  0
APPID
  2
ACAD_NAV_VCDISPLAY
 70
     0
  0
APPID
  2
ACADANNOPO
 70
     0
  0
APPID
  2
ACAD_EXEMPT_FROM_CAD_STANDARDS
 70
     0
  0
APPID
  2
ACAD_MLEADERVER
 70
     0
  0
ENDTAB
  0
TABLE
  2
DIMSTYLE
 70
    22
  0
DIMSTYLE
  2
STANDARD
 70
     0
  3

  4

  5

  6

  7

 40
1.0
 41
0.18
 42
0.0625
 43
0.38
 44
0.18
 45
0.0
 46
0.0
 47
0.0
 48
0.0
140
0.18
141
0.09
142
0.0
143
25.399999999999999
144
1.0
145
0.0
146
1.0
147
0.09
 71
     0
 72
     0
 73
     1
 74
     1
 75
     0
 76
     0
 77
     0
 78
     0
170
     0
171
     2
172
     0
173
     0
174
     0
175
     0
176
     0
177
     0
178
     0
  0
DIMSTYLE
  2
ANNOTATIVE
 70
     0
  3

  4

  5

  6

  7

 40
1.0
 41
0.18
 42
0.0625
 43
0.38
 44
0.18
 45
0.0
 46
0.0
 47
0.0
 48
0.0
140
0.18
141
0.09
142
0.0
143
25.399999999999999
144
1.0
145
0.0
146
1.0
147
0.09
 71
     0
 72
     0
 73
     1
 74
     1
 75
     0
 76
     0
 77
     0
 78
     0
170
     0
171
     2
172
     0
173
     0
174
     0
175
     0
176
     0
177
     0
178
     0
  0
DIMSTYLE
  2
AM_ISO
 70
     0
  3

  4
"
  5

  6

  7

 40
1.0
 41
2.5
 42
1.0
 43
8.0
 44
0.6
 45
0.0
 46
0.0
 47
0.1
 48
0.1
140
2.5
141
0.0
142
0.0
143
0.0393701
144
1.0
145
0.0
146
0.71
147
0.8
 71
     0
 72
     0
 73
     0
 74
     0
 75
     0
 76
     0
 77
     1
 78
     8
170
     0
171
     2
172
     1
173
     0
174
     0
175
     0
176
   256
177
   256
178
     4
  0
DIMSTYLE
  2
AM_ISO$3
 70
     0
  3

  4
"
  5

  6

  7

 40
1.0
 41
2.5
 42
1.0
 43
8.0
 44
0.6
 45
0.0
 46
0.0
 47
0.1
 48
0.1
140
2.5
141
0.0
142
0.0
143
0.0393701
144
1.0
145
0.0
146
0.71
147
0.8
 71
     0
 72
     0
 73
     0
 74
     1
 75
     0
 76
     0
 77
     1
 78
     8
170
     0
171
     2
172
     0
173
     0
174
     0
175
     0
176
   256
177
   256
178
     4
  0
DIMSTYLE
  2
AM_ISO$4
 70
     0
  3

  4
"
  5

  6

  7

 40
1.0
 41
2.5
 42
1.0
 43
8.0
 44
0.6
 45
0.0
 46
0.0
 47
0.1
 48
0.1
140
2.5
141
0.0
142
0.0
143
0.0393701
144
1.0
145
0.0
146
0.71
147
0.8
 71
     0
 72
     0
 73
     0
 74
     1
 75
     0
 76
     0
 77
     1
 78
     8
170
     0
171
     2
172
     0
173
     0
174
     0
175
     0
176
   256
177
   256
178
     4
  0
DIMSTYLE
  2
AM_ISO$6
 70
     0
  3

  4
"
  5

  6

  7

 40
1.0
 41
2.5
 42
1.0
 43
8.0
 44
0.6
 45
0.0
 46
0.0
 47
0.1
 48
0.1
140
2.5
141
0.0
142
0.0
143
0.0393701
144
1.0
145
0.0
146
0.71
147
0.8
 71
     0
 72
     0
 73
     0
 74
     0
 75
     0
 76
     0
 77
     0
 78
     8
170
     0
171
     2
172
     1
173
     0
174
     0
175
     0
176
   256
177
   256
178
     4
  0
DIMSTYLE
  2
AM_ISO$7
 70
     0
  3

  4
"
  5

  6

  7

 40
1.0
 41
2.5
 42
1.0
 43
8.0
 44
0.6
 45
0.0
 46
0.0
 47
0.1
 48
0.1
140
2.5
141
0.0
142
0.0
143
0.0393701
144
1.0
145
0.0
146
0.71
147
0.8
 71
     0
 72
     0
 73
     0
 74
     0
 75
     0
 76
     0
 77
     1
 78
     8
170
     0
171
     2
172
     1
173
     0
174
     0
175
     0
176
   256
177
   256
178
     4
  0
DIMSTYLE
  2
AM_ISO$SF
 70
     0
  3

  4
"
  5

  6

  7

 40
1.0
 41
2.5
 42
1.0
 43
10.0
 44
1.0
 45
0.0
 46
0.0
 47
0.1
 48
0.1
140
3.5
141
0.0
142
0.0
143
0.0393701
144
1.0
145
0.0
146
0.71
147
1.5
 71
     0
 72
     0
 73
     0
 74
     0
 75
     1
 76
     1
 77
     1
 78
     8
170
     0
171
     2
172
     1
173
     0
174
     0
175
     0
176
   256
177
   256
178
     2
  0
DIMSTYLE
  2
AM_ISO$SH
 70
     0
  3

  4
"
  5

  6

  7

 40
1.0
 41
2.5
 42
1.0
 43
10.0
 44
1.0
 45
0.0
 46
0.0
 47
0.1
 48
0.1
140
3.5
141
0.0
142
0.0
143
0.0393701
144
2.0
145
0.0
146
0.71
147
1.5
 71
     0
 72
     0
 73
     0
 74
     0
 75
     1
 76
     1
 77
     1
 78
     8
170
     0
171
     2
172
     1
173
     1
174
     0
175
     0
176
   256
177
   256
178
     2
  0
DIMSTYLE
  2
AM_JIS
 70
     0
  3

  4
"
  5

  6

  7

 40
1.0
 41
2.5
 42
1.0
 43
7.0
 44
1.0
 45
0.0
 46
0.0
 47
0.1
 48
0.1000000001
140
2.5
141
0.0
142
0.0
143
0.0393701
144
1.0
145
0.0
146
0.71
147
1.0
 71
     0
 72
     0
 73
     0
 74
     0
 75
     0
 76
     0
 77
     3
 78
     8
170
     0
171
     2
172
     1
173
     0
174
     0
175
     0
176
   256
177
   256
178
     4
  0
DIMSTYLE
  2
AM_JIS$3
 70
     0
  3

  4
"
  5

  6

  7

 40
1.0
 41
2.5
 42
1.0
 43
7.0
 44
1.0
 45
0.0
 46
0.0
 47
0.1
 48
0.1000000001
140
2.5
141
0.0
142
0.0
143
0.0393701
144
1.0
145
0.0
146
0.71
147
1.0
 71
     0
 72
     0
 73
     0
 74
     1
 75
     0
 76
     0
 77
     3
 78
     8
170
     0
171
     2
172
     0
173
     0
174
     0
175
     0
176
   256
177
   256
178
     4
  0
DIMSTYLE
  2
AM_JIS$4
 70
     0
  3

  4
"
  5

  6

  7

 40
1.0
 41
2.5
 42
1.0
 43
7.0
 44
1.0
 45
0.0
 46
0.0
 47
0.1
 48
0.1000000001
140
2.5
141
0.0
142
0.0
143
0.0393701
144
1.0
145
0.0
146
0.71
147
1.0
 71
     0
 72
     0
 73
     0
 74
     0
 75
     0
 76
     0
 77
     3
 78
     8
170
     0
171
     2
172
     0
173
     0
174
     0
175
     0
176
   256
177
   256
178
     4
  0
DIMSTYLE
  2
AM_JIS$6
 70
     0
  3

  4
"
  5

  6

  7

 40
1.0
 41
2.5
 42
1.0
 43
7.0
 44
1.0
 45
0.0
 46
0.0
 47
0.1
 48
0.1000000001
140
2.5
141
0.0
142
0.0
143
0.0393701
144
1.0
145
0.0
146
0.71
147
1.0
 71
     0
 72
     0
 73
     0
 74
     0
 75
     0
 76
     0
 77
     0
 78
     8
170
     0
171
     2
172
     1
173
     0
174
     0
175
     0
176
   256
177
   256
178
     4
  0
DIMSTYLE
  2
AM_JIS$7
 70
     0
  3

  4
"
  5

  6

  7

 40
1.0
 41
2.5
 42
1.0
 43
7.0
 44
1.0
 45
0.0
 46
0.0
 47
0.1
 48
0.1000000001
140
2.5
141
0.0
142
0.0
143
0.0393701
144
1.0
145
0.0
146
0.71
147
1.0
 71
     0
 72
     0
 73
     0
 74
     0
 75
     0
 76
     0
 77
     3
 78
     8
170
     0
171
     2
172
     1
173
     0
174
     0
175
     0
176
   256
177
   256
178
     4
  0
DIMSTYLE
  2
AM_JIS$SF
 70
     0
  3

  4
"
  5

  6

  7

 40
1.0
 41
2.5
 42
1.0
 43
10.0
 44
1.0
 45
0.0
 46
0.0
 47
0.1
 48
0.1
140
3.5
141
0.0
142
0.0
143
0.0393701
144
1.0
145
0.0
146
0.71
147
1.5
 71
     0
 72
     0
 73
     0
 74
     0
 75
     1
 76
     1
 77
     3
 78
     8
170
     0
171
     2
172
     1
173
     0
174
     0
175
     0
176
   256
177
   256
178
     4
  0
DIMSTYLE
  2
AM_JIS$SH
 70
     0
  3

  4
"
  5

  6

  7

 40
1.0
 41
2.5
 42
1.0
 43
10.0
 44
1.0
 45
0.0
 46
0.0
 47
0.1
 48
0.1
140
3.5
141
0.0
142
0.0
143
0.0393701
144
1.0
145
0.0
146
0.71
147
1.5
 71
     0
 72
     0
 73
     0
 74
     0
 75
     1
 76
     0
 77
     3
 78
     8
170
     0
171
     2
172
     1
173
     1
174
     0
175
     0
176
   256
177
   256
178
     4
  0
DIMSTYLE
  2
AM_ANSI
 70
     0
  3

  4
mm
  5

  6

  7

 40
1.0
 41
0.1
 42
0.05
 43
0.5
 44
0.1
 45
0.0
 46
0.0
 47
0.1
 48
0.1
140
0.12
141
0.0
142
0.0
143
25.399999999999999
144
1.0
145
0.0
146
0.71
147
0.06
 71
     0
 72
     0
 73
     1
 74
     1
 75
     0
 76
     0
 77
     0
 78
     7
170
     0
171
     2
172
     0
173
     0
174
     0
175
     0
176
   256
177
   256
178
     2
  0
DIMSTYLE
  2
AM_ANSI$3
 70
     0
  3

  4
mm
  5

  6

  7

 40
1.0
 41
0.1
 42
0.05
 43
0.5
 44
0.1
 45
0.0
 46
0.0
 47
0.1
 48
0.1
140
0.12
141
0.0
142
0.0
143
25.399999999999999
144
1.0
145
0.0
146
0.71
147
0.06
 71
     0
 72
     0
 73
     1
 74
     1
 75
     0
 76
     0
 77
     0
 78
     7
170
     0
171
     2
172
     0
173
     0
174
     0
175
     0
176
   256
177
   256
178
     2
  0
DIMSTYLE
  2
AM_ANSI$4
 70
     0
  3

  4
mm
  5

  6

  7

 40
1.0
 41
0.1
 42
0.05
 43
0.5
 44
0.1
 45
0.0
 46
0.0
 47
0.1
 48
0.1
140
0.12
141
0.0
142
0.0
143
25.399999999999999
144
1.0
145
0.0
146
0.71
147
0.06
 71
     0
 72
     0
 73
     1
 74
     1
 75
     0
 76
     0
 77
     0
 78
     7
170
     0
171
     2
172
     0
173
     0
174
     0
175
     0
176
   256
177
   256
178
     2
  0
DIMSTYLE
  2
AM_ANSI$7
 70
     0
  3

  4
mm
  5

  6

  7

 40
1.0
 41
0.1
 42
0.05
 43
0.5
 44
0.1
 45
0.0
 46
0.0
 47
0.1
 48
0.1
140
0.24
141
0.0
142
0.0
143
25.399999999999999
144
1.0
145
0.0
146
0.71
147
0.06
 71
     0
 72
     0
 73
     1
 74
     1
 75
     0
 76
     0
 77
     0
 78
     7
170
     0
171
     2
172
     0
173
     0
174
     0
175
     0
176
   256
177
   256
178
     2
  0
DIMSTYLE
  2
AM_ANSI$SF
 70
     0
  3

  4
mm
  5

  6

  7

 40
1.0
 41
0.1
 42
0.05
 43
0.5
 44
0.1
 45
0.0
 46
0.0
 47
0.1
 48
0.1
140
0.12
141
0.0
142
0.0
143
25.399999999999999
144
1.0
145
0.0
146
0.71
147
0.06
 71
     0
 72
     0
 73
     1
 74
     1
 75
     1
 76
     1
 77
     0
 78
     7
170
     0
171
     2
172
     0
173
     0
174
     0
175
     0
176
   256
177
   256
178
     2
  0
DIMSTYLE
  2
AM_ANSI$SH
 70
     0
  3

  4
mm
  5

  6

  7

 40
1.0
 41
0.1
 42
0.05
 43
0.5
 44
0.1
 45
0.0
 46
0.0
 47
0.1
 48
0.1
140
0.12
141
0.0
142
0.0
143
25.399999999999999
144
1.0
145
0.0
146
0.71
147
0.06
 71
     0
 72
     0
 73
     1
 74
     1
 75
     1
 76
     1
 77
     0
 78
     7
170
     0
171
     2
172
     0
173
     1
174
     0
175
     0
176
   256
177
   256
178
     2
  0
ENDTAB
  0
ENDSEC
  0
SECTION
  2
BLOCKS
  0
BLOCK
  8
0
  2
$MODEL_SPACE
 70
     0
 10
0.0
 20
0.0
 30
0.0
  3
$MODEL_SPACE
  1

  0
ENDBLK
  5
2E80
  8
0
  0
BLOCK
 67
     1
  8
0
  2
$PAPER_SPACE
 70
     0
 10
0.0
 20
0.0
 30
0.0
  3
$PAPER_SPACE
  1

  0
ENDBLK
  5
2E7C
 67
     1
  8
0
  0
BLOCK
  8
0
  2
GENAXEH
 70
     0
 10
0.0
 20
0.0
 30
0.0
  3
GENAXEH
  1

  0
LINE
  5
2BB7
  8
0
 10
-1.0
 20
0.0
 30
0.0
 11
1.0
 21
0.0
 31
0.0
  0
ENDBLK
  5
2BB8
  8
0
  0
BLOCK
  8
0
  2
_OPEN30
 70
     0
 10
0.0
 20
0.0
 30
0.0
  3
_OPEN30
  1

  0
LINE
  5
2BBB
  8
0
 62
     0
 10
-1.0
 20
0.26794919
 30
0.0
 11
0.0
 21
0.0
 31
0.0
  0
LINE
  5
2BBC
  8
0
 62
     0
 10
0.0
 20
0.0
 30
0.0
 11
-1.0
 21
-0.26794919
 31
0.0
  0
LINE
  5
2BBD
  8
0
 62
     0
 10
0.0
 20
0.0
 30
0.0
 11
-1.0
 21
0.0
 31
0.0
  0
ENDBLK
  5
2BBE
  8
0
  0
BLOCK
  8
0
  2
_NONE
 70
     0
 10
0.0
 20
0.0
 30
0.0
  3
_NONE
  1

  0
ENDBLK
  5
2BC1
  8
0
  0
BLOCK
  8
0
  2
_ACMFILLEDHALF
 70
     0
 10
0.0
 20
0.0
 30
0.0
  3
_ACMFILLEDHALF
  1

  0
TRACE
  5
2F78
  8
AM_0
 62
     0
 10
-0.8
 20
0.0
 30
0.0
 11
-1.0
 21
0.166666666
 31
0.0
 12
0.0
 22
0.0
 32
0.0
 13
0.0
 23
0.0
 33
0.0
  0
LINE
  5
2F79
  8
AM_0
 62
     0
 10
-1.0
 20
0.0
 30
0.0
 11
-0.8
 21
0.0
 31
0.0
  0
ENDBLK
  5
2F77
  8
0
  0
ENDSEC
  0
SECTION
  2
ENTITIES
  0
LINE
  5
2BC2
  8
ﾁｭｳｼﾝｾﾝ
 10
245.45197802472919
 20
319.38653200465478
 30
0.0
 11
461.48055161717519
 21
319.38653200465478
 31
0.0
  0
ARC
  5
2BC3
  8
AM_0
 10
385.70133161717558
 20
363.38657200465491
 30
0.0
 40
4.000000199999997
 50
0.0
 51
90.000003000000007
  0
LINE
  5
2BC4
  8
AM_0
 10
360.70131161717558
 20
179.38655800465469
 30
0.0
 11
396.70131161717552
 21
179.38655800465469
 31
0.0
  0
LINE
  5
2BC5
  8
AM_0
 10
363.70131161717552
 20
197.3865580046548
 30
0.0
 11
394.70133161717553
 21
197.3865580046548
 31
0.0
  0
LINE
  5
2BC6
  8
AM_0
 10
283.70133161717558
 20
390.88658200465483
 30
0.0
 11
283.70133161717558
 21
234.88657300465479
 31
0.0
  0
LINE
  5
2BC7
  8
AM_0
 10
95.701331617175583
 20
277.5581488799084
 30
0.0
 11
95.701331617175583
 21
249.2150031294008
 31
0.0
  0
LINE
  5
2BC8
  8
AM_0
 10
143.20133161717541
 20
318.62519735868949
 30
0.0
 11
143.20133161717641
 21
208.14795465061971
 31
0.0
  0
LINE
  5
2BC9
  8
AM_0
 10
118.2013316171754
 20
288.38657600465461
 30
0.0
 11
118.2013316171754
 21
238.3865760046545
 31
0.0
  0
LINE
  5
2BCA
  8
AM_0
 10
97.701331617175356
 20
240.3865760046547
 30
0.0
 11
97.701331617175583
 21
286.38657600465478
 31
0.0
  0
LINE
  5
2BCB
  8
AM_0
 10
348.70131161717552
 20
212.38657300465471
 30
0.0
 11
348.70131161717552
 21
350.82929200465492
 31
0.0
  0
LINE
  5
2BCC
  8
AM_0
 10
368.70135161717542
 20
219.84429100465471
 30
0.0
 11
368.70135161717542
 21
380.86751200465483
 31
0.0
  0
LINE
  5
2BCD
  8
AM_0
 10
287.70135161717542
 20
248.01097900465481
 30
0.0
 11
287.70135161717542
 21
306.03431200465462
 31
0.0
  0
LINE
  5
2BCE
  8
AM_0
 10
261.70134161717539
 20
382.41062200465478
 30
0.0
 11
261.70134161717539
 21
200.36311900465489
 31
0.0
  0
LINE
  5
2BCF
  8
AM_0
 10
273.70134161717539
 20
229.52718400465471
 30
0.0
 11
273.70134161717539
 21
355.71866200465479
 31
0.0
  0
LINE
  5
2BD0
  8
AM_0
 10
217.20135161717531
 20
220.27408600465489
 30
0.0
 11
217.20135161717531
 21
360.95249200465491
 31
0.0
  0
LINE
  5
2BD1
  8
AM_0
 10
227.20134161717539
 20
217.3865590046548
 30
0.0
 11
227.20134161717539
 21
365.38658200465483
 31
0.0
  0
LINE
  5
2BD2
  8
AM_0
 10
153.2013316171755
 20
206.8865590046548
 30
0.0
 11
153.2013316171755
 21
319.88657200465491
 31
0.0
  0
LINE
  5
2BD3
  8
AM_0
 10
192.3528916171756
 20
296.19236200465491
 30
0.0
 11
217.20135161717531
 21
251.81957200465479
 31
0.0
  0
LINE
  5
2BD4
  8
ﾁｭｳｼﾝｾﾝ
 10
265.68550709013277
 20
263.38657600465478
 30
0.0
 11
63.264193572287681
 21
263.38657600465478
 31
0.0
  0
ARC
  5
2BD5
  8
AM_0
 10
114.0591959934445
 20
228.3865760046547
 30
0.0
 40
10.0
 50
45.0
 51
90.0
1001
GENIUS_GENOBJ-N-FIL_13
1002
{
1000
OWNER
1000
GEN
1002
}
1001
GENIUS_GENODEF_13
1002
{
1000
HIER
1070
     0
1002
}
1002
{
1000
MANEDIT
1070
     0
1002
}
1002
{
1000
NOSEL
1070
     0
1002
}
1002
{
1000
BEHIND
1070
     0
1002
}
1002
{
1000
OTHER
1070
     0
1002
}
1002
{
1000
REACTOR
1002
}
  0
LINE
  5
2BD6
  8
AM_0
 10
68.701331617175583
 20
269.38657600465478
 30
0.0
 11
93.701331617175583
 21
269.38657600465478
 31
0.0
  0
LINE
  5
2BD7
  8
AM_0
 10
68.701331617175583
 20
257.38657600465473
 30
0.0
 11
93.701331617175583
 21
257.38657600465473
 31
0.0
  0
LINE
  5
2BD8
  8
AM_0
 10
68.701331617175583
 20
270.88657600465473
 30
0.0
 11
86.701331617175583
 21
270.88657600465473
 31
0.0
  0
LINE
  5
2BD9
  8
AM_0
 10
68.701331617175583
 20
270.88657600465473
 30
0.0
 11
68.701331617175583
 21
257.38657600465473
 31
0.0
  0
LINE
  5
2BDA
  8
AM_0
 10
86.701331617175583
 20
270.88657600465473
 30
0.0
 11
86.701331617175583
 21
269.38657600465478
 31
0.0
  0
LINE
  5
2BDB
  8
AM_0
 10
99.701331617175583
 20
238.38657600465481
 30
0.0
 11
114.0591959934445
 21
238.3865760046547
 31
0.0
  0
ARC
  5
2BDC
  8
AM_0
 10
99.701331617175583
 20
240.38657600465481
 30
0.0
 40
2.0
 50
180.0
 51
270.0
1001
GENIUS_GENODEF_13
1002
{
1000
HIER
1070
     0
1002
}
1002
{
1000
MANEDIT
1070
     0
1002
}
1002
{
1000
NOSEL
1070
     0
1002
}
1002
{
1000
BEHIND
1070
     0
1002
}
1002
{
1000
OTHER
1070
     0
1002
}
1002
{
1000
REACTOR
1002
}
1001
GENIUS_GENOBJ-N-FIL_13
1002
{
1000
OWNER
1000
GEN
1002
}
  0
ARC
  5
2BDD
  8
AM_0
 10
97.701331617175583
 20
249.2150031294008
 30
0.0
 40
2.0
 50
180.0
 51
225.0000000000006
1001
GENIUS_GENODEF_13
1002
{
1000
HIER
1070
     0
1002
}
1002
{
1000
MANEDIT
1070
     0
1002
}
1002
{
1000
NOSEL
1070
     0
1002
}
1002
{
1000
BEHIND
1070
     0
1002
}
1002
{
1000
OTHER
1070
     0
1002
}
1002
{
1000
REACTOR
1002
}
1001
GENIUS_GENOBJ-N-FIL_13
1002
{
1000
OWNER
1000
GEN
1002
}
  0
ARC
  5
2BDE
  8
AM_0
 10
95.701331617175583
 20
245.5581488799084
 30
0.0
 40
2.0
 50
0.0
 51
45.000000000000568
1001
GENIUS_GENODEF_13
1002
{
1000
HIER
1070
     0
1002
}
1002
{
1000
MANEDIT
1070
     0
1002
}
1002
{
1000
NOSEL
1070
     0
1002
}
1002
{
1000
BEHIND
1070
     0
1002
}
1002
{
1000
OTHER
1070
     0
1002
}
1002
{
1000
REACTOR
1002
}
1001
GENIUS_GENOBJ-N-FIL_13
1002
{
1000
OWNER
1000
GEN
1002
}
  0
LINE
  5
2BDF
  8
AM_0
 10
96.287118054802477
 20
247.80078956702781
 30
0.0
 11
97.11554517954869
 21
246.97236244228159
 31
0.0
  0
LINE
  5
2BE0
  8
AM_0
 10
93.701331617175583
 20
270.88657600465473
 30
0.0
 11
93.701331617175583
 21
255.8865683752602
 31
0.0
  0
LINE
  5
2BE1
  8
AM_0
 10
93.701331617175583
 20
255.8865683752602
 30
0.0
 11
95.701331617175583
 21
255.8865683752602
 31
0.0
  0
LINE
  5
2BE2
  8
AM_0
 10
93.701331617175583
 20
270.88657600465473
 30
0.0
 11
95.701331617175583
 21
270.88657600465473
 31
0.0
  0
LINE
  5
2BE3
  8
AM_0
 10
235.70133161717541
 20
179.38655800465469
 30
0.0
 11
271.70133161717558
 21
179.38655800465469
 31
0.0
  0
LINE
  5
2BE4
  8
AM_0
 10
227.20134161717539
 20
217.88657200465479
 30
0.0
 11
259.27116161717538
 21
216.76666900465469
 31
0.0
  0
LINE
  5
2BE5
  8
AM_0
 10
217.20135161717531
 20
251.91190300465479
 30
0.0
 11
261.70134161717539
 21
251.91190300465479
 31
0.0
  0
LINE
  5
2BE6
  8
AM_0
 10
217.20135161717531
 20
229.80793000465479
 30
0.0
 11
261.70134161717539
 21
229.80793000465479
 31
0.0
  0
LINE
  5
2BE7
  8
AM_0
 10
237.70134161717539
 20
197.3865580046548
 30
0.0
 11
268.78155161717558
 21
197.3865580046548
 31
0.0
  0
LINE
  5
2BE8
  8
ｶｸﾚｾﾝ2
 10
246.20133161717541
 20
197.3865580046548
 30
0.0
 11
246.20133161717541
 21
179.38655800465469
 31
0.0
  0
LINE
  5
2BE9
  8
ﾁｭｳｼﾝｾﾝ1
 10
253.70133161717581
 20
176.05524400465481
 30
0.0
 11
253.70133161717541
 21
202.3984450046548
 31
0.0
  0
LINE
  5
2BEA
  8
AM_0
 10
235.70133161717541
 20
179.38655800465469
 30
0.0
 11
235.70133161717541
 21
195.3865570046548
 31
0.0
  0
LINE
  5
2BEB
  8
AM_0
 10
178.20135161717539
 20
246.89103100465479
 30
0.0
 11
217.20135161717531
 21
246.89103100465479
 31
0.0
  0
LINE
  5
2BEC
  8
AM_0
 10
177.34092161717541
 20
222.76436500465479
 30
0.0
 11
214.4888116171754
 21
221.46712600465469
 31
0.0
  0
LINE
  5
2BED
  8
AM_0
 10
141.73686552310841
 20
214.85104209872199
 30
0.0
 11
121.13026380530999
 21
235.4576438165202
 31
0.0
  0
LINE
  5
2BEE
  8
AM_0
 10
173.20134161717539
 20
241.89104500465481
 30
0.0
 11
173.20134161717539
 21
211.44774700465479
 31
0.0
  0
LINE
  5
2BEF
  8
AM_0
 10
153.2013316171755
 20
217.3865590046548
 30
0.0
 11
173.20134161717539
 21
217.3865590046548
 31
0.0
  0
LINE
  5
2BF0
  8
AM_0
 10
153.2013316171755
 20
230.58072700465479
 30
0.0
 11
173.20134161717539
 21
230.58072700465479
 31
0.0
  0
LINE
  5
2BF1
  8
AM_0
 10
153.2013316171755
 20
206.8865590046548
 30
0.0
 11
169.34091161717561
 21
207.45017200465469
 31
0.0
  0
ARC
  5
2BF2
  8
AM_0
 10
138.20133161717541
 20
211.3155081927892
 30
0.0
 40
5.0
 50
0.0
 51
45.0
1001
GENIUS_GENODEF_13
1002
{
1000
HIER
1070
     0
1002
}
1002
{
1000
MANEDIT
1070
     0
1002
}
1002
{
1000
NOSEL
1070
     0
1002
}
1002
{
1000
BEHIND
1070
     0
1002
}
1002
{
1000
OTHER
1070
     0
1002
}
1002
{
1000
REACTOR
1002
}
1001
GENIUS_GENOBJ-N-FIL_13
1002
{
1000
OWNER
1000
GEN
1002
}
  0
LINE
  5
2BF3
  8
AM_0
 10
144.1723484238922
 20
207.14837475160871
 30
0.0
 11
153.2013316171755
 21
206.88657600465481
 31
0.0
  0
ARC
  5
2BF4
  8
AM_0
 10
144.20133161717541
 20
208.14795465061971
 30
0.0
 40
1.0
 50
180.0
 51
268.33915276702578
1001
GENIUS_GENOBJ-N-FIL_13
1002
{
1000
OWNER
1000
GEN
1002
}
1001
GENIUS_GENODEF_13
1002
{
1000
HIER
1070
     0
1002
}
1002
{
1000
MANEDIT
1070
     0
1002
}
1002
{
1000
NOSEL
1070
     0
1002
}
1002
{
1000
BEHIND
1070
     0
1002
}
1002
{
1000
OTHER
1070
     0
1002
}
1002
{
1000
REACTOR
1002
}
  0
ARC
  5
2BF5
  8
AM_0
 10
169.2013516171755
 20
211.44774700465479
 30
0.0
 40
4.000000199999997
 50
272.0
 51
0.0
  0
ARC
  5
2BF6
  8
AM_0
 10
177.20133161717541
 20
218.76680800465479
 30
0.0
 40
4.000000199999997
 50
88.0
 51
180.00001
  0
POINT
  5
2BF7
  8
AM_0
 10
153.2013316171755
 20
263.38657600465478
 30
0.0
  0
ARC
  5
2BF8
  8
AM_0
 10
178.20135161717539
 20
241.89104500465481
 30
0.0
 40
5.0000001000000003
 50
90.000003000000007
 51
180.00001
  0
ARC
  5
2BF9
  8
AM_0
 10
221.20134161717539
 20
221.5985320046548
 30
0.0
 40
4.000000199999997
 50
211.07233999999991
 51
268.0
  0
ARC
  5
2BFA
  8
AM_0
 10
214.34922161717569
 20
217.46958100465471
 30
0.0
 40
4.000000199999997
 50
31.072340999999991
 51
88.0
  0
ARC
  5
2BFB
  8
AM_0
 10
237.70134161717539
 20
195.3865570046548
 30
0.0
 40
2.00000007
 50
90.000003000000007
 51
180.00001
  0
LINE
  5
2BFC
  8
AM_0
 10
221.06175161717539
 20
217.60096000465481
 30
0.0
 11
227.20134161717539
 21
217.38657400465479
 31
0.0
  0
LINE
  5
2BFD
  8
ｶｸﾚｾﾝ2
 10
386.20131161717552
 20
197.3865580046548
 30
0.0
 11
386.20131161717552
 21
179.38655800465469
 31
0.0
  0
LINE
  5
2BFE
  8
ｶｸﾚｾﾝ2
 10
371.20131161717552
 20
197.3865580046548
 30
0.0
 11
371.20131161717552
 21
179.38655800465469
 31
0.0
  0
LINE
  5
2BFF
  8
ｶｸﾚｾﾝ2
 10
261.20133161717558
 20
197.3865580046548
 30
0.0
 11
261.20133161717558
 21
179.38655800465469
 31
0.0
  0
LINE
  5
2C00
  8
ﾁｭｳｼﾝｾﾝ1
 10
378.70131161717552
 20
176.05524400465481
 30
0.0
 11
378.70131161717552
 21
202.3984450046548
 31
0.0
  0
LINE
  5
2C01
  8
AM_0
 10
273.70134161717539
 20
181.38655600465469
 30
0.0
 11
358.70133161717558
 21
181.38655600465469
 31
0.0
  0
ARC
  5
2C02
  8
AM_0
 10
273.70134161717539
 20
179.38655800465469
 30
0.0
 40
2.00000007
 50
90.000003000000007
 51
180.00001
  0
ARC
  5
2C03
  8
AM_0
 10
358.70133161717558
 20
179.38655800465469
 30
0.0
 40
2.00000007
 50
0.0
 51
90.000003000000007
  0
LINE
  5
2C04
  8
AM_0
 10
360.70131161717558
 20
179.38655800465469
 30
0.0
 11
360.70131161717558
 21
179.38655800465469
 31
0.0
  0
LINE
  5
2C05
  8
AM_0
 10
272.59122161717551
 20
200.16744100465479
 30
0.0
 11
287.51109161717562
 21
246.7918330046549
 31
0.0
  0
ARC
  5
2C06
  8
AM_0
 10
263.70135161717542
 20
212.96877100465471
 30
0.0
 40
2.00000007
 50
179.99998999999991
 51
270.0
  0
LINE
  5
2C07
  8
AM_0
 10
263.70135161717542
 20
210.96878800465481
 30
0.0
 11
271.70133161717558
 21
210.96878800465481
 31
0.0
  0
ARC
  5
2C08
  8
AM_0
 10
268.78155161717558
 20
201.3865570046548
 30
0.0
 40
4.000000199999997
 50
270.0
 51
342.2553299999999
  0
ARC
  5
2C09
  8
AM_0
 10
264.7013416171755
 20
200.36311900465489
 30
0.0
 40
3.0
 50
179.99998999999991
 51
268.00000999999992
  0
LINE
  5
2C0A
  8
AM_0
 10
273.70134161717539
 20
203.63657200465491
 30
0.0
 11
273.70134161717539
 21
208.96878700465481
 31
0.0
  0
ARC
  5
2C0B
  8
AM_0
 10
271.70133161717558
 20
208.96878700465481
 30
0.0
 40
2.00000007
 50
0.0
 51
90.000003000000007
  0
LINE
  5
2C0C
  8
AM_0
 10
263.70135161717542
 20
231.64388200465481
 30
0.0
 11
271.70133161717558
 21
231.64388200465481
 31
0.0
  0
ARC
  5
2C0D
  8
AM_0
 10
258.7013416171755
 20
213.78473500465481
 30
0.0
 40
3.0
 50
0.0
 51
88.0
  0
ARC
  5
2C0E
  8
AM_0
 10
263.70135161717542
 20
233.6438980046548
 30
0.0
 40
2.00000007
 50
179.99998999999991
 51
270.0
  0
LINE
  5
2C0F
  8
AM_0
 10
273.70134161717539
 20
227.52719800465471
 30
0.0
 11
281.3463616171756
 21
227.52719800465471
 31
0.0
  0
ARC
  5
2C10
  8
AM_0
 10
271.70133161717558
 20
233.6438980046548
 30
0.0
 40
2.00000007
 50
270.0
 51
0.0
  0
ARC
  5
2C11
  8
AM_0
 10
271.70133161717558
 20
229.52718400465471
 30
0.0
 40
2.00000007
 50
270.0
 51
0.0
  0
ARC
  5
2C12
  8
AM_0
 10
283.70133161717558
 20
248.01097900465481
 30
0.0
 40
4.000000199999997
 50
342.2553299999999
 51
0.0
  0
ARC
  5
2C13
  8
AM_0
 10
363.70131161717552
 20
212.38657300465471
 30
0.0
 40
15.00000029999998
 50
179.99998999999991
 51
270.0
  0
LINE
  5
2C14
  8
AM_0
 10
353.7763216171756
 20
211.84430500465481
 30
0.0
 11
360.70131161717558
 21
211.84430500465481
 31
0.0
  0
ARC
  5
2C15
  8
AM_0
 10
360.70131161717558
 20
219.84429100465471
 30
0.0
 40
8.0000000999999976
 50
270.0
 51
0.0
  0
ARC
  5
2C16
  8
AM_0
 10
114.0591959934445
 20
298.38657600465473
 30
0.0
 40
10.0
 50
270.0
 51
315.0
1001
GENIUS_GENODEF_13
1002
{
1000
HIER
1070
     0
1002
}
1002
{
1000
MANEDIT
1070
     0
1002
}
1002
{
1000
NOSEL
1070
     0
1002
}
1002
{
1000
BEHIND
1070
     0
1002
}
1002
{
1000
OTHER
1070
     0
1002
}
1002
{
1000
REACTOR
1002
}
1001
GENIUS_GENOBJ-N-FIL_13
1002
{
1000
OWNER
1000
GEN
1002
}
  0
LINE
  5
2C17
  8
AM_0
 10
99.701331617175583
 20
288.38657600465478
 30
0.0
 11
114.0591959934445
 21
288.38657600465473
 31
0.0
  0
ARC
  5
2C18
  8
AM_0
 10
99.701331617175583
 20
286.38657600465478
 30
0.0
 40
2.0
 50
90.0
 51
180.0
1001
GENIUS_GENODEF_13
1002
{
1000
HIER
1070
     0
1002
}
1002
{
1000
MANEDIT
1070
     0
1002
}
1002
{
1000
NOSEL
1070
     0
1002
}
1002
{
1000
BEHIND
1070
     0
1002
}
1002
{
1000
OTHER
1070
     0
1002
}
1002
{
1000
REACTOR
1002
}
1001
GENIUS_GENOBJ-N-FIL_13
1002
{
1000
OWNER
1000
GEN
1002
}
  0
ARC
  5
2C19
  8
AM_0
 10
97.701331617175583
 20
277.5581488799084
 30
0.0
 40
2.0
 50
134.9999999999994
 51
180.0
1001
GENIUS_GENODEF_13
1002
{
1000
HIER
1070
     0
1002
}
1002
{
1000
MANEDIT
1070
     0
1002
}
1002
{
1000
NOSEL
1070
     0
1002
}
1002
{
1000
BEHIND
1070
     0
1002
}
1002
{
1000
OTHER
1070
     0
1002
}
1002
{
1000
REACTOR
1002
}
1001
GENIUS_GENOBJ-N-FIL_13
1002
{
1000
OWNER
1000
GEN
1002
}
  0
LINE
  5
2C1A
  8
AM_0
 10
96.287118054802477
 20
278.97236244228162
 30
0.0
 11
97.11554517954869
 21
279.80078956702772
 31
0.0
  0
ARC
  5
2C1B
  8
AM_0
 10
95.701331617175583
 20
281.21500312940088
 30
0.0
 40
2.0
 50
314.99999999999932
 51
0.0
1001
GENIUS_GENODEF_13
1002
{
1000
HIER
1070
     0
1002
}
1002
{
1000
MANEDIT
1070
     0
1002
}
1002
{
1000
NOSEL
1070
     0
1002
}
1002
{
1000
BEHIND
1070
     0
1002
}
1002
{
1000
OTHER
1070
     0
1002
}
1002
{
1000
REACTOR
1002
}
1001
GENIUS_GENOBJ-N-FIL_13
1002
{
1000
OWNER
1000
GEN
1002
}
  0
LINE
  5
2C1C
  8
AM_0
 10
217.20135161717531
 20
330.8612620046548
 30
0.0
 11
261.70134161717539
 21
330.8612620046548
 31
0.0
  0
LINE
  5
2C1D
  8
AM_0
 10
217.20135161717531
 20
352.96523200465469
 30
0.0
 11
261.70134161717539
 21
352.96523200465469
 31
0.0
  0
LINE
  5
2C1E
  8
AM_0
 10
227.20134161717539
 20
364.88654200465493
 30
0.0
 11
258.80607161717569
 21
365.99021200465478
 31
0.0
  0
ARC
  5
2C1F
  8
AM_0
 10
221.20134161717539
 20
361.17461200465482
 30
0.0
 40
4.000000199999997
 50
91.999997999999948
 51
180.93198000000001
  0
LINE
  5
2C20
  8
AM_0
 10
179.7020116171756
 20
321.88721200465483
 30
0.0
 11
214.61814161717561
 21
356.8033120046548
 31
0.0
  0
LINE
  5
2C21
  8
AM_0
 10
179.09661161717571
 20
354.48767200465483
 30
0.0
 11
211.92930161717541
 21
355.63424200465482
 31
0.0
  0
LINE
  5
2C22
  8
AM_0
 10
153.2013316171755
 20
296.19239200465478
 30
0.0
 11
192.3528916171756
 21
296.19239200465478
 31
0.0
  0
LINE
  5
2C23
  8
AM_0
 10
153.2013316171755
 20
309.38657500465479
 30
0.0
 11
198.3044116171753
 21
309.38657500465479
 31
0.0
  0
ARC
  5
2C24
  8
AM_0
 10
176.8735816171756
 20
324.7156420046548
 30
0.0
 40
4.000000199999997
 50
272.0
 51
315.0
  0
ARC
  5
2C25
  8
AM_0
 10
171.24198161717541
 20
324.51899200465482
 30
0.0
 40
4.000000199999997
 50
272.0
 51
309.62979000000001
  0
LINE
  5
2C26
  8
AM_0
 10
153.2013316171755
 20
319.88657200465491
 30
0.0
 11
171.38157161717561
 21
320.52143200465491
 31
0.0
  0
LINE
  5
2C27
  8
AM_0
 10
141.73686552310841
 20
311.92210991058749
 30
0.0
 11
121.13026380530999
 21
291.3155081927892
 31
0.0
  0
LINE
  5
2C28
  8
AM_0
 10
144.1723484238922
 20
319.62477725770083
 30
0.0
 11
153.2013316171755
 21
319.88657600465473
 31
0.0
  0
ARC
  5
2C29
  8
AM_0
 10
144.20133161717541
 20
318.62519735868949
 30
0.0
 40
1.0
 50
91.660847232974106
 51
180.0
1001
GENIUS_GENOBJ-N-FIL_13
1002
{
1000
OWNER
1000
GEN
1002
}
1001
GENIUS_GENODEF_13
1002
{
1000
HIER
1070
     0
1002
}
1002
{
1000
MANEDIT
1070
     0
1002
}
1002
{
1000
NOSEL
1070
     0
1002
}
1002
{
1000
BEHIND
1070
     0
1002
}
1002
{
1000
OTHER
1070
     0
1002
}
1002
{
1000
REACTOR
1002
}
  0
ARC
  5
2C2A
  8
AM_0
 10
138.20133161717541
 20
315.45764381652009
 30
0.0
 40
5.0
 50
315.0
 51
0.0
1001
GENIUS_GENODEF_13
1002
{
1000
HIER
1070
     0
1002
}
1002
{
1000
MANEDIT
1070
     0
1002
}
1002
{
1000
NOSEL
1070
     0
1002
}
1002
{
1000
BEHIND
1070
     0
1002
}
1002
{
1000
OTHER
1070
     0
1002
}
1002
{
1000
REACTOR
1002
}
1001
GENIUS_GENOBJ-N-FIL_13
1002
{
1000
OWNER
1000
GEN
1002
}
  0
LINE
  5
2C2B
  8
AM_0
 10
178.58787161717549
 20
320.77304200465483
 30
0.0
 11
184.9642216171755
 21
309.38657500465479
 31
0.0
  0
LINE
  5
2C2C
  8
AM_0
 10
171.38157161717561
 20
320.52143200465491
 30
0.0
 11
177.01317161717549
 21
320.71808200465472
 31
0.0
  0
LINE
  5
2C2D
  8
AM_0
 10
176.20134161717539
 20
351.48950200465481
 30
0.0
 11
176.20134161717539
 21
324.84323200465479
 31
0.0
  0
ARC
  5
2C2E
  8
AM_0
 10
173.20134161717539
 20
324.84323200465479
 30
0.0
 40
3.0
 50
309.62979000000001
 51
0.0
  0
LINE
  5
2C2F
  8
AM_0
 10
175.1148016171756
 20
322.53263200465477
 30
0.0
 11
173.7933316171756
 21
321.43820200465478
 31
0.0
  0
ARC
  5
2C30
  8
AM_0
 10
179.20134161717539
 20
351.48950200465481
 30
0.0
 40
3.0
 50
91.999997999999948
 51
180.00001
  0
LINE
  5
2C31
  8
AM_0
 10
192.3528916171756
 20
296.19239200465478
 30
0.0
 11
200.42571161717561
 21
304.2652390046548
 31
0.0
  0
ARC
  5
2C32
  8
AM_0
 10
198.3044116171753
 20
306.3865750046549
 30
0.0
 40
3.0
 50
315.0
 51
90.000003000000007
  0
ARC
  5
2C33
  8
AM_0
 10
211.78971161717561
 20
359.63177200465492
 30
0.0
 40
4.000000199999997
 50
272.0
 51
315.0
  0
ARC
  5
2C34
  8
AM_0
 10
213.20244161717559
 20
361.04447200465478
 30
0.0
 40
4.000000199999997
 50
315.0
 51
0.9319899799999999
  0
LINE
  5
2C35
  8
AM_0
 10
214.61814161717561
 20
356.8033120046548
 30
0.0
 11
216.03087161717559
 21
358.21601200465477
 31
0.0
  0
LINE
  5
2C36
  8
AM_0
 10
221.06169161717571
 20
365.17217200465478
 30
0.0
 11
227.20134161717539
 21
365.3865520046549
 31
0.0
  0
POLYLINE
  5
2C37
  8
AM_0
 66
     1
 10
0.0
 20
0.0
 30
0.0
  0
VERTEX
  5
2C38
  8
AM_0
  6
CONTINUOUS
 10
311.47053161717571
 20
346.85888200465479
 30
0.0
 42
0.038759451
  0
VERTEX
  5
2C39
  8
AM_0
  6
CONTINUOUS
 10
314.2183516171753
 20
349.76975200465478
 30
0.0
 42
0.045306413
  0
VERTEX
  5
2C3A
  8
AM_0
  6
CONTINUOUS
 10
316.44054161717543
 20
353.09747200465478
 30
0.0
 42
0.052171431
  0
VERTEX
  5
2C3B
  8
AM_0
  6
CONTINUOUS
 10
317.97723161717568
 20
356.79527200465492
 30
0.0
 42
0.057266618
  0
VERTEX
  5
2C3C
  8
AM_0
  6
CONTINUOUS
 10
318.6714916171756
 20
360.73403200465492
 30
0.0
 42
0.058402263
  0
VERTEX
  5
2C3D
  8
AM_0
  6
CONTINUOUS
 10
318.44073161717529
 20
364.72223200465493
 30
0.0
 42
0.055045302
  0
VERTEX
  5
2C3E
  8
AM_0
  6
CONTINUOUS
 10
317.31522161717561
 20
368.55737200465478
 30
0.0
 42
0.048778173
  0
VERTEX
  5
2C3F
  8
AM_0
  6
CONTINUOUS
 10
315.42237161717571
 20
372.07790200465462
 30
0.0
 42
0.041944207
  0
VERTEX
  5
2C40
  8
AM_0
  6
CONTINUOUS
 10
312.92484161717562
 20
375.20093200465487
 30
0.0
 42
0.035908261
  0
VERTEX
  5
2C41
  8
AM_0
  6
CONTINUOUS
 10
309.97227161717558
 20
377.90171200465483
 30
0.0
 42
0.031063208
  0
VERTEX
  5
2C42
  8
AM_0
  6
CONTINUOUS
 10
306.68556161717561
 20
380.18567200465492
 30
0.0
 42
0.027381869
  0
VERTEX
  5
2C43
  8
AM_0
  6
CONTINUOUS
 10
303.15366161717571
 20
382.07279200465479
 30
0.0
 42
0.024647405
  0
VERTEX
  5
2C44
  8
AM_0
  6
CONTINUOUS
 10
299.44464161717559
 20
383.58392200465482
 30
0.0
 42
0.022677562
  0
VERTEX
  5
2C45
  8
AM_0
  6
CONTINUOUS
 10
295.60926161717572
 20
384.73859200465478
 30
0.0
 42
0.021321502
  0
VERTEX
  5
2C46
  8
AM_0
  6
CONTINUOUS
 10
291.68685161717559
 20
385.55240200465482
 30
0.0
 42
0.020471074
  0
VERTEX
  5
2C47
  8
AM_0
  6
CONTINUOUS
 10
287.70996161717562
 20
386.03648200465477
 30
0.0
 42
0.020088488
  0
VERTEX
  5
2C48
  8
AM_0
  6
CONTINUOUS
 10
283.70136161717562
 20
386.19740200465452
 30
0.0
  0
SEQEND
  5
2C49
  8
AM_0
  0
POLYLINE
  5
2C4A
  8
AM_0
 66
     1
 10
0.0
 20
0.0
 30
0.0
  0
VERTEX
  5
2C4B
  8
AM_0
  6
CONTINUOUS
 10
317.1579916171757
 20
364.02797200465483
 30
0.0
 42
0.046334034
  0
VERTEX
  5
2C4C
  8
AM_0
  6
CONTINUOUS
 10
315.30618161717558
 20
365.08559200465493
 30
0.0
 42
0.024113349
  0
VERTEX
  5
2C4D
  8
AM_0
  6
CONTINUOUS
 10
313.32672161717562
 20
365.88545200465478
 30
0.0
 42
0.015482213
  0
VERTEX
  5
2C4E
  8
AM_0
  6
CONTINUOUS
 10
311.28978161717572
 20
366.5301220046548
 30
0.0
 42
0.011170747
  0
VERTEX
  5
2C4F
  8
AM_0
  6
CONTINUOUS
 10
309.22203161717562
 20
367.06661200465493
 30
0.0
 42
0.0086851837
  0
VERTEX
  5
2C50
  8
AM_0
  6
CONTINUOUS
 10
307.13445161717573
 20
367.5212920046547
 30
0.0
 42
0.0071112966
  0
VERTEX
  5
2C51
  8
AM_0
  6
CONTINUOUS
 10
305.0327716171754
 20
367.91030200465462
 30
0.0
 42
0.0060487861
  0
VERTEX
  5
2C52
  8
AM_0
  6
CONTINUOUS
 10
302.92005161717532
 20
368.24432200465492
 30
0.0
 42
0.0052886795
  0
VERTEX
  5
2C53
  8
AM_0
  6
CONTINUOUS
 10
300.80268161717549
 20
368.53016200465493
 30
0.0
 42
0.004745088
  0
VERTEX
  5
2C54
  8
AM_0
  6
CONTINUOUS
 10
298.6776016171757
 20
368.77385200465483
 30
0.0
 42
0.0043374779
  0
VERTEX
  5
2C55
  8
AM_0
  6
CONTINUOUS
 10
296.54790161717568
 20
368.9789920046548
 30
0.0
 42
0.0040309373
  0
VERTEX
  5
2C56
  8
AM_0
  6
CONTINUOUS
 10
294.41511161717563
 20
369.14849200465483
 30
0.0
 42
0.0038017218
  0
VERTEX
  5
2C57
  8
AM_0
  6
CONTINUOUS
 10
292.27989161717551
 20
369.28460200465491
 30
0.0
 42
0.0036333144
  0
VERTEX
  5
2C58
  8
AM_0
  6
CONTINUOUS
 10
290.14281161717548
 20
369.3890020046548
 30
0.0
 42
0.0035147919
  0
VERTEX
  5
2C59
  8
AM_0
  6
CONTINUOUS
 10
288.00441161717561
 20
369.46286200465482
 30
0.0
 42
0.003439074
  0
VERTEX
  5
2C5A
  8
AM_0
  6
CONTINUOUS
 10
285.86520161717561
 20
369.50699200465482
 30
0.0
 42
0.0034021156
  0
VERTEX
  5
2C5B
  8
AM_0
  6
CONTINUOUS
 10
283.72548161717572
 20
369.52187200465482
 30
0.0
  0
SEQEND
  5
2C5C
  8
AM_0
  0
LINE
  5
2C5D
  8
AM_0
 10
283.70133161717558
 20
306.03431200465462
 30
0.0
 11
287.70135161717542
 21
306.03431200465462
 31
0.0
  0
LINE
  5
2C5E
  8
AM_0
 10
283.70133161717558
 20
321.57188200465481
 30
0.0
 11
311.46999161717571
 21
346.85837200465483
 31
0.0
  0
LINE
  5
2C5F
  8
AM_0
 10
283.70133161717558
 20
321.57188200465481
 30
0.0
 11
283.70292161717572
 21
321.57188200465481
 31
0.0
  0
LINE
  5
2C60
  8
AM_0
 10
263.70135161717542
 20
357.71867200465482
 30
0.0
 11
271.70133161717558
 21
357.71867200465482
 31
0.0
  0
LINE
  5
2C61
  8
AM_0
 10
263.17986161717562
 20
348.76925200465479
 30
0.0
 11
272.1304216171755
 21
348.76925200465479
 31
0.0
  0
ARC
  5
2C62
  8
AM_0
 10
263.70135161717542
 20
359.71865200465493
 30
0.0
 40
2.00000007
 50
179.99998999999991
 51
270.0
  0
ARC
  5
2C63
  8
AM_0
 10
271.70133161717558
 20
355.71866200465479
 30
0.0
 40
2.00000007
 50
0.0
 51
90.000003000000007
  0
ARC
  5
2C64
  8
AM_0
 10
356.70135161717548
 20
350.82929200465492
 30
0.0
 40
8.0000000999999976
 50
90.000003000000007
 51
180.00001
  0
LINE
  5
2C65
  8
AM_0
 10
356.70135161717548
 20
358.82930200465478
 30
0.0
 11
365.10084161717538
 21
358.82930200465478
 31
0.0
  0
LINE
  5
2C66
  8
AM_0
 10
283.70133161717558
 20
390.88658200465483
 30
0.0
 11
360.91077161717561
 21
388.86479200465487
 31
0.0
  0
LINE
  5
2C67
  8
AM_0
 10
273.70134161717539
 20
376.68923200465491
 30
0.0
 11
273.70134161717539
 21
388.60598200465478
 31
0.0
  0
ARC
  5
2C68
  8
AM_0
 10
271.70133161717558
 20
387.65813200465487
 30
0.0
 40
2.00000007
 50
272.0
 51
0.0
  0
ARC
  5
2C69
  8
AM_0
 10
264.7013416171755
 20
382.41062200465478
 30
0.0
 40
3.0
 50
91.999997999999948
 51
180.00001
  0
LINE
  5
2C6A
  8
AM_0
 10
264.59667161717562
 20
385.40876200465482
 30
0.0
 11
271.77117161717558
 21
385.65932200465483
 31
0.0
  0
LINE
  5
2C6B
  8
AM_0
 10
263.70135161717542
 20
374.68922200465482
 30
0.0
 11
271.70133161717558
 21
374.68922200465482
 31
0.0
  0
LINE
  5
2C6C
  8
AM_0
 10
263.3225416171756
 20
369.52187200465482
 30
0.0
 11
283.70133161717558
 21
369.52187200465482
 31
0.0
  0
ARC
  5
2C6D
  8
AM_0
 10
263.70135161717542
 20
372.68921200465491
 30
0.0
 40
2.00000007
 50
90.000003000000007
 51
180.00001
  0
ARC
  5
2C6E
  8
AM_0
 10
258.7013416171755
 20
368.98841200465478
 30
0.0
 40
3.0
 50
272.0
 51
0.0
  0
ARC
  5
2C6F
  8
AM_0
 10
271.70133161717558
 20
376.68923200465491
 30
0.0
 40
2.00000007
 50
270.0
 51
0.0
  0
LINE
  5
2C70
  8
AM_0
 10
275.63151161717542
 20
390.60476200465479
 30
0.0
 11
283.70133161717558
 21
390.88655200465479
 31
0.0
  0
ARC
  5
2C71
  8
AM_0
 10
275.70135161717542
 20
388.60598200465478
 30
0.0
 40
2.00000007
 50
91.999997999999948
 51
180.00001
  0
ARC
  5
2C72
  8
AM_0
 10
360.70131161717558
 20
380.86751200465483
 30
0.0
 40
8.0000000999999976
 50
0.0
 51
88.499996999999965
  0
ARC
  5
2C73
  8
AM_0
 10
376.70133161717553
 20
375.38657200465479
 30
0.0
 40
8.0000000999999976
 50
179.99998999999991
 51
270.0
  0
LINE
  5
2C74
  8
AM_0
 10
376.70133161717553
 20
367.3865920046548
 30
0.0
 11
385.70133161717558
 21
367.3865920046548
 31
0.0
  0
LINE
  5
2C75
  8
ﾁｭｳｼﾝｾﾝ
 10
653.61128721223713
 20
179.38655800465469
 30
0.0
 11
653.61128721223713
 21
393.05126200465492
 31
0.0
  0
LINE
  5
2C76
  8
AM_0
 10
588.61127121223706
 20
302.38657600465473
 30
0.0
 11
588.61127121223706
 21
212.38657300465479
 31
0.0
  0
LINE
  5
2C77
  8
AM_0
 10
718.6112822122368
 20
302.38657600465473
 30
0.0
 11
718.6112822122368
 21
212.38657300465479
 31
0.0
  0
LINE
  5
2C78
  8
AM_0
 10
730.61128221223692
 20
351.48026200465478
 30
0.0
 11
730.61128221223692
 21
253.12383400465481
 31
0.0
  0
LINE
  5
2C79
  8
AM_0
 10
576.61128621223702
 20
351.48026200465478
 30
0.0
 11
576.61128621223702
 21
253.12383400465481
 31
0.0
  0
LINE
  5
2C7A
  8
AM_0
 10
768.57860121223712
 20
194.82819400465479
 30
0.0
 11
752.02719921223695
 21
306.03431200465462
 31
0.0
  0
LINE
  5
2C7B
  8
AM_0
 10
538.64397621223679
 20
194.82819400465479
 30
0.0
 11
555.19536021223712
 21
306.03431200465462
 31
0.0
  0
ARC
  5
2C7C
  8
AM_0
 10
653.61128721223713
 20
302.38657600465473
 30
0.0
 40
65.000000999999997
 50
0.0
 51
180.00001
  0
LINE
  5
2C7D
  8
AM_0
 10
389.70135161717519
 20
204.92595700465469
 30
0.0
 11
389.70135161717519
 21
363.38657200465491
 31
0.0
  0
LINE
  5
2C7E
  8
ﾁｭｳｼﾝｾﾝ
 10
556.8705661206709
 20
263.38657600465478
 30
0.0
 11
750.48874614907822
 21
263.38657600465478
 31
0.0
  0
LINE
  5
2C7F
  8
AM_0
 10
590.61127221223705
 20
181.38655600465469
 30
0.0
 11
716.61128421223691
 21
181.38655600465469
 31
0.0
  0
LINE
  5
2C80
  8
AM_0
 10
538.61127621223682
 20
179.38655800465469
 30
0.0
 11
588.61127121223706
 21
179.38655800465469
 31
0.0
  0
LINE
  5
2C81
  8
AM_0
 10
584.61128721223713
 20
197.3865580046548
 30
0.0
 11
541.6112762122367
 21
197.3865580046548
 31
0.0
  0
LINE
  5
2C82
  8
ｶｸﾚｾﾝ2
 10
551.11128621223668
 20
197.3865580046548
 30
0.0
 11
551.11128621223668
 21
179.38655800465469
 31
0.0
  0
LINE
  5
2C83
  8
ﾁｭｳｼﾝｾﾝ1
 10
558.61128621223691
 20
202.3984450046548
 30
0.0
 11
558.61128621223691
 21
176.05524400465481
 31
0.0
  0
LINE
  5
2C84
  8
AM_0
 10
538.61127621223682
 20
194.3865580046548
 30
0.0
 11
538.61127621223682
 21
179.38655800465469
 31
0.0
  0
LINE
  5
2C85
  8
AM_0
 10
396.70131161717552
 20
179.38655800465469
 30
0.0
 11
396.70131161717552
 21
195.3865570046548
 31
0.0
  0
ARC
  5
2C86
  8
AM_0
 10
397.70133161717553
 20
204.92595700465469
 30
0.0
 40
8.0000000999999976
 50
179.99998999999991
 51
252.54239000000001
  0
ARC
  5
2C87
  8
AM_0
 10
394.70133161717553
 20
195.3865570046548
 30
0.0
 40
2.00000007
 50
0.0
 51
90.000003000000007
  0
ARC
  5
2C88
  8
AM_0
 10
541.6112762122367
 20
194.3865580046548
 30
0.0
 40
3.0
 50
90.000003000000007
 51
180.00001
  0
LINE
  5
2C89
  8
ｶｸﾚｾﾝ2
 10
566.11128621223702
 20
197.3865580046548
 30
0.0
 11
566.11128621223702
 21
179.38655800465469
 31
0.0
  0
LINE
  5
2C8A
  8
AM_0
 10
588.61127121223706
 20
193.38654100465479
 30
0.0
 11
588.61127121223706
 21
179.38655800465469
 31
0.0
  0
ARC
  5
2C8B
  8
AM_0
 10
590.61127221223705
 20
179.38655800465469
 30
0.0
 40
2.00000007
 50
90.000003000000007
 51
180.00001
  0
ARC
  5
2C8C
  8
AM_0
 10
653.61128721223713
 20
253.12383400465481
 30
0.0
 40
77.000000999999983
 50
179.99998999999991
 51
212.4183899999997
  0
ARC
  5
2C8D
  8
AM_0
 10
573.61128621223702
 20
212.38657300465479
 30
0.0
 40
15.00000029999998
 50
270.0
 51
0.0
  0
ARC
  5
2C8E
  8
AM_0
 10
584.61128721223713
 20
193.38654100465479
 30
0.0
 40
4.000000199999997
 50
0.0
 51
90.000003000000007
  0
LINE
  5
2C8F
  8
ｶｸﾚｾﾝ2
 10
756.11128521223714
 20
197.3865580046548
 30
0.0
 11
756.11128521223714
 21
179.38655800465469
 31
0.0
  0
LINE
  5
2C90
  8
ｶｸﾚｾﾝ2
 10
741.11128221223692
 20
197.3865580046548
 30
0.0
 11
741.11128221223692
 21
179.38655800465469
 31
0.0
  0
LINE
  5
2C91
  8
ﾁｭｳｼﾝｾﾝ1
 10
748.61128221223692
 20
201.63588700465479
 30
0.0
 11
748.61128221223692
 21
176.05524400465481
 31
0.0
  0
LINE
  5
2C92
  8
AM_0
 10
718.6112822122368
 20
193.38654100465479
 30
0.0
 11
718.6112822122368
 21
179.38655800465469
 31
0.0
  0
LINE
  5
2C93
  8
AM_0
 10
768.61128321223714
 20
194.3865580046548
 30
0.0
 11
768.61128321223714
 21
179.38655800465469
 31
0.0
  0
LINE
  5
2C94
  8
AM_0
 10
718.6112822122368
 20
179.38655800465469
 30
0.0
 11
768.61128321223714
 21
179.38655800465469
 31
0.0
  0
ARC
  5
2C95
  8
AM_0
 10
716.61128421223691
 20
179.38655800465469
 30
0.0
 40
2.00000007
 50
0.0
 51
90.000003000000007
  0
LINE
  5
2C96
  8
AM_0
 10
722.61128421223668
 20
197.3865580046548
 30
0.0
 11
765.61128321223714
 21
197.3865580046548
 31
0.0
  0
ARC
  5
2C97
  8
AM_0
 10
653.61128721223713
 20
253.12383400465481
 30
0.0
 40
77.000000999999983
 50
327.58159999999992
 51
0.0
  0
ARC
  5
2C98
  8
AM_0
 10
733.61128221223692
 20
212.38657300465479
 30
0.0
 40
15.00000029999998
 50
179.99998999999991
 51
270.0
  0
ARC
  5
2C99
  8
AM_0
 10
722.61128421223668
 20
193.38654100465479
 30
0.0
 40
4.000000199999997
 50
90.000003000000007
 51
180.00001
  0
ARC
  5
2C9A
  8
AM_0
 10
765.61128321223714
 20
194.3865580046548
 30
0.0
 40
3.0
 50
0.0
 51
90.000003000000007
  0
LINE
  5
2C9B
  8
ﾁｭｳｼﾝｾﾝ
 10
596.23947995046319
 20
319.38653200465478
 30
0.0
 11
711.60576438972555
 21
319.38653200465478
 31
0.0
  0
LINE
  5
2C9C
  8
AM_0
 10
725.13201921223708
 20
373.50251200465482
 30
0.0
 11
682.8341912122371
 21
386.49842200465491
 31
0.0
  0
ARC
  5
2C9D
  8
AM_0
 10
653.61128721223713
 20
291.3865750046549
 30
0.0
 40
99.500004000000004
 50
8.4654901000000002
 51
171.53450000000001
  0
LINE
  5
2C9E
  8
AM_0
 10
571.89729621223705
 20
362.70851200465478
 30
0.0
 11
558.80043321223707
 21
321.57188200465481
 31
0.0
  0
LINE
  5
2C9F
  8
AM_0
 10
458.70135161717542
 20
303.38657500465479
 30
0.0
 11
400.70133161717558
 21
303.38657500465479
 31
0.0
  0
LINE
  5
2CA0
  8
AM_0
 10
458.70135161717542
 20
338.38658200465488
 30
0.0
 11
413.70135161717519
 21
338.38658200465488
 31
0.0
  0
LINE
  5
2CA1
  8
AM_0
 10
458.70135161717542
 20
335.38658200465483
 30
0.0
 11
400.70133161717558
 21
335.38658200465483
 31
0.0
  0
LINE
  5
2CA2
  8
AM_0
 10
400.70133161717558
 20
301.8865750046549
 30
0.0
 11
400.70133161717558
 21
336.88658200465483
 31
0.0
  0
LINE
  5
2CA3
  8
AM_0
 10
396.70131161717552
 20
319.38653200465478
 30
0.0
 11
396.70131161717552
 21
346.65452200465478
 31
0.0
  0
LINE
  5
2CA4
  8
AM_0
 10
396.70131161717552
 20
292.11863200465473
 30
0.0
 11
396.70131161717552
 21
319.38653200465478
 31
0.0
  0
LINE
  5
2CA5
  8
AM_0
 10
391.20132161717561
 20
287.21113000465482
 30
0.0
 11
395.2013416171755
 21
289.52054800465481
 31
0.0
  0
ARC
  5
2CA6
  8
AM_0
 10
392.70135161717542
 20
284.61307600465477
 30
0.0
 40
3.0
 50
119.9999999999999
 51
180.00001
  0
ARC
  5
2CA7
  8
AM_0
 10
393.70131161717552
 20
292.11863200465473
 30
0.0
 40
3.0
 50
300.0
 51
0.0
  0
LINE
  5
2CA8
  8
AM_0
 10
400.70133161717558
 20
301.8865750046549
 30
0.0
 11
396.70131161717552
 21
301.8865750046549
 31
0.0
  0
LINE
  5
2CA9
  8
AM_0
 10
400.70133161717558
 20
336.88658200465483
 30
0.0
 11
396.70131161717552
 21
336.88658200465483
 31
0.0
  0
LINE
  5
2CAA
  8
AM_0
 10
413.70135161717519
 20
335.38658200465483
 30
0.0
 11
413.70135161717519
 21
338.38658200465488
 31
0.0
  0
ARC
  5
2CAB
  8
AM_0
 10
392.70135161717542
 20
354.16007200465492
 30
0.0
 40
3.0
 50
179.99998999999991
 51
240.00001
  0
ARC
  5
2CAC
  8
AM_0
 10
393.70131161717552
 20
346.65452200465478
 30
0.0
 40
3.0
 50
0.0
 51
60.000002000000002
  0
LINE
  5
2CAD
  8
AM_0
 10
391.20135161717542
 20
351.56198200465479
 30
0.0
 11
395.2013416171755
 21
349.25261200465479
 31
0.0
  0
LINE
  5
2CAE
  8
AM_0
 10
458.70135161717542
 20
303.38657500465479
 30
0.0
 11
458.70135161717542
 21
338.38658200465488
 31
0.0
  0
ARC
  5
2CAF
  8
AM_0
 10
587.1432242122371
 20
357.85463200465489
 30
0.0
 40
16.000000499999999
 50
107.0794599999999
 51
162.92053000000001
  0
CIRCLE
  5
2CB0
  8
AM_0
 10
653.61128721223713
 20
319.38653200465478
 30
0.0
 40
29.000001000000001
  0
ARC
  5
2CB1
  8
AM_0
 10
584.61128721223713
 20
351.48026200465478
 30
0.0
 40
8.0000000999999976
 50
138.94665000000001
 51
180.00001
  0
CIRCLE
  5
2CB2
  8
AM_0
 10
653.61128721223713
 20
319.38653200465478
 30
0.0
 40
2.75000007
  0
CIRCLE
  5
2CB3
  8
AM_5
 10
653.61128721223713
 20
319.38653200465478
 30
0.0
 40
4.000000199999997
  0
ARC
  5
2CB4
  8
AM_0
 10
653.61128721223713
 20
319.38653200465478
 30
0.0
 40
16.000000499999999
 50
108.20996
 51
71.790052000000003
  0
LINE
  5
2CB5
  8
AM_0
 10
648.61127421223705
 20
330.38657200465491
 30
0.0
 11
648.61127421223705
 21
338.38658200465488
 31
0.0
  0
LINE
  5
2CB6
  8
AM_0
 10
658.61127321223705
 20
330.38657200465491
 30
0.0
 11
658.61127321223705
 21
338.38658200465488
 31
0.0
  0
LINE
  5
2CB7
  8
AM_0
 10
648.61127421223705
 20
330.38657200465491
 30
0.0
 11
658.61127321223705
 21
330.38657200465491
 31
0.0
  0
LINE
  5
2CB8
  8
AM_0
 10
648.61127421223705
 20
338.38658200465488
 30
0.0
 11
658.61127321223705
 21
338.38658200465488
 31
0.0
  0
LINE
  5
2CB9
  8
AM_0
 10
582.28932621223703
 20
373.10057200465491
 30
0.0
 11
623.42595321223712
 21
386.19743200465479
 31
0.0
  0
ARC
  5
2CBA
  8
AM_0
 10
720.43287621223692
 20
358.20818200465487
 30
0.0
 40
16.000000499999999
 50
17.079463000000001
 51
72.920534000000004
  0
LINE
  5
2CBB
  8
AM_0
 10
735.72725121223709
 20
362.90732200465487
 30
0.0
 11
748.72317621223692
 21
320.60948200465481
 31
0.0
  0
ARC
  5
2CBC
  8
AM_0
 10
722.61128421223668
 20
351.48026200465478
 30
0.0
 40
8.0000000999999976
 50
0.0
 51
41.053350999999999
  0
LINE
  5
2CBD
  8
AM_0
 10
153.2013316171755
 20
295.32400450465468
 30
0.0
 11
143.20133161717541
 21
295.32400450465468
 31
0.0
  0
LINE
  5
2CBE
  8
AM_0
 10
153.2013316171755
 20
309.38657050465469
 30
0.0
 11
143.20133161717541
 21
309.38657050465469
 31
0.0
  0
LINE
  5
2CBF
  8
AM_0
 10
153.2013316171755
 20
217.38656350465479
 30
0.0
 11
143.20133161717561
 21
217.38656350465479
 31
0.0
  0
LINE
  5
2CC0
  8
AM_0
 10
153.2013316171755
 20
231.4491265046548
 30
0.0
 11
143.20133161717541
 21
231.4491265046548
 31
0.0
  0
LINE
  5
2CC1
  8
AM_0
 10
413.70135161717519
 20
604.42516322268955
 30
0.0
 11
458.70135161717542
 21
604.42516322268955
 31
0.0
  0
LINE
  5
2CC2
  8
AM_0
 10
413.70135161717519
 20
614.42510322268924
 30
0.0
 11
458.70135161717542
 21
614.42510322268924
 31
0.0
  0
LINE
  5
2CC3
  8
AM_0
 10
458.70135161717542
 20
593.42516322268955
 30
0.0
 11
400.70138161717517
 21
593.42516322268955
 31
0.0
  0
LINE
  5
2CC4
  8
AM_0
 10
458.70135161717542
 20
625.42510322268936
 30
0.0
 11
400.70138161717517
 21
625.42510322268936
 31
0.0
  0
LINE
  5
2CC5
  8
ﾁｭｳｼﾝｾﾝ
 10
63.264193572287702
 20
609.42510322268924
 30
0.0
 11
466.61419161717538
 21
609.42510322268924
 31
0.0
  0
LINE
  5
2CC6
  8
AM_0
 10
153.20132161717561
 20
577.48519322268919
 30
0.0
 11
189.29373161717541
 21
577.48519322268919
 31
0.0
  0
LINE
  5
2CC7
  8
AM_0
 10
153.20132161717561
 20
641.36504322268934
 30
0.0
 11
189.29373161717541
 21
641.36504322268934
 31
0.0
  0
LINE
  5
2CC8
  8
AM_0
 10
153.20132161717561
 20
563.42513322268928
 30
0.0
 11
194.54409161717541
 21
563.42513322268928
 31
0.0
  0
LINE
  5
2CC9
  8
AM_0
 10
153.20138161717551
 20
665.92510322268924
 30
0.0
 11
205.63272161717541
 21
667.75609322268951
 31
0.0
  0
LINE
  5
2CCA
  8
AM_0
 10
205.63272161717541
 20
551.09420322268943
 30
0.0
 11
153.20138161717551
 21
552.9251332226894
 31
0.0
  0
LINE
  5
2CCB
  8
AM_0
 10
153.20132161717561
 20
655.42516322268955
 30
0.0
 11
194.54409161717541
 21
655.42516322268955
 31
0.0
  0
LINE
  5
2CCC
  8
AM_0
 10
153.20132161717561
 20
552.9251332226894
 30
0.0
 11
153.20132161717561
 21
665.92510322268924
 31
0.0
  0
ARC
  5
2CCD
  8
AM_0
 10
413.70135161717519
 20
609.42510322268924
 30
0.0
 40
4.9999924
 50
90.000003000000945
 51
270.0
  0
LINE
  5
2CCE
  8
AM_0
 10
213.50406161717541
 20
598.65666322268953
 30
0.0
 11
213.50406161717541
 21
620.65715322268954
 31
0.0
  0
LINE
  5
2CCF
  8
AM_0
 10
176.20132161717561
 20
599.4251332226894
 30
0.0
 11
176.20132161717561
 21
619.42510322268924
 31
0.0
  0
LINE
  5
2CD0
  8
AM_0
 10
217.20132161717561
 20
540.13707322268942
 30
0.0
 11
217.20132161717561
 21
678.71312322268932
 31
0.0
  0
LINE
  5
2CD1
  8
AM_0
 10
283.70132161717561
 20
509.92513322268951
 30
0.0
 11
283.70132161717561
 21
708.92510322268936
 31
0.0
  0
LINE
  5
2CD2
  8
AM_0
 10
389.70138161717551
 20
548.32176322268936
 30
0.0
 11
389.70138161717551
 21
670.52849322268935
 31
0.0
  0
LINE
  5
2CD3
  8
AM_0
 10
261.70132161717561
 20
518.5040232226894
 30
0.0
 11
261.70132161717561
 21
700.34624322268951
 31
0.0
  0
LINE
  5
2CD4
  8
AM_0
 10
227.20138161717551
 20
535.9251332226894
 30
0.0
 11
227.20138161717551
 21
682.92510322268924
 31
0.0
  0
LINE
  5
2CD5
  8
AM_0
 10
273.70132161717561
 20
544.35292322268936
 30
0.0
 11
273.70132161717561
 21
674.49736322268916
 31
0.0
  0
LINE
  5
2CD6
  8
AM_0
 10
396.70135161717542
 20
582.15721322268939
 30
0.0
 11
396.70135161717542
 21
609.42510322268924
 31
0.0
  0
LINE
  5
2CD7
  8
AM_0
 10
400.70138161717517
 20
591.92516322268955
 30
0.0
 11
400.70138161717517
 21
626.92516322268955
 31
0.0
  0
LINE
  5
2CD8
  8
AM_0
 10
413.70138161717551
 20
604.42516322268955
 30
0.0
 11
413.70138161717551
 21
614.42510322268924
 31
0.0
  0
LINE
  5
2CD9
  8
AM_0
 10
368.70138161717551
 20
540.21837322268948
 30
0.0
 11
368.70138161717551
 21
678.63188322268934
 31
0.0
  0
POLYLINE
  5
2CDA
  8
AM_0
 66
     1
 10
0.0
 20
0.0
 30
0.0
  0
VERTEX
  5
2CDB
  8
AM_0
 10
283.70132161717561
 20
579.14870322268939
 30
0.0
 42
-0.070055462
  0
VERTEX
  5
2CDC
  8
AM_0
 10
310.06199161717541
 20
558.95136322268945
 30
0.0
 42
-0.27110597
  0
VERTEX
  5
2CDD
  8
AM_0
 10
318.70135161717542
 20
539.06801322268939
 30
0.0
 42
-0.2130317
  0
VERTEX
  5
2CDE
  8
AM_0
 10
299.11089161717558
 20
520.93320322268926
 30
0.0
  0
VERTEX
  5
2CDF
  8
AM_0
 10
283.70132161717561
 20
514.63494322268946
 30
0.0
 42
-1.0
  0
SEQEND
  5
2CE0
  8
AM_0
  0
POLYLINE
  5
2CE1
  8
AM_0
 66
     1
 10
0.0
 20
0.0
 30
0.0
  0
VERTEX
  5
2CE2
  8
AM_0
 10
283.70132161717561
 20
532.00835322268938
 30
0.0
 42
0.040442845
  0
VERTEX
  5
2CE3
  8
AM_0
 10
295.22951161717521
 20
532.2316932226895
 30
0.0
 42
0.04246989
  0
VERTEX
  5
2CE4
  8
AM_0
 10
306.56322161717549
 20
534.34517322268948
 30
0.0
 42
0.022672802
  0
VERTEX
  5
2CE5
  8
AM_0
 10
312.04772161717551
 20
536.13612322268943
 30
0.0
  0
VERTEX
  5
2CE6
  8
AM_0
 10
317.3533316171754
 20
538.40498322268945
 30
0.0
 42
-1.0
  0
SEQEND
  5
2CE7
  8
AM_0
  0
LINE
  5
2CE8
  8
AM_0
 10
239.3526916171754
 20
498.83007322268929
 30
0.0
 11
289.70135161717548
 21
494.42513322268951
 31
0.0
  0
CIRCLE
  5
2CE9
  8
AM_0
 10
253.70132161717561
 20
514.42513322268906
 30
0.0
 40
7.5
  0
LINE
  5
2CEA
  8
AM_0
 10
287.70132161717561
 20
509.92513322268951
 30
0.0
 11
287.70132161717561
 21
500.05663322268941
 31
0.0
  0
LINE
  5
2CEB
  8
AM_0
 10
235.70132161717561
 20
526.88658322268896
 30
0.0
 11
235.70132161717561
 21
502.81484322268938
 31
0.0
  0
ARC
  5
2CEC
  8
AM_0
 10
239.70132161717561
 20
502.81484322268938
 30
0.0
 40
4.0
 50
180.00001000000091
 51
265.00001000000032
  0
ARC
  5
2CED
  8
AM_0
 10
274.70132161717549
 20
498.74892322268943
 30
0.0
 40
3.0
 50
85.000004000000885
 51
265.0
  0
ARC
  5
2CEE
  8
AM_0
 10
282.70132161717561
 20
500.05663322268941
 30
0.0
 40
5.0
 50
265.00001000000032
 51
0.0000006832495047
  0
LINE
  5
2CEF
  8
AM_0
 10
274.9628016171755
 20
501.73751322268919
 30
0.0
 11
283.3527516171755
 21
501.00347322268942
 31
0.0
  0
ARC
  5
2CF0
  8
AM_0
 10
283.70132161717561
 20
504.98827322268949
 30
0.0
 40
4.0
 50
265.00001000000032
 51
0.0000006832495047
  0
LINE
  5
2CF1
  8
AM_0
 10
217.20132161717561
 20
547.84648322268924
 30
0.0
 11
261.70132161717561
 21
547.84648322268924
 31
0.0
  0
LINE
  5
2CF2
  8
AM_0
 10
217.20132161717561
 20
569.95046322268945
 30
0.0
 11
261.70132161717561
 21
569.95046322268945
 31
0.0
  0
LINE
  5
2CF3
  8
AM_0
 10
221.0617916171754
 20
536.13954322268944
 30
0.0
 11
259.27121161717548
 21
534.80522322268905
 31
0.0
  0
POLYLINE
  5
2CF4
  8
AM_0
 66
     1
 10
0.0
 20
0.0
 30
0.0
  0
VERTEX
  5
2CF5
  8
AM_0
 10
196.32112161717549
 20
564.00701322268935
 30
0.0
 42
0.011693535
  0
VERTEX
  5
2CF6
  8
AM_0
 10
199.8840016171753
 20
559.51064322268905
 30
0.0
 42
0.011216789
  0
VERTEX
  5
2CF7
  8
AM_0
 10
203.64888161717539
 20
555.18188322268941
 30
0.0
 42
0.011000239
  0
VERTEX
  5
2CF8
  8
AM_0
 10
207.60098161717551
 20
551.02544322268943
 30
0.0
  0
SEQEND
  5
2CF9
  8
AM_0
  0
LINE
  5
2CFA
  8
AM_0
 10
215.77438161717549
 20
542.85210322268927
 30
0.0
 11
208.9937416171756
 21
549.63277322268937
 31
0.0
  0
ARC
  5
2CFB
  8
AM_0
 10
205.45816161717551
 20
546.09722322268942
 30
0.0
 40
5.0
 50
44.999998000001611
 51
87.999999999999503
  0
ARC
  5
2CFC
  8
AM_0
 10
221.20132161717561
 20
540.13707322268942
 30
0.0
 40
4.0
 50
180.00001000000091
 51
267.99999999999932
  0
ARC
  5
2CFD
  8
AM_0
 10
212.2388016171754
 20
539.31658322268925
 30
0.0
 40
5.0
 50
5.2307202000000732
 51
44.999998000001611
  0
POLYLINE
  5
2CFE
  8
AM_0
 66
     1
 10
0.0
 20
0.0
 30
0.0
  0
VERTEX
  5
2CFF
  8
AM_0
 10
191.8794016171754
 20
576.00634322268945
 30
0.0
 42
0.0058779451
  0
VERTEX
  5
2D00
  8
AM_0
 10
193.0890216171756
 20
574.00476322268935
 30
0.0
 42
0.0056588807
  0
VERTEX
  5
2D01
  8
AM_0
 10
194.34449161717549
 20
572.03161322268954
 30
0.0
 42
0.0054619285
  0
VERTEX
  5
2D02
  8
AM_0
 10
195.64353161717551
 20
570.08686322268954
 30
0.0
 42
0.0052861386
  0
VERTEX
  5
2D03
  8
AM_0
 10
196.9840616171754
 20
568.17046322268925
 30
0.0
  0
SEQEND
  5
2D04
  8
AM_0
  0
ARC
  5
2D05
  8
AM_0
 10
194.54409161717541
 20
566.4251332226894
 30
0.0
 40
3.0
 50
270.0
 51
35.575756999999612
  0
LINE
  5
2D06
  8
AM_0
 10
179.20132161717561
 20
596.42513322268928
 30
0.0
 11
210.50406161717541
 21
596.42513322268928
 31
0.0
  0
POLYLINE
  5
2D07
  8
AM_0
 66
     1
 10
0.0
 20
0.0
 30
0.0
  0
VERTEX
  5
2D08
  8
AM_0
 10
180.1709316171754
 20
596.42537322268925
 30
0.0
  0
VERTEX
  5
2D09
  8
AM_0
 10
187.5981916171753
 20
577.48597322268915
 30
0.0
 42
-1.0
  0
SEQEND
  5
2D0A
  8
AM_0
  0
ARC
  5
2D0B
  8
AM_0
 10
189.29373161717541
 20
574.48519322268953
 30
0.0
 40
3.0
 50
30.468076999999081
 51
90.000003000000945
  0
ARC
  5
2D0C
  8
AM_0
 10
179.20132161717561
 20
599.4251332226894
 30
0.0
 40
3.0
 50
180.00001000000091
 51
270.0
  0
ARC
  5
2D0D
  8
AM_0
 10
210.50406161717541
 20
593.42513322268917
 30
0.0
 40
3.0
 50
0.0
 51
90.000003000000945
  0
LINE
  5
2D0E
  8
AM_0
 10
238.66610161717551
 20
530.75026322268957
 30
0.0
 11
254.4302616171754
 21
534.97426322268927
 31
0.0
  0
ARC
  5
2D0F
  8
AM_0
 10
239.70132161717561
 20
526.88658322268896
 30
0.0
 40
4.0
 50
105.0000000000007
 51
180.00001000000091
  0
ARC
  5
2D10
  8
AM_0
 10
258.70132161717561
 20
531.82329322268924
 30
0.0
 40
3.0
 50
0.0
 51
87.999999999999503
  0
ARC
  5
2D11
  8
AM_0
 10
270.70132161717549
 20
523.53511322268935
 30
0.0
 40
3.0
 50
0.0
 51
90.000003000000945
  0
ARC
  5
2D12
  8
AM_0
 10
276.70132161717549
 20
513.17140322268915
 30
0.0
 40
3.0
 50
180.00001000000091
 51
267.99999999999932
  0
ARC
  5
2D13
  8
AM_0
 10
270.73855161717552
 20
512.50402322268928
 30
0.0
 40
3.0
 50
6.3862994000025628
 51
90.000003000000945
  0
LINE
  5
2D14
  8
AM_0
 10
283.70132161717561
 20
532.00835322268938
 30
0.0
 11
261.70132161717561
 21
532.00835322268938
 31
0.0
  0
LINE
  5
2D15
  8
AM_0
 10
264.70132161717561
 20
515.5040232226894
 30
0.0
 11
270.73855161717552
 21
515.5040232226894
 31
0.0
  0
ARC
  5
2D16
  8
AM_0
 10
264.70132161717561
 20
518.5040232226894
 30
0.0
 40
3.0
 50
180.00001000000091
 51
270.0
  0
LINE
  5
2D17
  8
AM_0
 10
264.70132161717561
 20
526.53511322268946
 30
0.0
 11
270.70132161717549
 21
526.53511322268946
 31
0.0
  0
ARC
  5
2D18
  8
AM_0
 10
264.70132161717561
 20
529.53511322268935
 30
0.0
 40
3.0
 50
180.00001000000091
 51
270.0
  0
LINE
  5
2D19
  8
AM_0
 10
273.70132161717561
 20
513.17140322268915
 30
0.0
 11
273.70132161717561
 21
523.53511322268935
 31
0.0
  0
LINE
  5
2D1A
  8
AM_0
 10
276.59665161717538
 20
510.17324322268951
 30
0.0
 11
283.70132161717561
 21
509.92516322268921
 31
0.0
  0
LINE
  5
2D1B
  8
AM_0
 10
283.70132161717561
 20
514.63494322268946
 30
0.0
 11
273.70132161717561
 21
514.63494322268946
 31
0.0
  0
LINE
  5
2D1C
  8
AM_0
 10
283.70132161717561
 20
509.92513322268951
 30
0.0
 11
287.70132161717561
 21
509.92513322268951
 31
0.0
  0
ARC
  5
2D1D
  8
AM_0
 10
270.70132161717549
 20
544.35292322268936
 30
0.0
 40
3.0
 50
269.999989999999
 51
0.0000006832495047
  0
LINE
  5
2D1E
  8
AM_0
 10
261.70132161717561
 20
552.10756322268935
 30
0.0
 11
273.70132161717561
 21
552.10756322268935
 31
0.0
  0
LINE
  5
2D1F
  8
AM_0
 10
261.70132161717561
 20
541.35292322268947
 30
0.0
 11
270.70132161717549
 21
541.35292322268947
 31
0.0
  0
LINE
  5
2D20
  8
AM_0
 10
283.70132161717561
 20
579.14870322268939
 30
0.0
 11
273.70132161717561
 21
579.14870322268939
 31
0.0
  0
CIRCLE
  5
2D21
  8
AM_0
 10
378.70138161717551
 20
514.42513322268906
 30
0.0
 40
7.5
  0
LINE
  5
2D22
  8
AM_0
 10
348.70135161717548
 20
504.76970322268909
 30
0.0
 11
348.70135161717548
 21
520.21154322268944
 31
0.0
  0
LINE
  5
2D23
  8
AM_0
 10
396.70138161717551
 20
540.4251332226894
 30
0.0
 11
396.70138161717551
 21
502.02440322268927
 31
0.0
  0
ARC
  5
2D24
  8
AM_0
 10
356.70135161717548
 20
504.76970322268909
 30
0.0
 40
8.0
 50
180.00001000000091
 51
271.99999000000139
  0
LINE
  5
2D25
  8
AM_0
 10
289.70135161717548
 20
494.42513322268951
 30
0.0
 11
392.84097161717551
 21
498.02684322268931
 31
0.0
  0
ARC
  5
2D26
  8
AM_0
 10
392.70138161717551
 20
502.02440322268927
 30
0.0
 40
4.0
 50
272.0000000000004
 51
0.0
  0
ARC
  5
2D27
  8
AM_0
 10
360.70135161717542
 20
520.21154322268944
 30
0.0
 40
12.0
 50
91.500001000001546
 51
180.00001000000091
  0
LINE
  5
2D28
  8
AM_0
 10
385.80609161717553
 20
544.3231432226894
 30
0.0
 11
375.9442116171752
 21
544.06490322268905
 31
0.0
  0
ARC
  5
2D29
  8
AM_0
 10
360.70138161717551
 20
540.21837322268948
 30
0.0
 40
8.0
 50
271.4999999999992
 51
0.0
  0
LINE
  5
2D2A
  8
AM_0
 10
360.91079161717551
 20
532.22112322268924
 30
0.0
 11
360.38723161717542
 21
532.20742322268939
 31
0.0
  0
ARC
  5
2D2B
  8
AM_0
 10
376.15359161717538
 20
536.06761322268937
 30
0.0
 40
8.0
 50
91.500001000001546
 51
164.96420000000299
  0
ARC
  5
2D2C
  8
AM_0
 10
385.70138161717551
 20
548.32176322268936
 30
0.0
 40
4.0
 50
271.4999999999992
 51
0.0
  0
ARC
  5
2D2D
  8
AM_0
 10
392.70138161717551
 20
540.4251332226894
 30
0.0
 40
4.0
 50
0.0
 51
82.819247000000175
  0
ARC
  5
2D2E
  8
AM_0
 10
393.70138161717551
 20
548.36238322268946
 30
0.0
 40
4.0
 50
180.00001000000091
 51
262.8192499999995
  0
ARC
  5
2D2F
  8
AM_0
 10
393.70135161717542
 20
582.15721322268939
 30
0.0
 40
3.0
 50
300.00001000000083
 51
0.0
  0
ARC
  5
2D30
  8
AM_0
 10
392.70138161717551
 20
574.65166322268954
 30
0.0
 40
3.0
 50
120.0000000000005
 51
180.00001000000091
  0
LINE
  5
2D31
  8
AM_0
 10
391.20132161717538
 20
577.24974322268918
 30
0.0
 11
395.20132161717538
 21
579.55916322268945
 31
0.0
  0
LINE
  5
2D32
  8
AM_0
 10
400.70138161717517
 20
591.92516322268955
 30
0.0
 11
396.70135161717542
 21
591.92516322268955
 31
0.0
  0
POLYLINE
  5
2D33
  8
AM_0
 66
     1
 10
0.0
 20
0.0
 30
0.0
  0
VERTEX
  5
2D34
  8
AM_0
 10
283.70132161717561
 20
639.70159322268933
 30
0.0
 42
0.070055443
  0
VERTEX
  5
2D35
  8
AM_0
 10
310.06199161717541
 20
659.89893322268915
 30
0.0
 42
0.27110593
  0
VERTEX
  5
2D36
  8
AM_0
 10
318.70135161717542
 20
679.78227322268935
 30
0.0
 42
0.21303199
  0
VERTEX
  5
2D37
  8
AM_0
 10
299.11089161717558
 20
697.91706322268953
 30
0.0
  0
VERTEX
  5
2D38
  8
AM_0
 10
283.70132161717561
 20
704.21532322268945
 30
0.0
 42
-1.0
  0
SEQEND
  5
2D39
  8
AM_0
  0
POLYLINE
  5
2D3A
  8
AM_0
 66
     1
 10
0.0
 20
0.0
 30
0.0
  0
VERTEX
  5
2D3B
  8
AM_0
 10
283.70132161717561
 20
686.84191322268953
 30
0.0
 42
-0.040442832
  0
VERTEX
  5
2D3C
  8
AM_0
 10
295.2295016171754
 20
686.61856322268955
 30
0.0
 42
-0.042469875
  0
VERTEX
  5
2D3D
  8
AM_0
 10
306.56322161717549
 20
684.50508322268934
 30
0.0
 42
-0.022671837
  0
VERTEX
  5
2D3E
  8
AM_0
 10
312.04771161717548
 20
682.71414322268947
 30
0.0
  0
VERTEX
  5
2D3F
  8
AM_0
 10
317.3533316171754
 20
680.44531322268926
 30
0.0
 42
-1.0
  0
SEQEND
  5
2D40
  8
AM_0
  0
LINE
  5
2D41
  8
AM_0
 10
239.3527516171753
 20
720.02019322268904
 30
0.0
 11
289.70138161717529
 21
724.42510322268924
 31
0.0
  0
ARC
  5
2D42
  8
AM_0
 10
270.73855161717552
 20
706.34624322268951
 30
0.0
 40
3.0
 50
269.999989999999
 51
353.61369000000428
  0
CIRCLE
  5
2D43
  8
AM_0
 10
253.70132161717561
 20
704.42510322268936
 30
0.0
 40
7.5
  0
LINE
  5
2D44
  8
AM_0
 10
273.70132161717561
 20
705.67888322268925
 30
0.0
 11
273.70132161717561
 21
695.31517322268951
 31
0.0
  0
LINE
  5
2D45
  8
AM_0
 10
235.70132161717561
 20
691.96367322268952
 30
0.0
 11
235.70132161717561
 21
716.03539322268966
 31
0.0
  0
LINE
  5
2D46
  8
AM_0
 10
217.20132161717561
 20
671.00377322268935
 30
0.0
 11
261.70132161717561
 21
671.00377322268935
 31
0.0
  0
LINE
  5
2D47
  8
AM_0
 10
217.20132161717561
 20
648.89983322268915
 30
0.0
 11
261.70132161717561
 21
648.89983322268915
 31
0.0
  0
LINE
  5
2D48
  8
AM_0
 10
221.0617916171754
 20
682.71068322268934
 30
0.0
 11
258.80606161717532
 21
684.02873322268954
 31
0.0
  0
POLYLINE
  5
2D49
  8
AM_0
 66
     1
 10
0.0
 20
0.0
 30
0.0
  0
VERTEX
  5
2D4A
  8
AM_0
 10
196.32112161717549
 20
654.84324322268935
 30
0.0
 42
-0.011693563
  0
VERTEX
  5
2D4B
  8
AM_0
 10
199.8840016171753
 20
659.33961322268954
 30
0.0
 42
-0.011216838
  0
VERTEX
  5
2D4C
  8
AM_0
 10
203.64888161717539
 20
663.66837322268952
 30
0.0
 42
-0.011000316
  0
VERTEX
  5
2D4D
  8
AM_0
 10
207.60098161717551
 20
667.82482322268925
 30
0.0
  0
SEQEND
  5
2D4E
  8
AM_0
  0
ARC
  5
2D4F
  8
AM_0
 10
194.54409161717541
 20
652.42516322268955
 30
0.0
 40
3.0
 50
324.42424000000028
 51
90.000003000000945
  0
POLYLINE
  5
2D50
  8
AM_0
 66
     1
 10
0.0
 20
0.0
 30
0.0
  0
VERTEX
  5
2D51
  8
AM_0
 10
191.8794016171754
 20
642.84389322268953
 30
0.0
 42
-0.0058779419
  0
VERTEX
  5
2D52
  8
AM_0
 10
193.0890216171756
 20
644.84547322268952
 30
0.0
 42
-0.0056588802
  0
VERTEX
  5
2D53
  8
AM_0
 10
194.34449161717549
 20
646.81863322268953
 30
0.0
 42
-0.0054619308
  0
VERTEX
  5
2D54
  8
AM_0
 10
195.64353161717551
 20
648.7633832226893
 30
0.0
 42
-0.0052861438
  0
VERTEX
  5
2D55
  8
AM_0
 10
196.9840616171754
 20
650.67978322268937
 30
0.0
  0
SEQEND
  5
2D56
  8
AM_0
  0
LINE
  5
2D57
  8
AM_0
 10
179.20132161717561
 20
622.42510322268924
 30
0.0
 11
210.50406161717541
 21
622.42510322268924
 31
0.0
  0
POLYLINE
  5
2D58
  8
AM_0
 66
     1
 10
0.0
 20
0.0
 30
0.0
  0
VERTEX
  5
2D59
  8
AM_0
 10
180.1709316171754
 20
622.42483322268924
 30
0.0
  0
VERTEX
  5
2D5A
  8
AM_0
 10
187.5981916171753
 20
641.36426322268949
 30
0.0
 42
-1.0
  0
SEQEND
  5
2D5B
  8
AM_0
  0
ARC
  5
2D5C
  8
AM_0
 10
179.20132161717561
 20
619.42510322268924
 30
0.0
 40
3.0
 50
90.000003000000945
 51
180.00001000000091
  0
ARC
  5
2D5D
  8
AM_0
 10
189.29373161717541
 20
644.36504322268934
 30
0.0
 40
3.0
 50
270.0
 51
329.53192000000121
  0
ARC
  5
2D5E
  8
AM_0
 10
210.50406161717541
 20
625.42510322268936
 30
0.0
 40
3.0
 50
270.0
 51
0.0
  0
ARC
  5
2D5F
  8
AM_0
 10
221.20132161717561
 20
678.71312322268932
 30
0.0
 40
4.0
 50
91.999998000000545
 51
180.00001000000091
  0
LINE
  5
2D60
  8
AM_0
 10
208.99368161717541
 20
669.21752322268935
 30
0.0
 11
215.77438161717549
 21
675.99816322268953
 31
0.0
  0
ARC
  5
2D61
  8
AM_0
 10
205.45816161717551
 20
672.75304322268937
 30
0.0
 40
5.0
 50
272.0000000000004
 51
315.0
  0
ARC
  5
2D62
  8
AM_0
 10
212.2388016171754
 20
679.53368322268955
 30
0.0
 40
5.0
 50
315.0
 51
354.76905999999741
  0
LINE
  5
2D63
  8
AM_0
 10
283.70132161717561
 20
639.70159322268933
 30
0.0
 11
273.70132161717561
 21
639.70159322268933
 31
0.0
  0
LINE
  5
2D64
  8
AM_0
 10
238.66610161717551
 20
688.09996322268955
 30
0.0
 11
254.43039161717539
 21
683.87596322268951
 31
0.0
  0
ARC
  5
2D65
  8
AM_0
 10
239.70132161717561
 20
691.96367322268952
 30
0.0
 40
4.0
 50
180.00001000000091
 51
254.99999000000159
  0
ARC
  5
2D66
  8
AM_0
 10
270.70132161717549
 20
674.49736322268916
 30
0.0
 40
3.0
 50
0.0
 51
90.000003000000945
  0
LINE
  5
2D67
  8
AM_0
 10
261.70132161717561
 20
666.74272322268916
 30
0.0
 11
273.70132161717561
 21
666.74272322268916
 31
0.0
  0
LINE
  5
2D68
  8
AM_0
 10
261.70132161717561
 20
677.49736322268939
 30
0.0
 11
270.70132161717549
 21
677.49736322268939
 31
0.0
  0
ARC
  5
2D69
  8
AM_0
 10
270.70132161717549
 20
695.31517322268951
 30
0.0
 40
3.0
 50
269.999989999999
 51
0.0000006832495047
  0
LINE
  5
2D6A
  8
AM_0
 10
283.70132161717561
 20
686.84191322268953
 30
0.0
 11
261.70132161717561
 21
686.84191322268953
 31
0.0
  0
ARC
  5
2D6B
  8
AM_0
 10
264.70132161717561
 20
689.31517322268951
 30
0.0
 40
3.0
 50
90.000003000000945
 51
180.00001000000091
  0
LINE
  5
2D6C
  8
AM_0
 10
264.70132161717561
 20
692.3151732226894
 30
0.0
 11
270.70132161717549
 21
692.3151732226894
 31
0.0
  0
ARC
  5
2D6D
  8
AM_0
 10
258.70132161717561
 20
687.02696322268935
 30
0.0
 40
3.0
 50
272.0000000000004
 51
0.0
  0
LINE
  5
2D6E
  8
AM_0
 10
264.70132161717561
 20
703.34624322268951
 30
0.0
 11
270.73855161717552
 21
703.34624322268951
 31
0.0
  0
ARC
  5
2D6F
  8
AM_0
 10
264.70132161717561
 20
700.34624322268951
 30
0.0
 40
3.0
 50
90.000003000000945
 51
180.00001000000091
  0
LINE
  5
2D70
  8
AM_0
 10
283.70132161717561
 20
704.21532322268945
 30
0.0
 11
273.70132161717561
 21
704.21532322268945
 31
0.0
  0
ARC
  5
2D71
  8
AM_0
 10
239.70132161717561
 20
716.03539322268966
 30
0.0
 40
4.0
 50
95.00000199999856
 51
180.00001000000091
  0
ARC
  5
2D72
  8
AM_0
 10
276.70132161717549
 20
705.67888322268925
 30
0.0
 40
3.0
 50
91.999998000000545
 51
180.00001000000091
  0
ARC
  5
2D73
  8
AM_0
 10
274.70132161717549
 20
720.10137322268952
 30
0.0
 40
3.0
 50
95.00000199999856
 51
275.0
  0
ARC
  5
2D74
  8
AM_0
 10
283.70132161717561
 20
713.86199322268953
 30
0.0
 40
4.0
 50
0.0
 51
95.00000199999856
  0
LINE
  5
2D75
  8
AM_0
 10
287.70132161717561
 20
708.92510322268936
 30
0.0
 11
287.70132161717561
 21
718.79363322268898
 31
0.0
  0
LINE
  5
2D76
  8
AM_0
 10
274.96286161717541
 20
717.11272322268917
 30
0.0
 11
283.3527516171755
 21
717.84673322268952
 31
0.0
  0
LINE
  5
2D77
  8
AM_0
 10
276.59665161717538
 20
708.67705322268955
 30
0.0
 11
283.70132161717561
 21
708.92516322268955
 31
0.0
  0
LINE
  5
2D78
  8
AM_0
 10
283.70132161717561
 20
708.92510322268936
 30
0.0
 11
287.70132161717561
 21
708.92510322268936
 31
0.0
  0
ARC
  5
2D79
  8
AM_0
 10
282.70132161717561
 20
718.79363322268898
 30
0.0
 40
5.0
 50
0.0
 51
95.00000199999856
  0
CIRCLE
  5
2D7A
  8
AM_0
 10
378.70138161717551
 20
704.42510322268936
 30
0.0
 40
7.5
  0
LINE
  5
2D7B
  8
AM_0
 10
348.70135161717548
 20
698.63872322268935
 30
0.0
 11
348.70135161717548
 21
714.08055322268922
 31
0.0
  0
LINE
  5
2D7C
  8
AM_0
 10
396.70138161717551
 20
678.42510322268924
 30
0.0
 11
396.70138161717551
 21
716.82585322268915
 31
0.0
  0
LINE
  5
2D7D
  8
ﾁｭｳｼﾝｾﾝ1
 10
378.70138161717551
 20
690.92510322268924
 30
0.0
 11
378.70138161717551
 21
717.92510322268924
 31
0.0
  0
ARC
  5
2D7E
  8
AM_0
 10
360.70135161717542
 20
698.63872322268935
 30
0.0
 40
12.0
 50
180.00001000000091
 51
268.50000000000063
  0
LINE
  5
2D7F
  8
AM_0
 10
396.70135161717542
 20
609.42510322268924
 30
0.0
 11
396.70135161717542
 21
636.69310322268939
 31
0.0
  0
LINE
  5
2D80
  8
AM_0
 10
400.70138161717517
 20
626.92516322268955
 30
0.0
 11
396.70135161717542
 21
626.92516322268955
 31
0.0
  0
ARC
  5
2D81
  8
AM_0
 10
392.70138161717551
 20
644.19866322268945
 30
0.0
 40
3.0
 50
179.9999899999988
 51
240.00000999999969
  0
ARC
  5
2D82
  8
AM_0
 10
393.70135161717542
 20
636.69310322268939
 30
0.0
 40
3.0
 50
0.0
 51
60.000002000001302
  0
LINE
  5
2D83
  8
AM_0
 10
391.20138161717551
 20
641.60057322268949
 30
0.0
 11
395.20135161717542
 21
639.29119322268923
 31
0.0
  0
LINE
  5
2D84
  8
ﾁｭｳｼﾝｾﾝ1
 10
365.20138161717551
 20
704.42510322268936
 30
0.0
 11
392.20138161717551
 21
704.42510322268936
 31
0.0
  0
LINE
  5
2D85
  8
AM_0
 10
385.80606161717537
 20
674.52715322268932
 30
0.0
 11
375.94418161717522
 21
674.78539322268955
 31
0.0
  0
ARC
  5
2D86
  8
AM_0
 10
360.70138161717551
 20
678.63188322268934
 30
0.0
 40
8.0
 50
0.0
 51
88.499997000000647
  0
ARC
  5
2D87
  8
AM_0
 10
376.15359161717538
 20
682.78264322268933
 30
0.0
 40
8.0
 50
195.0357999999969
 51
268.50000000000063
  0
LINE
  5
2D88
  8
AM_0
 10
360.91076161717552
 20
686.62914322268955
 30
0.0
 11
360.38723161717542
 21
686.64281322268948
 31
0.0
  0
ARC
  5
2D89
  8
AM_0
 10
393.70138161717551
 20
670.48784322268955
 30
0.0
 40
4.0
 50
97.180758000000822
 51
180.00001000000091
  0
ARC
  5
2D8A
  8
AM_0
 10
385.70138161717551
 20
670.52849322268935
 30
0.0
 40
4.0
 50
0.0
 51
88.499997000000647
  0
ARC
  5
2D8B
  8
AM_0
 10
392.70138161717551
 20
678.42510322268924
 30
0.0
 40
4.0
 50
277.18075000000027
 51
0.0
  0
ARC
  5
2D8C
  8
AM_0
 10
356.70135161717548
 20
714.08055322268922
 30
0.0
 40
8.0
 50
87.999999999999503
 51
180.00001000000091
  0
LINE
  5
2D8D
  8
AM_0
 10
289.70138161717529
 20
724.42516322268955
 30
0.0
 11
392.84097161717551
 21
720.8234132226894
 31
0.0
  0
ARC
  5
2D8E
  8
AM_0
 10
392.70138161717551
 20
716.82585322268915
 30
0.0
 40
4.0
 50
0.0
 51
87.999999999999503
  0
LINE
  5
2D8F
  8
AM_0
 10
458.70135161717542
 20
593.42516322268955
 30
0.0
 11
458.70135161717542
 21
625.42510322268936
 31
0.0
  0
LINE
  5
2D90
  8
AM_0
 10
141.7368555231082
 20
560.88956931675625
 30
0.0
 11
121.13025380531001
 21
581.49617103455455
 31
0.0
  0
LINE
  5
2D91
  8
AM_0
 10
143.20132161717541
 20
664.66372457672412
 30
0.0
 11
143.2013216171764
 21
554.18648186865425
 31
0.0
  0
ARC
  5
2D92
  8
AM_0
 10
138.20132161717541
 20
557.35403541082383
 30
0.0
 40
5.0
 50
0.0
 51
45.0
1001
GENIUS_GENODEF_13
1002
{
1000
HIER
1070
     0
1002
}
1002
{
1000
MANEDIT
1070
     0
1002
}
1002
{
1000
NOSEL
1070
     0
1002
}
1002
{
1000
BEHIND
1070
     0
1002
}
1002
{
1000
OTHER
1070
     0
1002
}
1002
{
1000
REACTOR
1002
}
1001
GENIUS_GENOBJ-N-FIL_13
1002
{
1000
OWNER
1000
GEN
1002
}
  0
ARC
  5
2D93
  8
AM_0
 10
144.20132161717541
 20
554.18648186865425
 30
0.0
 40
1.0
 50
180.0
 51
268.33915276702578
1001
GENIUS_GENOBJ-N-FIL_13
1002
{
1000
OWNER
1000
GEN
1002
}
1001
GENIUS_GENODEF_13
1002
{
1000
HIER
1070
     0
1002
}
1002
{
1000
MANEDIT
1070
     0
1002
}
1002
{
1000
NOSEL
1070
     0
1002
}
1002
{
1000
BEHIND
1070
     0
1002
}
1002
{
1000
OTHER
1070
     0
1002
}
1002
{
1000
REACTOR
1002
}
  0
LINE
  5
2D94
  8
AM_0
 10
144.17233842389231
 20
553.18690196964315
 30
0.0
 11
153.20132161717541
 21
552.92510322268924
 31
0.0
  0
LINE
  5
2D95
  8
AM_0
 10
153.20132161717541
 20
577.4876642226892
 30
0.0
 11
143.20132161717561
 21
577.4876642226892
 31
0.0
  0
LINE
  5
2D96
  8
AM_0
 10
153.20132161717561
 20
563.42510122268925
 30
0.0
 11
143.20132161717561
 21
563.42510122268925
 31
0.0
  0
LINE
  5
2D97
  8
AM_0
 10
93.701321617175523
 20
601.92509559329471
 30
0.0
 11
95.701321617175566
 21
601.92509559329471
 31
0.0
  0
LINE
  5
2D98
  8
AM_0
 10
93.701321617175523
 20
616.92510322268936
 30
0.0
 11
95.701321617175566
 21
616.92510322268936
 31
0.0
  0
LINE
  5
2D99
  8
AM_0
 10
93.701321617175523
 20
616.92510322268936
 30
0.0
 11
93.701321617175523
 21
601.92509559329471
 31
0.0
  0
LINE
  5
2D9A
  8
AM_0
 10
68.701321617175509
 20
611.42510322268924
 30
0.0
 11
86.701321617175481
 21
611.42510322268924
 31
0.0
  0
LINE
  5
2D9B
  8
AM_0
 10
68.701321617175509
 20
607.42510322268924
 30
0.0
 11
86.701321617175481
 21
607.42510322268924
 31
0.0
  0
LINE
  5
2D9C
  8
AM_0
 10
68.701321617175552
 20
615.42510322268924
 30
0.0
 11
93.701321617175523
 21
615.42510322268924
 31
0.0
  0
LINE
  5
2D9D
  8
AM_0
 10
68.701321617175552
 20
603.42510322268924
 30
0.0
 11
93.701321617175523
 21
603.42510322268924
 31
0.0
  0
LINE
  5
2D9E
  8
AM_0
 10
68.701321617175552
 20
615.42510322268924
 30
0.0
 11
68.701321617175552
 21
603.42510322268924
 31
0.0
  0
ARC
  5
2D9F
  8
AM_0
 10
86.701321617175509
 20
609.42510322268924
 30
0.0
 40
1.9999999999998861
 50
270.0
 51
90.0
  0
LINE
  5
2DA0
  8
AM_0
 10
86.701321617175509
 20
611.42510322268913
 30
0.0
 11
86.701321617175481
 21
607.42510322268924
 31
0.0
  0
ARC
  5
2DA1
  8
AM_0
 10
97.701321617175566
 20
623.59667609794315
 30
0.0
 40
2.0
 50
135.0
 51
180.0
1001
GENIUS_GENODEF_13
1002
{
1000
HIER
1070
     0
1002
}
1002
{
1000
MANEDIT
1070
     0
1002
}
1002
{
1000
NOSEL
1070
     0
1002
}
1002
{
1000
BEHIND
1070
     0
1002
}
1002
{
1000
OTHER
1070
     0
1002
}
1002
{
1000
REACTOR
1002
}
1001
GENIUS_GENOBJ-N-FIL_13
1002
{
1000
OWNER
1000
GEN
1002
}
  0
LINE
  5
2DA2
  8
AM_0
 10
97.701321617175324
 20
586.42510322268924
 30
0.0
 11
97.70132161717558
 21
632.42510322268924
 31
0.0
  0
LINE
  5
2DA3
  8
AM_0
 10
118.2013216171754
 20
634.42510322268913
 30
0.0
 11
118.2013216171754
 21
584.42510322268913
 31
0.0
  0
LINE
  5
2DA4
  8
AM_0
 10
95.701321617175566
 20
623.59667609794315
 30
0.0
 11
95.701321617175566
 21
595.25353034743546
 31
0.0
  0
LINE
  5
2DA5
  8
AM_0
 10
99.70132161717558
 20
584.42510322268924
 30
0.0
 11
114.0591859934446
 21
584.42510322268924
 31
0.0
  0
ARC
  5
2DA6
  8
AM_0
 10
95.701321617175566
 20
591.59667609794315
 30
0.0
 40
2.0
 50
0.0
 51
45.0
1001
GENIUS_GENODEF_13
1002
{
1000
HIER
1070
     0
1002
}
1002
{
1000
MANEDIT
1070
     0
1002
}
1002
{
1000
NOSEL
1070
     0
1002
}
1002
{
1000
BEHIND
1070
     0
1002
}
1002
{
1000
OTHER
1070
     0
1002
}
1002
{
1000
REACTOR
1002
}
1001
GENIUS_GENOBJ-N-FIL_13
1002
{
1000
OWNER
1000
GEN
1002
}
  0
ARC
  5
2DA7
  8
AM_0
 10
99.70132161717558
 20
586.42510322268924
 30
0.0
 40
2.0
 50
180.0
 51
270.0
1001
GENIUS_GENODEF_13
1002
{
1000
HIER
1070
     0
1002
}
1002
{
1000
MANEDIT
1070
     0
1002
}
1002
{
1000
NOSEL
1070
     0
1002
}
1002
{
1000
BEHIND
1070
     0
1002
}
1002
{
1000
OTHER
1070
     0
1002
}
1002
{
1000
REACTOR
1002
}
1001
GENIUS_GENOBJ-N-FIL_13
1002
{
1000
OWNER
1000
GEN
1002
}
  0
LINE
  5
2DA8
  8
AM_0
 10
96.287108054802474
 20
593.83931678506235
 30
0.0
 11
97.115535179548644
 21
593.01088966031625
 31
0.0
  0
ARC
  5
2DA9
  8
AM_0
 10
97.701321617175566
 20
595.25353034743546
 30
0.0
 40
2.0
 50
180.0
 51
225.0
1001
GENIUS_GENODEF_13
1002
{
1000
HIER
1070
     0
1002
}
1002
{
1000
MANEDIT
1070
     0
1002
}
1002
{
1000
NOSEL
1070
     0
1002
}
1002
{
1000
BEHIND
1070
     0
1002
}
1002
{
1000
OTHER
1070
     0
1002
}
1002
{
1000
REACTOR
1002
}
1001
GENIUS_GENOBJ-N-FIL_13
1002
{
1000
OWNER
1000
GEN
1002
}
  0
ARC
  5
2DAA
  8
AM_0
 10
114.0591859934445
 20
574.42510322268924
 30
0.0
 40
10.0
 50
45.0
 51
90.0
1001
GENIUS_GENOBJ-N-FIL_13
1002
{
1000
OWNER
1000
GEN
1002
}
1001
GENIUS_GENODEF_13
1002
{
1000
HIER
1070
     0
1002
}
1002
{
1000
MANEDIT
1070
     0
1002
}
1002
{
1000
NOSEL
1070
     0
1002
}
1002
{
1000
BEHIND
1070
     0
1002
}
1002
{
1000
OTHER
1070
     0
1002
}
1002
{
1000
REACTOR
1002
}
  0
LINE
  5
2DAB
  8
AM_0
 10
141.7368555231082
 20
657.96063712862201
 30
0.0
 11
121.13025380531001
 21
637.35403541082394
 31
0.0
  0
LINE
  5
2DAC
  8
AM_0
 10
99.70132161717558
 20
634.42510322268924
 30
0.0
 11
114.0591859934446
 21
634.42510322268924
 31
0.0
  0
ARC
  5
2DAD
  8
AM_0
 10
99.70132161717558
 20
632.42510322268924
 30
0.0
 40
2.0
 50
90.0
 51
180.0
1001
GENIUS_GENODEF_13
1002
{
1000
HIER
1070
     0
1002
}
1002
{
1000
MANEDIT
1070
     0
1002
}
1002
{
1000
NOSEL
1070
     0
1002
}
1002
{
1000
BEHIND
1070
     0
1002
}
1002
{
1000
OTHER
1070
     0
1002
}
1002
{
1000
REACTOR
1002
}
1001
GENIUS_GENOBJ-N-FIL_13
1002
{
1000
OWNER
1000
GEN
1002
}
  0
LINE
  5
2DAE
  8
AM_0
 10
96.287108054802474
 20
625.01088966031625
 30
0.0
 11
97.115535179548644
 21
625.83931678506224
 31
0.0
  0
ARC
  5
2DAF
  8
AM_0
 10
95.701321617175566
 20
627.25353034743534
 30
0.0
 40
2.0
 50
315.0
 51
0.0
1001
GENIUS_GENODEF_13
1002
{
1000
HIER
1070
     0
1002
}
1002
{
1000
MANEDIT
1070
     0
1002
}
1002
{
1000
NOSEL
1070
     0
1002
}
1002
{
1000
BEHIND
1070
     0
1002
}
1002
{
1000
OTHER
1070
     0
1002
}
1002
{
1000
REACTOR
1002
}
1001
GENIUS_GENOBJ-N-FIL_13
1002
{
1000
OWNER
1000
GEN
1002
}
  0
ARC
  5
2DB0
  8
AM_0
 10
114.0591859934446
 20
644.42510322268924
 30
0.0
 40
10.0
 50
270.0
 51
315.0
1001
GENIUS_GENODEF_13
1002
{
1000
HIER
1070
     0
1002
}
1002
{
1000
MANEDIT
1070
     0
1002
}
1002
{
1000
NOSEL
1070
     0
1002
}
1002
{
1000
BEHIND
1070
     0
1002
}
1002
{
1000
OTHER
1070
     0
1002
}
1002
{
1000
REACTOR
1002
}
1001
GENIUS_GENOBJ-N-FIL_13
1002
{
1000
OWNER
1000
GEN
1002
}
  0
LINE
  5
2DB1
  8
AM_0
 10
153.20132161717541
 20
641.3625422226894
 30
0.0
 11
143.20132161717561
 21
641.3625422226894
 31
0.0
  0
ARC
  5
2DB2
  8
AM_0
 10
144.20132161717541
 20
664.66372457672412
 30
0.0
 40
1.0
 50
91.660847232974191
 51
180.0
1001
GENIUS_GENOBJ-N-FIL_13
1002
{
1000
OWNER
1000
GEN
1002
}
1001
GENIUS_GENODEF_13
1002
{
1000
HIER
1070
     0
1002
}
1002
{
1000
MANEDIT
1070
     0
1002
}
1002
{
1000
NOSEL
1070
     0
1002
}
1002
{
1000
BEHIND
1070
     0
1002
}
1002
{
1000
OTHER
1070
     0
1002
}
1002
{
1000
REACTOR
1002
}
  0
LINE
  5
2DB3
  8
AM_0
 10
153.20132161717541
 20
655.42510822268923
 30
0.0
 11
143.20132161717561
 21
655.42510822268923
 31
0.0
  0
ARC
  5
2DB4
  8
AM_0
 10
138.20132161717541
 20
661.49617103455455
 30
0.0
 40
5.0
 50
315.0
 51
0.0
1001
GENIUS_GENODEF_13
1002
{
1000
HIER
1070
     0
1002
}
1002
{
1000
MANEDIT
1070
     0
1002
}
1002
{
1000
NOSEL
1070
     0
1002
}
1002
{
1000
BEHIND
1070
     0
1002
}
1002
{
1000
OTHER
1070
     0
1002
}
1002
{
1000
REACTOR
1002
}
1001
GENIUS_GENOBJ-N-FIL_13
1002
{
1000
OWNER
1000
GEN
1002
}
  0
LINE
  5
2DB5
  8
AM_0
 10
144.17233842389231
 20
665.66330447573523
 30
0.0
 11
153.20132161717541
 21
665.92510322268924
 31
0.0
  0
LINE
  5
2DB7
  8
ﾁｭｳｼﾝｾﾝ1
 10
253.70132161717561
 20
690.92510322268924
 30
0.0
 11
253.70132161717561
 21
717.92510322268924
 31
0.0
  0
LINE
  5
2DB8
  8
ﾁｭｳｼﾝｾﾝ1
 10
240.20132161717561
 20
704.42510322268936
 30
0.0
 11
267.20132161717561
 21
704.42510322268936
 31
0.0
  0
LINE
  5
2DB9
  8
ﾁｭｳｼﾝｾﾝ1
 10
253.70132161717561
 20
500.92513322268928
 30
0.0
 11
253.70132161717561
 21
527.9251332226894
 31
0.0
  0
LINE
  5
2DBA
  8
ﾁｭｳｼﾝｾﾝ1
 10
240.20132161717561
 20
514.42513322268906
 30
0.0
 11
267.20132161717561
 21
514.42513322268906
 31
0.0
  0
LINE
  5
2DBB
  8
ﾁｭｳｼﾝｾﾝ1
 10
378.70138161717551
 20
500.92513322268928
 30
0.0
 11
378.70138161717551
 21
527.9251332226894
 31
0.0
  0
LINE
  5
2DBC
  8
ﾁｭｳｼﾝｾﾝ1
 10
365.20138161717551
 20
514.42513322268906
 30
0.0
 11
392.20138161717551
 21
514.42513322268906
 31
0.0
  0
TEXT
  5
2F9F
  8
AM_0
 10
552.98172070065846
 20
599.34066678491058
 30
0.0
 40
15.0
  1
VX02-240G~VX02-600G
  0
ENDSEC
  0
EOF
